  0
SECTION
  2
HEADER
  9
$ACADVER
  1
AC1024
  9
$ACADMAINTVER
 70
     6
  9
$DWGCODEPAGE
  3
ANSI_1252
  9
$INSBASE
 10
0.0
 20
0.0
 30
0.0
  9
$EXTMIN
 10
82979.1267017107
 20
20597.67550145475
 30
0.0
  9
$EXTMAX
 10
83132.9065292244
 20
20747.30969820431
 30
0.0
  9
$LIMMIN
 10
0.0
 20
0.0
  9
$LIMMAX
 10
420.0
 20
297.0
  9
$ORTHOMODE
 70
     0
  9
$REGENMODE
 70
     1
  9
$FILLMODE
 70
     1
  9
$QTEXTMODE
 70
     0
  9
$MIRRTEXT
 70
     1
  9
$LTSCALE
 40
1.0
  9
$ATTMODE
 70
     1
  9
$TEXTSIZE
 40
2.5
  9
$TRACEWID
 40
1.0
  9
$TEXTSTYLE
  7
STANDARD
  9
$CLAYER
  8
0X-LIMITEXCAVATION
  9
$CELTYPE
  6
ByLayer
  9
$CECOLOR
 62
   256
  9
$CELTSCALE
 40
1.0
  9
$DISPSILH
 70
     0
  9
$DIMSCALE
 40
1.0
  9
$DIMASZ
 40
2.5
  9
$DIMEXO
 40
0.625
  9
$DIMDLI
 40
3.75
  9
$DIMRND
 40
0.0
  9
$DIMDLE
 40
0.0
  9
$DIMEXE
 40
1.25
  9
$DIMTP
 40
0.0
  9
$DIMTM
 40
0.0
  9
$DIMTXT
 40
2.5
  9
$DIMCEN
 40
2.5
  9
$DIMTSZ
 40
0.0
  9
$DIMTOL
 70
     0
  9
$DIMLIM
 70
     0
  9
$DIMTIH
 70
     0
  9
$DIMTOH
 70
     0
  9
$DIMSE1
 70
     0
  9
$DIMSE2
 70
     0
  9
$DIMTAD
 70
     1
  9
$DIMZIN
 70
     8
  9
$DIMBLK
  1

  9
$DIMASO
 70
     1
  9
$DIMSHO
 70
     1
  9
$DIMPOST
  1

  9
$DIMAPOST
  1

  9
$DIMALT
 70
     0
  9
$DIMALTD
 70
     3
  9
$DIMALTF
 40
0.03937007874016
  9
$DIMLFAC
 40
1.0
  9
$DIMTOFL
 70
     1
  9
$DIMTVP
 40
0.0
  9
$DIMTIX
 70
     0
  9
$DIMSOXD
 70
     0
  9
$DIMSAH
 70
     0
  9
$DIMBLK1
  1

  9
$DIMBLK2
  1

  9
$DIMSTYLE
  2
ISO-25
  9
$DIMCLRD
 70
     0
  9
$DIMCLRE
 70
     0
  9
$DIMCLRT
 70
     0
  9
$DIMTFAC
 40
1.0
  9
$DIMGAP
 40
0.625
  9
$DIMJUST
 70
     0
  9
$DIMSD1
 70
     0
  9
$DIMSD2
 70
     0
  9
$DIMTOLJ
 70
     1
  9
$DIMTZIN
 70
     0
  9
$DIMALTZ
 70
     0
  9
$DIMALTTZ
 70
     0
  9
$DIMUPT
 70
     0
  9
$DIMDEC
 70
     4
  9
$DIMTDEC
 70
     4
  9
$DIMALTU
 70
     2
  9
$DIMALTTD
 70
     2
  9
$DIMTXSTY
  7
STANDARD
  9
$DIMAUNIT
 70
     0
  9
$DIMADEC
 70
     0
  9
$DIMALTRND
 40
0.0
  9
$DIMAZIN
 70
     0
  9
$DIMDSEP
 70
    46
  9
$DIMATFIT
 70
     3
  9
$DIMFRAC
 70
     0
  9
$DIMLDRBLK
  1

  9
$DIMLUNIT
 70
     2
  9
$DIMLWD
 70
    -2
  9
$DIMLWE
 70
    -2
  9
$DIMTMOVE
 70
     2
  9
$DIMFXL
 40
1.0
  9
$DIMFXLON
 70
     0
  9
$DIMJOGANG
 40
0.7853981633974483
  9
$DIMTFILL
 70
     0
  9
$DIMTFILLCLR
 70
     0
  9
$DIMARCSYM
 70
     0
  9
$DIMLTYPE
  6

  9
$DIMLTEX1
  6

  9
$DIMLTEX2
  6

  9
$DIMTXTDIRECTION
 70
     0
  9
$LUNITS
 70
     2
  9
$LUPREC
 70
     4
  9
$SKETCHINC
 40
1.0
  9
$FILLETRAD
 40
10.0
  9
$AUNITS
 70
     0
  9
$AUPREC
 70
     0
  9
$MENU
  1
.
  9
$ELEVATION
 40
0.0
  9
$PELEVATION
 40
0.0
  9
$THICKNESS
 40
0.0
  9
$LIMCHECK
 70
     0
  9
$CHAMFERA
 40
10.0
  9
$CHAMFERB
 40
10.0
  9
$CHAMFERC
 40
0.0
  9
$CHAMFERD
 40
0.0
  9
$SKPOLY
 70
     0
  9
$TDCREATE
 40
2457766.609708808
  9
$TDUCREATE
 40
2457766.609708808
  9
$TDUPDATE
 40
2457766.609709144
  9
$TDUUPDATE
 40
2457766.609709144
  9
$TDINDWG
 40
0.0000000116
  9
$TDUSRTIMER
 40
0.0000000116
  9
$USRTIMER
 70
     1
  9
$ANGBASE
 50
0.0
  9
$ANGDIR
 70
     0
  9
$PDMODE
 70
    34
  9
$PDSIZE
 40
0.05
  9
$PLINEWID
 40
0.0
  9
$SPLFRAME
 70
     0
  9
$SPLINETYPE
 70
     6
  9
$SPLINESEGS
 70
     8
  9
$HANDSEED
  5
DE5
  9
$SURFTAB1
 70
     6
  9
$SURFTAB2
 70
     6
  9
$SURFTYPE
 70
     6
  9
$SURFU
 70
     6
  9
$SURFV
 70
     6
  9
$UCSBASE
  2

  9
$UCSNAME
  2

  9
$UCSORG
 10
0.0
 20
0.0
 30
0.0
  9
$UCSXDIR
 10
1.0
 20
0.0
 30
0.0
  9
$UCSYDIR
 10
0.0
 20
1.0
 30
0.0
  9
$UCSORTHOREF
  2

  9
$UCSORTHOVIEW
 70
     0
  9
$UCSORGTOP
 10
0.0
 20
0.0
 30
0.0
  9
$UCSORGBOTTOM
 10
0.0
 20
0.0
 30
0.0
  9
$UCSORGLEFT
 10
0.0
 20
0.0
 30
0.0
  9
$UCSORGRIGHT
 10
0.0
 20
0.0
 30
0.0
  9
$UCSORGFRONT
 10
0.0
 20
0.0
 30
0.0
  9
$UCSORGBACK
 10
0.0
 20
0.0
 30
0.0
  9
$PUCSBASE
  2

  9
$PUCSNAME
  2

  9
$PUCSORG
 10
0.0
 20
0.0
 30
0.0
  9
$PUCSXDIR
 10
1.0
 20
0.0
 30
0.0
  9
$PUCSYDIR
 10
0.0
 20
1.0
 30
0.0
  9
$PUCSORTHOREF
  2

  9
$PUCSORTHOVIEW
 70
     0
  9
$PUCSORGTOP
 10
0.0
 20
0.0
 30
0.0
  9
$PUCSORGBOTTOM
 10
0.0
 20
0.0
 30
0.0
  9
$PUCSORGLEFT
 10
0.0
 20
0.0
 30
0.0
  9
$PUCSORGRIGHT
 10
0.0
 20
0.0
 30
0.0
  9
$PUCSORGFRONT
 10
0.0
 20
0.0
 30
0.0
  9
$PUCSORGBACK
 10
0.0
 20
0.0
 30
0.0
  9
$USERI1
 70
     0
  9
$USERI2
 70
     0
  9
$USERI3
 70
     0
  9
$USERI4
 70
     0
  9
$USERI5
 70
     0
  9
$USERR1
 40
0.0
  9
$USERR2
 40
0.0
  9
$USERR3
 40
0.0
  9
$USERR4
 40
0.0
  9
$USERR5
 40
0.0
  9
$WORLDVIEW
 70
     1
  9
$SHADEDGE
 70
     3
  9
$SHADEDIF
 70
    70
  9
$TILEMODE
 70
     1
  9
$MAXACTVP
 70
    48
  9
$PINSBASE
 10
0.0
 20
0.0
 30
0.0
  9
$PLIMCHECK
 70
     0
  9
$PEXTMIN
 10
1.049999952316284
 20
0.7999999523162842
 30
0.0
  9
$PEXTMAX
 10
9.449999570846556
 20
7.199999570846557
 30
0.0
  9
$PLIMMIN
 10
-0.2500002402958907
 20
-0.2499999962453767
  9
$PLIMMAX
 10
10.74999951940822
 20
8.249999763458732
  9
$UNITMODE
 70
     0
  9
$VISRETAIN
 70
     1
  9
$PLINEGEN
 70
     0
  9
$PSLTSCALE
 70
     1
  9
$TREEDEPTH
 70
  3020
  9
$CMLSTYLE
  2
Standard
  9
$CMLJUST
 70
     0
  9
$CMLSCALE
 40
1.0
  9
$PROXYGRAPHICS
 70
     1
  9
$MEASUREMENT
 70
     0
  9
$CELWEIGHT
370
    -1
  9
$ENDCAPS
280
     0
  9
$JOINSTYLE
280
     0
  9
$LWDISPLAY
290
     0
  9
$INSUNITS
 70
     0
  9
$HYPERLINKBASE
  1

  9
$STYLESHEET
  1

  9
$XEDIT
290
     1
  9
$CEPSNTYPE
380
     0
  9
$PSTYLEMODE
290
     1
  9
$FINGERPRINTGUID
  2
{92911B5D-93AB-4F07-BB97-1C05636ADD69}
  9
$VERSIONGUID
  2
{FAEB1C32-E019-11D5-929B-00C0DF256EC4}
  9
$EXTNAMES
290
     1
  9
$PSVPSCALE
 40
0.0
  9
$OLESTARTUP
290
     0
  9
$SORTENTS
280
   127
  9
$INDEXCTL
280
     0
  9
$HIDETEXT
280
     1
  9
$XCLIPFRAME
280
     2
  9
$HALOGAP
280
     0
  9
$OBSCOLOR
 70
   257
  9
$OBSLTYPE
280
     0
  9
$INTERSECTIONDISPLAY
280
     0
  9
$INTERSECTIONCOLOR
 70
   257
  9
$DIMASSOC
280
     2
  9
$PROJECTNAME
  1

  9
$CAMERADISPLAY
290
     0
  9
$LENSLENGTH
 40
50.0
  9
$CAMERAHEIGHT
 40
0.0
  9
$STEPSPERSEC
 40
2.0
  9
$STEPSIZE
 40
6.0
  9
$3DDWFPREC
 40
2.0
  9
$PSOLWIDTH
 40
0.25
  9
$PSOLHEIGHT
 40
4.0
  9
$LOFTANG1
 40
1.570796326794897
  9
$LOFTANG2
 40
1.570796326794897
  9
$LOFTMAG1
 40
0.0
  9
$LOFTMAG2
 40
0.0
  9
$LOFTPARAM
 70
     7
  9
$LOFTNORMALS
280
     1
  9
$LATITUDE
 40
37.795
  9
$LONGITUDE
 40
-122.394
  9
$NORTHDIRECTION
 40
0.0
  9
$TIMEZONE
 70
 -8000
  9
$LIGHTGLYPHDISPLAY
280
     1
  9
$TILEMODELIGHTSYNCH
280
     1
  9
$SOLIDHIST
280
     1
  9
$SHOWHIST
280
     1
  9
$DWFFRAME
280
     2
  9
$DGNFRAME
280
     2
  9
$REALWORLDSCALE
290
     1
  9
$INTERFERECOLOR
 62
   256
  9
$CSHADOW
280
     0
  9
$SHADOWPLANELOCATION
 40
0.0
  0
ENDSEC
  0
SECTION
  2
CLASSES
  0
CLASS
  1
ACDBDICTIONARYWDFLT
  2
AcDbDictionaryWithDefault
  3
ObjectDBX Classes
 90
        0
 91
        4
280
     0
281
     0
  0
CLASS
  1
SCALE
  2
AcDbScale
  3
ObjectDBX Classes
 90
     1153
 91
        4
280
     0
281
     0
  0
CLASS
  1
VISUALSTYLE
  2
AcDbVisualStyle
  3
ObjectDBX Classes
 90
     4095
 91
        4
280
     0
281
     0
  0
CLASS
  1
MATERIAL
  2
AcDbMaterial
  3
ObjectDBX Classes
 90
     1153
 91
        4
280
     0
281
     0
  0
CLASS
  1
DICTIONARYVAR
  2
AcDbDictionaryVar
  3
ObjectDBX Classes
 90
        0
 91
        4
280
     0
281
     0
  0
ENDSEC
  0
SECTION
  2
TABLES
  0
TABLE
  2
VPORT
  5
D40
330
0
100
AcDbSymbolTable
 70
     1
  0
VPORT
  5
D61
330
D40
100
AcDbSymbolTableRecord
100
AcDbViewportTableRecord
  2
*ACTIVE
 70
     0
 10
0.0
 20
0.0
 11
1.0
 21
1.0
 12
83050.13596379623
 22
20681.34625499019
 13
0.0
 23
0.0
 14
10.0
 24
10.0
 15
10.0
 25
10.0
 16
0.0
 26
0.0
 36
1.0
 17
0.0
 27
0.0
 37
0.0
 40
222.0542201329294
 41
0.7881873727087577
 42
50.0
 43
0.0
 44
0.0
 50
0.0
 51
0.0
 71
     0
 72
   100
 73
     1
 74
     3
 75
     0
 76
     0
 77
     0
 78
     0
281
     0
 65
     0
110
0.0
120
0.0
130
0.0
111
1.0
121
0.0
131
0.0
112
0.0
122
1.0
132
0.0
 79
     0
146
0.0
348
D97
 60
     3
 61
     5
292
     1
282
     1
141
0.0
142
0.0
 63
   256
  0
ENDTAB
  0
TABLE
  2
LTYPE
  5
D3D
330
0
100
AcDbSymbolTable
 70
     3
  0
LTYPE
  5
D48
330
D3D
100
AcDbSymbolTableRecord
100
AcDbLinetypeTableRecord
  2
ByBlock
 70
     0
  3

 72
    65
 73
     0
 40
0.0
  0
LTYPE
  5
D49
330
D3D
100
AcDbSymbolTableRecord
100
AcDbLinetypeTableRecord
  2
ByLayer
 70
     0
  3

 72
    65
 73
     0
 40
0.0
  0
LTYPE
  5
D55
330
D3D
100
AcDbSymbolTableRecord
100
AcDbLinetypeTableRecord
  2
CONTINUOUS
 70
     0
  3
Solid line
 72
    65
 73
     0
 40
0.0
  0
LTYPE
  5
D56
330
D3D
100
AcDbSymbolTableRecord
100
AcDbLinetypeTableRecord
  2
DASHDOT
 70
     0
  3
Dash dot __ . __ . __ . __ . __ . __ . __ . __
 72
    65
 73
     4
 40
25.4
 49
12.7
 74
     0
 49
-6.35
 74
     0
 49
0.0
 74
     0
 49
-6.35
 74
     0
  0
LTYPE
  5
D57
330
D3D
100
AcDbSymbolTableRecord
100
AcDbLinetypeTableRecord
  2
DASHDOT2
 70
     0
  3
Dash dot (.5x) _._._._._._._._._._._._._._._.
 72
    65
 73
     4
 40
12.7
 49
6.35
 74
     0
 49
-3.175
 74
     0
 49
0.0
 74
     0
 49
-3.175
 74
     0
  0
ENDTAB
  0
TABLE
  2
LAYER
  5
D3A
330
0
100
AcDbSymbolTable
 70
     9
  0
LAYER
  5
D58
330
D3A
100
AcDbSymbolTableRecord
100
AcDbLayerTableRecord
  2
0
 70
     0
 62
     7
  6
CONTINUOUS
370
    -3
390
D47
347
DAE
  0
LAYER
  5
D59
330
D3A
100
AcDbSymbolTableRecord
100
AcDbLayerTableRecord
  2
0X-ARCHAEOLOGY
 70
     0
 62
     7
  6
CONTINUOUS
370
    -3
390
D47
347
DAE
  0
LAYER
  5
D5A
330
D3A
100
AcDbSymbolTableRecord
100
AcDbLayerTableRecord
  2
0X-EXTRAPOLATED
 70
     0
 62
     3
  6
CONTINUOUS
370
    -3
390
D47
347
DAE
  0
LAYER
  5
D5B
330
D3A
100
AcDbSymbolTableRecord
100
AcDbLayerTableRecord
  2
0X-HACHURES
 70
     0
 62
     5
  6
CONTINUOUS
370
    -3
390
D47
347
DAE
  0
LAYER
  5
D5C
330
D3A
100
AcDbSymbolTableRecord
100
AcDbLayerTableRecord
  2
0X-RASTER
 70
     0
 62
    -6
  6
CONTINUOUS
370
    -3
390
D47
347
DAE
  0
LAYER
  5
D5D
330
D3A
100
AcDbSymbolTableRecord
100
AcDbLayerTableRecord
  2
0X-SECTION
 70
     0
 62
     4
  6
CONTINUOUS
370
    -3
390
D47
347
DAE
  0
LAYER
  5
D5E
330
D3A
100
AcDbSymbolTableRecord
100
AcDbLayerTableRecord
  2
0X-LIMITEXCAVATION
 70
     0
 62
     7
  6
DASHDOT2
370
    -3
390
D47
347
DAE
  0
LAYER
  5
D5F
330
D3A
100
AcDbSymbolTableRecord
100
AcDbLayerTableRecord
  2
0X-EVALUATION
 70
     0
 62
     1
  6
DASHDOT
370
    -3
390
D47
347
DAE
  0
LAYER
  5
D60
330
D3A
100
AcDbSymbolTableRecord
100
AcDbLayerTableRecord
  2
0X-CREMATIONS
 70
     0
 62
     7
  6
CONTINUOUS
370
    -3
390
D47
347
DAE
  0
ENDTAB
  0
TABLE
  2
STYLE
  5
D3B
330
0
100
AcDbSymbolTable
 70
     2
  0
STYLE
  5
D66
330
D3B
100
AcDbSymbolTableRecord
100
AcDbTextStyleTableRecord
  2
STANDARD
 70
     0
 40
0.0
 41
1.0
 50
0.0
 71
     0
 42
2.5
  3
txt
  4

  0
STYLE
  5
D67
330
D3B
100
AcDbSymbolTableRecord
100
AcDbTextStyleTableRecord
  2

 70
     1
 40
0.0
 41
1.0
 50
0.0
 71
     0
 42
2.5
  3
ltypeshp.shx
  4

  0
ENDTAB
  0
TABLE
  2
VIEW
  5
D3E
330
0
100
AcDbSymbolTable
 70
     0
  0
ENDTAB
  0
TABLE
  2
UCS
  5
D3F
330
0
100
AcDbSymbolTable
 70
     0
  0
ENDTAB
  0
TABLE
  2
APPID
  5
D41
330
0
100
AcDbSymbolTable
 70
     4
  0
APPID
  5
D62
330
D41
100
AcDbSymbolTableRecord
100
AcDbRegAppTableRecord
  2
ACAD
 70
     0
  0
APPID
  5
D63
330
D41
100
AcDbSymbolTableRecord
100
AcDbRegAppTableRecord
  2
IRD
 70
     0
  0
APPID
  5
D64
330
D41
100
AcDbSymbolTableRecord
100
AcDbRegAppTableRecord
  2
ADE
 70
     0
  0
APPID
  5
D65
330
D41
100
AcDbSymbolTableRecord
100
AcDbRegAppTableRecord
  2
DCO15
 70
     0
  0
ENDTAB
  0
TABLE
  2
DIMSTYLE
  5
D42
330
0
100
AcDbSymbolTable
 70
     1
100
AcDbDimStyleTable
  0
DIMSTYLE
105
D68
330
D42
100
AcDbSymbolTableRecord
100
AcDbDimStyleTableRecord
  2
ISO-25
 70
     0
 41
2.5
 42
0.625
 43
3.75
 44
1.25
 73
     0
 74
     0
 77
     1
 78
     8
140
2.5
141
2.5
143
0.03937007874016
147
0.625
171
     3
172
     1
178
     0
340
D66
  0
ENDTAB
  0
TABLE
  2
BLOCK_RECORD
  5
D39
330
0
100
AcDbSymbolTable
 70
     2
  0
BLOCK_RECORD
  5
D50
330
D39
100
AcDbSymbolTableRecord
100
AcDbBlockTableRecord
  2
*Model_Space
340
D51
 70
     0
280
     1
281
     0
  0
BLOCK_RECORD
  5
D4E
330
D39
100
AcDbSymbolTableRecord
100
AcDbBlockTableRecord
  2
*Paper_Space
340
D4F
 70
     0
280
     1
281
     0
  0
BLOCK_RECORD
  5
D53
330
D39
100
AcDbSymbolTableRecord
100
AcDbBlockTableRecord
  2
*PAPER_SPACE0
340
0
 70
     0
280
     1
281
     0
  0
BLOCK_RECORD
  5
D54
330
D39
100
AcDbSymbolTableRecord
100
AcDbBlockTableRecord
  2
ADE_CLEAN_OMARK
340
0
 70
     0
280
     1
281
     0
  0
ENDTAB
  0
ENDSEC
  0
SECTION
  2
BLOCKS
  0
BLOCK
  5
D6E
330
D50
100
AcDbEntity
  8
0
100
AcDbBlockBegin
  2
*Model_Space
 70
     0
 10
0.0
 20
0.0
 30
0.0
  3
*Model_Space
  1
*Model_Space
  0
ENDBLK
  5
D6F
330
D50
100
AcDbEntity
  8
0
100
AcDbBlockEnd
  0
BLOCK
  5
D6C
330
D4E
100
AcDbEntity
 67
     1
  8
0
100
AcDbBlockBegin
  2
*Paper_Space
 70
     0
 10
0.0
 20
0.0
 30
0.0
  3
*Paper_Space
  1
*Paper_Space
  0
ENDBLK
  5
D6D
330
D4E
100
AcDbEntity
 67
     1
  8
0
100
AcDbBlockEnd
  0
BLOCK
  5
1C
330
D53
100
AcDbEntity
  8
0
100
AcDbBlockBegin
  2
*PAPER_SPACE0
 70
     0
 10
0.0
 20
0.0
 30
0.0
  3
*PAPER_SPACE0
  1
*PAPER_SPACE0
  0
ENDBLK
  5
1D
330
D53
100
AcDbEntity
  8
0
100
AcDbBlockEnd
  0
BLOCK
  5
572
330
D54
100
AcDbEntity
  8
0
100
AcDbBlockBegin
  2
ADE_CLEAN_OMARK
 70
     0
 10
0.0
 20
0.0
 30
0.0
  3
ADE_CLEAN_OMARK
  1
ADE_CLEAN_OMARK
  0
LWPOLYLINE
  5
573
330
D54
100
AcDbEntity
  8
0X-CREMATIONS
 62
     0
100
AcDbPolyline
 90
        8
 70
     1
 43
0.0
 10
1.0
 20
0.0
 10
0.7071067811865
 20
0.7071067811865
 10
0.0
 20
1.0
 10
-0.7071067811865
 20
0.7071067811865
 10
-1.0
 20
0.0
 10
-0.7071067811865
 20
-0.7071067811865
 10
0.0
 20
-1.0
 10
0.7071067811865
 20
-0.7071067811865
  0
ENDBLK
  5
57D
330
D54
100
AcDbEntity
  8
0
100
AcDbBlockEnd
  0
ENDSEC
  0
SECTION
  2
ENTITIES
  0
LWPOLYLINE
  5
3E
330
D50
100
AcDbEntity
  8
0X-RASTER
100
AcDbPolyline
 90
        4
 70
   129
 43
0.0
 10
-82979.1267017107
 20
20638.41802929013
 10
-83038.15871442005
 20
20700.37737890836
 10
-83080.92162238511
 20
20659.63485107298
 10
-83021.88960967577
 20
20597.67550145475
210
0.0
220
0.0
230
-1.0
  0
LWPOLYLINE
  5
3F
330
D50
100
AcDbEntity
  8
0X-ARCHAEOLOGY
100
AcDbPolyline
 90
        2
 70
     0
 43
0.0
 10
83010.51973115689
 20
20657.37938294684
 10
83010.69193078767
 20
20657.33766158461
1001
IRD
1002
{
1000
TPMLINK_arcbhb-_-ade
1070
   515
1071
        1
1002
}
  0
POINT
  5
40
330
D50
100
AcDbEntity
  8
0X-ARCHAEOLOGY
100
AcDbPoint
 10
83010.51973115689
 20
20657.37938294684
 30
0.0
1001
IRD
1002
{
1000
TPMNODE_arcbhb-_-ade
1070
   515
1071
        1
1004
0100150200000000000000000000
1002
}
  0
POINT
  5
41
330
D50
100
AcDbEntity
  8
0X-ARCHAEOLOGY
100
AcDbPoint
 10
83011.1936861542
 20
20656.71512901229
 30
0.0
1001
IRD
1002
{
1000
TPMCNTR_arcbhb-_-ade
1070
   515
1071
        3
1004
01005D020000000000001942ED3F6BB178F324360E4004000000
1002
}
  0
POINT
  5
4E
330
D50
100
AcDbEntity
  8
0X-ARCHAEOLOGY
100
AcDbPoint
 10
83010.69193078767
 20
20657.33766158461
 30
0.0
1001
IRD
1002
{
1000
TPMNODE_arcbhb-_-ade
1070
   515
1071
        1
1004
0100160200000000000000000000
1002
}
  0
LWPOLYLINE
  5
4F
330
D50
100
AcDbEntity
  8
0X-ARCHAEOLOGY
100
AcDbPolyline
 90
        5
 70
     0
 43
0.0
 10
83010.69193078767
 20
20657.33766158461
 10
83010.90865891296
 20
20657.28515164262
 10
83011.27990815138
 20
20657.22625698781
 10
83011.58633615842
 20
20657.13202568358
 10
83011.7227950245
 20
20657.08151441461
1001
IRD
1002
{
1000
TPMLINK_arcbhb-_-ade
1070
   515
1071
        1
1002
}
  0
POINT
  5
50
330
D50
100
AcDbEntity
  8
0X-ARCHAEOLOGY
100
AcDbPoint
 10
83011.7227950245
 20
20657.08151441461
 30
0.0
1001
IRD
1002
{
1000
TPMNODE_arcbhb-_-ade
1070
   515
1071
        1
1004
0100170200000000000000000000
1002
}
  0
LWPOLYLINE
  5
51
330
D50
100
AcDbEntity
  8
0X-ARCHAEOLOGY
100
AcDbPolyline
 90
        4
 70
     0
 43
0.0
 10
83011.7227950245
 20
20657.08151441461
 10
83011.745443185
 20
20657.07313102877
 10
83012.240442047
 20
20656.98478904655
 10
83012.60579881394
 20
20656.87288929805
1001
IRD
1002
{
1000
TPMLINK_arcbhb-_-ade
1070
   515
1071
        1
1002
}
  0
POINT
  5
52
330
D50
100
AcDbEntity
  8
0X-ARCHAEOLOGY
100
AcDbPoint
 10
83011.57455047999
 20
20656.27805366704
 30
0.0
1001
IRD
1002
{
1000
TPMNODE_arcbhb-_-ade
1070
   515
1071
        1
1004
01001B0200000000000000000000
1002
}
  0
LWPOLYLINE
  5
53
330
D50
100
AcDbEntity
  8
0X-ARCHAEOLOGY
100
AcDbPolyline
 90
        4
 70
     0
 43
0.0
 10
83011.57455047999
 20
20656.27805366704
 10
83011.09723013565
 20
20656.34283764386
 10
83010.70830237957
 20
20656.45473763148
 10
83010.54919535297
 20
20656.51363204717
1001
IRD
1002
{
1000
TPMLINK_arcbhb-_-ade
1070
   515
1071
        1
1002
}
  0
POINT
  5
54
330
D50
100
AcDbEntity
  8
0X-ARCHAEOLOGY
100
AcDbPoint
 10
83010.54919535297
 20
20656.51363204717
 30
0.0
1001
IRD
1002
{
1000
TPMNODE_arcbhb-_-ade
1070
   515
1071
        1
1004
01001A0200000000000000000000
1002
}
  0
POINT
  5
56
330
D50
100
AcDbEntity
  8
0X-ARCHAEOLOGY
100
AcDbPoint
 10
83012.60579881394
 20
20656.87288929805
 30
0.0
1001
IRD
1002
{
1000
TPMNODE_arcbhb-_-ade
1070
   515
1071
        1
1004
0100180200000000000000000000
1002
}
  0
LWPOLYLINE
  5
57
330
D50
100
AcDbEntity
  8
0X-ARCHAEOLOGY
100
AcDbPolyline
 90
        3
 70
     0
 43
0.0
 10
83012.60579881394
 20
20656.87288929805
 10
83012.48204882264
 20
20656.46062695349
 10
83012.44079894811
 20
20656.04247528691
1001
IRD
1002
{
1000
TPMLINK_arcbhb-_-ade
1070
   515
1071
        1
1002
}
  0
POINT
  5
58
330
D50
100
AcDbEntity
  8
0X-ARCHAEOLOGY
100
AcDbPoint
 10
83012.44079894811
 20
20656.04247528691
 30
0.0
1001
IRD
1002
{
1000
TPMNODE_arcbhb-_-ade
1070
   515
1071
        1
1004
01001C0200000000000000000000
1002
}
  0
LWPOLYLINE
  5
59
330
D50
100
AcDbEntity
  8
0X-ARCHAEOLOGY
100
AcDbPolyline
 90
        4
 70
     0
 43
0.0
 10
83012.44079894811
 20
20656.04247528691
 10
83011.969371443
 20
20656.17793280169
 10
83011.7100861497
 20
20656.22504857336
 10
83011.57455047999
 20
20656.27805366704
1001
IRD
1002
{
1000
TPMLINK_arcbhb-_-ade
1070
   515
1071
        1
1002
}
  0
LWPOLYLINE
  5
5C
330
D50
100
AcDbEntity
  8
0X-ARCHAEOLOGY
100
AcDbPolyline
 90
        4
 70
     0
 43
0.0
 10
83010.54919535297
 20
20656.51363204717
 10
83010.27812438125
 20
20656.54307937458
 10
83009.9363393389
 20
20656.59019514625
 10
83009.74187564474
 20
20656.6314213568
1001
IRD
1002
{
1000
TPMLINK_arcbhb-_-ade
1070
   515
1071
        1
1002
}
  0
LWPOLYLINE
  5
5D
330
D50
100
AcDbEntity
  8
0X-ARCHAEOLOGY
100
AcDbPolyline
 90
        6
 70
     0
 43
0.0
 10
83010.69193078767
 20
20657.33766158461
 10
83010.66115966583
 20
20657.13202568358
 10
83010.64348114817
 20
20656.98478904655
 10
83010.60812374514
 20
20656.85522085378
 10
83010.5904452275
 20
20656.70798445588
 10
83010.54919535297
 20
20656.51363204717
1001
IRD
1002
{
1000
TPMLINK_arcbhb-_-ade
1070
   515
1071
        1
1002
}
  0
POINT
  5
5E
330
D50
100
AcDbEntity
  8
0X-ARCHAEOLOGY
100
AcDbPoint
 10
83010.37258690914
 20
20656.94922725346
 30
0.0
1001
IRD
1002
{
1000
TPMCNTR_arcbhb-_-ade
1070
   515
1071
        3
1004
01005C0200000000008018A7DB3F34F5C6D13D48074004000000
1002
}
  0
LWPOLYLINE
  5
5F
330
D50
100
AcDbEntity
  8
0X-ARCHAEOLOGY
100
AcDbPolyline
 90
        5
 70
     0
 43
0.0
 10
83011.7227950245
 20
20657.08151441461
 10
83011.68062195362
 20
20656.85522085378
 10
83011.66294343596
 20
20656.67853712847
 10
83011.60990751529
 20
20656.43117962608
 10
83011.57455047999
 20
20656.27805366704
1001
IRD
1002
{
1000
TPMLINK_arcbhb-_-ade
1070
   515
1071
        1
1002
}
  0
POINT
  5
60
330
D50
100
AcDbEntity
  8
0X-ARCHAEOLOGY
100
AcDbPoint
 10
83012.07605599925
 20
20656.56525899218
 30
0.0
1001
IRD
1002
{
1000
TPMCNTR_arcbhb-_-ade
1070
   515
1071
        3
1004
01005B02000000000000F19FE73F8AF0CA6A34D10B4004000000
1002
}
  0
LWPOLYLINE
  5
61
330
D50
100
AcDbEntity
  8
0X-HACHURES
100
AcDbPolyline
 90
        5
 70
     0
 43
0.0
 10
83010.65262708481
 20
20657.06096155032
 10
83010.90276607375
 20
20657.00245749082
 10
83011.1797298847
 20
20656.943562836
 10
83011.37419394658
 20
20656.88466818119
 10
83011.67402885454
 20
20656.78932769859
  0
LWPOLYLINE
  5
62
330
D50
100
AcDbEntity
  8
0X-HACHURES
100
AcDbPolyline
 90
        6
 70
     0
 43
0.0
 10
83010.60184992675
 20
20656.8029690508
 10
83010.83794484235
 20
20656.72565266102
 10
83011.10312297486
 20
20656.69031601161
 10
83011.31526555441
 20
20656.60786359052
 10
83011.53330060546
 20
20656.59608470738
 10
83011.6377622378
 20
20656.5610929849
  0
LWPOLYLINE
  5
64
330
D50
100
AcDbEntity
  8
0X-ARCHAEOLOGY
100
AcDbPolyline
 90
        3
 70
     0
 43
0.0
 10
83006.96786745722
 20
20646.58771340154
 10
83006.62974093952
 20
20646.7388936294
 10
83006.53011286707
 20
20646.78725666985
1001
IRD
1002
{
1000
TPMLINK_arcbhb-_-ade
1070
   515
1071
        1
1002
}
  0
POINT
  5
65
330
D50
100
AcDbEntity
  8
0X-ARCHAEOLOGY
100
AcDbPoint
 10
83006.96786745722
 20
20646.58771340154
 30
0.0
1001
IRD
1002
{
1000
TPMNODE_arcbhb-_-ade
1070
   515
1071
        1
1004
0100320200000000000000000000
1002
}
  0
POINT
  5
66
330
D50
100
AcDbEntity
  8
0X-ARCHAEOLOGY
100
AcDbPoint
 10
83005.9743370749
 20
20646.8282297174
 30
0.0
1001
IRD
1002
{
1000
TPMCNTR_arcbhb-_-ade
1070
   515
1071
        3
1004
01005A02000000000080F2A2D93F84909E581A82094004000000
1002
}
  0
POINT
  5
67
330
D50
100
AcDbEntity
  8
0X-ARCHAEOLOGY
100
AcDbPoint
 10
83004.9738954855
 20
20647.3028541635
 30
0.0
1001
IRD
1002
{
1000
TPMNODE_arcbhb-_-ade
1070
   515
1071
        1
1004
01002D0200000000000000000000
1002
}
  0
LWPOLYLINE
  5
68
330
D50
100
AcDbEntity
  8
0X-ARCHAEOLOGY
100
AcDbPolyline
 90
        3
 70
     0
 43
0.0
 10
83004.9738954855
 20
20647.3028541635
 10
83004.95690380617
 20
20647.30804307418
 10
83004.03150483823
 20
20647.58372475056
1001
IRD
1002
{
1000
TPMLINK_arcbhb-_-ade
1070
   515
1071
        1
1002
}
  0
POINT
  5
69
330
D50
100
AcDbEntity
  8
0X-ARCHAEOLOGY
100
AcDbPoint
 10
83004.87071246903
 20
20646.97070531338
 30
0.0
1001
IRD
1002
{
1000
TPMNODE_arcbhb-_-ade
1070
   515
1071
        1
1004
01002E0200000000000000000000
1002
}
  0
LWPOLYLINE
  5
6A
330
D50
100
AcDbEntity
  8
0X-ARCHAEOLOGY
100
AcDbPolyline
 90
        5
 70
     0
 43
0.0
 10
83004.87071246903
 20
20646.97070531338
 10
83005.01029237789
 20
20646.93453872863
 10
83005.40180746731
 20
20646.86339507792
 10
83005.81111837956
 20
20646.72110777651
 10
83006.00513322966
 20
20646.65366314254
1001
IRD
1002
{
1000
TPMLINK_arcbhb-_-ade
1070
   515
1071
        1
1002
}
  0
POINT
  5
6B
330
D50
100
AcDbEntity
  8
0X-ARCHAEOLOGY
100
AcDbPoint
 10
83006.21153174812
 20
20646.96121774709
 30
0.0
1001
IRD
1002
{
1000
TPMNODE_arcbhb-_-ade
1070
   515
1071
        1
1004
01002F0200000000000000000000
1002
}
  0
LWPOLYLINE
  5
6C
330
D50
100
AcDbEntity
  8
0X-ARCHAEOLOGY
100
AcDbPolyline
 90
        6
 70
     0
 43
0.0
 10
83006.21153174812
 20
20646.96121774709
 10
83005.98907991755
 20
20646.98789652644
 10
83005.68654541328
 20
20647.11239797495
 10
83005.41960365788
 20
20647.18354162566
 10
83005.27723450102
 20
20647.21022064413
 10
83004.9738954855
 20
20647.3028541635
1001
IRD
1002
{
1000
TPMLINK_arcbhb-_-ade
1070
   515
1071
        1
1002
}
  0
POINT
  5
6D
330
D50
100
AcDbEntity
  8
0X-ARCHAEOLOGY
100
AcDbPoint
 10
83006.00513322966
 20
20646.65366314254
 30
0.0
1001
IRD
1002
{
1000
TPMNODE_arcbhb-_-ade
1070
   515
1071
        1
1004
0100310200000000000000000000
1002
}
  0
LWPOLYLINE
  5
6E
330
D50
100
AcDbEntity
  8
0X-ARCHAEOLOGY
100
AcDbPolyline
 90
        4
 70
     0
 43
0.0
 10
83006.00513322966
 20
20646.65366314254
 10
83006.01577401954
 20
20646.6499641258
 10
83006.30051233326
 20
20646.53435560373
 10
83006.42136291938
 20
20646.49984670448
1001
IRD
1002
{
1000
TPMLINK_arcbhb-_-ade
1070
   515
1071
        1
1002
}
  0
POINT
  5
6F
330
D50
100
AcDbEntity
  8
0X-ARCHAEOLOGY
100
AcDbPoint
 10
83006.53011286707
 20
20646.78725666985
 30
0.0
1001
IRD
1002
{
1000
TPMNODE_arcbhb-_-ade
1070
   515
1071
        1
1004
0100300200000000000000000000
1002
}
  0
LWPOLYLINE
  5
70
330
D50
100
AcDbEntity
  8
0X-ARCHAEOLOGY
100
AcDbPolyline
 90
        3
 70
     0
 43
0.0
 10
83006.53011286707
 20
20646.78725666985
 10
83006.31830852383
 20
20646.89007409639
 10
83006.21153174812
 20
20646.96121774709
1001
IRD
1002
{
1000
TPMLINK_arcbhb-_-ade
1070
   515
1071
        1
1002
}
  0
POINT
  5
71
330
D50
100
AcDbEntity
  8
0X-ARCHAEOLOGY
100
AcDbPoint
 10
83006.42136291938
 20
20646.49984670448
 30
0.0
1001
IRD
1002
{
1000
TPMNODE_arcbhb-_-ade
1070
   515
1071
        1
1004
0100330200000000000000000000
1002
}
  0
LWPOLYLINE
  5
72
330
D50
100
AcDbEntity
  8
0X-ARCHAEOLOGY
100
AcDbPolyline
 90
        4
 70
     0
 43
0.0
 10
83006.42136291938
 20
20646.49984670448
 10
83006.54965826581
 20
20646.46321195303
 10
83006.78990591923
 20
20646.34760343096
 10
83006.96786745722
 20
20646.58771340154
1001
IRD
1002
{
1000
TPMLINK_arcbhb-_-ade
1070
   515
1071
        1
1002
}
  0
LWPOLYLINE
  5
73
330
D50
100
AcDbEntity
  8
0X-ARCHAEOLOGY
100
AcDbPolyline
 90
        2
 70
     0
 43
0.0
 10
83004.9738954855
 20
20647.3028541635
 10
83004.87071246903
 20
20646.97070531338
1001
IRD
1002
{
1000
TPMLINK_arcbhb-_-ade
1070
   515
1071
        1
1002
}
  0
POINT
  5
74
330
D50
100
AcDbEntity
  8
0X-ARCHAEOLOGY
100
AcDbPoint
 10
83002.51570506176
 20
20647.59682446068
 30
0.0
1001
IRD
1002
{
1000
TPMCNTR_arcbhb-_-ade
1070
   515
1071
        3
1004
01005902000000000060C1BEFA3F7B265D0BB162214003000000
1002
}
  0
LWPOLYLINE
  5
75
330
D50
100
AcDbEntity
  8
0X-ARCHAEOLOGY
100
AcDbPolyline
 90
        2
 70
     0
 43
0.0
 10
83006.21153174812
 20
20646.96121774709
 10
83006.00513322966
 20
20646.65366314254
1001
IRD
1002
{
1000
TPMLINK_arcbhb-_-ade
1070
   515
1071
        1
1002
}
  0
POINT
  5
76
330
D50
100
AcDbEntity
  8
0X-ARCHAEOLOGY
100
AcDbPoint
 10
83006.41065551688
 20
20646.6563382584
 30
0.0
1001
IRD
1002
{
1000
TPMCNTR_arcbhb-_-ade
1070
   515
1071
        3
1004
01005802000000000000F84AC13F75BF98F168C5F73F04000000
1002
}
  0
LWPOLYLINE
  5
77
330
D50
100
AcDbEntity
  8
0X-ARCHAEOLOGY
100
AcDbPolyline
 90
        2
 70
     0
 43
0.0
 10
83006.53011286707
 20
20646.78725666985
 10
83006.42136291938
 20
20646.49984670448
1001
IRD
1002
{
1000
TPMLINK_arcbhb-_-ade
1070
   515
1071
        1
1002
}
  0
POINT
  5
78
330
D50
100
AcDbEntity
  8
0X-ARCHAEOLOGY
100
AcDbPoint
 10
83006.7006577227
 20
20646.56881122106
 30
0.0
1001
IRD
1002
{
1000
TPMCNTR_arcbhb-_-ade
1070
   515
1071
        3
1004
01005702000000000000A95EC03F8D8E5CDC21CCF73F03000000
1002
}
  0
POINT
  5
79
330
D50
100
AcDbEntity
  8
0X-ARCHAEOLOGY
100
AcDbPoint
 10
83004.03150483823
 20
20647.58372475056
 30
0.0
1001
IRD
1002
{
1000
TPMNODE_arcbhb-_-ade
1070
   515
1071
        1
1004
01002C0200000000000000000000
1002
}
  0
LWPOLYLINE
  5
7A
330
D50
100
AcDbEntity
  8
0X-ARCHAEOLOGY
100
AcDbPolyline
 90
       29
 70
     0
 43
0.0
 10
83004.03150483823
 20
20647.58372475056
 10
83003.61329564682
 20
20647.66376132771
 10
83003.28406704054
 20
20647.74379814399
 10
83002.96373671343
 20
20647.79715570268
 10
83002.61671191658
 20
20647.92165715119
 10
83002.3586680726
 20
20647.9928008019
 10
83001.9760508946
 20
20648.09951639752
 10
83001.62012818635
 20
20648.21512491959
 10
83001.03285573609
 20
20647.55704597121
 10
83001.09514221923
 20
20647.48590232051
 10
83001.19302108351
 20
20647.4325445227
 10
83001.26420547807
 20
20647.39697257778
 10
83001.42437082551
 20
20647.4147586698
 10
83001.57563789378
 20
20647.44143744914
 10
83001.70910877148
 20
20647.48590232051
 10
83001.85147792833
 20
20647.53036695275
 10
83001.9760508946
 20
20647.53036695275
 10
83002.11842005147
 20
20647.55704597121
 10
83002.24299301775
 20
20647.55704597121
 10
83002.40315836517
 20
20647.5214740263
 10
83002.61671191658
 20
20647.46811622849
 10
83002.85695993772
 20
20647.42365159625
 10
83003.15949407427
 20
20647.37029379844
 10
83003.50651887112
 20
20647.33472185352
 10
83003.80905300766
 20
20647.28136429483
 10
83004.08489340995
 20
20647.19243455211
 10
83004.38742754649
 20
20647.11239797495
 10
83004.77004435676
 20
20646.99678945289
 10
83004.87071246903
 20
20646.97070531338
1001
IRD
1002
{
1000
TPMLINK_arcbhb-_-ade
1070
   515
1071
        1
1002
}
  0
LWPOLYLINE
  5
7C
330
D50
100
AcDbEntity
  8
0X-ARCHAEOLOGY
100
AcDbPolyline
 90
       21
 70
     0
 43
0.0
 10
83004.03150483823
 20
20647.58372475056
 10
83004.03150483823
 20
20647.58372475056
 10
83004.05125439928
 20
20647.67091560215
 10
83004.07740647039
 20
20647.7045207732
 10
83004.09608704649
 20
20647.7455937069
 10
83004.08487870083
 20
20647.77919887795
 10
83004.0736707229
 20
20647.8277395743
 10
83004.1222391176
 20
20647.88374827242
 10
83004.19322420366
 20
20647.96589413982
 10
83004.24179259838
 20
20647.98829742778
 10
83004.29783359126
 20
20647.98829742778
 10
83004.4136509568
 20
20647.96589413982
 10
83004.51078811397
 20
20647.92108708568
 10
83004.60792563885
 20
20647.86134474535
 10
83004.70879891123
 20
20647.83520733695
 10
83004.81340829884
 20
20647.8538769827
 10
83004.89933711033
 20
20647.88374827242
 10
83004.97032219637
 20
20647.868812508
 10
83005.06745935354
 20
20647.8277395743
 10
83005.15712464797
 20
20647.7866666406
 10
83005.20942915791
 20
20647.7717311153
1001
IRD
1002
{
1000
TPMLINK_arcbhb-_-ade
1070
   515
1071
        1
1002
}
  0
POINT
  5
7D
330
D50
100
AcDbEntity
  8
0X-ARCHAEOLOGY
100
AcDbPoint
 10
83005.33143695958
 20
20647.47798415825
 30
0.0
1001
IRD
1002
{
1000
TPMCNTR_arcbhb-_-ade
1070
   515
1071
        3
1004
01005602000000000080146EE53F1A2F8587B28C0C4003000000
1002
}
  0
POINT
  5
7E
330
D50
100
AcDbEntity
  8
0X-ARCHAEOLOGY
100
AcDbPoint
 10
83005.20942915791
 20
20647.7717311153
 30
0.0
1001
IRD
1002
{
1000
TPMNODE_arcbhb-_-ade
1070
   515
1071
        1
1004
01002A0200000000000000000000
1002
}
  0
LWPOLYLINE
  5
7F
330
D50
100
AcDbEntity
  8
0X-ARCHAEOLOGY
100
AcDbPolyline
 90
       25
 70
     0
 43
0.0
 10
83005.20942915791
 20
20647.7717311153
 10
83005.30283056758
 20
20647.74932758823
 10
83005.36634342319
 20
20647.74932758823
 10
83005.4522726024
 20
20647.76052947132
 10
83005.54567364434
 20
20647.76426335265
 10
83005.62039447788
 20
20647.75306146955
 10
83005.70258754188
 20
20647.71945653762
 10
83005.79225283633
 20
20647.62984266845
 10
83005.86323792237
 20
20647.6223749058
 10
83005.91554243231
 20
20647.57756809078
 10
83005.97531917269
 20
20647.51409186912
 10
83006.07245632986
 20
20647.51782575045
 10
83006.1621216243
 20
20647.53276127575
 10
83006.21816224945
 20
20647.5252935131
 10
83006.27793898984
 20
20647.47675281675
 10
83006.31156365912
 20
20647.42447799995
 10
83006.34145184545
 20
20647.37220342228
 10
83006.3489240759
 20
20647.32739660725
 10
83006.31903552184
 20
20647.2937914362
 10
83006.28541122029
 20
20647.26018626515
 10
83006.27793898984
 20
20647.21537945013
 10
83006.2667310119
 20
20647.17430651643
 10
83006.22937059513
 20
20647.10336253213
 10
83006.20695427152
 20
20647.03988607135
 10
83006.21153174812
 20
20646.96121774709
1001
IRD
1002
{
1000
TPMLINK_arcbhb-_-ade
1070
   515
1071
        1
1002
}
  0
LWPOLYLINE
  5
80
330
D50
100
AcDbEntity
  8
0X-ARCHAEOLOGY
100
AcDbPolyline
 90
        2
 70
     0
 43
0.0
 10
83004.9738954855
 20
20647.3028541635
 10
83005.20942915791
 20
20647.7717311153
1001
IRD
1002
{
1000
TPMLINK_arcbhb-_-ade
1070
   515
1071
        1
1002
}
  0
POINT
  5
81
330
D50
100
AcDbEntity
  8
0X-ARCHAEOLOGY
100
AcDbPoint
 10
83004.5965704772
 20
20647.64772911566
 30
0.0
1001
IRD
1002
{
1000
TPMCNTR_arcbhb-_-ade
1070
   515
1071
        3
1004
010055020000000000800F58DF3FCABD4456CC45084003000000
1002
}
  0
LWPOLYLINE
  5
82
330
D50
100
AcDbEntity
  8
0X-HACHURES
100
AcDbPolyline
 90
       15
 70
     0
 43
0.0
 10
83005.12943292876
 20
20647.61248259812
 10
83005.28681160584
 20
20647.56524544548
 10
83005.4124951103
 20
20647.55046750121
 10
83005.56405452223
 20
20647.53568979606
 10
83005.72300710312
 20
20647.52091209091
 10
83005.85978017715
 20
20647.46918964465
 10
83005.89304925357
 20
20647.40638415864
 10
83006.05200183447
 20
20647.35096752521
 10
83006.10375401714
 20
20647.32141187579
 10
83006.08157451027
 20
20647.25491172438
 10
83006.01873275804
 20
20647.21427279609
 10
83005.97437374432
 20
20647.18841181208
 10
83005.97807051266
 20
20647.12930051324
 10
83005.93001509833
 20
20647.0775783061
 10
83005.84916304941
 20
20647.04547624878
  0
LWPOLYLINE
  5
83
330
D50
100
AcDbEntity
  8
0X-HACHURES
100
AcDbPolyline
 90
       10
 70
     0
 43
0.0
 10
83004.94012816838
 20
20647.19415627953
 10
83005.08350037895
 20
20647.15516173638
 10
83005.20548711508
 20
20647.11821723438
 10
83005.36074329536
 20
20647.08866158496
 10
83005.49012320043
 20
20647.05171708297
 10
83005.64907578133
 20
20646.97782807898
 10
83005.80063519326
 20
20646.94088381611
 10
83005.90413919087
 20
20646.90024488782
 10
83006.06678817236
 20
20646.86330038583
 10
83006.1333930633
 20
20646.84478322765
  0
LWPOLYLINE
  5
84
330
D50
100
AcDbEntity
  8
0X-HACHURES
100
AcDbPolyline
 90
       10
 70
     0
 43
0.0
 10
83004.90475298044
 20
20647.080282617
 10
83005.03544496463
 20
20647.04063380411
 10
83005.15743170075
 20
20647.01477258097
 10
83005.29420477478
 20
20646.9704392264
 10
83005.46055052463
 20
20646.92980029812
 10
83005.5751440918
 20
20646.88546694355
 10
83005.73040027208
 20
20646.85960595954
 10
83005.85608377654
 20
20646.8004946607
 10
83005.94849783686
 20
20646.78202252927
 10
83006.06371938087
 20
20646.74096241533
  0
LWPOLYLINE
  5
85
330
D50
100
AcDbEntity
  8
0X-HACHURES
100
AcDbPolyline
 90
        6
 70
     0
 43
0.0
 10
83006.50343474076
 20
20646.71675034298
 10
83006.60279089893
 20
20646.67118902328
 10
83006.67672222073
 20
20646.63793894758
 10
83006.76913664877
 20
20646.58991116672
 10
83006.83937156995
 20
20646.56774436988
 10
83006.91206091615
 20
20646.51241787934
  0
LWPOLYLINE
  5
86
330
D50
100
AcDbEntity
  8
0X-HACHURES
100
AcDbPolyline
 90
        7
 70
     0
 43
0.0
 10
83006.46288013285
 20
20646.60957053551
 10
83006.56582505416
 20
20646.57882788786
 10
83006.6397567437
 20
20646.53818895958
 10
83006.7173844661
 20
20646.50124445758
 10
83006.76174347982
 20
20646.4606055293
 10
83006.82828163267
 20
20646.44952225044
 10
83006.84645011574
 20
20646.42389421555
  0
LWPOLYLINE
  5
87
330
D50
100
AcDbEntity
  8
0X-ARCHAEOLOGY
100
AcDbPolyline
 90
       10
 70
     0
 43
0.0
 10
83003.7729697098
 20
20650.49111293901
 10
83004.38234003133
 20
20650.31578885822
 10
83004.76088830036
 20
20650.23274078562
 10
83005.16713530396
 20
20650.12200962361
 10
83005.64724523196
 20
20650.01127870073
 10
83005.9796289434
 20
20649.91900293166
 10
83006.41357468154
 20
20649.83595461994
 10
83006.87521878652
 20
20649.71599600058
 10
83007.31839743617
 20
20649.6052650777
 10
83007.74310989508
 20
20649.43916869337
1001
IRD
1002
{
1000
TPMLINK_arcbhb-_-ade
1070
   515
1071
        1
1002
}
  0
POINT
  5
88
330
D50
100
AcDbEntity
  8
0X-ARCHAEOLOGY
100
AcDbPoint
 10
83003.7729697098
 20
20650.49111293901
 30
0.0
1001
IRD
1002
{
1000
TPMNODE_arcbhb-_-ade
1070
   515
1071
        1
1004
0100260200000000000000000000
1002
}
  0
POINT
  5
89
330
D50
100
AcDbEntity
  8
0X-ARCHAEOLOGY
100
AcDbPoint
 10
83008.2285282536
 20
20648.42592723536
 30
0.0
1001
IRD
1002
{
1000
TPMCNTR_arcbhb-_-ade
1070
   515
1071
        3
1004
010054020000000000D0FBDC03408BACE0543BBB1A4004000000
1002
}
  0
POINT
  5
8A
330
D50
100
AcDbEntity
  8
0X-ARCHAEOLOGY
100
AcDbPoint
 10
83007.74310989508
 20
20649.43916869337
 30
0.0
1001
IRD
1002
{
1000
TPMNODE_arcbhb-_-ade
1070
   515
1071
        1
1004
0100270200000000000000000000
1002
}
  0
LWPOLYLINE
  5
8B
330
D50
100
AcDbEntity
  8
0X-ARCHAEOLOGY
100
AcDbPolyline
 90
        3
 70
     0
 43
0.0
 10
83007.74310989508
 20
20649.43916869337
 10
83008.2324527346
 20
20649.26384461258
 10
83008.59217269288
 20
20649.17925327813
1001
IRD
1002
{
1000
TPMLINK_arcbhb-_-ade
1070
   515
1071
        1
1002
}
  0
POINT
  5
8C
330
D50
100
AcDbEntity
  8
0X-ARCHAEOLOGY
100
AcDbPoint
 10
83007.18913704266
 20
20647.68592812456
 30
0.0
1001
IRD
1002
{
1000
TPMNODE_arcbhb-_-ade
1070
   515
1071
        1
1004
01002B0200000000000000000000
1002
}
  0
LWPOLYLINE
  5
8D
330
D50
100
AcDbEntity
  8
0X-ARCHAEOLOGY
100
AcDbPolyline
 90
       17
 70
     0
 43
0.0
 10
83007.18913704266
 20
20647.68592812456
 10
83006.84752005196
 20
20647.84279681242
 10
83006.33047884562
 20
20647.99043828205
 10
83005.9611634881
 20
20648.10116920493
 10
83005.50875192691
 20
20648.20267267047
 10
83005.16713530396
 20
20648.25803813191
 10
83004.97324452981
 20
20648.29494843954
 10
83004.67779246443
 20
20648.34108644364
 10
83004.35464129677
 20
20648.3687690548
 10
83004.06842214291
 20
20648.40567936243
 10
83003.68064096235
 20
20648.46104482387
 10
83003.33902397165
 20
20648.50718282796
 10
83003.1174348307
 20
20648.54409313559
 10
83002.5911603451
 20
20648.55332083206
 10
83002.19414662075
 20
20648.54409313559
 10
83001.93562583372
 20
20648.51641052443
 10
83003.7729697098
 20
20650.49111293901
1001
IRD
1002
{
1000
TPMLINK_arcbhb-_-ade
1070
   515
1071
        1
1002
}
  0
POINT
  5
8E
330
D50
100
AcDbEntity
  8
0X-ARCHAEOLOGY
100
AcDbPoint
 10
83008.59217269288
 20
20649.17925327813
 30
0.0
1001
IRD
1002
{
1000
TPMNODE_arcbhb-_-ade
1070
   515
1071
        1
1004
0100280200000000000000000000
1002
}
  0
LWPOLYLINE
  5
8F
330
D50
100
AcDbEntity
  8
0X-ARCHAEOLOGY
100
AcDbPolyline
 90
        4
 70
     0
 43
0.0
 10
83008.59217269288
 20
20649.17925327813
 10
83008.86028887915
 20
20649.11620338207
 10
83009.28500170578
 20
20648.98701706625
 10
83009.53428958131
 20
20648.88551360071
1001
IRD
1002
{
1000
TPMLINK_arcbhb-_-ade
1070
   515
1071
        1
1002
}
  0
POINT
  5
90
330
D50
100
AcDbEntity
  8
0X-ARCHAEOLOGY
100
AcDbPoint
 10
83009.53428958131
 20
20648.88551360071
 30
0.0
1001
IRD
1002
{
1000
TPMNODE_arcbhb-_-ade
1070
   515
1071
        1
1004
0100290200000000000000000000
1002
}
  0
LWPOLYLINE
  5
91
330
D50
100
AcDbEntity
  8
0X-ARCHAEOLOGY
100
AcDbPolyline
 90
        6
 70
     0
 43
0.0
 10
83009.53428958131
 20
20648.88551360071
 10
83008.96185090585
 20
20648.35954159745
 10
83007.83543901025
 20
20647.39987288176
 10
83007.60461659005
 20
20647.49214888995
 10
83007.35532871452
 20
20647.58442465902
 10
83007.18913704266
 20
20647.68592812456
1001
IRD
1002
{
1000
TPMLINK_arcbhb-_-ade
1070
   515
1071
        1
1002
}
  0
LWPOLYLINE
  5
92
330
D50
100
AcDbEntity
  8
0X-ARCHAEOLOGY
100
AcDbPolyline
 90
        2
 70
     0
 43
0.0
 10
83007.18913704266
 20
20647.68592812456
 10
83007.74310989508
 20
20649.43916869337
1001
IRD
1002
{
1000
TPMLINK_arcbhb-_-ade
1070
   515
1071
        1
1002
}
  0
POINT
  5
93
330
D50
100
AcDbEntity
  8
0X-ARCHAEOLOGY
100
AcDbPoint
 10
83005.05561983856
 20
20649.09733301988
 30
0.0
1001
IRD
1002
{
1000
TPMCNTR_arcbhb-_-ade
1070
   515
1071
        3
1004
01005302000000000010FCA12140EB8D738381052C4003000000
1002
}
  0
LWPOLYLINE
  5
94
330
D50
100
AcDbEntity
  8
0X-ARCHAEOLOGY
100
AcDbPolyline
 90
       19
 70
     0
 43
0.0
 10
83008.59217269288
 20
20649.17925327813
 10
83008.70333011882
 20
20649.27307206993
 10
83008.80489177778
 20
20649.33766522783
 10
83008.8787547022
 20
20649.36534807812
 10
83008.98954927268
 20
20649.32843777049
 10
83009.09111129936
 20
20649.3468929243
 10
83009.1742071353
 20
20649.39303068928
 10
83009.27576879426
 20
20649.41148584309
 10
83009.3588646302
 20
20649.476079001
 10
83009.42349501082
 20
20649.54989961626
 10
83009.45119374536
 20
20649.66063053914
 10
83009.55275540434
 20
20649.70676854324
 10
83009.66354997482
 20
20649.73445139352
 10
83009.76511163378
 20
20649.70676854324
 10
83009.87590620427
 20
20649.64217538533
 10
83009.97746786324
 20
20649.62372023151
 10
83010.08826280145
 20
20649.55912731272
 10
83010.18982446041
 20
20649.476079001
 10
83009.53428958131
 20
20648.88551360071
1001
IRD
1002
{
1000
TPMLINK_arcbhb-_-ade
1070
   515
1071
        1
1002
}
  0
POINT
  5
95
330
D50
100
AcDbEntity
  8
0X-ARCHAEOLOGY
100
AcDbPoint
 10
83009.38698718103
 20
20649.31264943519
 30
0.0
1001
IRD
1002
{
1000
TPMCNTR_arcbhb-_-ade
1070
   515
1071
        1
1004
01005202000000000080E51DE43FC6833058A02F0E4002000000
1002
}
  0
LWPOLYLINE
  5
96
330
D50
100
AcDbEntity
  8
0X-HACHURES
100
AcDbPolyline
 90
        7
 70
     0
 43
0.0
 10
83007.57426709193
 20
20648.90480667376
 10
83007.82620609873
 20
20648.82092068192
 10
83008.02932941666
 20
20648.7378723702
 10
83008.37094603963
 20
20648.65482405847
 10
83008.56483681378
 20
20648.59945859703
 10
83008.79565886626
 20
20648.5625482894
 10
83009.1067232347
 20
20648.49265417752
  0
LWPOLYLINE
  5
97
330
D50
100
AcDbEntity
  8
0X-HACHURES
100
AcDbPolyline
 90
        6
 70
     0
 43
0.0
 10
83007.38700397196
 20
20648.31214712818
 10
83007.60461659005
 20
20648.2395829781
 10
83007.88160320012
 20
20648.13807951256
 10
83008.14012398715
 20
20648.01812089321
 10
83008.37094603963
 20
20647.92584512414
 10
83008.44520371169
 20
20647.91937388329
  0
LWPOLYLINE
  5
98
330
D50
100
AcDbEntity
  8
0X-HACHURES
100
AcDbPolyline
 90
        7
 70
     0
 43
0.0
 10
83009.00578114888
 20
20649.07194851353
 10
83009.25730297124
 20
20649.14388599323
 10
83009.38698718103
 20
20649.31264943519
 10
83009.49735793524
 20
20649.39303068928
 10
83009.66354997482
 20
20649.42994099691
 10
83009.83897492592
 20
20649.32843777049
 10
83009.9181283402
 20
20649.23131044161
  0
LWPOLYLINE
  5
99
330
D50
100
AcDbEntity
  8
0X-SECTION
100
AcDbPolyline
 90
        4
 70
     0
 43
0.0
 10
83007.98316485908
 20
20649.48530645835
 10
83007.78004154115
 20
20649.53144446244
 10
83007.14297248508
 20
20647.54751435139
 10
83007.2814657901
 20
20647.5013763473
  0
LWPOLYLINE
  5
9A
330
D50
100
AcDbEntity
  8
0X-SECTION
100
AcDbPolyline
 90
        4
 70
     0
 43
0.0
 10
83007.58615113473
 20
20647.36296257413
 10
83007.69694570522
 20
20647.2430041939
 10
83010.29138611938
 20
20649.54989961626
 10
83010.1805915489
 20
20649.69754084677
  0
LWPOLYLINE
  5
9B
330
D50
100
AcDbEntity
  8
0X-ARCHAEOLOGY
100
AcDbPolyline
 90
        3
 70
     0
 43
0.0
 10
83006.68972323979
 20
20653.58739343716
 10
83007.15230100584
 20
20653.38925980108
 10
83007.57711679627
 20
20653.18169115025
1001
IRD
1002
{
1000
TPMLINK_arcbhb-_-ade
1070
   515
1071
        1
1002
}
  0
POINT
  5
9C
330
D50
100
AcDbEntity
  8
0X-ARCHAEOLOGY
100
AcDbPoint
 10
83006.68972323979
 20
20653.58739343716
 30
0.0
1001
IRD
1002
{
1000
TPMNODE_arcbhb-_-ade
1070
   515
1071
        1
1004
01001D0200000000000000000000
1002
}
  0
POINT
  5
9D
330
D50
100
AcDbEntity
  8
0X-ARCHAEOLOGY
100
AcDbPoint
 10
83007.80005148069
 20
20652.6573278515
 30
0.0
1001
IRD
1002
{
1000
TPMCNTR_arcbhb-_-ade
1070
   515
1071
        3
1004
010051020000000000C06962E63FE091BC6DD2030B4004000000
1002
}
  0
POINT
  5
9E
330
D50
100
AcDbEntity
  8
0X-ARCHAEOLOGY
100
AcDbPoint
 10
83007.57711679627
 20
20653.18169115025
 30
0.0
1001
IRD
1002
{
1000
TPMNODE_arcbhb-_-ade
1070
   515
1071
        1
1004
01001E0200000000000000000000
1002
}
  0
LWPOLYLINE
  5
9F
330
D50
100
AcDbEntity
  8
0X-ARCHAEOLOGY
100
AcDbPolyline
 90
        3
 70
     0
 43
0.0
 10
83007.57711679627
 20
20653.18169115025
 10
83008.0208135745
 20
20652.99299252893
 10
83008.40840081614
 20
20652.83389620558
1001
IRD
1002
{
1000
TPMLINK_arcbhb-_-ade
1070
   515
1071
        1
1002
}
  0
POINT
  5
A2
330
D50
100
AcDbEntity
  8
0X-ARCHAEOLOGY
100
AcDbPoint
 10
83007.2104063366
 20
20652.53409735587
 30
0.0
1001
IRD
1002
{
1000
TPMNODE_arcbhb-_-ade
1070
   515
1071
        1
1004
0100220200000000000000000000
1002
}
  0
LWPOLYLINE
  5
A3
330
D50
100
AcDbEntity
  8
0X-ARCHAEOLOGY
100
AcDbPolyline
 90
        5
 70
     0
 43
0.0
 10
83007.2104063366
 20
20652.53409735587
 10
83007.02013592982
 20
20652.61559504717
 10
83006.51979692362
 20
20652.85146850316
 10
83006.15162299342
 20
20653.03073210972
 10
83006.68972323979
 20
20653.58739343716
1001
IRD
1002
{
1000
TPMLINK_arcbhb-_-ade
1070
   515
1071
        1
1002
}
  0
POINT
  5
A4
330
D50
100
AcDbEntity
  8
0X-ARCHAEOLOGY
100
AcDbPoint
 10
83008.40840081614
 20
20652.83389620558
 30
0.0
1001
IRD
1002
{
1000
TPMNODE_arcbhb-_-ade
1070
   515
1071
        1
1004
01001F0200000000000000000000
1002
}
  0
LWPOLYLINE
  5
A5
330
D50
100
AcDbEntity
  8
0X-ARCHAEOLOGY
100
AcDbPolyline
 90
        9
 70
     0
 43
0.0
 10
83008.40840081614
 20
20652.83389620558
 10
83008.54947351084
 20
20652.77598886333
 10
83008.80436335281
 20
20652.63446483756
 10
83009.15365629521
 20
20652.51181084131
 10
83009.4746286752
 20
20652.38915660594
 10
83009.55959183328
 20
20652.36085180079
 10
83009.81448130755
 20
20652.31367720523
 10
83009.94664638356
 20
20652.24763258017
 10
83010.15433430762
 20
20652.17215317947
1001
IRD
1002
{
1000
TPMLINK_arcbhb-_-ade
1070
   515
1071
        1
1002
}
  0
POINT
  5
A6
330
D50
100
AcDbEntity
  8
0X-ARCHAEOLOGY
100
AcDbPoint
 10
83008.05381301307
 20
20652.12633374215
 30
0.0
1001
IRD
1002
{
1000
TPMNODE_arcbhb-_-ade
1070
   515
1071
        1
1004
0100240200000000000000000000
1002
}
  0
POINT
  5
A8
330
D50
100
AcDbEntity
  8
0X-ARCHAEOLOGY
100
AcDbPoint
 10
83010.15433430762
 20
20652.17215317947
 30
0.0
1001
IRD
1002
{
1000
TPMNODE_arcbhb-_-ade
1070
   515
1071
        1
1004
0100230200000000000000000000
1002
}
  0
LWPOLYLINE
  5
A9
330
D50
100
AcDbEntity
  8
0X-ARCHAEOLOGY
100
AcDbPolyline
 90
       12
 70
     0
 43
0.0
 10
83010.15433430762
 20
20652.17215317947
 10
83010.08825176962
 20
20652.07780374925
 10
83010.05993047176
 20
20651.96458452863
 10
83010.01272892156
 20
20651.88910512793
 10
83009.91832545344
 20
20651.80419071247
 10
83009.79560068746
 20
20651.7570158778
 10
83009.71063752938
 20
20651.6626666867
 10
83009.58791276341
 20
20651.56831725648
 10
83009.58791276341
 20
20651.51170764617
 10
83009.65399530141
 20
20651.43622824547
 10
83009.69175654156
 20
20651.37961863516
 10
83009.69175654156
 20
20651.2947042197
1001
IRD
1002
{
1000
TPMLINK_arcbhb-_-ade
1070
   515
1071
        1
1002
}
  0
POINT
  5
AA
330
D50
100
AcDbEntity
  8
0X-ARCHAEOLOGY
100
AcDbPoint
 10
83009.69175654156
 20
20651.2947042197
 30
0.0
1001
IRD
1002
{
1000
TPMNODE_arcbhb-_-ade
1070
   515
1071
        1
1004
0100250200000000000000000000
1002
}
  0
LWPOLYLINE
  5
AB
330
D50
100
AcDbEntity
  8
0X-ARCHAEOLOGY
100
AcDbPolyline
 90
        9
 70
     0
 43
0.0
 10
83009.69175654156
 20
20651.2947042197
 10
83009.51238991536
 20
20651.37961863516
 10
83009.31414230134
 20
20651.52114266093
 10
83009.10645474501
 20
20651.59662206164
 10
83008.92708775107
 20
20651.70984128225
 10
83008.6721982768
 20
20651.79475569771
 10
83008.43618942263
 20
20651.90797491833
 10
83008.20018056846
 20
20652.04006392934
 10
83008.05381301307
 20
20652.12633374215
1001
IRD
1002
{
1000
TPMLINK_arcbhb-_-ade
1070
   515
1071
        1
1002
}
  0
LWPOLYLINE
  5
AC
330
D50
100
AcDbEntity
  8
0X-ARCHAEOLOGY
100
AcDbPolyline
 90
        2
 70
     0
 43
0.0
 10
83007.57711679627
 20
20653.18169115025
 10
83007.2104063366
 20
20652.53409735587
1001
IRD
1002
{
1000
TPMLINK_arcbhb-_-ade
1070
   515
1071
        1
1002
}
  0
POINT
  5
AD
330
D50
100
AcDbEntity
  8
0X-ARCHAEOLOGY
100
AcDbPoint
 10
83006.84716858498
 20
20653.06405432615
 30
0.0
1001
IRD
1002
{
1000
TPMCNTR_arcbhb-_-ade
1070
   515
1071
        3
1004
010050020000000000C0C5A5E93F1FC9EDFE1A500D4003000000
1002
}
  0
LWPOLYLINE
  5
AE
330
D50
100
AcDbEntity
  8
0X-ARCHAEOLOGY
100
AcDbPolyline
 90
        2
 70
     0
 43
0.0
 10
83008.40840081614
 20
20652.83389620558
 10
83008.05381301307
 20
20652.12633374215
1001
IRD
1002
{
1000
TPMLINK_arcbhb-_-ade
1070
   515
1071
        1
1002
}
  0
POINT
  5
AF
330
D50
100
AcDbEntity
  8
0X-ARCHAEOLOGY
100
AcDbPoint
 10
83009.11847016303
 20
20652.06913558426
 30
0.0
1001
IRD
1002
{
1000
TPMCNTR_arcbhb-_-ade
1070
   515
1071
        3
1004
01004F02000000000000A280F83F8ADAFCE521BC164004000000
1002
}
  0
LWPOLYLINE
  5
19D
330
D50
100
AcDbEntity
  8
0X-ARCHAEOLOGY
100
AcDbPolyline
 90
        9
 70
     0
 43
0.0
 10
83010.15433430762
 20
20652.17215317947
 10
83010.40922378187
 20
20652.27593738533
 10
83010.51306756004
 20
20652.40802639633
 10
83010.68299424394
 20
20652.44576621625
 10
83010.96620501606
 20
20652.63446483756
 10
83011.11725071214
 20
20652.66276964272
 10
83011.25885573047
 20
20652.67220465748
 10
83011.40046111651
 20
20652.70994447739
 10
83011.51089021447
 20
20652.71811967149
1001
IRD
1002
{
1000
TPMLINK_arcbhb-_-ade
1070
   515
1071
        1
1002
}
  0
POINT
  5
19E
330
D50
100
AcDbEntity
  8
0X-ARCHAEOLOGY
100
AcDbPoint
 10
83011.12754663143
 20
20651.29095540393
 30
0.0
1001
IRD
1002
{
1000
TPMCNTR_arcbhb-_-ade
1070
   515
1071
        3
1004
01004E020000000000E0536D1B40DFB3D314224E264004000000
1002
}
  0
LWPOLYLINE
  5
19F
330
D50
100
AcDbEntity
  8
0X-SECTION
100
AcDbPolyline
 90
        4
 70
     0
 43
0.0
 10
83010.29593969366
 20
20649.68133032594
 10
83010.39978347183
 20
20649.59641591047
 10
83013.67558723569
 20
20652.17215317947
 10
83013.53398184963
 20
20652.31367720523
  0
LWPOLYLINE
  5
1A0
330
D50
100
AcDbEntity
  8
0X-SECTION
100
AcDbPolyline
 90
        4
 70
     0
 43
0.0
 10
83011.03228718633
 20
20652.87033829355
 10
83011.0417278641
 20
20652.98355751417
 10
83013.02420253339
 20
20652.92694790386
 10
83013.02420253339
 20
20652.75711907294
  0
LWPOLYLINE
  5
1A1
330
D50
100
AcDbEntity
  8
0X-HACHURES
100
AcDbPolyline
 90
        4
 70
     0
 43
0.0
 10
83007.50159394823
 20
20652.95525270902
 10
83007.70928187229
 20
20652.85146850316
 10
83007.98305233436
 20
20652.70994447739
 10
83008.28490394005
 20
20652.58746428344
  0
LWPOLYLINE
  5
1A2
330
D50
100
AcDbEntity
  8
0X-HACHURES
100
AcDbPolyline
 90
        4
 70
     0
 43
0.0
 10
83007.4071904801
 20
20652.7665540877
 10
83007.6243187142
 20
20652.66276964272
 10
83007.92641010639
 20
20652.53068063171
 10
83008.20359332966
 20
20652.4252129728
  0
LWPOLYLINE
  5
1A3
330
D50
100
AcDbEntity
  8
0X-LIMITEXCAVATION
100
AcDbPolyline
 90
        3
 70
     0
 43
0.0
 10
83010.15433430762
 20
20652.17215317947
 10
83011.0417278641
 20
20652.98355751417
 10
83012.96760645327
 20
20652.92856400624
  0
LWPOLYLINE
  5
1AD
330
D50
100
AcDbEntity
  8
0X-ARCHAEOLOGY
100
AcDbPolyline
 90
        5
 70
     0
 43
0.0
 10
83008.05381301307
 20
20652.12633374215
 10
83007.83200663826
 20
20652.25706759493
 10
83007.53935555612
 20
20652.36085180079
 10
83007.28446571412
 20
20652.50237582656
 10
83007.2104063366
 20
20652.53409735587
1001
IRD
1002
{
1000
TPMLINK_arcbhb-_-ade
1070
   515
1071
        1
1002
}
  0
POINT
  5
1AE
330
D50
100
AcDbEntity
  8
0X-ARCHAEOLOGY
100
AcDbPoint
 10
83011.51089021447
 20
20652.71811967149
 30
0.0
1001
IRD
1002
{
1000
TPMNODE_arcbhb-_-ade
1070
   515
1071
        1
1004
0100200200000000000000000000
1002
}
  0
LWPOLYLINE
  5
1AF
330
D50
100
AcDbEntity
  8
0X-ARCHAEOLOGY
100
AcDbPolyline
 90
        9
 70
     0
 43
0.0
 10
83011.51089021447
 20
20652.71811967149
 10
83011.6553509585
 20
20652.72881426779
 10
83011.74975442664
 20
20652.8420334884
 10
83011.88191950264
 20
20652.93638291862
 10
83012.34449690096
 20
20652.92694790386
 10
83012.45778098916
 20
20652.79485889285
 10
83012.57106544511
 20
20652.70050946263
 10
83012.71267083116
 20
20652.64389985232
 10
83012.84483590718
 20
20652.67220465748
1001
IRD
1002
{
1000
TPMLINK_arcbhb-_-ade
1070
   515
1071
        1
1002
}
  0
POINT
  5
1B0
330
D50
100
AcDbEntity
  8
0X-ARCHAEOLOGY
100
AcDbPoint
 10
83009.74187564474
 20
20656.6314213568
 30
0.0
1001
IRD
1002
{
1000
TPMNODE_arcbhb-_-ade
1070
   515
1071
        1
1004
0100190200000000000000000000
1002
}
  0
LWPOLYLINE
  5
1B1
330
D50
100
AcDbEntity
  8
0X-ARCHAEOLOGY
100
AcDbPolyline
 90
        2
 70
     0
 43
0.0
 10
83009.74187564474
 20
20656.6314213568
 10
83010.51973115689
 20
20657.37938294684
1001
IRD
1002
{
1000
TPMLINK_arcbhb-_-ade
1070
   515
1071
        1
1002
}
  0
LWPOLYLINE
  5
1B2
330
D50
100
AcDbEntity
  8
0X-ARCHAEOLOGY
100
AcDbPolyline
 90
        9
 70
     0
 43
0.0
 10
83011.51089021447
 20
20652.71811967149
 10
83011.57717179532
 20
20652.96826790025
 10
83011.64454784896
 20
20653.32040693379
 10
83011.76489856376
 20
20653.76143917472
 10
83011.89862133506
 20
20654.25592964446
 10
83012.01897204986
 20
20654.73705561678
 10
83012.15269482115
 20
20655.16472312116
 10
83012.29979001668
 20
20655.56566139157
 10
83012.44079894811
 20
20656.04247528691
1001
IRD
1002
{
1000
TPMLINK_arcbhb-_-ade
1070
   515
1071
        1
1002
}
  0
LWPOLYLINE
  5
1B3
330
D50
100
AcDbEntity
  8
0X-ARCHAEOLOGY
100
AcDbPolyline
 90
        2
 70
     0
 43
0.0
 10
83009.74187564474
 20
20656.6314213568
 10
83006.68972323979
 20
20653.58739343716
1001
IRD
1002
{
1000
TPMLINK_arcbhb-_-ade
1070
   515
1071
        1
1002
}
  0
POINT
  5
1B4
330
D50
100
AcDbEntity
  8
0X-ARCHAEOLOGY
100
AcDbPoint
 10
83009.72947390044
 20
20654.41579605911
 30
0.0
1001
IRD
1002
{
1000
TPMCNTR_arcbhb-_-ade
1070
   515
1071
        1
1004
01005E0200000000004427B42E402EA37C50029A2F4009000000
1002
}
  0
LWPOLYLINE
  5
1B5
330
D50
100
AcDbEntity
  8
0X-ARCHAEOLOGY
100
AcDbPolyline
 90
        2
 70
     0
 43
0.0
 10
83010.51973115689
 20
20657.37938294684
 10
83013.42317698276
 20
20660.30306367479
1001
IRD
1002
{
1000
TPMLINK_arcbhb-_-ade
1070
   515
1071
        1
1002
}
  0
POINT
  5
1B6
330
D50
100
AcDbEntity
  8
0X-ARCHAEOLOGY
100
AcDbPoint
 10
83012.40687112414
 20
20658.59875237923
 30
0.0
1001
IRD
1002
{
1000
TPMCNTR_arcbhb-_-ade
1070
   515
1071
        1
1004
01005F020000000000E0D7550F40244760C749A2234005000000
1002
}
  0
POINT
  5
2EF
330
D50
100
AcDbEntity
  8
0X-ARCHAEOLOGY
100
AcDbPoint
 10
83012.84483590718
 20
20652.67220465748
 30
0.0
1001
IRD
1002
{
1000
TPMNODE_arcbhb-_-ade
1070
   515
1071
        1
1004
0100210200000000000000000000
1002
}
  0
LWPOLYLINE
  5
2F0
330
D50
100
AcDbEntity
  8
0X-ARCHAEOLOGY
100
AcDbPolyline
 90
       23
 70
     0
 43
0.0
 10
83012.84483590718
 20
20652.67220465748
 10
83012.9392393753
 20
20652.62503006193
 10
83013.06196377354
 20
20652.53068063171
 10
83013.18468853952
 20
20652.54011564646
 10
83013.19412884956
 20
20652.58729024202
 10
83013.5717430898
 20
20652.087238764
 10
83010.44698538976
 20
20649.62472071563
 10
83010.40922378187
 20
20649.72850492148
 10
83010.3525815539
 20
20649.8605939325
 10
83010.30538000372
 20
20649.90776876717
 10
83010.20153585782
 20
20649.94550834796
 10
83010.14489399758
 20
20650.01155297302
 10
83010.14489399758
 20
20650.1342072084
 10
83010.09769207965
 20
20650.21912162386
 10
83010.0221692316
 20
20650.32290582971
 10
83009.99384830148
 20
20650.45499484073
 10
83009.97496731368
 20
20650.60595388125
 10
83009.92776576348
 20
20650.73804289226
 10
83009.87112353551
 20
20650.84182733724
 10
83009.84280260539
 20
20650.90787172319
 10
83009.83336192762
 20
20651.03996097332
 10
83009.75783907958
 20
20651.17204998433
 10
83009.69175654156
 20
20651.2947042197
1001
IRD
1002
{
1000
TPMLINK_arcbhb-_-ade
1070
   515
1071
        1
1002
}
  0
POINT
  5
2F1
330
D50
100
AcDbEntity
  8
0X-ARCHAEOLOGY
100
AcDbPoint
 10
83013.42317698276
 20
20660.30306367479
 30
0.0
1001
IRD
1002
{
1000
TPMNODE_arcbhb-_-ade
1070
   515
1071
        1
1004
0100140200000000000000000000
1002
}
  0
LWPOLYLINE
  5
2F2
330
D50
100
AcDbEntity
  8
0X-ARCHAEOLOGY
100
AcDbPolyline
 90
       10
 70
     0
 43
0.0
 10
83013.42317698276
 20
20660.30306367479
 10
83013.34294317289
 20
20659.98231310628
 10
83013.31619869218
 20
20659.63483330381
 10
83013.16910349666
 20
20659.22053029685
 10
83013.15573107245
 20
20658.87305049438
 10
83013.03538035764
 20
20658.41865375603
 10
83012.9551469155
 20
20657.99098625165
 10
83012.8615406814
 20
20657.69696491712
 10
83012.78130687153
 20
20657.3361203781
 10
83012.60579881394
 20
20656.87288929805
1001
IRD
1002
{
1000
TPMLINK_arcbhb-_-ade
1070
   515
1071
        1
1002
}
  0
POINT
  5
2F4
330
D50
100
AcDbEntity
  8
0X-ARCHAEOLOGY
100
AcDbPoint
 10
83024.1981984784
 20
20669.37916478308
 30
0.0
1001
IRD
1002
{
1000
TPMCNTR_arcbhb-_-ade
1070
   515
1071
        3
1004
0100600200000000C0E0B60B6040FEF921DC81AA544007000000
1002
}
  0
LWPOLYLINE
  5
2F5
330
D50
100
AcDbEntity
  8
0X-LIMITEXCAVATION
100
AcDbPolyline
 90
        7
 70
     0
 43
0.0
 10
83013.46566583485
 20
20658.81666637559
 10
83016.188389166
 20
20661.55198659994
 10
83019.8514348183
 20
20665.24116201947
 10
83021.45138558553
 20
20663.726215533
 10
83018.26551855604
 20
20660.42980401737
 10
83015.10772053654
 20
20657.17547428881
 10
83013.46566583485
 20
20658.81666637559
  0
LWPOLYLINE
  5
2F6
330
D50
100
AcDbEntity
  8
0X-LIMITEXCAVATION
100
AcDbPolyline
 90
       30
 70
     0
 43
0.0
 10
83062.94278647577
 20
20650.06292773671
 10
83057.448850152
 20
20653.87005554669
 10
83051.00263174465
 20
20658.55575116566
 10
83045.28893798472
 20
20662.58252110722
 10
83038.11019451047
 20
20668.36642666678
 10
83034.81383296789
 20
20670.78248844042
 10
83031.37096632805
 20
20670.70927447627
 10
83028.22110946327
 20
20668.43964063094
 10
83026.38979721552
 20
20666.38964867808
 10
83023.88349226864
 20
20664.17654051143
 10
83016.07448227929
 20
20656.15282628093
 10
83013.02420253339
 20
20652.92694790386
 10
83013.5717430898
 20
20652.087238764
 10
83010.18982446041
 20
20649.476079001
 10
83007.22172475915
 20
20646.78332478464
 10
83003.58283983207
 20
20643.37571055953
 10
83000.04230298755
 20
20646.52120081581
 10
83002.38283949085
 20
20648.99705756065
 10
83004.69745311223
 20
20651.46879467297
 10
83007.5686443427
 20
20654.46397495125
 10
83011.9079127497
 20
20658.77723915398
 10
83019.6095376672
 20
20666.65034374607
 10
83023.53239464597
 20
20670.63654254474
 10
83025.706196549
 20
20673.14345790827
 10
83026.21281320209
 20
20673.72770851055
 10
83026.94614282947
 20
20677.24650464159
 10
83028.67199025156
 20
20680.10643214827
 10
83031.06332021892
 20
20684.13252390048
 10
83032.14662285654
 20
20685.70772540868
 10
83032.71797174832
 20
20686.29265341473
  0
LWPOLYLINE
  5
3C1
330
D50
100
AcDbEntity
  8
0X-RASTER
100
AcDbPolyline
 90
        4
 70
   129
 43
0.0
 10
-83028.60180749513
 20
20685.42873861708
 10
-83089.23018032094
 20
20747.30969820431
 10
-83131.50684116613
 20
20705.88879632028
 10
-83070.87846834032
 20
20644.00783673305
210
0.0
220
0.0
230
-1.0
  0
LWPOLYLINE
  5
3C9
330
D50
100
AcDbEntity
  8
0X-ARCHAEOLOGY
100
AcDbPolyline
 90
        8
 70
     0
 43
0.0
 10
83013.42317698276
 20
20660.30306367479
 10
83018.20950512133
 20
20665.25104682166
 10
83023.10705195749
 20
20670.14602033154
 10
83026.21281320209
 20
20673.72770851055
 10
83027.10870599787
 20
20677.13031194584
 10
83029.61720523878
 20
20681.90589594539
 10
83031.82707410709
 20
20685.30849938068
 10
83032.30488362613
 20
20685.90544741052
1001
IRD
1002
{
1000
TPMLINK_arcbhb-_-ade
1070
   515
1071
        1
1002
}
  0
POINT
  5
3CA
330
D50
100
AcDbEntity
  8
0X-ARCHAEOLOGY
100
AcDbPoint
 10
83032.30488362613
 20
20685.90544741052
 30
0.0
1001
IRD
1002
{
1000
TPMNODE_arcbhb-_-ade
1070
   515
1071
        1
1004
0100000200000000000000000000
1002
}
  0
LWPOLYLINE
  5
3D5
330
D50
100
AcDbEntity
  8
0X-ARCHAEOLOGY
100
AcDbPolyline
 90
        3
 70
     0
 43
0.0
 10
83032.30488362613
 20
20685.90544741052
 10
83032.32386829029
 20
20685.88918339282
 10
83033.97721673307
 20
20684.47277233021
1001
IRD
1002
{
1000
TPMLINK_arcbhb-_-ade
1070
   515
1071
        1
1002
}
  0
POINT
  5
3D6
330
D50
100
AcDbEntity
  8
0X-ARCHAEOLOGY
100
AcDbPoint
 10
83033.97721673307
 20
20684.47277233021
 30
0.0
1001
IRD
1002
{
1000
TPMNODE_arcbhb-_-ade
1070
   515
1071
        1
1004
0100010200000000000000000000
1002
}
  0
LWPOLYLINE
  5
3D7
330
D50
100
AcDbEntity
  8
0X-ARCHAEOLOGY
100
AcDbPolyline
 90
       22
 70
     0
 43
0.0
 10
83033.97721673307
 20
20684.47277233021
 10
83033.977216733
 20
20684.47277233007
 10
83031.34926458803
 20
20679.51810382606
 10
83030.87145506899
 20
20678.56298726526
 10
83030.81172882668
 20
20677.72725997567
 10
83030.21446724248
 20
20677.07061719068
 10
83029.55747941595
 20
20675.75733162069
 10
83028.84076492763
 20
20674.62313031618
 10
83028.18377710112
 20
20673.60831876111
 10
83027.58651509744
 20
20672.47411769572
 10
83026.81007478629
 20
20671.28022163605
 10
83026.45171775187
 20
20670.56388409589
 10
83025.97390823283
 20
20669.13120877646
 10
83025.49609913326
 20
20667.638838941
 10
83025.37664664863
 20
20667.10158566632
 10
83024.9585633719
 20
20666.26585837673
 10
83024.48075385284
 20
20665.31074157682
 10
83023.88349226864
 20
20664.17654051143
 10
83021.01663557383
 20
20661.19180060137
 10
83017.37333856786
 20
20657.43102815689
 10
83013.49113659264
 20
20653.61056095724
 10
83012.84483590718
 20
20652.67220465748
1001
IRD
1002
{
1000
TPMLINK_arcbhb-_-ade
1070
   515
1071
        1
1002
}
  0
LWPOLYLINE
  5
3D8
330
D50
100
AcDbEntity
  8
0X-ARCHAEOLOGY
100
AcDbPolyline
 90
       13
 70
     0
 43
0.0
 10
83033.97721673307
 20
20684.47277233021
 10
83034.55254932426
 20
20685.95684656629
 10
83035.03921547226
 20
20687.26832207412
 10
83035.55534773468
 20
20688.44724840144
 10
83035.83575108167
 20
20689.05133350473
 10
83036.10126295147
 20
20689.78814082922
 10
83035.48152402861
 20
20689.22818110586
 10
83034.75881212528
 20
20688.44724840144
 10
83034.27214597727
 20
20687.97571247866
 10
83033.75601371491
 20
20687.41575275527
 10
83033.15116626924
 20
20686.78207769134
 10
83032.53174418633
 20
20686.16311108737
 10
83032.30488362613
 20
20685.90544741052
1001
IRD
1002
{
1000
TPMLINK_arcbhb-_-ade
1070
   515
1071
        1
1002
}
  0
POINT
  5
3D9
330
D50
100
AcDbEntity
  8
0X-ARCHAEOLOGY
100
AcDbPoint
 10
83034.24694369931
 20
20687.14715480985
 30
0.0
1001
IRD
1002
{
1000
TPMCNTR_arcbhb-_-ade
1070
   515
1071
        1
1004
01004D02000000000000EE0D1840AA7DC2DD75B92A4002000000
1002
}
  0
LWPOLYLINE
  5
3E1
330
D50
100
AcDbEntity
  8
0X-ARCHAEOLOGY
100
AcDbPolyline
 90
        7
 70
     0
 43
0.0
 10
83044.00136769847
 20
20663.72527716993
 10
83045.04200880823
 20
20665.04059233107
 10
83045.99082890798
 20
20666.69238353659
 10
83046.8172199956
 20
20668.61947345055
 10
83047.39875505654
 20
20670.08773264829
 10
83048.40878866357
 20
20671.70893518584
 10
83048.68425269236
 20
20672.16776625046
1001
IRD
1002
{
1000
TPMLINK_arcbhb-_-ade
1070
   515
1071
        1
1002
}
  0
POINT
  5
3E2
330
D50
100
AcDbEntity
  8
0X-ARCHAEOLOGY
100
AcDbPoint
 10
83044.00136769847
 20
20663.72527716993
 30
0.0
1001
IRD
1002
{
1000
TPMNODE_arcbhb-_-ade
1070
   515
1071
        1
1004
0100130200000000000000000000
1002
}
  0
POINT
  5
3E3
330
D50
100
AcDbEntity
  8
0X-ARCHAEOLOGY
100
AcDbPoint
 10
83048.70292329656
 20
20666.1492513928
 30
0.0
1001
IRD
1002
{
1000
TPMCNTR_arcbhb-_-ade
1070
   515
1071
        1
1004
01004C0200000000002B9A9B4C4024C20329E2D43F4003000000
1002
}
  0
POINT
  5
3E4
330
D50
100
AcDbEntity
  8
0X-ARCHAEOLOGY
100
AcDbPoint
 10
83048.68425269236
 20
20672.16776625046
 30
0.0
1001
IRD
1002
{
1000
TPMNODE_arcbhb-_-ade
1070
   515
1071
        1
1004
01000C0200000000000000000000
1002
}
  0
POINT
  5
3F6
330
D50
100
AcDbEntity
  8
0X-ARCHAEOLOGY
100
AcDbPoint
 10
83053.42620424592
 20
20669.79449973799
 30
0.0
1001
IRD
1002
{
1000
TPMNODE_arcbhb-_-ade
1070
   515
1071
        1
1004
0100120200000000000000000000
1002
}
  0
LWPOLYLINE
  5
3FA
330
D50
100
AcDbEntity
  8
0X-ARCHAEOLOGY
100
AcDbPolyline
 90
        2
 70
     0
 43
0.0
 10
83048.68425269236
 20
20672.16776625046
 10
83048.98686096673
 20
20673.0781399717
1001
IRD
1002
{
1000
TPMLINK_arcbhb-_-ade
1070
   515
1071
        1
1002
}
  0
LWPOLYLINE
  5
3FB
330
D50
100
AcDbEntity
  8
0X-ARCHAEOLOGY
100
AcDbPolyline
 90
        9
 70
     0
 43
0.0
 10
83053.42620424592
 20
20669.79449973799
 10
83052.69091501409
 20
20668.37844158877
 10
83052.5101390959
 20
20667.91593269384
 10
83051.83678302496
 20
20666.44767384449
 10
83051.071605944
 20
20664.36764024232
 10
83050.12278584426
 20
20662.50172801267
 10
83049.05153773117
 20
20660.51346041439
 10
83048.74546669904
 20
20660.05462969817
 10
83044.00136769847
 20
20663.72527716993
1001
IRD
1002
{
1000
TPMLINK_arcbhb-_-ade
1070
   515
1071
        1
1002
}
  0
LWPOLYLINE
  5
3FC
330
D50
100
AcDbEntity
  8
0X-ARCHAEOLOGY
100
AcDbPolyline
 90
        3
 70
     0
 43
0.0
 10
83048.68425269236
 20
20672.16776625046
 10
83053.27531617686
 20
20669.87361162416
 10
83053.42620424592
 20
20669.79449973799
1001
IRD
1002
{
1000
TPMLINK_arcbhb-_-ade
1070
   515
1071
        1
1002
}
  0
POINT
  5
3FD
330
D50
100
AcDbEntity
  8
0X-ARCHAEOLOGY
100
AcDbPoint
 10
83050.0036174016
 20
20675.05956874578
 30
0.0
1001
IRD
1002
{
1000
TPMNODE_arcbhb-_-ade
1070
   515
1071
        1
1004
0100060200000000000000000000
1002
}
  0
LWPOLYLINE
  5
3FE
330
D50
100
AcDbEntity
  8
0X-ARCHAEOLOGY
100
AcDbPolyline
 90
        2
 70
     0
 43
0.0
 10
83050.0036174016
 20
20675.05956874578
 10
83050.45456338333
 20
20675.99389546264
1001
IRD
1002
{
1000
TPMLINK_arcbhb-_-ade
1070
   515
1071
        1
1002
}
  0
POINT
  5
401
330
D50
100
AcDbEntity
  8
0X-ARCHAEOLOGY
100
AcDbPoint
 10
83048.98686096673
 20
20673.0781399717
 30
0.0
1001
IRD
1002
{
1000
TPMNODE_arcbhb-_-ade
1070
   515
1071
        1
1004
0100090200000000000000000000
1002
}
  0
LWPOLYLINE
  5
402
330
D50
100
AcDbEntity
  8
0X-ARCHAEOLOGY
100
AcDbPolyline
 90
        3
 70
     0
 43
0.0
 10
83048.98686096673
 20
20673.0781399717
 10
83049.72071192534
 20
20674.47340952601
 10
83050.0036174016
 20
20675.05956874578
1001
IRD
1002
{
1000
TPMLINK_arcbhb-_-ade
1070
   515
1071
        1
1002
}
  0
POINT
  5
40B
330
D50
100
AcDbEntity
  8
0X-ARCHAEOLOGY
100
AcDbPoint
 10
83054.64361626338
 20
20672.91367300199
 30
0.0
1001
IRD
1002
{
1000
TPMCNTR_arcbhb-_-ade
1070
   515
1071
        3
1004
01004B020000000000B4CCD625406CD24F5EE2E03D4008000000
1002
}
  0
POINT
  5
40C
330
D50
100
AcDbEntity
  8
0X-ARCHAEOLOGY
100
AcDbPoint
 10
83050.45456338333
 20
20675.99389546264
 30
0.0
1001
IRD
1002
{
1000
TPMNODE_arcbhb-_-ade
1070
   515
1071
        1
1004
0100040200000000000000000000
1002
}
  0
LWPOLYLINE
  5
40D
330
D50
100
AcDbEntity
  8
0X-ARCHAEOLOGY
100
AcDbPolyline
 90
        3
 70
     0
 43
0.0
 10
83050.45456338333
 20
20675.99389546264
 10
83053.83743802094
 20
20674.3303048402
 10
83055.37673572611
 20
20673.68633427668
1001
IRD
1002
{
1000
TPMLINK_arcbhb-_-ade
1070
   515
1071
        1
1002
}
  0
POINT
  5
40E
330
D50
100
AcDbEntity
  8
0X-ARCHAEOLOGY
100
AcDbPoint
 10
83055.37673572611
 20
20673.68633427668
 30
0.0
1001
IRD
1002
{
1000
TPMNODE_arcbhb-_-ade
1070
   515
1071
        1
1004
0100070200000000000000000000
1002
}
  0
LWPOLYLINE
  5
410
330
D50
100
AcDbEntity
  8
0X-ARCHAEOLOGY
100
AcDbPolyline
 90
       10
 70
     0
 43
0.0
 10
83050.45456338333
 20
20675.99389546264
 10
83053.16098973827
 20
20680.98056394232
 10
83054.93559681058
 20
20684.39313858621
 10
83057.01870115296
 20
20688.69135782891
 10
83059.97354367306
 20
20694.67952777542
 10
83062.6821493581
 20
20699.60131095903
 10
83065.22659715309
 20
20704.85121325381
 10
83067.19649233294
 20
20708.46052103792
 10
83068.3455980626
 20
20710.51126408916
 10
83068.68824478584
 20
20711.2221883655
1001
IRD
1002
{
1000
TPMLINK_arcbhb-_-ade
1070
   515
1071
        1
1002
}
  0
POINT
  5
411
330
D50
100
AcDbEntity
  8
0X-ARCHAEOLOGY
100
AcDbPoint
 10
83062.17126569484
 20
20692.57218020671
 30
0.0
1001
IRD
1002
{
1000
TPMCNTR_arcbhb-_-ade
1070
   515
1071
        1
1004
01004A020000000080A7783C6B409D417147DB7E564006000000
1002
}
  0
POINT
  5
412
330
D50
100
AcDbEntity
  8
0X-ARCHAEOLOGY
100
AcDbPoint
 10
83068.68824478584
 20
20711.2221883655
 30
0.0
1001
IRD
1002
{
1000
TPMNODE_arcbhb-_-ade
1070
   515
1071
        1
1004
0100F00100000000000000000000
1002
}
  0
LWPOLYLINE
  5
413
330
D50
100
AcDbEntity
  8
0X-ARCHAEOLOGY
100
AcDbPolyline
 90
        5
 70
     0
 43
0.0
 10
83068.68824478584
 20
20711.2221883655
 10
83070.03017079123
 20
20710.54511755976
 10
83071.74992042458
 20
20709.71179993981
 10
83072.96156204148
 20
20709.08681128935
 10
83073.4045283631
 20
20708.9045230491
1001
IRD
1002
{
1000
TPMLINK_arcbhb-_-ade
1070
   515
1071
        1
1002
}
  0
POINT
  5
414
330
D50
100
AcDbEntity
  8
0X-ARCHAEOLOGY
100
AcDbPoint
 10
83073.4045283631
 20
20708.9045230491
 30
0.0
1001
IRD
1002
{
1000
TPMNODE_arcbhb-_-ade
1070
   515
1071
        1
1004
0100F70100000000000000000000
1002
}
  0
LWPOLYLINE
  5
415
330
D50
100
AcDbEntity
  8
0X-ARCHAEOLOGY
100
AcDbPolyline
 90
       12
 70
     0
 43
0.0
 10
83073.4045283631
 20
20708.9045230491
 10
83072.77916449687
 20
20707.61548448012
 10
83072.14077259129
 20
20706.27436375586
 10
83071.78900554137
 20
20705.38896363223
 10
83069.65886118292
 20
20700.42160804017
 10
83068.01728178313
 20
20697.22244914502
 10
83065.80114976822
 20
20693.28502224974
 10
83063.99541297779
 20
20690.0038335768
 10
83061.77928096287
 20
20686.39452579269
 10
83059.80938578302
 20
20682.5391286752
 10
83058.08572743821
 20
20679.42199955785
 10
83057.68658523195
 20
20678.68562114671
1001
IRD
1002
{
1000
TPMLINK_arcbhb-_-ade
1070
   515
1071
        1
1002
}
  0
LWPOLYLINE
  5
416
330
D50
100
AcDbEntity
  8
0X-ARCHAEOLOGY
100
AcDbPolyline
 90
        2
 70
     0
 43
0.0
 10
83068.68824478584
 20
20711.2221883655
 10
83069.16300765346
 20
20711.8218658243
1001
IRD
1002
{
1000
TPMLINK_arcbhb-_-ade
1070
   515
1071
        1
1002
}
  0
POINT
  5
417
330
D50
100
AcDbEntity
  8
0X-ARCHAEOLOGY
100
AcDbPoint
 10
83071.93173645205
 20
20711.65126355968
 30
0.0
1001
IRD
1002
{
1000
TPMCNTR_arcbhb-_-ade
1070
   515
1071
        1
1004
010049020000000000D0BB800A40E3298E47538B1D4004000000
1002
}
  0
POINT
  5
418
330
D50
100
AcDbEntity
  8
0X-ARCHAEOLOGY
100
AcDbPoint
 10
83069.16300765346
 20
20711.8218658243
 30
0.0
1001
IRD
1002
{
1000
TPMNODE_arcbhb-_-ade
1070
   515
1071
        1
1004
0100EE0100000000000000000000
1002
}
  0
LWPOLYLINE
  5
419
330
D50
100
AcDbEntity
  8
0X-ARCHAEOLOGY
100
AcDbPolyline
 90
        2
 70
     0
 43
0.0
 10
83069.16300765346
 20
20711.8218658243
 10
83069.43142897342
 20
20712.26896583654
1001
IRD
1002
{
1000
TPMLINK_arcbhb-_-ade
1070
   515
1071
        1
1002
}
  0
POINT
  5
41A
330
D50
100
AcDbEntity
  8
0X-ARCHAEOLOGY
100
AcDbPoint
 10
83070.25302077753
 20
20713.67047540124
 30
0.0
1001
IRD
1002
{
1000
TPMNODE_arcbhb-_-ade
1070
   515
1071
        1
1004
0100E40100000000000000000000
1002
}
  0
LWPOLYLINE
  5
41B
330
D50
100
AcDbEntity
  8
0X-ARCHAEOLOGY
100
AcDbPolyline
 90
        3
 70
     0
 43
0.0
 10
83070.25302077753
 20
20713.67047540124
 10
83070.50075128269
 20
20714.14913323501
 10
83070.64938918628
 20
20714.36370403613
1001
IRD
1002
{
1000
TPMLINK_arcbhb-_-ade
1070
   515
1071
        1
1002
}
  0
POINT
  5
41C
330
D50
100
AcDbEntity
  8
0X-ARCHAEOLOGY
100
AcDbPoint
 10
83074.70863438562
 20
20711.42081963836
 30
0.0
1001
IRD
1002
{
1000
TPMNODE_arcbhb-_-ade
1070
   515
1071
        1
1004
0100EF0100000000000000000000
1002
}
  0
POINT
  5
420
330
D50
100
AcDbEntity
  8
0X-ARCHAEOLOGY
100
AcDbPoint
 10
83073.7088412207
 20
20709.51847401264
 30
0.0
1001
IRD
1002
{
1000
TPMNODE_arcbhb-_-ade
1070
   515
1071
        1
1004
0100F60100000000000000000000
1002
}
  0
LWPOLYLINE
  5
421
330
D50
100
AcDbEntity
  8
0X-ARCHAEOLOGY
100
AcDbPolyline
 90
        2
 70
     0
 43
0.0
 10
83073.7088412207
 20
20709.51847401264
 10
83073.4045283631
 20
20708.9045230491
1001
IRD
1002
{
1000
TPMLINK_arcbhb-_-ade
1070
   515
1071
        1
1002
}
  0
LWPOLYLINE
  5
422
330
D50
100
AcDbEntity
  8
0X-ARCHAEOLOGY
100
AcDbPolyline
 90
        3
 70
     0
 43
0.0
 10
83074.70863438562
 20
20711.42081963836
 10
83074.44791960366
 20
20710.94707744156
 10
83074.3723050805
 20
20710.79937391897
1001
IRD
1002
{
1000
TPMLINK_arcbhb-_-ade
1070
   515
1071
        1
1002
}
  0
LWPOLYLINE
  5
423
330
D50
100
AcDbEntity
  8
0X-ARCHAEOLOGY
100
AcDbPolyline
 90
        2
 70
     0
 43
0.0
 10
83070.25302077753
 20
20713.67047540124
 10
83071.88383265355
 20
20712.88102324181
1001
IRD
1002
{
1000
TPMLINK_arcbhb-_-ade
1070
   515
1071
        1
1002
}
  0
POINT
  5
424
330
D50
100
AcDbEntity
  8
0X-ARCHAEOLOGY
100
AcDbPoint
 10
83072.69026721749
 20
20712.90150690858
 30
0.0
1001
IRD
1002
{
1000
TPMCNTR_arcbhb-_-ade
1070
   515
1071
        1
1004
01004802000000000030D2600F404E32237E0F10274007000000
1002
}
  0
POINT
  5
426
330
D50
100
AcDbEntity
  8
0X-ARCHAEOLOGY
100
AcDbPoint
 10
83071.23825233064
 20
20710.37235926903
 30
0.0
1001
IRD
1002
{
1000
TPMCNTR_arcbhb-_-ade
1070
   515
1071
        1
1004
01004702000000000060488A0E40265A692B6B9B274006000000
1002
}
  0
POINT
  5
427
330
D50
100
AcDbEntity
  8
0X-ARCHAEOLOGY
100
AcDbPoint
 10
83070.64938918628
 20
20714.36370403613
 30
0.0
1001
IRD
1002
{
1000
TPMNODE_arcbhb-_-ade
1070
   515
1071
        1
1004
0100E30100000000000000000000
1002
}
  0
LWPOLYLINE
  5
428
330
D50
100
AcDbEntity
  8
0X-ARCHAEOLOGY
100
AcDbPolyline
 90
        5
 70
     0
 43
0.0
 10
83070.64938918628
 20
20714.36370403613
 10
83071.75591757747
 20
20713.8190244442
 10
83073.0441149059
 20
20713.14230098754
 10
83074.29928170008
 20
20712.53159963744
 10
83075.07550325044
 20
20712.08595285695
1001
IRD
1002
{
1000
TPMLINK_arcbhb-_-ade
1070
   515
1071
        1
1002
}
  0
POINT
  5
429
330
D50
100
AcDbEntity
  8
0X-ARCHAEOLOGY
100
AcDbPoint
 10
83075.07550325044
 20
20712.08595285695
 30
0.0
1001
IRD
1002
{
1000
TPMNODE_arcbhb-_-ade
1070
   515
1071
        1
1004
0100EA0100000000000000000000
1002
}
  0
LWPOLYLINE
  5
42A
330
D50
100
AcDbEntity
  8
0X-ARCHAEOLOGY
100
AcDbPolyline
 90
        2
 70
     0
 43
0.0
 10
83075.07550325044
 20
20712.08595285695
 10
83074.9664884625
 20
20711.88848221516
1001
IRD
1002
{
1000
TPMLINK_arcbhb-_-ade
1070
   515
1071
        1
1002
}
  0
LWPOLYLINE
  5
42B
330
D50
100
AcDbEntity
  8
0X-ARCHAEOLOGY
100
AcDbPolyline
 90
       44
 70
     0
 43
0.0
 10
83070.64938918628
 20
20714.36370403613
 10
83071.07096171744
 20
20715.07548431718
 10
83071.52000609282
 20
20715.89498601421
 10
83072.3784584022
 20
20717.70790085685
 10
83073.07826357035
 20
20719.05671552003
 10
83073.67809671428
 20
20720.4055305316
 10
83074.37790188243
 20
20722.30386224107
 10
83075.07770705056
 20
20723.80254531628
 10
83075.31201699725
 20
20724.29363176702
 10
83076.28317523054
 20
20725.12772003509
 10
83076.90532353616
 20
20725.67366917572
 10
83077.52747184178
 20
20726.11346119062
 10
83078.05857418787
 20
20726.65940998285
 10
83078.62002485422
 20
20727.28118504462
 10
83078.89137791937
 20
20727.584390482
 10
83079.74124025235
 20
20728.41302742502
 10
83080.94348538089
 20
20729.63526696823
 10
83081.71043429118
 20
20730.38104007759
 10
83082.56029712355
 20
20731.16824527798
 10
83083.28578982186
 20
20731.93473460706
 10
83083.96982530945
 20
20732.57692801144
 10
83084.71604661315
 20
20733.30198524949
 10
83085.08915701529
 20
20733.81988342597
 10
83085.60736565747
 20
20734.21348602617
 10
83086.3328583558
 20
20733.55057640207
 10
83086.9961657374
 20
20732.929098869
 10
83087.39000474491
 20
20732.49406452618
 10
83086.5815986239
 20
20731.64471171184
 10
83085.93901934828
 20
20730.9196541254
 10
83085.46226741745
 20
20730.31889246365
 10
83084.88187345854
 20
20729.26238023935
 10
83083.99055391482
 20
20727.87441337721
 10
83083.30651792785
 20
20726.69360592502
 10
83082.91267941972
 20
20726.00998042961
 10
83082.22864343274
 20
20724.68416152981
 10
83081.27598203898
 20
20722.70351087532
 10
83080.72613515682
 20
20721.40465246562
 10
83079.9263574651
 20
20719.95592564388
 10
83078.87664996259
 20
20718.25741790314
 10
83077.67698367471
 20
20716.60886676428
 10
83076.92719224478
 20
20715.31000800618
 10
83076.17740081486
 20
20714.16101766013
 10
83075.47759564672
 20
20712.96207140899
 10
83075.07550325044
 20
20712.08595285695
1001
IRD
1002
{
1000
TPMLINK_arcbhb-_-ade
1070
   515
1071
        1
1002
}
  0
POINT
  5
42C
330
D50
100
AcDbEntity
  8
0X-ARCHAEOLOGY
100
AcDbPoint
 10
83078.1646837561
 20
20723.21923308701
 30
0.0
1001
IRD
1002
{
1000
TPMCNTR_arcbhb-_-ade
1070
   515
1071
        1
1004
010046020000000000124A9B5B4043A88EBCF5594C4002000000
1002
}
  0
POINT
  5
42F
330
D50
100
AcDbEntity
  8
0X-ARCHAEOLOGY
100
AcDbPoint
 10
83069.43142897342
 20
20712.26896583654
 30
0.0
1001
IRD
1002
{
1000
TPMNODE_arcbhb-_-ade
1070
   515
1071
        1
1004
0100E90100000000000000000000
1002
}
  0
POINT
  5
431
330
D50
100
AcDbEntity
  8
0X-ARCHAEOLOGY
100
AcDbPoint
 10
83070.18190646697
 20
20713.54807418952
 30
0.0
1001
IRD
1002
{
1000
TPMNODE_arcbhb-_-ade
1070
   515
1071
        1
1004
0100E50100000000000000000000
1002
}
  0
LWPOLYLINE
  5
432
330
D50
100
AcDbEntity
  8
0X-ARCHAEOLOGY
100
AcDbPolyline
 90
        2
 70
     0
 43
0.0
 10
83070.18190646697
 20
20713.54807418952
 10
83070.25302077753
 20
20713.67047540124
1001
IRD
1002
{
1000
TPMLINK_arcbhb-_-ade
1070
   515
1071
        1
1002
}
  0
LWPOLYLINE
  5
433
330
D50
100
AcDbEntity
  8
0X-ARCHAEOLOGY
100
AcDbPolyline
 90
        4
 70
     0
 43
0.0
 10
83069.43142897342
 20
20712.26896583654
 10
83069.50983026082
 20
20712.39955612112
 10
83069.95574447096
 20
20713.15880651418
 10
83070.18190646697
 20
20713.54807418952
1001
IRD
1002
{
1000
TPMLINK_arcbhb-_-ade
1070
   515
1071
        1
1002
}
  0
LWPOLYLINE
  5
434
330
D50
100
AcDbEntity
  8
0X-ARCHAEOLOGY
100
AcDbPolyline
 90
       21
 70
     0
 43
0.0
 10
83069.43142897342
 20
20712.26896583654
 10
83068.47418752755
 20
20712.73310600208
 10
83067.40662739631
 20
20713.28975955646
 10
83067.15907766968
 20
20713.39799798953
 10
83066.32359571928
 20
20713.76910024299
 10
83065.68924835873
 20
20714.04742719438
 10
83064.91565408968
 20
20714.44945501305
 10
83064.451497728
 20
20714.75870683287
 10
83063.9099816398
 20
20715.06795900108
 10
83064.26583468395
 20
20715.54729968762
 10
83064.68357590884
 20
20716.01117793993
 10
83065.0239574072
 20
20716.32042975975
 10
83065.45717017789
 20
20716.10395359039
 10
83065.85943885821
 20
20715.87201429004
 10
83066.18434881077
 20
20715.77923863958
 10
83066.69492080862
 20
20715.42359882033
 10
83067.26738048781
 20
20715.11434700052
 10
83068.07191884723
 20
20714.69685639923
 10
83068.92287234342
 20
20714.23297849531
 10
83069.77382633902
 20
20713.7845630256
 10
83070.18190646697
 20
20713.54807418952
1001
IRD
1002
{
1000
TPMLINK_arcbhb-_-ade
1070
   515
1071
        1
1002
}
  0
POINT
  5
435
330
D50
100
AcDbEntity
  8
0X-ARCHAEOLOGY
100
AcDbPoint
 10
83066.98762797727
 20
20714.30742547206
 30
0.0
1001
IRD
1002
{
1000
TPMCNTR_arcbhb-_-ade
1070
   515
1071
        1
1004
010045020000000000D4B17F23407968542323762E4002000000
1002
}
  0
POINT
  5
436
330
D50
100
AcDbEntity
  8
0X-ARCHAEOLOGY
100
AcDbPoint
 10
83074.9664884625
 20
20711.88848221516
 30
0.0
1001
IRD
1002
{
1000
TPMNODE_arcbhb-_-ade
1070
   515
1071
        1
1004
0100EC0100000000000000000000
1002
}
  0
LWPOLYLINE
  5
437
330
D50
100
AcDbEntity
  8
0X-ARCHAEOLOGY
100
AcDbPolyline
 90
        3
 70
     0
 43
0.0
 10
83074.9664884625
 20
20711.88848221516
 10
83074.81125747814
 20
20711.60729502318
 10
83074.70863438562
 20
20711.42081963836
1001
IRD
1002
{
1000
TPMLINK_arcbhb-_-ade
1070
   515
1071
        1
1002
}
  0
POINT
  5
438
330
D50
100
AcDbEntity
  8
0X-ARCHAEOLOGY
100
AcDbPoint
 10
83074.3723050805
 20
20710.79937391897
 30
0.0
1001
IRD
1002
{
1000
TPMNODE_arcbhb-_-ade
1070
   515
1071
        1
1004
0100F10100000000000000000000
1002
}
  0
LWPOLYLINE
  5
439
330
D50
100
AcDbEntity
  8
0X-ARCHAEOLOGY
100
AcDbPolyline
 90
        4
 70
     0
 43
0.0
 10
83074.3723050805
 20
20710.79937391897
 10
83074.08458222856
 20
20710.23734328002
 10
83073.75427488834
 20
20709.61013640328
 10
83073.7088412207
 20
20709.51847401264
1001
IRD
1002
{
1000
TPMLINK_arcbhb-_-ade
1070
   515
1071
        1
1002
}
  0
LWPOLYLINE
  5
43A
330
D50
100
AcDbEntity
  8
0X-ARCHAEOLOGY
100
AcDbPolyline
 90
       11
 70
     0
 43
0.0
 10
83074.9664884625
 20
20711.88848221516
 10
83076.07908026745
 20
20711.44811159371
 10
83077.22600367067
 20
20711.02734155722
 10
83077.85027837125
 20
20710.73715561349
 10
83078.64876963897
 20
20710.41795086634
 10
83079.43274269295
 20
20710.0842365433
 10
83079.95539139562
 20
20709.82306905458
 10
83080.68129209409
 20
20709.37328056308
 10
83081.33460322212
 20
20708.90898249567
 10
83082.17664813223
 20
20708.44468477666
 10
83082.52508026775
 20
20708.21253574296
1001
IRD
1002
{
1000
TPMLINK_arcbhb-_-ade
1070
   515
1071
        1
1002
}
  0
POINT
  5
43B
330
D50
100
AcDbEntity
  8
0X-ARCHAEOLOGY
100
AcDbPoint
 10
83078.96474567261
 20
20709.57183995019
 30
0.0
1001
IRD
1002
{
1000
TPMCNTR_arcbhb-_-ade
1070
   515
1071
        1
1004
01004402000000000014A6CC24401AFF752A2B1D334005000000
1002
}
  0
POINT
  5
43C
330
D50
100
AcDbEntity
  8
0X-ARCHAEOLOGY
100
AcDbPoint
 10
83081.40719329196
 20
20707.22590269812
 30
0.0
1001
IRD
1002
{
1000
TPMNODE_arcbhb-_-ade
1070
   515
1071
        1
1004
0100FB0100000000000000000000
1002
}
  0
LWPOLYLINE
  5
43D
330
D50
100
AcDbEntity
  8
0X-ARCHAEOLOGY
100
AcDbPolyline
 90
       13
 70
     0
 43
0.0
 10
83081.40719329196
 20
20707.22590269812
 10
83080.59418381052
 20
20707.77725647896
 10
83079.72310297235
 20
20708.34311948732
 10
83078.93912991835
 20
20708.80741755472
 10
83078.24226514793
 20
20709.1991687878
 10
83077.42925616588
 20
20709.6489572793
 10
83076.67431903994
 20
20710.05521808828
 10
83076.10811619551
 20
20710.27285754608
 10
83075.81775591611
 20
20710.35991360792
 10
83075.44028735315
 20
20710.44696932136
 10
83075.14992707375
 20
20710.50500657978
 10
83074.71438665467
 20
20710.65009955165
 10
83074.3723050805
 20
20710.79937391897
1001
IRD
1002
{
1000
TPMLINK_arcbhb-_-ade
1070
   515
1071
        1
1002
}
  0
POINT
  5
43E
330
D50
100
AcDbEntity
  8
0X-ARCHAEOLOGY
100
AcDbPoint
 10
83082.52508026775
 20
20708.21253574296
 30
0.0
1001
IRD
1002
{
1000
TPMNODE_arcbhb-_-ade
1070
   515
1071
        1
1004
0100F80100000000000000000000
1002
}
  0
LWPOLYLINE
  5
43F
330
D50
100
AcDbEntity
  8
0X-ARCHAEOLOGY
100
AcDbPolyline
 90
        2
 70
     0
 43
0.0
 10
83082.52508026775
 20
20708.21253574296
 10
83081.40719329196
 20
20707.22590269812
1001
IRD
1002
{
1000
TPMLINK_arcbhb-_-ade
1070
   515
1071
        1
1002
}
  0
LWPOLYLINE
  5
440
330
D50
100
AcDbEntity
  8
0X-ARCHAEOLOGY
100
AcDbPolyline
 90
        4
 70
     0
 43
0.0
 10
83082.52508026775
 20
20708.21253574296
 10
83082.76709078047
 20
20708.0485719958
 10
83083.07605976233
 20
20707.85931761224
 10
83083.25546097776
 20
20707.75970995026
1001
IRD
1002
{
1000
TPMLINK_arcbhb-_-ade
1070
   515
1071
        1
1002
}
  0
POINT
  5
441
330
D50
100
AcDbEntity
  8
0X-ARCHAEOLOGY
100
AcDbPoint
 10
83082.30467181117
 20
20707.47036574206
 30
0.0
1001
IRD
1002
{
1000
TPMCNTR_arcbhb-_-ade
1070
   515
1071
        1
1004
01004302000000000020A538F43F75C5C1ED9319134004000000
1002
}
  0
POINT
  5
442
330
D50
100
AcDbEntity
  8
0X-ARCHAEOLOGY
100
AcDbPoint
 10
83083.25546097776
 20
20707.75970995026
 30
0.0
1001
IRD
1002
{
1000
TPMNODE_arcbhb-_-ade
1070
   515
1071
        1
1004
0100F90100000000000000000000
1002
}
  0
LWPOLYLINE
  5
443
330
D50
100
AcDbEntity
  8
0X-ARCHAEOLOGY
100
AcDbPolyline
 90
        4
 70
     0
 43
0.0
 10
83083.25546097776
 20
20707.75970995026
 10
83082.85180799334
 20
20707.40610301155
 10
83082.53785561665
 20
20707.08237854562
 10
83082.19400337031
 20
20706.71881066651
1001
IRD
1002
{
1000
TPMLINK_arcbhb-_-ade
1070
   515
1071
        1
1002
}
  0
POINT
  5
444
330
D50
100
AcDbEntity
  8
0X-ARCHAEOLOGY
100
AcDbPoint
 10
83082.19400337031
 20
20706.71881066651
 30
0.0
1001
IRD
1002
{
1000
TPMNODE_arcbhb-_-ade
1070
   515
1071
        1
1004
0100FD0100000000000000000000
1002
}
  0
LWPOLYLINE
  5
445
330
D50
100
AcDbEntity
  8
0X-ARCHAEOLOGY
100
AcDbPolyline
 90
        3
 70
     0
 43
0.0
 10
83082.19400337031
 20
20706.71881066651
 10
83081.77540070078
 20
20706.98277088365
 10
83081.40719329196
 20
20707.22590269812
1001
IRD
1002
{
1000
TPMLINK_arcbhb-_-ade
1070
   515
1071
        1
1002
}
  0
LWPOLYLINE
  5
446
330
D50
100
AcDbEntity
  8
0X-ARCHAEOLOGY
100
AcDbPolyline
 90
       60
 70
     0
 43
0.0
 10
83083.25546097776
 20
20707.75970995026
 10
83084.30360189949
 20
20707.14579884382
 10
83085.12724385508
 20
20706.56475316184
 10
83085.90243616636
 20
20706.10475880878
 10
83086.89565187701
 20
20705.30582108316
 10
83087.91309191042
 20
20704.50688335755
 10
83088.76095868816
 20
20703.92583802397
 10
83089.5603758216
 20
20703.32058207621
 10
83090.04487126584
 20
20702.95742843788
 10
83090.82006357714
 20
20702.27954204117
 10
83091.4499074549
 20
20701.6984963592
 10
83092.29777423265
 20
20701.04482022828
 10
83092.97606775472
 20
20700.58482587521
 10
83093.63013645462
 20
20700.17325170532
 10
83094.57490252098
 20
20699.49536530861
 10
83095.30164518795
 20
20698.9627401582
 10
83095.76191581006
 20
20698.59958651987
 10
83096.19796161
 20
20698.33327429306
 10
83096.63400740994
 20
20698.09117163524
 10
83096.63400740994
 20
20698.09117163524
 10
83096.63400740994
 20
20698.09117163524
 10
83096.63400740994
 20
20698.09117163524
 10
83096.63400740994
 20
20698.09117163524
 10
83096.85203030992
 20
20697.82485940843
 10
83096.85203030992
 20
20697.82485940843
 10
83096.87625513207
 20
20697.55854683322
 10
83096.87625513207
 20
20697.55854683322
 10
83096.87625513207
 20
20697.55854683322
 10
83096.73090619917
 20
20697.26802399224
 10
83096.73090619917
 20
20697.26802399224
 10
83096.36753486567
 20
20697.29223425802
 10
83096.05261317648
 20
20697.4617057701
 10
83096.05261317648
 20
20697.4617057701
 10
83095.47121844362
 20
20697.70380807952
 10
83095.15629675445
 20
20697.8732795916
 10
83094.86559938801
 20
20697.97012065473
 10
83094.50222805452
 20
20698.16380243258
 10
83094.18730586594
 20
20698.33327429306
 10
83093.60591163248
 20
20698.79326864612
 10
83092.95184293255
 20
20699.2290527334
 10
83092.4188983434
 20
20699.59220637174
 10
83091.71637999917
 20
20700.07641099058
 10
83090.9896368328
 20
20700.63324605838
 10
83090.35979295503
 20
20701.11745102562
 10
83089.89952283233
 20
20701.40797351821
 10
83089.31812809948
 20
20701.89217848545
 10
83088.71250904386
 20
20702.40059337008
 10
83088.1795644547
 20
20702.86058772315
 10
83087.42859646617
 20
20703.29637181043
 10
83086.7503029441
 20
20703.70794563193
 10
83086.16890871064
 20
20704.0226787387
 10
83085.66018844424
 20
20704.4342529086
 10
83085.05456938862
 20
20704.8458267301
 10
83084.78809684435
 20
20705.06371877374
 10
83084.30360189949
 20
20705.28161081738
 10
83083.84333127739
 20
20705.57213365837
 10
83083.31038618884
 20
20705.91107703092
 10
83082.75321677752
 20
20706.32265085242
 10
83082.19400337031
 20
20706.71881066651
 10
83082.19400337031
 20
20706.71881066651
1001
IRD
1002
{
1000
TPMLINK_arcbhb-_-ade
1070
   515
1071
        1
1002
}
  0
POINT
  5
447
330
D50
100
AcDbEntity
  8
0X-ARCHAEOLOGY
100
AcDbPoint
 10
83089.5287484647
 20
20702.54682660269
 30
0.0
1001
IRD
1002
{
1000
TPMCNTR_arcbhb-_-ade
1070
   515
1071
        1
1004
010042020000000000483E6C35400C1C8F0F6435424002000000
1002
}
  0
LWPOLYLINE
  5
44D
330
D50
100
AcDbEntity
  8
0X-ARCHAEOLOGY
100
AcDbPolyline
 90
       11
 70
     0
 43
0.0
 10
83063.04861839658
 20
20710.61520542738
 10
83063.15411065792
 20
20710.62022578872
 10
83063.2445323822
 20
20710.60014399496
 10
83063.3148607229
 20
20710.54993968477
 10
83063.37011852652
 20
20710.4645924968
 10
83063.3801657177
 20
20710.38426567016
 10
83063.36007183473
 20
20710.2989181338
 10
83063.3148607229
 20
20710.24369346226
 10
83063.2445323822
 20
20710.18846879073
 10
83063.15913400383
 20
20710.15834627429
 10
83063.10594416673
 20
20710.15834627429
1001
IRD
1002
{
1000
TPMLINK_arcbhb-_-ade
1070
   515
1071
        1
1002
}
  0
POINT
  5
44E
330
D50
100
AcDbEntity
  8
0X-ARCHAEOLOGY
100
AcDbPoint
 10
83063.04861839658
 20
20710.61520542738
 30
0.0
1001
IRD
1002
{
1000
TPMNODE_arcbhb-_-ade
1070
   515
1071
        1
1004
0100F40100000000000000000000
1002
}
  0
POINT
  5
44F
330
D50
100
AcDbEntity
  8
0X-ARCHAEOLOGY
100
AcDbPoint
 10
83063.11667859028
 20
20710.390737026
 30
0.0
1001
IRD
1002
{
1000
TPMCNTR_arcbhb-_-ade
1070
   515
1071
        1
1004
01004102000000000000AE9BC83F099BEDC7732FF93F02000000
1002
}
  0
POINT
  5
450
330
D50
100
AcDbEntity
  8
0X-ARCHAEOLOGY
100
AcDbPoint
 10
83063.10594416673
 20
20710.15834627429
 30
0.0
1001
IRD
1002
{
1000
TPMNODE_arcbhb-_-ade
1070
   515
1071
        1
1004
0100F50100000000000000000000
1002
}
  0
LWPOLYLINE
  5
451
330
D50
100
AcDbEntity
  8
0X-ARCHAEOLOGY
100
AcDbPolyline
 90
        9
 70
     0
 43
0.0
 10
83063.10594416673
 20
20710.15834627429
 10
83063.06368843427
 20
20710.15834627429
 10
83062.96321951882
 20
20710.17842771965
 10
83062.89289117813
 20
20710.22361166851
 10
83062.86275060337
 20
20710.2989181338
 10
83062.85270391157
 20
20710.40434746392
 10
83062.89289117813
 20
20710.50475608431
 10
83062.96321951882
 20
20710.55998075584
 10
83063.04861839658
 20
20710.61520542738
1001
IRD
1002
{
1000
TPMLINK_arcbhb-_-ade
1070
   515
1071
        1
1002
}
  0
LWPOLYLINE
  5
452
330
D50
100
AcDbEntity
  8
0X-ARCHAEOLOGY
100
AcDbPolyline
 90
        6
 70
     0
 43
0.0
 10
83063.04861839658
 20
20710.61520542738
 10
83063.00931155143
 20
20710.92532962643
 10
83062.96826184147
 20
20711.3355812917
 10
83062.94089536816
 20
20711.77318295186
 10
83062.94089536816
 20
20711.77318295186
 10
83062.93264197938
 20
20711.88128098204
1001
IRD
1002
{
1000
TPMLINK_arcbhb-_-ade
1070
   515
1071
        1
1002
}
  0
POINT
  5
453
330
D50
100
AcDbEntity
  8
0X-ARCHAEOLOGY
100
AcDbPoint
 10
83063.67010666197
 20
20708.62596445043
 30
0.0
1001
IRD
1002
{
1000
TPMCNTR_arcbhb-_-ade
1070
   515
1071
        1
1004
010040020000000000A01C650F40F653DE70E71D2D4004000000
1002
}
  0
POINT
  5
454
330
D50
100
AcDbEntity
  8
0X-ARCHAEOLOGY
100
AcDbPoint
 10
83062.93264197938
 20
20711.88128098204
 30
0.0
1001
IRD
1002
{
1000
TPMNODE_arcbhb-_-ade
1070
   515
1071
        1
1004
0100ED0100000000000000000000
1002
}
  0
LWPOLYLINE
  5
455
330
D50
100
AcDbEntity
  8
0X-ARCHAEOLOGY
100
AcDbPolyline
 90
        5
 70
     0
 43
0.0
 10
83062.93264197938
 20
20711.88128098204
 10
83063.25409017295
 20
20711.89777814722
 10
83063.46085935985
 20
20711.90993362308
 10
83063.46085935985
 20
20711.90993362308
 10
83063.49250159493
 20
20711.90907901195
1001
IRD
1002
{
1000
TPMLINK_arcbhb-_-ade
1070
   515
1071
        1
1002
}
  0
POINT
  5
456
330
D50
100
AcDbEntity
  8
0X-ARCHAEOLOGY
100
AcDbPoint
 10
83063.49250159493
 20
20711.90907901195
 30
0.0
1001
IRD
1002
{
1000
TPMNODE_arcbhb-_-ade
1070
   515
1071
        1
1004
0100EB0100000000000000000000
1002
}
  0
LWPOLYLINE
  5
457
330
D50
100
AcDbEntity
  8
0X-ARCHAEOLOGY
100
AcDbPolyline
 90
       35
 70
     0
 43
0.0
 10
83063.49250159493
 20
20711.90907901195
 10
83063.51986806824
 20
20711.76890954782
 10
83063.55578656445
 20
20711.52788656382
 10
83063.5899946561
 20
20711.21506962551
 10
83063.73452459236
 20
20710.1048259475
 10
83063.80294077564
 20
20709.4620984547
 10
83063.88504069496
 20
20709.05184678943
 10
83064.00818982486
 20
20708.586894786
 10
83064.10397298084
 20
20708.1356179542
 10
83064.18607240079
 20
20707.62964078423
 10
83064.22712211075
 20
20706.86383744347
 10
83064.25448858406
 20
20706.23478512231
 10
83064.28185505737
 20
20705.70145760907
 10
83064.23860704055
 20
20705.57048401153
 10
83064.17583843842
 20
20705.4613867866
 10
83064.09942455313
 20
20705.35228921327
 10
83064.01482319832
 20
20705.30865039298
 10
83063.91930571686
 20
20705.3004680053
 10
83063.84562048869
 20
20705.31137762327
 10
83063.78285188656
 20
20705.37410879762
 10
83063.74737385073
 20
20705.46956882588
 10
83063.7118958149
 20
20705.6195779892
 10
83063.70097968825
 20
20705.76958680413
 10
83063.67641827845
 20
20705.92777800674
 10
83063.66823080892
 20
20706.17051996803
 10
83063.64094024262
 20
20706.35598556397
 10
83063.58400848975
 20
20706.94588812492
 10
83063.54295877978
 20
20707.36981461343
 10
83063.52927554313
 20
20707.76639145545
 10
83063.43349288654
 20
20708.23134345889
 10
83063.31034325725
 20
20708.76467062374
 10
83063.24192707396
 20
20709.12022195085
 10
83063.17351089069
 20
20709.51679879287
 10
83063.14614441738
 20
20709.87235011997
 10
83063.10594416673
 20
20710.15834627429
1001
IRD
1002
{
1000
TPMLINK_arcbhb-_-ade
1070
   515
1071
        1
1002
}
  0
LWPOLYLINE
  5
458
330
D50
100
AcDbEntity
  8
0X-ARCHAEOLOGY
100
AcDbPolyline
 90
        5
 70
     0
 43
0.0
 10
83062.93264197938
 20
20711.88128098204
 10
83062.90389769404
 20
20712.14702497781
 10
83062.84892054657
 20
20712.54384569582
 10
83062.82448598139
 20
20712.90403693773
 10
83062.81226894847
 20
20713.21538887816
1001
IRD
1002
{
1000
TPMLINK_arcbhb-_-ade
1070
   515
1071
        1
1002
}
  0
POINT
  5
459
330
D50
100
AcDbEntity
  8
0X-ARCHAEOLOGY
100
AcDbPoint
 10
83063.11746605141
 20
20712.58017091967
 30
0.0
1001
IRD
1002
{
1000
TPMCNTR_arcbhb-_-ade
1070
   515
1071
        1
1004
01003F020000000000408A19E73F0A8CE01CC93A0E4004000000
1002
}
  0
POINT
  5
45A
330
D50
100
AcDbEntity
  8
0X-ARCHAEOLOGY
100
AcDbPoint
 10
83062.81226894847
 20
20713.21538887816
 30
0.0
1001
IRD
1002
{
1000
TPMNODE_arcbhb-_-ade
1070
   515
1071
        1
1004
0100E80100000000000000000000
1002
}
  0
LWPOLYLINE
  5
45B
330
D50
100
AcDbEntity
  8
0X-ARCHAEOLOGY
100
AcDbPolyline
 90
        2
 70
     0
 43
0.0
 10
83062.81226894847
 20
20713.21538887816
 10
83063.31317428895
 20
20713.27033344071
1001
IRD
1002
{
1000
TPMLINK_arcbhb-_-ade
1070
   515
1071
        1
1002
}
  0
POINT
  5
45C
330
D50
100
AcDbEntity
  8
0X-ARCHAEOLOGY
100
AcDbPoint
 10
83063.31317428895
 20
20713.27033344071
 30
0.0
1001
IRD
1002
{
1000
TPMNODE_arcbhb-_-ade
1070
   515
1071
        1
1004
0100E70100000000000000000000
1002
}
  0
LWPOLYLINE
  5
45D
330
D50
100
AcDbEntity
  8
0X-ARCHAEOLOGY
100
AcDbPolyline
 90
        4
 70
     0
 43
0.0
 10
83063.31317428895
 20
20713.27033344071
 10
83063.36204291995
 20
20712.79414816103
 10
83063.42312908324
 20
20712.29964814329
 10
83063.49250159493
 20
20711.90907901195
1001
IRD
1002
{
1000
TPMLINK_arcbhb-_-ade
1070
   515
1071
        1
1002
}
  0
LWPOLYLINE
  5
45E
330
D50
100
AcDbEntity
  8
0X-ARCHAEOLOGY
100
AcDbPolyline
 90
        6
 70
     0
 43
0.0
 10
83062.81226894847
 20
20713.21538887816
 10
83062.80616043202
 20
20713.38632713009
 10
83063.23987109275
 20
20714.17386400182
 10
83063.27652269085
 20
20713.71599380858
 10
83063.3070657725
 20
20713.42295660619
 10
83063.31317428895
 20
20713.27033344071
1001
IRD
1002
{
1000
TPMLINK_arcbhb-_-ade
1070
   515
1071
        1
1002
}
  0
POINT
  5
45F
330
D50
100
AcDbEntity
  8
0X-ARCHAEOLOGY
100
AcDbPoint
 10
83063.12802029059
 20
20713.69763748959
 30
0.0
1001
IRD
1002
{
1000
TPMCNTR_arcbhb-_-ade
1070
   515
1071
        1
1004
01003E020000000000802937D13FFEB124C587D8034002000000
1002
}
  0
LWPOLYLINE
  5
460
330
D50
100
AcDbEntity
  8
0X-ARCHAEOLOGY
100
AcDbPolyline
 90
       41
 70
     0
 43
0.0
 10
83103.1316076947
 20
20717.11822928131
 10
83103.16338376582
 20
20717.12352243535
 10
83103.16338376582
 20
20717.12352243535
 10
83103.16338376582
 20
20717.12352243535
 10
83103.16338376582
 20
20717.12352243535
 10
83103.21104837186
 20
20717.06530052797
 10
83103.21104837186
 20
20717.06530052797
 10
83103.0998311242
 20
20716.86946358319
 10
83102.98861387654
 20
20716.67362663842
 10
83102.88798815319
 20
20716.49366811061
 10
83102.75558685813
 20
20716.29783116583
 10
83102.65496113477
 20
20716.16021612844
 10
83102.52255983971
 20
20715.97496479498
 10
83102.41134209266
 20
20715.81617783818
 10
83102.35838147475
 20
20715.72619874847
 10
83102.2577562508
 20
20715.56211898602
 10
83102.16772305054
 20
20715.45626147935
 10
83102.08298586213
 20
20715.35569642993
 10
83102.02472923238
 20
20715.31864609356
 10
83102.02472923238
 20
20715.31864609356
 10
83101.96647210323
 20
20715.29218171689
 10
83101.96647210323
 20
20715.29218171689
 10
83101.96647210323
 20
20715.29218171689
 10
83101.96647210323
 20
20715.29218171689
 10
83101.96647210323
 20
20715.29218171689
 10
83101.96647210323
 20
20715.29218171689
 10
83101.92307676689
 20
20715.3240855732
 10
83101.92694952239
 20
20715.35021305262
 10
83101.93275940469
 20
20715.38504934344
 10
83101.9482514254
 20
20715.44407743515
 10
83101.97826715311
 20
20715.50600904466
 10
83101.99182304577
 20
20715.53503934508
 10
83102.10416990954
 20
20715.74737031948
 10
83102.21009164474
 20
20715.89027851092
 10
83102.36897349845
 20
20716.14433736308
 10
83102.52255983971
 20
20716.3348815022
 10
83102.61788905182
 20
20716.47778934525
 10
83102.72910629948
 20
20716.62599034234
 10
83102.85621208209
 20
20716.80594887015
 10
83102.97802135345
 20
20716.9594426729
 10
83103.1316076947
 20
20717.11822928131
1001
IRD
1002
{
1000
TPMLINK_arcbhb-_-ade
1070
   515
1071
        1
1002
}
  0
POINT
  5
461
330
D50
100
AcDbEntity
  8
0X-ARCHAEOLOGY
100
AcDbPoint
 10
83103.1316076947
 20
20717.11822928131
 30
0.0
1001
IRD
1002
{
1000
TPMNODE_arcbhb-_-ade
1070
   515
1071
        1
1004
0100E20100000000000000000000
1002
}
  0
POINT
  5
462
330
D50
100
AcDbEntity
  8
0X-ARCHAEOLOGY
100
AcDbPoint
 10
83102.55940304814
 20
20716.21360523299
 30
0.0
1001
IRD
1002
{
1000
TPMCNTR_arcbhb-_-ade
1070
   515
1071
        1
1004
01003D020000000000000391DA3FD2F2C7CEC51B124001000000
1002
}
  0
LWPOLYLINE
  5
463
330
D50
100
AcDbEntity
  8
0X-ARCHAEOLOGY
100
AcDbPolyline
 90
       27
 70
     0
 43
0.0
 10
83101.33348507615
 20
20713.29685983156
 10
83101.38501045236
 20
20713.31041097484
 10
83101.43382365127
 20
20713.29685983156
 10
83101.45551857281
 20
20713.25349624273
 10
83101.45823025073
 20
20713.19387135165
 10
83101.4528063955
 20
20713.13424611217
 10
83101.41212872975
 20
20713.05293960086
 10
83101.35246782037
 20
20712.95266093154
 10
83101.30907847668
 20
20712.87406457921
 10
83101.2467058894
 20
20712.78462724258
 10
83101.18975665794
 20
20712.70061022391
 10
83101.13280792588
 20
20712.60575222093
 10
83101.06772366066
 20
20712.52715552022
 10
83101.0080627513
 20
20712.46753062913
 10
83100.96467290822
 20
20712.45126932687
 10
83100.92128356454
 20
20712.47837161344
 10
83100.899588643
 20
20712.52715552022
 10
83100.90501199885
 20
20712.60575222093
 10
83100.93213077562
 20
20712.69789971654
 10
83100.95111351984
 20
20712.77920657624
 10
83100.9945033629
 20
20712.8523826106
 10
83101.04060488389
 20
20712.93097931132
 10
83101.0894180828
 20
20713.00957566364
 10
83101.14907899218
 20
20713.09901334867
 10
83101.21416325739
 20
20713.18032020836
 10
83101.29009523307
 20
20713.26162671966
 10
83101.33348507615
 20
20713.29685983156
1001
IRD
1002
{
1000
TPMLINK_arcbhb-_-ade
1070
   515
1071
        1
1002
}
  0
POINT
  5
464
330
D50
100
AcDbEntity
  8
0X-ARCHAEOLOGY
100
AcDbPoint
 10
83101.33348507615
 20
20713.29685983156
 30
0.0
1001
IRD
1002
{
1000
TPMNODE_arcbhb-_-ade
1070
   515
1071
        1
1004
0100E60100000000000000000000
1002
}
  0
POINT
  5
465
330
D50
100
AcDbEntity
  8
0X-ARCHAEOLOGY
100
AcDbPoint
 10
83101.16354370689
 20
20712.88353914434
 30
0.0
1001
IRD
1002
{
1000
TPMCNTR_arcbhb-_-ade
1070
   515
1071
        1
1004
01003C02000000000000EA74CA3F3485C8A8BD11014001000000
1002
}
  0
POINT
  5
468
330
D50
100
AcDbEntity
  8
0X-ARCHAEOLOGY
100
AcDbPoint
 10
83099.71854202496
 20
20709.49218171354
 30
0.0
1001
IRD
1002
{
1000
TPMCNTR_arcbhb-_-ade
1070
   515
1071
        1
1004
01003B02000000000000BA47E73F743B2ABDFA8C184002000000
1002
}
  0
POINT
  5
46E
330
D50
100
AcDbEntity
  8
0X-ARCHAEOLOGY
100
AcDbPoint
 10
83105.67904832317
 20
20719.16946565882
 30
0.0
1001
IRD
1002
{
1000
TPMNODE_arcbhb-_-ade
1070
   515
1071
        1
1004
0100E10100000000000000000000
1002
}
  0
POINT
  5
46F
330
D50
100
AcDbEntity
  8
0X-ARCHAEOLOGY
100
AcDbPoint
 10
83107.7869037051
 20
20713.71309032304
 30
0.0
1001
IRD
1002
{
1000
TPMCNTR_arcbhb-_-ade
1070
   515
1071
        1
1004
0100390200000000000C13BE2440F3D387EDEA513E4003000000
1002
}
  0
POINT
  5
476
330
D50
100
AcDbEntity
  8
0X-ARCHAEOLOGY
100
AcDbPoint
 10
83109.35888265521
 20
20706.61222954495
 30
0.0
1001
IRD
1002
{
1000
TPMNODE_arcbhb-_-ade
1070
   515
1071
        1
1004
0100FE0100000000000000000000
1002
}
  0
LWPOLYLINE
  5
477
330
D50
100
AcDbEntity
  8
0X-ARCHAEOLOGY
100
AcDbPolyline
 90
        3
 70
     0
 43
0.0
 10
83109.35888265521
 20
20706.61222954495
 10
83109.24549406767
 20
20706.87349597764
 10
83109.17935109948
 20
20707.08439783877
1001
IRD
1002
{
1000
TPMLINK_arcbhb-_-ade
1070
   515
1071
        1
1002
}
  0
POINT
  5
478
330
D50
100
AcDbEntity
  8
0X-ARCHAEOLOGY
100
AcDbPoint
 10
83108.83288655346
 20
20706.38558897295
 30
0.0
1001
IRD
1002
{
1000
TPMNODE_arcbhb-_-ade
1070
   515
1071
        1
1004
0100FF0100000000000000000000
1002
}
  0
LWPOLYLINE
  5
479
330
D50
100
AcDbEntity
  8
0X-ARCHAEOLOGY
100
AcDbPolyline
 90
        2
 70
     0
 43
0.0
 10
83108.83288655346
 20
20706.38558897295
 10
83109.35888265521
 20
20706.61222954495
1001
IRD
1002
{
1000
TPMLINK_arcbhb-_-ade
1070
   515
1071
        1
1002
}
  0
LWPOLYLINE
  5
47A
330
D50
100
AcDbEntity
  8
0X-ARCHAEOLOGY
100
AcDbPolyline
 90
       37
 70
     0
 43
0.0
 10
83109.35888265521
 20
20706.61222954495
 10
83109.46290621588
 20
20706.35424359265
 10
83109.5281043416
 20
20706.15225017284
 10
83109.56722341679
 20
20705.97632047629
 10
83109.56070340447
 20
20705.61794506529
 10
83109.56070340447
 20
20705.41595164548
 10
83109.53462435392
 20
20705.12925103796
 10
83109.53462435392
 20
20704.88816220745
 10
83109.56070340447
 20
20704.69268445716
 10
83109.57374292973
 20
20704.3929521622
 10
83109.56070340447
 20
20704.13883164426
 10
83109.55418339213
 20
20703.9563859298
 10
83109.52158432927
 20
20703.80000359021
 10
83109.50517443306
 20
20703.74051352771
 10
83109.46500764141
 20
20703.67955602856
 10
83109.43376691446
 20
20703.66022815999
 10
83109.40550154238
 20
20703.66468830336
 10
83109.38318638071
 20
20703.70334438889
 10
83109.37128496115
 20
20703.76430188803
 10
83109.35938404097
 20
20703.90257120985
 10
83109.3370688793
 20
20704.08098356392
 10
83109.34301958908
 20
20704.20289821381
 10
83109.3455489903
 20
20704.3929521622
 10
83109.33250946504
 20
20704.56888220715
 10
83109.30642991512
 20
20704.66010506438
 10
83109.29991040217
 20
20704.88164618954
 10
83109.28687037752
 20
20705.00544878795
 10
83109.28687037752
 20
20705.21395787728
 10
83109.29339038985
 20
20705.40943562756
 10
83109.25427131465
 20
20705.55278593133
 10
83109.2021127142
 20
20705.68962021717
 10
83109.11735505088
 20
20705.7808430744
 10
83109.00651783764
 20
20705.92419302976
 10
83108.96087924951
 20
20706.02844792282
 10
83108.90872064905
 20
20706.14573450332
 10
83108.86960157387
 20
20706.26302073542
 10
83108.83288655346
 20
20706.38558897295
1001
IRD
1002
{
1000
TPMLINK_arcbhb-_-ade
1070
   515
1071
        1
1002
}
  0
POINT
  5
47B
330
D50
100
AcDbEntity
  8
0X-ARCHAEOLOGY
100
AcDbPoint
 10
83109.4114865068
 20
20705.14550256482
 30
0.0
1001
IRD
1002
{
1000
TPMCNTR_arcbhb-_-ade
1070
   515
1071
        1
1004
01003702000000000080E6F3ED3F3D9BE6CED9EB194002000000
1002
}
  0
POINT
  5
47C
330
D50
100
AcDbEntity
  8
0X-ARCHAEOLOGY
100
AcDbPoint
 10
83057.39196486729
 20
20678.1420753312
 30
0.0
1001
IRD
1002
{
1000
TPMNODE_arcbhb-_-ade
1070
   515
1071
        1
1004
0100030200000000000000000000
1002
}
  0
LWPOLYLINE
  5
47D
330
D50
100
AcDbEntity
  8
0X-ARCHAEOLOGY
100
AcDbPolyline
 90
        6
 70
     0
 43
0.0
 10
83057.39196486729
 20
20678.1420753312
 10
83056.76660150045
 20
20676.85043286349
 10
83056.34969225629
 20
20675.93378316798
 10
83055.89109258712
 20
20674.89213588174
 10
83055.53671972957
 20
20674.12131670876
 10
83055.37673572611
 20
20673.68633427668
1001
IRD
1002
{
1000
TPMLINK_arcbhb-_-ade
1070
   515
1071
        1
1002
}
  0
POINT
  5
47E
330
D50
100
AcDbEntity
  8
0X-ARCHAEOLOGY
100
AcDbPoint
 10
83057.68658523195
 20
20678.68562114671
 30
0.0
1001
IRD
1002
{
1000
TPMNODE_arcbhb-_-ade
1070
   515
1071
        1
1004
0100020200000000000000000000
1002
}
  0
LWPOLYLINE
  5
47F
330
D50
100
AcDbEntity
  8
0X-ARCHAEOLOGY
100
AcDbPolyline
 90
        2
 70
     0
 43
0.0
 10
83057.68658523195
 20
20678.68562114671
 10
83057.39196486729
 20
20678.1420753312
1001
IRD
1002
{
1000
TPMLINK_arcbhb-_-ade
1070
   515
1071
        1
1002
}
  0
LWPOLYLINE
  5
480
330
D50
100
AcDbEntity
  8
0X-ARCHAEOLOGY
100
AcDbPolyline
 90
       17
 70
     0
 43
0.0
 10
83057.39196486729
 20
20678.1420753312
 10
83057.83807284007
 20
20677.92374570436
 10
83058.31214755077
 20
20677.64113385192
 10
83058.81117419283
 20
20677.35852199948
 10
83059.45159111754
 20
20676.96785253059
 10
83060.07537442012
 20
20676.59380704239
 10
83060.49954676625
 20
20676.32781951904
 10
83060.59103468433
 20
20676.25301056075
 10
83061.02352434091
 20
20675.97871069866
 10
83061.81538922661
 20
20675.44318864994
 10
83062.41382757931
 20
20675.02231792752
 10
83063.32256728159
 20
20674.44638980888
 10
83064.12048525165
 20
20673.98121692348
 10
83064.98489626104
 20
20673.42743971214
 10
83065.80497857755
 20
20672.91796466376
 10
83066.60289654761
 20
20672.38633835971
 10
83067.26782793964
 20
20671.96546763728
1001
IRD
1002
{
1000
TPMLINK_arcbhb-_-ade
1070
   515
1071
        1
1002
}
  0
POINT
  5
487
330
D50
100
AcDbEntity
  8
0X-ARCHAEOLOGY
100
AcDbPoint
 10
83063.28097702567
 20
20674.98458715159
 30
0.0
1001
IRD
1002
{
1000
TPMCNTR_arcbhb-_-ade
1070
   515
1071
        1
1004
010036020000000000C081F52540B06D7DD492F53B4005000000
1002
}
  0
POINT
  5
488
330
D50
100
AcDbEntity
  8
0X-ARCHAEOLOGY
100
AcDbPoint
 10
83068.51879587783
 20
20671.23675191107
 30
0.0
1001
IRD
1002
{
1000
TPMNODE_arcbhb-_-ade
1070
   515
1071
        1
1004
01000F0200000000000000000000
1002
}
  0
LWPOLYLINE
  5
489
330
D50
100
AcDbEntity
  8
0X-ARCHAEOLOGY
100
AcDbPolyline
 90
        2
 70
     0
 43
0.0
 10
83068.51879587783
 20
20671.23675191107
 10
83069.00948223758
 20
20672.42959743025
1001
IRD
1002
{
1000
TPMLINK_arcbhb-_-ade
1070
   515
1071
        1
1002
}
  0
POINT
  5
48A
330
D50
100
AcDbEntity
  8
0X-ARCHAEOLOGY
100
AcDbPoint
 10
83069.00948223758
 20
20672.42959743025
 30
0.0
1001
IRD
1002
{
1000
TPMNODE_arcbhb-_-ade
1070
   515
1071
        1
1004
01000B0200000000000000000000
1002
}
  0
POINT
  5
48C
330
D50
100
AcDbEntity
  8
0X-ARCHAEOLOGY
100
AcDbPoint
 10
83067.26782793964
 20
20671.96546763728
 30
0.0
1001
IRD
1002
{
1000
TPMNODE_arcbhb-_-ade
1070
   515
1071
        1
1004
01000D0200000000000000000000
1002
}
  0
LWPOLYLINE
  5
48E
330
D50
100
AcDbEntity
  8
0X-ARCHAEOLOGY
100
AcDbPolyline
 90
        4
 70
     0
 43
0.0
 10
83067.26782793964
 20
20671.96546763728
 10
83067.74939547088
 20
20671.65494243643
 10
83068.2096141566
 20
20671.40020491224
 10
83068.51879587783
 20
20671.23675191107
1001
IRD
1002
{
1000
TPMLINK_arcbhb-_-ade
1070
   515
1071
        1
1002
}
  0
POINT
  5
49E
330
D50
100
AcDbEntity
  8
0X-ARCHAEOLOGY
100
AcDbPoint
 10
83076.26019779846
 20
20667.02461645077
 30
0.0
1001
IRD
1002
{
1000
TPMCNTR_arcbhb-_-ade
1070
   515
1071
        1
1004
010034020000000000C49B683040F5B07F0135323D4002000000
1002
}
  0
LWPOLYLINE
  5
49F
330
D50
100
AcDbEntity
  8
0X-LIMITEXCAVATION
100
AcDbPolyline
 90
       12
 70
     0
 43
0.0
 10
83032.71797174832
 20
20686.29265341473
 10
83033.96960171718
 20
20687.64747761998
 10
83035.39825766481
 20
20689.13820690402
 10
83039.93950039531
 20
20693.30191344883
 10
83042.79736937555
 20
20695.95788225491
 10
83043.87848124676
 20
20696.80112934238
 10
83045.3165220019
 20
20697.98836327516
 10
83046.62951595197
 20
20699.23808311272
 10
83048.38017371975
 20
20700.48780329867
 10
83049.8807383768
 20
20701.23763520121
 10
83051.75644344903
 20
20701.80000904101
 10
83053.44457831368
 20
20702.36238322921
  0
LWPOLYLINE
  5
4A0
330
D50
100
AcDbEntity
  8
0X-LIMITEXCAVATION
100
AcDbPolyline
 90
       22
 70
     0
 43
0.0
 10
83053.44457831368
 20
20702.36238322921
 10
83054.92859674153
 20
20704.0167936628
 10
83057.43385604638
 20
20706.4594830479
 10
83058.83924580227
 20
20708.16936551295
 10
83060.12242727564
 20
20709.69604659639
 10
83061.58892067341
 20
20711.77233252146
 10
83063.9099816398
 20
20715.06795900108
 10
83065.0239574072
 20
20716.32042975975
 10
83066.23281693243
 20
20717.39051821171
 10
83068.00482953839
 20
20718.61186273006
 10
83070.32677741822
 20
20720.32174554351
 10
83072.28210194859
 20
20721.90949352189
 10
83074.11508585855
 20
20723.46712316456
 10
83075.31201699725
 20
20724.29363176702
 10
83077.52747184178
 20
20726.11346119062
 10
83079.74124025235
 20
20728.41302742502
 10
83081.71043429118
 20
20730.38104007759
 10
83083.96982530945
 20
20732.57692801144
 10
83085.60736565747
 20
20734.21348602617
 10
83087.81132908014
 20
20732.02647169422
 10
83090.27318555783
 20
20730.1898503639
 10
83092.70036801467
 20
20728.28392261431
  0
LWPOLYLINE
  5
4A3
330
D50
100
AcDbEntity
  8
0X-LIMITEXCAVATION
100
AcDbPolyline
 90
       23
 70
     0
 43
0.0
 10
83092.70036801467
 20
20728.28392261431
 10
83094.64003073235
 20
20726.99954556057
 10
83096.17649091377
 20
20725.84159869479
 10
83097.99001716133
 20
20724.65847894987
 10
83099.42572577357
 20
20723.70191442036
 10
83100.98737359759
 20
20722.54396755457
 10
83103.00240298349
 20
20721.20981123165
 10
83103.80841503749
 20
20720.58049238888
 10
83106.37633108151
 20
20718.61529267159
 10
83107.07357888269
 20
20717.99385415868
 10
83107.92996622187
 20
20717.31418955765
 10
83108.76116591846
 20
20716.58417954675
 10
83110.04574717695
 20
20715.65278754797
 10
83111.17920158106
 20
20714.77174130746
 10
83112.11115234744
 20
20714.0669038273
 10
83113.24460675156
 20
20713.18585758679
 10
83114.52918801004
 20
20712.22929270888
 10
83115.41076349122
 20
20711.62514639686
 10
83116.72053239231
 20
20710.76927268708
 10
83117.67767130067
 20
20710.03926267619
 10
83118.53405913926
 20
20709.40994383342
 10
83119.86901568294
 20
20708.47855183465
 10
83120.88701053664
 20
20707.7920311829
  0
LWPOLYLINE
  5
4A5
330
D50
100
AcDbEntity
  8
0X-SECTION
100
AcDbPolyline
 90
        5
 70
     0
 43
0.0
 10
83048.79014311312
 20
20672.48632943776
 10
83048.67792144878
 20
20672.56274361442
 10
83048.51022539334
 20
20672.26107111181
 10
83053.6501200044
 20
20669.70523546365
 10
83053.8010466041
 20
20670.01528754509
  0
POINT
  5
4B2
330
D50
100
AcDbEntity
  8
0X-ARCHAEOLOGY
100
AcDbPoint
 10
83051.95089941437
 20
20672.83345662897
 30
0.0
1001
IRD
1002
{
1000
TPMCNTR_arcbhb-_-ade
1070
   515
1071
        1
1004
0100D8020000000000E01C721A40C6468BC54EBF244004000000
1002
}
  0
LWPOLYLINE
  5
4B4
330
D50
100
AcDbEntity
  8
0X-ARCHAEOLOGY
100
AcDbPolyline
 90
        5
 70
     0
 43
0.0
 10
83055.37673572611
 20
20673.68633427668
 10
83054.85524027415
 20
20672.67524007877
 10
83054.48179511855
 20
20671.95119113714
 10
83053.76584273239
 20
20670.44859315558
 10
83053.42620424592
 20
20669.79449973799
1001
IRD
1002
{
1000
TPMLINK_arcbhb-_-ade
1070
   515
1071
        1
1002
}
  0
LWPOLYLINE
  5
4B5
330
D50
100
AcDbEntity
  8
0X-SECTION
100
AcDbPolyline
 90
        4
 70
     0
 43
0.0
 10
83048.86791418852
 20
20673.37576517815
 10
83048.7845193556
 20
20673.15906917202
 10
83053.67978516158
 20
20670.49204140421
 10
83053.80487741098
 20
20670.76707881696
  0
POINT
  5
4B6
330
D50
100
AcDbEntity
  8
0X-ARCHAEOLOGY
100
AcDbPoint
 10
83069.31519828989
 20
20670.80772075149
 30
0.0
1001
IRD
1002
{
1000
TPMNODE_arcbhb-_-ade
1070
   515
1071
        1
1004
0100DA0200000000000000000000
1002
}
  0
LWPOLYLINE
  5
4B7
330
D50
100
AcDbEntity
  8
0X-ARCHAEOLOGY
100
AcDbPolyline
 90
        4
 70
     0
 43
0.0
 10
83069.31519828989
 20
20670.80772075149
 10
83069.0866654068
 20
20670.91065262777
 10
83068.68399399349
 20
20671.13131526467
 10
83068.51879587783
 20
20671.23675191107
1001
IRD
1002
{
1000
TPMLINK_arcbhb-_-ade
1070
   515
1071
        1
1002
}
  0
LWPOLYLINE
  5
4BC
330
D50
100
AcDbEntity
  8
0X-ARCHAEOLOGY
100
AcDbPolyline
 90
        4
 70
     0
 43
0.0
 10
83069.00948223758
 20
20672.42959743025
 10
83069.36370178293
 20
20672.23517810174
 10
83069.75311770917
 20
20672.05827673359
 10
83069.8949279836
 20
20671.98741425859
1001
IRD
1002
{
1000
TPMLINK_arcbhb-_-ade
1070
   515
1071
        1
1002
}
  0
POINT
  5
4BD
330
D50
100
AcDbEntity
  8
0X-ARCHAEOLOGY
100
AcDbPoint
 10
83069.8949279836
 20
20671.98741425859
 30
0.0
1001
IRD
1002
{
1000
TPMNODE_arcbhb-_-ade
1070
   515
1071
        1
1004
0100DE0200000000000000000000
1002
}
  0
LWPOLYLINE
  5
4C4
330
D50
100
AcDbEntity
  8
0X-ARCHAEOLOGY
100
AcDbPolyline
 90
        2
 70
     0
 43
0.0
 10
83069.31519828989
 20
20670.80772075149
 10
83069.8949279836
 20
20671.98741425859
1001
IRD
1002
{
1000
TPMLINK_arcbhb-_-ade
1070
   515
1071
        1
1002
}
  0
POINT
  5
4C5
330
D50
100
AcDbEntity
  8
0X-ARCHAEOLOGY
100
AcDbPoint
 10
83069.19710451251
 20
20671.62375421646
 30
0.0
1001
IRD
1002
{
1000
TPMCNTR_arcbhb-_-ade
1070
   515
1071
        1
1004
0100E00200000000000087C3F33F246F60886100124004000000
1002
}
  0
LWPOLYLINE
  5
4C7
330
D50
100
AcDbEntity
  8
0X-ARCHAEOLOGY
100
AcDbPolyline
 90
       80
 70
     0
 43
0.0
 10
83069.8949279836
 20
20671.98741425859
 10
83069.89813761735
 20
20671.9858104073
 10
83070.19209591663
 20
20671.83891969207
 10
83070.65982340332
 20
20671.58082399558
 10
83071.1817979319
 20
20671.29992937846
 10
83071.40263338621
 20
20671.16951390853
 10
83071.94468431918
 20
20670.88861929142
 10
83072.31608931064
 20
20670.70804410576
 10
83072.6373042899
 20
20670.54753259736
 10
83072.93844386359
 20
20670.407085463
 10
83073.31988655783
 20
20670.24657430299
 10
83073.9020893008
 20
20669.95564767305
 10
83074.41402612659
 20
20669.63462500464
 10
83074.90588704738
 20
20669.20325089195
 10
83075.26725383665
 20
20668.77187712765
 10
83075.72900065026
 20
20668.38063071786
 10
83076.03014022393
 20
20668.14989581647
 10
83076.5822288597
 20
20667.65833032362
 10
83076.98513575815
 20
20667.17039753776
 10
83077.25616122464
 20
20666.79921515362
 10
83077.41676846458
 20
20666.59857629071
 10
83077.66771802606
 20
20666.32771333802
 10
83077.93874349256
 20
20666.02675504365
 10
83078.11942713687
 20
20665.72579640089
 10
83078.30011028181
 20
20665.42483775813
 10
83078.52094573612
 20
20664.93327191689
 10
83078.70162938045
 20
20664.57212154557
 10
83078.82208530979
 20
20664.24106721273
 10
83078.94254073975
 20
20663.91001287989
 10
83079.0730343719
 20
20663.5990222243
 10
83079.16087675613
 20
20663.32187911661
 10
83079.19618849568
 20
20663.18463651269
 10
83079.24327181387
 20
20663.00033908272
 10
83079.22365384786
 20
20662.8630964788
 10
83079.2158064617
 20
20662.72193234905
 10
83079.17657102906
 20
20662.50626549957
 10
83079.1216408241
 20
20662.34157395679
 10
83078.99216294754
 20
20662.16904040752
 10
83078.87837934394
 20
20662.14943417194
 10
83078.78421320693
 20
20662.15335569777
 10
83078.64688844362
 20
20662.19256782055
 10
83078.56449338587
 20
20662.25530735635
 10
83078.38400899743
 20
20662.3847076054
 10
83078.28199597367
 20
20662.4984227963
 10
83078.12505274494
 20
20662.63566574861
 10
83078.0858173123
 20
20662.74545976207
 10
83078.01911652749
 20
20662.91799365972
 10
83077.96418632253
 20
20663.0709209734
 10
83077.91710350371
 20
20663.17679415781
 10
83077.79939620702
 20
20663.52578278217
 10
83077.7091542625
 20
20663.78458328026
 10
83077.5874144061
 20
20664.10665043468
 10
83077.47699667895
 20
20664.40760907744
 10
83077.34650304679
 20
20664.68850369455
 10
83077.20597121245
 20
20664.92927060877
 10
83076.98092491685
 20
20665.28157559812
 10
83076.72997535535
 20
20665.64272596943
 10
83076.47902629325
 20
20665.9838123151
 10
83076.18792492177
 20
20666.33493067359
 10
83075.76632991814
 20
20666.70611305773
 10
83075.52541855884
 20
20666.93684795912
 10
83075.19416537737
 20
20667.23780625348
 10
83074.83279808873
 20
20667.5989566248
 10
83074.54169671725
 20
20667.80962784893
 10
83074.18032992799
 20
20668.14068218177
 10
83073.88922855651
 20
20668.33128938026
 10
83073.46763355288
 20
20668.61218399737
 10
83073.07615265643
 20
20668.91314264013
 10
83072.78505128495
 20
20669.09371782579
 10
83072.51402581847
 20
20669.26426099863
 10
83072.25303855418
 20
20669.39467646855
 10
83072.02541741301
 20
20669.52256956401
 10
83071.7255572719
 20
20669.67240975612
 10
83071.19143113027
 20
20669.9299476734
 10
83070.76506746872
 20
20670.13597793754
 10
83070.4417810272
 20
20670.30454815366
 10
83070.13723512662
 20
20670.43097590285
 10
83069.91234014565
 20
20670.53867327963
 10
83069.69647560146
 20
20670.63599233968
 10
83069.31519828989
 20
20670.80772075149
1001
IRD
1002
{
1000
TPMLINK_arcbhb-_-ade
1070
   515
1071
        1
1002
}
  0
LWPOLYLINE
  5
4C8
330
D50
100
AcDbEntity
  8
0X-SECTION
100
AcDbPolyline
 90
        4
 70
     0
 43
0.0
 10
83069.8440702831
 20
20672.16606817682
 10
83069.95543734722
 20
20672.12484581914
 10
83069.26661072926
 20
20670.69855210404
 10
83069.13461993128
 20
20670.7521414129
  0
LWPOLYLINE
  5
4CB
330
D50
100
AcDbEntity
  8
0X-SECTION
100
AcDbPolyline
 90
        4
 70
     0
 43
0.0
 10
83081.36526565754
 20
20706.95194043006
 10
83081.21729743353
 20
20707.05632597097
 10
83082.68827383917
 20
20708.36984202413
 10
83082.87976174719
 20
20708.26545648323
  0
LWPOLYLINE
  5
4CC
330
D50
100
AcDbEntity
  8
0X-SECTION
100
AcDbPolyline
 90
        4
 70
     0
 43
0.0
 10
83069.96588305019
 20
20713.55686647059
 10
83070.07903542712
 20
20713.77433591199
 10
83075.00550101024
 20
20711.28648452687
 10
83074.92716497977
 20
20711.0951115578
  0
LWPOLYLINE
  5
4CD
330
D50
100
AcDbEntity
  8
0X-SECTION
100
AcDbPolyline
 90
        4
 70
     0
 43
0.0
 10
83062.81600636976
 20
20711.93441110726
 10
83062.82217181647
 20
20711.87484857875
 10
83063.6216104236
 20
20711.91798013699
 10
83063.61338999445
 20
20711.99191985159
  0
POINT
  5
4CE
330
D50
100
AcDbEntity
  8
0X-ARCHAEOLOGY
100
AcDbPoint
 10
83108.66129951077
 20
20706.88131075498
 30
0.0
1001
IRD
1002
{
1000
TPMNODE_arcbhb-_-ade
1070
   515
1071
        1
1004
0100E20200000000000000000000
1002
}
  0
LWPOLYLINE
  5
4CF
330
D50
100
AcDbEntity
  8
0X-ARCHAEOLOGY
100
AcDbPolyline
 90
        4
 70
     0
 43
0.0
 10
83108.66129951077
 20
20706.88131075498
 10
83108.68485191082
 20
20706.82942689043
 10
83108.79509035761
 20
20706.51150040184
 10
83108.83288655346
 20
20706.38558897295
1001
IRD
1002
{
1000
TPMLINK_arcbhb-_-ade
1070
   515
1071
        1
1002
}
  0
POINT
  5
4D0
330
D50
100
AcDbEntity
  8
0X-ARCHAEOLOGY
100
AcDbPoint
 10
83109.17935109948
 20
20707.08439783877
 30
0.0
1001
IRD
1002
{
1000
TPMNODE_arcbhb-_-ade
1070
   515
1071
        1
1004
0100E40200000000000000000000
1002
}
  0
LWPOLYLINE
  5
4D2
330
D50
100
AcDbEntity
  8
0X-ARCHAEOLOGY
100
AcDbPolyline
 90
        2
 70
     0
 43
0.0
 10
83108.66129951077
 20
20706.88131075498
 10
83109.17935109948
 20
20707.08439783877
1001
IRD
1002
{
1000
TPMLINK_arcbhb-_-ade
1070
   515
1071
        1
1002
}
  0
POINT
  5
4D3
330
D50
100
AcDbEntity
  8
0X-ARCHAEOLOGY
100
AcDbPoint
 10
83109.01074281511
 20
20706.73718871392
 30
0.0
1001
IRD
1002
{
1000
TPMCNTR_arcbhb-_-ade
1070
   515
1071
        1
1004
0100E602000000000080CF38D23F096512DA9947014004000000
1002
}
  0
LWPOLYLINE
  5
4D4
330
D50
100
AcDbEntity
  8
0X-ARCHAEOLOGY
100
AcDbPolyline
 90
       29
 70
     0
 43
0.0
 10
83108.66129951077
 20
20706.88131075498
 10
83108.58496678017
 20
20707.04946504274
 10
83108.35401022523
 20
20707.55183319652
 10
83108.21815366321
 20
20707.95915869837
 10
83107.98719760765
 20
20708.29859644238
 10
83107.78341226524
 20
20708.66518942889
 10
83107.52528449778
 20
20709.01820479415
 10
83107.32149965475
 20
20709.41195302314
 10
83107.14488602424
 20
20709.80570090374
 10
83107.03620067476
 20
20710.11798375365
 10
83106.98485807462
 20
20710.58137669276
 10
83107.00899500443
 20
20711.11207139056
 10
83107.10554322314
 20
20711.66688890717
 10
83107.17795401263
 20
20712.26995101625
 10
83107.22622787228
 20
20712.80064571404
 10
83107.3227755916
 20
20713.2107280597
 10
83107.3227755916
 20
20713.66905534621
 10
83107.25036480211
 20
20714.22387286283
 10
83107.17795401263
 20
20714.70632261977
 10
83106.98485807462
 20
20715.3576296697
 10
83106.64694055764
 20
20716.12954942017
 10
83106.23661225116
 20
20717.02208152276
 10
83105.77800958566
 20
20717.74575633237
 10
83105.27113306048
 20
20718.51767608283
 10
83104.94054306655
 20
20719.04573866196
 10
83104.69084047739
 20
20719.46166009548
 10
83104.45627084882
 20
20719.8095216644
 10
83104.13090095973
 20
20720.29350331091
 10
83105.67904832317
 20
20719.16946565882
1001
IRD
1002
{
1000
TPMLINK_arcbhb-_-ade
1070
   515
1071
        1
1002
}
  0
LWPOLYLINE
  5
4D5
330
D50
100
AcDbEntity
  8
0X-ARCHAEOLOGY
100
AcDbPolyline
 90
       20
 70
     0
 43
0.0
 10
83105.67904832317
 20
20719.16946565882
 10
83106.23516402539
 20
20718.26631937658
 10
83106.61749363308
 20
20717.74527380631
 10
83106.96506582212
 20
20717.22422788765
 10
83107.24312367322
 20
20716.73791861906
 10
83107.66021069959
 20
20715.86950898689
 10
83108.07729772593
 20
20715.00109935472
 10
83108.18156898313
 20
20714.44531713438
 10
83108.25108382045
 20
20713.88953491405
 10
83108.28584073971
 20
20712.81270712346
 10
83108.14681206386
 20
20712.08324304637
 10
83107.8339967941
 20
20711.04115120905
 10
83107.76448245617
 20
20710.45063268704
 10
83107.79923937544
 20
20709.82537786337
 10
83107.94644053918
 20
20709.16755758267
 10
83108.31325315675
 20
20708.5565695041
 10
83108.72082334218
 20
20707.99989121372
 10
83109.01970817814
 20
20707.53825557528
 10
83109.1419788842
 20
20707.29386048321
 10
83109.17935109948
 20
20707.08439783877
1001
IRD
1002
{
1000
TPMLINK_arcbhb-_-ade
1070
   515
1071
        1
1002
}
  0
LWPOLYLINE
  5
4D6
330
D50
100
AcDbEntity
  8
0X-SECTION
100
AcDbPolyline
 90
        4
 70
     0
 43
0.0
 10
83108.59740104694
 20
20706.74734206634
 10
83108.56627717683
 20
20706.83720165682
 10
83109.2994185048
 20
20707.1378857649
 10
83109.33745890149
 20
20707.05839438772
  0
LWPOLYLINE
  5
4D7
330
D50
100
AcDbEntity
  8
0X-HACHURES
100
AcDbPolyline
 90
        4
 70
     0
 43
0.0
 10
83108.88789116727
 20
20706.96853479724
 10
83108.95705543408
 20
20706.84065772792
 10
83109.02276143759
 20
20706.64365784309
 10
83109.07117662411
 20
20706.48813150821
  0
LWPOLYLINE
  5
4D8
330
D50
100
AcDbEntity
  8
0X-HACHURES
100
AcDbPolyline
 90
        5
 70
     0
 43
0.0
 10
83109.00892888386
 20
20707.01346476667
 10
83109.06426009756
 20
20706.89941198174
 10
83109.0919257044
 20
20706.75425420854
 10
83109.13342436435
 20
20706.64020177199
 10
83109.18875607743
 20
20706.53651754874
  0
POINT
  5
4DF
330
D50
100
AcDbEntity
  8
0X-ARCHAEOLOGY
100
AcDbPoint
 10
83100.21931804306
 20
20710.9224954391
 30
0.0
1001
IRD
1002
{
1000
TPMNODE_arcbhb-_-ade
1070
   515
1071
        1
1004
0100EC0200000000000000000000
1002
}
  0
LWPOLYLINE
  5
4E0
330
D50
100
AcDbEntity
  8
0X-ARCHAEOLOGY
100
AcDbPolyline
 90
       13
 70
     0
 43
0.0
 10
83100.21931804306
 20
20710.9224954391
 10
83100.31272061549
 20
20711.14737557488
 10
83100.39975498962
 20
20711.31285344351
 10
83100.46343847092
 20
20711.42741488407
 10
83100.51650795546
 20
20711.47833131214
 10
83100.55471814412
 20
20711.4953033387
 10
83100.62052452468
 20
20711.48257405749
 10
83100.64599781732
 20
20711.4401438169
 10
83100.64175251825
 20
20711.3701339896
 10
83100.59717413127
 20
20711.25345082797
 10
83100.54622704658
 20
20711.12828182726
 10
83100.47617536694
 20
20710.9712901461
 10
83100.41249188563
 20
20710.84187770325
1001
IRD
1002
{
1000
TPMLINK_arcbhb-_-ade
1070
   515
1071
        1
1002
}
  0
POINT
  5
4E1
330
D50
100
AcDbEntity
  8
0X-ARCHAEOLOGY
100
AcDbPoint
 10
83100.41249188563
 20
20710.84187770325
 30
0.0
1001
IRD
1002
{
1000
TPMNODE_arcbhb-_-ade
1070
   515
1071
        1
1004
0100EE0200000000000000000000
1002
}
  0
LWPOLYLINE
  5
4E3
330
D50
100
AcDbEntity
  8
0X-ARCHAEOLOGY
100
AcDbPolyline
 90
        2
 70
     0
 43
0.0
 10
83100.21931804306
 20
20710.9224954391
 10
83100.41249188563
 20
20710.84187770325
1001
IRD
1002
{
1000
TPMLINK_arcbhb-_-ade
1070
   515
1071
        1
1002
}
  0
POINT
  5
4E4
330
D50
100
AcDbEntity
  8
0X-ARCHAEOLOGY
100
AcDbPoint
 10
83100.44421385026
 20
20711.17064325761
 30
0.0
1001
IRD
1002
{
1000
TPMCNTR_arcbhb-_-ade
1070
   515
1071
        1
1004
0100F0020000000000000A10C13F0F37548D9962FA3F02000000
1002
}
  0
LWPOLYLINE
  5
4E6
330
D50
100
AcDbEntity
  8
0X-ARCHAEOLOGY
100
AcDbPolyline
 90
       33
 70
     0
 43
0.0
 10
83100.41249188563
 20
20710.84187770325
 10
83100.38064989528
 20
20710.72943763536
 10
83100.35398056789
 20
20710.66924346805
 10
83100.27272361584
 20
20710.48652496088
 10
83100.15760964206
 20
20710.22936574817
 10
83100.06958148543
 20
20709.96543897688
 10
83099.93415339848
 20
20709.6406062688
 10
83099.7716394944
 20
20709.26840239268
 10
83099.64975431602
 20
20709.01124317996
 10
83099.54818275143
 20
20708.76761838761
 10
83099.43984048163
 20
20708.54429592258
 10
83099.32472650785
 20
20708.36157741541
 10
83099.22992664724
 20
20708.246532752
 10
83099.17649610504
 20
20708.22092507683
 10
83099.1362613966
 20
20708.21800065538
 10
83099.10919455622
 20
20708.23189183146
 10
83099.09529558386
 20
20708.25674906539
 10
83099.08944325356
 20
20708.29622840657
 10
83099.08944325356
 20
20708.34521229166
 10
83099.10700024448
 20
20708.42197783213
 10
83099.11651009394
 20
20708.46584380548
 10
83099.13114067001
 20
20708.52433188608
 10
83099.18252671693
 20
20708.64580616563
 10
83099.31118359927
 20
20708.93003491585
 10
83099.44661168622
 20
20709.24133285517
 10
83099.49401161654
 20
20709.32930832947
 10
83099.62266849888
 20
20709.61353707969
 10
83099.73778247266
 20
20709.8436267549
 10
83099.83258233329
 20
20710.0737167785
 10
83099.92061048992
 20
20710.25643528567
 10
83100.05603857686
 20
20710.53389647732
 10
83100.15083843748
 20
20710.75045138377
 10
83100.21931804306
 20
20710.9224954391
1001
IRD
1002
{
1000
TPMLINK_arcbhb-_-ade
1070
   515
1071
        1
1002
}
  0
LWPOLYLINE
  5
4E7
330
D50
100
AcDbEntity
  8
0X-SECTION
100
AcDbPolyline
 90
        4
 70
     0
 43
0.0
 10
83100.1834814465
 20
20710.9665286417
 10
83100.17356709258
 20
20710.941207695
 10
83100.46438381278
 20
20710.82230874585
 10
83100.47429766732
 20
20710.84873061842
  0
LWPOLYLINE
  5
4E8
330
D50
100
AcDbEntity
  8
0X-HACHURES
100
AcDbPolyline
 90
       13
 70
     0
 43
0.0
 10
83100.28411865578
 20
20710.89709227136
 10
83100.33321750474
 20
20711.01032946532
 10
83100.37853948075
 20
20711.10846794869
 10
83100.4125308379
 20
20711.20660678045
 10
83100.46918343277
 20
20711.29342175345
 10
83100.51450540878
 20
20711.31606912257
 10
83100.52583552824
 20
20711.30097110875
 10
83100.52205915468
 20
20711.28209824309
 10
83100.51072853582
 20
20711.24057800832
 10
83100.46540655982
 20
20711.14243917656
 10
83100.40497709201
 20
20711.04807519665
 10
83100.37853948075
 20
20710.94993636489
 10
83100.34832449714
 20
20710.87067039879
  0
LWPOLYLINE
  5
4EC
330
D50
100
AcDbEntity
  8
0X-ARCHAEOLOGY
100
AcDbPolyline
 90
        3
 70
     0
 43
0.0
 10
83069.16300765346
 20
20711.8218658243
 10
83070.43246144462
 20
20711.1680667102
 10
83070.88093320254
 20
20710.95576026064
1001
IRD
1002
{
1000
TPMLINK_arcbhb-_-ade
1070
   515
1071
        1
1002
}
  0
POINT
  5
4ED
330
D50
100
AcDbEntity
  8
0X-ARCHAEOLOGY
100
AcDbPoint
 10
83070.88093320254
 20
20710.95576026064
 30
0.0
1001
IRD
1002
{
1000
TPMNODE_arcbhb-_-ade
1070
   515
1071
        1
1004
0100F40200000000000000000000
1002
}
  0
LWPOLYLINE
  5
4EE
330
D50
100
AcDbEntity
  8
0X-ARCHAEOLOGY
100
AcDbPolyline
 90
        3
 70
     0
 43
0.0
 10
83070.88093320254
 20
20710.95576026064
 10
83071.90678425059
 20
20710.47012255895
 10
83072.26475131541
 20
20710.27891004042
1001
IRD
1002
{
1000
TPMLINK_arcbhb-_-ade
1070
   515
1071
        1
1002
}
  0
POINT
  5
4EF
330
D50
100
AcDbEntity
  8
0X-ARCHAEOLOGY
100
AcDbPoint
 10
83072.26475131541
 20
20710.27891004042
 30
0.0
1001
IRD
1002
{
1000
TPMNODE_arcbhb-_-ade
1070
   515
1071
        1
1004
0100F60200000000000000000000
1002
}
  0
LWPOLYLINE
  5
4F0
330
D50
100
AcDbEntity
  8
0X-ARCHAEOLOGY
100
AcDbPolyline
 90
        3
 70
     0
 43
0.0
 10
83072.26475131541
 20
20710.27891004042
 10
83073.03192533935
 20
20709.86911458245
 10
83073.7088412207
 20
20709.51847401264
1001
IRD
1002
{
1000
TPMLINK_arcbhb-_-ade
1070
   515
1071
        1
1002
}
  0
POINT
  5
4F1
330
D50
100
AcDbEntity
  8
0X-ARCHAEOLOGY
100
AcDbPoint
 10
83073.25271704502
 20
20712.16545644424
 30
0.0
1001
IRD
1002
{
1000
TPMNODE_arcbhb-_-ade
1070
   515
1071
        1
1004
0100F80200000000000000000000
1002
}
  0
LWPOLYLINE
  5
4F2
330
D50
100
AcDbEntity
  8
0X-ARCHAEOLOGY
100
AcDbPolyline
 90
        3
 70
     0
 43
0.0
 10
83073.25271704502
 20
20712.16545644424
 10
83074.1958643967
 20
20711.66244409316
 10
83074.70863438562
 20
20711.42081963836
1001
IRD
1002
{
1000
TPMLINK_arcbhb-_-ade
1070
   515
1071
        1
1002
}
  0
POINT
  5
4F3
330
D50
100
AcDbEntity
  8
0X-ARCHAEOLOGY
100
AcDbPoint
 10
83071.88383265355
 20
20712.88102324181
 30
0.0
1001
IRD
1002
{
1000
TPMNODE_arcbhb-_-ade
1070
   515
1071
        1
1004
0100FA0200000000000000000000
1002
}
  0
LWPOLYLINE
  5
4F4
330
D50
100
AcDbEntity
  8
0X-ARCHAEOLOGY
100
AcDbPolyline
 90
        3
 70
     0
 43
0.0
 10
83071.88383265355
 20
20712.88102324181
 10
83072.17837003064
 20
20712.73844200862
 10
83073.25271704502
 20
20712.16545644424
1001
IRD
1002
{
1000
TPMLINK_arcbhb-_-ade
1070
   515
1071
        1
1002
}
  0
LWPOLYLINE
  5
4F5
330
D50
100
AcDbEntity
  8
0X-ARCHAEOLOGY
100
AcDbPolyline
 90
        2
 70
     0
 43
0.0
 10
83070.88093320254
 20
20710.95576026064
 10
83071.88383265355
 20
20712.88102324181
1001
IRD
1002
{
1000
TPMLINK_arcbhb-_-ade
1070
   515
1071
        1
1002
}
  0
POINT
  5
4F6
330
D50
100
AcDbEntity
  8
0X-ARCHAEOLOGY
100
AcDbPoint
 10
83070.52775027121
 20
20712.32164610855
 30
0.0
1001
IRD
1002
{
1000
TPMCNTR_arcbhb-_-ade
1070
   515
1071
        1
1004
0100FC020000000000C04A1F104066179AA20E1B204006000000
1002
}
  0
LWPOLYLINE
  5
4F7
330
D50
100
AcDbEntity
  8
0X-ARCHAEOLOGY
100
AcDbPolyline
 90
        2
 70
     0
 43
0.0
 10
83072.26475131541
 20
20710.27891004042
 10
83073.25271704502
 20
20712.16545644424
1001
IRD
1002
{
1000
TPMLINK_arcbhb-_-ade
1070
   515
1071
        1
1002
}
  0
POINT
  5
4F8
330
D50
100
AcDbEntity
  8
0X-ARCHAEOLOGY
100
AcDbPoint
 10
83073.48116926521
 20
20710.85028072375
 30
0.0
1001
IRD
1002
{
1000
TPMCNTR_arcbhb-_-ade
1070
   515
1071
        1
1004
0100FE0200000000006049CC0B407C18629ACD2F1E4005000000
1002
}
  0
POINT
  5
514
330
D50
100
AcDbEntity
  8
0X-ARCHAEOLOGY
100
AcDbPoint
 10
83052.59973156564
 20
20673.76561381276
 30
0.0
1001
IRD
1002
{
1000
TPMNODE_arcbhb-_-ade
1070
   515
1071
        1
1004
0100080300000000000000000000
1002
}
  0
POINT
  5
516
330
D50
100
AcDbEntity
  8
0X-ARCHAEOLOGY
100
AcDbPoint
 10
83051.52927316773
 20
20671.68013629723
 30
0.0
1001
IRD
1002
{
1000
TPMNODE_arcbhb-_-ade
1070
   515
1071
        1
1004
01000A0300000000000000000000
1002
}
  0
LWPOLYLINE
  5
519
330
D50
100
AcDbEntity
  8
0X-ARCHAEOLOGY
100
AcDbPolyline
 90
        9
 70
     0
 43
0.0
 10
83051.52927316773
 20
20671.68013629723
 10
83053.53144838908
 20
20670.57919431965
 10
83053.89478975929
 20
20671.39189988978
 10
83054.15431980882
 20
20671.78960727119
 10
83054.43115166189
 20
20672.32564703378
 10
83054.62147349845
 20
20672.75793742339
 10
83053.25727608336
 20
20673.43788054735
 10
83052.93067471619
 20
20673.60066516446
 10
83052.59973156564
 20
20673.76561381276
1001
IRD
1002
{
1000
TPMLINK_arcbhb-_-ade
1070
   515
1071
        1
1002
}
  0
LWPOLYLINE
  5
51C
330
D50
100
AcDbEntity
  8
0X-ARCHAEOLOGY
100
AcDbPolyline
 90
        2
 70
     0
 43
0.0
 10
83052.59973156564
 20
20673.76561381276
 10
83051.52927316773
 20
20671.68013629723
1001
IRD
1002
{
1000
TPMLINK_arcbhb-_-ade
1070
   515
1071
        1
1002
}
  0
POINT
  5
51D
330
D50
100
AcDbEntity
  8
0X-ARCHAEOLOGY
100
AcDbPoint
 10
83053.07213445494
 20
20672.18241420305
 30
0.0
1001
IRD
1002
{
1000
TPMCNTR_arcbhb-_-ade
1070
   515
1071
        1
1004
01000E030000000000D83EB11540AE2FEC2655A8224002000000
1002
}
  0
LWPOLYLINE
  5
51E
330
D50
100
AcDbEntity
  8
0X-ARCHAEOLOGY
100
AcDbPolyline
 90
        3
 70
     0
 43
0.0
 10
83048.98686096673
 20
20673.0781399717
 10
83050.85892224209
 20
20672.04874413229
 10
83051.52927316773
 20
20671.68013629723
1001
IRD
1002
{
1000
TPMLINK_arcbhb-_-ade
1070
   515
1071
        1
1002
}
  0
LWPOLYLINE
  5
51F
330
D50
100
AcDbEntity
  8
0X-ARCHAEOLOGY
100
AcDbPolyline
 90
        3
 70
     0
 43
0.0
 10
83052.59973156564
 20
20673.76561381276
 10
83051.85943490618
 20
20674.13459239147
 10
83050.0036174016
 20
20675.05956874578
1001
IRD
1002
{
1000
TPMLINK_arcbhb-_-ade
1070
   515
1071
        1
1002
}
  0
LWPOLYLINE
  5
53B
330
D50
100
AcDbEntity
  8
0X-ARCHAEOLOGY
100
AcDbPolyline
 90
       17
 70
     0
 43
0.0
 10
83069.00948223758
 20
20672.42959743025
 10
83068.57847376639
 20
20672.66816632505
 10
83068.01484776505
 20
20672.97963184202
 10
83067.47774477035
 20
20673.2314546998
 10
83066.8942261395
 20
20673.50315832784
 10
83066.60246657438
 20
20673.67545810455
 10
83065.39293637077
 20
20674.25026021292
 10
83064.7415493855
 20
20674.60406260083
 10
83064.61410401891
 20
20674.69605088025
 10
83063.89884128784
 20
20675.08877134617
 10
83063.03443027845
 20
20675.55394423157
 10
83062.01486834459
 20
20676.17417486157
 10
83060.9953069101
 20
20676.72795207292
 10
83060.21955328649
 20
20677.19312495832
 10
83059.82059405177
 20
20677.43678702886
 10
83058.37990903611
 20
20678.3228302883
 10
83057.68658523195
 20
20678.68562114671
1001
IRD
1002
{
1000
TPMLINK_arcbhb-_-ade
1070
   515
1071
        1
1002
}
  0
LWPOLYLINE
  5
548
330
D50
100
AcDbEntity
  8
0X-HACHURES
100
AcDbPolyline
 90
        6
 70
     0
 43
0.0
 10
83062.99797493992
 20
20713.23066074072
 10
83063.02377932695
 20
20712.90056065976
 10
83063.03926185929
 20
20712.58077618456
 10
83063.05990556866
 20
20712.29193887502
 10
83063.08054927803
 20
20712.02373277699
 10
83063.10119298741
 20
20711.88447157671
  0
LWPOLYLINE
  5
549
330
D50
100
AcDbEntity
  8
0X-HACHURES
100
AcDbPolyline
 90
        6
 70
     0
 43
0.0
 10
83063.08570995569
 20
20713.23066074072
 10
83063.12183669678
 20
20712.89540303108
 10
83063.14247990678
 20
20712.63235456173
 10
83063.16312361615
 20
20712.39509528097
 10
83063.17860664787
 20
20712.12173120587
 10
83063.21473288958
 20
20711.89994515954
  0
LWPOLYLINE
  5
54A
330
D50
100
AcDbEntity
  8
0X-HACHURES
100
AcDbPolyline
 90
        4
 70
     0
 43
0.0
 10
83069.99951934234
 20
20711.37101159475
 10
83070.30298057175
 20
20711.95229662358
 10
83070.65701883918
 20
20712.60940199924
 10
83071.06163414466
 20
20713.26650702651
  0
LWPOLYLINE
  5
54B
330
D50
100
AcDbEntity
  8
0X-HACHURES
100
AcDbPolyline
 90
        4
 70
     0
 43
0.0
 10
83070.5558652625
 20
20711.11827873116
 10
83071.03634562563
 20
20711.77538375842
 10
83071.36509537406
 20
20712.50830878413
 10
83071.61798006482
 20
20712.98850094624
  0
LWPOLYLINE
  5
54C
330
D50
100
AcDbEntity
  8
0X-HACHURES
100
AcDbPolyline
 90
        4
 70
     0
 43
0.0
 10
83071.44096093111
 20
20710.6886330024
 10
83071.79499919855
 20
20711.29519159631
 10
83072.07317190894
 20
20712.12920983713
 10
83072.37663313835
 20
20712.60940199924
  0
LWPOLYLINE
  5
54D
330
D50
100
AcDbEntity
  8
0X-HACHURES
100
AcDbPolyline
 90
        5
 70
     0
 43
0.0
 10
83071.94672981325
 20
20710.46117370389
 10
83072.19961400462
 20
20710.99191229936
 10
83072.4777872144
 20
20711.49737767815
 10
83072.68009486714
 20
20711.97757018865
 10
83072.88240202049
 20
20712.33139591897
  0
LWPOLYLINE
  5
54E
330
D50
100
AcDbEntity
  8
0X-HACHURES
100
AcDbPolyline
 90
        5
 70
     0
 43
0.0
 10
83072.70538288676
 20
20710.05680119181
 10
83073.00884461557
 20
20710.66335978573
 10
83073.23644028793
 20
20711.19409838119
 10
83073.53990201672
 20
20711.62374410995
 10
83073.6410555934
 20
20711.9270234069
  0
LWPOLYLINE
  5
54F
330
D50
100
AcDbEntity
  8
0X-HACHURES
100
AcDbPolyline
 90
        5
 70
     0
 43
0.0
 10
83073.10999819225
 20
20709.85461510998
 10
83073.31230584497
 20
20710.36008048877
 10
83073.66634411241
 20
20710.91609264932
 10
83073.86865176515
 20
20711.34573802967
 10
83074.07095941788
 20
20711.69956410838
  0
LWPOLYLINE
  5
550
330
D50
100
AcDbEntity
  8
0X-HACHURES
100
AcDbPolyline
 90
        3
 70
     0
 43
0.0
 10
83082.2138385702
 20
20707.88329967978
 10
83082.54258831861
 20
20707.63056681619
 10
83082.84605004742
 20
20707.37783430099
  0
LWPOLYLINE
  5
551
330
D50
100
AcDbEntity
  8
0X-HACHURES
100
AcDbPolyline
 90
        3
 70
     0
 43
0.0
 10
83081.88508882177
 20
20707.63056681619
 10
83082.2138385702
 20
20707.37783430099
 10
83082.61845387566
 20
20707.09982822071
  0
LWPOLYLINE
  5
552
330
D50
100
AcDbEntity
  8
0X-HACHURES
100
AcDbPolyline
 90
        4
 70
     0
 43
0.0
 10
83068.77979362928
 20
20671.86688913196
 10
83069.1043330358
 20
20671.69353232705
 10
83069.35053541306
 20
20671.59846563591
 10
83069.6470975945
 20
20671.46984613841
  0
LWPOLYLINE
  5
553
330
D50
100
AcDbEntity
  8
0X-HACHURES
100
AcDbPolyline
 90
        5
 70
     0
 43
0.0
 10
83068.65109679586
 20
20671.53695209952
 10
83068.86932194806
 20
20671.43629333205
 10
83069.1211199701
 20
20671.33004248825
 10
83069.3617267026
 20
20671.22379129606
 10
83069.49042353602
 20
20671.167869836
  0
LWPOLYLINE
  5
554
330
D50
100
AcDbEntity
  8
0X-HACHURES
100
AcDbPolyline
 90
        7
 70
     0
 43
0.0
 10
83052.80234511408
 20
20670.10697585706
 10
83053.0139418867
 20
20670.48762237137
 10
83053.16205992718
 20
20670.78368084881
 10
83053.41597685336
 20
20671.29120941844
 10
83053.75453208906
 20
20671.94676722678
 10
83054.05076817001
 20
20672.47544297982
 10
83054.2835255188
 20
20672.91953034759
  0
LWPOLYLINE
  5
555
330
D50
100
AcDbEntity
  8
0X-HACHURES
100
AcDbPolyline
 90
        5
 70
     0
 43
0.0
 10
83052.29451176112
 20
20671.29120941844
 10
83052.59074784207
 20
20671.84103200649
 10
83052.80234511408
 20
20672.41200177796
 10
83053.03510196348
 20
20672.87723632915
 10
83053.26785881288
 20
20673.4270589172
  0
LWPOLYLINE
  5
556
330
D50
100
AcDbEntity
  8
0X-HACHURES
100
AcDbPolyline
 90
        6
 70
     0
 43
0.0
 10
83051.89247679448
 20
20671.48153267559
 10
83052.16755329804
 20
20672.01020842863
 10
83052.35799099266
 20
20672.49658981484
 10
83052.69654622838
 20
20672.940677531
 10
83052.86582384624
 20
20673.32132404532
 10
83052.97162273194
 20
20673.57508815593
  0
LWPOLYLINE
  5
557
330
D50
100
AcDbEntity
  8
0X-HACHURES
100
AcDbPolyline
 90
        7
 70
     0
 43
0.0
 10
83051.15188659212
 20
20671.90447320834
 10
83051.34232428676
 20
20672.28511972266
 10
83051.51160190461
 20
20672.62347221854
 10
83051.68087952246
 20
20673.10985360474
 10
83051.91363687125
 20
20673.49050011906
 10
83052.0829144891
 20
20673.87114663337
 10
83052.16755329804
 20
20673.95573467024
  0
LWPOLYLINE
  5
558
330
D50
100
AcDbEntity
  8
0X-HACHURES
100
AcDbPolyline
 90
        6
 70
     0
 43
0.0
 10
83050.85565051118
 20
20672.07364928208
 10
83051.08840736058
 20
20672.47544297982
 10
83051.34232428676
 20
20672.96182436602
 10
83051.55392155876
 20
20673.46935293564
 10
83051.744358754
 20
20673.7865585965
 10
83051.85015763971
 20
20674.10376390896
  0
LWPOLYLINE
  5
561
330
D50
100
AcDbEntity
  8
0X-RASTER
100
AcDbPolyline
 90
        4
 70
   129
 43
0.0
 10
-83031.10730235021
 20
20655.16099427971
 10
-83091.44021710487
 20
20714.39419635211
 10
-83132.9065292244
 20
20672.15802834553
 10
-83072.57361446974
 20
20612.92482627313
210
0.0
220
0.0
230
-1.0
  0
LWPOLYLINE
  5
56B
330
D50
100
AcDbEntity
  8
0X-CREMATIONS
100
AcDbPolyline
 90
       15
 70
     0
 43
0.0
 10
83076.76008679751
 20
20659.37975162875
 10
83076.87287875124
 20
20659.40791322546
 10
83076.98567070495
 20
20659.37975162875
 10
83077.05151173421
 20
20659.30461758241
 10
83077.07024507468
 20
20659.20126725664
 10
83077.03270001156
 20
20659.14488938052
 10
83076.97626484362
 20
20659.08851150441
 10
83076.88228461255
 20
20659.06975533417
 10
83076.81652196546
 20
20659.07916076064
 10
83076.73186921354
 20
20659.11672778382
 10
83076.66610656645
 20
20659.18245640369
 10
83076.6472948438
 20
20659.22002342687
 10
83076.66610656645
 20
20659.29521215593
 10
83076.69432415043
 20
20659.3609407758
 10
83076.76008679751
 20
20659.37975162875
1001
IRD
1002
{
1000
TPMLINK_ARCBHB1-_-ade
1070
   515
1071
        1
1002
}
  0
LWPOLYLINE
  5
56C
330
D50
100
AcDbEntity
  8
0X-CREMATIONS
100
AcDbPolyline
 90
       21
 70
     0
 43
0.0
 10
83078.5851374231
 20
20659.08123870371
 10
83078.6069276685
 20
20659.13099997166
 10
83078.65677873352
 20
20659.16834826399
 10
83078.690953363
 20
20659.18076123962
 10
83078.76565157835
 20
20659.1869950688
 10
83078.8185595483
 20
20659.1869950688
 10
83078.87146751824
 20
20659.16834826399
 10
83078.92743239312
 20
20659.13723380084
 10
83078.95235792563
 20
20659.09370636205
 10
83078.9648206919
 20
20659.03771126491
 10
83078.9648206919
 20
20658.97865393591
 10
83078.94303044649
 20
20658.93200958254
 10
83078.89944995569
 20
20658.90089511938
 10
83078.84654198574
 20
20658.87913139999
 10
83078.7127436084
 20
20658.86978065623
 10
83078.66297092556
 20
20658.8760144854
 10
83078.59760018936
 20
20658.92577575336
 10
83078.57894523107
 20
20658.97553702132
 10
83078.57275303903
 20
20659.03153211846
 10
83078.57580994396
 20
20659.05329583785
 10
83078.5851374231
 20
20659.08123870371
1001
IRD
1002
{
1000
TPMLINK_ARCBHB1-_-ade
1070
   515
1071
        1
1002
}
  0
LWPOLYLINE
  5
56D
330
D50
100
AcDbEntity
  8
0X-CREMATIONS
100
AcDbPolyline
 90
       20
 70
     0
 43
0.0
 10
83079.87334851362
 20
20658.59614836516
 10
83079.95431730319
 20
20658.64590963312
 10
83080.02893713635
 20
20658.64902654771
 10
83080.09744315967
 20
20658.63344197478
 10
83080.17519827995
 20
20658.56191698743
 10
83080.21258657871
 20
20658.50909348759
 10
83080.21877877074
 20
20658.42821775648
 10
83080.20318071738
 20
20658.35980968372
 10
83080.15654332165
 20
20658.30693150117
 10
83080.1036353517
 20
20658.26652097697
 10
83080.01341746516
 20
20658.25405331862
 10
83079.93871924983
 20
20658.25717023321
 10
83079.86715632158
 20
20658.2975807574
 10
83079.8111914467
 20
20658.37222265935
 10
83079.81424835163
 20
20658.4437476467
 10
83079.8111914467
 20
20658.51838954864
 10
83079.83917388415
 20
20658.56503390201
 10
83079.87334851362
 20
20658.59614836516
 10
83079.87334851362
 20
20658.59614836516
 10
83079.87334851362
 20
20658.59614836516
1001
IRD
1002
{
1000
TPMLINK_ARCBHB1-_-ade
1070
   515
1071
        1
1002
}
  0
LWPOLYLINE
  5
56E
330
D50
100
AcDbEntity
  8
0X-CREMATIONS
100
AcDbPolyline
 90
       24
 70
     0
 43
0.0
 10
83080.97453972814
 20
20658.93392347746
 10
83080.97453972814
 20
20658.93392347746
 10
83081.04633780291
 20
20658.96470984434
 10
83081.21047008301
 20
20658.94934400226
 10
83081.31299397144
 20
20658.90319179329
 10
83081.40023333523
 20
20658.83653356731
 10
83081.45666850318
 20
20658.74942400702
 10
83081.49256754055
 20
20658.66739993896
 10
83081.48739431683
 20
20658.59565622076
 10
83081.48739431683
 20
20658.48284578581
 10
83081.4464004379
 20
20658.41110206761
 10
83081.35916107411
 20
20658.33421817447
 10
83081.29763106462
 20
20658.28806596551
 10
83081.18993395245
 20
20658.27270012343
 10
83081.1078678124
 20
20658.25733428134
 10
83081.00017070024
 20
20658.26755994849
 10
83080.90266327119
 20
20658.31885233239
 10
83080.82067551331
 20
20658.39059605059
 10
83080.78469809375
 20
20658.45725427657
 10
83080.76424034536
 20
20658.58023569596
 10
83080.77960325219
 20
20658.68790595597
 10
83080.81550228958
 20
20658.79552153328
 10
83080.86166939225
 20
20658.86217975926
 10
83080.97453972814
 20
20658.93392347746
1001
IRD
1002
{
1000
TPMLINK_ARCBHB1-_-ade
1070
   515
1071
        1
1002
}
  0
LWPOLYLINE
  5
56F
330
D50
100
AcDbEntity
  8
0X-CREMATIONS
100
AcDbPolyline
 90
       21
 70
     0
 43
0.0
 10
83080.40517158931
 20
20657.62170243655
 10
83080.51286870148
 20
20657.65762897836
 10
83080.68217420531
 20
20657.63198278641
 10
83080.77960325219
 20
20657.59097075238
 10
83080.87193745753
 20
20657.51922703418
 10
83080.94883037385
 20
20657.42692261625
 10
83080.99499747652
 20
20657.3295327061
 10
83081.0052655418
 20
20657.21677695386
 10
83080.9693665044
 20
20657.12966739358
 10
83080.89756842963
 20
20657.0271373085
 10
83080.78469809375
 20
20656.97075943238
 10
83080.7026319537
 20
20656.92460722342
 10
83080.5795719347
 20
20656.91438155626
 10
83080.43080256143
 20
20656.95533890758
 10
83080.36417771038
 20
20657.01685695863
 10
83080.30256931871
 20
20657.10916137656
 10
83080.27184350505
 20
20657.21163677893
 10
83080.26157543977
 20
20657.35003872311
 10
83080.2769383466
 20
20657.49358084223
 10
83080.33337351454
 20
20657.57046473536
 10
83080.40517158931
 20
20657.62170243655
1001
IRD
1002
{
1000
TPMLINK_ARCBHB1-_-ade
1070
   515
1071
        1
1002
}
  0
POINT
  5
581
330
D50
100
AcDbEntity
  8
0X-CREMATIONS
100
AcDbPoint
 10
83076.76008679751
 20
20659.37975162875
 30
0.0
1001
IRD
1002
{
1000
TPMNODE_ARCBHB1-_-ade
1070
   515
1071
        1
1004
0100010000000000000000000000
1002
}
  0
POINT
  5
582
330
D50
100
AcDbEntity
  8
0X-CREMATIONS
100
AcDbPoint
 10
83078.5851374231
 20
20659.08123870371
 30
0.0
1001
IRD
1002
{
1000
TPMNODE_ARCBHB1-_-ade
1070
   515
1071
        1
1004
0100020000000000000000000000
1002
}
  0
POINT
  5
583
330
D50
100
AcDbEntity
  8
0X-CREMATIONS
100
AcDbPoint
 10
83080.97453972814
 20
20658.93392347746
 30
0.0
1001
IRD
1002
{
1000
TPMNODE_ARCBHB1-_-ade
1070
   515
1071
        1
1004
0100030000000000000000000000
1002
}
  0
POINT
  5
584
330
D50
100
AcDbEntity
  8
0X-CREMATIONS
100
AcDbPoint
 10
83079.87334851362
 20
20658.59614836516
 30
0.0
1001
IRD
1002
{
1000
TPMNODE_ARCBHB1-_-ade
1070
   515
1071
        1
1004
0100040000000000000000000000
1002
}
  0
POINT
  5
585
330
D50
100
AcDbEntity
  8
0X-CREMATIONS
100
AcDbPoint
 10
83080.40517158931
 20
20657.62170243655
 30
0.0
1001
IRD
1002
{
1000
TPMNODE_ARCBHB1-_-ade
1070
   515
1071
        1
1004
0100050000000000000000000000
1002
}
  0
POINT
  5
586
330
D50
100
AcDbEntity
  8
0X-CREMATIONS
100
AcDbPoint
 10
83076.85775503889
 20
20659.23989660283
 30
0.0
1001
IRD
1002
{
1000
TPMCNTR_ARCBHB1-_-ade
1070
   515
1071
        1
1004
01000600000000000000E273BB3F24B214567D13F33F01000000
1002
}
  0
POINT
  5
587
330
D50
100
AcDbEntity
  8
0X-CREMATIONS
100
AcDbPoint
 10
83078.76890561816
 20
20659.02938439159
 30
0.0
1001
IRD
1002
{
1000
TPMCNTR_ARCBHB1-_-ade
1070
   515
1071
        1
1004
01000700000000000000164BBA3FADBDD1DFAC83F23F01000000
1002
}
  0
POINT
  5
588
330
D50
100
AcDbEntity
  8
0X-CREMATIONS
100
AcDbPoint
 10
83080.01538826565
 20
20658.45278074157
 30
0.0
1001
IRD
1002
{
1000
TPMCNTR_ARCBHB1-_-ade
1070
   515
1071
        1
1004
010008000000000000002478C03F18F629943C97F43F01000000
1002
}
  0
POINT
  5
589
330
D50
100
AcDbEntity
  8
0X-CREMATIONS
100
AcDbPoint
 10
83081.12880635366
 20
20658.61324428317
 30
0.0
1001
IRD
1002
{
1000
TPMCNTR_ARCBHB1-_-ade
1070
   515
1071
        1
1004
010009000000000000000EF0D93F655EC6808135024001000000
1002
}
  0
POINT
  5
58A
330
D50
100
AcDbEntity
  8
0X-CREMATIONS
100
AcDbPoint
 10
83080.63245076314
 20
20657.28834017909
 30
0.0
1001
IRD
1002
{
1000
TPMCNTR_ARCBHB1-_-ade
1070
   515
1071
        1
1004
01000A000000000000005847DB3FFA63677632BB024001000000
1002
}
  0
LWPOLYLINE
  5
59A
330
D50
100
AcDbEntity
  8
0X-LIMITEXCAVATION
100
AcDbPolyline
 90
       16
 70
     0
 43
0.0
 10
83062.9218700888
 20
20650.06034106328
 10
83064.88840054514
 20
20648.62142017857
 10
83067.87342901852
 20
20646.51558893776
 10
83070.33165087557
 20
20644.76076602557
 10
83072.29825971408
 20
20643.35689675927
 10
83073.35179456456
 20
20642.83046629043
 10
83076.19628379332
 20
20646.5506952389
 10
83079.49734920719
 20
20650.86756725847
 10
83082.02023636084
 20
20654.47055647232
 10
83085.81291479325
 20
20659.1384368205
 10
83088.79794326663
 20
20665.35050227409
 10
83092.92084581369
 20
20669.90644711072
 10
83096.92429392193
 20
20674.9252811048
 10
83100.2253593358
 20
20679.90895411504
 10
83100.2253593358
 20
20679.90895411504
 10
83100.2253593358
 20
20679.90895411504
  0
LWPOLYLINE
  5
59B
330
D50
100
AcDbEntity
  8
0X-LIMITEXCAVATION
100
AcDbPolyline
 90
       10
 70
     0
 43
0.0
 10
83100.2253593358
 20
20679.90895411504
 10
83101.24370058849
 20
20681.31282338133
 10
83103.54312015352
 20
20685.80074292418
 10
83106.42272459788
 20
20690.46856858965
 10
83108.67025516128
 20
20695.20660685739
 10
83111.5198392316
 20
20698.35272201211
 10
83114.01317630426
 20
20701.89747413763
 10
83116.05001557399
 20
20704.38931064275
 10
83118.85938958715
 20
20706.38982298016
 10
83120.93134407248
 20
20707.7235343269
  0
VIEWPORT
  5
566
330
D4E
100
AcDbEntity
 67
     1
  8
0
100
AcDbViewport
 10
5.249999639556163
 20
3.999999883606677
 30
0.0
 40
12.89056225983692
 41
8.992999745766948
 68
     1
 69
     1
 12
5.249999639556163
 22
3.999999883606677
 13
0.0
 23
0.0
 14
10.0
 24
10.0
 15
10.0
 25
10.0
 16
0.0
 26
0.0
 36
1.0
 17
0.0
 27
0.0
 37
0.0
 42
50.0
 43
0.0
 44
0.0
 45
8.992999745766948
 50
0.0
 51
0.0
 72
   100
 90
   557216
  1

281
     0
 71
     0
 74
     0
110
0.0
120
0.0
130
0.0
111
1.0
121
0.0
131
0.0
112
0.0
122
1.0
132
0.0
 79
     0
146
0.0
170
     0
 61
     5
348
D97
292
     1
282
     1
141
0.0
142
0.0
 63
   256
  0
VIEWPORT
  5
568
330
D4E
100
AcDbEntity
 67
     1
  8
0X-ARCHAEOLOGY
100
AcDbViewport
 10
5.24999976158142
 20
3.99999976158142
 30
0.0
 40
8.399999618530272
 41
6.399999618530273
 68
     2
 69
     2
 12
95192.36447679184
 22
38075.33107257279
 13
0.0
 23
0.0
 14
10.0
 24
10.0
 15
10.0
 25
10.0
 16
0.0
 26
0.0
 36
1.0
 17
0.0
 27
0.0
 37
0.0
 42
50.0
 43
0.0
 44
0.0
 45
35546.79951400327
 50
0.0
 51
0.0
 72
   100
 90
   557280
  1

281
     0
 71
     0
 74
     0
110
0.0
120
0.0
130
0.0
111
1.0
121
0.0
131
0.0
112
0.0
122
1.0
132
0.0
 79
     0
146
0.0
170
     0
 61
     5
348
D97
292
     1
282
     1
141
0.0
142
0.0
 63
   256
  0
ENDSEC
  0
SECTION
  2
OBJECTS
  0
DICTIONARY
  5
D44
330
0
100
AcDbDictionary
281
     1
  3
ACAD_DETAILVIEWSTYLE
350
DE3
  3
ACAD_GROUP
350
D45
  3
ACAD_LAYOUT
350
D4D
  3
ACAD_MATERIAL
350
DAB
  3
ACAD_MLEADERSTYLE
350
DE2
  3
ACAD_MLINESTYLE
350
D4A
  3
ACAD_PLOTSETTINGS
350
D4C
  3
ACAD_PLOTSTYLENAME
350
D46
  3
ACAD_SCALELIST
350
D70
  3
ACAD_SECTIONVIEWSTYLE
350
DE4
  3
ACAD_TABLESTYLE
350
DE1
  3
ACAD_VISUALSTYLE
350
D92
  3
AcDbVariableDictionary
350
DAF
  0
DICTIONARY
  5
DE3
102
{ACAD_REACTORS
330
D44
102
}
330
D44
100
AcDbDictionary
281
     1
  0
DICTIONARY
  5
D45
102
{ACAD_REACTORS
330
D44
102
}
330
D44
100
AcDbDictionary
281
     1
  0
DICTIONARY
  5
D4D
102
{ACAD_REACTORS
330
D44
102
}
330
D44
100
AcDbDictionary
281
     1
  3
Layout1
350
D4F
  3
Model
350
D51
  0
DICTIONARY
  5
DAB
102
{ACAD_REACTORS
330
D44
102
}
330
D44
100
AcDbDictionary
281
     1
  3
ByBlock
350
DAD
  3
ByLayer
350
DAC
  3
Global
350
DAE
  0
DICTIONARY
  5
DE2
102
{ACAD_REACTORS
330
D44
102
}
330
D44
100
AcDbDictionary
281
     1
  0
DICTIONARY
  5
D4A
102
{ACAD_REACTORS
330
D44
102
}
330
D44
100
AcDbDictionary
281
     1
  3
Standard
350
D4B
  0
DICTIONARY
  5
D4C
102
{ACAD_REACTORS
330
D44
102
}
330
D44
100
AcDbDictionary
281
     1
  0
ACDBDICTIONARYWDFLT
  5
D46
102
{ACAD_REACTORS
330
D44
102
}
330
D44
100
AcDbDictionary
281
     1
  3
Normal
350
D47
100
AcDbDictionaryWithDefault
340
D47
  0
DICTIONARY
  5
D70
102
{ACAD_REACTORS
330
D44
102
}
330
D44
100
AcDbDictionary
281
     1
  3
A0
350
D71
  3
A1
350
D72
  3
A2
350
D73
  3
A3
350
D74
  3
A4
350
D75
  3
A5
350
D76
  3
A6
350
D77
  3
A7
350
D78
  3
A8
350
D79
  3
A9
350
D7A
  3
B0
350
D7B
  3
B1
350
D7C
  3
B2
350
D7D
  3
B3
350
D7E
  3
B4
350
D7F
  3
B5
350
D80
  3
B6
350
D81
  3
B7
350
D82
  3
B8
350
D83
  3
B9
350
D84
  3
C0
350
D85
  3
C1
350
D86
  3
C2
350
D87
  3
C3
350
D88
  3
C4
350
D89
  3
C5
350
D8A
  3
C6
350
D8B
  3
C7
350
D8C
  3
C8
350
D8D
  3
C9
350
D8E
  3
D0
350
D8F
  3
D1
350
D90
  3
D2
350
D91
  0
DICTIONARY
  5
DE4
102
{ACAD_REACTORS
330
D44
102
}
330
D44
100
AcDbDictionary
281
     1
  0
DICTIONARY
  5
DE1
102
{ACAD_REACTORS
330
D44
102
}
330
D44
100
AcDbDictionary
281
     1
  0
DICTIONARY
  5
D92
102
{ACAD_REACTORS
330
D44
102
}
330
D44
100
AcDbDictionary
281
     1
  3
2dWireframe
350
D97
  3
Basic
350
D9A
  3
Brighten
350
D9E
  3
ColorChange
350
DA2
  3
Conceptual
350
D9C
  3
Dim
350
D9D
  3
EdgeColorOff
350
DA5
  3
Facepattern
350
DA1
  3
Flat
350
D93
  3
FlatWithEdges
350
D94
  3
Gouraud
350
D95
  3
GouraudWithEdges
350
D96
  3
Hidden
350
D99
  3
JitterOff
350
DA3
  3
Linepattern
350
DA0
  3
OverhangOff
350
DA4
  3
Realistic
350
D9B
  3
Shaded
350
DAA
  3
Shaded with edges
350
DA9
  3
Shades of Gray
350
DA6
  3
Sketchy
350
DA7
  3
Thicken
350
D9F
  3
Wireframe
350
D98
  3
X-Ray
350
DA8
  0
DICTIONARY
  5
DAF
102
{ACAD_REACTORS
330
D44
102
}
330
D44
100
AcDbDictionary
281
     1
  3
CANNOSCALE
350
DB0
  0
LAYOUT
  5
D4F
102
{ACAD_REACTORS
330
D4D
102
}
330
D4D
100
AcDbPlotSettings
  1

  2
none_device
  4

  6

 40
0.0
 41
0.0
 42
0.0
 43
0.0
 44
0.0
 45
0.0
 46
0.0
 47
0.0
 48
0.0
 49
0.0
140
0.0
141
0.0
142
1.0
143
1.0
 70
   688
 72
     0
 73
     0
 74
     5
  7

 75
    16
 76
     0
 77
     2
 78
   300
147
1.0
148
0.0
149
0.0
100
AcDbLayout
  1
Layout1
 70
     1
 71
     1
 10
0.0
 20
0.0
 11
10.74999951940822
 21
8.249999763458732
 12
0.0
 22
0.0
 32
0.0
 14
1.049999952316284
 24
0.7999999523162842
 34
0.0
 15
9.449999570846556
 25
7.199999570846557
 35
0.0
146
0.0
 13
0.0
 23
0.0
 33
0.0
 16
1.0
 26
0.0
 36
0.0
 17
0.0
 27
1.0
 37
0.0
 76
     0
330
D4E
331
566
  0
LAYOUT
  5
D51
102
{ACAD_REACTORS
330
D4D
102
}
330
D4D
100
AcDbPlotSettings
  1

  2
none_device
  4
Letter_(8.50_x_11.00_Inches)
  6

 40
6.35
 41
6.35
 42
6.35000508
 43
6.35000508
 44
215.9
 45
279.4
 46
0.0
 47
0.0
 48
0.0
 49
0.0
140
0.0
141
0.0
142
1.0
143
1.0
 70
  1712
 72
     0
 73
     0
 74
     0
  7

 75
     0
 76
     0
 77
     2
 78
   300
147
1.0
148
0.0
149
0.0
100
AcDbLayout
  1
Model
 70
     1
 71
     0
 10
0.0
 20
0.0
 11
420.0
 21
297.0
 12
0.0
 22
0.0
 32
0.0
 14
82979.1267017107
 24
20597.67550145475
 34
0.0
 15
83132.9065292244
 25
20747.30969820431
 35
0.0
146
0.0
 13
0.0
 23
0.0
 33
0.0
 16
1.0
 26
0.0
 36
0.0
 17
0.0
 27
1.0
 37
0.0
 76
     0
330
D50
331
D61
  0
MATERIAL
  5
DAD
102
{ACAD_REACTORS
330
DAB
102
}
330
DAB
100
AcDbMaterial
  1
ByBlock
 72
     1
 94
      127
  0
MATERIAL
  5
DAC
102
{ACAD_REACTORS
330
DAB
102
}
330
DAB
100
AcDbMaterial
  1
ByLayer
 72
     1
 94
      127
  0
MATERIAL
  5
DAE
102
{ACAD_REACTORS
330
DAB
102
}
330
DAB
100
AcDbMaterial
  1
Global
 72
     1
 94
      127
  0
MLINESTYLE
  5
D4B
102
{ACAD_REACTORS
330
D4A
102
}
330
D4A
100
AcDbMlineStyle
  2
Standard
 70
     0
  3

 62
   256
 51
90.0
 52
90.0
 71
     2
 49
0.5
 62
   256
  6
BYLAYER
 49
-0.5
 62
   256
  6
BYLAYER
  0
ACDBPLACEHOLDER
  5
D47
102
{ACAD_REACTORS
330
D46
102
}
330
D46
  0
SCALE
  5
D71
102
{ACAD_REACTORS
330
D70
102
}
330
D70
100
AcDbScale
 70
     0
300
1:1
140
1.0
141
1.0
290
     1
  0
SCALE
  5
D72
102
{ACAD_REACTORS
330
D70
102
}
330
D70
100
AcDbScale
 70
     0
300
1:2
140
1.0
141
2.0
290
     0
  0
SCALE
  5
D73
102
{ACAD_REACTORS
330
D70
102
}
330
D70
100
AcDbScale
 70
     0
300
1:4
140
1.0
141
4.0
290
     0
  0
SCALE
  5
D74
102
{ACAD_REACTORS
330
D70
102
}
330
D70
100
AcDbScale
 70
     0
300
1:5
140
1.0
141
5.0
290
     0
  0
SCALE
  5
D75
102
{ACAD_REACTORS
330
D70
102
}
330
D70
100
AcDbScale
 70
     0
300
1:8
140
1.0
141
8.0
290
     0
  0
SCALE
  5
D76
102
{ACAD_REACTORS
330
D70
102
}
330
D70
100
AcDbScale
 70
     0
300
1:10
140
1.0
141
10.0
290
     0
  0
SCALE
  5
D77
102
{ACAD_REACTORS
330
D70
102
}
330
D70
100
AcDbScale
 70
     0
300
1:16
140
1.0
141
16.0
290
     0
  0
SCALE
  5
D78
102
{ACAD_REACTORS
330
D70
102
}
330
D70
100
AcDbScale
 70
     0
300
1:20
140
1.0
141
20.0
290
     0
  0
SCALE
  5
D79
102
{ACAD_REACTORS
330
D70
102
}
330
D70
100
AcDbScale
 70
     0
300
1:30
140
1.0
141
30.0
290
     0
  0
SCALE
  5
D7A
102
{ACAD_REACTORS
330
D70
102
}
330
D70
100
AcDbScale
 70
     0
300
1:40
140
1.0
141
40.0
290
     0
  0
SCALE
  5
D7B
102
{ACAD_REACTORS
330
D70
102
}
330
D70
100
AcDbScale
 70
     0
300
1:50
140
1.0
141
50.0
290
     0
  0
SCALE
  5
D7C
102
{ACAD_REACTORS
330
D70
102
}
330
D70
100
AcDbScale
 70
     0
300
1:100
140
1.0
141
100.0
290
     0
  0
SCALE
  5
D7D
102
{ACAD_REACTORS
330
D70
102
}
330
D70
100
AcDbScale
 70
     0
300
2:1
140
2.0
141
1.0
290
     0
  0
SCALE
  5
D7E
102
{ACAD_REACTORS
330
D70
102
}
330
D70
100
AcDbScale
 70
     0
300
4:1
140
4.0
141
1.0
290
     0
  0
SCALE
  5
D7F
102
{ACAD_REACTORS
330
D70
102
}
330
D70
100
AcDbScale
 70
     0
300
8:1
140
8.0
141
1.0
290
     0
  0
SCALE
  5
D80
102
{ACAD_REACTORS
330
D70
102
}
330
D70
100
AcDbScale
 70
     0
300
10:1
140
10.0
141
1.0
290
     0
  0
SCALE
  5
D81
102
{ACAD_REACTORS
330
D70
102
}
330
D70
100
AcDbScale
 70
     0
300
100:1
140
100.0
141
1.0
290
     0
  0
SCALE
  5
D82
102
{ACAD_REACTORS
330
D70
102
}
330
D70
100
AcDbScale
 70
     0
300
1/128" = 1'-0"
140
0.0078125
141
12.0
290
     0
  0
SCALE
  5
D83
102
{ACAD_REACTORS
330
D70
102
}
330
D70
100
AcDbScale
 70
     0
300
1/64" = 1'-0"
140
0.015625
141
12.0
290
     0
  0
SCALE
  5
D84
102
{ACAD_REACTORS
330
D70
102
}
330
D70
100
AcDbScale
 70
     0
300
1/32" = 1'-0"
140
0.03125
141
12.0
290
     0
  0
SCALE
  5
D85
102
{ACAD_REACTORS
330
D70
102
}
330
D70
100
AcDbScale
 70
     0
300
1/16" = 1'-0"
140
0.0625
141
12.0
290
     0
  0
SCALE
  5
D86
102
{ACAD_REACTORS
330
D70
102
}
330
D70
100
AcDbScale
 70
     0
300
3/32" = 1'-0"
140
0.09375
141
12.0
290
     0
  0
SCALE
  5
D87
102
{ACAD_REACTORS
330
D70
102
}
330
D70
100
AcDbScale
 70
     0
300
1/8" = 1'-0"
140
0.125
141
12.0
290
     0
  0
SCALE
  5
D88
102
{ACAD_REACTORS
330
D70
102
}
330
D70
100
AcDbScale
 70
     0
300
3/16" = 1'-0"
140
0.1875
141
12.0
290
     0
  0
SCALE
  5
D89
102
{ACAD_REACTORS
330
D70
102
}
330
D70
100
AcDbScale
 70
     0
300
1/4" = 1'-0"
140
0.25
141
12.0
290
     0
  0
SCALE
  5
D8A
102
{ACAD_REACTORS
330
D70
102
}
330
D70
100
AcDbScale
 70
     0
300
3/8" = 1'-0"
140
0.375
141
12.0
290
     0
  0
SCALE
  5
D8B
102
{ACAD_REACTORS
330
D70
102
}
330
D70
100
AcDbScale
 70
     0
300
1/2" = 1'-0"
140
0.5
141
12.0
290
     0
  0
SCALE
  5
D8C
102
{ACAD_REACTORS
330
D70
102
}
330
D70
100
AcDbScale
 70
     0
300
3/4" = 1'-0"
140
0.75
141
12.0
290
     0
  0
SCALE
  5
D8D
102
{ACAD_REACTORS
330
D70
102
}
330
D70
100
AcDbScale
 70
     0
300
1" = 1'-0"
140
1.0
141
12.0
290
     0
  0
SCALE
  5
D8E
102
{ACAD_REACTORS
330
D70
102
}
330
D70
100
AcDbScale
 70
     0
300
1-1/2" = 1'-0"
140
1.5
141
12.0
290
     0
  0
SCALE
  5
D8F
102
{ACAD_REACTORS
330
D70
102
}
330
D70
100
AcDbScale
 70
     0
300
3" = 1'-0"
140
3.0
141
12.0
290
     0
  0
SCALE
  5
D90
102
{ACAD_REACTORS
330
D70
102
}
330
D70
100
AcDbScale
 70
     0
300
6" = 1'-0"
140
6.0
141
12.0
290
     0
  0
SCALE
  5
D91
102
{ACAD_REACTORS
330
D70
102
}
330
D70
100
AcDbScale
 70
     0
300
1'-0" = 1'-0"
140
12.0
141
12.0
290
     0
  0
VISUALSTYLE
  5
D97
102
{ACAD_REACTORS
330
D92
102
}
102
{ACAD_XDICTIONARY
360
DB9
102
}
330
D92
100
AcDbVisualStyle
  2
2dWireframe
 70
     4
177
     2
291
     0
 71
     0
176
     1
 72
     2
176
     1
 73
     0
176
     1
 90
        0
176
     1
 40
0.6
176
     1
 41
30.0
176
     1
 62
     5
 63
     7
421
 16777215
176
     1
 74
     1
176
     1
 91
        4
176
     1
 64
     7
176
     1
 65
   257
176
     1
 75
     1
176
     1
175
     1
176
     1
 42
1.0
176
     1
 92
        0
176
     1
 66
   257
176
     1
 43
1.0
176
     1
 76
     1
176
     1
 77
     6
176
     1
 78
     2
176
     1
 67
     7
176
     1
 79
     5
176
     1
170
     0
176
     1
171
     0
176
     1
290
     0
176
     1
 93
        1
176
     1
 44
0.0
176
     1
173
     0
176
     1
  0
VISUALSTYLE
  5
D9A
102
{ACAD_REACTORS
330
D92
102
}
102
{ACAD_XDICTIONARY
360
DBF
102
}
330
D92
100
AcDbVisualStyle
  2
Basic
 70
     7
177
     2
291
     1
 71
     1
176
     1
 72
     0
176
     1
 73
     1
176
     1
 90
        0
176
     1
 40
0.6
176
     1
 41
30.0
176
     1
 62
     5
 63
     7
421
 16777215
176
     1
 74
     0
176
     1
 91
        4
176
     1
 64
     7
176
     1
 65
   257
176
     1
 75
     1
176
     1
175
     1
176
     1
 42
1.0
176
     1
 92
        8
176
     1
 66
     7
176
     1
 43
1.0
176
     1
 76
     1
176
     1
 77
     6
176
     1
 78
     2
176
     1
 67
     7
176
     1
 79
     5
176
     1
170
     0
176
     1
171
     0
176
     1
290
     0
176
     1
 93
        1
176
     1
 44
0.0
176
     1
173
     0
176
     1
  0
VISUALSTYLE
  5
D9E
102
{ACAD_REACTORS
330
D92
102
}
102
{ACAD_XDICTIONARY
360
DC7
102
}
330
D92
100
AcDbVisualStyle
  2
Brighten
 70
    12
177
     2
291
     1
 71
     2
176
     1
 72
     2
176
     1
 73
     0
176
     1
 90
        0
176
     1
 40
0.6
176
     1
 41
30.0
176
     1
 62
     5
 63
     7
421
 16777215
176
     1
 74
     1
176
     1
 91
        4
176
     1
 64
     7
176
     1
 65
   257
176
     1
 75
     1
176
     1
175
     1
176
     1
 42
1.0
176
     1
 92
        8
176
     1
 66
     7
176
     1
 43
1.0
176
     1
 76
     1
176
     1
 77
     6
176
     1
 78
     2
176
     1
 67
     7
176
     1
 79
     5
176
     1
170
     0
176
     1
171
     0
176
     1
290
     0
176
     1
 93
        1
176
     1
 44
50.0
176
     1
173
     0
176
     1
  0
VISUALSTYLE
  5
DA2
102
{ACAD_REACTORS
330
D92
102
}
102
{ACAD_XDICTIONARY
360
DCF
102
}
330
D92
100
AcDbVisualStyle
  2
ColorChange
 70
    16
177
     2
291
     1
 71
     2
176
     1
 72
     2
176
     1
 73
     3
176
     1
 90
        0
176
     1
 40
0.6
176
     1
 41
30.0
176
     1
 62
     5
 63
     8
421
  8421504
176
     1
 74
     1
176
     1
 91
        4
176
     1
 64
     7
176
     1
 65
   257
176
     1
 75
     1
176
     1
175
     1
176
     1
 42
1.0
176
     1
 92
        8
176
     1
 66
     8
424
  8421504
176
     1
 43
1.0
176
     1
 76
     1
176
     1
 77
     6
176
     1
 78
     2
176
     1
 67
     7
176
     1
 79
     5
176
     1
170
     0
176
     1
171
     0
176
     1
290
     0
176
     1
 93
        1
176
     1
 44
0.0
176
     1
173
     0
176
     1
  0
VISUALSTYLE
  5
D9C
102
{ACAD_REACTORS
330
D92
102
}
102
{ACAD_XDICTIONARY
360
DC3
102
}
330
D92
100
AcDbVisualStyle
  2
Conceptual
 70
     9
177
     2
291
     0
 71
     3
176
     1
 72
     2
176
     1
 73
     0
176
     1
 90
        0
176
     1
 40
0.6
176
     1
 41
30.0
176
     1
 62
     5
 63
     7
421
 16777215
176
     1
 74
     2
176
     1
 91
        2
176
     1
 64
     7
176
     1
 65
   257
176
     1
 75
     1
176
     1
175
     1
176
     1
 42
179.0
176
     1
 92
        8
176
     1
 66
     7
176
     1
 43
1.0
176
     1
 76
     1
176
     1
 77
     6
176
     1
 78
     2
176
     1
 67
     7
176
     1
 79
     3
176
     1
170
     0
176
     1
171
     0
176
     1
290
     0
176
     1
 93
        1
176
     1
 44
0.0
176
     1
173
     0
176
     1
  0
VISUALSTYLE
  5
D9D
102
{ACAD_REACTORS
330
D92
102
}
102
{ACAD_XDICTIONARY
360
DC5
102
}
330
D92
100
AcDbVisualStyle
  2
Dim
 70
    11
177
     2
291
     1
 71
     2
176
     1
 72
     2
176
     1
 73
     0
176
     1
 90
        0
176
     1
 40
0.6
176
     1
 41
30.0
176
     1
 62
     5
 63
     7
421
 16777215
176
     1
 74
     1
176
     1
 91
        4
176
     1
 64
     7
176
     1
 65
   257
176
     1
 75
     1
176
     1
175
     1
176
     1
 42
1.0
176
     1
 92
        8
176
     1
 66
     7
176
     1
 43
1.0
176
     1
 76
     1
176
     1
 77
     6
176
     1
 78
     2
176
     1
 67
     7
176
     1
 79
     5
176
     1
170
     0
176
     1
171
     0
176
     1
290
     0
176
     1
 93
        1
176
     1
 44
-50.0
176
     1
173
     0
176
     1
  0
VISUALSTYLE
  5
DA5
102
{ACAD_REACTORS
330
D92
102
}
102
{ACAD_XDICTIONARY
360
DD5
102
}
330
D92
100
AcDbVisualStyle
  2
EdgeColorOff
 70
    22
177
     2
291
     1
 71
     2
176
     0
 72
     2
176
     0
 73
     0
176
     0
 90
        0
176
     0
 40
0.6
176
     0
 41
30.0
176
     0
 62
     5
 63
     7
421
 16777215
176
     0
 74
     1
176
     0
 91
        4
176
     0
 64
     7
176
     0
 65
   257
176
     0
 75
     1
176
     0
175
     1
176
     0
 42
1.0
176
     0
 92
        8
176
     2
 66
     7
176
     0
 43
1.0
176
     0
 76
     1
176
     0
 77
     6
176
     0
 78
     2
176
     0
 67
     7
176
     0
 79
     5
176
     0
170
     0
176
     0
171
     0
176
     0
290
     0
176
     0
 93
        1
176
     0
 44
0.0
176
     0
173
     0
176
     0
  0
VISUALSTYLE
  5
DA1
102
{ACAD_REACTORS
330
D92
102
}
102
{ACAD_XDICTIONARY
360
DCD
102
}
330
D92
100
AcDbVisualStyle
  2
Facepattern
 70
    15
177
     2
291
     1
 71
     2
176
     1
 72
     2
176
     1
 73
     0
176
     1
 90
        0
176
     1
 40
0.6
176
     1
 41
30.0
176
     1
 62
     5
 63
     7
421
 16777215
176
     1
 74
     1
176
     1
 91
        4
176
     1
 64
     7
176
     1
 65
   257
176
     1
 75
     1
176
     1
175
     1
176
     1
 42
1.0
176
     1
 92
        8
176
     1
 66
     7
176
     1
 43
1.0
176
     1
 76
     1
176
     1
 77
     6
176
     1
 78
     2
176
     1
 67
     7
176
     1
 79
     5
176
     1
170
     0
176
     1
171
     0
176
     1
290
     0
176
     1
 93
        1
176
     1
 44
0.0
176
     1
173
     0
176
     1
  0
VISUALSTYLE
  5
D93
102
{ACAD_REACTORS
330
D92
102
}
102
{ACAD_XDICTIONARY
360
DB1
102
}
330
D92
100
AcDbVisualStyle
  2
Flat
 70
     0
177
     2
291
     1
 71
     2
176
     1
 72
     1
176
     1
 73
     1
176
     1
 90
        2
176
     1
 40
0.6
176
     1
 41
30.0
176
     1
 62
     5
 63
     7
421
 16777215
176
     1
 74
     0
176
     1
 91
        0
176
     1
 64
     7
176
     1
 65
   257
176
     1
 75
     1
176
     1
175
     1
176
     1
 42
1.0
176
     1
 92
        8
176
     1
 66
     7
176
     1
 43
1.0
176
     1
 76
     1
176
     1
 77
     6
176
     1
 78
     2
176
     1
 67
     7
176
     1
 79
     5
176
     1
170
     0
176
     1
171
     0
176
     1
290
     0
176
     1
 93
       13
176
     1
 44
0.0
176
     1
173
     0
176
     1
  0
VISUALSTYLE
  5
D94
102
{ACAD_REACTORS
330
D92
102
}
102
{ACAD_XDICTIONARY
360
DB3
102
}
330
D92
100
AcDbVisualStyle
  2
FlatWithEdges
 70
     1
177
     2
291
     1
 71
     2
176
     1
 72
     1
176
     1
 73
     1
176
     1
 90
        2
176
     1
 40
0.6
176
     1
 41
30.0
176
     1
 62
     5
 63
     7
421
 16777215
176
     1
 74
     1
176
     1
 91
        0
176
     1
 64
     7
176
     1
 65
   257
176
     1
 75
     1
176
     1
175
     1
176
     1
 42
1.0
176
     1
 92
        0
176
     1
 66
   257
176
     1
 43
1.0
176
     1
 76
     1
176
     1
 77
     6
176
     1
 78
     2
176
     1
 67
     7
176
     1
 79
     5
176
     1
170
     0
176
     1
171
     0
176
     1
290
     0
176
     1
 93
       13
176
     1
 44
0.0
176
     1
173
     0
176
     1
  0
VISUALSTYLE
  5
D95
102
{ACAD_REACTORS
330
D92
102
}
102
{ACAD_XDICTIONARY
360
DB5
102
}
330
D92
100
AcDbVisualStyle
  2
Gouraud
 70
     2
177
     2
291
     1
 71
     2
176
     1
 72
     2
176
     1
 73
     1
176
     1
 90
        2
176
     1
 40
0.6
176
     1
 41
30.0
176
     1
 62
     5
 63
     7
421
 16777215
176
     1
 74
     0
176
     1
 91
        0
176
     1
 64
     7
176
     1
 65
   257
176
     1
 75
     1
176
     1
175
     1
176
     1
 42
1.0
176
     1
 92
        0
176
     1
 66
     7
176
     1
 43
1.0
176
     1
 76
     1
176
     1
 77
     6
176
     1
 78
     2
176
     1
 67
     7
176
     1
 79
     5
176
     1
170
     0
176
     1
171
     0
176
     1
290
     0
176
     1
 93
       13
176
     1
 44
0.0
176
     1
173
     0
176
     1
  0
VISUALSTYLE
  5
D96
102
{ACAD_REACTORS
330
D92
102
}
102
{ACAD_XDICTIONARY
360
DB7
102
}
330
D92
100
AcDbVisualStyle
  2
GouraudWithEdges
 70
     3
177
     2
291
     1
 71
     2
176
     1
 72
     2
176
     1
 73
     1
176
     1
 90
        2
176
     1
 40
0.6
176
     1
 41
30.0
176
     1
 62
     5
 63
     7
421
 16777215
176
     1
 74
     1
176
     1
 91
        0
176
     1
 64
     7
176
     1
 65
   257
176
     1
 75
     1
176
     1
175
     1
176
     1
 42
1.0
176
     1
 92
        0
176
     1
 66
   257
176
     1
 43
1.0
176
     1
 76
     1
176
     1
 77
     6
176
     1
 78
     2
176
     1
 67
     7
176
     1
 79
     5
176
     1
170
     0
176
     1
171
     0
176
     1
290
     0
176
     1
 93
       13
176
     1
 44
0.0
176
     1
173
     0
176
     1
  0
VISUALSTYLE
  5
D99
102
{ACAD_REACTORS
330
D92
102
}
102
{ACAD_XDICTIONARY
360
DBD
102
}
330
D92
100
AcDbVisualStyle
  2
Hidden
 70
     6
177
     2
291
     0
 71
     1
176
     1
 72
     2
176
     1
 73
     2
176
     1
 90
        0
176
     1
 40
0.6
176
     1
 41
30.0
176
     1
 62
     5
 63
     7
421
 16777215
176
     1
 74
     2
176
     1
 91
        2
176
     1
 64
     7
176
     1
 65
   257
176
     1
 75
     2
176
     1
175
     1
176
     1
 42
40.0
176
     1
 92
        0
176
     1
 66
   257
176
     1
 43
1.0
176
     1
 76
     1
176
     1
 77
     6
176
     1
 78
     2
176
     1
 67
     7
176
     1
 79
     3
176
     1
170
     0
176
     1
171
     0
176
     1
290
     0
176
     1
 93
        1
176
     1
 44
0.0
176
     1
173
     0
176
     1
  0
VISUALSTYLE
  5
DA3
102
{ACAD_REACTORS
330
D92
102
}
102
{ACAD_XDICTIONARY
360
DD1
102
}
330
D92
100
AcDbVisualStyle
  2
JitterOff
 70
    20
177
     2
291
     1
 71
     2
176
     0
 72
     2
176
     0
 73
     0
176
     0
 90
        0
176
     0
 40
0.6
176
     0
 41
30.0
176
     0
 62
     5
 63
     7
421
 16777215
176
     0
 74
     1
176
     0
 91
        4
176
     0
 64
     7
176
     0
 65
   257
176
     0
 75
     1
176
     0
175
     1
176
     0
 42
1.0
176
     0
 92
       10
176
     2
 66
     7
176
     0
 43
1.0
176
     0
 76
     1
176
     0
 77
     6
176
     0
 78
     2
176
     0
 67
     7
176
     0
 79
     5
176
     0
170
     0
176
     0
171
     0
176
     0
290
     0
176
     0
 93
        1
176
     0
 44
0.0
176
     0
173
     0
176
     0
  0
VISUALSTYLE
  5
DA0
102
{ACAD_REACTORS
330
D92
102
}
102
{ACAD_XDICTIONARY
360
DCB
102
}
330
D92
100
AcDbVisualStyle
  2
Linepattern
 70
    14
177
     2
291
     1
 71
     2
176
     1
 72
     2
176
     1
 73
     0
176
     1
 90
        0
176
     1
 40
0.6
176
     1
 41
30.0
176
     1
 62
     5
 63
     7
421
 16777215
176
     1
 74
     1
176
     1
 91
        4
176
     1
 64
     7
176
     1
 65
   257
176
     1
 75
     7
176
     1
175
     7
176
     1
 42
1.0
176
     1
 92
        8
176
     1
 66
     7
176
     1
 43
1.0
176
     1
 76
     1
176
     1
 77
     6
176
     1
 78
     2
176
     1
 67
     7
176
     1
 79
     5
176
     1
170
     0
176
     1
171
     0
176
     1
290
     0
176
     1
 93
        1
176
     1
 44
0.0
176
     1
173
     0
176
     1
  0
VISUALSTYLE
  5
DA4
102
{ACAD_REACTORS
330
D92
102
}
102
{ACAD_XDICTIONARY
360
DD3
102
}
330
D92
100
AcDbVisualStyle
  2
OverhangOff
 70
    21
177
     2
291
     1
 71
     2
176
     0
 72
     2
176
     0
 73
     0
176
     0
 90
        0
176
     0
 40
0.6
176
     0
 41
30.0
176
     0
 62
     5
 63
     7
421
 16777215
176
     0
 74
     1
176
     0
 91
        4
176
     0
 64
     7
176
     0
 65
   257
176
     0
 75
     1
176
     0
175
     1
176
     0
 42
1.0
176
     0
 92
        9
176
     2
 66
     7
176
     0
 43
1.0
176
     0
 76
     1
176
     0
 77
     6
176
     0
 78
     2
176
     0
 67
     7
176
     0
 79
     5
176
     0
170
     0
176
     0
171
     0
176
     0
290
     0
176
     0
 93
        1
176
     0
 44
0.0
176
     0
173
     0
176
     0
  0
VISUALSTYLE
  5
D9B
102
{ACAD_REACTORS
330
D92
102
}
102
{ACAD_XDICTIONARY
360
DC1
102
}
330
D92
100
AcDbVisualStyle
  2
Realistic
 70
     8
177
     2
291
     0
 71
     2
176
     1
 72
     3
176
     1
 73
     0
176
     1
 90
        2
176
     1
 40
0.6
176
     1
 41
30.0
176
     1
 62
     5
 63
     7
421
 16777215
176
     1
 74
     0
176
     1
 91
        0
176
     1
 64
     7
176
     1
 65
   257
176
     1
 75
     1
176
     1
175
     1
176
     1
 42
1.0
176
     1
 92
        8
176
     1
 66
   257
176
     1
 43
1.0
176
     1
 76
     1
176
     1
 77
     6
176
     1
 78
     2
176
     1
 67
     7
176
     1
 79
     3
176
     1
170
     0
176
     1
171
     0
176
     1
290
     0
176
     1
 93
       13
176
     1
 44
0.0
176
     1
173
     0
176
     1
  0
VISUALSTYLE
  5
DAA
102
{ACAD_REACTORS
330
D92
102
}
102
{ACAD_XDICTIONARY
360
DDF
102
}
330
D92
100
AcDbVisualStyle
  2
Shaded
 70
    27
177
     2
291
     0
 71
     2
176
     1
 72
     2
176
     1
 73
     1
176
     1
 90
        2
176
     1
 40
0.6
176
     1
 41
30.0
176
     1
 62
     5
 63
     7
421
 16777215
176
     1
 74
     0
176
     1
 91
        4
176
     1
 64
     7
176
     1
 65
   257
176
     1
 75
     1
176
     1
175
     1
176
     1
 42
1.0
176
     1
 92
        8
176
     1
 66
   257
176
     1
 43
1.0
176
     1
 76
     1
176
     1
 77
     6
176
     1
 78
     2
176
     1
 67
     8
425
  7895160
176
     1
 79
     3
176
     1
170
     0
176
     1
171
     0
176
     1
290
     0
176
     1
 93
        5
176
     1
 44
0.0
176
     1
173
     0
176
     1
  0
VISUALSTYLE
  5
DA9
102
{ACAD_REACTORS
330
D92
102
}
102
{ACAD_XDICTIONARY
360
DDD
102
}
330
D92
100
AcDbVisualStyle
  2
Shaded with edges
 70
    26
177
     2
291
     0
 71
     2
176
     1
 72
     2
176
     1
 73
     1
176
     1
 90
        2
176
     1
 40
0.6
176
     1
 41
30.0
176
     1
 62
     5
 63
     7
421
 16777215
176
     1
 74
     1
176
     1
 91
       10
176
     1
 64
     7
176
     1
 65
   257
176
     1
 75
     2
176
     1
175
     1
176
     1
 42
1.0
176
     1
 92
        8
176
     1
 66
   257
176
     1
 43
1.0
176
     1
 76
     1
176
     1
 77
     6
176
     1
 78
     2
176
     1
 67
     7
176
     1
 79
     3
176
     1
170
     0
176
     1
171
     0
176
     1
290
     0
176
     1
 93
        5
176
     1
 44
0.0
176
     1
173
     0
176
     1
  0
VISUALSTYLE
  5
DA6
102
{ACAD_REACTORS
330
D92
102
}
102
{ACAD_XDICTIONARY
360
DD7
102
}
330
D92
100
AcDbVisualStyle
  2
Shades of Gray
 70
    23
177
     2
291
     0
 71
     2
176
     1
 72
     2
176
     1
 73
     3
176
     1
 90
        0
176
     1
 40
0.6
176
     1
 41
30.0
176
     1
 62
     5
 63
     7
421
 16777215
176
     1
 74
     2
176
     1
 91
        2
176
     1
 64
     7
176
     1
 65
     7
176
     1
 75
     1
176
     1
175
     1
176
     1
 42
40.0
176
     1
 92
        8
176
     1
 66
     7
176
     1
 43
1.0
176
     1
 76
     1
176
     1
 77
     6
176
     1
 78
     2
176
     1
 67
     7
176
     1
 79
     3
176
     1
170
     0
176
     1
171
     0
176
     1
290
     0
176
     1
 93
        1
176
     1
 44
0.0
176
     1
173
     0
176
     1
  0
VISUALSTYLE
  5
DA7
102
{ACAD_REACTORS
330
D92
102
}
102
{ACAD_XDICTIONARY
360
DD9
102
}
330
D92
100
AcDbVisualStyle
  2
Sketchy
 70
    24
177
     2
291
     0
 71
     1
176
     1
 72
     2
176
     1
 73
     2
176
     1
 90
        0
176
     1
 40
0.6
176
     1
 41
30.0
176
     1
 62
     5
 63
     7
421
 16777215
176
     1
 74
     2
176
     1
 91
        2
176
     1
 64
     7
176
     1
 65
     7
176
     1
 75
     1
176
     1
175
     1
176
     1
 42
40.0
176
     1
 92
       11
176
     1
 66
     7
176
     1
 43
1.0
176
     1
 76
     1
176
     1
 77
     6
176
     1
 78
     2
176
     1
 67
     7
176
     1
 79
     6
176
     1
170
     0
176
     1
171
     0
176
     1
290
     0
176
     1
 93
        1
176
     1
 44
0.0
176
     1
173
     0
176
     1
  0
VISUALSTYLE
  5
D9F
102
{ACAD_REACTORS
330
D92
102
}
102
{ACAD_XDICTIONARY
360
DC9
102
}
330
D92
100
AcDbVisualStyle
  2
Thicken
 70
    13
177
     2
291
     1
 71
     2
176
     1
 72
     2
176
     1
 73
     0
176
     1
 90
        0
176
     1
 40
0.6
176
     1
 41
30.0
176
     1
 62
     5
 63
     7
421
 16777215
176
     1
 74
     1
176
     1
 91
        4
176
     1
 64
     7
176
     1
 65
   257
176
     1
 75
     1
176
     1
175
     1
176
     1
 42
1.0
176
     1
 92
       12
176
     1
 66
     7
176
     1
 43
1.0
176
     1
 76
     1
176
     1
 77
     6
176
     1
 78
     2
176
     1
 67
     7
176
     1
 79
     5
176
     1
170
     0
176
     1
171
     0
176
     1
290
     0
176
     1
 93
        1
176
     1
 44
0.0
176
     1
173
     0
176
     1
  0
VISUALSTYLE
  5
D98
102
{ACAD_REACTORS
330
D92
102
}
102
{ACAD_XDICTIONARY
360
DBB
102
}
330
D92
100
AcDbVisualStyle
  2
Wireframe
 70
     5
177
     2
291
     0
 71
     0
176
     1
 72
     2
176
     1
 73
     0
176
     1
 90
        0
176
     1
 40
0.6
176
     1
 41
30.0
176
     1
 62
     5
 63
     7
421
 16777215
176
     1
 74
     1
176
     1
 91
        4
176
     1
 64
     7
176
     1
 65
   257
176
     1
 75
     1
176
     1
175
     1
176
     1
 42
1.0
176
     1
 92
        0
176
     1
 66
   257
176
     1
 43
1.0
176
     1
 76
     1
176
     1
 77
     6
176
     1
 78
     2
176
     1
 67
     7
176
     1
 79
     3
176
     1
170
     0
176
     1
171
     0
176
     1
290
     0
176
     1
 93
        1
176
     1
 44
0.0
176
     1
173
     0
176
     1
  0
VISUALSTYLE
  5
DA8
102
{ACAD_REACTORS
330
D92
102
}
102
{ACAD_XDICTIONARY
360
DDB
102
}
330
D92
100
AcDbVisualStyle
  2
X-Ray
 70
    25
177
     2
291
     0
 71
     2
176
     1
 72
     2
176
     1
 73
     1
176
     1
 90
        1
176
     1
 40
0.5
176
     1
 41
30.0
176
     1
 62
     5
 63
     7
421
 16777215
176
     1
 74
     1
176
     1
 91
        0
176
     1
 64
     7
176
     1
 65
   257
176
     1
 75
     1
176
     1
175
     1
176
     1
 42
1.0
176
     1
 92
        8
176
     1
 66
     7
176
     1
 43
1.0
176
     1
 76
     1
176
     1
 77
     6
176
     1
 78
     2
176
     1
 67
     7
176
     1
 79
     3
176
     1
170
     0
176
     1
171
     0
176
     1
290
     0
176
     1
 93
       13
176
     1
 44
0.0
176
     1
173
     0
176
     1
  0
DICTIONARYVAR
  5
DB0
102
{ACAD_REACTORS
330
DAF
102
}
330
DAF
100
DictionaryVariables
280
     0
  1
1:1
  0
DICTIONARY
  5
DB9
330
D97
100
AcDbDictionary
280
     1
281
     1
  3
ACAD_XREC_ROUNDTRIP
360
DBA
  0
DICTIONARY
  5
DBF
330
D9A
100
AcDbDictionary
280
     1
281
     1
  3
ACAD_XREC_ROUNDTRIP
360
DC0
  0
DICTIONARY
  5
DC7
330
D9E
100
AcDbDictionary
280
     1
281
     1
  3
ACAD_XREC_ROUNDTRIP
360
DC8
  0
DICTIONARY
  5
DCF
330
DA2
100
AcDbDictionary
280
     1
281
     1
  3
ACAD_XREC_ROUNDTRIP
360
DD0
  0
DICTIONARY
  5
DC3
330
D9C
100
AcDbDictionary
280
     1
281
     1
  3
ACAD_XREC_ROUNDTRIP
360
DC4
  0
DICTIONARY
  5
DC5
330
D9D
100
AcDbDictionary
280
     1
281
     1
  3
ACAD_XREC_ROUNDTRIP
360
DC6
  0
DICTIONARY
  5
DD5
330
DA5
100
AcDbDictionary
280
     1
281
     1
  3
ACAD_XREC_ROUNDTRIP
360
DD6
  0
DICTIONARY
  5
DCD
330
DA1
100
AcDbDictionary
280
     1
281
     1
  3
ACAD_XREC_ROUNDTRIP
360
DCE
  0
DICTIONARY
  5
DB1
330
D93
100
AcDbDictionary
280
     1
281
     1
  3
ACAD_XREC_ROUNDTRIP
360
DB2
  0
DICTIONARY
  5
DB3
330
D94
100
AcDbDictionary
280
     1
281
     1
  3
ACAD_XREC_ROUNDTRIP
360
DB4
  0
DICTIONARY
  5
DB5
330
D95
100
AcDbDictionary
280
     1
281
     1
  3
ACAD_XREC_ROUNDTRIP
360
DB6
  0
DICTIONARY
  5
DB7
330
D96
100
AcDbDictionary
280
     1
281
     1
  3
ACAD_XREC_ROUNDTRIP
360
DB8
  0
DICTIONARY
  5
DBD
330
D99
100
AcDbDictionary
280
     1
281
     1
  3
ACAD_XREC_ROUNDTRIP
360
DBE
  0
DICTIONARY
  5
DD1
330
DA3
100
AcDbDictionary
280
     1
281
     1
  3
ACAD_XREC_ROUNDTRIP
360
DD2
  0
DICTIONARY
  5
DCB
330
DA0
100
AcDbDictionary
280
     1
281
     1
  3
ACAD_XREC_ROUNDTRIP
360
DCC
  0
DICTIONARY
  5
DD3
330
DA4
100
AcDbDictionary
280
     1
281
     1
  3
ACAD_XREC_ROUNDTRIP
360
DD4
  0
DICTIONARY
  5
DC1
330
D9B
100
AcDbDictionary
280
     1
281
     1
  3
ACAD_XREC_ROUNDTRIP
360
DC2
  0
DICTIONARY
  5
DDF
330
DAA
100
AcDbDictionary
280
     1
281
     1
  3
ACAD_XREC_ROUNDTRIP
360
DE0
  0
DICTIONARY
  5
DDD
330
DA9
100
AcDbDictionary
280
     1
281
     1
  3
ACAD_XREC_ROUNDTRIP
360
DDE
  0
DICTIONARY
  5
DD7
330
DA6
100
AcDbDictionary
280
     1
281
     1
  3
ACAD_XREC_ROUNDTRIP
360
DD8
  0
DICTIONARY
  5
DD9
330
DA7
100
AcDbDictionary
280
     1
281
     1
  3
ACAD_XREC_ROUNDTRIP
360
DDA
  0
DICTIONARY
  5
DC9
330
D9F
100
AcDbDictionary
280
     1
281
     1
  3
ACAD_XREC_ROUNDTRIP
360
DCA
  0
DICTIONARY
  5
DBB
330
D98
100
AcDbDictionary
280
     1
281
     1
  3
ACAD_XREC_ROUNDTRIP
360
DBC
  0
DICTIONARY
  5
DDB
330
DA8
100
AcDbDictionary
280
     1
281
     1
  3
ACAD_XREC_ROUNDTRIP
360
DDC
  0
XRECORD
  5
DBA
102
{ACAD_REACTORS
330
DB9
102
}
330
DB9
100
AcDbXrecord
280
     1
102
RTVSPost2010Prop28
280
     1
102
RTVSPost2010PropOp28
 70
     1
102
RTVSPost2010Prop29
280
     1
102
RTVSPost2010PropOp29
 70
     1
102
RTVSPost2010Prop30
280
     0
102
RTVSPost2010PropOp30
 70
     1
102
RTVSPost2010Prop31
280
     0
102
RTVSPost2010PropOp31
 70
     1
102
RTVSPost2010Prop32
280
     0
102
RTVSPost2010PropOp32
 70
     1
102
RTVSPost2010Prop33
280
     0
102
RTVSPost2010PropOp33
 70
     1
102
RTVSPost2010Prop34
280
     0
102
RTVSPost2010PropOp34
 70
     1
102
RTVSPost2010Prop35
280
     0
102
RTVSPost2010PropOp35
 70
     1
102
RTVSPost2010Prop36
280
     0
102
RTVSPost2010PropOp36
 70
     1
102
RTVSPost2010Prop37
 90
       50
102
RTVSPost2010PropOp37
 70
     1
102
RTVSPost2010Prop38
140
0.0
102
RTVSPost2010PropOp38
 70
     1
102
RTVSPost2010Prop39
140
1.0
102
RTVSPost2010PropOp39
 70
     1
102
RTVSPost2010Prop40
 90
        0
102
RTVSPost2010PropOp40
 70
     1
102
RTVSPost2010Prop41ColorIndex
 90
       18
102
RTVSPost2010Prop41ColorRGB
 90
        0
102
RTVSPost2010PropOp41
 70
     1
102
RTVSPost2010Prop42
 90
       50
102
RTVSPost2010PropOp42
 70
     1
102
RTVSPost2010Prop43
 90
        3
102
RTVSPost2010PropOp43
 70
     1
102
RTVSPost2010Prop44ColorIndex
 90
        5
102
RTVSPost2010Prop44ColorRGB
 90
      255
102
RTVSPost2010PropOp44
 70
     1
102
RTVSPost2010Prop45
280
     0
102
RTVSPost2010PropOp45
 70
     1
102
RTVSPost2010Prop46
 90
       50
102
RTVSPost2010PropOp46
 70
     1
102
RTVSPost2010Prop47
 90
       50
102
RTVSPost2010PropOp47
 70
     1
102
RTVSPost2010Prop48
 90
       50
102
RTVSPost2010PropOp48
 70
     1
102
RTVSPost2010Prop49
280
     0
102
RTVSPost2010PropOp49
 70
     1
102
RTVSPost2010Prop50
 90
       50
102
RTVSPost2010PropOp50
 70
     1
102
RTVSPost2010Prop51ColorIndex
 90
      256
102
RTVSPost2010Prop51ColorRGB
 90
-16777216
102
RTVSPost2010PropOp51
 70
     0
102
RTVSPost2010Prop52
140
1.0
102
RTVSPost2010PropOp52
 70
     0
102
RTVSPost2010Prop53
 90
        2
102
RTVSPost2010PropOp53
 70
     1
102
RTVSPost2010Prop54
  1
strokes_ogs.tif
102
RTVSPost2010PropOp54
 70
     1
102
RTVSPost2010Prop55
280
     0
102
RTVSPost2010PropOp55
 70
     1
102
RTVSPost2010Prop56
140
1.0
102
RTVSPost2010PropOp56
 70
     1
102
RTVSPost2010Prop57
140
1.0
102
RTVSPost2010PropOp57
 70
     1
  0
XRECORD
  5
DC0
102
{ACAD_REACTORS
330
DBF
102
}
330
DBF
100
AcDbXrecord
280
     1
102
RTVSPost2010Prop28
280
     0
102
RTVSPost2010PropOp28
 70
     1
102
RTVSPost2010Prop29
280
     1
102
RTVSPost2010PropOp29
 70
     1
102
RTVSPost2010Prop30
280
     1
102
RTVSPost2010PropOp30
 70
     1
102
RTVSPost2010Prop31
280
     0
102
RTVSPost2010PropOp31
 70
     1
102
RTVSPost2010Prop32
280
     0
102
RTVSPost2010PropOp32
 70
     1
102
RTVSPost2010Prop33
280
     0
102
RTVSPost2010PropOp33
 70
     1
102
RTVSPost2010Prop34
280
     0
102
RTVSPost2010PropOp34
 70
     1
102
RTVSPost2010Prop35
280
     0
102
RTVSPost2010PropOp35
 70
     1
102
RTVSPost2010Prop36
280
     0
102
RTVSPost2010PropOp36
 70
     1
102
RTVSPost2010Prop37
 90
       50
102
RTVSPost2010PropOp37
 70
     1
102
RTVSPost2010Prop38
140
0.0
102
RTVSPost2010PropOp38
 70
     1
102
RTVSPost2010Prop39
140
1.0
102
RTVSPost2010PropOp39
 70
     1
102
RTVSPost2010Prop40
 90
        0
102
RTVSPost2010PropOp40
 70
     1
102
RTVSPost2010Prop41ColorIndex
 90
       18
102
RTVSPost2010Prop41ColorRGB
 90
        0
102
RTVSPost2010PropOp41
 70
     1
102
RTVSPost2010Prop42
 90
       50
102
RTVSPost2010PropOp42
 70
     1
102
RTVSPost2010Prop43
 90
        3
102
RTVSPost2010PropOp43
 70
     1
102
RTVSPost2010Prop44ColorIndex
 90
        5
102
RTVSPost2010Prop44ColorRGB
 90
      255
102
RTVSPost2010PropOp44
 70
     1
102
RTVSPost2010Prop45
280
     0
102
RTVSPost2010PropOp45
 70
     1
102
RTVSPost2010Prop46
 90
       50
102
RTVSPost2010PropOp46
 70
     1
102
RTVSPost2010Prop47
 90
       50
102
RTVSPost2010PropOp47
 70
     1
102
RTVSPost2010Prop48
 90
       50
102
RTVSPost2010PropOp48
 70
     1
102
RTVSPost2010Prop49
280
     0
102
RTVSPost2010PropOp49
 70
     1
102
RTVSPost2010Prop50
 90
       50
102
RTVSPost2010PropOp50
 70
     1
102
RTVSPost2010Prop51ColorIndex
 90
      256
102
RTVSPost2010Prop51ColorRGB
 90
-16777216
102
RTVSPost2010PropOp51
 70
     0
102
RTVSPost2010Prop52
140
1.0
102
RTVSPost2010PropOp52
 70
     0
102
RTVSPost2010Prop53
 90
        2
102
RTVSPost2010PropOp53
 70
     1
102
RTVSPost2010Prop54
  1
strokes_ogs.tif
102
RTVSPost2010PropOp54
 70
     1
102
RTVSPost2010Prop55
280
     0
102
RTVSPost2010PropOp55
 70
     1
102
RTVSPost2010Prop56
140
1.0
102
RTVSPost2010PropOp56
 70
     1
102
RTVSPost2010Prop57
140
1.0
102
RTVSPost2010PropOp57
 70
     1
  0
XRECORD
  5
DC8
102
{ACAD_REACTORS
330
DC7
102
}
330
DC7
100
AcDbXrecord
280
     1
102
RTVSPost2010Prop28
280
     0
102
RTVSPost2010PropOp28
 70
     1
102
RTVSPost2010Prop29
280
     1
102
RTVSPost2010PropOp29
 70
     1
102
RTVSPost2010Prop30
280
     1
102
RTVSPost2010PropOp30
 70
     1
102
RTVSPost2010Prop31
280
     0
102
RTVSPost2010PropOp31
 70
     1
102
RTVSPost2010Prop32
280
     0
102
RTVSPost2010PropOp32
 70
     1
102
RTVSPost2010Prop33
280
     0
102
RTVSPost2010PropOp33
 70
     1
102
RTVSPost2010Prop34
280
     0
102
RTVSPost2010PropOp34
 70
     1
102
RTVSPost2010Prop35
280
     0
102
RTVSPost2010PropOp35
 70
     1
102
RTVSPost2010Prop36
280
     0
102
RTVSPost2010PropOp36
 70
     1
102
RTVSPost2010Prop37
 90
       50
102
RTVSPost2010PropOp37
 70
     1
102
RTVSPost2010Prop38
140
0.0
102
RTVSPost2010PropOp38
 70
     1
102
RTVSPost2010Prop39
140
1.0
102
RTVSPost2010PropOp39
 70
     1
102
RTVSPost2010Prop40
 90
        0
102
RTVSPost2010PropOp40
 70
     1
102
RTVSPost2010Prop41ColorIndex
 90
       18
102
RTVSPost2010Prop41ColorRGB
 90
        0
102
RTVSPost2010PropOp41
 70
     1
102
RTVSPost2010Prop42
 90
       50
102
RTVSPost2010PropOp42
 70
     1
102
RTVSPost2010Prop43
 90
        3
102
RTVSPost2010PropOp43
 70
     1
102
RTVSPost2010Prop44ColorIndex
 90
        5
102
RTVSPost2010Prop44ColorRGB
 90
      255
102
RTVSPost2010PropOp44
 70
     1
102
RTVSPost2010Prop45
280
     0
102
RTVSPost2010PropOp45
 70
     1
102
RTVSPost2010Prop46
 90
       50
102
RTVSPost2010PropOp46
 70
     1
102
RTVSPost2010Prop47
 90
       50
102
RTVSPost2010PropOp47
 70
     1
102
RTVSPost2010Prop48
 90
       50
102
RTVSPost2010PropOp48
 70
     1
102
RTVSPost2010Prop49
280
     0
102
RTVSPost2010PropOp49
 70
     1
102
RTVSPost2010Prop50
 90
       50
102
RTVSPost2010PropOp50
 70
     1
102
RTVSPost2010Prop51ColorIndex
 90
      256
102
RTVSPost2010Prop51ColorRGB
 90
-16777216
102
RTVSPost2010PropOp51
 70
     0
102
RTVSPost2010Prop52
140
1.0
102
RTVSPost2010PropOp52
 70
     0
102
RTVSPost2010Prop53
 90
        2
102
RTVSPost2010PropOp53
 70
     1
102
RTVSPost2010Prop54
  1
strokes_ogs.tif
102
RTVSPost2010PropOp54
 70
     1
102
RTVSPost2010Prop55
280
     0
102
RTVSPost2010PropOp55
 70
     1
102
RTVSPost2010Prop56
140
1.0
102
RTVSPost2010PropOp56
 70
     1
102
RTVSPost2010Prop57
140
1.0
102
RTVSPost2010PropOp57
 70
     1
  0
XRECORD
  5
DD0
102
{ACAD_REACTORS
330
DCF
102
}
330
DCF
100
AcDbXrecord
280
     1
102
RTVSPost2010Prop28
280
     0
102
RTVSPost2010PropOp28
 70
     1
102
RTVSPost2010Prop29
280
     1
102
RTVSPost2010PropOp29
 70
     1
102
RTVSPost2010Prop30
280
     1
102
RTVSPost2010PropOp30
 70
     1
102
RTVSPost2010Prop31
280
     0
102
RTVSPost2010PropOp31
 70
     1
102
RTVSPost2010Prop32
280
     0
102
RTVSPost2010PropOp32
 70
     1
102
RTVSPost2010Prop33
280
     0
102
RTVSPost2010PropOp33
 70
     1
102
RTVSPost2010Prop34
280
     0
102
RTVSPost2010PropOp34
 70
     1
102
RTVSPost2010Prop35
280
     0
102
RTVSPost2010PropOp35
 70
     1
102
RTVSPost2010Prop36
280
     0
102
RTVSPost2010PropOp36
 70
     1
102
RTVSPost2010Prop37
 90
       50
102
RTVSPost2010PropOp37
 70
     1
102
RTVSPost2010Prop38
140
0.0
102
RTVSPost2010PropOp38
 70
     1
102
RTVSPost2010Prop39
140
1.0
102
RTVSPost2010PropOp39
 70
     1
102
RTVSPost2010Prop40
 90
        0
102
RTVSPost2010PropOp40
 70
     1
102
RTVSPost2010Prop41ColorIndex
 90
       18
102
RTVSPost2010Prop41ColorRGB
 90
        0
102
RTVSPost2010PropOp41
 70
     1
102
RTVSPost2010Prop42
 90
       50
102
RTVSPost2010PropOp42
 70
     1
102
RTVSPost2010Prop43
 90
        3
102
RTVSPost2010PropOp43
 70
     1
102
RTVSPost2010Prop44ColorIndex
 90
        5
102
RTVSPost2010Prop44ColorRGB
 90
      255
102
RTVSPost2010PropOp44
 70
     1
102
RTVSPost2010Prop45
280
     0
102
RTVSPost2010PropOp45
 70
     1
102
RTVSPost2010Prop46
 90
       50
102
RTVSPost2010PropOp46
 70
     1
102
RTVSPost2010Prop47
 90
       50
102
RTVSPost2010PropOp47
 70
     1
102
RTVSPost2010Prop48
 90
       50
102
RTVSPost2010PropOp48
 70
     1
102
RTVSPost2010Prop49
280
     0
102
RTVSPost2010PropOp49
 70
     1
102
RTVSPost2010Prop50
 90
       50
102
RTVSPost2010PropOp50
 70
     1
102
RTVSPost2010Prop51ColorIndex
 90
      256
102
RTVSPost2010Prop51ColorRGB
 90
-16777216
102
RTVSPost2010PropOp51
 70
     0
102
RTVSPost2010Prop52
140
1.0
102
RTVSPost2010PropOp52
 70
     0
102
RTVSPost2010Prop53
 90
        2
102
RTVSPost2010PropOp53
 70
     1
102
RTVSPost2010Prop54
  1
strokes_ogs.tif
102
RTVSPost2010PropOp54
 70
     1
102
RTVSPost2010Prop55
280
     0
102
RTVSPost2010PropOp55
 70
     1
102
RTVSPost2010Prop56
140
1.0
102
RTVSPost2010PropOp56
 70
     1
102
RTVSPost2010Prop57
140
1.0
102
RTVSPost2010PropOp57
 70
     1
  0
XRECORD
  5
DC4
102
{ACAD_REACTORS
330
DC3
102
}
330
DC3
100
AcDbXrecord
280
     1
102
RTVSPost2010Prop28
280
     0
102
RTVSPost2010PropOp28
 70
     1
102
RTVSPost2010Prop29
280
     1
102
RTVSPost2010PropOp29
 70
     1
102
RTVSPost2010Prop30
280
     1
102
RTVSPost2010PropOp30
 70
     1
102
RTVSPost2010Prop31
280
     0
102
RTVSPost2010PropOp31
 70
     1
102
RTVSPost2010Prop32
280
     0
102
RTVSPost2010PropOp32
 70
     1
102
RTVSPost2010Prop33
280
     0
102
RTVSPost2010PropOp33
 70
     1
102
RTVSPost2010Prop34
280
     0
102
RTVSPost2010PropOp34
 70
     1
102
RTVSPost2010Prop35
280
     0
102
RTVSPost2010PropOp35
 70
     1
102
RTVSPost2010Prop36
280
     0
102
RTVSPost2010PropOp36
 70
     1
102
RTVSPost2010Prop37
 90
       50
102
RTVSPost2010PropOp37
 70
     1
102
RTVSPost2010Prop38
140
0.0
102
RTVSPost2010PropOp38
 70
     1
102
RTVSPost2010Prop39
140
1.0
102
RTVSPost2010PropOp39
 70
     1
102
RTVSPost2010Prop40
 90
        0
102
RTVSPost2010PropOp40
 70
     1
102
RTVSPost2010Prop41ColorIndex
 90
       18
102
RTVSPost2010Prop41ColorRGB
 90
        0
102
RTVSPost2010PropOp41
 70
     1
102
RTVSPost2010Prop42
 90
       50
102
RTVSPost2010PropOp42
 70
     1
102
RTVSPost2010Prop43
 90
        3
102
RTVSPost2010PropOp43
 70
     1
102
RTVSPost2010Prop44ColorIndex
 90
        5
102
RTVSPost2010Prop44ColorRGB
 90
      255
102
RTVSPost2010PropOp44
 70
     1
102
RTVSPost2010Prop45
280
     0
102
RTVSPost2010PropOp45
 70
     1
102
RTVSPost2010Prop46
 90
       50
102
RTVSPost2010PropOp46
 70
     1
102
RTVSPost2010Prop47
 90
       50
102
RTVSPost2010PropOp47
 70
     1
102
RTVSPost2010Prop48
 90
       50
102
RTVSPost2010PropOp48
 70
     1
102
RTVSPost2010Prop49
280
     0
102
RTVSPost2010PropOp49
 70
     1
102
RTVSPost2010Prop50
 90
       50
102
RTVSPost2010PropOp50
 70
     1
102
RTVSPost2010Prop51ColorIndex
 90
      256
102
RTVSPost2010Prop51ColorRGB
 90
-16777216
102
RTVSPost2010PropOp51
 70
     0
102
RTVSPost2010Prop52
140
1.0
102
RTVSPost2010PropOp52
 70
     0
102
RTVSPost2010Prop53
 90
        2
102
RTVSPost2010PropOp53
 70
     1
102
RTVSPost2010Prop54
  1
strokes_ogs.tif
102
RTVSPost2010PropOp54
 70
     1
102
RTVSPost2010Prop55
280
     0
102
RTVSPost2010PropOp55
 70
     1
102
RTVSPost2010Prop56
140
1.0
102
RTVSPost2010PropOp56
 70
     1
102
RTVSPost2010Prop57
140
1.0
102
RTVSPost2010PropOp57
 70
     1
  0
XRECORD
  5
DC6
102
{ACAD_REACTORS
330
DC5
102
}
330
DC5
100
AcDbXrecord
280
     1
102
RTVSPost2010Prop28
280
     0
102
RTVSPost2010PropOp28
 70
     1
102
RTVSPost2010Prop29
280
     1
102
RTVSPost2010PropOp29
 70
     1
102
RTVSPost2010Prop30
280
     1
102
RTVSPost2010PropOp30
 70
     1
102
RTVSPost2010Prop31
280
     0
102
RTVSPost2010PropOp31
 70
     1
102
RTVSPost2010Prop32
280
     0
102
RTVSPost2010PropOp32
 70
     1
102
RTVSPost2010Prop33
280
     0
102
RTVSPost2010PropOp33
 70
     1
102
RTVSPost2010Prop34
280
     0
102
RTVSPost2010PropOp34
 70
     1
102
RTVSPost2010Prop35
280
     0
102
RTVSPost2010PropOp35
 70
     1
102
RTVSPost2010Prop36
280
     0
102
RTVSPost2010PropOp36
 70
     1
102
RTVSPost2010Prop37
 90
       50
102
RTVSPost2010PropOp37
 70
     1
102
RTVSPost2010Prop38
140
0.0
102
RTVSPost2010PropOp38
 70
     1
102
RTVSPost2010Prop39
140
1.0
102
RTVSPost2010PropOp39
 70
     1
102
RTVSPost2010Prop40
 90
        0
102
RTVSPost2010PropOp40
 70
     1
102
RTVSPost2010Prop41ColorIndex
 90
       18
102
RTVSPost2010Prop41ColorRGB
 90
        0
102
RTVSPost2010PropOp41
 70
     1
102
RTVSPost2010Prop42
 90
       50
102
RTVSPost2010PropOp42
 70
     1
102
RTVSPost2010Prop43
 90
        3
102
RTVSPost2010PropOp43
 70
     1
102
RTVSPost2010Prop44ColorIndex
 90
        5
102
RTVSPost2010Prop44ColorRGB
 90
      255
102
RTVSPost2010PropOp44
 70
     1
102
RTVSPost2010Prop45
280
     0
102
RTVSPost2010PropOp45
 70
     1
102
RTVSPost2010Prop46
 90
       50
102
RTVSPost2010PropOp46
 70
     1
102
RTVSPost2010Prop47
 90
       50
102
RTVSPost2010PropOp47
 70
     1
102
RTVSPost2010Prop48
 90
       50
102
RTVSPost2010PropOp48
 70
     1
102
RTVSPost2010Prop49
280
     0
102
RTVSPost2010PropOp49
 70
     1
102
RTVSPost2010Prop50
 90
       50
102
RTVSPost2010PropOp50
 70
     1
102
RTVSPost2010Prop51ColorIndex
 90
      256
102
RTVSPost2010Prop51ColorRGB
 90
-16777216
102
RTVSPost2010PropOp51
 70
     0
102
RTVSPost2010Prop52
140
1.0
102
RTVSPost2010PropOp52
 70
     0
102
RTVSPost2010Prop53
 90
        2
102
RTVSPost2010PropOp53
 70
     1
102
RTVSPost2010Prop54
  1
strokes_ogs.tif
102
RTVSPost2010PropOp54
 70
     1
102
RTVSPost2010Prop55
280
     0
102
RTVSPost2010PropOp55
 70
     1
102
RTVSPost2010Prop56
140
1.0
102
RTVSPost2010PropOp56
 70
     1
102
RTVSPost2010Prop57
140
1.0
102
RTVSPost2010PropOp57
 70
     1
  0
XRECORD
  5
DD6
102
{ACAD_REACTORS
330
DD5
102
}
330
DD5
100
AcDbXrecord
280
     1
102
RTVSPost2010Prop28
280
     0
102
RTVSPost2010PropOp28
 70
     0
102
RTVSPost2010Prop29
280
     1
102
RTVSPost2010PropOp29
 70
     0
102
RTVSPost2010Prop30
280
     1
102
RTVSPost2010PropOp30
 70
     0
102
RTVSPost2010Prop31
280
     0
102
RTVSPost2010PropOp31
 70
     0
102
RTVSPost2010Prop32
280
     0
102
RTVSPost2010PropOp32
 70
     0
102
RTVSPost2010Prop33
280
     0
102
RTVSPost2010PropOp33
 70
     0
102
RTVSPost2010Prop34
280
     0
102
RTVSPost2010PropOp34
 70
     0
102
RTVSPost2010Prop35
280
     0
102
RTVSPost2010PropOp35
 70
     0
102
RTVSPost2010Prop36
280
     0
102
RTVSPost2010PropOp36
 70
     0
102
RTVSPost2010Prop37
 90
       50
102
RTVSPost2010PropOp37
 70
     0
102
RTVSPost2010Prop38
140
0.0
102
RTVSPost2010PropOp38
 70
     0
102
RTVSPost2010Prop39
140
1.0
102
RTVSPost2010PropOp39
 70
     0
102
RTVSPost2010Prop40
 90
        0
102
RTVSPost2010PropOp40
 70
     0
102
RTVSPost2010Prop41ColorIndex
 90
       18
102
RTVSPost2010Prop41ColorRGB
 90
        0
102
RTVSPost2010PropOp41
 70
     0
102
RTVSPost2010Prop42
 90
       50
102
RTVSPost2010PropOp42
 70
     0
102
RTVSPost2010Prop43
 90
        3
102
RTVSPost2010PropOp43
 70
     0
102
RTVSPost2010Prop44ColorIndex
 90
        5
102
RTVSPost2010Prop44ColorRGB
 90
      255
102
RTVSPost2010PropOp44
 70
     0
102
RTVSPost2010Prop45
280
     0
102
RTVSPost2010PropOp45
 70
     0
102
RTVSPost2010Prop46
 90
       50
102
RTVSPost2010PropOp46
 70
     0
102
RTVSPost2010Prop47
 90
       50
102
RTVSPost2010PropOp47
 70
     0
102
RTVSPost2010Prop48
 90
       50
102
RTVSPost2010PropOp48
 70
     0
102
RTVSPost2010Prop49
280
     0
102
RTVSPost2010PropOp49
 70
     0
102
RTVSPost2010Prop50
 90
       50
102
RTVSPost2010PropOp50
 70
     0
102
RTVSPost2010Prop51ColorIndex
 90
      256
102
RTVSPost2010Prop51ColorRGB
 90
-16777216
102
RTVSPost2010PropOp51
 70
     0
102
RTVSPost2010Prop52
140
1.0
102
RTVSPost2010PropOp52
 70
     0
102
RTVSPost2010Prop53
 90
        2
102
RTVSPost2010PropOp53
 70
     0
102
RTVSPost2010Prop54
  1
strokes_ogs.tif
102
RTVSPost2010PropOp54
 70
     0
102
RTVSPost2010Prop55
280
     0
102
RTVSPost2010PropOp55
 70
     0
102
RTVSPost2010Prop56
140
1.0
102
RTVSPost2010PropOp56
 70
     0
102
RTVSPost2010Prop57
140
1.0
102
RTVSPost2010PropOp57
 70
     0
  0
XRECORD
  5
DCE
102
{ACAD_REACTORS
330
DCD
102
}
330
DCD
100
AcDbXrecord
280
     1
102
RTVSPost2010Prop28
280
     0
102
RTVSPost2010PropOp28
 70
     1
102
RTVSPost2010Prop29
280
     1
102
RTVSPost2010PropOp29
 70
     1
102
RTVSPost2010Prop30
280
     1
102
RTVSPost2010PropOp30
 70
     1
102
RTVSPost2010Prop31
280
     0
102
RTVSPost2010PropOp31
 70
     1
102
RTVSPost2010Prop32
280
     0
102
RTVSPost2010PropOp32
 70
     1
102
RTVSPost2010Prop33
280
     0
102
RTVSPost2010PropOp33
 70
     1
102
RTVSPost2010Prop34
280
     0
102
RTVSPost2010PropOp34
 70
     1
102
RTVSPost2010Prop35
280
     0
102
RTVSPost2010PropOp35
 70
     1
102
RTVSPost2010Prop36
280
     0
102
RTVSPost2010PropOp36
 70
     1
102
RTVSPost2010Prop37
 90
       50
102
RTVSPost2010PropOp37
 70
     1
102
RTVSPost2010Prop38
140
0.0
102
RTVSPost2010PropOp38
 70
     1
102
RTVSPost2010Prop39
140
1.0
102
RTVSPost2010PropOp39
 70
     1
102
RTVSPost2010Prop40
 90
        0
102
RTVSPost2010PropOp40
 70
     1
102
RTVSPost2010Prop41ColorIndex
 90
       18
102
RTVSPost2010Prop41ColorRGB
 90
        0
102
RTVSPost2010PropOp41
 70
     1
102
RTVSPost2010Prop42
 90
       50
102
RTVSPost2010PropOp42
 70
     1
102
RTVSPost2010Prop43
 90
        3
102
RTVSPost2010PropOp43
 70
     1
102
RTVSPost2010Prop44ColorIndex
 90
        5
102
RTVSPost2010Prop44ColorRGB
 90
      255
102
RTVSPost2010PropOp44
 70
     1
102
RTVSPost2010Prop45
280
     0
102
RTVSPost2010PropOp45
 70
     1
102
RTVSPost2010Prop46
 90
       50
102
RTVSPost2010PropOp46
 70
     1
102
RTVSPost2010Prop47
 90
       50
102
RTVSPost2010PropOp47
 70
     1
102
RTVSPost2010Prop48
 90
       50
102
RTVSPost2010PropOp48
 70
     1
102
RTVSPost2010Prop49
280
     0
102
RTVSPost2010PropOp49
 70
     1
102
RTVSPost2010Prop50
 90
       50
102
RTVSPost2010PropOp50
 70
     1
102
RTVSPost2010Prop51ColorIndex
 90
      256
102
RTVSPost2010Prop51ColorRGB
 90
-16777216
102
RTVSPost2010PropOp51
 70
     0
102
RTVSPost2010Prop52
140
1.0
102
RTVSPost2010PropOp52
 70
     0
102
RTVSPost2010Prop53
 90
        2
102
RTVSPost2010PropOp53
 70
     1
102
RTVSPost2010Prop54
  1
strokes_ogs.tif
102
RTVSPost2010PropOp54
 70
     1
102
RTVSPost2010Prop55
280
     0
102
RTVSPost2010PropOp55
 70
     1
102
RTVSPost2010Prop56
140
1.0
102
RTVSPost2010PropOp56
 70
     1
102
RTVSPost2010Prop57
140
1.0
102
RTVSPost2010PropOp57
 70
     1
  0
XRECORD
  5
DB2
102
{ACAD_REACTORS
330
DB1
102
}
330
DB1
100
AcDbXrecord
280
     1
102
RTVSPost2010Prop28
280
     0
102
RTVSPost2010PropOp28
 70
     1
102
RTVSPost2010Prop29
280
     1
102
RTVSPost2010PropOp29
 70
     1
102
RTVSPost2010Prop30
280
     1
102
RTVSPost2010PropOp30
 70
     1
102
RTVSPost2010Prop31
280
     0
102
RTVSPost2010PropOp31
 70
     1
102
RTVSPost2010Prop32
280
     0
102
RTVSPost2010PropOp32
 70
     1
102
RTVSPost2010Prop33
280
     0
102
RTVSPost2010PropOp33
 70
     1
102
RTVSPost2010Prop34
280
     0
102
RTVSPost2010PropOp34
 70
     1
102
RTVSPost2010Prop35
280
     0
102
RTVSPost2010PropOp35
 70
     1
102
RTVSPost2010Prop36
280
     0
102
RTVSPost2010PropOp36
 70
     1
102
RTVSPost2010Prop37
 90
       50
102
RTVSPost2010PropOp37
 70
     1
102
RTVSPost2010Prop38
140
0.0
102
RTVSPost2010PropOp38
 70
     1
102
RTVSPost2010Prop39
140
1.0
102
RTVSPost2010PropOp39
 70
     1
102
RTVSPost2010Prop40
 90
        0
102
RTVSPost2010PropOp40
 70
     1
102
RTVSPost2010Prop41ColorIndex
 90
       18
102
RTVSPost2010Prop41ColorRGB
 90
        0
102
RTVSPost2010PropOp41
 70
     1
102
RTVSPost2010Prop42
 90
       50
102
RTVSPost2010PropOp42
 70
     1
102
RTVSPost2010Prop43
 90
        3
102
RTVSPost2010PropOp43
 70
     1
102
RTVSPost2010Prop44ColorIndex
 90
        5
102
RTVSPost2010Prop44ColorRGB
 90
      255
102
RTVSPost2010PropOp44
 70
     1
102
RTVSPost2010Prop45
280
     0
102
RTVSPost2010PropOp45
 70
     1
102
RTVSPost2010Prop46
 90
       50
102
RTVSPost2010PropOp46
 70
     1
102
RTVSPost2010Prop47
 90
       50
102
RTVSPost2010PropOp47
 70
     1
102
RTVSPost2010Prop48
 90
       50
102
RTVSPost2010PropOp48
 70
     1
102
RTVSPost2010Prop49
280
     0
102
RTVSPost2010PropOp49
 70
     1
102
RTVSPost2010Prop50
 90
       50
102
RTVSPost2010PropOp50
 70
     1
102
RTVSPost2010Prop51ColorIndex
 90
      256
102
RTVSPost2010Prop51ColorRGB
 90
-16777216
102
RTVSPost2010PropOp51
 70
     0
102
RTVSPost2010Prop52
140
1.0
102
RTVSPost2010PropOp52
 70
     0
102
RTVSPost2010Prop53
 90
        2
102
RTVSPost2010PropOp53
 70
     1
102
RTVSPost2010Prop54
  1
strokes_ogs.tif
102
RTVSPost2010PropOp54
 70
     1
102
RTVSPost2010Prop55
280
     0
102
RTVSPost2010PropOp55
 70
     1
102
RTVSPost2010Prop56
140
1.0
102
RTVSPost2010PropOp56
 70
     1
102
RTVSPost2010Prop57
140
1.0
102
RTVSPost2010PropOp57
 70
     1
  0
XRECORD
  5
DB4
102
{ACAD_REACTORS
330
DB3
102
}
330
DB3
100
AcDbXrecord
280
     1
102
RTVSPost2010Prop28
280
     0
102
RTVSPost2010PropOp28
 70
     1
102
RTVSPost2010Prop29
280
     1
102
RTVSPost2010PropOp29
 70
     1
102
RTVSPost2010Prop30
280
     1
102
RTVSPost2010PropOp30
 70
     1
102
RTVSPost2010Prop31
280
     0
102
RTVSPost2010PropOp31
 70
     1
102
RTVSPost2010Prop32
280
     0
102
RTVSPost2010PropOp32
 70
     1
102
RTVSPost2010Prop33
280
     0
102
RTVSPost2010PropOp33
 70
     1
102
RTVSPost2010Prop34
280
     0
102
RTVSPost2010PropOp34
 70
     1
102
RTVSPost2010Prop35
280
     0
102
RTVSPost2010PropOp35
 70
     1
102
RTVSPost2010Prop36
280
     0
102
RTVSPost2010PropOp36
 70
     1
102
RTVSPost2010Prop37
 90
       50
102
RTVSPost2010PropOp37
 70
     1
102
RTVSPost2010Prop38
140
0.0
102
RTVSPost2010PropOp38
 70
     1
102
RTVSPost2010Prop39
140
1.0
102
RTVSPost2010PropOp39
 70
     1
102
RTVSPost2010Prop40
 90
        0
102
RTVSPost2010PropOp40
 70
     1
102
RTVSPost2010Prop41ColorIndex
 90
       18
102
RTVSPost2010Prop41ColorRGB
 90
        0
102
RTVSPost2010PropOp41
 70
     1
102
RTVSPost2010Prop42
 90
       50
102
RTVSPost2010PropOp42
 70
     1
102
RTVSPost2010Prop43
 90
        3
102
RTVSPost2010PropOp43
 70
     1
102
RTVSPost2010Prop44ColorIndex
 90
        5
102
RTVSPost2010Prop44ColorRGB
 90
      255
102
RTVSPost2010PropOp44
 70
     1
102
RTVSPost2010Prop45
280
     0
102
RTVSPost2010PropOp45
 70
     1
102
RTVSPost2010Prop46
 90
       50
102
RTVSPost2010PropOp46
 70
     1
102
RTVSPost2010Prop47
 90
       50
102
RTVSPost2010PropOp47
 70
     1
102
RTVSPost2010Prop48
 90
       50
102
RTVSPost2010PropOp48
 70
     1
102
RTVSPost2010Prop49
280
     0
102
RTVSPost2010PropOp49
 70
     1
102
RTVSPost2010Prop50
 90
       50
102
RTVSPost2010PropOp50
 70
     1
102
RTVSPost2010Prop51ColorIndex
 90
      256
102
RTVSPost2010Prop51ColorRGB
 90
-16777216
102
RTVSPost2010PropOp51
 70
     0
102
RTVSPost2010Prop52
140
1.0
102
RTVSPost2010PropOp52
 70
     0
102
RTVSPost2010Prop53
 90
        2
102
RTVSPost2010PropOp53
 70
     1
102
RTVSPost2010Prop54
  1
strokes_ogs.tif
102
RTVSPost2010PropOp54
 70
     1
102
RTVSPost2010Prop55
280
     0
102
RTVSPost2010PropOp55
 70
     1
102
RTVSPost2010Prop56
140
1.0
102
RTVSPost2010PropOp56
 70
     1
102
RTVSPost2010Prop57
140
1.0
102
RTVSPost2010PropOp57
 70
     1
  0
XRECORD
  5
DB6
102
{ACAD_REACTORS
330
DB5
102
}
330
DB5
100
AcDbXrecord
280
     1
102
RTVSPost2010Prop28
280
     0
102
RTVSPost2010PropOp28
 70
     1
102
RTVSPost2010Prop29
280
     1
102
RTVSPost2010PropOp29
 70
     1
102
RTVSPost2010Prop30
280
     1
102
RTVSPost2010PropOp30
 70
     1
102
RTVSPost2010Prop31
280
     0
102
RTVSPost2010PropOp31
 70
     1
102
RTVSPost2010Prop32
280
     0
102
RTVSPost2010PropOp32
 70
     1
102
RTVSPost2010Prop33
280
     0
102
RTVSPost2010PropOp33
 70
     1
102
RTVSPost2010Prop34
280
     0
102
RTVSPost2010PropOp34
 70
     1
102
RTVSPost2010Prop35
280
     0
102
RTVSPost2010PropOp35
 70
     1
102
RTVSPost2010Prop36
280
     0
102
RTVSPost2010PropOp36
 70
     1
102
RTVSPost2010Prop37
 90
       50
102
RTVSPost2010PropOp37
 70
     1
102
RTVSPost2010Prop38
140
0.0
102
RTVSPost2010PropOp38
 70
     1
102
RTVSPost2010Prop39
140
1.0
102
RTVSPost2010PropOp39
 70
     1
102
RTVSPost2010Prop40
 90
        0
102
RTVSPost2010PropOp40
 70
     1
102
RTVSPost2010Prop41ColorIndex
 90
       18
102
RTVSPost2010Prop41ColorRGB
 90
        0
102
RTVSPost2010PropOp41
 70
     1
102
RTVSPost2010Prop42
 90
       50
102
RTVSPost2010PropOp42
 70
     1
102
RTVSPost2010Prop43
 90
        3
102
RTVSPost2010PropOp43
 70
     1
102
RTVSPost2010Prop44ColorIndex
 90
        5
102
RTVSPost2010Prop44ColorRGB
 90
      255
102
RTVSPost2010PropOp44
 70
     1
102
RTVSPost2010Prop45
280
     0
102
RTVSPost2010PropOp45
 70
     1
102
RTVSPost2010Prop46
 90
       50
102
RTVSPost2010PropOp46
 70
     1
102
RTVSPost2010Prop47
 90
       50
102
RTVSPost2010PropOp47
 70
     1
102
RTVSPost2010Prop48
 90
       50
102
RTVSPost2010PropOp48
 70
     1
102
RTVSPost2010Prop49
280
     0
102
RTVSPost2010PropOp49
 70
     1
102
RTVSPost2010Prop50
 90
       50
102
RTVSPost2010PropOp50
 70
     1
102
RTVSPost2010Prop51ColorIndex
 90
      256
102
RTVSPost2010Prop51ColorRGB
 90
-16777216
102
RTVSPost2010PropOp51
 70
     0
102
RTVSPost2010Prop52
140
1.0
102
RTVSPost2010PropOp52
 70
     0
102
RTVSPost2010Prop53
 90
        2
102
RTVSPost2010PropOp53
 70
     1
102
RTVSPost2010Prop54
  1
strokes_ogs.tif
102
RTVSPost2010PropOp54
 70
     1
102
RTVSPost2010Prop55
280
     0
102
RTVSPost2010PropOp55
 70
     1
102
RTVSPost2010Prop56
140
1.0
102
RTVSPost2010PropOp56
 70
     1
102
RTVSPost2010Prop57
140
1.0
102
RTVSPost2010PropOp57
 70
     1
  0
XRECORD
  5
DB8
102
{ACAD_REACTORS
330
DB7
102
}
330
DB7
100
AcDbXrecord
280
     1
102
RTVSPost2010Prop28
280
     0
102
RTVSPost2010PropOp28
 70
     1
102
RTVSPost2010Prop29
280
     1
102
RTVSPost2010PropOp29
 70
     1
102
RTVSPost2010Prop30
280
     1
102
RTVSPost2010PropOp30
 70
     1
102
RTVSPost2010Prop31
280
     0
102
RTVSPost2010PropOp31
 70
     1
102
RTVSPost2010Prop32
280
     0
102
RTVSPost2010PropOp32
 70
     1
102
RTVSPost2010Prop33
280
     0
102
RTVSPost2010PropOp33
 70
     1
102
RTVSPost2010Prop34
280
     0
102
RTVSPost2010PropOp34
 70
     1
102
RTVSPost2010Prop35
280
     0
102
RTVSPost2010PropOp35
 70
     1
102
RTVSPost2010Prop36
280
     0
102
RTVSPost2010PropOp36
 70
     1
102
RTVSPost2010Prop37
 90
       50
102
RTVSPost2010PropOp37
 70
     1
102
RTVSPost2010Prop38
140
0.0
102
RTVSPost2010PropOp38
 70
     1
102
RTVSPost2010Prop39
140
1.0
102
RTVSPost2010PropOp39
 70
     1
102
RTVSPost2010Prop40
 90
        0
102
RTVSPost2010PropOp40
 70
     1
102
RTVSPost2010Prop41ColorIndex
 90
       18
102
RTVSPost2010Prop41ColorRGB
 90
        0
102
RTVSPost2010PropOp41
 70
     1
102
RTVSPost2010Prop42
 90
       50
102
RTVSPost2010PropOp42
 70
     1
102
RTVSPost2010Prop43
 90
        3
102
RTVSPost2010PropOp43
 70
     1
102
RTVSPost2010Prop44ColorIndex
 90
        5
102
RTVSPost2010Prop44ColorRGB
 90
      255
102
RTVSPost2010PropOp44
 70
     1
102
RTVSPost2010Prop45
280
     0
102
RTVSPost2010PropOp45
 70
     1
102
RTVSPost2010Prop46
 90
       50
102
RTVSPost2010PropOp46
 70
     1
102
RTVSPost2010Prop47
 90
       50
102
RTVSPost2010PropOp47
 70
     1
102
RTVSPost2010Prop48
 90
       50
102
RTVSPost2010PropOp48
 70
     1
102
RTVSPost2010Prop49
280
     0
102
RTVSPost2010PropOp49
 70
     1
102
RTVSPost2010Prop50
 90
       50
102
RTVSPost2010PropOp50
 70
     1
102
RTVSPost2010Prop51ColorIndex
 90
      256
102
RTVSPost2010Prop51ColorRGB
 90
-16777216
102
RTVSPost2010PropOp51
 70
     0
102
RTVSPost2010Prop52
140
1.0
102
RTVSPost2010PropOp52
 70
     0
102
RTVSPost2010Prop53
 90
        2
102
RTVSPost2010PropOp53
 70
     1
102
RTVSPost2010Prop54
  1
strokes_ogs.tif
102
RTVSPost2010PropOp54
 70
     1
102
RTVSPost2010Prop55
280
     0
102
RTVSPost2010PropOp55
 70
     1
102
RTVSPost2010Prop56
140
1.0
102
RTVSPost2010PropOp56
 70
     1
102
RTVSPost2010Prop57
140
1.0
102
RTVSPost2010PropOp57
 70
     1
  0
XRECORD
  5
DBE
102
{ACAD_REACTORS
330
DBD
102
}
330
DBD
100
AcDbXrecord
280
     1
102
RTVSPost2010Prop28
280
     0
102
RTVSPost2010PropOp28
 70
     1
102
RTVSPost2010Prop29
280
     1
102
RTVSPost2010PropOp29
 70
     1
102
RTVSPost2010Prop30
280
     1
102
RTVSPost2010PropOp30
 70
     1
102
RTVSPost2010Prop31
280
     0
102
RTVSPost2010PropOp31
 70
     1
102
RTVSPost2010Prop32
280
     0
102
RTVSPost2010PropOp32
 70
     1
102
RTVSPost2010Prop33
280
     0
102
RTVSPost2010PropOp33
 70
     1
102
RTVSPost2010Prop34
280
     0
102
RTVSPost2010PropOp34
 70
     1
102
RTVSPost2010Prop35
280
     0
102
RTVSPost2010PropOp35
 70
     1
102
RTVSPost2010Prop36
280
     0
102
RTVSPost2010PropOp36
 70
     1
102
RTVSPost2010Prop37
 90
       50
102
RTVSPost2010PropOp37
 70
     1
102
RTVSPost2010Prop38
140
0.0
102
RTVSPost2010PropOp38
 70
     1
102
RTVSPost2010Prop39
140
1.0
102
RTVSPost2010PropOp39
 70
     1
102
RTVSPost2010Prop40
 90
        0
102
RTVSPost2010PropOp40
 70
     1
102
RTVSPost2010Prop41ColorIndex
 90
       18
102
RTVSPost2010Prop41ColorRGB
 90
        0
102
RTVSPost2010PropOp41
 70
     1
102
RTVSPost2010Prop42
 90
       50
102
RTVSPost2010PropOp42
 70
     1
102
RTVSPost2010Prop43
 90
        3
102
RTVSPost2010PropOp43
 70
     1
102
RTVSPost2010Prop44ColorIndex
 90
        5
102
RTVSPost2010Prop44ColorRGB
 90
      255
102
RTVSPost2010PropOp44
 70
     1
102
RTVSPost2010Prop45
280
     0
102
RTVSPost2010PropOp45
 70
     1
102
RTVSPost2010Prop46
 90
       50
102
RTVSPost2010PropOp46
 70
     1
102
RTVSPost2010Prop47
 90
       50
102
RTVSPost2010PropOp47
 70
     1
102
RTVSPost2010Prop48
 90
       50
102
RTVSPost2010PropOp48
 70
     1
102
RTVSPost2010Prop49
280
     0
102
RTVSPost2010PropOp49
 70
     1
102
RTVSPost2010Prop50
 90
       50
102
RTVSPost2010PropOp50
 70
     1
102
RTVSPost2010Prop51ColorIndex
 90
      256
102
RTVSPost2010Prop51ColorRGB
 90
-16777216
102
RTVSPost2010PropOp51
 70
     0
102
RTVSPost2010Prop52
140
1.0
102
RTVSPost2010PropOp52
 70
     0
102
RTVSPost2010Prop53
 90
        2
102
RTVSPost2010PropOp53
 70
     1
102
RTVSPost2010Prop54
  1
strokes_ogs.tif
102
RTVSPost2010PropOp54
 70
     1
102
RTVSPost2010Prop55
280
     0
102
RTVSPost2010PropOp55
 70
     1
102
RTVSPost2010Prop56
140
1.0
102
RTVSPost2010PropOp56
 70
     1
102
RTVSPost2010Prop57
140
1.0
102
RTVSPost2010PropOp57
 70
     1
  0
XRECORD
  5
DD2
102
{ACAD_REACTORS
330
DD1
102
}
330
DD1
100
AcDbXrecord
280
     1
102
RTVSPost2010Prop28
280
     0
102
RTVSPost2010PropOp28
 70
     0
102
RTVSPost2010Prop29
280
     1
102
RTVSPost2010PropOp29
 70
     0
102
RTVSPost2010Prop30
280
     1
102
RTVSPost2010PropOp30
 70
     0
102
RTVSPost2010Prop31
280
     0
102
RTVSPost2010PropOp31
 70
     0
102
RTVSPost2010Prop32
280
     0
102
RTVSPost2010PropOp32
 70
     0
102
RTVSPost2010Prop33
280
     0
102
RTVSPost2010PropOp33
 70
     0
102
RTVSPost2010Prop34
280
     0
102
RTVSPost2010PropOp34
 70
     0
102
RTVSPost2010Prop35
280
     0
102
RTVSPost2010PropOp35
 70
     0
102
RTVSPost2010Prop36
280
     0
102
RTVSPost2010PropOp36
 70
     0
102
RTVSPost2010Prop37
 90
       50
102
RTVSPost2010PropOp37
 70
     0
102
RTVSPost2010Prop38
140
0.0
102
RTVSPost2010PropOp38
 70
     0
102
RTVSPost2010Prop39
140
1.0
102
RTVSPost2010PropOp39
 70
     0
102
RTVSPost2010Prop40
 90
        0
102
RTVSPost2010PropOp40
 70
     0
102
RTVSPost2010Prop41ColorIndex
 90
       18
102
RTVSPost2010Prop41ColorRGB
 90
        0
102
RTVSPost2010PropOp41
 70
     0
102
RTVSPost2010Prop42
 90
       50
102
RTVSPost2010PropOp42
 70
     0
102
RTVSPost2010Prop43
 90
        3
102
RTVSPost2010PropOp43
 70
     0
102
RTVSPost2010Prop44ColorIndex
 90
        5
102
RTVSPost2010Prop44ColorRGB
 90
      255
102
RTVSPost2010PropOp44
 70
     0
102
RTVSPost2010Prop45
280
     0
102
RTVSPost2010PropOp45
 70
     0
102
RTVSPost2010Prop46
 90
       50
102
RTVSPost2010PropOp46
 70
     0
102
RTVSPost2010Prop47
 90
       50
102
RTVSPost2010PropOp47
 70
     0
102
RTVSPost2010Prop48
 90
       50
102
RTVSPost2010PropOp48
 70
     0
102
RTVSPost2010Prop49
280
     0
102
RTVSPost2010PropOp49
 70
     0
102
RTVSPost2010Prop50
 90
       50
102
RTVSPost2010PropOp50
 70
     0
102
RTVSPost2010Prop51ColorIndex
 90
      256
102
RTVSPost2010Prop51ColorRGB
 90
-16777216
102
RTVSPost2010PropOp51
 70
     0
102
RTVSPost2010Prop52
140
1.0
102
RTVSPost2010PropOp52
 70
     0
102
RTVSPost2010Prop53
 90
        2
102
RTVSPost2010PropOp53
 70
     0
102
RTVSPost2010Prop54
  1
strokes_ogs.tif
102
RTVSPost2010PropOp54
 70
     0
102
RTVSPost2010Prop55
280
     0
102
RTVSPost2010PropOp55
 70
     0
102
RTVSPost2010Prop56
140
1.0
102
RTVSPost2010PropOp56
 70
     0
102
RTVSPost2010Prop57
140
1.0
102
RTVSPost2010PropOp57
 70
     0
  0
XRECORD
  5
DCC
102
{ACAD_REACTORS
330
DCB
102
}
330
DCB
100
AcDbXrecord
280
     1
102
RTVSPost2010Prop28
280
     0
102
RTVSPost2010PropOp28
 70
     1
102
RTVSPost2010Prop29
280
     1
102
RTVSPost2010PropOp29
 70
     1
102
RTVSPost2010Prop30
280
     1
102
RTVSPost2010PropOp30
 70
     1
102
RTVSPost2010Prop31
280
     0
102
RTVSPost2010PropOp31
 70
     1
102
RTVSPost2010Prop32
280
     0
102
RTVSPost2010PropOp32
 70
     1
102
RTVSPost2010Prop33
280
     0
102
RTVSPost2010PropOp33
 70
     1
102
RTVSPost2010Prop34
280
     0
102
RTVSPost2010PropOp34
 70
     1
102
RTVSPost2010Prop35
280
     0
102
RTVSPost2010PropOp35
 70
     1
102
RTVSPost2010Prop36
280
     0
102
RTVSPost2010PropOp36
 70
     1
102
RTVSPost2010Prop37
 90
       50
102
RTVSPost2010PropOp37
 70
     1
102
RTVSPost2010Prop38
140
0.0
102
RTVSPost2010PropOp38
 70
     1
102
RTVSPost2010Prop39
140
1.0
102
RTVSPost2010PropOp39
 70
     1
102
RTVSPost2010Prop40
 90
        0
102
RTVSPost2010PropOp40
 70
     1
102
RTVSPost2010Prop41ColorIndex
 90
       18
102
RTVSPost2010Prop41ColorRGB
 90
        0
102
RTVSPost2010PropOp41
 70
     1
102
RTVSPost2010Prop42
 90
       50
102
RTVSPost2010PropOp42
 70
     1
102
RTVSPost2010Prop43
 90
        3
102
RTVSPost2010PropOp43
 70
     1
102
RTVSPost2010Prop44ColorIndex
 90
        5
102
RTVSPost2010Prop44ColorRGB
 90
      255
102
RTVSPost2010PropOp44
 70
     1
102
RTVSPost2010Prop45
280
     0
102
RTVSPost2010PropOp45
 70
     1
102
RTVSPost2010Prop46
 90
       50
102
RTVSPost2010PropOp46
 70
     1
102
RTVSPost2010Prop47
 90
       50
102
RTVSPost2010PropOp47
 70
     1
102
RTVSPost2010Prop48
 90
       50
102
RTVSPost2010PropOp48
 70
     1
102
RTVSPost2010Prop49
280
     0
102
RTVSPost2010PropOp49
 70
     1
102
RTVSPost2010Prop50
 90
       50
102
RTVSPost2010PropOp50
 70
     1
102
RTVSPost2010Prop51ColorIndex
 90
      256
102
RTVSPost2010Prop51ColorRGB
 90
-16777216
102
RTVSPost2010PropOp51
 70
     0
102
RTVSPost2010Prop52
140
1.0
102
RTVSPost2010PropOp52
 70
     0
102
RTVSPost2010Prop53
 90
        2
102
RTVSPost2010PropOp53
 70
     1
102
RTVSPost2010Prop54
  1
strokes_ogs.tif
102
RTVSPost2010PropOp54
 70
     1
102
RTVSPost2010Prop55
280
     0
102
RTVSPost2010PropOp55
 70
     1
102
RTVSPost2010Prop56
140
1.0
102
RTVSPost2010PropOp56
 70
     1
102
RTVSPost2010Prop57
140
1.0
102
RTVSPost2010PropOp57
 70
     1
  0
XRECORD
  5
DD4
102
{ACAD_REACTORS
330
DD3
102
}
330
DD3
100
AcDbXrecord
280
     1
102
RTVSPost2010Prop28
280
     0
102
RTVSPost2010PropOp28
 70
     0
102
RTVSPost2010Prop29
280
     1
102
RTVSPost2010PropOp29
 70
     0
102
RTVSPost2010Prop30
280
     1
102
RTVSPost2010PropOp30
 70
     0
102
RTVSPost2010Prop31
280
     0
102
RTVSPost2010PropOp31
 70
     0
102
RTVSPost2010Prop32
280
     0
102
RTVSPost2010PropOp32
 70
     0
102
RTVSPost2010Prop33
280
     0
102
RTVSPost2010PropOp33
 70
     0
102
RTVSPost2010Prop34
280
     0
102
RTVSPost2010PropOp34
 70
     0
102
RTVSPost2010Prop35
280
     0
102
RTVSPost2010PropOp35
 70
     0
102
RTVSPost2010Prop36
280
     0
102
RTVSPost2010PropOp36
 70
     0
102
RTVSPost2010Prop37
 90
       50
102
RTVSPost2010PropOp37
 70
     0
102
RTVSPost2010Prop38
140
0.0
102
RTVSPost2010PropOp38
 70
     0
102
RTVSPost2010Prop39
140
1.0
102
RTVSPost2010PropOp39
 70
     0
102
RTVSPost2010Prop40
 90
        0
102
RTVSPost2010PropOp40
 70
     0
102
RTVSPost2010Prop41ColorIndex
 90
       18
102
RTVSPost2010Prop41ColorRGB
 90
        0
102
RTVSPost2010PropOp41
 70
     0
102
RTVSPost2010Prop42
 90
       50
102
RTVSPost2010PropOp42
 70
     0
102
RTVSPost2010Prop43
 90
        3
102
RTVSPost2010PropOp43
 70
     0
102
RTVSPost2010Prop44ColorIndex
 90
        5
102
RTVSPost2010Prop44ColorRGB
 90
      255
102
RTVSPost2010PropOp44
 70
     0
102
RTVSPost2010Prop45
280
     0
102
RTVSPost2010PropOp45
 70
     0
102
RTVSPost2010Prop46
 90
       50
102
RTVSPost2010PropOp46
 70
     0
102
RTVSPost2010Prop47
 90
       50
102
RTVSPost2010PropOp47
 70
     0
102
RTVSPost2010Prop48
 90
       50
102
RTVSPost2010PropOp48
 70
     0
102
RTVSPost2010Prop49
280
     0
102
RTVSPost2010PropOp49
 70
     0
102
RTVSPost2010Prop50
 90
       50
102
RTVSPost2010PropOp50
 70
     0
102
RTVSPost2010Prop51ColorIndex
 90
      256
102
RTVSPost2010Prop51ColorRGB
 90
-16777216
102
RTVSPost2010PropOp51
 70
     0
102
RTVSPost2010Prop52
140
1.0
102
RTVSPost2010PropOp52
 70
     0
102
RTVSPost2010Prop53
 90
        2
102
RTVSPost2010PropOp53
 70
     0
102
RTVSPost2010Prop54
  1
strokes_ogs.tif
102
RTVSPost2010PropOp54
 70
     0
102
RTVSPost2010Prop55
280
     0
102
RTVSPost2010PropOp55
 70
     0
102
RTVSPost2010Prop56
140
1.0
102
RTVSPost2010PropOp56
 70
     0
102
RTVSPost2010Prop57
140
1.0
102
RTVSPost2010PropOp57
 70
     0
  0
XRECORD
  5
DC2
102
{ACAD_REACTORS
330
DC1
102
}
330
DC1
100
AcDbXrecord
280
     1
102
RTVSPost2010Prop28
280
     0
102
RTVSPost2010PropOp28
 70
     1
102
RTVSPost2010Prop29
280
     1
102
RTVSPost2010PropOp29
 70
     1
102
RTVSPost2010Prop30
280
     1
102
RTVSPost2010PropOp30
 70
     1
102
RTVSPost2010Prop31
280
     0
102
RTVSPost2010PropOp31
 70
     1
102
RTVSPost2010Prop32
280
     0
102
RTVSPost2010PropOp32
 70
     1
102
RTVSPost2010Prop33
280
     0
102
RTVSPost2010PropOp33
 70
     1
102
RTVSPost2010Prop34
280
     0
102
RTVSPost2010PropOp34
 70
     1
102
RTVSPost2010Prop35
280
     0
102
RTVSPost2010PropOp35
 70
     1
102
RTVSPost2010Prop36
280
     0
102
RTVSPost2010PropOp36
 70
     1
102
RTVSPost2010Prop37
 90
       50
102
RTVSPost2010PropOp37
 70
     1
102
RTVSPost2010Prop38
140
0.0
102
RTVSPost2010PropOp38
 70
     1
102
RTVSPost2010Prop39
140
1.0
102
RTVSPost2010PropOp39
 70
     1
102
RTVSPost2010Prop40
 90
        0
102
RTVSPost2010PropOp40
 70
     1
102
RTVSPost2010Prop41ColorIndex
 90
       18
102
RTVSPost2010Prop41ColorRGB
 90
        0
102
RTVSPost2010PropOp41
 70
     1
102
RTVSPost2010Prop42
 90
       50
102
RTVSPost2010PropOp42
 70
     1
102
RTVSPost2010Prop43
 90
        3
102
RTVSPost2010PropOp43
 70
     1
102
RTVSPost2010Prop44ColorIndex
 90
        5
102
RTVSPost2010Prop44ColorRGB
 90
      255
102
RTVSPost2010PropOp44
 70
     1
102
RTVSPost2010Prop45
280
     0
102
RTVSPost2010PropOp45
 70
     1
102
RTVSPost2010Prop46
 90
       50
102
RTVSPost2010PropOp46
 70
     1
102
RTVSPost2010Prop47
 90
       50
102
RTVSPost2010PropOp47
 70
     1
102
RTVSPost2010Prop48
 90
       50
102
RTVSPost2010PropOp48
 70
     1
102
RTVSPost2010Prop49
280
     0
102
RTVSPost2010PropOp49
 70
     1
102
RTVSPost2010Prop50
 90
       50
102
RTVSPost2010PropOp50
 70
     1
102
RTVSPost2010Prop51ColorIndex
 90
      256
102
RTVSPost2010Prop51ColorRGB
 90
-16777216
102
RTVSPost2010PropOp51
 70
     0
102
RTVSPost2010Prop52
140
1.0
102
RTVSPost2010PropOp52
 70
     0
102
RTVSPost2010Prop53
 90
        2
102
RTVSPost2010PropOp53
 70
     1
102
RTVSPost2010Prop54
  1
strokes_ogs.tif
102
RTVSPost2010PropOp54
 70
     1
102
RTVSPost2010Prop55
280
     0
102
RTVSPost2010PropOp55
 70
     1
102
RTVSPost2010Prop56
140
1.0
102
RTVSPost2010PropOp56
 70
     1
102
RTVSPost2010Prop57
140
1.0
102
RTVSPost2010PropOp57
 70
     1
  0
XRECORD
  5
DE0
102
{ACAD_REACTORS
330
DDF
102
}
330
DDF
100
AcDbXrecord
280
     1
102
RTVSPost2010Prop28
280
     0
102
RTVSPost2010PropOp28
 70
     1
102
RTVSPost2010Prop29
280
     1
102
RTVSPost2010PropOp29
 70
     1
102
RTVSPost2010Prop30
280
     1
102
RTVSPost2010PropOp30
 70
     1
102
RTVSPost2010Prop31
280
     0
102
RTVSPost2010PropOp31
 70
     1
102
RTVSPost2010Prop32
280
     0
102
RTVSPost2010PropOp32
 70
     1
102
RTVSPost2010Prop33
280
     0
102
RTVSPost2010PropOp33
 70
     1
102
RTVSPost2010Prop34
280
     0
102
RTVSPost2010PropOp34
 70
     1
102
RTVSPost2010Prop35
280
     0
102
RTVSPost2010PropOp35
 70
     1
102
RTVSPost2010Prop36
280
     0
102
RTVSPost2010PropOp36
 70
     1
102
RTVSPost2010Prop37
 90
       50
102
RTVSPost2010PropOp37
 70
     1
102
RTVSPost2010Prop38
140
0.0
102
RTVSPost2010PropOp38
 70
     1
102
RTVSPost2010Prop39
140
1.0
102
RTVSPost2010PropOp39
 70
     1
102
RTVSPost2010Prop40
 90
        0
102
RTVSPost2010PropOp40
 70
     1
102
RTVSPost2010Prop41ColorIndex
 90
       18
102
RTVSPost2010Prop41ColorRGB
 90
        0
102
RTVSPost2010PropOp41
 70
     1
102
RTVSPost2010Prop42
 90
       50
102
RTVSPost2010PropOp42
 70
     1
102
RTVSPost2010Prop43
 90
        3
102
RTVSPost2010PropOp43
 70
     1
102
RTVSPost2010Prop44ColorIndex
 90
        5
102
RTVSPost2010Prop44ColorRGB
 90
      255
102
RTVSPost2010PropOp44
 70
     1
102
RTVSPost2010Prop45
280
     0
102
RTVSPost2010PropOp45
 70
     1
102
RTVSPost2010Prop46
 90
       50
102
RTVSPost2010PropOp46
 70
     1
102
RTVSPost2010Prop47
 90
       50
102
RTVSPost2010PropOp47
 70
     1
102
RTVSPost2010Prop48
 90
       50
102
RTVSPost2010PropOp48
 70
     1
102
RTVSPost2010Prop49
280
     0
102
RTVSPost2010PropOp49
 70
     1
102
RTVSPost2010Prop50
 90
       50
102
RTVSPost2010PropOp50
 70
     1
102
RTVSPost2010Prop51ColorIndex
 90
      256
102
RTVSPost2010Prop51ColorRGB
 90
-16777216
102
RTVSPost2010PropOp51
 70
     0
102
RTVSPost2010Prop52
140
1.0
102
RTVSPost2010PropOp52
 70
     0
102
RTVSPost2010Prop53
 90
        2
102
RTVSPost2010PropOp53
 70
     1
102
RTVSPost2010Prop54
  1
strokes_ogs.tif
102
RTVSPost2010PropOp54
 70
     1
102
RTVSPost2010Prop55
280
     0
102
RTVSPost2010PropOp55
 70
     1
102
RTVSPost2010Prop56
140
1.0
102
RTVSPost2010PropOp56
 70
     1
102
RTVSPost2010Prop57
140
1.0
102
RTVSPost2010PropOp57
 70
     1
  0
XRECORD
  5
DDE
102
{ACAD_REACTORS
330
DDD
102
}
330
DDD
100
AcDbXrecord
280
     1
102
RTVSPost2010Prop28
280
     0
102
RTVSPost2010PropOp28
 70
     1
102
RTVSPost2010Prop29
280
     1
102
RTVSPost2010PropOp29
 70
     1
102
RTVSPost2010Prop30
280
     1
102
RTVSPost2010PropOp30
 70
     1
102
RTVSPost2010Prop31
280
     0
102
RTVSPost2010PropOp31
 70
     1
102
RTVSPost2010Prop32
280
     0
102
RTVSPost2010PropOp32
 70
     1
102
RTVSPost2010Prop33
280
     0
102
RTVSPost2010PropOp33
 70
     1
102
RTVSPost2010Prop34
280
     0
102
RTVSPost2010PropOp34
 70
     1
102
RTVSPost2010Prop35
280
     0
102
RTVSPost2010PropOp35
 70
     1
102
RTVSPost2010Prop36
280
     0
102
RTVSPost2010PropOp36
 70
     1
102
RTVSPost2010Prop37
 90
       50
102
RTVSPost2010PropOp37
 70
     1
102
RTVSPost2010Prop38
140
0.0
102
RTVSPost2010PropOp38
 70
     1
102
RTVSPost2010Prop39
140
1.0
102
RTVSPost2010PropOp39
 70
     1
102
RTVSPost2010Prop40
 90
        0
102
RTVSPost2010PropOp40
 70
     1
102
RTVSPost2010Prop41ColorIndex
 90
       18
102
RTVSPost2010Prop41ColorRGB
 90
        0
102
RTVSPost2010PropOp41
 70
     1
102
RTVSPost2010Prop42
 90
       50
102
RTVSPost2010PropOp42
 70
     1
102
RTVSPost2010Prop43
 90
        3
102
RTVSPost2010PropOp43
 70
     1
102
RTVSPost2010Prop44ColorIndex
 90
        5
102
RTVSPost2010Prop44ColorRGB
 90
      255
102
RTVSPost2010PropOp44
 70
     1
102
RTVSPost2010Prop45
280
     0
102
RTVSPost2010PropOp45
 70
     1
102
RTVSPost2010Prop46
 90
       50
102
RTVSPost2010PropOp46
 70
     1
102
RTVSPost2010Prop47
 90
       50
102
RTVSPost2010PropOp47
 70
     1
102
RTVSPost2010Prop48
 90
       50
102
RTVSPost2010PropOp48
 70
     1
102
RTVSPost2010Prop49
280
     0
102
RTVSPost2010PropOp49
 70
     1
102
RTVSPost2010Prop50
 90
       50
102
RTVSPost2010PropOp50
 70
     1
102
RTVSPost2010Prop51ColorIndex
 90
      256
102
RTVSPost2010Prop51ColorRGB
 90
-16777216
102
RTVSPost2010PropOp51
 70
     0
102
RTVSPost2010Prop52
140
1.0
102
RTVSPost2010PropOp52
 70
     0
102
RTVSPost2010Prop53
 90
        2
102
RTVSPost2010PropOp53
 70
     1
102
RTVSPost2010Prop54
  1
strokes_ogs.tif
102
RTVSPost2010PropOp54
 70
     1
102
RTVSPost2010Prop55
280
     0
102
RTVSPost2010PropOp55
 70
     1
102
RTVSPost2010Prop56
140
1.0
102
RTVSPost2010PropOp56
 70
     1
102
RTVSPost2010Prop57
140
1.0
102
RTVSPost2010PropOp57
 70
     1
  0
XRECORD
  5
DD8
102
{ACAD_REACTORS
330
DD7
102
}
330
DD7
100
AcDbXrecord
280
     1
102
RTVSPost2010Prop28
280
     0
102
RTVSPost2010PropOp28
 70
     1
102
RTVSPost2010Prop29
280
     1
102
RTVSPost2010PropOp29
 70
     1
102
RTVSPost2010Prop30
280
     1
102
RTVSPost2010PropOp30
 70
     1
102
RTVSPost2010Prop31
280
     0
102
RTVSPost2010PropOp31
 70
     1
102
RTVSPost2010Prop32
280
     0
102
RTVSPost2010PropOp32
 70
     1
102
RTVSPost2010Prop33
280
     0
102
RTVSPost2010PropOp33
 70
     1
102
RTVSPost2010Prop34
280
     0
102
RTVSPost2010PropOp34
 70
     1
102
RTVSPost2010Prop35
280
     0
102
RTVSPost2010PropOp35
 70
     1
102
RTVSPost2010Prop36
280
     0
102
RTVSPost2010PropOp36
 70
     1
102
RTVSPost2010Prop37
 90
       50
102
RTVSPost2010PropOp37
 70
     1
102
RTVSPost2010Prop38
140
0.0
102
RTVSPost2010PropOp38
 70
     1
102
RTVSPost2010Prop39
140
1.0
102
RTVSPost2010PropOp39
 70
     1
102
RTVSPost2010Prop40
 90
        0
102
RTVSPost2010PropOp40
 70
     1
102
RTVSPost2010Prop41ColorIndex
 90
       18
102
RTVSPost2010Prop41ColorRGB
 90
        0
102
RTVSPost2010PropOp41
 70
     1
102
RTVSPost2010Prop42
 90
       50
102
RTVSPost2010PropOp42
 70
     1
102
RTVSPost2010Prop43
 90
        3
102
RTVSPost2010PropOp43
 70
     1
102
RTVSPost2010Prop44ColorIndex
 90
        5
102
RTVSPost2010Prop44ColorRGB
 90
      255
102
RTVSPost2010PropOp44
 70
     1
102
RTVSPost2010Prop45
280
     0
102
RTVSPost2010PropOp45
 70
     1
102
RTVSPost2010Prop46
 90
       50
102
RTVSPost2010PropOp46
 70
     1
102
RTVSPost2010Prop47
 90
       50
102
RTVSPost2010PropOp47
 70
     1
102
RTVSPost2010Prop48
 90
       50
102
RTVSPost2010PropOp48
 70
     1
102
RTVSPost2010Prop49
280
     0
102
RTVSPost2010PropOp49
 70
     1
102
RTVSPost2010Prop50
 90
       50
102
RTVSPost2010PropOp50
 70
     1
102
RTVSPost2010Prop51ColorIndex
 90
      256
102
RTVSPost2010Prop51ColorRGB
 90
-16777216
102
RTVSPost2010PropOp51
 70
     0
102
RTVSPost2010Prop52
140
1.0
102
RTVSPost2010PropOp52
 70
     0
102
RTVSPost2010Prop53
 90
        2
102
RTVSPost2010PropOp53
 70
     1
102
RTVSPost2010Prop54
  1
strokes_ogs.tif
102
RTVSPost2010PropOp54
 70
     1
102
RTVSPost2010Prop55
280
     0
102
RTVSPost2010PropOp55
 70
     1
102
RTVSPost2010Prop56
140
1.0
102
RTVSPost2010PropOp56
 70
     1
102
RTVSPost2010Prop57
140
1.0
102
RTVSPost2010PropOp57
 70
     1
  0
XRECORD
  5
DDA
102
{ACAD_REACTORS
330
DD9
102
}
330
DD9
100
AcDbXrecord
280
     1
102
RTVSPost2010Prop28
280
     0
102
RTVSPost2010PropOp28
 70
     1
102
RTVSPost2010Prop29
280
     1
102
RTVSPost2010PropOp29
 70
     1
102
RTVSPost2010Prop30
280
     1
102
RTVSPost2010PropOp30
 70
     1
102
RTVSPost2010Prop31
280
     0
102
RTVSPost2010PropOp31
 70
     1
102
RTVSPost2010Prop32
280
     0
102
RTVSPost2010PropOp32
 70
     1
102
RTVSPost2010Prop33
280
     0
102
RTVSPost2010PropOp33
 70
     1
102
RTVSPost2010Prop34
280
     0
102
RTVSPost2010PropOp34
 70
     1
102
RTVSPost2010Prop35
280
     0
102
RTVSPost2010PropOp35
 70
     1
102
RTVSPost2010Prop36
280
     0
102
RTVSPost2010PropOp36
 70
     1
102
RTVSPost2010Prop37
 90
       50
102
RTVSPost2010PropOp37
 70
     1
102
RTVSPost2010Prop38
140
0.0
102
RTVSPost2010PropOp38
 70
     1
102
RTVSPost2010Prop39
140
1.0
102
RTVSPost2010PropOp39
 70
     1
102
RTVSPost2010Prop40
 90
        0
102
RTVSPost2010PropOp40
 70
     1
102
RTVSPost2010Prop41ColorIndex
 90
       18
102
RTVSPost2010Prop41ColorRGB
 90
        0
102
RTVSPost2010PropOp41
 70
     1
102
RTVSPost2010Prop42
 90
       50
102
RTVSPost2010PropOp42
 70
     1
102
RTVSPost2010Prop43
 90
        3
102
RTVSPost2010PropOp43
 70
     1
102
RTVSPost2010Prop44ColorIndex
 90
        5
102
RTVSPost2010Prop44ColorRGB
 90
      255
102
RTVSPost2010PropOp44
 70
     1
102
RTVSPost2010Prop45
280
     0
102
RTVSPost2010PropOp45
 70
     1
102
RTVSPost2010Prop46
 90
       50
102
RTVSPost2010PropOp46
 70
     1
102
RTVSPost2010Prop47
 90
       50
102
RTVSPost2010PropOp47
 70
     1
102
RTVSPost2010Prop48
 90
       50
102
RTVSPost2010PropOp48
 70
     1
102
RTVSPost2010Prop49
280
     0
102
RTVSPost2010PropOp49
 70
     1
102
RTVSPost2010Prop50
 90
       50
102
RTVSPost2010PropOp50
 70
     1
102
RTVSPost2010Prop51ColorIndex
 90
      256
102
RTVSPost2010Prop51ColorRGB
 90
-16777216
102
RTVSPost2010PropOp51
 70
     0
102
RTVSPost2010Prop52
140
1.0
102
RTVSPost2010PropOp52
 70
     0
102
RTVSPost2010Prop53
 90
        2
102
RTVSPost2010PropOp53
 70
     1
102
RTVSPost2010Prop54
  1
strokes_ogs.tif
102
RTVSPost2010PropOp54
 70
     1
102
RTVSPost2010Prop55
280
     0
102
RTVSPost2010PropOp55
 70
     1
102
RTVSPost2010Prop56
140
1.0
102
RTVSPost2010PropOp56
 70
     1
102
RTVSPost2010Prop57
140
1.0
102
RTVSPost2010PropOp57
 70
     1
  0
XRECORD
  5
DCA
102
{ACAD_REACTORS
330
DC9
102
}
330
DC9
100
AcDbXrecord
280
     1
102
RTVSPost2010Prop28
280
     0
102
RTVSPost2010PropOp28
 70
     1
102
RTVSPost2010Prop29
280
     1
102
RTVSPost2010PropOp29
 70
     1
102
RTVSPost2010Prop30
280
     1
102
RTVSPost2010PropOp30
 70
     1
102
RTVSPost2010Prop31
280
     0
102
RTVSPost2010PropOp31
 70
     1
102
RTVSPost2010Prop32
280
     0
102
RTVSPost2010PropOp32
 70
     1
102
RTVSPost2010Prop33
280
     0
102
RTVSPost2010PropOp33
 70
     1
102
RTVSPost2010Prop34
280
     0
102
RTVSPost2010PropOp34
 70
     1
102
RTVSPost2010Prop35
280
     0
102
RTVSPost2010PropOp35
 70
     1
102
RTVSPost2010Prop36
280
     0
102
RTVSPost2010PropOp36
 70
     1
102
RTVSPost2010Prop37
 90
       50
102
RTVSPost2010PropOp37
 70
     1
102
RTVSPost2010Prop38
140
0.0
102
RTVSPost2010PropOp38
 70
     1
102
RTVSPost2010Prop39
140
1.0
102
RTVSPost2010PropOp39
 70
     1
102
RTVSPost2010Prop40
 90
        0
102
RTVSPost2010PropOp40
 70
     1
102
RTVSPost2010Prop41ColorIndex
 90
       18
102
RTVSPost2010Prop41ColorRGB
 90
        0
102
RTVSPost2010PropOp41
 70
     1
102
RTVSPost2010Prop42
 90
       50
102
RTVSPost2010PropOp42
 70
     1
102
RTVSPost2010Prop43
 90
        3
102
RTVSPost2010PropOp43
 70
     1
102
RTVSPost2010Prop44ColorIndex
 90
        5
102
RTVSPost2010Prop44ColorRGB
 90
      255
102
RTVSPost2010PropOp44
 70
     1
102
RTVSPost2010Prop45
280
     0
102
RTVSPost2010PropOp45
 70
     1
102
RTVSPost2010Prop46
 90
       50
102
RTVSPost2010PropOp46
 70
     1
102
RTVSPost2010Prop47
 90
       50
102
RTVSPost2010PropOp47
 70
     1
102
RTVSPost2010Prop48
 90
       50
102
RTVSPost2010PropOp48
 70
     1
102
RTVSPost2010Prop49
280
     0
102
RTVSPost2010PropOp49
 70
     1
102
RTVSPost2010Prop50
 90
       50
102
RTVSPost2010PropOp50
 70
     1
102
RTVSPost2010Prop51ColorIndex
 90
      256
102
RTVSPost2010Prop51ColorRGB
 90
-16777216
102
RTVSPost2010PropOp51
 70
     0
102
RTVSPost2010Prop52
140
1.0
102
RTVSPost2010PropOp52
 70
     0
102
RTVSPost2010Prop53
 90
        2
102
RTVSPost2010PropOp53
 70
     1
102
RTVSPost2010Prop54
  1
strokes_ogs.tif
102
RTVSPost2010PropOp54
 70
     1
102
RTVSPost2010Prop55
280
     0
102
RTVSPost2010PropOp55
 70
     1
102
RTVSPost2010Prop56
140
1.0
102
RTVSPost2010PropOp56
 70
     1
102
RTVSPost2010Prop57
140
1.0
102
RTVSPost2010PropOp57
 70
     1
  0
XRECORD
  5
DBC
102
{ACAD_REACTORS
330
DBB
102
}
330
DBB
100
AcDbXrecord
280
     1
102
RTVSPost2010Prop28
280
     0
102
RTVSPost2010PropOp28
 70
     1
102
RTVSPost2010Prop29
280
     1
102
RTVSPost2010PropOp29
 70
     1
102
RTVSPost2010Prop30
280
     1
102
RTVSPost2010PropOp30
 70
     1
102
RTVSPost2010Prop31
280
     0
102
RTVSPost2010PropOp31
 70
     1
102
RTVSPost2010Prop32
280
     0
102
RTVSPost2010PropOp32
 70
     1
102
RTVSPost2010Prop33
280
     0
102
RTVSPost2010PropOp33
 70
     1
102
RTVSPost2010Prop34
280
     0
102
RTVSPost2010PropOp34
 70
     1
102
RTVSPost2010Prop35
280
     0
102
RTVSPost2010PropOp35
 70
     1
102
RTVSPost2010Prop36
280
     0
102
RTVSPost2010PropOp36
 70
     1
102
RTVSPost2010Prop37
 90
       50
102
RTVSPost2010PropOp37
 70
     1
102
RTVSPost2010Prop38
140
0.0
102
RTVSPost2010PropOp38
 70
     1
102
RTVSPost2010Prop39
140
1.0
102
RTVSPost2010PropOp39
 70
     1
102
RTVSPost2010Prop40
 90
        0
102
RTVSPost2010PropOp40
 70
     1
102
RTVSPost2010Prop41ColorIndex
 90
       18
102
RTVSPost2010Prop41ColorRGB
 90
        0
102
RTVSPost2010PropOp41
 70
     1
102
RTVSPost2010Prop42
 90
       50
102
RTVSPost2010PropOp42
 70
     1
102
RTVSPost2010Prop43
 90
        3
102
RTVSPost2010PropOp43
 70
     1
102
RTVSPost2010Prop44ColorIndex
 90
        5
102
RTVSPost2010Prop44ColorRGB
 90
      255
102
RTVSPost2010PropOp44
 70
     1
102
RTVSPost2010Prop45
280
     0
102
RTVSPost2010PropOp45
 70
     1
102
RTVSPost2010Prop46
 90
       50
102
RTVSPost2010PropOp46
 70
     1
102
RTVSPost2010Prop47
 90
       50
102
RTVSPost2010PropOp47
 70
     1
102
RTVSPost2010Prop48
 90
       50
102
RTVSPost2010PropOp48
 70
     1
102
RTVSPost2010Prop49
280
     0
102
RTVSPost2010PropOp49
 70
     1
102
RTVSPost2010Prop50
 90
       50
102
RTVSPost2010PropOp50
 70
     1
102
RTVSPost2010Prop51ColorIndex
 90
      256
102
RTVSPost2010Prop51ColorRGB
 90
-16777216
102
RTVSPost2010PropOp51
 70
     0
102
RTVSPost2010Prop52
140
1.0
102
RTVSPost2010PropOp52
 70
     0
102
RTVSPost2010Prop53
 90
        2
102
RTVSPost2010PropOp53
 70
     1
102
RTVSPost2010Prop54
  1
strokes_ogs.tif
102
RTVSPost2010PropOp54
 70
     1
102
RTVSPost2010Prop55
280
     0
102
RTVSPost2010PropOp55
 70
     1
102
RTVSPost2010Prop56
140
1.0
102
RTVSPost2010PropOp56
 70
     1
102
RTVSPost2010Prop57
140
1.0
102
RTVSPost2010PropOp57
 70
     1
  0
XRECORD
  5
DDC
102
{ACAD_REACTORS
330
DDB
102
}
330
DDB
100
AcDbXrecord
280
     1
102
RTVSPost2010Prop28
280
     0
102
RTVSPost2010PropOp28
 70
     1
102
RTVSPost2010Prop29
280
     1
102
RTVSPost2010PropOp29
 70
     1
102
RTVSPost2010Prop30
280
     1
102
RTVSPost2010PropOp30
 70
     1
102
RTVSPost2010Prop31
280
     0
102
RTVSPost2010PropOp31
 70
     1
102
RTVSPost2010Prop32
280
     0
102
RTVSPost2010PropOp32
 70
     1
102
RTVSPost2010Prop33
280
     0
102
RTVSPost2010PropOp33
 70
     1
102
RTVSPost2010Prop34
280
     0
102
RTVSPost2010PropOp34
 70
     1
102
RTVSPost2010Prop35
280
     0
102
RTVSPost2010PropOp35
 70
     1
102
RTVSPost2010Prop36
280
     0
102
RTVSPost2010PropOp36
 70
     1
102
RTVSPost2010Prop37
 90
       50
102
RTVSPost2010PropOp37
 70
     1
102
RTVSPost2010Prop38
140
0.0
102
RTVSPost2010PropOp38
 70
     1
102
RTVSPost2010Prop39
140
1.0
102
RTVSPost2010PropOp39
 70
     1
102
RTVSPost2010Prop40
 90
        0
102
RTVSPost2010PropOp40
 70
     1
102
RTVSPost2010Prop41ColorIndex
 90
       18
102
RTVSPost2010Prop41ColorRGB
 90
        0
102
RTVSPost2010PropOp41
 70
     1
102
RTVSPost2010Prop42
 90
       50
102
RTVSPost2010PropOp42
 70
     1
102
RTVSPost2010Prop43
 90
        3
102
RTVSPost2010PropOp43
 70
     1
102
RTVSPost2010Prop44ColorIndex
 90
        5
102
RTVSPost2010Prop44ColorRGB
 90
      255
102
RTVSPost2010PropOp44
 70
     1
102
RTVSPost2010Prop45
280
     0
102
RTVSPost2010PropOp45
 70
     1
102
RTVSPost2010Prop46
 90
       50
102
RTVSPost2010PropOp46
 70
     1
102
RTVSPost2010Prop47
 90
       50
102
RTVSPost2010PropOp47
 70
     1
102
RTVSPost2010Prop48
 90
       50
102
RTVSPost2010PropOp48
 70
     1
102
RTVSPost2010Prop49
280
     0
102
RTVSPost2010PropOp49
 70
     1
102
RTVSPost2010Prop50
 90
       50
102
RTVSPost2010PropOp50
 70
     1
102
RTVSPost2010Prop51ColorIndex
 90
      256
102
RTVSPost2010Prop51ColorRGB
 90
-16777216
102
RTVSPost2010PropOp51
 70
     0
102
RTVSPost2010Prop52
140
1.0
102
RTVSPost2010PropOp52
 70
     0
102
RTVSPost2010Prop53
 90
        2
102
RTVSPost2010PropOp53
 70
     1
102
RTVSPost2010Prop54
  1
strokes_ogs.tif
102
RTVSPost2010PropOp54
 70
     1
102
RTVSPost2010Prop55
280
     0
102
RTVSPost2010PropOp55
 70
     1
102
RTVSPost2010Prop56
140
1.0
102
RTVSPost2010PropOp56
 70
     1
102
RTVSPost2010Prop57
140
1.0
102
RTVSPost2010PropOp57
 70
     1
  0
ENDSEC
  0
EOF
