  0
SECTION
  2
HEADER
  9
$ACADVER
  1
AC1024
  9
$ACADMAINTVER
 70
     6
  9
$DWGCODEPAGE
  3
ANSI_1252
  9
$INSBASE
 10
0.0
 20
0.0
 30
0.0
  9
$EXTMIN
 10
86566.0457060835
 20
18452.70850230269
 30
0.0
  9
$EXTMAX
 10
86778.2732060835
 20
18603.4360023027
 30
0.0
  9
$LIMMIN
 10
0.0
 20
0.0
  9
$LIMMAX
 10
12.0
 20
9.0
  9
$ORTHOMODE
 70
     0
  9
$REGENMODE
 70
     1
  9
$FILLMODE
 70
     1
  9
$QTEXTMODE
 70
     0
  9
$MIRRTEXT
 70
     1
  9
$LTSCALE
 40
1.0
  9
$ATTMODE
 70
     1
  9
$TEXTSIZE
 40
12.9327113347972
  9
$TRACEWID
 40
0.05
  9
$TEXTSTYLE
  7
STANDARD
  9
$CLAYER
  8
FG-$$$$$$$-MISC
  9
$CELTYPE
  6
ByLayer
  9
$CECOLOR
 62
   256
  9
$CELTSCALE
 40
1.0
  9
$DISPSILH
 70
     0
  9
$DIMSCALE
 40
1.0
  9
$DIMASZ
 40
0.18
  9
$DIMEXO
 40
0.0625
  9
$DIMDLI
 40
0.38
  9
$DIMRND
 40
0.0
  9
$DIMDLE
 40
0.0
  9
$DIMEXE
 40
0.18
  9
$DIMTP
 40
0.0
  9
$DIMTM
 40
0.0
  9
$DIMTXT
 40
0.18
  9
$DIMCEN
 40
0.09
  9
$DIMTSZ
 40
0.0
  9
$DIMTOL
 70
     0
  9
$DIMLIM
 70
     0
  9
$DIMTIH
 70
     1
  9
$DIMTOH
 70
     1
  9
$DIMSE1
 70
     0
  9
$DIMSE2
 70
     0
  9
$DIMTAD
 70
     0
  9
$DIMZIN
 70
     0
  9
$DIMBLK
  1

  9
$DIMASO
 70
     1
  9
$DIMSHO
 70
     1
  9
$DIMPOST
  1

  9
$DIMAPOST
  1

  9
$DIMALT
 70
     0
  9
$DIMALTD
 70
     2
  9
$DIMALTF
 40
25.4
  9
$DIMLFAC
 40
1.0
  9
$DIMTOFL
 70
     0
  9
$DIMTVP
 40
0.0
  9
$DIMTIX
 70
     0
  9
$DIMSOXD
 70
     0
  9
$DIMSAH
 70
     0
  9
$DIMBLK1
  1

  9
$DIMBLK2
  1

  9
$DIMSTYLE
  2
STANDARD
  9
$DIMCLRD
 70
     0
  9
$DIMCLRE
 70
     0
  9
$DIMCLRT
 70
     0
  9
$DIMTFAC
 40
1.0
  9
$DIMGAP
 40
0.09
  9
$DIMJUST
 70
     0
  9
$DIMSD1
 70
     0
  9
$DIMSD2
 70
     0
  9
$DIMTOLJ
 70
     1
  9
$DIMTZIN
 70
     0
  9
$DIMALTZ
 70
     0
  9
$DIMALTTZ
 70
     0
  9
$DIMUPT
 70
     0
  9
$DIMDEC
 70
     4
  9
$DIMTDEC
 70
     4
  9
$DIMALTU
 70
     2
  9
$DIMALTTD
 70
     2
  9
$DIMTXSTY
  7
STANDARD
  9
$DIMAUNIT
 70
     0
  9
$DIMADEC
 70
     0
  9
$DIMALTRND
 40
0.0
  9
$DIMAZIN
 70
     0
  9
$DIMDSEP
 70
    46
  9
$DIMATFIT
 70
     3
  9
$DIMFRAC
 70
     0
  9
$DIMLDRBLK
  1

  9
$DIMLUNIT
 70
     2
  9
$DIMLWD
 70
    -2
  9
$DIMLWE
 70
    -2
  9
$DIMTMOVE
 70
     2
  9
$DIMFXL
 40
1.0
  9
$DIMFXLON
 70
     0
  9
$DIMJOGANG
 40
0.7853981633974483
  9
$DIMTFILL
 70
     0
  9
$DIMTFILLCLR
 70
     0
  9
$DIMARCSYM
 70
     0
  9
$DIMLTYPE
  6

  9
$DIMLTEX1
  6

  9
$DIMLTEX2
  6

  9
$DIMTXTDIRECTION
 70
     0
  9
$LUNITS
 70
     2
  9
$LUPREC
 70
     4
  9
$SKETCHINC
 40
0.1
  9
$FILLETRAD
 40
0.5
  9
$AUNITS
 70
     0
  9
$AUPREC
 70
     0
  9
$MENU
  1
.
  9
$ELEVATION
 40
0.0
  9
$PELEVATION
 40
0.0
  9
$THICKNESS
 40
0.0
  9
$LIMCHECK
 70
     0
  9
$CHAMFERA
 40
0.5
  9
$CHAMFERB
 40
0.5
  9
$CHAMFERC
 40
0.0
  9
$CHAMFERD
 40
0.0
  9
$SKPOLY
 70
     1
  9
$TDCREATE
 40
2451872.679520475
  9
$TDUCREATE
 40
2451872.679520475
  9
$TDUPDATE
 40
2457773.392954028
  9
$TDUUPDATE
 40
2457773.392954028
  9
$TDINDWG
 40
0.8390883218
  9
$TDUSRTIMER
 40
0.8390883218
  9
$USRTIMER
 70
     1
  9
$ANGBASE
 50
0.0
  9
$ANGDIR
 70
     0
  9
$PDMODE
 70
     0
  9
$PDSIZE
 40
0.0
  9
$PLINEWID
 40
0.0
  9
$SPLFRAME
 70
     0
  9
$SPLINETYPE
 70
     6
  9
$SPLINESEGS
 70
     8
  9
$HANDSEED
  5
12F3
  9
$SURFTAB1
 70
     6
  9
$SURFTAB2
 70
     6
  9
$SURFTYPE
 70
     6
  9
$SURFU
 70
     6
  9
$SURFV
 70
     6
  9
$UCSBASE
  2

  9
$UCSNAME
  2

  9
$UCSORG
 10
0.0
 20
0.0
 30
0.0
  9
$UCSXDIR
 10
1.0
 20
0.0
 30
0.0
  9
$UCSYDIR
 10
0.0
 20
1.0
 30
0.0
  9
$UCSORTHOREF
  2

  9
$UCSORTHOVIEW
 70
     0
  9
$UCSORGTOP
 10
0.0
 20
0.0
 30
0.0
  9
$UCSORGBOTTOM
 10
0.0
 20
0.0
 30
0.0
  9
$UCSORGLEFT
 10
0.0
 20
0.0
 30
0.0
  9
$UCSORGRIGHT
 10
0.0
 20
0.0
 30
0.0
  9
$UCSORGFRONT
 10
0.0
 20
0.0
 30
0.0
  9
$UCSORGBACK
 10
0.0
 20
0.0
 30
0.0
  9
$PUCSBASE
  2

  9
$PUCSNAME
  2

  9
$PUCSORG
 10
0.0
 20
0.0
 30
0.0
  9
$PUCSXDIR
 10
1.0
 20
0.0
 30
0.0
  9
$PUCSYDIR
 10
0.0
 20
1.0
 30
0.0
  9
$PUCSORTHOREF
  2

  9
$PUCSORTHOVIEW
 70
     0
  9
$PUCSORGTOP
 10
0.0
 20
0.0
 30
0.0
  9
$PUCSORGBOTTOM
 10
0.0
 20
0.0
 30
0.0
  9
$PUCSORGLEFT
 10
0.0
 20
0.0
 30
0.0
  9
$PUCSORGRIGHT
 10
0.0
 20
0.0
 30
0.0
  9
$PUCSORGFRONT
 10
0.0
 20
0.0
 30
0.0
  9
$PUCSORGBACK
 10
0.0
 20
0.0
 30
0.0
  9
$USERI1
 70
     0
  9
$USERI2
 70
     0
  9
$USERI3
 70
     0
  9
$USERI4
 70
     0
  9
$USERI5
 70
     0
  9
$USERR1
 40
0.0
  9
$USERR2
 40
0.0
  9
$USERR3
 40
0.0
  9
$USERR4
 40
0.0
  9
$USERR5
 40
0.0
  9
$WORLDVIEW
 70
     1
  9
$SHADEDGE
 70
     3
  9
$SHADEDIF
 70
    70
  9
$TILEMODE
 70
     1
  9
$MAXACTVP
 70
    48
  9
$PINSBASE
 10
0.0
 20
0.0
 30
0.0
  9
$PLIMCHECK
 70
     0
  9
$PEXTMIN
 10
1.000000000000000E+20
 20
1.000000000000000E+20
 30
1.000000000000000E+20
  9
$PEXTMAX
 10
-1.000000000000000E+20
 20
-1.000000000000000E+20
 30
-1.000000000000000E+20
  9
$PLIMMIN
 10
0.0
 20
0.0
  9
$PLIMMAX
 10
12.0
 20
9.0
  9
$UNITMODE
 70
     0
  9
$VISRETAIN
 70
     1
  9
$PLINEGEN
 70
     0
  9
$PSLTSCALE
 70
     1
  9
$TREEDEPTH
 70
  3020
  9
$CMLSTYLE
  2
Standard
  9
$CMLJUST
 70
     0
  9
$CMLSCALE
 40
1.0
  9
$PROXYGRAPHICS
 70
     1
  9
$MEASUREMENT
 70
     0
  9
$CELWEIGHT
370
    -1
  9
$ENDCAPS
280
     0
  9
$JOINSTYLE
280
     0
  9
$LWDISPLAY
290
     0
  9
$INSUNITS
 70
     0
  9
$HYPERLINKBASE
  1

  9
$STYLESHEET
  1

  9
$XEDIT
290
     1
  9
$CEPSNTYPE
380
     0
  9
$PSTYLEMODE
290
     1
  9
$FINGERPRINTGUID
  2
{7CE4D6F1-6636-4BC6-B0E9-FFA3CA5DFA1F}
  9
$VERSIONGUID
  2
{FAEB1C32-E019-11D5-929B-00C0DF256EC4}
  9
$EXTNAMES
290
     1
  9
$PSVPSCALE
 40
0.0
  9
$OLESTARTUP
290
     0
  9
$SORTENTS
280
   127
  9
$INDEXCTL
280
     0
  9
$HIDETEXT
280
     1
  9
$XCLIPFRAME
280
     2
  9
$HALOGAP
280
     0
  9
$OBSCOLOR
 70
   257
  9
$OBSLTYPE
280
     0
  9
$INTERSECTIONDISPLAY
280
     0
  9
$INTERSECTIONCOLOR
 70
   257
  9
$DIMASSOC
280
     2
  9
$PROJECTNAME
  1

  9
$CAMERADISPLAY
290
     0
  9
$LENSLENGTH
 40
50.0
  9
$CAMERAHEIGHT
 40
0.0
  9
$STEPSPERSEC
 40
2.0
  9
$STEPSIZE
 40
6.0
  9
$3DDWFPREC
 40
2.0
  9
$PSOLWIDTH
 40
0.25
  9
$PSOLHEIGHT
 40
4.0
  9
$LOFTANG1
 40
1.570796326794897
  9
$LOFTANG2
 40
1.570796326794897
  9
$LOFTMAG1
 40
0.0
  9
$LOFTMAG2
 40
0.0
  9
$LOFTPARAM
 70
     7
  9
$LOFTNORMALS
280
     1
  9
$LATITUDE
 40
37.795
  9
$LONGITUDE
 40
-122.394
  9
$NORTHDIRECTION
 40
0.0
  9
$TIMEZONE
 70
 -8000
  9
$LIGHTGLYPHDISPLAY
280
     1
  9
$TILEMODELIGHTSYNCH
280
     1
  9
$SOLIDHIST
280
     1
  9
$SHOWHIST
280
     1
  9
$DWFFRAME
280
     2
  9
$DGNFRAME
280
     2
  9
$REALWORLDSCALE
290
     1
  9
$INTERFERECOLOR
 62
   256
  9
$CSHADOW
280
     0
  9
$SHADOWPLANELOCATION
 40
0.0
  0
ENDSEC
  0
SECTION
  2
CLASSES
  0
CLASS
  1
ACDBDICTIONARYWDFLT
  2
AcDbDictionaryWithDefault
  3
ObjectDBX Classes
 90
        0
 91
        4
280
     0
281
     0
  0
CLASS
  1
MATERIAL
  2
AcDbMaterial
  3
ObjectDBX Classes
 90
     1153
 91
        4
280
     0
281
     0
  0
CLASS
  1
SCALE
  2
AcDbScale
  3
ObjectDBX Classes
 90
     1153
 91
        4
280
     0
281
     0
  0
CLASS
  1
VISUALSTYLE
  2
AcDbVisualStyle
  3
ObjectDBX Classes
 90
     4095
 91
        4
280
     0
281
     0
  0
CLASS
  1
DICTIONARYVAR
  2
AcDbDictionaryVar
  3
ObjectDBX Classes
 90
        0
 91
        4
280
     0
281
     0
  0
ENDSEC
  0
SECTION
  2
TABLES
  0
TABLE
  2
VPORT
  5
1224
330
0
100
AcDbSymbolTable
 70
     1
  0
VPORT
  5
123B
330
1224
100
AcDbSymbolTableRecord
100
AcDbViewportTableRecord
  2
*ACTIVE
 70
     0
 10
0.0
 20
0.0
 11
1.0
 21
1.0
 12
86692.96785630702
 22
18530.91720335556
 13
0.0
 23
0.0
 14
0.5
 24
0.5
 15
0.5
 25
0.5
 16
0.0
 26
0.0
 36
1.0
 17
0.0
 27
0.0
 37
0.0
 40
185.5150111871857
 41
1.177478580171358
 42
50.0
 43
0.0
 44
0.0
 50
0.0
 51
0.0
 71
     0
 72
  3000
 73
     1
 74
     1
 75
     0
 76
     0
 77
     0
 78
     0
281
     0
 65
     0
110
0.0
120
0.0
130
0.0
111
1.0
121
0.0
131
0.0
112
0.0
122
1.0
132
0.0
 79
     0
146
0.0
348
12A8
 60
     3
 61
     5
292
     1
282
     1
141
0.0
142
0.0
 63
   256
  0
ENDTAB
  0
TABLE
  2
LTYPE
  5
1221
330
0
100
AcDbSymbolTable
 70
     5
  0
LTYPE
  5
122F
330
1221
100
AcDbSymbolTableRecord
100
AcDbLinetypeTableRecord
  2
ByBlock
 70
     0
  3

 72
    65
 73
     0
 40
0.0
  0
LTYPE
  5
1230
330
1221
100
AcDbSymbolTableRecord
100
AcDbLinetypeTableRecord
  2
ByLayer
 70
     0
  3

 72
    65
 73
     0
 40
0.0
  0
LTYPE
  5
1231
330
1221
100
AcDbSymbolTableRecord
100
AcDbLinetypeTableRecord
  2
CONTINUOUS
 70
     0
  3
Solid line
 72
    65
 73
     0
 40
0.0
  0
LTYPE
  5
123D
330
1221
100
AcDbSymbolTableRecord
100
AcDbLinetypeTableRecord
  2
USTATION1
 70
     0
  3
___ ___ ___ ___ ___ ___ ___ ___ ___ ___ ___ ___
 72
    65
 73
     2
 40
0.5
 49
0.375
 74
     0
 49
-0.125
 74
     0
  0
LTYPE
  5
123E
330
1221
100
AcDbSymbolTableRecord
100
AcDbLinetypeTableRecord
  2
USTATION3
 70
     0
  3
_____________    ____________    ____________  
 72
    65
 73
     2
 40
2.0
 49
1.5
 74
     0
 49
-0.5
 74
     0
  0
LTYPE
  5
123F
330
1221
100
AcDbSymbolTableRecord
100
AcDbLinetypeTableRecord
  2
USTATION4
 70
     0
  3
________   __   ________   __   ______   __   _
 72
    65
 73
     4
 40
2.0
 49
1.0
 74
     0
 49
-0.375
 74
     0
 49
0.25
 74
     0
 49
-0.375
 74
     0
  0
LTYPE
  5
1240
330
1221
100
AcDbSymbolTableRecord
100
AcDbLinetypeTableRecord
  2
USTATION5
 70
     0
  3
____    ____    ____    ____    ____    ____   
 72
    65
 73
     2
 40
2.0
 49
1.0
 74
     0
 49
-1.0
 74
     0
  0
ENDTAB
  0
TABLE
  2
LAYER
  5
121E
330
0
100
AcDbSymbolTable
 70
    42
  0
LAYER
  5
122C
330
121E
100
AcDbSymbolTableRecord
100
AcDbLayerTableRecord
  2
0
 70
     0
 62
     7
  6
CONTINUOUS
370
    -3
390
122B
347
1245
  0
LAYER
  5
1246
330
121E
100
AcDbSymbolTableRecord
100
AcDbLayerTableRecord
  2
FG-$$$$$$$-TEXT
 70
     1
 62
    -7
  6
CONTINUOUS
370
    -3
390
122B
347
1245
  0
LAYER
  5
1247
330
121E
100
AcDbSymbolTableRecord
100
AcDbLayerTableRecord
  2
EV-$$$$$$$-EXCAV
 70
     0
 62
     1
  6
CONTINUOUS
370
    -3
390
122B
347
1245
  0
LAYER
  5
1248
330
121E
100
AcDbSymbolTableRecord
100
AcDbLayerTableRecord
  2
PR-99$$$$$-ARCH
 70
     0
 62
    -8
  6
CONTINUOUS
370
    -3
390
122B
347
1245
  0
LAYER
  5
1249
330
121E
100
AcDbSymbolTableRecord
100
AcDbLayerTableRecord
  2
FG-$$$$$$$-OSBASE
 70
     0
 62
   252
  6
CONTINUOUS
370
    -3
390
122B
347
1245
  0
LAYER
  5
124A
330
121E
100
AcDbSymbolTableRecord
100
AcDbLayerTableRecord
  2
PR-05C$$$$-TEXT
 70
     1
 62
    -7
  6
CONTINUOUS
370
    -3
390
122B
347
1245
  0
LAYER
  5
124B
330
121E
100
AcDbSymbolTableRecord
100
AcDbLayerTableRecord
  2
PR-08$$$$$-TEXT
 70
     1
 62
    -7
  6
CONTINUOUS
370
    -3
390
122B
347
1245
  0
LAYER
  5
124C
330
121E
100
AcDbSymbolTableRecord
100
AcDbLayerTableRecord
  2
PR-09$$$$$-TEXT
 70
     1
 62
    -7
  6
CONTINUOUS
370
    -3
390
122B
347
1245
  0
LAYER
  5
124D
330
121E
100
AcDbSymbolTableRecord
100
AcDbLayerTableRecord
  2
PR-99$$$$$-TEXT
 70
     1
 62
    -7
  6
CONTINUOUS
370
    -3
390
122B
347
1245
  0
LAYER
  5
124E
330
121E
100
AcDbSymbolTableRecord
100
AcDbLayerTableRecord
  2
EV-$$$$$$$-SOND
 70
     0
 62
    -1
  6
CONTINUOUS
370
    -3
390
122B
347
1245
  0
LAYER
  5
124F
330
121E
100
AcDbSymbolTableRecord
100
AcDbLayerTableRecord
  2
PR-07$$$$$-ARCH
 70
     0
 62
   -72
  6
CONTINUOUS
370
    -3
390
122B
347
1245
  0
LAYER
  5
1250
330
121E
100
AcDbSymbolTableRecord
100
AcDbLayerTableRecord
  2
PR-07$$$$$-TEXT
 70
     1
 62
    -7
  6
CONTINUOUS
370
    -3
390
122B
347
1245
  0
LAYER
  5
1251
330
121E
100
AcDbSymbolTableRecord
100
AcDbLayerTableRecord
  2
PR-05C$$$2-ARCH
 70
     0
 62
  -168
  6
CONTINUOUS
370
    -3
390
122B
347
1245
  0
LAYER
  5
1252
330
121E
100
AcDbSymbolTableRecord
100
AcDbLayerTableRecord
  2
PR-05C$$$2-TEXT
 70
     1
 62
    -7
  6
CONTINUOUS
370
    -3
390
122B
347
1245
  0
LAYER
  5
1253
330
121E
100
AcDbSymbolTableRecord
100
AcDbLayerTableRecord
  2
PR-05C$$$1-ARCH
 70
     0
 62
  -168
  6
CONTINUOUS
370
    -3
390
122B
347
1245
  0
LAYER
  5
1254
330
121E
100
AcDbSymbolTableRecord
100
AcDbLayerTableRecord
  2
PR-05C$$$1-TEXT
 70
     1
 62
    -7
  6
CONTINUOUS
370
    -3
390
122B
347
1245
  0
LAYER
  5
1255
330
121E
100
AcDbSymbolTableRecord
100
AcDbLayerTableRecord
  2
PR-05B05C2-ARCH
 70
     0
 62
  -181
  6
CONTINUOUS
370
    -3
390
122B
347
1245
  0
LAYER
  5
1256
330
121E
100
AcDbSymbolTableRecord
100
AcDbLayerTableRecord
  2
PR-05B05C2-TEXT
 70
     0
 62
    -7
  6
CONTINUOUS
370
    -3
390
122B
347
1245
  0
LAYER
  5
1257
330
121E
100
AcDbSymbolTableRecord
100
AcDbLayerTableRecord
  2
PR-05B05C1-ARCH
 70
     0
 62
  -181
  6
CONTINUOUS
370
    -3
390
122B
347
1245
  0
LAYER
  5
1258
330
121E
100
AcDbSymbolTableRecord
100
AcDbLayerTableRecord
  2
PR-05B05C1-TEXT
 70
     0
 62
    -7
  6
CONTINUOUS
370
    -3
390
122B
347
1245
  0
LAYER
  5
1259
330
121E
100
AcDbSymbolTableRecord
100
AcDbLayerTableRecord
  2
PR-05A05B$-ARCH
 70
     0
 62
  -132
  6
CONTINUOUS
370
    -3
390
122B
347
1245
  0
LAYER
  5
125A
330
121E
100
AcDbSymbolTableRecord
100
AcDbLayerTableRecord
  2
PR-05A05B$-TEXT
 70
     1
 62
    -7
  6
CONTINUOUS
370
    -3
390
122B
347
1245
  0
LAYER
  5
125B
330
121E
100
AcDbSymbolTableRecord
100
AcDbLayerTableRecord
  2
PR-05A$$$$-ARCH
 70
     0
 62
  -131
  6
CONTINUOUS
370
    -3
390
122B
347
1245
  0
LAYER
  5
125C
330
121E
100
AcDbSymbolTableRecord
100
AcDbLayerTableRecord
  2
PR-05A$$$$-TEXT
 70
     1
 62
    -7
  6
CONTINUOUS
370
    -3
390
122B
347
1245
  0
LAYER
  5
125D
330
121E
100
AcDbSymbolTableRecord
100
AcDbLayerTableRecord
  2
PR-04D05A$-ARCH
 70
     0
 62
    60
  6
CONTINUOUS
370
    -3
390
122B
347
1245
  0
LAYER
  5
125E
330
121E
100
AcDbSymbolTableRecord
100
AcDbLayerTableRecord
  2
PR-04D05A$-TEXT
 70
     0
 62
     7
  6
CONTINUOUS
370
    -3
390
122B
347
1245
  0
LAYER
  5
125F
330
121E
100
AcDbSymbolTableRecord
100
AcDbLayerTableRecord
  2
PR-04B04C$-ARCH
 70
     0
 62
    30
  6
CONTINUOUS
370
    -3
390
122B
347
1245
  0
LAYER
  5
1260
330
121E
100
AcDbSymbolTableRecord
100
AcDbLayerTableRecord
  2
PR-04B04C$-TEXT
 70
     0
 62
     7
  6
CONTINUOUS
370
    -3
390
122B
347
1245
  0
LAYER
  5
1261
330
121E
100
AcDbSymbolTableRecord
100
AcDbLayerTableRecord
  2
PR-03B$$$$-ARCH
 70
     0
 62
     1
  6
CONTINUOUS
370
    -3
390
122B
347
1245
  0
LAYER
  5
1262
330
121E
100
AcDbSymbolTableRecord
100
AcDbLayerTableRecord
  2
PR-03B$$$$-TEXT
 70
     0
 62
     7
  6
CONTINUOUS
370
    -3
390
122B
347
1245
  0
LAYER
  5
1263
330
121E
100
AcDbSymbolTableRecord
100
AcDbLayerTableRecord
  2
PR-08$$$$2-ARCH
 70
     0
 62
   -86
  6
CONTINUOUS
370
    -3
390
122B
347
1245
  0
LAYER
  5
1264
330
121E
100
AcDbSymbolTableRecord
100
AcDbLayerTableRecord
  2
PR-08$$$$2-TEXT
 70
     1
 62
    -7
  6
CONTINUOUS
370
    -3
390
122B
347
1245
  0
LAYER
  5
1265
330
121E
100
AcDbSymbolTableRecord
100
AcDbLayerTableRecord
  2
PR-08$$$$1-ARCH
 70
     0
 62
   -86
  6
CONTINUOUS
370
    -3
390
122B
347
1245
  0
LAYER
  5
1266
330
121E
100
AcDbSymbolTableRecord
100
AcDbLayerTableRecord
  2
PR-08$$$$1-TEXT
 70
     1
 62
    -7
  6
CONTINUOUS
370
    -3
390
122B
347
1245
  0
LAYER
  5
1267
330
121E
100
AcDbSymbolTableRecord
100
AcDbLayerTableRecord
  2
PR-05A05B$-PROB
 70
     0
 62
  -132
  6
CONTINUOUS
370
    -3
390
122B
347
1245
  0
LAYER
  5
1268
330
121E
100
AcDbSymbolTableRecord
100
AcDbLayerTableRecord
  2
PR-08$$$$1-PROB
 70
     0
 62
   -86
  6
CONTINUOUS
370
    -3
390
122B
347
1245
  0
LAYER
  5
1269
330
121E
100
AcDbSymbolTableRecord
100
AcDbLayerTableRecord
  2
FG-$$$$$$$-MISC
 70
     0
 62
     7
  6
CONTINUOUS
370
    -3
390
122B
347
1245
  0
LAYER
  5
126A
330
121E
100
AcDbSymbolTableRecord
100
AcDbLayerTableRecord
  2
PR-09$$$$$-ARCH
 70
     0
 62
  -202
  6
CONTINUOUS
370
    -3
390
122B
347
1245
  0
LAYER
  5
126B
330
121E
100
AcDbSymbolTableRecord
100
AcDbLayerTableRecord
  2
PAGELAYOUT_KEYETC
 70
     0
 62
     7
  6
CONTINUOUS
370
    -3
390
122B
347
1245
  0
LAYER
  5
126C
330
121E
100
AcDbSymbolTableRecord
100
AcDbLayerTableRecord
  2
PR-10A$$$$-ARCH
 70
     0
 62
    -7
  6
CONTINUOUS
370
    -3
390
122B
347
1245
  0
LAYER
  5
126D
330
121E
100
AcDbSymbolTableRecord
100
AcDbLayerTableRecord
  2
PR-05C06A$-ARCH
 70
     0
 62
    -6
  6
CONTINUOUS
370
    -3
390
122B
347
1245
  0
LAYER
  5
126E
330
121E
100
AcDbSymbolTableRecord
100
AcDbLayerTableRecord
  2
M-COLOR
 70
     0
 62
     7
  6
CONTINUOUS
370
    -3
390
122B
347
1245
  0
ENDTAB
  0
TABLE
  2
STYLE
  5
121F
330
0
100
AcDbSymbolTable
 70
     4
  0
STYLE
  5
122D
330
121F
100
AcDbSymbolTableRecord
100
AcDbTextStyleTableRecord
  2
STANDARD
 70
     0
 40
0.0
 41
1.0
 50
0.0
 71
     0
 42
12.9327113347972
  3
txt
  4

  0
STYLE
  5
1270
330
121F
100
AcDbSymbolTableRecord
100
AcDbTextStyleTableRecord
  2
WESSEX
 70
     0
 40
5.0
 41
1.0
 50
0.0
 71
     0
 42
2.5
  3
txt
  4

  0
STYLE
  5
1271
330
121F
100
AcDbSymbolTableRecord
100
AcDbTextStyleTableRecord
  2
HEADER
 70
     0
 40
5.0
 41
1.0
 50
0.0
 71
     0
 42
5.0
  3
txt
  4

  0
STYLE
  5
1272
330
121F
100
AcDbSymbolTableRecord
100
AcDbTextStyleTableRecord
  2
FOOTER
 70
     0
 40
5.0
 41
1.0
 50
0.0
 71
     0
 42
5.0
  3
txt
  4

  0
ENDTAB
  0
TABLE
  2
VIEW
  5
1222
330
0
100
AcDbSymbolTable
 70
     0
  0
ENDTAB
  0
TABLE
  2
UCS
  5
1223
330
0
100
AcDbSymbolTable
 70
     0
  0
ENDTAB
  0
TABLE
  2
APPID
  5
1225
330
0
100
AcDbSymbolTable
 70
     5
  0
APPID
  5
122E
330
1225
100
AcDbSymbolTableRecord
100
AcDbRegAppTableRecord
  2
ACAD
 70
     0
  0
APPID
  5
1274
330
1225
100
AcDbSymbolTableRecord
100
AcDbRegAppTableRecord
  2
RAK
 70
     0
  0
APPID
  5
1275
330
1225
100
AcDbSymbolTableRecord
100
AcDbRegAppTableRecord
  2
M-COLOR__358644234323
 70
     0
  0
APPID
  5
1276
330
1225
100
AcDbSymbolTableRecord
100
AcDbRegAppTableRecord
  2
DCO15
 70
     0
  0
APPID
  5
1277
330
1225
100
AcDbSymbolTableRecord
100
AcDbRegAppTableRecord
  2
ADE
 70
     0
  0
ENDTAB
  0
TABLE
  2
DIMSTYLE
  5
1226
330
0
100
AcDbSymbolTable
 70
     1
100
AcDbDimStyleTable
  0
DIMSTYLE
105
1278
330
1226
100
AcDbSymbolTableRecord
100
AcDbDimStyleTableRecord
  2
STANDARD
 70
     0
178
     0
340
122D
  0
ENDTAB
  0
TABLE
  2
BLOCK_RECORD
  5
121D
330
0
100
AcDbSymbolTable
 70
     3
  0
BLOCK_RECORD
  5
1238
330
121D
100
AcDbSymbolTableRecord
100
AcDbBlockTableRecord
  2
*Model_Space
340
1239
 70
     0
280
     1
281
     0
  0
BLOCK_RECORD
  5
1236
330
121D
100
AcDbSymbolTableRecord
100
AcDbBlockTableRecord
  2
*Paper_Space
340
1237
 70
     0
280
     1
281
     0
  0
BLOCK_RECORD
  5
127C
330
121D
100
AcDbSymbolTableRecord
100
AcDbBlockTableRecord
  2
LSF99
340
0
102
{BLKREFS
331
477
102
}
 70
     0
280
     1
281
     0
  0
BLOCK_RECORD
  5
127E
330
121D
100
AcDbSymbolTableRecord
100
AcDbBlockTableRecord
  2
*U1
340
0
 70
     0
280
     1
281
     0
  0
BLOCK_RECORD
  5
1280
330
121D
100
AcDbSymbolTableRecord
100
AcDbBlockTableRecord
  2
*U2
340
0
 70
     0
280
     1
281
     0
  0
ENDTAB
  0
ENDSEC
  0
SECTION
  2
BLOCKS
  0
BLOCK
  5
1279
330
1238
100
AcDbEntity
  8
0
100
AcDbBlockBegin
  2
*Model_Space
 70
     0
 10
0.0
 20
0.0
 30
0.0
  3
*Model_Space
  1
*Model_Space
  0
ENDBLK
  5
8
330
1238
100
AcDbEntity
  8
0
100
AcDbBlockEnd
  0
BLOCK
  5
127A
330
1236
100
AcDbEntity
 67
     1
  8
0
100
AcDbBlockBegin
  2
*Paper_Space
 70
     0
 10
0.0
 20
0.0
 30
0.0
  3
*Paper_Space
  1
*Paper_Space
  0
ENDBLK
  5
B
330
1236
100
AcDbEntity
 67
     1
  8
0
100
AcDbBlockEnd
  0
BLOCK
  5
127B
330
127C
100
AcDbEntity
  8
0
100
AcDbBlockBegin
  2
LSF99
 70
     0
 10
0.0
 20
0.0
 30
0.0
  3
LSF99
  1
G:\WS_TEXT\PROJECTS\48108\DRAWINGS\Lsf99.dwg
  0
ENDBLK
  5
44C
330
127C
100
AcDbEntity
  8
0
100
AcDbBlockEnd
  0
BLOCK
  5
127D
330
127E
100
AcDbEntity
  8
0
100
AcDbBlockBegin
  2
*U1
 70
     1
 10
0.0
 20
0.0
 30
0.0
  3
*U1
  1
*U1
  0
SOLID
  5
1170
330
127E
100
AcDbEntity
  8
FG-$$$$$$$-MISC
  6
Continuous
100
AcDbTrace
 10
-86748.41209673624
 20
18468.4848770506
 30
0.0
 11
-86746.41209673623
 21
18468.90019490556
 31
0.0
 12
-86748.41209673624
 22
18468.90019490556
 32
0.0
 13
-86748.41209673624
 23
18468.90019490556
 33
0.0
210
0.0
220
0.0
230
-1.0
  0
SOLID
  5
1171
330
127E
100
AcDbEntity
  8
FG-$$$$$$$-MISC
  6
Continuous
100
AcDbTrace
 10
-86746.41209673623
 20
18468.90019490556
 30
0.0
 11
-86748.41209673624
 21
18468.4848770506
 31
0.0
 12
-86746.41209673623
 22
18468.4848770506
 32
0.0
 13
-86746.41209673623
 23
18468.4848770506
 33
0.0
210
0.0
220
0.0
230
-1.0
  0
SOLID
  5
1172
330
127E
100
AcDbEntity
  8
FG-$$$$$$$-MISC
  6
Continuous
100
AcDbTrace
 10
-86752.41209673612
 20
18468.4848770506
 30
0.0
 11
-86750.41209673624
 21
18468.90019490556
 31
0.0
 12
-86752.41209673612
 22
18468.90019490556
 32
0.0
 13
-86752.41209673612
 23
18468.90019490556
 33
0.0
210
0.0
220
0.0
230
-1.0
  0
SOLID
  5
1173
330
127E
100
AcDbEntity
  8
FG-$$$$$$$-MISC
  6
Continuous
100
AcDbTrace
 10
-86750.41209673624
 20
18468.90019490556
 30
0.0
 11
-86752.41209673612
 21
18468.4848770506
 31
0.0
 12
-86750.41209673624
 22
18468.4848770506
 32
0.0
 13
-86750.41209673624
 23
18468.4848770506
 33
0.0
210
0.0
220
0.0
230
-1.0
  0
SOLID
  5
1174
330
127E
100
AcDbEntity
  8
FG-$$$$$$$-MISC
  6
Continuous
100
AcDbTrace
 10
-86764.41213154617
 20
18468.4848770506
 30
0.0
 11
-86754.41209673612
 21
18468.90019490556
 31
0.0
 12
-86764.41213154617
 22
18468.90019490556
 32
0.0
 13
-86764.41213154617
 23
18468.90019490556
 33
0.0
210
0.0
220
0.0
230
-1.0
  0
SOLID
  5
1175
330
127E
100
AcDbEntity
  8
FG-$$$$$$$-MISC
  6
Continuous
100
AcDbTrace
 10
-86754.41209673612
 20
18468.90019490556
 30
0.0
 11
-86764.41213154617
 21
18468.4848770506
 31
0.0
 12
-86754.41209673612
 22
18468.4848770506
 32
0.0
 13
-86754.41209673612
 23
18468.4848770506
 33
0.0
210
0.0
220
0.0
230
-1.0
  0
ENDBLK
  5
1177
330
127E
100
AcDbEntity
  8
0
100
AcDbBlockEnd
  0
BLOCK
  5
127F
330
1280
100
AcDbEntity
  8
0
100
AcDbBlockBegin
  2
*U2
 70
     1
 10
0.0
 20
0.0
 30
0.0
  3
*U2
  1
*U2
  0
SOLID
  5
1191
330
1280
100
AcDbEntity
  8
FG-$$$$$$$-MISC
  6
Continuous
100
AcDbTrace
 10
86756.05511306749
 20
18583.47340485388
 30
0.0
 11
86756.05511306749
 21
18582.29864446736
 31
0.0
 12
86756.30145755097
 22
18582.29792183905
 32
0.0
 13
86756.30145755097
 23
18582.29792183905
 33
0.0
  0
SOLID
  5
1192
330
1280
100
AcDbEntity
  8
FG-$$$$$$$-MISC
  6
Continuous
100
AcDbTrace
 10
86756.05511306749
 20
18583.47340485388
 30
0.0
 11
86756.30145755097
 21
18582.29792183905
 31
0.0
 12
86756.05511306749
 22
18584.64816524039
 32
0.0
 13
86756.05511306749
 23
18584.64816524039
 33
0.0
  0
SOLID
  5
1193
330
1280
100
AcDbEntity
  8
FG-$$$$$$$-MISC
  6
Continuous
100
AcDbTrace
 10
86756.05511306749
 20
18583.47340485388
 30
0.0
 11
86756.05511306749
 21
18584.64816524039
 31
0.0
 12
86755.80876858401
 22
18582.29792183905
 32
0.0
 13
86755.80876858401
 23
18582.29792183905
 33
0.0
  0
SOLID
  5
1194
330
1280
100
AcDbEntity
  8
FG-$$$$$$$-MISC
  6
Continuous
100
AcDbTrace
 10
86756.05511306749
 20
18583.47340485388
 30
0.0
 11
86755.80876858401
 21
18582.29792183905
 31
0.0
 12
86756.05511306749
 22
18582.29864446736
 32
0.0
 13
86756.05511306749
 23
18582.29864446736
 33
0.0
  0
ENDBLK
  5
1196
330
1280
100
AcDbEntity
  8
0
100
AcDbBlockEnd
  0
ENDSEC
  0
SECTION
  2
ENTITIES
  0
TEXT
  5
20
330
1238
100
AcDbEntity
  8
FG-$$$$$$$-TEXT
100
AcDbText
 10
86751.672
 20
18515.20899999999
 30
0.0
 40
0.2
  1
CL-1001
100
AcDbText
  0
LWPOLYLINE
  5
22
330
1238
100
AcDbEntity
  8
PR-08$$$$1-ARCH
100
AcDbPolyline
 90
        4
 70
   129
 43
0.0
 10
86751.605
 20
18515.20899999999
 10
86751.536
 20
18515.217
 10
86751.57200000001
 20
18515.333
 10
86751.69
 20
18515.324
  0
TEXT
  5
24
330
1238
100
AcDbEntity
  8
FG-$$$$$$$-TEXT
100
AcDbText
 10
86755.337
 20
18508.285
 30
0.0
 40
0.2
  1
CL-1013
100
AcDbText
  0
LWPOLYLINE
  5
25
330
1238
100
AcDbEntity
  8
PR-99$$$$$-ARCH
100
AcDbPolyline
 90
       10
 70
     1
 43
0.0
 10
86755.27
 20
18508.285
 10
86755.324
 20
18508.607
 10
86755.285
 20
18508.792
 10
86755.06099999999
 20
18508.974
 10
86754.733
 20
18508.94199999999
 10
86754.603
 20
18508.732
 10
86754.729
 20
18508.417
 10
86754.826
 20
18508.145
 10
86755.013
 20
18508.075
 10
86755.19299999998
 20
18508.13399999999
  0
TEXT
  5
27
330
1238
100
AcDbEntity
  8
FG-$$$$$$$-TEXT
100
AcDbText
 10
86752.17400000001
 20
18519.924
 30
0.0
 40
0.2
  1
CL-1015
100
AcDbText
  0
LWPOLYLINE
  5
28
330
1238
100
AcDbEntity
  8
PR-99$$$$$-ARCH
100
AcDbPolyline
 90
        5
 70
     1
 43
0.0
 10
86752.107
 20
18519.924
 10
86751.945
 20
18519.933
 10
86751.88999999998
 20
18519.856
 10
86751.963
 20
18519.77899999999
 10
86752.05999999998
 20
18519.74699999999
  0
TEXT
  5
29
330
1238
100
AcDbEntity
  8
FG-$$$$$$$-TEXT
100
AcDbText
 10
86754.097
 20
18521.251
 30
0.0
 40
0.2
  1
CL-1016
100
AcDbText
  0
LWPOLYLINE
  5
2A
330
1238
100
AcDbEntity
  8
PR-99$$$$$-ARCH
100
AcDbPolyline
 90
        7
 70
     1
 43
0.0
 10
86754.03000000001
 20
18521.251
 10
86753.99
 20
18521.428
 10
86753.865
 20
18521.484
 10
86753.641
 20
18521.447
 10
86753.596
 20
18521.27699999999
 10
86753.699
 20
18521.11999999999
 10
86753.893
 20
18521.122
  0
TEXT
  5
2B
330
1238
100
AcDbEntity
  8
FG-$$$$$$$-TEXT
100
AcDbText
 10
86753.753
 20
18521.93899999999
 30
0.0
 40
0.2
  1
CL-1017
100
AcDbText
  0
LWPOLYLINE
  5
2C
330
1238
100
AcDbEntity
  8
PR-99$$$$$-ARCH
100
AcDbPolyline
 90
        7
 70
     1
 43
0.0
 10
86753.686
 20
18521.93899999999
 10
86753.616
 20
18522.097
 10
86753.42399999998
 20
18522.175
 10
86753.268
 20
18522.02899999999
 10
86753.248
 20
18521.879
 10
86753.419
 20
18521.78099999999
 10
86753.628
 20
18521.783
  0
TEXT
  5
2D
330
1238
100
AcDbEntity
  8
FG-$$$$$$$-TEXT
100
AcDbText
 10
86750.691
 20
18520.482
 30
0.0
 40
0.2
  1
CL-1018
100
AcDbText
  0
LWPOLYLINE
  5
2E
330
1238
100
AcDbEntity
  8
PR-99$$$$$-ARCH
100
AcDbPolyline
 90
        7
 70
     1
 43
0.0
 10
86750.624
 20
18520.482
 10
86750.576
 20
18520.721
 10
86750.38999999998
 20
18520.801
 10
86750.233
 20
18520.639
 10
86750.22
 20
18520.43
 10
86750.37
 20
18520.29
 10
86750.552
 20
18520.342
  0
TEXT
  5
2F
330
1238
100
AcDbEntity
  8
FG-$$$$$$$-TEXT
100
AcDbText
 10
86750.944
 20
18524.163
 30
0.0
 40
0.2
  1
CL-1019
100
AcDbText
  0
TEXT
  5
30
330
1238
100
AcDbEntity
  8
FG-$$$$$$$-TEXT
100
AcDbText
 10
86748.585
 20
18527.62399999999
 30
0.0
 40
0.2
  1
CL-1022
100
AcDbText
  0
TEXT
  5
31
330
1238
100
AcDbEntity
  8
FG-$$$$$$$-TEXT
100
AcDbText
 10
86748.063
 20
18523.90199999999
 30
0.0
 40
0.2
  1
CL-1023
100
AcDbText
  0
TEXT
  5
32
330
1238
100
AcDbEntity
  8
FG-$$$$$$$-TEXT
100
AcDbText
 10
86747.904
 20
18521.83
 30
0.0
 40
0.2
  1
CL-1024
100
AcDbText
  0
TEXT
  5
33
330
1238
100
AcDbEntity
  8
FG-$$$$$$$-TEXT
100
AcDbText
 10
86746.827
 20
18520.79899999999
 30
0.0
 40
0.2
  1
CL-1025
100
AcDbText
  0
LWPOLYLINE
  5
34
330
1238
100
AcDbEntity
  8
PR-04D05A$-ARCH
100
AcDbPolyline
 90
        8
 70
     1
 43
0.0
 10
86746.76
 20
18520.79899999999
 10
86746.717
 20
18520.936
 10
86746.548
 20
18520.906
 10
86746.43600000002
 20
18520.79899999999
 10
86746.396
 20
18520.65999999999
 10
86746.466
 20
18520.557
 10
86746.603
 20
18520.61
 10
86746.76
 20
18520.72399999999
  0
TEXT
  5
35
330
1238
100
AcDbEntity
  8
FG-$$$$$$$-TEXT
100
AcDbText
 10
86746.718
 20
18519.932
 30
0.0
 40
0.2
  1
CL-1026
100
AcDbText
  0
LWPOLYLINE
  5
36
330
1238
100
AcDbEntity
  8
PR-05A05B$-ARCH
100
AcDbPolyline
 90
        6
 70
     1
 43
0.0
 10
86746.651
 20
18519.932
 10
86746.603
 20
18520.06
 10
86746.497
 20
18520.04
 10
86746.391
 20
18519.882
 10
86746.528
 20
18519.765
 10
86746.634
 20
18519.792
  0
TEXT
  5
37
330
1238
100
AcDbEntity
  8
FG-$$$$$$$-TEXT
100
AcDbText
 10
86745.131
 20
18513.537
 30
0.0
 40
0.2
  1
CL-1027
100
AcDbText
  0
TEXT
  5
38
330
1238
100
AcDbEntity
  8
FG-$$$$$$$-TEXT
100
AcDbText
 10
86748.187
 20
18506.653
 30
0.0
 40
0.2
  1
CL-1030
100
AcDbText
  0
TEXT
  5
39
330
1238
100
AcDbEntity
  8
FG-$$$$$$$-TEXT
100
AcDbText
 10
86744.248
 20
18507.198
 30
0.0
 40
0.2
  1
CL-1031
100
AcDbText
  0
TEXT
  5
3A
330
1238
100
AcDbEntity
  8
FG-$$$$$$$-TEXT
100
AcDbText
 10
86740.408
 20
18527.632
 30
0.0
 40
0.2
  1
CL-1033
100
AcDbText
  0
LWPOLYLINE
  5
3B
330
1238
100
AcDbEntity
  8
PR-05A05B$-ARCH
100
AcDbPolyline
 90
        7
 70
   129
 43
0.0
 10
86740.341
 20
18527.632
 10
86740.19000000002
 20
18527.62
 10
86740.021
 20
18527.54499999999
 10
86739.92399999998
 20
18527.419
 10
86739.975
 20
18527.241
 10
86740.202
 20
18527.26499999999
 10
86740.357
 20
18527.275
  0
TEXT
  5
3D
330
1238
100
AcDbEntity
  8
FG-$$$$$$$-TEXT
100
AcDbText
 10
86740.515
 20
18526.982
 30
0.0
 40
0.2
  1
CL-1034
100
AcDbText
  0
LWPOLYLINE
  5
3E
330
1238
100
AcDbEntity
  8
PR-99$$$$$-ARCH
100
AcDbPolyline
 90
        6
 70
     1
 43
0.0
 10
86740.448
 20
18526.982
 10
86740.404
 20
18527.113
 10
86740.21599999999
 20
18527.142
 10
86740.156
 20
18526.997
 10
86740.24300000002
 20
18526.937
 10
86740.399
 20
18526.88799999999
  0
TEXT
  5
3F
330
1238
100
AcDbEntity
  8
FG-$$$$$$$-TEXT
100
AcDbText
 10
86741.568
 20
18526.396
 30
0.0
 40
0.2
  1
CL-1035
100
AcDbText
  0
LWPOLYLINE
  5
40
330
1238
100
AcDbEntity
  8
PR-99$$$$$-ARCH
100
AcDbPolyline
 90
        6
 70
     1
 43
0.0
 10
86741.501
 20
18526.396
 10
86741.428
 20
18526.467
 10
86741.294
 20
18526.433
 10
86741.273
 20
18526.365
 10
86741.33300000001
 20
18526.277
 10
86741.45499999999
 20
18526.273
  0
TEXT
  5
41
330
1238
100
AcDbEntity
  8
FG-$$$$$$$-TEXT
100
AcDbText
 10
86741.31799999998
 20
18526.151
 30
0.0
 40
0.2
  1
CL-1036
100
AcDbText
  0
LWPOLYLINE
  5
42
330
1238
100
AcDbEntity
  8
PR-05A05B$-ARCH
100
AcDbPolyline
 90
        9
 70
   129
 43
0.0
 10
86741.251
 20
18526.151
 10
86741.141
 20
18526.254
 10
86740.98500000002
 20
18526.345
 10
86740.824
 20
18526.221
 10
86740.8
 20
18526.061
 10
86740.867
 20
18525.90799999999
 10
86741.004
 20
18525.808
 10
86741.174
 20
18525.86699999999
 10
86741.25199999998
 20
18526.025
  0
TEXT
  5
43
330
1238
100
AcDbEntity
  8
FG-$$$$$$$-TEXT
100
AcDbText
 10
86742.272
 20
18525.79
 30
0.0
 40
0.2
  1
CL-1037
100
AcDbText
  0
LWPOLYLINE
  5
44
330
1238
100
AcDbEntity
  8
PR-99$$$$$-ARCH
100
AcDbPolyline
 90
       10
 70
     1
 43
0.0
 10
86742.205
 20
18525.79
 10
86742.134
 20
18525.84999999999
 10
86741.859
 20
18525.906
 10
86741.44
 20
18525.85099999999
 10
86741.184
 20
18525.864
 10
86741.127
 20
18525.769
 10
86741.18899999998
 20
18525.688
 10
86741.486
 20
18525.643
 10
86741.806
 20
18525.648
 10
86742.15099999998
 20
18525.691
  0
TEXT
  5
45
330
1238
100
AcDbEntity
  8
FG-$$$$$$$-TEXT
100
AcDbText
 10
86741.872
 20
18525.368
 30
0.0
 40
0.2
  1
CL-1038A
100
AcDbText
  0
LWPOLYLINE
  5
46
330
1238
100
AcDbEntity
  8
PR-99$$$$$-ARCH
100
AcDbPolyline
 90
        6
 70
     1
 43
0.0
 10
86741.805
 20
18525.368
 10
86741.781
 20
18525.455
 10
86741.642
 20
18525.50199999999
 10
86741.573
 20
18525.419
 10
86741.66
 20
18525.294
 10
86741.764
 20
18525.288
  0
TEXT
  5
47
330
1238
100
AcDbEntity
  8
FG-$$$$$$$-TEXT
100
AcDbText
 10
86741.183
 20
18525.58499999999
 30
0.0
 40
0.2
  1
CL-1038B
100
AcDbText
  0
LWPOLYLINE
  5
48
330
1238
100
AcDbEntity
  8
PR-99$$$$$-ARCH
100
AcDbPolyline
 90
        6
 70
     1
 43
0.0
 10
86741.116
 20
18525.58499999999
 10
86741.045
 20
18525.673
 10
86740.922
 20
18525.65799999999
 10
86740.873
 20
18525.595
 10
86740.944
 20
18525.46399999999
 10
86741.06399999998
 20
18525.465
  0
TEXT
  5
49
330
1238
100
AcDbEntity
  8
FG-$$$$$$$-TEXT
100
AcDbText
 10
86738.533
 20
18525.341
 30
0.0
 40
0.2
  1
CL-1039
100
AcDbText
  0
LWPOLYLINE
  5
4A
330
1238
100
AcDbEntity
  8
PR-99$$$$$-ARCH
100
AcDbPolyline
 90
        7
 70
     1
 43
0.0
 10
86738.466
 20
18525.341
 10
86738.397
 20
18525.43799999999
 10
86738.199
 20
18525.50199999999
 10
86738.081
 20
18525.488
 10
86738.051
 20
18525.397
 10
86738.191
 20
18525.282
 10
86738.41300000002
 20
18525.239
  0
TEXT
  5
4B
330
1238
100
AcDbEntity
  8
FG-$$$$$$$-TEXT
100
AcDbText
 10
86739.07599999999
 20
18523.512
 30
0.0
 40
0.2
  1
CL-1040
100
AcDbText
  0
LWPOLYLINE
  5
4C
330
1238
100
AcDbEntity
  8
PR-05B05C1-ARCH
100
AcDbPolyline
 90
        8
 70
   129
 43
0.0
 10
86739.009
 20
18523.512
 10
86738.948
 20
18523.68
 10
86738.767
 20
18523.774
 10
86738.59099999999
 20
18523.695
 10
86738.54099999998
 20
18523.512
 10
86738.66999999998
 20
18523.302
 10
86738.817
 20
18523.22999999999
 10
86739.004
 20
18523.33299999999
  0
TEXT
  5
4E
330
1238
100
AcDbEntity
  8
FG-$$$$$$$-TEXT
100
AcDbText
 10
86740.401
 20
18522.62299999999
 30
0.0
 40
0.2
  1
CL-1041
100
AcDbText
  0
LWPOLYLINE
  5
4F
330
1238
100
AcDbEntity
  8
PR-99$$$$$-ARCH
100
AcDbPolyline
 90
        6
 70
     1
 43
0.0
 10
86740.334
 20
18522.62299999999
 10
86740.273
 20
18522.654
 10
86740.176
 20
18522.662
 10
86740.131
 20
18522.56999999999
 10
86740.188
 20
18522.502
 10
86740.303
 20
18522.53499999999
  0
TEXT
  5
50
330
1238
100
AcDbEntity
  8
FG-$$$$$$$-TEXT
100
AcDbText
 10
86738.882
 20
18522.524
 30
0.0
 40
0.2
  1
CL-1042
100
AcDbText
  0
LWPOLYLINE
  5
51
330
1238
100
AcDbEntity
  8
PR-99$$$$$-ARCH
100
AcDbPolyline
 90
        6
 70
     1
 43
0.0
 10
86738.815
 20
18522.524
 10
86738.718
 20
18522.679
 10
86738.569
 20
18522.701
 10
86738.571
 20
18522.536
 10
86738.732
 20
18522.48
 10
86738.786
 20
18522.485
  0
TEXT
  5
52
330
1238
100
AcDbEntity
  8
FG-$$$$$$$-TEXT
100
AcDbText
 10
86738.487
 20
18520.845
 30
0.0
 40
0.2
  1
CL-1043
100
AcDbText
  0
LWPOLYLINE
  5
53
330
1238
100
AcDbEntity
  8
PR-05A05B$-ARCH
100
AcDbPolyline
 90
        8
 70
   129
 43
0.0
 10
86738.42
 20
18520.845
 10
86738.41599999998
 20
18521.0
 10
86738.251
 20
18521.142
 10
86738.11399999999
 20
18521.091
 10
86738.01
 20
18520.979
 10
86738.008
 20
18520.807
 10
86738.139
 20
18520.684
 10
86738.32
 20
18520.664
  0
TEXT
  5
54
330
1238
100
AcDbEntity
  8
FG-$$$$$$$-TEXT
100
AcDbText
 10
86739.397
 20
18519.685
 30
0.0
 40
0.2
  1
CL-1044
100
AcDbText
  0
LWPOLYLINE
  5
55
330
1238
100
AcDbEntity
  8
PR-99$$$$$-ARCH
100
AcDbPolyline
 90
        8
 70
     1
 43
0.0
 10
86739.32999999999
 20
18519.685
 10
86739.264
 20
18519.862
 10
86739.078
 20
18519.936
 10
86738.852
 20
18519.932
 10
86738.798
 20
18519.719
 10
86738.887
 20
18519.519
 10
86739.135
 20
18519.462
 10
86739.27
 20
18519.55
  0
TEXT
  5
56
330
1238
100
AcDbEntity
  8
FG-$$$$$$$-TEXT
100
AcDbText
 10
86741.494
 20
18519.661
 30
0.0
 40
0.2
  1
CL-1045
100
AcDbText
  0
LWPOLYLINE
  5
57
330
1238
100
AcDbEntity
  8
PR-99$$$$$-ARCH
100
AcDbPolyline
 90
        6
 70
     1
 43
0.0
 10
86741.427
 20
18519.661
 10
86741.346
 20
18519.762
 10
86741.24
 20
18519.74399999999
 10
86741.206
 20
18519.659
 10
86741.284
 20
18519.557
 10
86741.41
 20
18519.598
  0
TEXT
  5
58
330
1238
100
AcDbEntity
  8
FG-$$$$$$$-TEXT
100
AcDbText
 10
86738.89599999998
 20
18518.57299999999
 30
0.0
 40
0.2
  1
CL-1046
100
AcDbText
  0
LWPOLYLINE
  5
59
330
1238
100
AcDbEntity
  8
PR-99$$$$$-ARCH
100
AcDbPolyline
 90
        8
 70
     1
 43
0.0
 10
86738.829
 20
18518.57299999999
 10
86738.717
 20
18518.67499999999
 10
86738.545
 20
18518.74
 10
86738.419
 20
18518.676
 10
86738.333
 20
18518.485
 10
86738.429
 20
18518.35099999999
 10
86738.626
 20
18518.321
 10
86738.782
 20
18518.40199999999
  0
TEXT
  5
5A
330
1238
100
AcDbEntity
  8
FG-$$$$$$$-TEXT
100
AcDbText
 10
86739.384
 20
18518.219
 30
0.0
 40
0.2
  1
CL-1047
100
AcDbText
  0
LWPOLYLINE
  5
5B
330
1238
100
AcDbEntity
  8
PR-99$$$$$-ARCH
100
AcDbPolyline
 90
        5
 70
     1
 43
0.0
 10
86739.317
 20
18518.219
 10
86739.25800000002
 20
18518.281
 10
86739.154
 20
18518.269
 10
86739.13199999998
 20
18518.143
 10
86739.262
 20
18518.13
  0
TEXT
  5
5C
330
1238
100
AcDbEntity
  8
FG-$$$$$$$-TEXT
100
AcDbText
 10
86740.086
 20
18518.03199999999
 30
0.0
 40
0.2
  1
CL-1048
100
AcDbText
  0
LWPOLYLINE
  5
5D
330
1238
100
AcDbEntity
  8
PR-99$$$$$-ARCH
100
AcDbPolyline
 90
        6
 70
     1
 43
0.0
 10
86740.019
 20
18518.03199999999
 10
86739.967
 20
18518.13399999999
 10
86739.84299999998
 20
18518.145
 10
86739.808
 20
18518.04499999999
 10
86739.87
 20
18517.957
 10
86739.972
 20
18517.936
  0
TEXT
  5
5E
330
1238
100
AcDbEntity
  8
FG-$$$$$$$-TEXT
100
AcDbText
 10
86741.324
 20
18517.464
 30
0.0
 40
0.2
  1
CL-1049
100
AcDbText
  0
LWPOLYLINE
  5
5F
330
1238
100
AcDbEntity
  8
PR-99$$$$$-ARCH
100
AcDbPolyline
 90
        6
 70
     1
 43
0.0
 10
86741.25699999998
 20
18517.464
 10
86741.174
 20
18517.56899999999
 10
86741.009
 20
18517.523
 10
86740.98
 20
18517.415
 10
86741.053
 20
18517.31
 10
86741.187
 20
18517.365
  0
TEXT
  5
60
330
1238
100
AcDbEntity
  8
FG-$$$$$$$-TEXT
100
AcDbText
 10
86741.974
 20
18516.608
 30
0.0
 40
0.2
  1
CL-1050
100
AcDbText
  0
LWPOLYLINE
  5
61
330
1238
100
AcDbEntity
  8
PR-99$$$$$-ARCH
100
AcDbPolyline
 90
        6
 70
     1
 43
0.0
 10
86741.907
 20
18516.608
 10
86741.86399999999
 20
18516.704
 10
86741.73699999998
 20
18516.711
 10
86741.705
 20
18516.60099999999
 10
86741.747
 20
18516.501
 10
86741.865
 20
18516.51
  0
TEXT
  5
62
330
1238
100
AcDbEntity
  8
FG-$$$$$$$-TEXT
100
AcDbText
 10
86742.327
 20
18516.343
 30
0.0
 40
0.2
  1
CL-1051
100
AcDbText
  0
LWPOLYLINE
  5
63
330
1238
100
AcDbEntity
  8
PR-99$$$$$-ARCH
100
AcDbPolyline
 90
        6
 70
     1
 43
0.0
 10
86742.26
 20
18516.343
 10
86742.188
 20
18516.469
 10
86741.988
 20
18516.433
 10
86741.91
 20
18516.311
 10
86742.018
 20
18516.18799999999
 10
86742.20399999998
 20
18516.20699999999
  0
TEXT
  5
64
330
1238
100
AcDbEntity
  8
FG-$$$$$$$-TEXT
100
AcDbText
 10
86742.721
 20
18516.253
 30
0.0
 40
0.2
  1
CL-1052
100
AcDbText
  0
LWPOLYLINE
  5
65
330
1238
100
AcDbEntity
  8
PR-99$$$$$-ARCH
100
AcDbPolyline
 90
        6
 70
     1
 43
0.0
 10
86742.654
 20
18516.253
 10
86742.58299999998
 20
18516.376
 10
86742.43
 20
18516.394
 10
86742.36399999999
 20
18516.272
 10
86742.44299999998
 20
18516.128
 10
86742.59499999999
 20
18516.11799999999
  0
TEXT
  5
66
330
1238
100
AcDbEntity
  8
FG-$$$$$$$-TEXT
100
AcDbText
 10
86740.151
 20
18516.15599999999
 30
0.0
 40
0.2
  1
CL-1053
100
AcDbText
  0
LWPOLYLINE
  5
67
330
1238
100
AcDbEntity
  8
PR-99$$$$$-ARCH
100
AcDbPolyline
 90
        7
 70
     1
 43
0.0
 10
86740.08399999999
 20
18516.15599999999
 10
86740.03
 20
18516.291
 10
86739.882
 20
18516.261
 10
86739.794
 20
18516.221
 10
86739.835
 20
18516.072
 10
86739.929
 20
18516.007
 10
86740.019
 20
18516.038
  0
TEXT
  5
68
330
1238
100
AcDbEntity
  8
FG-$$$$$$$-TEXT
100
AcDbText
 10
86738.874
 20
18516.034
 30
0.0
 40
0.2
  1
CL-1054
100
AcDbText
  0
LWPOLYLINE
  5
69
330
1238
100
AcDbEntity
  8
PR-99$$$$$-ARCH
100
AcDbPolyline
 90
        9
 70
     1
 43
0.0
 10
86738.80699999999
 20
18516.034
 10
86738.658
 20
18516.17599999999
 10
86738.548
 20
18516.328
 10
86738.432
 20
18516.292
 10
86738.463
 20
18516.17499999999
 10
86738.56
 20
18516.066
 10
86738.704
 20
18516.016
 10
86738.75
 20
18515.95999999999
 10
86738.83700000001
 20
18515.94399999999
  0
TEXT
  5
6A
330
1238
100
AcDbEntity
  8
FG-$$$$$$$-TEXT
100
AcDbText
 10
86739.469
 20
18515.005
 30
0.0
 40
0.2
  1
CL-1056
100
AcDbText
  0
LWPOLYLINE
  5
6B
330
1238
100
AcDbEntity
  8
PR-99$$$$$-ARCH
100
AcDbPolyline
 90
        6
 70
     1
 43
0.0
 10
86739.402
 20
18515.005
 10
86739.335
 20
18515.106
 10
86739.221
 20
18515.094
 10
86739.18200000002
 20
18514.981
 10
86739.232
 20
18514.878
 10
86739.326
 20
18514.916
  0
TEXT
  5
6C
330
1238
100
AcDbEntity
  8
FG-$$$$$$$-TEXT
100
AcDbText
 10
86740.151
 20
18514.279
 30
0.0
 40
0.2
  1
CL-1057
100
AcDbText
  0
LWPOLYLINE
  5
6D
330
1238
100
AcDbEntity
  8
PR-99$$$$$-ARCH
100
AcDbPolyline
 90
        8
 70
     1
 43
0.0
 10
86740.08399999999
 20
18514.279
 10
86739.991
 20
18514.469
 10
86739.799
 20
18514.53
 10
86739.589
 20
18514.418
 10
86739.562
 20
18514.163
 10
86739.703
 20
18514.02099999999
 10
86739.867
 20
18513.99699999999
 10
86740.018
 20
18514.159
  0
TEXT
  5
6E
330
1238
100
AcDbEntity
  8
FG-$$$$$$$-TEXT
100
AcDbText
 10
86741.715
 20
18514.42699999999
 30
0.0
 40
0.2
  1
CL-1058
100
AcDbText
  0
LWPOLYLINE
  5
6F
330
1238
100
AcDbEntity
  8
PR-99$$$$$-ARCH
100
AcDbPolyline
 90
        5
 70
     1
 43
0.0
 10
86741.64799999999
 20
18514.42699999999
 10
86741.57
 20
18514.504
 10
86741.464
 20
18514.44099999999
 10
86741.494
 20
18514.35999999999
 10
86741.588
 20
18514.378
  0
TEXT
  5
70
330
1238
100
AcDbEntity
  8
FG-$$$$$$$-TEXT
100
AcDbText
 10
86742.63
 20
18514.49399999999
 30
0.0
 40
0.2
  1
CL-1059
100
AcDbText
  0
LWPOLYLINE
  5
71
330
1238
100
AcDbEntity
  8
PR-04D05A$-ARCH
100
AcDbPolyline
 90
        7
 70
     1
 43
0.0
 10
86742.563
 20
18514.49399999999
 10
86742.497
 20
18514.611
 10
86742.338
 20
18514.575
 10
86742.289
 20
18514.38899999999
 10
86742.32
 20
18514.31399999999
 10
86742.44299999998
 20
18514.342
 10
86742.521
 20
18514.40799999999
  0
TEXT
  5
72
330
1238
100
AcDbEntity
  8
FG-$$$$$$$-TEXT
100
AcDbText
 10
86739.108
 20
18513.244
 30
0.0
 40
0.2
  1
CL-1060
100
AcDbText
  0
LWPOLYLINE
  5
73
330
1238
100
AcDbEntity
  8
PR-99$$$$$-ARCH
100
AcDbPolyline
 90
        9
 70
     1
 43
0.0
 10
86739.04099999998
 20
18513.244
 10
86739.057
 20
18513.399
 10
86738.944
 20
18513.464
 10
86738.82
 20
18513.378
 10
86738.69299999998
 20
18513.105
 10
86738.65199999999
 20
18512.982
 10
86738.688
 20
18512.868
 10
86738.84
 20
18512.909
 10
86738.97199999998
 20
18513.08299999999
  0
TEXT
  5
74
330
1238
100
AcDbEntity
  8
FG-$$$$$$$-TEXT
100
AcDbText
 10
86739.46
 20
18512.931
 30
0.0
 40
0.2
  1
CL-1061
100
AcDbText
  0
LWPOLYLINE
  5
75
330
1238
100
AcDbEntity
  8
PR-99$$$$$-ARCH
100
AcDbPolyline
 90
        6
 70
     1
 43
0.0
 10
86739.393
 20
18512.931
 10
86739.373
 20
18512.97
 10
86739.24300000002
 20
18513.007
 10
86739.159
 20
18512.94
 10
86739.203
 20
18512.86699999999
 10
86739.308
 20
18512.798
  0
TEXT
  5
76
330
1238
100
AcDbEntity
  8
FG-$$$$$$$-TEXT
100
AcDbText
 10
86739.25699999998
 20
18512.494
 30
0.0
 40
0.2
  1
CL-1062
100
AcDbText
  0
LWPOLYLINE
  5
77
330
1238
100
AcDbEntity
  8
PR-99$$$$$-ARCH
100
AcDbPolyline
 90
        5
 70
     1
 43
0.0
 10
86739.19000000002
 20
18512.494
 10
86739.14400000001
 20
18512.54899999999
 10
86739.06
 20
18512.54699999999
 10
86739.05799999999
 20
18512.442
 10
86739.149
 20
18512.412
  0
TEXT
  5
78
330
1238
100
AcDbEntity
  8
FG-$$$$$$$-TEXT
100
AcDbText
 10
86743.59299999998
 20
18509.71099999999
 30
0.0
 40
0.2
  1
CL-1063
100
AcDbText
  0
LWPOLYLINE
  5
79
330
1238
100
AcDbEntity
  8
PR-99$$$$$-ARCH
100
AcDbPolyline
 90
        7
 70
     1
 43
0.0
 10
86743.526
 20
18509.71099999999
 10
86743.483
 20
18509.834
 10
86743.337
 20
18509.84999999999
 10
86743.24999999999
 20
18509.72999999999
 10
86743.295
 20
18509.56599999999
 10
86743.422
 20
18509.51399999999
 10
86743.502
 20
18509.55599999999
  0
TEXT
  5
7A
330
1238
100
AcDbEntity
  8
FG-$$$$$$$-TEXT
100
AcDbText
 10
86723.52700000002
 20
18515.783
 30
0.0
 40
0.2
  1
CL-1065
100
AcDbText
  0
TEXT
  5
7C
330
1238
100
AcDbEntity
  8
FG-$$$$$$$-TEXT
100
AcDbText
 10
86722.096
 20
18510.003
 30
0.0
 40
0.2
  1
CL-1067
100
AcDbText
  0
TEXT
  5
7D
330
1238
100
AcDbEntity
  8
FG-$$$$$$$-TEXT
100
AcDbText
 10
86717.355
 20
18507.177
 30
0.0
 40
0.2
  1
CL-1074
100
AcDbText
  0
TEXT
  5
7E
330
1238
100
AcDbEntity
  8
FG-$$$$$$$-TEXT
100
AcDbText
 10
86720.55999999998
 20
18508.844
 30
0.0
 40
0.2
  1
CL-1075
100
AcDbText
  0
LWPOLYLINE
  5
7F
330
1238
100
AcDbEntity
  8
PR-99$$$$$-ARCH
100
AcDbPolyline
 90
        4
 70
     0
 43
0.0
 10
86720.50409648402
 20
18508.96842921569
 10
86720.04
 20
18508.84
 10
86719.514
 20
18508.72599999999
 10
86719.47877214398
 20
18508.60060170971
  0
TEXT
  5
80
330
1238
100
AcDbEntity
  8
FG-$$$$$$$-TEXT
100
AcDbText
 10
86720.429
 20
18510.185
 30
0.0
 40
0.2
  1
CL-1076
100
AcDbText
  0
LWPOLYLINE
  5
81
330
1238
100
AcDbEntity
  8
PR-08$$$$1-ARCH
100
AcDbPolyline
 90
       50
 70
     0
 43
0.0
 10
86757.54899168418
 20
18504.68231441835
 10
86755.6465244278
 20
18505.04200743835
 10
86754.00333955287
 20
18505.36456868773
 10
86751.68527173452
 20
18505.83374827473
 10
86749.5387222668
 20
18506.28838116852
 10
86748.66077208264
 20
18506.51226606453
 10
86748.12
 20
18506.653
 10
86747.662
 20
18506.775
 10
86747.39908227714
 20
18506.80864720858
 10
86746.7075017815
 20
18506.94236586274
 10
86745.9568423536
 20
18507.07701230358
 10
86745.14202429377
 20
18507.23730698069
 10
86744.60950535923
 20
18507.35271837759
 10
86744.123
 20
18507.473
 10
86743.069
 20
18507.667
 10
86741.84399999998
 20
18507.806
 10
86740.79499999998
 20
18507.859
 10
86739.87
 20
18508.091
 10
86738.69922577162
 20
18508.0974861782
 10
86737.514
 20
18508.327
 10
86736.562
 20
18508.574
 10
86736.00699999998
 20
18508.65199999999
 10
86735.252
 20
18508.67099999999
 10
86734.305
 20
18508.96
 10
86733.27200000001
 20
18509.061
 10
86732.24300000002
 20
18509.21299999999
 10
86730.87500000001
 20
18509.417
 10
86729.455
 20
18509.688
 10
86728.41299999999
 20
18509.809
 10
86727.793
 20
18509.715
 10
86727.066
 20
18509.93799999999
 10
86725.93499999998
 20
18509.96199999999
 10
86725.051
 20
18510.271
 10
86723.942
 20
18510.359
 10
86723.147
 20
18510.483
 10
86722.43599999999
 20
18510.525
 10
86721.576
 20
18510.67699999999
 10
86720.67762778199
 20
18510.89499910079
 10
86719.07199999999
 20
18511.20799999999
 10
86717.977
 20
18511.36
 10
86716.902
 20
18511.45999999999
 10
86716.415
 20
18511.569
 10
86715.877
 20
18511.48399999999
 10
86715.134
 20
18511.53199999999
 10
86714.442
 20
18511.361
 10
86714.076
 20
18511.17399999999
 10
86713.882
 20
18510.932
 10
86713.8
 20
18510.468
 10
86713.716
 20
18509.624
 10
86713.63599999998
 20
18508.63399999999
  0
TEXT
  5
82
330
1238
100
AcDbEntity
  8
FG-$$$$$$$-TEXT
100
AcDbText
 10
86744.571
 20
18540.215
 30
0.0
 40
0.2
  1
CL-1083
100
AcDbText
  0
LWPOLYLINE
  5
83
330
1238
100
AcDbEntity
  8
PR-99$$$$$-ARCH
100
AcDbPolyline
 90
        8
 70
     1
 43
0.0
 10
86744.50400000002
 20
18540.215
 10
86744.467
 20
18540.29599999999
 10
86744.359
 20
18540.325
 10
86744.26099999998
 20
18540.327
 10
86744.162
 20
18540.24
 10
86744.229
 20
18540.151
 10
86744.358
 20
18540.095
 10
86744.455
 20
18540.091
  0
TEXT
  5
84
330
1238
100
AcDbEntity
  8
FG-$$$$$$$-TEXT
100
AcDbText
 10
86745.699
 20
18551.95
 30
0.0
 40
0.2
  1
CL-1084
100
AcDbText
  0
LWPOLYLINE
  5
85
330
1238
100
AcDbEntity
  8
PR-05B05C2-ARCH
100
AcDbPolyline
 90
       18
 70
     1
 43
0.0
 10
86745.63199999998
 20
18551.95
 10
86745.64
 20
18552.126
 10
86745.54
 20
18552.248
 10
86745.361
 20
18552.322
 10
86744.93899999998
 20
18552.443
 10
86744.68199999999
 20
18552.478
 10
86744.52
 20
18552.348
 10
86744.339
 20
18552.129
 10
86744.315
 20
18551.838
 10
86744.323
 20
18551.56499999999
 10
86744.343
 20
18551.318
 10
86744.487
 20
18551.163
 10
86744.793
 20
18551.128
 10
86745.124
 20
18551.158
 10
86745.316
 20
18551.186
 10
86745.407
 20
18551.285
 10
86745.484
 20
18551.465
 10
86745.52
 20
18551.686
  0
TEXT
  5
87
330
1238
100
AcDbEntity
  8
FG-$$$$$$$-TEXT
100
AcDbText
 10
86736.551
 20
18524.864
 30
0.0
 40
0.2
  1
CL-1086
100
AcDbText
  0
LWPOLYLINE
  5
88
330
1238
100
AcDbEntity
  8
PR-99$$$$$-ARCH
100
AcDbPolyline
 90
       10
 70
     1
 43
0.0
 10
86736.484
 20
18524.864
 10
86736.429
 20
18525.019
 10
86736.274
 20
18525.078
 10
86736.128
 20
18525.005
 10
86736.089
 20
18524.876
 10
86736.09
 20
18524.67599999999
 10
86736.169
 20
18524.58299999999
 10
86736.328
 20
18524.572
 10
86736.38700000002
 20
18524.691
 10
86736.467
 20
18524.752
  0
TEXT
  5
89
330
1238
100
AcDbEntity
  8
FG-$$$$$$$-TEXT
100
AcDbText
 10
86736.07
 20
18523.88499999999
 30
0.0
 40
0.2
  1
CL-1087
100
AcDbText
  0
LWPOLYLINE
  5
8A
330
1238
100
AcDbEntity
  8
PR-99$$$$$-ARCH
100
AcDbPolyline
 90
        9
 70
     1
 43
0.0
 10
86736.003
 20
18523.88499999999
 10
86736.028
 20
18523.986
 10
86735.931
 20
18524.06699999999
 10
86735.79
 20
18523.978
 10
86735.771
 20
18523.863
 10
86735.789
 20
18523.779
 10
86735.813
 20
18523.706
 10
86735.927
 20
18523.693
 10
86735.978
 20
18523.784
  0
TEXT
  5
8B
330
1238
100
AcDbEntity
  8
FG-$$$$$$$-TEXT
100
AcDbText
 10
86736.614
 20
18522.807
 30
0.0
 40
0.2
  1
CL-1088
100
AcDbText
  0
LWPOLYLINE
  5
8C
330
1238
100
AcDbEntity
  8
PR-99$$$$$-ARCH
100
AcDbPolyline
 90
       11
 70
     1
 43
0.0
 10
86736.547
 20
18522.807
 10
86736.556
 20
18522.94499999999
 10
86736.399
 20
18523.077
 10
86736.263
 20
18523.112
 10
86736.157
 20
18523.042
 10
86736.14
 20
18522.847
 10
86736.12
 20
18522.673
 10
86736.16
 20
18522.539
 10
86736.28
 20
18522.473
 10
86736.403
 20
18522.56399999999
 10
86736.51
 20
18522.684
  0
TEXT
  5
8D
330
1238
100
AcDbEntity
  8
FG-$$$$$$$-TEXT
100
AcDbText
 10
86735.371
 20
18522.594
 30
0.0
 40
0.2
  1
CL-1089
100
AcDbText
  0
LWPOLYLINE
  5
8E
330
1238
100
AcDbEntity
  8
PR-05A05B$-ARCH
100
AcDbPolyline
 90
        8
 70
     1
 43
0.0
 10
86735.304
 20
18522.594
 10
86735.29099999998
 20
18522.738
 10
86735.17399999998
 20
18522.811
 10
86735.01899999999
 20
18522.793
 10
86734.976
 20
18522.638
 10
86734.983
 20
18522.504
 10
86735.13299999999
 20
18522.45599999999
 10
86735.24999999999
 20
18522.48
  0
TEXT
  5
8F
330
1238
100
AcDbEntity
  8
FG-$$$$$$$-TEXT
100
AcDbText
 10
86736.681
 20
18520.411
 30
0.0
 40
0.2
  1
CL-1090
100
AcDbText
  0
LWPOLYLINE
  5
90
330
1238
100
AcDbEntity
  8
PR-99$$$$$-ARCH
100
AcDbPolyline
 90
       14
 70
     1
 43
0.0
 10
86736.614
 20
18520.411
 10
86736.586
 20
18520.51399999999
 10
86736.476
 20
18520.54799999999
 10
86736.35199999998
 20
18520.493
 10
86736.237
 20
18520.506
 10
86736.21999999999
 20
18520.696
 10
86736.05499999998
 20
18520.779
 10
86735.932
 20
18520.648
 10
86735.91599999998
 20
18520.43799999999
 10
86736.021
 20
18520.33699999999
 10
86736.168
 20
18520.289
 10
86736.285
 20
18520.25899999999
 10
86736.439
 20
18520.208
 10
86736.602
 20
18520.29699999999
  0
TEXT
  5
91
330
1238
100
AcDbEntity
  8
FG-$$$$$$$-TEXT
100
AcDbText
 10
86730.47
 20
18514.767
 30
0.0
 40
0.2
  1
CL-1091
100
AcDbText
  0
LWPOLYLINE
  5
92
330
1238
100
AcDbEntity
  8
PR-99$$$$$-ARCH
100
AcDbPolyline
 90
       10
 70
     1
 43
0.0
 10
86730.403
 20
18514.767
 10
86730.394
 20
18514.95699999999
 10
86730.325
 20
18515.066
 10
86730.19
 20
18515.11
 10
86730.077
 20
18514.973
 10
86730.051
 20
18514.771
 10
86730.078
 20
18514.58599999999
 10
86730.181
 20
18514.54799999999
 10
86730.30999999998
 20
18514.577
 10
86730.388
 20
18514.661
  0
TEXT
  5
93
330
1238
100
AcDbEntity
  8
FG-$$$$$$$-TEXT
100
AcDbText
 10
86726.589
 20
18512.26699999999
 30
0.0
 40
0.2
  1
CL-1093
100
AcDbText
  0
LWPOLYLINE
  5
94
330
1238
100
AcDbEntity
  8
PR-05A05B$-ARCH
100
AcDbPolyline
 90
        7
 70
     1
 43
0.0
 10
86726.522
 20
18512.26699999999
 10
86726.472
 20
18512.399
 10
86726.386
 20
18512.50399999999
 10
86726.26499999998
 20
18512.449
 10
86726.20399999998
 20
18512.33099999999
 10
86726.317
 20
18512.237
 10
86726.43499999998
 20
18512.15999999999
  0
TEXT
  5
95
330
1238
100
AcDbEntity
  8
FG-$$$$$$$-TEXT
100
AcDbText
 10
86726.68
 20
18509.266
 30
0.0
 40
0.2
  1
CL-1094
100
AcDbText
  0
LWPOLYLINE
  5
96
330
1238
100
AcDbEntity
  8
PR-99$$$$$-ARCH
100
AcDbPolyline
 90
        9
 70
     1
 43
0.0
 10
86726.61299999998
 20
18509.266
 10
86726.604
 20
18509.38799999999
 10
86726.492
 20
18509.469
 10
86726.373
 20
18509.465
 10
86726.268
 20
18509.411
 10
86726.22699999998
 20
18509.282
 10
86726.335
 20
18509.153
 10
86726.46799999998
 20
18509.088
 10
86726.57
 20
18509.08399999999
  0
TEXT
  5
97
330
1238
100
AcDbEntity
  8
FG-$$$$$$$-TEXT
100
AcDbText
 10
86725.238
 20
18514.29999999999
 30
0.0
 40
0.2
  1
CL-1095
100
AcDbText
  0
LWPOLYLINE
  5
98
330
1238
100
AcDbEntity
  8
PR-99$$$$$-ARCH
100
AcDbPolyline
 90
        8
 70
     1
 43
0.0
 10
86725.171
 20
18514.29999999999
 10
86725.129
 20
18514.444
 10
86725.009
 20
18514.50999999999
 10
86724.911
 20
18514.483
 10
86724.858
 20
18514.344
 10
86724.922
 20
18514.19399999999
 10
86725.04599999999
 20
18514.139
 10
86725.134
 20
18514.212
  0
TEXT
  5
99
330
1238
100
AcDbEntity
  8
FG-$$$$$$$-TEXT
100
AcDbText
 10
86724.49
 20
18513.129
 30
0.0
 40
0.2
  1
CL-1096
100
AcDbText
  0
LWPOLYLINE
  5
9A
330
1238
100
AcDbEntity
  8
PR-99$$$$$-ARCH
100
AcDbPolyline
 90
        9
 70
     1
 43
0.0
 10
86724.423
 20
18513.129
 10
86724.38599999998
 20
18513.245
 10
86724.29
 20
18513.292
 10
86724.171
 20
18513.291
 10
86724.082
 20
18513.183
 10
86724.082
 20
18513.04
 10
86724.11699999998
 20
18512.912
 10
86724.239
 20
18512.928
 10
86724.334
 20
18513.004
  0
TEXT
  5
9B
330
1238
100
AcDbEntity
  8
FG-$$$$$$$-TEXT
100
AcDbText
 10
86726.72699999998
 20
18516.90699999999
 30
0.0
 40
0.2
  1
CL-1097
100
AcDbText
  0
LWPOLYLINE
  5
9C
330
1238
100
AcDbEntity
  8
PR-99$$$$$-ARCH
100
AcDbPolyline
 90
       15
 70
     1
 43
0.0
 10
86726.66
 20
18516.90699999999
 10
86726.749
 20
18517.185
 10
86726.78499999999
 20
18517.374
 10
86726.741
 20
18517.541
 10
86726.58
 20
18517.61899999999
 10
86726.438
 20
18517.57199999999
 10
86726.397
 20
18517.35299999999
 10
86726.41999999998
 20
18517.105
 10
86726.391
 20
18516.747
 10
86726.401
 20
18516.502
 10
86726.422
 20
18516.425
 10
86726.52300000002
 20
18516.42299999999
 10
86726.624
 20
18516.54699999999
 10
86726.691
 20
18516.671
 10
86726.67399999998
 20
18516.782
  0
TEXT
  5
9D
330
1238
100
AcDbEntity
  8
FG-$$$$$$$-TEXT
100
AcDbText
 10
86728.821
 20
18514.863
 30
0.0
 40
0.2
  1
CL-1098
100
AcDbText
  0
LWPOLYLINE
  5
9E
330
1238
100
AcDbEntity
  8
PR-99$$$$$-ARCH
100
AcDbPolyline
 90
        8
 70
     1
 43
0.0
 10
86728.754
 20
18514.863
 10
86728.699
 20
18514.985
 10
86728.624
 20
18515.04
 10
86728.543
 20
18515.038
 10
86728.485
 20
18514.90399999999
 10
86728.556
 20
18514.776
 10
86728.635
 20
18514.735
 10
86728.703
 20
18514.793
  0
TEXT
  5
9F
330
1238
100
AcDbEntity
  8
FG-$$$$$$$-TEXT
100
AcDbText
 10
86728.812
 20
18511.603
 30
0.0
 40
0.2
  1
CL-1099
100
AcDbText
  0
LWPOLYLINE
  5
A0
330
1238
100
AcDbEntity
  8
PR-04D05A$-ARCH
100
AcDbPolyline
 90
        9
 70
   129
 43
0.0
 10
86728.745
 20
18511.603
 10
86728.70900000002
 20
18511.689
 10
86728.629
 20
18511.782
 10
86728.503
 20
18511.804
 10
86728.44299999998
 20
18511.718
 10
86728.45800000001
 20
18511.568
 10
86728.538
 20
18511.45899999999
 10
86728.638
 20
18511.427
 10
86728.73799999998
 20
18511.469
  0
TEXT
  5
A2
330
1238
100
AcDbEntity
  8
FG-$$$$$$$-TEXT
100
AcDbText
 10
86735.176
 20
18517.374
 30
0.0
 40
0.2
  1
CL-1100
100
AcDbText
  0
LWPOLYLINE
  5
A3
330
1238
100
AcDbEntity
  8
PR-99$$$$$-ARCH
100
AcDbPolyline
 90
        7
 70
     1
 43
0.0
 10
86735.109
 20
18517.374
 10
86735.068
 20
18517.432
 10
86734.984
 20
18517.557
 10
86734.90199999999
 20
18517.47399999999
 10
86734.86699999998
 20
18517.358
 10
86734.946
 20
18517.276
 10
86735.055
 20
18517.308
  0
TEXT
  5
A4
330
1238
100
AcDbEntity
  8
FG-$$$$$$$-TEXT
100
AcDbText
 10
86723.272
 20
18518.85199999999
 30
0.0
 40
0.2
  1
CL-1101
100
AcDbText
  0
LWPOLYLINE
  5
A5
330
1238
100
AcDbEntity
  8
PR-99$$$$$-ARCH
100
AcDbPolyline
 90
       12
 70
     1
 43
0.0
 10
86723.20500000002
 20
18518.85199999999
 10
86723.19299999998
 20
18518.951
 10
86723.125
 20
18519.023
 10
86723.161
 20
18519.068
 10
86723.148
 20
18519.131
 10
86723.074
 20
18519.183
 10
86723.04200000002
 20
18519.093
 10
86723.046
 20
18519.034
 10
86722.996
 20
18518.952
 10
86722.99699999999
 20
18518.836
 10
86723.088
 20
18518.786
 10
86723.166
 20
18518.78499999999
  0
TEXT
  5
A6
330
1238
100
AcDbEntity
  8
FG-$$$$$$$-TEXT
100
AcDbText
 10
86722.692
 20
18518.811
 30
0.0
 40
0.2
  1
CL-1102
100
AcDbText
  0
LWPOLYLINE
  5
A7
330
1238
100
AcDbEntity
  8
PR-99$$$$$-ARCH
100
AcDbPolyline
 90
        7
 70
     1
 43
0.0
 10
86722.625
 20
18518.811
 10
86722.649
 20
18518.907
 10
86722.584
 20
18518.945
 10
86722.455
 20
18518.94599999999
 10
86722.405
 20
18518.815
 10
86722.479
 20
18518.745
 10
86722.571
 20
18518.74199999999
  0
TEXT
  5
A8
330
1238
100
AcDbEntity
  8
FG-$$$$$$$-TEXT
100
AcDbText
 10
86722.158
 20
18517.489
 30
0.0
 40
0.2
  1
CL-1103
100
AcDbText
  0
LWPOLYLINE
  5
A9
330
1238
100
AcDbEntity
  8
PR-05C$$$1-ARCH
100
AcDbPolyline
 90
       17
 70
   129
 43
0.0
 10
86721.03400000001
 20
18517.754
 10
86721.218
 20
18517.479
 10
86721.46599999999
 20
18517.257
 10
86721.642
 20
18517.127
 10
86721.83699999998
 20
18517.13699999999
 10
86722.022
 20
18517.326
 10
86722.09099999999
 20
18517.489
 10
86722.124
 20
18517.637
 10
86722.03999999998
 20
18517.79799999999
 10
86722.031
 20
18517.98
 10
86721.90200000002
 20
18518.135
 10
86721.763
 20
18518.26799999999
 10
86721.57803933998
 20
18518.34144226109
 10
86721.36738820752
 20
18518.29757241056
 10
86721.17428954288
 20
18518.20983503757
 10
86721.08652003096
 20
18518.05190450691
 10
86721.06018774278
 20
18517.92906939105
  0
TEXT
  5
AB
330
1238
100
AcDbEntity
  8
FG-$$$$$$$-TEXT
100
AcDbText
 10
86718.319
 20
18519.553
 30
0.0
 40
0.2
  1
CL-1104
100
AcDbText
  0
LWPOLYLINE
  5
AC
330
1238
100
AcDbEntity
  8
PR-99$$$$$-ARCH
100
AcDbPolyline
 90
        6
 70
     1
 43
0.0
 10
86718.25199999998
 20
18519.553
 10
86718.225
 20
18519.655
 10
86718.101
 20
18519.658
 10
86718.06399999998
 20
18519.556
 10
86718.11299999998
 20
18519.483
 10
86718.206
 20
18519.498
  0
TEXT
  5
AD
330
1238
100
AcDbEntity
  8
FG-$$$$$$$-TEXT
100
AcDbText
 10
86721.446
 20
18515.541
 30
0.0
 40
0.2
  1
CL-1105
100
AcDbText
  0
LWPOLYLINE
  5
AE
330
1238
100
AcDbEntity
  8
PR-05B05C2-ARCH
100
AcDbPolyline
 90
       16
 70
     1
 43
0.0
 10
86721.379
 20
18515.541
 10
86721.323
 20
18515.684
 10
86721.205
 20
18515.786
 10
86721.02
 20
18515.85099999999
 10
86720.816
 20
18515.97899999999
 10
86720.599
 20
18516.039
 10
86720.356
 20
18515.93
 10
86720.2
 20
18515.81499999999
 10
86720.13599999998
 20
18515.61099999999
 10
86720.16
 20
18515.396
 10
86720.34
 20
18515.182
 10
86720.552
 20
18515.076
 10
86720.798
 20
18515.133
 10
86720.90999999999
 20
18515.216
 10
86721.158
 20
18515.26699999999
 10
86721.302
 20
18515.345
  0
TEXT
  5
AF
330
1238
100
AcDbEntity
  8
FG-$$$$$$$-TEXT
100
AcDbText
 10
86733.21
 20
18513.933
 30
0.0
 40
0.2
  1
CL-1106
100
AcDbText
  0
LWPOLYLINE
  5
B0
330
1238
100
AcDbEntity
  8
PR-04B04C$-ARCH
100
AcDbPolyline
 90
       29
 70
   129
 43
0.0
 10
86733.143
 20
18513.933
 10
86733.092
 20
18514.256
 10
86732.96200000001
 20
18514.486
 10
86732.85
 20
18514.802
 10
86732.758
 20
18515.08899999999
 10
86732.71
 20
18515.43799999999
 10
86732.715
 20
18515.716
 10
86732.688
 20
18516.03099999999
 10
86732.532
 20
18516.326
 10
86732.346
 20
18516.51299999999
 10
86732.175
 20
18516.56799999999
 10
86732.013
 20
18516.431
 10
86731.976
 20
18516.216
 10
86731.837
 20
18516.02999999999
 10
86731.786
 20
18515.793
 10
86731.813
 20
18515.53499999999
 10
86731.93600000002
 20
18515.321
 10
86732.089
 20
18515.093
 10
86732.126
 20
18514.81599999999
 10
86732.035
 20
18514.534
 10
86731.885
 20
18514.269
 10
86731.896
 20
18513.947
 10
86731.927
 20
18513.664
 10
86732.057
 20
18513.41
 10
86732.334
 20
18513.39199999999
 10
86732.568
 20
18513.45599999999
 10
86732.85299999999
 20
18513.529
 10
86733.04099999998
 20
18513.65299999999
 10
86733.11400000002
 20
18513.83099999999
  0
TEXT
  5
B2
330
1238
100
AcDbEntity
  8
FG-$$$$$$$-TEXT
100
AcDbText
 10
86729.751
 20
18512.494
 30
0.0
 40
0.2
  1
CL-1107
100
AcDbText
  0
LWPOLYLINE
  5
B3
330
1238
100
AcDbEntity
  8
PR-99$$$$$-ARCH
100
AcDbPolyline
 90
        8
 70
     1
 43
0.0
 10
86729.684
 20
18512.494
 10
86729.635
 20
18512.59899999999
 10
86729.536
 20
18512.658
 10
86729.433
 20
18512.58099999999
 10
86729.417
 20
18512.444
 10
86729.496
 20
18512.36899999999
 10
86729.574
 20
18512.36899999999
 10
86729.645
 20
18512.468
  0
TEXT
  5
B4
330
1238
100
AcDbEntity
  8
FG-$$$$$$$-TEXT
100
AcDbText
 10
86742.135
 20
18511.819
 30
0.0
 40
0.2
  1
CL-2104
100
AcDbText
  0
LWPOLYLINE
  5
B5
330
1238
100
AcDbEntity
  8
PR-04D05A$-ARCH
100
AcDbPolyline
 90
        5
 70
     1
 43
0.0
 10
86742.068
 20
18511.819
 10
86742.045
 20
18511.922
 10
86741.811
 20
18511.921
 10
86741.768
 20
18511.713
 10
86741.96486114257
 20
18511.5373961639
  0
TEXT
  5
B6
330
1238
100
AcDbEntity
  8
FG-$$$$$$$-TEXT
100
AcDbText
 10
86742.758
 20
18511.06899999999
 30
0.0
 40
0.2
  1
CL-2108
100
AcDbText
  0
LWPOLYLINE
  5
B7
330
1238
100
AcDbEntity
  8
PR-05A05B$-ARCH
100
AcDbPolyline
 90
        6
 70
   129
 43
0.0
 10
86742.691
 20
18511.06899999999
 10
86742.477
 20
18511.039
 10
86742.426
 20
18511.093
 10
86742.454
 20
18511.183
 10
86742.641
 20
18511.21299999999
 10
86742.723
 20
18511.15499999999
  0
TEXT
  5
B8
330
1238
100
AcDbEntity
  8
FG-$$$$$$$-TEXT
100
AcDbText
 10
86740.341
 20
18511.365
 30
0.0
 40
0.2
  1
CL-2304
100
AcDbText
  0
LWPOLYLINE
  5
B9
330
1238
100
AcDbEntity
  8
PR-05A$$$$-ARCH
100
AcDbPolyline
 90
        6
 70
   129
 43
0.0
 10
86740.274
 20
18511.365
 10
86740.22
 20
18511.632
 10
86739.627
 20
18512.01099999999
 10
86739.329
 20
18511.90899999999
 10
86739.26899999999
 20
18511.58099999999
 10
86740.027
 20
18511.25999999999
  0
TEXT
  5
BB
330
1238
100
AcDbEntity
  8
FG-$$$$$$$-TEXT
100
AcDbText
 10
86731.17799999999
 20
18510.80199999999
 30
0.0
 40
0.2
  1
CL-2405
100
AcDbText
  0
TEXT
  5
BC
330
1238
100
AcDbEntity
  8
FG-$$$$$$$-TEXT
100
AcDbText
 10
86722.64400000001
 20
18509.24799999999
 30
0.0
 40
0.2
  1
CL-2408
100
AcDbText
  0
LWPOLYLINE
  5
BD
330
1238
100
AcDbEntity
  8
PR-05A05B$-ARCH
100
AcDbPolyline
 90
        5
 70
   129
 43
0.0
 10
86722.577
 20
18509.24799999999
 10
86722.726
 20
18509.209
 10
86722.878
 20
18509.304
 10
86722.841
 20
18509.58399999999
 10
86722.54
 20
18509.508
  0
TEXT
  5
BE
330
1238
100
AcDbEntity
  8
FG-$$$$$$$-TEXT
100
AcDbText
 10
86728.805
 20
18511.36999999999
 30
0.0
 40
0.2
  1
CL-2503
100
AcDbText
  0
TEXT
  5
BF
330
1238
100
AcDbEntity
  8
FG-$$$$$$$-TEXT
100
AcDbText
 10
86598.2
 20
18563.53
 30
0.0
 40
0.2
  1
LN-1000A
100
AcDbText
  0
LWPOLYLINE
  5
C0
330
1238
100
AcDbEntity
  8
PR-08$$$$2-ARCH
100
AcDbPolyline
 90
        5
 70
     0
 43
0.0
 10
86598.13299999999
 20
18563.53
 10
86597.854
 20
18562.575
 10
86597.527
 20
18561.631
 10
86597.3
 20
18560.791
 10
86597.147
 20
18560.141
  0
TEXT
  5
C1
330
1238
100
AcDbEntity
  8
FG-$$$$$$$-TEXT
100
AcDbText
 10
86598.642
 20
18563.151
 30
0.0
 40
0.2
  1
LN-1000B
100
AcDbText
  0
LWPOLYLINE
  5
C2
330
1238
100
AcDbEntity
  8
PR-08$$$$2-ARCH
100
AcDbPolyline
 90
        5
 70
     0
 43
0.0
 10
86598.575
 20
18563.151
 10
86598.37
 20
18562.31
 10
86598.05699999999
 20
18561.22799999999
 10
86597.886
 20
18560.519
 10
86597.66300000002
 20
18559.821
  0
TEXT
  5
C3
330
1238
100
AcDbEntity
  8
FG-$$$$$$$-TEXT
100
AcDbText
 10
86757.449
 20
18522.81399999999
 30
0.0
 40
0.2
  1
LN-1010
100
AcDbText
  0
TEXT
  5
C4
330
1238
100
AcDbEntity
  8
FG-$$$$$$$-TEXT
100
AcDbText
 10
86757.027
 20
18511.179
 30
0.0
 40
0.2
  1
LN-1011
100
AcDbText
  0
LWPOLYLINE
  5
C5
330
1238
100
AcDbEntity
  8
PR-05C$$$2-ARCH
100
AcDbPolyline
 90
       18
 70
     0
 43
0.0
 10
86757.80145707824
 20
18511.26846017358
 10
86755.06
 20
18510.977
 10
86753.30422283764
 20
18510.72325811773
 10
86752.07933496503
 20
18510.47781575686
 10
86750.73799999998
 20
18510.414
 10
86749.586
 20
18510.20699999999
 10
86748.48
 20
18509.926
 10
86747.465
 20
18509.7
 10
86747.498
 20
18510.568
 10
86748.399
 20
18510.787
 10
86749.342
 20
18511.116
 10
86750.558
 20
18511.283
 10
86751.729
 20
18511.505
 10
86752.86299999998
 20
18511.67099999999
 10
86754.11399999999
 20
18511.804
 10
86754.099
 20
18511.801
 10
86755.56399999998
 20
18512.13499999999
 10
86757.90801885979
 20
18512.48587184595
  0
TEXT
  5
C7
330
1238
100
AcDbEntity
  8
FG-$$$$$$$-TEXT
100
AcDbText
 10
86751.919
 20
18510.467
 30
0.0
 40
0.2
  1
LN-1012
100
AcDbText
  0
TEXT
  5
C8
330
1238
100
AcDbEntity
  8
FG-$$$$$$$-TEXT
100
AcDbText
 10
86752.034
 20
18509.095
 30
0.0
 40
0.2
  1
LN-1014
100
AcDbText
  0
LWPOLYLINE
  5
C9
330
1238
100
AcDbEntity
  8
PR-99$$$$$-ARCH
100
AcDbPolyline
 90
       15
 70
     0
 43
0.0
 10
86751.94047049023
 20
18509.19990028775
 10
86751.84900000002
 20
18508.89
 10
86751.843
 20
18508.53599999999
 10
86751.767
 20
18508.136
 10
86751.608
 20
18507.83099999999
 10
86751.342
 20
18507.82
 10
86751.032
 20
18507.945
 10
86750.994
 20
18508.24199999999
 10
86751.179
 20
18508.63399999999
 10
86751.251
 20
18508.90599999999
 10
86751.36199999998
 20
18509.249
 10
86751.485
 20
18509.523
 10
86751.65
 20
18509.615
 10
86751.89000600258
 20
18509.50249407824
 10
86751.94047049023
 20
18509.19990028775
  0
TEXT
  5
CA
330
1238
100
AcDbEntity
  8
FG-$$$$$$$-TEXT
100
AcDbText
 10
86757.603
 20
18523.93799999999
 30
0.0
 40
0.2
  1
LN-1020
100
AcDbText
  0
TEXT
  5
CB
330
1238
100
AcDbEntity
  8
FG-$$$$$$$-TEXT
100
AcDbText
 10
86752.201
 20
18529.45899999999
 30
0.0
 40
0.2
  1
LN-1021
100
AcDbText
  0
TEXT
  5
CC
330
1238
100
AcDbEntity
  8
FG-$$$$$$$-TEXT
100
AcDbText
 10
86756.042
 20
18504.578
 30
0.0
 40
0.2
  1
LN-1028
100
AcDbText
  0
TEXT
  5
CD
330
1238
100
AcDbEntity
  8
FG-$$$$$$$-TEXT
100
AcDbText
 10
86756.29999999999
 20
18496.677
 30
0.0
 40
0.2
  1
LN-1029
100
AcDbText
  0
LWPOLYLINE
  5
CE
330
1238
100
AcDbEntity
  8
PR-08$$$$1-ARCH
100
AcDbPolyline
 90
       12
 70
     0
 43
0.0
 10
86757.15240621423
 20
18496.51813931503
 10
86755.30700000002
 20
18496.837
 10
86755.014
 20
18495.86799999999
 10
86754.745
 20
18494.917
 10
86754.581
 20
18493.85599999999
 10
86754.388
 20
18492.71099999999
 10
86754.006
 20
18492.061
 10
86753.595
 20
18491.148
 10
86753.291
 20
18490.894
 10
86752.582
 20
18490.969
 10
86752.289
 20
18490.282
 10
86752.01066310456
 20
18489.20010291497
  0
TEXT
  5
CF
330
1238
100
AcDbEntity
  8
FG-$$$$$$$-TEXT
100
AcDbText
 10
86748.954
 20
18530.317
 30
0.0
 40
0.2
  1
LN-1032
100
AcDbText
  0
TEXT
  5
D0
330
1238
100
AcDbEntity
  8
FG-$$$$$$$-TEXT
100
AcDbText
 10
86738.021
 20
18517.061
 30
0.0
 40
0.2
  1
LN-1055
100
AcDbText
  0
LWPOLYLINE
  5
D1
330
1238
100
AcDbEntity
  8
PR-05B05C1-ARCH
100
AcDbPolyline
 90
       11
 70
   129
 43
0.0
 10
86737.95399999998
 20
18517.061
 10
86738.434
 20
18517.036
 10
86738.882
 20
18517.055
 10
86739.14400000001
 20
18517.02799999999
 10
86739.261
 20
18517.12799999999
 10
86739.29499999998
 20
18517.253
 10
86739.268
 20
18517.45
 10
86739.168
 20
18517.51199999999
 10
86738.917
 20
18517.61699999999
 10
86738.412
 20
18517.662
 10
86737.84919180303
 20
18517.67067341399
  0
TEXT
  5
D2
330
1238
100
AcDbEntity
  8
FG-$$$$$$$-TEXT
100
AcDbText
 10
86633.438
 20
18520.214
 30
0.0
 40
0.2
  1
LN-1064
100
AcDbText
  0
TEXT
  5
D3
330
1238
100
AcDbEntity
  8
FG-$$$$$$$-TEXT
100
AcDbText
 10
86723.30699999999
 20
18516.17199999999
 30
0.0
 40
0.2
  1
LN-1066
100
AcDbText
  0
TEXT
  5
D4
330
1238
100
AcDbEntity
  8
FG-$$$$$$$-TEXT
100
AcDbText
 10
86728.377
 20
18496.829
 30
0.0
 40
0.2
  1
LN-1070
100
AcDbText
  0
LWPOLYLINE
  5
D5
330
1238
100
AcDbEntity
  8
PR-08$$$$1-ARCH
100
AcDbPolyline
 90
       36
 70
     0
 43
0.0
 10
86729.2891000452
 20
18495.50094734354
 10
86728.021
 20
18497.221
 10
86727.892
 20
18497.666
 10
86727.506
 20
18498.008
 10
86726.871
 20
18498.449
 10
86726.536
 20
18498.903
 10
86725.974
 20
18499.329
 10
86725.086
 20
18499.78199999999
 10
86724.638
 20
18500.508
 10
86724.43900000001
 20
18501.25099999999
 10
86724.571
 20
18501.924
 10
86724.764
 20
18502.54899999999
 10
86724.98309487975
 20
18502.97156217139
 10
86725.26574292328
 20
18503.41028591343
 10
86725.608
 20
18503.91199999999
 10
86726.301
 20
18504.27899999999
 10
86726.875
 20
18505.00899999999
 10
86727.552
 20
18505.56899999999
 10
86728.69699999999
 20
18505.74399999999
 10
86730.295
 20
18505.962
 10
86732.198
 20
18505.814
 10
86734.05
 20
18505.699
 10
86735.579
 20
18505.59999999999
 10
86737.141
 20
18505.35199999999
 10
86738.854
 20
18505.08699999999
 10
86740.431
 20
18504.739
 10
86742.059
 20
18504.462
 10
86743.457
 20
18504.219
 10
86744.561
 20
18504.075
 10
86746.35991448436
 20
18503.88073005026
 10
86748.959
 20
18503.63399999999
 10
86750.606
 20
18503.713
 10
86752.07
 20
18503.18
 10
86753.797
 20
18502.823
 10
86755.448
 20
18502.45899999999
 10
86757.47185122737
 20
18501.70142325677
  0
TEXT
  5
D6
330
1238
100
AcDbEntity
  8
FG-$$$$$$$-TEXT
100
AcDbText
 10
86714.37499999999
 20
18496.65299999999
 30
0.0
 40
0.2
  1
LN-1071
100
AcDbText
  0
LWPOLYLINE
  5
D7
330
1238
100
AcDbEntity
  8
PR-99$$$$$-ARCH
100
AcDbPolyline
 90
        6
 70
     0
 43
0.0
 10
86714.24373597142
 20
18496.39357349118
 10
86714.552
 20
18497.638
 10
86714.754
 20
18498.658
 10
86714.909
 20
18499.522
 10
86714.789
 20
18500.095
 10
86714.94443029244
 20
18501.20539643139
  0
TEXT
  5
D8
330
1238
100
AcDbEntity
  8
FG-$$$$$$$-TEXT
100
AcDbText
 10
86712.075
 20
18496.609
 30
0.0
 40
0.2
  1
LN-1072
100
AcDbText
  0
LWPOLYLINE
  5
D9
330
1238
100
AcDbEntity
  8
PR-08$$$$1-ARCH
100
AcDbPolyline
 90
       13
 70
     0
 43
0.0
 10
86711.99555041292
 20
18496.03216913174
 10
86712.035
 20
18497.86
 10
86712.075
 20
18499.124
 10
86712.028
 20
18500.419
 10
86712.043
 20
18501.73
 10
86712.132
 20
18502.944
 10
86712.111
 20
18503.695
 10
86712.15043501704
 20
18504.13977701004
 10
86712.21703208148
 20
18504.77459239017
 10
86712.28875023578
 20
18505.31725680331
 10
86712.337
 20
18505.586
 10
86712.4
 20
18506.451
 10
86712.36
 20
18507.119
  0
TEXT
  5
DA
330
1238
100
AcDbEntity
  8
FG-$$$$$$$-TEXT
100
AcDbText
 10
86658.302
 20
18512.11
 30
0.0
 40
0.2
  1
LN-1073
100
AcDbText
  0
LWPOLYLINE
  5
DB
330
1238
100
AcDbEntity
  8
PR-08$$$$1-PROB
100
AcDbPolyline
 90
       44
 70
     0
 43
0.0
 10
86644.46188073236
 20
18513.47752460728
 10
86645.086
 20
18514.18799999999
 10
86645.831
 20
18514.58799999999
 10
86646.46
 20
18514.972
 10
86647.15499999998
 20
18515.02699999999
 10
86648.13199999998
 20
18514.859
 10
86649.52599999998
 20
18514.56699999999
 10
86651.245
 20
18514.074
 10
86652.917
 20
18513.411
 10
86654.2531980774
 20
18513.18594752455
 10
86655.1609357095
 20
18513.03641710411
 10
86656.531
 20
18512.738
 10
86658.88199999998
 20
18512.192
 10
86660.673
 20
18511.951
 10
86662.763
 20
18511.82
 10
86665.06899999999
 20
18511.737
 10
86667.147
 20
18511.65699999999
 10
86668.20582094089
 20
18511.4808650169
 10
86669.829
 20
18511.166
 10
86672.529
 20
18510.588
 10
86675.551
 20
18510.097
 10
86678.831
 20
18509.804
 10
86682.285
 20
18509.142
 10
86685.024
 20
18508.63799999999
 10
86688.017
 20
18508.43
 10
86691.556
 20
18507.99199999999
 10
86694.464
 20
18507.68799999999
 10
86697.374
 20
18507.54599999999
 10
86700.536
 20
18507.275
 10
86703.03099999999
 20
18506.794
 10
86705.272
 20
18506.647
 10
86707.378
 20
18506.26199999999
 10
86709.32999999999
 20
18505.766
 10
86710.842
 20
18505.72399999999
 10
86711.688
 20
18505.494
 10
86712.79590603782
 20
18505.51179672627
 10
86714.74599999998
 20
18505.297
 10
86715.603
 20
18505.251
 10
86720.388
 20
18504.434
 10
86721.295
 20
18504.22499999999
 10
86722.482
 20
18504.129
 10
86723.674
 20
18504.001
 10
86724.907
 20
18503.778
 10
86725.608
 20
18503.91199999999
  0
TEXT
  5
DD
330
1238
100
AcDbEntity
  8
FG-$$$$$$$-TEXT
100
AcDbText
 10
86724.725
 20
18504.711
 30
0.0
 40
0.2
  1
LN-1077
100
AcDbText
  0
TEXT
  5
DE
330
1238
100
AcDbEntity
  8
FG-$$$$$$$-TEXT
100
AcDbText
 10
86734.122
 20
18505.937
 30
0.0
 40
0.2
  1
LN-1078
100
AcDbText
  0
TEXT
  5
DF
330
1238
100
AcDbEntity
  8
FG-$$$$$$$-TEXT
100
AcDbText
 10
86749.384
 20
18530.514
 30
0.0
 40
0.2
  1
LN-1080
100
AcDbText
  0
TEXT
  5
E0
330
1238
100
AcDbEntity
  8
FG-$$$$$$$-TEXT
100
AcDbText
 10
86760.309
 20
18538.605
 30
0.0
 40
0.2
  1
LN-1081
100
AcDbText
  0
TEXT
  5
E1
330
1238
100
AcDbEntity
  8
FG-$$$$$$$-TEXT
100
AcDbText
 10
86760.744
 20
18541.74699999999
 30
0.0
 40
0.2
  1
LN-1082
100
AcDbText
  0
LWPOLYLINE
  5
E2
330
1238
100
AcDbEntity
  8
PR-05B05C1-ARCH
100
AcDbPolyline
 90
        9
 70
     0
 43
0.0
 10
86761.61609808201
 20
18541.6333459035
 10
86759.54499999998
 20
18541.88399999999
 10
86758.29
 20
18542.01199999999
 10
86757.088
 20
18542.17
 10
86755.828
 20
18542.378
 10
86754.584
 20
18542.555
 10
86753.318
 20
18542.684
 10
86751.895
 20
18542.825
 10
86750.66300000002
 20
18543.044
  0
TEXT
  5
E3
330
1238
100
AcDbEntity
  8
FG-$$$$$$$-TEXT
100
AcDbText
 10
86736.361
 20
18528.79599999999
 30
0.0
 40
0.2
  1
LN-1085
100
AcDbText
  0
TEXT
  5
E4
330
1238
100
AcDbEntity
  8
FG-$$$$$$$-TEXT
100
AcDbText
 10
86735.09499999999
 20
18510.554
 30
0.0
 40
0.2
  1
LN-1092
100
AcDbText
  0
TEXT
  5
E5
330
1238
100
AcDbEntity
  8
FG-$$$$$$$-TEXT
100
AcDbText
 10
86649.90900000001
 20
18517.24899999999
 30
0.0
 40
0.2
  1
LN-1108
100
AcDbText
  0
TEXT
  5
E6
330
1238
100
AcDbEntity
  8
FG-$$$$$$$-TEXT
100
AcDbText
 10
86597.012
 20
18553.021
 30
0.0
 40
0.2
  1
LN-1109
100
AcDbText
  0
LWPOLYLINE
  5
E7
330
1238
100
AcDbEntity
  8
PR-08$$$$2-ARCH
100
AcDbPolyline
 90
       17
 70
     0
 43
0.0
 10
86596.945
 20
18553.021
 10
86596.308
 20
18551.209
 10
86595.74
 20
18549.02799999999
 10
86595.252
 20
18546.83299999999
 10
86594.83299999998
 20
18545.27899999999
 10
86594.592
 20
18544.502
 10
86593.926
 20
18541.692
 10
86593.539
 20
18540.47399999999
 10
86593.40099999998
 20
18539.649
 10
86592.775
 20
18538.056
 10
86592.343
 20
18536.127
 10
86591.972
 20
18534.381
 10
86591.52
 20
18532.675
 10
86590.945
 20
18530.7
 10
86590.641
 20
18528.95599999999
 10
86590.354
 20
18527.238
 10
86590.354
 20
18527.238
  0
TEXT
  5
E9
330
1238
100
AcDbEntity
  8
FG-$$$$$$$-TEXT
100
AcDbText
 10
86597.779
 20
18524.725
 30
0.0
 40
0.2
  1
LN-1110
100
AcDbText
  0
LWPOLYLINE
  5
EA
330
1238
100
AcDbEntity
  8
PR-08$$$$2-ARCH
100
AcDbPolyline
 90
       55
 70
     0
 43
0.0
 10
86591.97202876458
 20
18525.90052083869
 10
86600.256
 20
18524.204
 10
86601.237
 20
18523.90899999999
 10
86603.677
 20
18523.70799999999
 10
86606.588
 20
18523.097
 10
86609.317
 20
18522.685
 10
86611.745
 20
18522.123
 10
86614.844
 20
18521.567
 10
86617.793
 20
18521.122
 10
86619.542
 20
18521.238
 10
86621.577
 20
18521.024
 10
86623.057
 20
18520.86699999999
 10
86624.083
 20
18520.717
 10
86624.5802656463
 20
18520.63786787136
 10
86625.2409873643
 20
18520.58955304027
 10
86625.613
 20
18520.525
 10
86627.261
 20
18520.32
 10
86628.942
 20
18519.87
 10
86630.82199999999
 20
18519.506
 10
86632.575
 20
18519.068
 10
86635.119
 20
18518.896
 10
86637.12
 20
18518.49599999999
 10
86639.145
 20
18517.92299999999
 10
86641.809
 20
18517.541
 10
86644.188
 20
18517.105
 10
86646.253
 20
18516.71299999999
 10
86648.58885653927
 20
18516.34803489559
 10
86650.72188014779
 20
18516.12663640071
 10
86651.8365509941
 20
18515.88189134717
 10
86652.584
 20
18515.721
 10
86656.107
 20
18515.041
 10
86658.84399999998
 20
18514.68799999999
 10
86662.159
 20
18514.217
 10
86665.15099999998
 20
18513.90299999999
 10
86667.76200000002
 20
18513.588
 10
86670.183
 20
18512.979
 10
86673.089
 20
18512.65899999999
 10
86675.779
 20
18512.197
 10
86678.57600000002
 20
18511.863
 10
86681.225
 20
18511.537
 10
86684.079
 20
18511.31499999999
 10
86686.379
 20
18510.941
 10
86688.887
 20
18510.4
 10
86691.259
 20
18510.159
 10
86693.71899999998
 20
18509.82199999999
 10
86695.91999999998
 20
18509.477
 10
86697.96
 20
18509.158
 10
86700.051
 20
18508.879
 10
86702.146
 20
18508.65399999999
 10
86704.13299999999
 20
18508.539
 10
86706.01
 20
18508.169
 10
86707.805
 20
18507.793
 10
86709.367
 20
18507.553
 10
86711.12499999999
 20
18507.375
 10
86712.36
 20
18507.119
  0
TEXT
  5
EB
330
1238
100
AcDbEntity
  8
FG-$$$$$$$-TEXT
100
AcDbText
 10
86641.366
 20
18514.834
 30
0.0
 40
0.2
  1
LN-1111
100
AcDbText
  0
LWPOLYLINE
  5
EC
330
1238
100
AcDbEntity
  8
PR-99$$$$$-ARCH
100
AcDbPolyline
 90
        7
 70
     0
 43
0.0
 10
86641.61659921557
 20
18514.0543541122
 10
86640.956
 20
18515.676
 10
86640.057
 20
18516.145
 10
86638.396
 20
18516.69
 10
86636.31099999999
 20
18517.264
 10
86634.40600000002
 20
18517.74599999999
 10
86632.841
 20
18517.874
  0
TEXT
  5
ED
330
1238
100
AcDbEntity
  8
FG-$$$$$$$-TEXT
100
AcDbText
 10
86671.26900000001
 20
18510.848
 30
0.0
 40
0.2
  1
LN-1112
100
AcDbText
  0
TEXT
  5
EE
330
1238
100
AcDbEntity
  8
FG-$$$$$$$-TEXT
100
AcDbText
 10
86640.29199999999
 20
18544.745
 30
0.0
 40
0.2
  1
LN-1113
100
AcDbText
  0
LWPOLYLINE
  5
EF
330
1238
100
AcDbEntity
  8
PR-05A05B$-PROB
100
AcDbPolyline
 90
       24
 70
     0
 43
0.0
 10
86640.225
 20
18544.745
 10
86640.089
 20
18543.433
 10
86639.885
 20
18542.21099999999
 10
86639.622
 20
18541.08599999999
 10
86639.475
 20
18539.752
 10
86639.241
 20
18538.58199999999
 10
86639.009
 20
18537.81299999999
 10
86638.762
 20
18537.753
 10
86638.567
 20
18537.51499999999
 10
86638.468
 20
18537.245
 10
86638.631
 20
18536.858
 10
86638.97399999999
 20
18536.609
 10
86639.426
 20
18536.63599999999
 10
86639.739
 20
18536.803
 10
86639.812
 20
18537.074
 10
86639.583
 20
18537.285
 10
86639.338
 20
18537.47699999999
 10
86639.425
 20
18538.04799999999
 10
86639.794
 20
18539.344
 10
86639.997
 20
18540.465
 10
86640.056
 20
18541.42799999999
 10
86640.229
 20
18542.56399999999
 10
86640.48
 20
18543.61699999999
 10
86640.641
 20
18544.619
  0
LWPOLYLINE
  5
F1
330
1238
100
AcDbEntity
  8
EV-$$$$$$$-SOND
100
AcDbPolyline
 90
        7
 70
     1
 43
0.0
 10
86752.092
 20
18510.627
 10
86752.015
 20
18509.72
 10
86752.192
 20
18508.735
 10
86754.237
 20
18508.664
 10
86754.135
 20
18509.811
 10
86753.955
 20
18510.535
 10
86752.994
 20
18510.81299999999
  0
LWPOLYLINE
  5
F3
330
1238
100
AcDbEntity
  8
EV-$$$$$$$-SOND
100
AcDbPolyline
 90
       12
 70
   129
 43
0.0
 10
86748.503
 20
18491.537
 10
86749.082
 20
18496.43999999999
 10
86756.248
 20
18495.971
 10
86756.424
 20
18498.096
 10
86749.205
 20
18498.543
 10
86749.559
 20
18502.81299999999
 10
86747.89099999999
 20
18502.963
 10
86747.573
 20
18498.702
 10
86721.95
 20
18501.47899999999
 10
86721.787
 20
18499.47799999999
 10
86747.28100000002
 20
18496.67299999999
 10
86746.733
 20
18491.788
  0
LWPOLYLINE
  5
F5
330
1238
100
AcDbEntity
  8
EV-$$$$$$$-EXCAV
100
AcDbPolyline
 90
       43
 70
     0
 43
0.0
 10
86579.80200717661
 20
18528.99508685062
 10
86597.063
 20
18524.606
 10
86614.046
 20
18519.304
 10
86626.434
 20
18516.578
 10
86634.327
 20
18514.478
 10
86638.991
 20
18514.42199999999
 10
86643.226
 20
18513.829
 10
86651.549
 20
18511.462
 10
86670.812
 20
18510.606
 10
86679.275
 20
18504.359
 10
86678.853
 20
18503.27899999999
 10
86684.057
 20
18500.9
 10
86698.775
 20
18493.33
 10
86706.308
 20
18495.052
 10
86713.83399999999
 20
18496.34899999999
 10
86719.616
 20
18496.97799999999
 10
86723.773
 20
18496.679
 10
86733.105
 20
18494.686
 10
86739.938
 20
18492.472
 10
86756.044
 20
18488.10699999999
 10
86757.383
 20
18498.26799999999
 10
86757.685
 20
18509.93799999999
 10
86758.625
 20
18520.677
 10
86757.569
 20
18520.977
 10
86759.169
 20
18531.45599999999
 10
86761.636
 20
18541.48
 10
86760.534
 20
18549.971
 10
86756.468
 20
18551.70599999999
 10
86754.51500000001
 20
18553.666
 10
86747.70800000001
 20
18554.061
 10
86743.18600000002
 20
18555.668
 10
86734.622
 20
18555.414
 10
86724.444
 20
18555.38499999999
 10
86718.418
 20
18553.58599999999
 10
86717.38300000002
 20
18545.42399999999
 10
86716.16
 20
18542.997
 10
86713.941
 20
18540.441
 10
86709.237
 20
18539.276
 10
86690.194
 20
18543.114
 10
86661.214
 20
18551.83099999999
 10
86624.18200000002
 20
18561.093
 10
86594.723
 20
18569.562
 10
86579.80200717661
 20
18572.81533395148
  0
LWPOLYLINE
  5
F6
330
1238
100
AcDbEntity
  8
PR-03B$$$$-ARCH
100
AcDbPolyline
 90
        9
 70
   129
 43
0.0
 10
86728.79033526996
 20
18508.82609410812
 10
86728.76513526998
 20
18508.88629410812
 10
86728.70913526996
 20
18508.95139410812
 10
86728.62093526997
 20
18508.96679410812
 10
86728.57893526998
 20
18508.90659410812
 10
86728.58943526995
 20
18508.80159410812
 10
86728.64543526998
 20
18508.72529410812
 10
86728.71543526999
 20
18508.70289410812
 10
86728.78543526998
 20
18508.73229410813
  0
LWPOLYLINE
  5
F8
330
1238
100
AcDbEntity
  8
PR-05A05B$-ARCH
100
AcDbPolyline
 90
        9
 70
   129
 43
0.0
 10
86729.16149632113
 20
18509.04074885328
 10
86729.11414116432
 20
18509.10972959366
 10
86729.05814116434
 20
18509.17482959366
 10
86728.97578621698
 20
18509.17098799512
 10
86728.92794116432
 20
18509.13002959366
 10
86728.92691453442
 20
18509.01470057161
 10
86728.99444116432
 20
18508.94872959366
 10
86729.06444116432
 20
18508.92632959366
 10
86729.13444116431
 20
18508.95572959366
  0
LWPOLYLINE
  5
F9
330
1238
100
AcDbEntity
  8
PR-05B05C2-ARCH
100
AcDbPolyline
 90
       18
 70
     1
 43
0.0
 10
86722.869
 20
18514.362
 10
86722.76426774864
 20
18514.48401600569
 10
86722.6676424754
 20
18514.62233425129
 10
86722.56057277371
 20
18514.78936170376
 10
86722.48
 20
18514.91
 10
86722.445
 20
18515.181
 10
86722.50400000002
 20
18515.36899999999
 10
86722.603
 20
18515.472
 10
86722.859
 20
18515.549
 10
86723.0123582225
 20
18515.48878611529
 10
86723.14032059711
 20
18515.397443172
 10
86723.275
 20
18515.292
 10
86723.48900000002
 20
18515.087
 10
86723.697
 20
18514.845
 10
86723.782
 20
18514.598
 10
86723.609
 20
18514.333
 10
86723.33
 20
18514.216
 10
86723.081
 20
18514.203
  0
LWPOLYLINE
  5
FA
330
1238
100
AcDbEntity
  8
PR-05A05B$-ARCH
100
AcDbPolyline
 90
      109
 70
     0
 43
0.0
 10
86724.658
 20
18504.711
 10
86723.234
 20
18505.562
 10
86722.467
 20
18506.183
 10
86722.087
 20
18506.687
 10
86721.912
 20
18507.196
 10
86721.89066972768
 20
18507.33561728685
 10
86721.89066972768
 20
18507.57420073468
 10
86721.90658441122
 20
18507.90291679014
 10
86721.93841568631
 20
18508.24223688179
 10
86721.98085929445
 20
18508.6345748878
 10
86722.02860716108
 20
18508.98979933381
 10
86722.04200000002
 20
18509.343
 10
86722.029
 20
18510.003
 10
86722.048
 20
18510.538
 10
86722.02212375445
 20
18510.90809180465
 10
86722.00095442057
 20
18511.299464262
 10
86721.97978508667
 20
18511.65910280664
 10
86721.993
 20
18511.892
 10
86722.13199999998
 20
18512.804
 10
86722.269
 20
18513.67899999999
 10
86722.45399999998
 20
18514.596
 10
86722.48
 20
18514.91
 10
86722.55168909472
 20
18515.08272190576
 10
86722.66737344649
 20
18515.27540779397
 10
86722.859
 20
18515.549
 10
86722.96600000001
 20
18515.72499999999
 10
86723.02085839218
 20
18515.81492850759
 10
86723.10606233754
 20
18515.93824675074
 10
86723.1736382094
 20
18516.04394939719
 10
86723.24
 20
18516.17199999999
 10
86723.41599999998
 20
18516.48199999999
 10
86723.52859232025
 20
18516.77835681533
 10
86723.69569554343
 20
18517.0995003401
 10
86723.8756510995
 20
18517.3821057806
 10
86724.0
 20
18517.544
 10
86724.516
 20
18517.883
 10
86725.183
 20
18518.125
 10
86725.768
 20
18518.36
 10
86726.426
 20
18518.431
 10
86727.202
 20
18518.404
 10
86728.131
 20
18518.293
 10
86729.196
 20
18518.14
 10
86730.317
 20
18517.927
 10
86731.479
 20
18517.7
 10
86732.263
 20
18517.39099999999
 10
86733.34099999999
 20
18516.947
 10
86734.128
 20
18516.348
 10
86734.814
 20
18515.823
 10
86735.17099999999
 20
18515.22899999999
 10
86735.536
 20
18514.576
 10
86735.81399999998
 20
18513.549
 10
86735.865
 20
18512.748
 10
86735.804
 20
18511.98099999999
 10
86735.668
 20
18511.44099999999
 10
86735.523
 20
18511.24599999999
 10
86735.399
 20
18511.157
 10
86735.268
 20
18511.21299999999
 10
86735.223
 20
18511.33
 10
86735.373
 20
18511.931
 10
86735.42499999999
 20
18512.574
 10
86735.411
 20
18513.244
 10
86735.257
 20
18514.007
 10
86735.029
 20
18514.828
 10
86734.67399999998
 20
18515.451
 10
86734.192
 20
18516.01199999999
 10
86733.58
 20
18516.455
 10
86732.919
 20
18516.816
 10
86731.801
 20
18517.279
 10
86730.687
 20
18517.54899999999
 10
86729.562
 20
18517.826
 10
86728.29
 20
18517.927
 10
86727.096
 20
18517.949
 10
86726.172
 20
18517.95899999999
 10
86725.416
 20
18517.751
 10
86724.702
 20
18517.36799999999
 10
86724.36410271226
 20
18517.16372859174
 10
86724.10702361903
 20
18517.00957965452
 10
86723.9784831184
 20
18516.73981986435
 10
86723.80999999998
 20
18516.417
 10
86723.574
 20
18515.83899999999
 10
86723.275
 20
18515.292
 10
86723.16868120809
 20
18515.13410450708
 10
86723.05299494833
 20
18514.92857296855
 10
86722.92445444771
 20
18514.60743057706
 10
86722.869
 20
18514.362
 10
86722.744
 20
18513.65799999999
 10
86722.603
 20
18512.782
 10
86722.519
 20
18511.855
 10
86722.4984232728
 20
18511.45107693407
 10
86722.46314232168
 20
18511.06675683508
 10
86722.46314232168
 20
18510.76000587839
 10
86722.43599999999
 20
18510.525
 10
86722.338
 20
18509.874
 10
86722.373
 20
18509.218
 10
86722.37345074464
 20
18509.02691289381
 10
86722.33631330302
 20
18508.7406118498
 10
86722.29387160292
 20
18508.47021629343
 10
86722.25142799476
 20
18508.20512332179
 10
86722.20898629463
 20
18507.9453318016
 10
86722.18245927806
 20
18507.7067472205
 10
86722.17715501954
 20
18507.41514472504
 10
86722.188
 20
18507.18999999999
 10
86722.31100000002
 20
18506.747
 10
86722.56
 20
18506.41099999999
 10
86723.001
 20
18506.0
 10
86723.55299999999
 20
18505.578
 10
86724.013
 20
18505.26499999999
 10
86724.466
 20
18505.062
 10
86724.878
 20
18504.81999999999
  0
LWPOLYLINE
  5
FB
330
1238
100
AcDbEntity
  8
PR-05B05C2-ARCH
100
AcDbPolyline
 90
       16
 70
     1
 43
0.0
 10
86723.80999999998
 20
18516.417
 10
86723.72974964629
 20
18516.41342475214
 10
86723.612475925
 20
18516.42554850752
 10
86723.47498305712
 20
18516.4376722629
 10
86723.41599999998
 20
18516.48199999999
 10
86723.47699999998
 20
18516.893
 10
86723.648
 20
18517.217
 10
86724.0
 20
18517.544
 10
86724.13413830166
 20
18517.54094193526
 10
86724.37272690237
 20
18517.51669442451
 10
86724.54257002311
 20
18517.4641581512
 10
86724.702
 20
18517.36799999999
 10
86724.84
 20
18517.073
 10
86724.744
 20
18516.793
 10
86724.45900000002
 20
18516.543
 10
86724.144
 20
18516.411
  0
LWPOLYLINE
  5
FC
330
1238
100
AcDbEntity
  8
PR-05A05B$-ARCH
100
AcDbPolyline
 90
       11
 70
     0
 43
0.0
 10
86735.028
 20
18510.554
 10
86734.85
 20
18510.967
 10
86734.378
 20
18511.33499999999
 10
86733.918
 20
18511.77
 10
86733.34
 20
18512.17399999999
 10
86732.851
 20
18512.483
 10
86732.249
 20
18512.70799999999
 10
86731.75447458155
 20
18512.93301393931
 10
86731.267
 20
18513.08199999999
 10
86730.996
 20
18513.15199999999
 10
86730.79
 20
18513.197
  0
LWPOLYLINE
  5
FD
330
1238
100
AcDbEntity
  8
PR-05B05C1-ARCH
100
AcDbPolyline
 90
       13
 70
   129
 43
0.0
 10
86731.642
 20
18512.95599999999
 10
86731.66700000002
 20
18513.148
 10
86731.641
 20
18513.339
 10
86731.53000000001
 20
18513.448
 10
86731.377
 20
18513.487
 10
86731.279
 20
18513.36799999999
 10
86731.262
 20
18513.206
 10
86731.267
 20
18513.08199999999
 10
86731.30143938844
 20
18513.00494618133
 10
86731.35191379659
 20
18512.95810687179
 10
86731.4132066025
 20
18512.92207558757
 10
86731.50694506166
 20
18512.90045727035
 10
86731.6115019186
 20
18512.90406107874
  0
LWPOLYLINE
  5
FE
330
1238
100
AcDbEntity
  8
PR-05A$$$$-ARCH
100
AcDbPolyline
 90
       16
 70
   129
 43
0.0
 10
86734.73900000002
 20
18510.72399999999
 10
86734.78517143909
 20
18510.75672958593
 10
86734.8345754555
 20
18510.80610062753
 10
86734.82697586498
 20
18510.90484497728
 10
86734.78517143909
 20
18511.00358819376
 10
86734.6901660635
 20
18511.08334228656
 10
86734.59895762119
 20
18511.12511926528
 10
86734.48495040728
 20
18511.13651205952
 10
86734.39374387293
 20
18511.13271446144
 10
86734.32
 20
18511.077
 10
86734.30253733863
 20
18510.98839666816
 10
86734.30253733863
 20
18510.87825952417
 10
86734.35193944705
 20
18510.76812238017
 10
86734.44694673063
 20
18510.70355981297
 10
86734.54575476349
 20
18510.66178396753
 10
86734.67116422518
 20
18510.68077309121
  0
LWPOLYLINE
  5
FF
330
1238
100
AcDbEntity
  8
PR-99$$$$$-ARCH
100
AcDbPolyline
 90
       13
 70
     0
 43
0.0
 10
86744.95277695532
 20
18509.61252597627
 10
86744.945
 20
18510.15
 10
86744.766
 20
18511.172
 10
86744.74
 20
18512.061
 10
86744.673
 20
18512.811
 10
86744.718
 20
18513.113
 10
86744.792
 20
18513.168
 10
86744.879
 20
18513.01099999999
 10
86744.873
 20
18513.021
 10
86744.998
 20
18512.077
 10
86745.108
 20
18511.184
 10
86745.231
 20
18510.19299999999
 10
86745.40664691755
 20
18509.64984568575
  0
LWPOLYLINE
  5
100
330
1238
100
AcDbEntity
  8
PR-04D05A$-ARCH
100
AcDbPolyline
 90
       35
 70
   129
 43
0.0
 10
86760.90496709124
 20
18538.50964171975
 10
86759.074
 20
18538.773
 10
86757.55999999998
 20
18538.869
 10
86756.091
 20
18538.99799999999
 10
86754.753
 20
18539.206
 10
86753.54
 20
18539.355
 10
86751.955
 20
18539.501
 10
86750.822
 20
18539.65
 10
86749.83697995976
 20
18539.66723181128
 10
86748.598
 20
18539.766
 10
86747.49
 20
18539.827
 10
86746.293
 20
18539.932
 10
86745.27599999998
 20
18540.097
 10
86744.394
 20
18540.111
 10
86743.801
 20
18540.22
 10
86743.637
 20
18540.15199999999
 10
86743.494
 20
18539.97899999999
 10
86743.477
 20
18539.765
 10
86743.55
 20
18539.559
 10
86743.699
 20
18539.497
 10
86743.863
 20
18539.49499999999
 10
86743.986
 20
18539.704
 10
86744.847
 20
18539.749
 10
86745.759
 20
18539.478
 10
86746.762
 20
18539.292
 10
86747.878
 20
18539.215
 10
86748.732
 20
18538.931
 10
86749.50800000002
 20
18538.768
 10
86751.579
 20
18538.575
 10
86752.75
 20
18538.524
 10
86754.382
 20
18538.175
 10
86756.188
 20
18538.142
 10
86757.73
 20
18537.95999999999
 10
86759.122
 20
18537.81
 10
86760.67176705966
 20
18537.56209525986
  0
LWPOLYLINE
  5
101
330
1238
100
AcDbEntity
  8
PR-05B05C2-ARCH
100
AcDbPolyline
 90
       35
 70
     0
 43
0.0
 10
86758.86769611188
 20
18529.48264784779
 10
86755.83827428446
 20
18529.41224147992
 10
86754.8973467917
 20
18529.41224147992
 10
86753.38368077778
 20
18529.49400864163
 10
86752.134
 20
18529.45899999999
 10
86751.302
 20
18529.36
 10
86750.30299999999
 20
18529.431
 10
86749.48099999999
 20
18529.391
 10
86748.78999999998
 20
18529.397
 10
86747.62499999999
 20
18529.394
 10
86746.603
 20
18529.448
 10
86745.411
 20
18529.485
 10
86744.403
 20
18529.488
 10
86743.462
 20
18529.29499999999
 10
86743.067
 20
18529.13399999999
 10
86742.69
 20
18528.734
 10
86742.46
 20
18528.22399999999
 10
86742.476
 20
18526.86899999999
 10
86742.602
 20
18525.848
 10
86742.61299999998
 20
18524.90399999999
 10
86742.635
 20
18523.78299999999
 10
86742.642
 20
18522.806
 10
86743.807
 20
18519.96399999999
 10
86744.067
 20
18519.429
 10
86744.262
 20
18518.327
 10
86744.62899999999
 20
18516.686
 10
86744.744
 20
18515.65599999999
 10
86744.903
 20
18514.60099999999
 10
86745.064
 20
18513.537
 10
86745.145
 20
18512.93799999999
 10
86745.268
 20
18511.826
 10
86745.289
 20
18511.18799999999
 10
86745.42399999998
 20
18510.253
 10
86745.4837349304
 20
18508.05788961689
 10
86745.83453281639
 20
18503.9374675282
  0
LWPOLYLINE
  5
102
330
1238
100
AcDbEntity
  8
PR-08$$$$2-ARCH
100
AcDbPolyline
 90
       37
 70
     0
 43
0.0
 10
86750.337
 20
18542.208
 10
86750.337
 20
18542.208
 10
86750.256
 20
18541.31299999999
 10
86750.241
 20
18540.54899999999
 10
86750.15425475509
 20
18539.09307827242
 10
86749.982
 20
18537.734
 10
86750.01100000001
 20
18536.304
 10
86749.914
 20
18535.06399999999
 10
86749.775
 20
18534.093
 10
86749.533
 20
18533.16999999999
 10
86749.388
 20
18531.81499999999
 10
86749.317
 20
18530.514
 10
86749.29500000001
 20
18529.907
 10
86749.14861694929
 20
18528.775811176
 10
86748.925
 20
18527.483
 10
86748.789
 20
18526.60399999999
 10
86748.706
 20
18525.839
 10
86748.68679156945
 20
18525.44175464816
 10
86748.70965902925
 20
18525.06598282799
 10
86748.69845478726
 20
18524.83172901161
 10
86748.58
 20
18524.35099999999
 10
86748.5011902217
 20
18523.20893243424
 10
86748.332
 20
18521.243
 10
86748.306
 20
18520.021
 10
86748.209
 20
18518.741
 10
86748.08
 20
18517.681
 10
86747.96
 20
18516.352
 10
86747.936
 20
18515.7
 10
86747.78100000002
 20
18514.405
 10
86747.70800000001
 20
18513.124
 10
86747.59899999999
 20
18512.019
 10
86747.528
 20
18511.179
 10
86747.498
 20
18510.568
 10
86747.43600000002
 20
18508.781
 10
86747.39781859078
 20
18506.74113396227
 10
86747.636
 20
18504.489
 10
86747.68676136894
 20
18503.75477305633
  0
LWPOLYLINE
  5
103
330
1238
100
AcDbEntity
  8
PR-08$$$$2-ARCH
100
AcDbPolyline
 90
       55
 70
   128
 43
0.0
 10
86757.53962435055
 20
18504.32033831485
 10
86754.633
 20
18504.799
 10
86753.30999999998
 20
18504.889
 10
86751.98100000001
 20
18504.991
 10
86750.489
 20
18505.233
 10
86749.068
 20
18505.402
 10
86747.59899999999
 20
18505.586
 10
86747.07154372805
 20
18505.64232258619
 10
86746.63634458114
 20
18505.69835047385
 10
86745.91866123234
 20
18505.80246313817
 10
86745.51351700634
 20
18505.85451890369
 10
86745.06207118274
 20
18505.90657580248
 10
86744.588
 20
18505.93999999999
 10
86743.759
 20
18505.823
 10
86742.987
 20
18505.863
 10
86742.446
 20
18505.917
 10
86741.605
 20
18506.11999999999
 10
86740.914
 20
18506.18899999999
 10
86740.185
 20
18506.17599999999
 10
86739.346
 20
18506.27
 10
86738.297
 20
18506.356
 10
86737.421
 20
18506.409
 10
86736.593
 20
18506.594
 10
86735.894
 20
18506.576
 10
86735.70900000002
 20
18506.655
 10
86735.67
 20
18506.819
 10
86735.717
 20
18507.15399999999
 10
86735.785
 20
18507.297
 10
86736.161
 20
18507.35799999999
 10
86736.933
 20
18507.35199999999
 10
86737.684
 20
18507.35799999999
 10
86738.598
 20
18507.264
 10
86738.87677151526
 20
18507.25333599509
 10
86739.164
 20
18507.223
 10
86739.737
 20
18506.997
 10
86740.09
 20
18506.794
 10
86740.782
 20
18506.66
 10
86741.774
 20
18506.63699999999
 10
86742.778
 20
18506.753
 10
86743.45
 20
18506.912
 10
86744.287
 20
18506.85499999999
 10
86744.71480633874
 20
18506.84358978135
 10
86745.35146046073
 20
18506.8088855599
 10
86746.01705331975
 20
18506.73947711703
 10
86746.76367540554
 20
18506.71634021389
 10
86747.02527075056
 20
18506.67668698892
 10
86747.40857971499
 20
18506.63938171642
 10
86747.744
 20
18506.611
 10
86748.28760223222
 20
18506.64492361111
 10
86749.50366073643
 20
18506.48288709328
 10
86751.19600731094
 20
18506.28034172931
 10
86752.53367261955
 20
18506.15881405761
 10
86754.13069899735
 20
18505.91575758095
 10
86755.41769528114
 20
18505.73346607341
 10
86757.56698654837
 20
18505.37767887204
  0
LWPOLYLINE
  5
104
330
1238
100
AcDbEntity
  8
PR-99$$$$$-ARCH
100
AcDbPolyline
 90
       10
 70
     0
 43
0.0
 10
86750.62500000001
 20
18550.428
 10
86750.863
 20
18550.469
 10
86751.085
 20
18550.484
 10
86751.26500000001
 20
18550.47399999999
 10
86751.357
 20
18550.532
 10
86751.435
 20
18550.632
 10
86751.388
 20
18550.762
 10
86751.22400000002
 20
18550.858
 10
86750.995
 20
18550.84999999999
 10
86750.65099999998
 20
18550.815
  0
LWPOLYLINE
  5
105
330
1238
100
AcDbEntity
  8
PR-99$$$$$-ARCH
100
AcDbPolyline
 90
        7
 70
     0
 43
0.0
 10
86750.638
 20
18548.641
 10
86750.86400000002
 20
18548.71499999999
 10
86750.968
 20
18548.802
 10
86750.983
 20
18548.92299999999
 10
86750.90499999998
 20
18549.119
 10
86750.719
 20
18549.20899999999
 10
86750.525
 20
18549.19299999999
  0
LWPOLYLINE
  5
106
330
1238
100
AcDbEntity
  8
PR-99$$$$$-ARCH
100
AcDbPolyline
 90
        7
 70
   128
 43
0.0
 10
86750.62500000001
 20
18550.428
 10
86750.56776368228
 20
18550.44520274535
 10
86750.48623264972
 20
18550.50778775103
 10
86750.42951333577
 20
18550.61760871184
 10
86750.4614171151
 20
18550.76285465576
 10
86750.56185649364
 20
18550.80772773652
 10
86750.65099999998
 20
18550.815
  0
LWPOLYLINE
  5
107
330
1238
100
AcDbEntity
  8
PR-99$$$$$-ARCH
100
AcDbPolyline
 90
        9
 70
   128
 43
0.0
 10
86750.525
 20
18549.19299999999
 10
86750.4583166043
 20
18549.17717783304
 10
86750.35861562433
 20
18549.11606834891
 10
86750.33468731282
 20
18549.00181969019
 10
86750.32538387235
 20
18548.86764355768
 10
86750.36260335826
 20
18548.73745314659
 10
86750.4383760267
 20
18548.66040191008
 10
86750.59922480409
 20
18548.63648871488
 10
86750.638
 20
18548.641
  0
LWPOLYLINE
  5
108
330
1238
100
AcDbEntity
  8
PR-04D05A$-ARCH
100
AcDbPolyline
 90
       28
 70
   129
 43
0.0
 10
86720.49458324663
 20
18508.70785519814
 10
86720.49578928866
 20
18508.72034153537
 10
86720.49300000002
 20
18508.844
 10
86720.50868524038
 20
18509.19505322043
 10
86720.362
 20
18510.185
 10
86720.03385679515
 20
18511.85000945612
 10
86719.556
 20
18512.99799999999
 10
86718.979
 20
18513.71
 10
86718.472
 20
18514.346
 10
86717.98799999998
 20
18515.029
 10
86717.619
 20
18515.912
 10
86717.474
 20
18516.42299999999
 10
86717.478
 20
18516.63499999999
 10
86717.586
 20
18516.773
 10
86717.706
 20
18516.665
 10
86717.76900000001
 20
18516.451
 10
86717.836
 20
18516.147
 10
86718.10699999999
 20
18515.749
 10
86718.311
 20
18515.256
 10
86719.032
 20
18514.531
 10
86719.763
 20
18513.771
 10
86720.332
 20
18513.03099999999
 10
86720.88030578938
 20
18511.5360996134
 10
86721.29099999998
 20
18509.998
 10
86721.465
 20
18509.31499999999
 10
86721.4858517708
 20
18509.00482313499
 10
86721.45815323814
 20
18508.56192075083
 10
86721.45770963858
 20
18508.55626836953
  0
LWPOLYLINE
  5
109
330
1238
100
AcDbEntity
  8
PR-99$$$$$-ARCH
100
AcDbPolyline
 90
        3
 70
     0
 43
0.0
 10
86720.569029767
 20
18509.44862307143
 10
86721.75000000001
 20
18509.328
 10
86722.07907775322
 20
18509.27447979732
  0
LWPOLYLINE
  5
10A
330
1238
100
AcDbEntity
  8
PR-99$$$$$-ARCH
100
AcDbPolyline
 90
       20
 70
     0
 43
0.0
 10
86722.07907775322
 20
18509.27447979732
 10
86723.274
 20
18509.07
 10
86723.993
 20
18508.988
 10
86724.882
 20
18508.948
 10
86725.743
 20
18508.857
 10
86726.68599999999
 20
18508.811
 10
86727.615
 20
18508.648
 10
86728.112
 20
18508.402
 10
86728.192
 20
18508.222
 10
86728.15599999999
 20
18508.01399999999
 10
86727.971
 20
18507.972
 10
86727.60799999998
 20
18508.165
 10
86726.853
 20
18508.36
 10
86726.211
 20
18508.49
 10
86725.301
 20
18508.524
 10
86724.43600000002
 20
18508.51199999999
 10
86723.869
 20
18508.542
 10
86723.124
 20
18508.487
 10
86722.511
 20
18508.45699999999
 10
86722.39000000001
 20
18508.37
  0
LWPOLYLINE
  5
10B
330
1238
100
AcDbEntity
  8
PR-99$$$$$-ARCH
100
AcDbPolyline
 90
        5
 70
     0
 43
0.0
 10
86715.55381327526
 20
18500.91935490691
 10
86715.241
 20
18499.43799999999
 10
86714.988
 20
18498.47399999999
 10
86714.791
 20
18497.541
 10
86714.6860540772
 20
18496.44169145875
  0
LWPOLYLINE
  5
10C
330
1238
100
AcDbEntity
  8
PR-08$$$$1-ARCH
100
AcDbPolyline
 90
        8
 70
     0
 43
0.0
 10
86714.816
 20
18501.13399999999
 10
86714.56799999998
 20
18500.943
 10
86714.43599999999
 20
18500.826
 10
86714.321
 20
18500.90299999999
 10
86714.297
 20
18501.083
 10
86714.356
 20
18501.24499999999
 10
86714.484
 20
18501.349
 10
86714.525
 20
18501.469
  0
LWPOLYLINE
  5
10D
330
1238
100
AcDbEntity
  8
PR-05A05B$-ARCH
100
AcDbPolyline
 90
       11
 70
     0
 43
0.0
 10
86632.0159109772
 20
18515.09288495475
 10
86632.44745028776
 20
18516.60230510935
 10
86632.60508025788
 20
18517.07939380916
 10
86632.7942381301
 20
18517.74101563065
 10
86633.40224162409
 20
18519.52778156144
 10
86633.85261323996
 20
18521.13679474337
 10
86634.667
 20
18523.92099999999
 10
86635.32
 20
18526.416
 10
86636.23499999999
 20
18529.061
 10
86637.419
 20
18530.806
 10
86637.783
 20
18532.31899999999
  0
LWPOLYLINE
  5
10E
330
1238
100
AcDbEntity
  8
PR-05A05B$-PROB
100
AcDbPolyline
 90
       30
 70
     1
 43
0.0
 10
86633.904
 20
18521.016
 10
86636.825
 20
18520.414
 10
86640.752
 20
18519.659
 10
86644.091
 20
18519.008
 10
86648.098
 20
18518.165
 10
86651.261
 20
18517.53099999999
 10
86654.11399999999
 20
18517.032
 10
86656.465
 20
18516.705
 10
86659.066
 20
18516.583
 10
86661.714
 20
18516.03199999999
 10
86663.983
 20
18515.81799999999
 10
86664.54099999998
 20
18515.90399999999
 10
86664.372
 20
18516.112
 10
86663.087
 20
18516.24499999999
 10
86661.228
 20
18516.51999999999
 10
86658.96299999999
 20
18516.934
 10
86656.52
 20
18517.13
 10
86653.422
 20
18517.679
 10
86649.952
 20
18518.572
 10
86647.659
 20
18518.736
 10
86644.357
 20
18519.451
 10
86642.235
 20
18520.002
 10
86638.78
 20
18520.469
 10
86635.77
 20
18521.214
 10
86633.58699999998
 20
18521.505
 10
86632.858
 20
18521.675
 10
86632.686
 20
18521.644
 10
86632.57899999998
 20
18521.522
 10
86632.611
 20
18521.352
 10
86632.815
 20
18521.22999999999
  0
LWPOLYLINE
  5
10F
330
1238
100
AcDbEntity
  8
PR-05A05B$-ARCH
100
AcDbPolyline
 90
        9
 70
     0
 43
0.0
 10
86730.77776215672
 20
18512.95302754185
 10
86731.312
 20
18512.83
 10
86731.919
 20
18512.60599999999
 10
86732.601
 20
18512.307
 10
86733.243
 20
18511.95699999999
 10
86733.839
 20
18511.54499999999
 10
86734.32
 20
18511.077
 10
86734.73900000002
 20
18510.72399999999
 10
86734.79099999998
 20
18510.35399999999
  0
LWPOLYLINE
  5
110
330
1238
100
AcDbEntity
  8
PR-05A05B$-ARCH
100
AcDbPolyline
 90
        9
 70
     1
 43
0.0
 10
86730.77776215672
 20
18512.95302754185
 10
86730.82516467417
 20
18512.98145003063
 10
86730.8595316901
 20
18513.02763770816
 10
86730.87375206374
 20
18513.09395684863
 10
86730.83346068714
 20
18513.16856701493
 10
86730.79
 20
18513.197
 10
86730.63911303684
 20
18513.18869961114
 10
86730.58934077511
 20
18513.10106247082
 10
86730.61800000002
 20
18513.006
  0
LWPOLYLINE
  5
111
330
1238
100
AcDbEntity
  8
PR-05A05B$-ARCH
100
AcDbPolyline
 90
       15
 70
   129
 43
0.0
 10
86733.164
 20
18510.092
 10
86733.10089764076
 20
18509.98096336684
 10
86732.98699536722
 20
18509.89391892833
 10
86732.72569385525
 20
18509.82026637779
 10
86732.47779227405
 20
18509.81356986717
 10
86732.20979175068
 20
18509.9474842136
 10
86732.09588947715
 20
18510.09479044797
 10
86732.10199999998
 20
18510.292
 10
86732.251
 20
18510.595
 10
86732.364
 20
18510.835
 10
86732.426
 20
18511.03399999999
 10
86732.684
 20
18511.013
 10
86733.07
 20
18510.829
 10
86733.246
 20
18510.614
 10
86733.234
 20
18510.322
  0
LWPOLYLINE
  5
112
330
1238
100
AcDbEntity
  8
PR-05A05B$-ARCH
100
AcDbPolyline
 90
       14
 70
   129
 43
0.0
 10
86731.545
 20
18510.407
 10
86731.4861859492
 20
18510.28896659027
 10
86731.32538487198
 20
18510.15505224385
 10
86731.09088322156
 20
18510.10148695858
 10
86730.8630824905
 20
18510.1684441318
 10
86730.73578028621
 20
18510.27557583559
 10
86730.67999999998
 20
18510.45799999999
 10
86730.76099999998
 20
18510.766
 10
86731.046
 20
18511.08
 10
86731.245
 20
18511.306
 10
86731.525
 20
18511.41099999999
 10
86731.806
 20
18511.345
 10
86731.949
 20
18511.13999999999
 10
86731.742
 20
18510.80199999999
  0
LWPOLYLINE
  5
113
330
1238
100
AcDbEntity
  8
PR-05B05C2-ARCH
100
AcDbPolyline
 90
       11
 70
   129
 43
0.0
 10
86735.85234245964
 20
18530.22109019702
 10
86735.71
 20
18530.26299999999
 10
86735.511
 20
18530.205
 10
86735.403
 20
18530.07299999999
 10
86735.434
 20
18529.91
 10
86735.623
 20
18529.753
 10
86735.80185660344
 20
18529.62095977269
 10
86735.97019239895
 20
18529.62614449702
 10
86735.9892877296
 20
18529.81697295065
 10
86735.95746217851
 20
18530.01416246606
 10
86735.9065412968
 20
18530.16046462049
  0
LWPOLYLINE
  5
114
330
1238
100
AcDbEntity
  8
PR-99$$$$$-ARCH
100
AcDbPolyline
 90
        6
 70
     0
 43
0.0
 10
86739.008
 20
18510.056
 10
86739.252
 20
18510.109
 10
86739.375
 20
18510.31399999999
 10
86739.36000000002
 20
18510.447
 10
86739.212
 20
18510.47499999999
 10
86739.02
 20
18510.52
  0
LWPOLYLINE
  5
115
330
1238
100
AcDbEntity
  8
PR-05B05C2-ARCH
100
AcDbPolyline
 90
       54
 70
   128
 43
0.0
 10
86739.164
 20
18507.223
 10
86739.08078512728
 20
18508.97663863356
 10
86739.02670649457
 20
18510.33093849196
 10
86738.943
 20
18511.26299999999
 10
86738.624
 20
18512.377
 10
86738.49
 20
18513.77799999999
 10
86738.143
 20
18515.226
 10
86738.031
 20
18516.286
 10
86737.958
 20
18517.036
 10
86737.854
 20
18517.63899999999
 10
86737.648
 20
18518.996
 10
86737.518
 20
18520.322
 10
86737.45
 20
18520.979
 10
86737.586
 20
18521.13399999999
 10
86737.571
 20
18521.32
 10
86737.339
 20
18521.464
 10
86737.18
 20
18521.657
 10
86737.117
 20
18522.88399999999
 10
86737.012
 20
18524.155
 10
86736.787
 20
18525.70899999999
 10
86736.551
 20
18526.937
 10
86736.312
 20
18528.307
 10
86736.294
 20
18528.79599999999
 10
86736.17399999998
 20
18529.26099999999
 10
86736.056
 20
18529.689
 10
86735.962
 20
18530.055
 10
86735.888
 20
18530.237
 10
86735.83655561254
 20
18530.23952515016
 10
86735.79571854601
 20
18530.22983226554
 10
86735.76457796933
 20
18530.20687555282
 10
86735.751305875
 20
18530.15841112967
 10
86735.76100618087
 20
18530.0831640639
 10
86735.80235459318
 20
18529.92246707484
 10
86735.82992147339
 20
18529.79390857698
 10
86735.87900000002
 20
18529.615
 10
86735.941
 20
18529.15
 10
86736.05
 20
18528.677
 10
86736.073
 20
18528.336
 10
86736.203
 20
18527.24399999999
 10
86736.38700000002
 20
18526.115
 10
86736.541
 20
18524.90399999999
 10
86736.673
 20
18523.83
 10
86736.683
 20
18522.866
 10
86736.808
 20
18521.911
 10
86736.9
 20
18520.72699999999
 10
86737.073
 20
18519.484
 10
86737.227
 20
18518.211
 10
86737.41
 20
18516.758
 10
86737.535
 20
18515.221
 10
86737.699
 20
18513.719
 10
86737.836
 20
18512.26199999999
 10
86738.086
 20
18510.901
 10
86738.342
 20
18509.304
 10
86738.598
 20
18507.264
  0
LWPOLYLINE
  5
116
330
1238
100
AcDbEntity
  8
PR-99$$$$$-ARCH
100
AcDbPolyline
 90
        5
 70
   128
 43
0.0
 10
86739.02
 20
18510.52
 10
86738.87528517809
 20
18510.43902667823
 10
86738.8103919636
 20
18510.27689383218
 10
86738.85365410658
 20
18510.1579964873
 10
86739.008
 20
18510.056
  0
LWPOLYLINE
  5
117
330
1238
100
AcDbEntity
  8
PR-09$$$$$-ARCH
100
AcDbPolyline
 90
       10
 70
   129
 43
0.0
 10
86745.34393351842
 20
18506.48507548934
 10
86745.56440674073
 20
18506.41728105397
 10
86745.80183908936
 20
18506.45117861164
 10
86745.86967788453
 20
18506.62066436006
 10
86745.88663701095
 20
18506.92573829924
 10
86745.71704231262
 20
18507.06132649001
 10
86745.41177116879
 20
18507.09522404767
 10
86745.2082570729
 20
18506.94268707808
 10
86745.19129794651
 20
18506.72235567312
 10
86745.25913559688
 20
18506.56981870353
  0
LWPOLYLINE
  5
118
330
1238
100
AcDbEntity
  8
PR-05A05B$-ARCH
100
AcDbPolyline
 90
       15
 70
   128
 43
0.0
 10
86734.055
 20
18505.937
 10
86734.24
 20
18506.318
 10
86734.392
 20
18506.65
 10
86734.563
 20
18507.092
 10
86734.676
 20
18507.498
 10
86734.807
 20
18507.97399999999
 10
86734.861
 20
18508.15899999999
 10
86734.954
 20
18508.237
 10
86735.092
 20
18508.18799999999
 10
86735.142
 20
18508.052
 10
86735.088
 20
18507.824
 10
86734.909
 20
18507.257
 10
86734.699
 20
18506.699
 10
86734.429
 20
18506.248
 10
86734.184
 20
18505.91
  0
LWPOLYLINE
  5
119
330
1238
100
AcDbEntity
  8
PR-08$$$$2-ARCH
100
AcDbPolyline
 90
       25
 70
     0
 43
0.0
 10
86734.392
 20
18506.65
 10
86733.431
 20
18506.714
 10
86732.08810099398
 20
18506.76870536296
 10
86730.872
 20
18506.81499999999
 10
86729.57799999998
 20
18506.891
 10
86728.49600000001
 20
18506.859
 10
86727.562
 20
18506.945
 10
86726.965
 20
18506.94099999999
 10
86725.941
 20
18507.002
 10
86724.817
 20
18507.084
 10
86723.87500000001
 20
18507.097
 10
86722.985
 20
18507.15199999999
 10
86722.188
 20
18507.18999999999
 10
86721.494
 20
18507.19299999999
 10
86721.0805358242
 20
18507.18245316394
 10
86720.46365819122
 20
18507.22159528275
 10
86719.8271967779
 20
18507.2998783871
 10
86718.92636005385
 20
18507.42708829
 10
86717.97656387895
 20
18507.50537139434
 10
86717.317
 20
18507.549
 10
86716.724
 20
18507.431
 10
86715.975
 20
18507.328
 10
86715.063
 20
18507.396
 10
86714.198
 20
18507.413
 10
86713.563
 20
18507.323
  0
LWPOLYLINE
  5
11A
330
1238
100
AcDbEntity
  8
PR-08$$$$2-ARCH
100
AcDbPolyline
 90
       39
 70
     0
 43
0.0
 10
86712.395
 20
18508.53099999999
 10
86709.601
 20
18508.666
 10
86705.46899999998
 20
18509.13599999999
 10
86701.267
 20
18509.794
 10
86696.396
 20
18510.46499999999
 10
86691.424
 20
18511.258
 10
86686.455
 20
18511.908
 10
86681.421
 20
18512.43999999999
 10
86676.73
 20
18513.11899999999
 10
86670.90599999999
 20
18514.04
 10
86666.051
 20
18514.757
 10
86660.90099999998
 20
18515.487
 10
86656.21899999998
 20
18516.16
 10
86651.675
 20
18516.967
 10
86649.73631266403
 20
18517.29103368958
 10
86648.14814897712
 20
18517.5357798764
 10
86645.29
 20
18517.99699999999
 10
86639.699
 20
18518.981
 10
86635.89400000001
 20
18519.58
 10
86633.566
 20
18520.024
 10
86630.036
 20
18520.485
 10
86627.638
 20
18520.75999999999
 10
86626.207
 20
18520.997
 10
86625.50688717233
 20
18521.08880062855
 10
86624.55609310995
 20
18521.19348219595
 10
86624.11399999999
 20
18521.239
 10
86621.433
 20
18521.704
 10
86618.39399999999
 20
18522.2
 10
86615.589
 20
18522.968
 10
86612.646
 20
18523.43
 10
86610.457
 20
18523.894
 10
86608.316
 20
18524.411
 10
86607.0387373962
 20
18524.53005459002
 10
86604.121
 20
18524.954
 10
86601.65199999999
 20
18525.65
 10
86598.96
 20
18526.10499999999
 10
86596.23
 20
18526.452
 10
86593.67999999998
 20
18526.78099999999
 10
86591.02999999998
 20
18527.127
  0
LWPOLYLINE
  5
11B
330
1238
100
AcDbEntity
  8
PR-05A05B$-ARCH
100
AcDbPolyline
 90
       16
 70
   129
 43
0.0
 10
86625.613
 20
18520.525
 10
86626.02257176413
 20
18520.73449640028
 10
86626.207
 20
18520.997
 10
86626.215
 20
18521.726
 10
86625.96200000001
 20
18522.215
 10
86625.55
 20
18522.412
 10
86625.078
 20
18522.44199999999
 10
86624.71299999999
 20
18522.255
 10
86624.36299999998
 20
18521.666
 10
86624.11399999999
 20
18521.239
 10
86624.04040851814
 20
18520.96801525073
 10
86624.083
 20
18520.717
 10
86624.403
 20
18520.357
 10
86624.736
 20
18520.13499999999
 10
86625.128
 20
18520.043
 10
86625.352
 20
18520.281
  0
LWPOLYLINE
  5
11F
330
1238
100
AcDbEntity
  8
PR-99$$$$$-ARCH
100
AcDbPolyline
 90
       39
 70
     0
 43
0.0
 10
86647.67328237179
 20
18516.54323098366
 10
86648.944
 20
18515.802
 10
86650.105
 20
18515.366
 10
86651.725
 20
18515.091
 10
86653.702
 20
18514.61999999999
 10
86655.971
 20
18514.13499999999
 10
86657.904
 20
18513.818
 10
86659.612
 20
18513.54
 10
86661.724
 20
18513.148
 10
86663.799
 20
18512.806
 10
86666.406
 20
18512.38699999999
 10
86668.28
 20
18511.941
 10
86670.202
 20
18511.7
 10
86672.37599999999
 20
18511.593
 10
86674.331
 20
18511.226
 10
86675.764
 20
18510.934
 10
86676.963
 20
18510.72399999999
 10
86677.631
 20
18510.699
 10
86677.806
 20
18510.83199999999
 10
86677.89
 20
18511.01099999999
 10
86677.856
 20
18511.192
 10
86677.339
 20
18511.31399999999
 10
86675.87
 20
18511.65199999999
 10
86674.333
 20
18512.014
 10
86672.427
 20
18512.249
 10
86670.75699999998
 20
18512.342
 10
86669.16
 20
18512.486
 10
86667.484
 20
18512.667
 10
86665.776
 20
18513.06399999999
 10
86664.156
 20
18513.346
 10
86662.21
 20
18513.612
 10
86660.465
 20
18513.88
 10
86658.767
 20
18514.237
 10
86657.044
 20
18514.572
 10
86655.141
 20
18514.946
 10
86653.464
 20
18515.24199999999
 10
86651.666
 20
18515.63399999999
 10
86650.545
 20
18515.88
 10
86649.713
 20
18516.303
  0
LWPOLYLINE
  5
120
330
1238
100
AcDbEntity
  8
PR-08$$$$1-PROB
100
AcDbPolyline
 90
       27
 70
     0
 43
0.0
 10
86724.764
 20
18502.54899999999
 10
86723.793
 20
18502.65499999999
 10
86722.461
 20
18502.754
 10
86721.108
 20
18502.792
 10
86719.49
 20
18502.84899999999
 10
86718.063
 20
18503.007
 10
86716.713
 20
18503.10999999999
 10
86715.53000000001
 20
18503.058
 10
86715.306
 20
18502.973
 10
86712.111
 20
18503.695
 10
86710.15200000002
 20
18504.06599999999
 10
86708.30999999998
 20
18504.45799999999
 10
86706.471
 20
18504.858
 10
86704.407
 20
18505.22599999999
 10
86702.343
 20
18505.436
 10
86700.508
 20
18505.701
 10
86698.129
 20
18505.997
 10
86695.646
 20
18506.415
 10
86693.171
 20
18506.727
 10
86690.645
 20
18507.073
 10
86687.706
 20
18507.348
 10
86684.903
 20
18507.74299999999
 10
86682.29099999998
 20
18508.177
 10
86679.635
 20
18508.481
 10
86677.023
 20
18508.766
 10
86674.43200000002
 20
18509.111
 10
86672.44110972443
 20
18509.40346562111
  0
LWPOLYLINE
  5
121
330
1238
100
AcDbEntity
  8
PR-08$$$$1-ARCH
100
AcDbPolyline
 90
       48
 70
     0
 43
0.0
 10
86712.395
 20
18508.53099999999
 10
86712.548
 20
18509.887
 10
86712.808
 20
18511.195
 10
86713.103
 20
18511.81
 10
86713.564
 20
18512.162
 10
86714.27599999998
 20
18512.501
 10
86714.973
 20
18512.664
 10
86715.762
 20
18512.73199999999
 10
86716.54099999998
 20
18512.658
 10
86717.685
 20
18512.433
 10
86718.808
 20
18512.351
 10
86720.29300416762
 20
18512.17625270972
 10
86721.358
 20
18512.004
 10
86722.519
 20
18511.855
 10
86723.907
 20
18511.61
 10
86725.191
 20
18511.327
 10
86726.664
 20
18511.23
 10
86728.00699999998
 20
18510.969
 10
86729.388
 20
18510.811
 10
86730.67999999998
 20
18510.45799999999
 10
86731.545
 20
18510.407
 10
86732.10199999998
 20
18510.292
 10
86733.164
 20
18510.092
 10
86734.124
 20
18509.898
 10
86735.12099999998
 20
18509.828
 10
86736.04499999998
 20
18509.794
 10
86737.001
 20
18509.522
 10
86737.646
 20
18509.41999999999
 10
86738.93278677478
 20
18509.16692878248
 10
86740.223
 20
18508.89399999999
 10
86741.256
 20
18508.68799999999
 10
86742.47799999999
 20
18508.475
 10
86743.73499999999
 20
18508.419
 10
86744.51326741134
 20
18508.29524686324
 10
86745.14844092017
 20
18508.21189349515
 10
86745.96325897999
 20
18508.10930621639
 10
86746.7716604134
 20
18507.98107070136
 10
86747.36799999999
 20
18507.864
 10
86748.626
 20
18507.49699999999
 10
86749.898
 20
18507.168
 10
86751.376
 20
18506.837
 10
86752.92800000001
 20
18506.52
 10
86754.392
 20
18506.308
 10
86754.858
 20
18506.463
 10
86755.121
 20
18506.408
 10
86755.50000000001
 20
18506.10599999999
 10
86756.375
 20
18505.864
 10
86757.57647877574
 20
18505.7444811689
  0
LWPOLYLINE
  5
122
330
1238
100
AcDbEntity
  8
PR-99$$$$$-ARCH
100
AcDbPolyline
 90
       16
 70
     0
 43
0.0
 10
86717.669
 20
18508.467
 10
86716.95900000002
 20
18508.901
 10
86716.437
 20
18509.303
 10
86715.804
 20
18509.33
 10
86715.627
 20
18509.443
 10
86715.463
 20
18509.88399999999
 10
86715.488
 20
18510.143
 10
86715.642
 20
18510.43899999999
 10
86715.727
 20
18510.436
 10
86716.11399999999
 20
18510.18899999999
 10
86716.489
 20
18509.916
 10
86717.062
 20
18509.79799999999
 10
86717.645
 20
18509.84099999999
 10
86718.505
 20
18509.64
 10
86719.403
 20
18509.58099999999
 10
86720.569029767
 20
18509.44862307143
  0
LWPOLYLINE
  5
123
330
1238
100
AcDbEntity
  8
PR-99$$$$$-ARCH
100
AcDbPolyline
 90
        8
 70
     0
 43
0.0
 10
86730.14399999999
 20
18507.415
 10
86730.151
 20
18507.63699999999
 10
86730.153
 20
18507.879
 10
86730.381
 20
18508.02
 10
86730.595
 20
18508.11
 10
86730.771
 20
18508.06299999999
 10
86730.964
 20
18507.70599999999
 10
86731.12017112378
 20
18507.51573404336
  0
LWPOLYLINE
  5
124
330
1238
100
AcDbEntity
  8
PR-08$$$$2-ARCH
100
AcDbPolyline
 90
       30
 70
     0
 43
0.0
 10
86713.63599999998
 20
18508.63399999999
 10
86714.92
 20
18508.53199999999
 10
86716.029
 20
18508.52
 10
86716.928
 20
18508.51
 10
86717.669
 20
18508.467
 10
86718.35843996373
 20
18508.53283869712
 10
86719.0242770476
 20
18508.63069229424
 10
86719.447
 20
18508.687
 10
86719.644
 20
18508.636
 10
86720.08400000002
 20
18508.686
 10
86720.47894072905
 20
18508.70996485006
 10
86721.13928525725
 20
18508.62090648122
 10
86721.7659547804
 20
18508.49369657831
 10
86722.39000000001
 20
18508.37
 10
86722.641
 20
18508.24
 10
86723.493
 20
18508.07
 10
86724.674
 20
18508.0
 10
86725.73899999999
 20
18507.88599999999
 10
86726.933
 20
18507.765
 10
86728.051
 20
18507.549
 10
86728.895
 20
18507.487
 10
86730.01199999999
 20
18507.31399999999
 10
86730.64099814738
 20
18507.40080655407
 10
86731.67799999999
 20
18507.534
 10
86731.926
 20
18507.66
 10
86732.187
 20
18507.595
 10
86732.415
 20
18507.609
 10
86732.755
 20
18507.34899999999
 10
86733.58699999998
 20
18507.322
 10
86734.563
 20
18507.092
  0
LWPOLYLINE
  5
125
330
1238
100
AcDbEntity
  8
PR-99$$$$$-ARCH
100
AcDbPolyline
 90
        8
 70
     0
 43
0.0
 10
86732.384
 20
18506.73
 10
86732.304
 20
18506.598
 10
86732.186
 20
18506.422
 10
86732.01500000001
 20
18506.40699999999
 10
86731.89800000002
 20
18506.456
 10
86731.88300000002
 20
18506.588
 10
86731.93900000001
 20
18506.645
 10
86731.895
 20
18506.766
  0
LWPOLYLINE
  5
126
330
1238
100
AcDbEntity
  8
PR-99$$$$$-ARCH
100
AcDbPolyline
 90
        6
 70
   128
 43
0.0
 10
86730.14399999999
 20
18507.415
 10
86730.2384926946
 20
18507.22841532013
 10
86730.48766310024
 20
18507.16137428471
 10
86730.8805846356
 20
18507.14221970316
 10
86731.09142127943
 20
18507.26672448323
 10
86731.12017112378
 20
18507.51573404336
  0
LWPOLYLINE
  5
127
330
1238
100
AcDbEntity
  8
PR-99$$$$$-ARCH
100
AcDbPolyline
 90
        6
 70
   128
 43
0.0
 10
86732.384
 20
18506.73
 10
86732.40435500574
 20
18506.92194201535
 10
86732.24143604113
 20
18507.00813763232
 10
86732.02101738784
 20
18506.99856034155
 10
86731.90601419446
 20
18506.9027874338
 10
86731.895
 20
18506.766
  0
LWPOLYLINE
  5
128
330
1238
100
AcDbEntity
  8
PR-08$$$$1-ARCH
100
AcDbPolyline
 90
       18
 70
     0
 43
0.0
 10
86713.563
 20
18507.323
 10
86713.574
 20
18506.661
 10
86713.551
 20
18506.093
 10
86713.774
 20
18505.444
 10
86713.66392123132
 20
18504.5133015497
 10
86713.6018575907
 20
18503.78968289125
 10
86713.51910543386
 20
18503.08673853355
 10
86713.49841691768
 20
18502.38379530912
 10
86713.41566476088
 20
18501.84624989047
 10
86713.285
 20
18501.325
 10
86713.55999999998
 20
18501.036
 10
86713.854
 20
18500.9
 10
86713.978
 20
18500.636
 10
86713.934
 20
18500.341
 10
86713.696
 20
18499.58099999999
 10
86713.6
 20
18498.49599999999
 10
86713.541
 20
18497.61699999999
 10
86713.5205669898
 20
18496.2949842394
  0
LWPOLYLINE
  5
129
330
1238
100
AcDbEntity
  8
PR-99$$$$$-ARCH
100
AcDbPolyline
 90
       10
 70
     0
 43
0.0
 10
86715.603
 20
18505.251
 10
86715.767
 20
18505.836
 10
86715.972
 20
18506.196
 10
86716.238
 20
18506.35399999999
 10
86716.706
 20
18506.38499999999
 10
86717.093
 20
18506.399
 10
86717.24
 20
18506.567
 10
86717.185
 20
18506.846
 10
86717.288
 20
18507.177
 10
86717.31583060553
 20
18507.53399949182
  0
LWPOLYLINE
  5
12A
330
1238
100
AcDbEntity
  8
PR-99$$$$$-ARCH
100
AcDbPolyline
 90
        6
 70
     0
 43
0.0
 10
86714.525
 20
18501.469
 10
86714.249
 20
18501.732
 10
86714.066
 20
18501.68799999999
 10
86713.884
 20
18501.722
 10
86713.609
 20
18501.616
 10
86713.285
 20
18501.325
  0
LWPOLYLINE
  5
12B
330
1238
100
AcDbEntity
  8
PR-08$$$$1-ARCH
100
AcDbPolyline
 90
       24
 70
     0
 43
0.0
 10
86715.26099999998
 20
18502.307
 10
86715.63
 20
18502.337
 10
86716.17799999999
 20
18502.488
 10
86716.642
 20
18502.58099999999
 10
86717.227
 20
18502.325
 10
86717.586
 20
18502.01399999999
 10
86717.54599999999
 20
18501.788
 10
86717.623
 20
18501.585
 10
86717.846
 20
18501.67499999999
 10
86718.223
 20
18501.484
 10
86718.29499999998
 20
18501.292
 10
86718.153
 20
18500.95699999999
 10
86717.888
 20
18500.658
 10
86717.364
 20
18500.733
 10
86717.273
 20
18500.87
 10
86717.131
 20
18500.883
 10
86717.066
 20
18500.695
 10
86717.066
 20
18500.52799999999
 10
86716.766
 20
18500.399
 10
86716.471
 20
18500.343
 10
86716.211
 20
18500.471
 10
86715.933
 20
18500.487
 10
86715.645
 20
18500.458
 10
86715.438
 20
18500.33
  0
LWPOLYLINE
  5
12C
330
1238
100
AcDbEntity
  8
PR-08$$$$1-ARCH
100
AcDbPolyline
 90
        9
 70
   128
 43
0.0
 10
86714.816
 20
18501.13399999999
 10
86715.00676296199
 20
18501.13108204936
 10
86715.03056916106
 20
18500.98356955928
 10
86715.00200057737
 20
18500.83129732228
 10
86715.02580868446
 20
18500.67902621855
 10
86715.07342489864
 20
18500.5410298225
 10
86715.2210321098
 20
18500.39351619915
 10
86715.34007073726
 20
18500.34117258227
 10
86715.438
 20
18500.33
  0
LWPOLYLINE
  5
12D
330
1238
100
AcDbEntity
  8
PR-08$$$$1-ARCH
100
AcDbPolyline
 90
        7
 70
   128
 43
0.0
 10
86714.525
 20
18501.469
 10
86714.59250609617
 20
18501.71161818218
 10
86714.66869089408
 20
18501.85913180554
 10
86714.74963807657
 20
18501.99712820159
 10
86714.91629291823
 20
18502.13988207801
 10
86715.0639001294
 20
18502.2207773768
 10
86715.26099999998
 20
18502.307
  0
LWPOLYLINE
  5
12E
330
1238
100
AcDbEntity
  8
PR-99$$$$$-ARCH
100
AcDbPolyline
 90
        6
 70
   128
 43
0.0
 10
86717.31583060553
 20
18507.53399949182
 10
86717.45326353745
 20
18507.79296471591
 10
86717.59434355496
 20
18507.96416598242
 10
86717.66488410743
 20
18508.13536724893
 10
86717.7152697503
 20
18508.27635645125
 10
86717.669
 20
18508.467
  0
LWPOLYLINE
  5
12F
330
1238
100
AcDbEntity
  8
PR-99$$$$$-ARCH
100
AcDbPolyline
 90
        7
 70
   128
 43
0.0
 10
86720.50409648402
 20
18508.96842921569
 10
86720.87949812661
 20
18508.82314975922
 10
86721.02057814409
 20
18508.67208976118
 10
86721.3732787316
 20
18508.52102976314
 10
86721.76628805086
 20
18508.42032309779
 10
86722.1492199153
 20
18508.36996976511
 10
86722.39000000001
 20
18508.37
  0
LWPOLYLINE
  5
130
330
1238
100
AcDbEntity
  8
PR-99$$$$$-ARCH
100
AcDbPolyline
 90
        4
 70
   128
 43
0.0
 10
86719.47877214398
 20
18508.60060170971
 10
86719.57954397344
 20
18508.46968298015
 10
86719.71054707986
 20
18508.1776337798
 10
86719.88185891807
 20
18507.80501918258
  0
LWPOLYLINE
  5
131
330
1238
100
AcDbEntity
  8
PR-99$$$$$-ARCH
100
AcDbPolyline
 90
        4
 70
   128
 43
0.0
 10
86720.388
 20
18504.434
 10
86720.27486823733
 20
18504.67006528545
 10
86720.30509951428
 20
18505.06282115116
 10
86720.44617953179
 20
18505.5764249507
  0
LWPOLYLINE
  5
132
330
1238
100
AcDbEntity
  8
PR-99$$$$$-ARCH
100
AcDbPolyline
 90
        6
 70
   128
 43
0.0
 10
86714.525
 20
18501.469
 10
86714.84687853741
 20
18501.46985210237
 10
86715.02826783045
 20
18501.59933233138
 10
86715.19238140895
 20
18501.86692411566
 10
86715.25284450664
 20
18502.0395642057
 10
86715.26099999998
 20
18502.307
  0
LWPOLYLINE
  5
133
330
1238
100
AcDbEntity
  8
PR-99$$$$$-ARCH
100
AcDbPolyline
 90
        4
 70
   128
 43
0.0
 10
86712.111
 20
18503.695
 10
86712.19514580628
 20
18503.5070036791
 10
86712.1865082209
 20
18503.24804386702
 10
86712.22969614783
 20
18503.05813983258
  0
LWPOLYLINE
  5
134
330
1238
100
AcDbEntity
  8
PR-99$$$$$-ARCH
100
AcDbPolyline
 90
        3
 70
   128
 43
0.0
 10
86713.285
 20
18501.325
 10
86713.06754029865
 20
18501.38353205735
 10
86712.70476225636
 20
18501.59070003621
  0
LWPOLYLINE
  5
135
330
1238
100
AcDbEntity
  8
PR-99$$$$$-ARCH
100
AcDbPolyline
 90
        4
 70
   128
 43
0.0
 10
86632.841
 20
18517.874
 10
86631.9795210866
 20
18517.31842856228
 10
86631.5510435634
 20
18516.39065933227
 10
86631.22465664006
 20
18515.30340492283
  0
TEXT
  5
138
330
1238
100
AcDbEntity
  8
PR-05A05B$-TEXT
100
AcDbText
 10
86729.47751894032
 20
18508.82428459624
 30
0.0
 40
0.2715124584065052
  1
2505
100
AcDbText
  0
TEXT
  5
13C
330
1238
100
AcDbEntity
  8
PR-05A$$$$-TEXT
100
AcDbText
 10
86735.18220959695
 20
18510.38163032745
 30
0.0
 40
0.2715124584065052
  1
2013
100
AcDbText
  0
TEXT
  5
13E
330
1238
100
AcDbEntity
  8
PR-05B05C1-TEXT
100
AcDbText
 10
86730.43688308483
 20
18513.66356579462
 30
0.0
 40
0.2715124584065052
  1
2536
100
AcDbText
  0
TEXT
  5
140
330
1238
100
AcDbEntity
  8
PR-05A05B$-TEXT
100
AcDbText
 10
86723.79852723239
 20
18515.59934427745
 30
0.0
 40
0.2715124584065052
  1
2340
100
AcDbText
  0
TEXT
  5
141
330
1238
100
AcDbEntity
  8
PR-05C$$$1-TEXT
100
AcDbText
 10
86719.83253213081
 20
18518.40646520259
 30
0.0
 40
0.2715124584065052
  1
2124
100
AcDbText
  0
TEXT
  5
144
330
1238
100
AcDbEntity
  8
PR-05A$$$$-TEXT
100
AcDbText
 10
86739.29373989954
 20
18510.77234898565
 30
0.0
 40
0.2715124584065052
  1
2304
100
AcDbText
  0
TEXT
  5
146
330
1238
100
AcDbEntity
  8
PR-05A05B$-TEXT
100
AcDbText
 10
86742.02339780529
 20
18510.52539282456
 30
0.0
 40
0.2715124584065052
  1
2108
100
AcDbText
  0
TEXT
  5
147
330
1238
100
AcDbEntity
  8
PR-05A05B$-TEXT
100
AcDbText
 10
86738.562744787
 20
18520.79096428314
 30
0.0
 40
0.2715124584065052
  1
2510
100
AcDbText
  0
TEXT
  5
148
330
1238
100
AcDbEntity
  8
PR-05B05C1-TEXT
100
AcDbText
 10
86749.642453498
 20
18515.7816568001
 30
0.0
 40
0.2715124584065052
  1
2118
100
AcDbText
  0
TEXT
  5
149
330
1238
100
AcDbEntity
  8
PR-05A05B$-TEXT
100
AcDbText
 10
86748.49374665349
 20
18518.59939259072
 30
0.0
 40
0.2715124584065052
  1
Group 5008
100
AcDbText
  0
TEXT
  5
14A
330
1238
100
AcDbEntity
  8
PR-05B05C1-TEXT
100
AcDbText
 10
86739.16485576928
 20
18523.35440606034
 30
0.0
 40
0.2715124584065052
  1
2542
100
AcDbText
  0
TEXT
  5
14B
330
1238
100
AcDbEntity
  8
PR-05A05B$-TEXT
100
AcDbText
 10
86739.5129486003
 20
18527.91148465337
 30
0.0
 40
0.2715124584065052
  1
2216
100
AcDbText
  0
TEXT
  5
14C
330
1238
100
AcDbEntity
  8
PR-05B05C2-TEXT
100
AcDbText
 10
86734.21853849577
 20
18519.21930459394
 30
0.0
 40
0.2715124584065052
  1
Group 5012
100
AcDbText
  0
TEXT
  5
14E
330
1238
100
AcDbEntity
  8
PR-04B04C$-TEXT
100
AcDbText
 10
86752.12000411913
 20
18543.45208726061
 30
0.0
 40
0.6516299001756125
  1
2244
100
AcDbText
  0
TEXT
  5
14F
330
1238
100
AcDbEntity
  8
PR-05B05C2-TEXT
100
AcDbText
 10
86751.54160792632
 20
18529.72977313168
 30
0.0
 40
0.2715124584065052
  1
Group 5004
100
AcDbText
  0
TEXT
  5
150
330
1238
100
AcDbEntity
  8
PR-05B05C1-TEXT
100
AcDbText
 10
86739.89968966453
 20
18513.43971906721
 30
0.0
 40
0.2715124584065052
  1
Group 5003
100
AcDbText
  0
TEXT
  5
151
330
1238
100
AcDbEntity
  8
PR-05C$$$2-TEXT
100
AcDbText
 10
86751.63400418396
 20
18507.48751648766
 30
0.0
 40
0.2715124584065052
  1
2006
100
AcDbText
  0
TEXT
  5
153
330
1238
100
AcDbEntity
  8
PR-09$$$$$-TEXT
100
AcDbText
 10
86744.63820180226
 20
18506.05374307896
 30
0.0
 40
0.2715124584065052
  1
2201
100
AcDbText
  0
TEXT
  5
155
330
1238
100
AcDbEntity
  8
PR-05A05B$-TEXT
100
AcDbText
 10
86731.2242926082
 20
18518.03753117922
 30
0.0
 40
0.2715124584065052
  1
Group 5007
100
AcDbText
  0
TEXT
  5
158
330
1238
100
AcDbEntity
  8
PR-08$$$$1-TEXT
100
AcDbText
 10
86732.09625733604
 20
18511.21943990462
 30
0.0
 40
0.2715124584065052
  1
2531
100
AcDbText
  0
TEXT
  5
159
330
1238
100
AcDbEntity
  8
PR-05B05C2-TEXT
100
AcDbText
 10
86743.43514153265
 20
18552.31584857508
 30
0.0
 40
0.2715124584065052
  1
2037
100
AcDbText
  0
TEXT
  5
15A
330
1238
100
AcDbEntity
  8
PR-05B05C1-TEXT
100
AcDbText
 10
86729.9598428415
 20
18511.01365414926
 30
0.0
 40
0.2715124584065052
  1
2405
100
AcDbText
  0
TEXT
  5
15B
330
1238
100
AcDbEntity
  8
PR-05A$$$$-TEXT
100
AcDbText
 10
86754.53900927777
 20
18539.474771927
 30
0.0
 40
0.2715124584065052
  1
Group 5013
100
AcDbText
  0
TEXT
  5
15C
330
1238
100
AcDbEntity
  8
PR-05C$$$1-TEXT
100
AcDbText
 10
86687.95070439453
 20
18512.2747229767
 30
0.0
 40
0.2715124584065052
  1
Group 5010
100
AcDbText
  0
TEXT
  5
15D
330
1238
100
AcDbEntity
  8
PR-08$$$$1-TEXT
100
AcDbText
 10
86711.49842994961
 20
18512.72921096676
 30
0.0
 40
0.2715124584065052
  1
Group 5006
100
AcDbText
  0
TEXT
  5
15E
330
1238
100
AcDbEntity
  8
PR-99$$$$$-TEXT
100
AcDbText
 10
86717.24761862947
 20
18500.18184051668
 30
0.0
 40
0.2715124584065052
  1
2424
100
AcDbText
  0
TEXT
  5
160
330
1238
100
AcDbEntity
  8
PR-08$$$$1-TEXT
100
AcDbText
 10
86736.97088561657
 20
18501.4659240223
 30
0.0
 40
0.2715124584065052
  1
Quarry 2522
100
AcDbText
  0
TEXT
  5
161
330
1238
100
AcDbEntity
  8
PR-08$$$$2-TEXT
100
AcDbText
 10
86593.11719908025
 20
18533.52839499306
 30
0.0
 40
0.2715124584065052
  1
2439
100
AcDbText
  0
TEXT
  5
163
330
1238
100
AcDbEntity
  8
PR-07$$$$$-TEXT
100
AcDbText
 10
86590.33587454988
 20
18543.07600109743
 30
0.0
 40
0.2715124584065052
  1
2437
100
AcDbText
  0
TEXT
  5
167
330
1238
100
AcDbEntity
  8
PR-99$$$$$-TEXT
100
AcDbText
 10
86716.92119675424
 20
18499.65990232839
 30
0.0
 40
0.2715124584065052
  1
2421
100
AcDbText
  0
LWPOLYLINE
  5
168
330
1238
100
AcDbEntity
  8
PR-05A05B$-PROB
100
AcDbPolyline
 90
       24
 70
   129
 43
0.0
 10
86632.92167232923
 20
18543.7272136055
 10
86632.73739707227
 20
18543.86114551992
 10
86632.5698744763
 20
18543.7272136055
 10
86632.46936080405
 20
18543.35890067053
 10
86632.40235188037
 20
18542.83991475762
 10
86632.33534238322
 20
18542.40463620607
 10
86632.30183820814
 20
18541.83542539948
 10
86632.25158137198
 20
18541.36666403963
 10
86632.20132453585
 20
18540.86441919024
 10
86632.11756295113
 20
18540.31195046904
 10
86632.03380136641
 20
18539.77622281137
 10
86631.96679244273
 20
18539.24049515369
 10
86631.89978294558
 20
18538.92240677178
 10
86631.84952610944
 20
18538.43690366717
 10
86632.01704927887
 20
18538.01836651976
 10
86632.23482871093
 20
18538.10207422174
 10
86632.38559921934
 20
18538.36993805058
 10
86632.38559921934
 20
18538.87218255934
 10
86632.43585605548
 20
18539.80970561966
 10
86632.5196176402
 20
18540.52958974482
 10
86632.62013131246
 20
18541.28295633765
 10
86632.72064498473
 20
18542.20373833444
 10
86632.87141549314
 20
18543.02407122511
 10
86632.97192916539
 20
18543.45934977666
  0
LWPOLYLINE
  5
169
330
1238
100
AcDbEntity
  8
PR-05A05B$-PROB
100
AcDbPolyline
 90
       12
 70
   129
 43
0.0
 10
86611.87184363004
 20
18542.3682035807
 10
86612.01405199859
 20
18542.46971543847
 10
86612.09531375964
 20
18542.79455331525
 10
86612.19689124767
 20
18543.22090339042
 10
86612.23752212817
 20
18543.50513666032
 10
86612.2984687357
 20
18543.7893695896
 10
86612.19689124767
 20
18543.89088144739
 10
86611.93279023757
 20
18543.80967223366
 10
86611.85152847652
 20
18543.48483401627
 10
86611.810897596
 20
18543.13969383607
 10
86611.68900438097
 20
18542.77425101181
 10
86611.68900438097
 20
18542.55092499282
  0
TEXT
  5
16A
330
1238
100
AcDbEntity
  8
PR-05A05B$-TEXT
100
AcDbText
 10
86729.88497878447
 20
18512.01018770753
 30
0.0
 40
0.2715124584065052
  1
Group 5002
100
AcDbText
  0
TEXT
  5
16B
330
1238
100
AcDbEntity
  8
FG-$$$$$$$-OSBASE
100
AcDbText
 10
86589.7698996297
 20
18479.87880172175
 30
0.0
 40
1.0
  1
Ashford to Folkestone Railway
 50
342.1631477756751
  7
WESSEX
 11
86589.67921919475
 21
18479.59698812183
 31
0.0
100
AcDbText
 73
     1
  0
LINE
  5
17A
330
1238
100
AcDbEntity
  8
FG-$$$$$$$-OSBASE
  6
Continuous
100
AcDbLine
 10
86580.52290000003
 20
18506.9688
 30
0.0
 11
86581.1084
 21
18506.7678
 31
0.0
  0
LINE
  5
17B
330
1238
100
AcDbEntity
  8
FG-$$$$$$$-OSBASE
  6
Continuous
100
AcDbLine
 10
86581.1084
 20
18506.7678
 30
0.0
 11
86580.41180000002
 21
18505.6811
 31
0.0
  0
LINE
  5
17C
330
1238
100
AcDbEntity
  8
FG-$$$$$$$-OSBASE
  6
Continuous
100
AcDbLine
 10
86580.41180000002
 20
18505.6811
 30
0.0
 11
86580.5191
 21
18506.96689999999
 31
0.0
  0
LINE
  5
17D
330
1238
100
AcDbEntity
  8
FG-$$$$$$$-OSBASE
  6
Continuous
100
AcDbLine
 10
86582.1781
 20
18506.4006
 30
0.0
 11
86582.76350000002
 21
18506.1996
 31
0.0
  0
LINE
  5
17E
330
1238
100
AcDbEntity
  8
FG-$$$$$$$-OSBASE
  6
Continuous
100
AcDbLine
 10
86582.76350000002
 20
18506.1996
 30
0.0
 11
86582.067
 21
18505.1129
 31
0.0
  0
LINE
  5
17F
330
1238
100
AcDbEntity
  8
FG-$$$$$$$-OSBASE
  6
Continuous
100
AcDbLine
 10
86582.067
 20
18505.1129
 30
0.0
 11
86582.1743
 21
18506.3987
 31
0.0
  0
LINE
  5
180
330
1238
100
AcDbEntity
  8
FG-$$$$$$$-OSBASE
  6
Continuous
100
AcDbLine
 10
86583.83329999998
 20
18505.83239999999
 30
0.0
 11
86584.4187
 21
18505.6314
 31
0.0
  0
LINE
  5
181
330
1238
100
AcDbEntity
  8
FG-$$$$$$$-OSBASE
  6
Continuous
100
AcDbLine
 10
86584.4187
 20
18505.6314
 30
0.0
 11
86583.7222
 21
18504.5447
 31
0.0
  0
LINE
  5
182
330
1238
100
AcDbEntity
  8
FG-$$$$$$$-OSBASE
  6
Continuous
100
AcDbLine
 10
86583.7222
 20
18504.5447
 30
0.0
 11
86583.8295
 21
18505.8305
 31
0.0
  0
LINE
  5
183
330
1238
100
AcDbEntity
  8
FG-$$$$$$$-OSBASE
  6
Continuous
100
AcDbLine
 10
86585.4885
 20
18505.2642
 30
0.0
 11
86586.0739
 21
18505.0632
 31
0.0
  0
LINE
  5
184
330
1238
100
AcDbEntity
  8
FG-$$$$$$$-OSBASE
  6
Continuous
100
AcDbLine
 10
86586.0739
 20
18505.0632
 30
0.0
 11
86585.3773
 21
18503.9765
 31
0.0
  0
LINE
  5
185
330
1238
100
AcDbEntity
  8
FG-$$$$$$$-OSBASE
  6
Continuous
100
AcDbLine
 10
86585.3773
 20
18503.9765
 30
0.0
 11
86585.48460000003
 21
18505.2623
 31
0.0
  0
LINE
  5
186
330
1238
100
AcDbEntity
  8
FG-$$$$$$$-OSBASE
  6
Continuous
100
AcDbLine
 10
86587.14360000001
 20
18504.696
 30
0.0
 11
86587.72910000001
 21
18504.495
 31
0.0
  0
LINE
  5
187
330
1238
100
AcDbEntity
  8
FG-$$$$$$$-OSBASE
  6
Continuous
100
AcDbLine
 10
86587.72910000001
 20
18504.495
 30
0.0
 11
86587.0325
 21
18503.4083
 31
0.0
  0
LINE
  5
188
330
1238
100
AcDbEntity
  8
FG-$$$$$$$-OSBASE
  6
Continuous
100
AcDbLine
 10
86587.0325
 20
18503.4083
 30
0.0
 11
86587.1398
 21
18504.6941
 31
0.0
  0
LINE
  5
189
330
1238
100
AcDbEntity
  8
FG-$$$$$$$-OSBASE
  6
Continuous
100
AcDbLine
 10
86588.7988
 20
18504.1278
 30
0.0
 11
86589.3843
 21
18503.9268
 31
0.0
  0
LINE
  5
18A
330
1238
100
AcDbEntity
  8
FG-$$$$$$$-OSBASE
  6
Continuous
100
AcDbLine
 10
86589.3843
 20
18503.9268
 30
0.0
 11
86588.68770000001
 21
18502.8401
 31
0.0
  0
LINE
  5
18B
330
1238
100
AcDbEntity
  8
FG-$$$$$$$-OSBASE
  6
Continuous
100
AcDbLine
 10
86588.68770000001
 20
18502.8401
 30
0.0
 11
86588.79499999998
 21
18504.12589999999
 31
0.0
  0
LINE
  5
18C
330
1238
100
AcDbEntity
  8
FG-$$$$$$$-OSBASE
  6
Continuous
100
AcDbLine
 10
86590.454
 20
18503.5596
 30
0.0
 11
86591.0395
 21
18503.35859999999
 31
0.0
  0
LINE
  5
18D
330
1238
100
AcDbEntity
  8
FG-$$$$$$$-OSBASE
  6
Continuous
100
AcDbLine
 10
86591.0395
 20
18503.35859999999
 30
0.0
 11
86590.3429
 21
18502.2719
 31
0.0
  0
LINE
  5
18E
330
1238
100
AcDbEntity
  8
FG-$$$$$$$-OSBASE
  6
Continuous
100
AcDbLine
 10
86590.3429
 20
18502.2719
 30
0.0
 11
86590.4502
 21
18503.5577
 31
0.0
  0
LINE
  5
18F
330
1238
100
AcDbEntity
  8
FG-$$$$$$$-OSBASE
  6
Continuous
100
AcDbLine
 10
86592.1092
 20
18502.9914
 30
0.0
 11
86592.69470000001
 21
18502.7904
 31
0.0
  0
LINE
  5
190
330
1238
100
AcDbEntity
  8
FG-$$$$$$$-OSBASE
  6
Continuous
100
AcDbLine
 10
86592.69470000001
 20
18502.7904
 30
0.0
 11
86591.9981
 21
18501.7037
 31
0.0
  0
LINE
  5
191
330
1238
100
AcDbEntity
  8
FG-$$$$$$$-OSBASE
  6
Continuous
100
AcDbLine
 10
86591.9981
 20
18501.7037
 30
0.0
 11
86592.1054
 21
18502.98949999999
 31
0.0
  0
LINE
  5
192
330
1238
100
AcDbEntity
  8
FG-$$$$$$$-OSBASE
  6
Continuous
100
AcDbLine
 10
86593.7644
 20
18502.4232
 30
0.0
 11
86594.34990000002
 21
18502.2222
 31
0.0
  0
LINE
  5
193
330
1238
100
AcDbEntity
  8
FG-$$$$$$$-OSBASE
  6
Continuous
100
AcDbLine
 10
86594.34990000002
 20
18502.2222
 30
0.0
 11
86593.6533
 21
18501.1355
 31
0.0
  0
LINE
  5
194
330
1238
100
AcDbEntity
  8
FG-$$$$$$$-OSBASE
  6
Continuous
100
AcDbLine
 10
86593.6533
 20
18501.1355
 30
0.0
 11
86593.76060000001
 21
18502.4213
 31
0.0
  0
LINE
  5
195
330
1238
100
AcDbEntity
  8
FG-$$$$$$$-OSBASE
  6
Continuous
100
AcDbLine
 10
86595.41960000002
 20
18501.855
 30
0.0
 11
86596.005
 21
18501.654
 31
0.0
  0
LINE
  5
196
330
1238
100
AcDbEntity
  8
FG-$$$$$$$-OSBASE
  6
Continuous
100
AcDbLine
 10
86596.005
 20
18501.654
 30
0.0
 11
86595.30849999998
 21
18500.5673
 31
0.0
  0
LINE
  5
197
330
1238
100
AcDbEntity
  8
FG-$$$$$$$-OSBASE
  6
Continuous
100
AcDbLine
 10
86595.30849999998
 20
18500.5673
 30
0.0
 11
86595.4158
 21
18501.8531
 31
0.0
  0
LINE
  5
198
330
1238
100
AcDbEntity
  8
FG-$$$$$$$-OSBASE
  6
Continuous
100
AcDbLine
 10
86597.07479999999
 20
18501.2868
 30
0.0
 11
86597.66020000001
 21
18501.0858
 31
0.0
  0
LINE
  5
199
330
1238
100
AcDbEntity
  8
FG-$$$$$$$-OSBASE
  6
Continuous
100
AcDbLine
 10
86597.66020000001
 20
18501.0858
 30
0.0
 11
86596.9637
 21
18499.9991
 31
0.0
  0
LINE
  5
19A
330
1238
100
AcDbEntity
  8
FG-$$$$$$$-OSBASE
  6
Continuous
100
AcDbLine
 10
86596.9637
 20
18499.9991
 30
0.0
 11
86597.07100000003
 21
18501.2849
 31
0.0
  0
LINE
  5
19B
330
1238
100
AcDbEntity
  8
FG-$$$$$$$-OSBASE
  6
Continuous
100
AcDbLine
 10
86598.73000000001
 20
18500.7186
 30
0.0
 11
86599.3154
 21
18500.51759999999
 31
0.0
  0
LINE
  5
19C
330
1238
100
AcDbEntity
  8
FG-$$$$$$$-OSBASE
  6
Continuous
100
AcDbLine
 10
86599.3154
 20
18500.51759999999
 30
0.0
 11
86598.61880000001
 21
18499.4309
 31
0.0
  0
LINE
  5
19D
330
1238
100
AcDbEntity
  8
FG-$$$$$$$-OSBASE
  6
Continuous
100
AcDbLine
 10
86598.61880000001
 20
18499.4309
 30
0.0
 11
86598.7261
 21
18500.7167
 31
0.0
  0
LINE
  5
19E
330
1238
100
AcDbEntity
  8
FG-$$$$$$$-OSBASE
  6
Continuous
100
AcDbLine
 10
86600.38509999998
 20
18500.1504
 30
0.0
 11
86600.9706
 21
18499.9494
 31
0.0
  0
LINE
  5
19F
330
1238
100
AcDbEntity
  8
FG-$$$$$$$-OSBASE
  6
Continuous
100
AcDbLine
 10
86600.9706
 20
18499.9494
 30
0.0
 11
86600.274
 21
18498.8627
 31
0.0
  0
LINE
  5
1A0
330
1238
100
AcDbEntity
  8
FG-$$$$$$$-OSBASE
  6
Continuous
100
AcDbLine
 10
86600.274
 20
18498.8627
 30
0.0
 11
86600.38130000001
 21
18500.14849999999
 31
0.0
  0
LINE
  5
1A1
330
1238
100
AcDbEntity
  8
FG-$$$$$$$-OSBASE
  6
Continuous
100
AcDbLine
 10
86602.04099999998
 20
18499.5839
 30
0.0
 11
86602.623
 21
18499.3732
 31
0.0
  0
LINE
  5
1A2
330
1238
100
AcDbEntity
  8
FG-$$$$$$$-OSBASE
  6
Continuous
100
AcDbLine
 10
86602.623
 20
18499.3732
 30
0.0
 11
86601.90830000001
 21
18498.2983
 31
0.0
  0
LINE
  5
1A3
330
1238
100
AcDbEntity
  8
FG-$$$$$$$-OSBASE
  6
Continuous
100
AcDbLine
 10
86601.90830000001
 20
18498.2983
 30
0.0
 11
86602.03710000002
 21
18499.5821
 31
0.0
  0
LINE
  5
1A4
330
1238
100
AcDbEntity
  8
FG-$$$$$$$-OSBASE
  6
Continuous
100
AcDbLine
 10
86603.6864
 20
18498.9881
 30
0.0
 11
86604.26840000002
 21
18498.7774
 31
0.0
  0
LINE
  5
1A5
330
1238
100
AcDbEntity
  8
FG-$$$$$$$-OSBASE
  6
Continuous
100
AcDbLine
 10
86604.26840000002
 20
18498.7774
 30
0.0
 11
86603.55380000002
 21
18497.70249999999
 31
0.0
  0
LINE
  5
1A6
330
1238
100
AcDbEntity
  8
FG-$$$$$$$-OSBASE
  6
Continuous
100
AcDbLine
 10
86603.55380000002
 20
18497.70249999999
 30
0.0
 11
86603.6826
 21
18498.9863
 31
0.0
  0
LINE
  5
1A7
330
1238
100
AcDbEntity
  8
FG-$$$$$$$-OSBASE
  6
Continuous
100
AcDbLine
 10
86605.3319
 20
18498.3924
 30
0.0
 11
86605.9139
 21
18498.1816
 31
0.0
  0
LINE
  5
1A8
330
1238
100
AcDbEntity
  8
FG-$$$$$$$-OSBASE
  6
Continuous
100
AcDbLine
 10
86605.9139
 20
18498.1816
 30
0.0
 11
86605.19930000001
 21
18497.1067
 31
0.0
  0
LINE
  5
1A9
330
1238
100
AcDbEntity
  8
FG-$$$$$$$-OSBASE
  6
Continuous
100
AcDbLine
 10
86605.19930000001
 20
18497.1067
 30
0.0
 11
86605.32800000002
 21
18498.3906
 31
0.0
  0
LINE
  5
1AA
330
1238
100
AcDbEntity
  8
FG-$$$$$$$-OSBASE
  6
Continuous
100
AcDbLine
 10
86606.9773
 20
18497.7966
 30
0.0
 11
86607.55939999998
 21
18497.5859
 31
0.0
  0
LINE
  5
1AB
330
1238
100
AcDbEntity
  8
FG-$$$$$$$-OSBASE
  6
Continuous
100
AcDbLine
 10
86607.55939999998
 20
18497.5859
 30
0.0
 11
86606.84470000002
 21
18496.5109
 31
0.0
  0
LINE
  5
1AC
330
1238
100
AcDbEntity
  8
FG-$$$$$$$-OSBASE
  6
Continuous
100
AcDbLine
 10
86606.84470000002
 20
18496.5109
 30
0.0
 11
86606.97350000001
 21
18497.7948
 31
0.0
  0
LINE
  5
1AD
330
1238
100
AcDbEntity
  8
FG-$$$$$$$-OSBASE
  6
Continuous
100
AcDbLine
 10
86608.61829999999
 20
18497.1885
 30
0.0
 11
86609.2056
 21
18496.9928
 31
0.0
  0
LINE
  5
1AE
330
1238
100
AcDbEntity
  8
FG-$$$$$$$-OSBASE
  6
Continuous
100
AcDbLine
 10
86609.2056
 20
18496.9928
 30
0.0
 11
86608.5187
 21
18495.8999
 31
0.0
  0
LINE
  5
1AF
330
1238
100
AcDbEntity
  8
FG-$$$$$$$-OSBASE
  6
Continuous
100
AcDbLine
 10
86608.5187
 20
18495.8999
 30
0.0
 11
86608.61460000002
 21
18497.1866
 31
0.0
  0
LINE
  5
1B0
330
1238
100
AcDbEntity
  8
FG-$$$$$$$-OSBASE
  6
Continuous
100
AcDbLine
 10
86610.264
 20
18496.5915
 30
0.0
 11
86610.8645
 21
18496.4414
 31
0.0
  0
LINE
  5
1B1
330
1238
100
AcDbEntity
  8
FG-$$$$$$$-OSBASE
  6
Continuous
100
AcDbLine
 10
86610.8645
 20
18496.4414
 30
0.0
 11
86610.2635
 21
18495.2991
 31
0.0
  0
LINE
  5
1B2
330
1238
100
AcDbEntity
  8
FG-$$$$$$$-OSBASE
  6
Continuous
100
AcDbLine
 10
86610.2635
 20
18495.2991
 30
0.0
 11
86610.26030000002
 21
18496.5893
 31
0.0
  0
LINE
  5
1B3
330
1238
100
AcDbEntity
  8
FG-$$$$$$$-OSBASE
  6
Continuous
100
AcDbLine
 10
86611.9612
 20
18496.165
 30
0.0
 11
86612.5655
 21
18496.0307
 31
0.0
  0
LINE
  5
1B4
330
1238
100
AcDbEntity
  8
FG-$$$$$$$-OSBASE
  6
Continuous
100
AcDbLine
 10
86612.5655
 20
18496.0307
 30
0.0
 11
86611.99470000001
 21
18494.8729
 31
0.0
  0
LINE
  5
1B5
330
1238
100
AcDbEntity
  8
FG-$$$$$$$-OSBASE
  6
Continuous
100
AcDbLine
 10
86611.99470000001
 20
18494.8729
 30
0.0
 11
86611.95760000001
 21
18496.1627
 31
0.0
  0
LINE
  5
1B6
330
1238
100
AcDbEntity
  8
FG-$$$$$$$-OSBASE
  6
Continuous
100
AcDbLine
 10
86613.6651
 20
18495.76629999999
 30
0.0
 11
86614.2656
 21
18495.6161
 31
0.0
  0
LINE
  5
1B7
330
1238
100
AcDbEntity
  8
FG-$$$$$$$-OSBASE
  6
Continuous
100
AcDbLine
 10
86614.2656
 20
18495.6161
 30
0.0
 11
86613.6645
 21
18494.47379999999
 31
0.0
  0
LINE
  5
1B8
330
1238
100
AcDbEntity
  8
FG-$$$$$$$-OSBASE
  6
Continuous
100
AcDbLine
 10
86613.6645
 20
18494.47379999999
 30
0.0
 11
86613.6614
 21
18495.7641
 31
0.0
  0
LINE
  5
1B9
330
1238
100
AcDbEntity
  8
FG-$$$$$$$-OSBASE
  6
Continuous
100
AcDbLine
 10
86615.3921
 20
18495.503
 30
0.0
 11
86616.0063
 21
18495.4262
 31
0.0
  0
LINE
  5
1BA
330
1238
100
AcDbEntity
  8
FG-$$$$$$$-OSBASE
  6
Continuous
100
AcDbLine
 10
86616.0063
 20
18495.4262
 30
0.0
 11
86615.5471
 21
18494.2199
 31
0.0
  0
LINE
  5
1BB
330
1238
100
AcDbEntity
  8
FG-$$$$$$$-OSBASE
  6
Continuous
100
AcDbLine
 10
86615.5471
 20
18494.2199
 30
0.0
 11
86615.38870000001
 21
18495.5004
 31
0.0
  0
LINE
  5
1BC
330
1238
100
AcDbEntity
  8
FG-$$$$$$$-OSBASE
  6
Continuous
100
AcDbLine
 10
86617.133
 20
18495.3465
 30
0.0
 11
86617.75200000001
 21
18495.3465
 31
0.0
  0
LINE
  5
1BD
330
1238
100
AcDbEntity
  8
FG-$$$$$$$-OSBASE
  6
Continuous
100
AcDbLine
 10
86617.75200000001
 20
18495.3465
 30
0.0
 11
86617.44600000003
 21
18494.0925
 31
0.0
  0
LINE
  5
1BE
330
1238
100
AcDbEntity
  8
FG-$$$$$$$-OSBASE
  6
Continuous
100
AcDbLine
 10
86617.44600000003
 20
18494.0925
 30
0.0
 11
86617.13
 21
18495.3435
 31
0.0
  0
LINE
  5
1BF
330
1238
100
AcDbEntity
  8
FG-$$$$$$$-OSBASE
  6
Continuous
100
AcDbLine
 10
86619.50949999999
 20
18495.2505
 30
0.0
 11
86620.12739999998
 21
18495.2868
 31
0.0
  0
LINE
  5
1C0
330
1238
100
AcDbEntity
  8
FG-$$$$$$$-OSBASE
  6
Continuous
100
AcDbLine
 10
86620.12739999998
 20
18495.2868
 30
0.0
 11
86619.8956
 21
18494.01699999999
 31
0.0
  0
LINE
  5
1C1
330
1238
100
AcDbEntity
  8
FG-$$$$$$$-OSBASE
  6
Continuous
100
AcDbLine
 10
86619.8956
 20
18494.01699999999
 30
0.0
 11
86619.50669999998
 21
18495.24729999999
 31
0.0
  0
LINE
  5
1C2
330
1238
100
AcDbEntity
  8
FG-$$$$$$$-OSBASE
  6
Continuous
100
AcDbLine
 10
86621.2565
 20
18495.3532
 30
0.0
 11
86621.8744
 21
18495.3896
 31
0.0
  0
LINE
  5
1C3
330
1238
100
AcDbEntity
  8
FG-$$$$$$$-OSBASE
  6
Continuous
100
AcDbLine
 10
86621.8744
 20
18495.3896
 30
0.0
 11
86621.6426
 21
18494.1198
 31
0.0
  0
LINE
  5
1C4
330
1238
100
AcDbEntity
  8
FG-$$$$$$$-OSBASE
  6
Continuous
100
AcDbLine
 10
86621.6426
 20
18494.1198
 30
0.0
 11
86621.2536
 21
18495.3501
 31
0.0
  0
LINE
  5
1C5
330
1238
100
AcDbEntity
  8
FG-$$$$$$$-OSBASE
  6
Continuous
100
AcDbLine
 10
86623.00339999999
 20
18495.456
 30
0.0
 11
86623.6214
 21
18495.4923
 31
0.0
  0
LINE
  5
1C6
330
1238
100
AcDbEntity
  8
FG-$$$$$$$-OSBASE
  6
Continuous
100
AcDbLine
 10
86623.6214
 20
18495.4923
 30
0.0
 11
86623.3895
 21
18494.2225
 31
0.0
  0
LINE
  5
1C7
330
1238
100
AcDbEntity
  8
FG-$$$$$$$-OSBASE
  6
Continuous
100
AcDbLine
 10
86623.3895
 20
18494.2225
 30
0.0
 11
86623.00059999998
 21
18495.4528
 31
0.0
  0
LINE
  5
1C8
330
1238
100
AcDbEntity
  8
FG-$$$$$$$-OSBASE
  6
Continuous
100
AcDbLine
 10
86624.7504
 20
18495.5587
 30
0.0
 11
86625.3684
 21
18495.5951
 31
0.0
  0
LINE
  5
1C9
330
1238
100
AcDbEntity
  8
FG-$$$$$$$-OSBASE
  6
Continuous
100
AcDbLine
 10
86625.3684
 20
18495.5951
 30
0.0
 11
86625.13650000001
 21
18494.32529999999
 31
0.0
  0
LINE
  5
1CA
330
1238
100
AcDbEntity
  8
FG-$$$$$$$-OSBASE
  6
Continuous
100
AcDbLine
 10
86625.13650000001
 20
18494.32529999999
 30
0.0
 11
86624.7476
 21
18495.55559999999
 31
0.0
  0
LINE
  5
1CB
330
1238
100
AcDbEntity
  8
FG-$$$$$$$-OSBASE
  6
Continuous
100
AcDbLine
 10
86626.4974
 20
18495.6615
 30
0.0
 11
86627.1153
 21
18495.6978
 31
0.0
  0
LINE
  5
1CC
330
1238
100
AcDbEntity
  8
FG-$$$$$$$-OSBASE
  6
Continuous
100
AcDbLine
 10
86627.1153
 20
18495.6978
 30
0.0
 11
86626.88350000001
 21
18494.428
 31
0.0
  0
LINE
  5
1CD
330
1238
100
AcDbEntity
  8
FG-$$$$$$$-OSBASE
  6
Continuous
100
AcDbLine
 10
86626.88350000001
 20
18494.428
 30
0.0
 11
86626.4946
 21
18495.65829999999
 31
0.0
  0
LINE
  5
1CE
330
1238
100
AcDbEntity
  8
FG-$$$$$$$-OSBASE
  6
Continuous
100
AcDbLine
 10
86628.2449
 20
18495.7465
 30
0.0
 11
86628.86390000003
 21
18495.7465
 31
0.0
  0
LINE
  5
1CF
330
1238
100
AcDbEntity
  8
FG-$$$$$$$-OSBASE
  6
Continuous
100
AcDbLine
 10
86628.86390000003
 20
18495.7465
 30
0.0
 11
86628.5579
 21
18494.4925
 31
0.0
  0
LINE
  5
1D0
330
1238
100
AcDbEntity
  8
FG-$$$$$$$-OSBASE
  6
Continuous
100
AcDbLine
 10
86628.5579
 20
18494.4925
 30
0.0
 11
86628.24190000002
 21
18495.7435
 31
0.0
  0
LINE
  5
1D1
330
1238
100
AcDbEntity
  8
FG-$$$$$$$-OSBASE
  6
Continuous
100
AcDbLine
 10
86629.9949
 20
18495.7465
 30
0.0
 11
86630.61390000001
 21
18495.7465
 31
0.0
  0
LINE
  5
1D2
330
1238
100
AcDbEntity
  8
FG-$$$$$$$-OSBASE
  6
Continuous
100
AcDbLine
 10
86630.61390000001
 20
18495.7465
 30
0.0
 11
86630.3079
 21
18494.4925
 31
0.0
  0
LINE
  5
1D3
330
1238
100
AcDbEntity
  8
FG-$$$$$$$-OSBASE
  6
Continuous
100
AcDbLine
 10
86630.3079
 20
18494.4925
 30
0.0
 11
86629.9919
 21
18495.7435
 31
0.0
  0
LINE
  5
1D4
330
1238
100
AcDbEntity
  8
FG-$$$$$$$-OSBASE
  6
Continuous
100
AcDbLine
 10
86631.7448
 20
18495.7407
 30
0.0
 11
86632.3636
 21
18495.723
 31
0.0
  0
LINE
  5
1D5
330
1238
100
AcDbEntity
  8
FG-$$$$$$$-OSBASE
  6
Continuous
100
AcDbLine
 10
86632.3636
 20
18495.723
 30
0.0
 11
86632.0219
 21
18494.4783
 31
0.0
  0
LINE
  5
1D6
330
1238
100
AcDbEntity
  8
FG-$$$$$$$-OSBASE
  6
Continuous
100
AcDbLine
 10
86632.0219
 20
18494.4783
 30
0.0
 11
86631.74169999998
 21
18495.7378
 31
0.0
  0
LINE
  5
1D7
330
1238
100
AcDbEntity
  8
FG-$$$$$$$-OSBASE
  6
Continuous
100
AcDbLine
 10
86633.49410000003
 20
18495.6907
 30
0.0
 11
86634.1129
 21
18495.673
 31
0.0
  0
LINE
  5
1D8
330
1238
100
AcDbEntity
  8
FG-$$$$$$$-OSBASE
  6
Continuous
100
AcDbLine
 10
86634.1129
 20
18495.673
 30
0.0
 11
86633.77119999999
 21
18494.4283
 31
0.0
  0
LINE
  5
1D9
330
1238
100
AcDbEntity
  8
FG-$$$$$$$-OSBASE
  6
Continuous
100
AcDbLine
 10
86633.77119999999
 20
18494.4283
 30
0.0
 11
86633.49100000001
 21
18495.6878
 31
0.0
  0
LINE
  5
1DA
330
1238
100
AcDbEntity
  8
FG-$$$$$$$-OSBASE
  6
Continuous
100
AcDbLine
 10
86635.243
 20
18495.6321
 30
0.0
 11
86635.8604
 21
18495.588
 31
0.0
  0
LINE
  5
1DB
330
1238
100
AcDbEntity
  8
FG-$$$$$$$-OSBASE
  6
Continuous
100
AcDbLine
 10
86635.8604
 20
18495.588
 30
0.0
 11
86635.4658
 21
18494.35899999999
 31
0.0
  0
LINE
  5
1DC
330
1238
100
AcDbEntity
  8
FG-$$$$$$$-OSBASE
  6
Continuous
100
AcDbLine
 10
86635.4658
 20
18494.35899999999
 30
0.0
 11
86635.2398
 21
18495.6294
 31
0.0
  0
LINE
  5
1DD
330
1238
100
AcDbEntity
  8
FG-$$$$$$$-OSBASE
  6
Continuous
100
AcDbLine
 10
86636.9885
 20
18495.5074
 30
0.0
 11
86637.6059
 21
18495.4633
 31
0.0
  0
LINE
  5
1DE
330
1238
100
AcDbEntity
  8
FG-$$$$$$$-OSBASE
  6
Continuous
100
AcDbLine
 10
86637.6059
 20
18495.4633
 30
0.0
 11
86637.21139999999
 21
18494.2343
 31
0.0
  0
LINE
  5
1DF
330
1238
100
AcDbEntity
  8
FG-$$$$$$$-OSBASE
  6
Continuous
100
AcDbLine
 10
86637.21139999999
 20
18494.2343
 30
0.0
 11
86636.98529999999
 21
18495.5047
 31
0.0
  0
LINE
  5
1E0
330
1238
100
AcDbEntity
  8
FG-$$$$$$$-OSBASE
  6
Continuous
100
AcDbLine
 10
86638.73490000002
 20
18495.3955
 30
0.0
 11
86639.35289999998
 21
18495.3602
 31
0.0
  0
LINE
  5
1E1
330
1238
100
AcDbEntity
  8
FG-$$$$$$$-OSBASE
  6
Continuous
100
AcDbLine
 10
86639.35289999998
 20
18495.3602
 30
0.0
 11
86638.9759
 21
18494.1257
 31
0.0
  0
LINE
  5
1E2
330
1238
100
AcDbEntity
  8
FG-$$$$$$$-OSBASE
  6
Continuous
100
AcDbLine
 10
86638.9759
 20
18494.1257
 30
0.0
 11
86638.7317
 21
18495.3927
 31
0.0
  0
LINE
  5
1E3
330
1238
100
AcDbEntity
  8
FG-$$$$$$$-OSBASE
  6
Continuous
100
AcDbLine
 10
86640.482
 20
18495.2957
 30
0.0
 11
86641.1
 21
18495.26039999999
 31
0.0
  0
LINE
  5
1E4
330
1238
100
AcDbEntity
  8
FG-$$$$$$$-OSBASE
  6
Continuous
100
AcDbLine
 10
86641.1
 20
18495.26039999999
 30
0.0
 11
86640.723
 21
18494.0259
 31
0.0
  0
LINE
  5
1E5
330
1238
100
AcDbEntity
  8
FG-$$$$$$$-OSBASE
  6
Continuous
100
AcDbLine
 10
86640.723
 20
18494.0259
 30
0.0
 11
86640.4789
 21
18495.2929
 31
0.0
  0
LINE
  5
1E6
330
1238
100
AcDbEntity
  8
FG-$$$$$$$-OSBASE
  6
Continuous
100
AcDbLine
 10
86642.22759999998
 20
18495.17269999999
 30
0.0
 11
86642.84440000002
 21
18495.1213
 31
0.0
  0
LINE
  5
1E7
330
1238
100
AcDbEntity
  8
FG-$$$$$$$-OSBASE
  6
Continuous
100
AcDbLine
 10
86642.84440000002
 20
18495.1213
 30
0.0
 11
86642.4353
 21
18493.8971
 31
0.0
  0
LINE
  5
1E8
330
1238
100
AcDbEntity
  8
FG-$$$$$$$-OSBASE
  6
Continuous
100
AcDbLine
 10
86642.4353
 20
18493.8971
 30
0.0
 11
86642.2243
 21
18495.17
 31
0.0
  0
LINE
  5
1E9
330
1238
100
AcDbEntity
  8
FG-$$$$$$$-OSBASE
  6
Continuous
100
AcDbLine
 10
86643.9715
 20
18495.0274
 30
0.0
 11
86644.58840000001
 21
18494.976
 31
0.0
  0
LINE
  5
1EA
330
1238
100
AcDbEntity
  8
FG-$$$$$$$-OSBASE
  6
Continuous
100
AcDbLine
 10
86644.58840000001
 20
18494.976
 30
0.0
 11
86644.1793
 21
18493.7517
 31
0.0
  0
LINE
  5
1EB
330
1238
100
AcDbEntity
  8
FG-$$$$$$$-OSBASE
  6
Continuous
100
AcDbLine
 10
86644.1793
 20
18493.7517
 30
0.0
 11
86643.96830000001
 21
18495.0246
 31
0.0
  0
LINE
  5
1EC
330
1238
100
AcDbEntity
  8
FG-$$$$$$$-OSBASE
  6
Continuous
100
AcDbLine
 10
86645.71100000001
 20
18494.8416
 30
0.0
 11
86646.3244
 21
18494.75789999999
 31
0.0
  0
LINE
  5
1ED
330
1238
100
AcDbEntity
  8
FG-$$$$$$$-OSBASE
  6
Continuous
100
AcDbLine
 10
86646.3244
 20
18494.75789999999
 30
0.0
 11
86645.8517
 21
18493.5568
 31
0.0
  0
LINE
  5
1EE
330
1238
100
AcDbEntity
  8
FG-$$$$$$$-OSBASE
  6
Continuous
100
AcDbLine
 10
86645.8517
 20
18493.5568
 30
0.0
 11
86645.7077
 21
18494.839
 31
0.0
  0
LINE
  5
1EF
330
1238
100
AcDbEntity
  8
FG-$$$$$$$-OSBASE
  6
Continuous
100
AcDbLine
 10
86647.4447
 20
18494.6031
 30
0.0
 11
86648.05750000001
 21
18494.5156
 31
0.0
  0
LINE
  5
1F0
330
1238
100
AcDbEntity
  8
FG-$$$$$$$-OSBASE
  6
Continuous
100
AcDbLine
 10
86648.05750000001
 20
18494.5156
 30
0.0
 11
86647.5772
 21
18493.3175
 31
0.0
  0
LINE
  5
1F1
330
1238
100
AcDbEntity
  8
FG-$$$$$$$-OSBASE
  6
Continuous
100
AcDbLine
 10
86647.5772
 20
18493.3175
 30
0.0
 11
86647.4413
 21
18494.6006
 31
0.0
  0
LINE
  5
1F2
330
1238
100
AcDbEntity
  8
FG-$$$$$$$-OSBASE
  6
Continuous
100
AcDbLine
 10
86649.1761
 20
18494.3488
 30
0.0
 11
86649.78790000001
 21
18494.2548
 31
0.0
  0
LINE
  5
1F3
330
1238
100
AcDbEntity
  8
FG-$$$$$$$-OSBASE
  6
Continuous
100
AcDbLine
 10
86649.78790000001
 20
18494.2548
 30
0.0
 11
86649.2949
 21
18493.0618
 31
0.0
  0
LINE
  5
1F4
330
1238
100
AcDbEntity
  8
FG-$$$$$$$-OSBASE
  6
Continuous
100
AcDbLine
 10
86649.2949
 20
18493.0618
 30
0.0
 11
86649.17270000001
 21
18494.3463
 31
0.0
  0
LINE
  5
1F5
330
1238
100
AcDbEntity
  8
FG-$$$$$$$-OSBASE
  6
Continuous
100
AcDbLine
 10
86650.8867
 20
18493.9829
 30
0.0
 11
86651.4995
 21
18493.8954
 31
0.0
  0
LINE
  5
1F6
330
1238
100
AcDbEntity
  8
FG-$$$$$$$-OSBASE
  6
Continuous
100
AcDbLine
 10
86651.4995
 20
18493.8954
 30
0.0
 11
86651.01920000001
 21
18492.6972
 31
0.0
  0
LINE
  5
1F7
330
1238
100
AcDbEntity
  8
FG-$$$$$$$-OSBASE
  6
Continuous
100
AcDbLine
 10
86651.01920000001
 20
18492.6972
 30
0.0
 11
86650.88329999999
 21
18493.9804
 31
0.0
  0
LINE
  5
1F8
330
1238
100
AcDbEntity
  8
FG-$$$$$$$-OSBASE
  6
Continuous
100
AcDbLine
 10
86652.6164
 20
18493.7232
 30
0.0
 11
86653.20799999998
 21
18493.5412
 31
0.0
  0
LINE
  5
1F9
330
1238
100
AcDbEntity
  8
FG-$$$$$$$-OSBASE
  6
Continuous
100
AcDbLine
 10
86653.20799999998
 20
18493.5412
 30
0.0
 11
86652.54680000003
 21
18492.4326
 31
0.0
  0
LINE
  5
1FA
330
1238
100
AcDbEntity
  8
FG-$$$$$$$-OSBASE
  6
Continuous
100
AcDbLine
 10
86652.54680000003
 20
18492.4326
 30
0.0
 11
86652.61260000001
 21
18493.7212
 31
0.0
  0
LINE
  5
1FB
330
1238
100
AcDbEntity
  8
FG-$$$$$$$-OSBASE
  6
Continuous
100
AcDbLine
 10
86654.2978
 20
18493.24109999999
 30
0.0
 11
86654.9009
 21
18493.1019
 31
0.0
  0
LINE
  5
1FC
330
1238
100
AcDbEntity
  8
FG-$$$$$$$-OSBASE
  6
Continuous
100
AcDbLine
 10
86654.9009
 20
18493.1019
 30
0.0
 11
86654.32070000001
 21
18491.9488
 31
0.0
  0
LINE
  5
1FD
330
1238
100
AcDbEntity
  8
FG-$$$$$$$-OSBASE
  6
Continuous
100
AcDbLine
 10
86654.32070000001
 20
18491.9488
 30
0.0
 11
86654.2942
 21
18493.2389
 31
0.0
  0
LINE
  5
1FE
330
1238
100
AcDbEntity
  8
FG-$$$$$$$-OSBASE
  6
Continuous
100
AcDbLine
 10
86655.9864
 20
18492.7862
 30
0.0
 11
86656.5781
 21
18492.6042
 31
0.0
  0
LINE
  5
1FF
330
1238
100
AcDbEntity
  8
FG-$$$$$$$-OSBASE
  6
Continuous
100
AcDbLine
 10
86656.5781
 20
18492.6042
 30
0.0
 11
86655.9168
 21
18491.4956
 31
0.0
  0
LINE
  5
200
330
1238
100
AcDbEntity
  8
FG-$$$$$$$-OSBASE
  6
Continuous
100
AcDbLine
 10
86655.9168
 20
18491.4956
 30
0.0
 11
86655.98270000002
 21
18492.7843
 31
0.0
  0
LINE
  5
201
330
1238
100
AcDbEntity
  8
FG-$$$$$$$-OSBASE
  6
Continuous
100
AcDbLine
 10
86657.6391
 20
18492.2137
 30
0.0
 11
86658.2264
 21
18492.0179
 31
0.0
  0
LINE
  5
202
330
1238
100
AcDbEntity
  8
FG-$$$$$$$-OSBASE
  6
Continuous
100
AcDbLine
 10
86658.2264
 20
18492.0179
 30
0.0
 11
86657.5395
 21
18490.925
 31
0.0
  0
LINE
  5
203
330
1238
100
AcDbEntity
  8
FG-$$$$$$$-OSBASE
  6
Continuous
100
AcDbLine
 10
86657.5395
 20
18490.925
 30
0.0
 11
86657.63530000001
 21
18492.2118
 31
0.0
  0
LINE
  5
204
330
1238
100
AcDbEntity
  8
FG-$$$$$$$-OSBASE
  6
Continuous
100
AcDbLine
 10
86659.2958
 20
18491.6484
 30
0.0
 11
86659.86720000001
 21
18491.4103
 31
0.0
  0
LINE
  5
205
330
1238
100
AcDbEntity
  8
FG-$$$$$$$-OSBASE
  6
Continuous
100
AcDbLine
 10
86659.86720000001
 20
18491.4103
 30
0.0
 11
86659.1024
 21
18490.3705
 31
0.0
  0
LINE
  5
206
330
1238
100
AcDbEntity
  8
FG-$$$$$$$-OSBASE
  6
Continuous
100
AcDbLine
 10
86659.1024
 20
18490.3705
 30
0.0
 11
86659.29190000001
 21
18491.6468
 31
0.0
  0
LINE
  5
207
330
1238
100
AcDbEntity
  8
FG-$$$$$$$-OSBASE
  6
Continuous
100
AcDbLine
 10
86660.90830000001
 20
18490.9689
 30
0.0
 11
86661.4704
 21
18490.7095
 31
0.0
  0
LINE
  5
208
330
1238
100
AcDbEntity
  8
FG-$$$$$$$-OSBASE
  6
Continuous
100
AcDbLine
 10
86661.4704
 20
18490.7095
 30
0.0
 11
86660.6671
 21
18489.6991
 31
0.0
  0
LINE
  5
209
330
1238
100
AcDbEntity
  8
FG-$$$$$$$-OSBASE
  6
Continuous
100
AcDbLine
 10
86660.6671
 20
18489.6991
 30
0.0
 11
86660.9043
 21
18490.9674
 31
0.0
  0
LINE
  5
20A
330
1238
100
AcDbEntity
  8
FG-$$$$$$$-OSBASE
  6
Continuous
100
AcDbLine
 10
86662.50490000001
 20
18490.25289999999
 30
0.0
 11
86663.0763
 21
18490.0148
 31
0.0
  0
LINE
  5
20B
330
1238
100
AcDbEntity
  8
FG-$$$$$$$-OSBASE
  6
Continuous
100
AcDbLine
 10
86663.0763
 20
18490.0148
 30
0.0
 11
86662.3114
 21
18488.975
 31
0.0
  0
LINE
  5
20C
330
1238
100
AcDbEntity
  8
FG-$$$$$$$-OSBASE
  6
Continuous
100
AcDbLine
 10
86662.3114
 20
18488.975
 30
0.0
 11
86662.501
 21
18490.2513
 31
0.0
  0
LINE
  5
20D
330
1238
100
AcDbEntity
  8
FG-$$$$$$$-OSBASE
  6
Continuous
100
AcDbLine
 10
86664.0929
 20
18489.5201
 30
0.0
 11
86664.6466
 21
18489.2433
 31
0.0
  0
LINE
  5
20E
330
1238
100
AcDbEntity
  8
FG-$$$$$$$-OSBASE
  6
Continuous
100
AcDbLine
 10
86664.6466
 20
18489.2433
 30
0.0
 11
86663.8121
 21
18488.2585
 31
0.0
  0
LINE
  5
20F
330
1238
100
AcDbEntity
  8
FG-$$$$$$$-OSBASE
  6
Continuous
100
AcDbLine
 10
86663.8121
 20
18488.2585
 30
0.0
 11
86664.08890000002
 21
18489.5187
 31
0.0
  0
LINE
  5
210
330
1238
100
AcDbEntity
  8
FG-$$$$$$$-OSBASE
  6
Continuous
100
AcDbLine
 10
86665.6376
 20
18488.6978
 30
0.0
 11
86666.1912
 21
18488.421
 31
0.0
  0
LINE
  5
211
330
1238
100
AcDbEntity
  8
FG-$$$$$$$-OSBASE
  6
Continuous
100
AcDbLine
 10
86666.1912
 20
18488.421
 30
0.0
 11
86665.3567
 21
18487.4362
 31
0.0
  0
LINE
  5
212
330
1238
100
AcDbEntity
  8
FG-$$$$$$$-OSBASE
  6
Continuous
100
AcDbLine
 10
86665.3567
 20
18487.4362
 30
0.0
 11
86665.63360000002
 21
18488.6965
 31
0.0
  0
LINE
  5
213
330
1238
100
AcDbEntity
  8
FG-$$$$$$$-OSBASE
  6
Continuous
100
AcDbLine
 10
86667.1348
 20
18487.7999
 30
0.0
 11
86667.6449
 21
18487.44919999999
 31
0.0
  0
LINE
  5
214
330
1238
100
AcDbEntity
  8
FG-$$$$$$$-OSBASE
  6
Continuous
100
AcDbLine
 10
86667.6449
 20
18487.44919999999
 30
0.0
 11
86666.6823
 21
18486.5892
 31
0.0
  0
LINE
  5
215
330
1238
100
AcDbEntity
  8
FG-$$$$$$$-OSBASE
  6
Continuous
100
AcDbLine
 10
86666.6823
 20
18486.5892
 30
0.0
 11
86667.1306
 21
18487.7991
 31
0.0
  0
LINE
  5
216
330
1238
100
AcDbEntity
  8
FG-$$$$$$$-OSBASE
  6
Continuous
100
AcDbLine
 10
86668.5769
 20
18486.8084
 30
0.0
 11
86669.087
 21
18486.4578
 31
0.0
  0
LINE
  5
217
330
1238
100
AcDbEntity
  8
FG-$$$$$$$-OSBASE
  6
Continuous
100
AcDbLine
 10
86669.087
 20
18486.4578
 30
0.0
 11
86668.12440000002
 21
18485.5978
 31
0.0
  0
LINE
  5
218
330
1238
100
AcDbEntity
  8
FG-$$$$$$$-OSBASE
  6
Continuous
100
AcDbLine
 10
86668.12440000002
 20
18485.5978
 30
0.0
 11
86668.5727
 21
18486.8077
 31
0.0
  0
LINE
  5
219
330
1238
100
AcDbEntity
  8
FG-$$$$$$$-OSBASE
  6
Continuous
100
AcDbLine
 10
86670.019
 20
18485.817
 30
0.0
 11
86670.52900000001
 21
18485.4663
 31
0.0
  0
LINE
  5
21A
330
1238
100
AcDbEntity
  8
FG-$$$$$$$-OSBASE
  6
Continuous
100
AcDbLine
 10
86670.52900000001
 20
18485.4663
 30
0.0
 11
86669.56650000002
 21
18484.6064
 31
0.0
  0
LINE
  5
21B
330
1238
100
AcDbEntity
  8
FG-$$$$$$$-OSBASE
  6
Continuous
100
AcDbLine
 10
86669.56650000002
 20
18484.6064
 30
0.0
 11
86670.0148
 21
18485.8163
 31
0.0
  0
LINE
  5
21C
330
1238
100
AcDbEntity
  8
FG-$$$$$$$-OSBASE
  6
Continuous
100
AcDbLine
 10
86671.4152
 20
18484.7705
 30
0.0
 11
86671.8529
 21
18484.3328
 31
0.0
  0
LINE
  5
21D
330
1238
100
AcDbEntity
  8
FG-$$$$$$$-OSBASE
  6
Continuous
100
AcDbLine
 10
86671.8529
 20
18484.3328
 30
0.0
 11
86670.7498
 21
18483.6625
 31
0.0
  0
LINE
  5
21E
330
1238
100
AcDbEntity
  8
FG-$$$$$$$-OSBASE
  6
Continuous
100
AcDbLine
 10
86670.7498
 20
18483.6625
 30
0.0
 11
86671.411
 21
18484.7705
 31
0.0
  0
LINE
  5
21F
330
1238
100
AcDbEntity
  8
FG-$$$$$$$-OSBASE
  6
Continuous
100
AcDbLine
 10
86672.6526
 20
18483.533
 30
0.0
 11
86673.09030000001
 21
18483.0953
 31
0.0
  0
LINE
  5
220
330
1238
100
AcDbEntity
  8
FG-$$$$$$$-OSBASE
  6
Continuous
100
AcDbLine
 10
86673.09030000001
 20
18483.0953
 30
0.0
 11
86671.9872
 21
18482.42499999999
 31
0.0
  0
LINE
  5
221
330
1238
100
AcDbEntity
  8
FG-$$$$$$$-OSBASE
  6
Continuous
100
AcDbLine
 10
86671.9872
 20
18482.42499999999
 30
0.0
 11
86672.6484
 21
18483.533
 31
0.0
  0
LINE
  5
222
330
1238
100
AcDbEntity
  8
FG-$$$$$$$-OSBASE
  6
Continuous
100
AcDbLine
 10
86673.89
 20
18482.2956
 30
0.0
 11
86674.32770000001
 21
18481.8579
 31
0.0
  0
LINE
  5
223
330
1238
100
AcDbEntity
  8
FG-$$$$$$$-OSBASE
  6
Continuous
100
AcDbLine
 10
86674.32770000001
 20
18481.8579
 30
0.0
 11
86673.22460000002
 21
18481.1876
 31
0.0
  0
LINE
  5
224
330
1238
100
AcDbEntity
  8
FG-$$$$$$$-OSBASE
  6
Continuous
100
AcDbLine
 10
86673.22460000002
 20
18481.1876
 30
0.0
 11
86673.8858
 21
18482.2956
 31
0.0
  0
LINE
  5
225
330
1238
100
AcDbEntity
  8
FG-$$$$$$$-OSBASE
  6
Continuous
100
AcDbLine
 10
86675.0752
 20
18481.01039999999
 30
0.0
 11
86675.5129
 21
18480.5727
 31
0.0
  0
LINE
  5
226
330
1238
100
AcDbEntity
  8
FG-$$$$$$$-OSBASE
  6
Continuous
100
AcDbLine
 10
86675.5129
 20
18480.5727
 30
0.0
 11
86674.40980000002
 21
18479.9024
 31
0.0
  0
LINE
  5
227
330
1238
100
AcDbEntity
  8
FG-$$$$$$$-OSBASE
  6
Continuous
100
AcDbLine
 10
86674.40980000002
 20
18479.9024
 30
0.0
 11
86675.07100000001
 21
18481.01039999999
 31
0.0
  0
LINE
  5
228
330
1238
100
AcDbEntity
  8
FG-$$$$$$$-OSBASE
  6
Continuous
100
AcDbLine
 10
86676.3599
 20
18479.8257
 30
0.0
 11
86676.7976
 21
18479.388
 31
0.0
  0
LINE
  5
229
330
1238
100
AcDbEntity
  8
FG-$$$$$$$-OSBASE
  6
Continuous
100
AcDbLine
 10
86676.7976
 20
18479.388
 30
0.0
 11
86675.6945
 21
18478.7177
 31
0.0
  0
LINE
  5
22A
330
1238
100
AcDbEntity
  8
FG-$$$$$$$-OSBASE
  6
Continuous
100
AcDbLine
 10
86675.6945
 20
18478.7177
 30
0.0
 11
86676.3556
 21
18479.8257
 31
0.0
  0
LINE
  5
22B
330
1238
100
AcDbEntity
  8
FG-$$$$$$$-OSBASE
  6
Continuous
100
AcDbLine
 10
86677.68740000001
 20
18478.6982
 30
0.0
 11
86678.1251
 21
18478.2605
 31
0.0
  0
LINE
  5
22C
330
1238
100
AcDbEntity
  8
FG-$$$$$$$-OSBASE
  6
Continuous
100
AcDbLine
 10
86678.1251
 20
18478.2605
 30
0.0
 11
86677.022
 21
18477.5902
 31
0.0
  0
LINE
  5
22D
330
1238
100
AcDbEntity
  8
FG-$$$$$$$-OSBASE
  6
Continuous
100
AcDbLine
 10
86677.022
 20
18477.5902
 30
0.0
 11
86677.6832
 21
18478.6982
 31
0.0
  0
LINE
  5
22E
330
1238
100
AcDbEntity
  8
FG-$$$$$$$-OSBASE
  6
Continuous
100
AcDbLine
 10
86679.12349999999
 20
18477.7242
 30
0.0
 11
86679.6386
 21
18477.38089999999
 31
0.0
  0
LINE
  5
22F
330
1238
100
AcDbEntity
  8
FG-$$$$$$$-OSBASE
  6
Continuous
100
AcDbLine
 10
86679.6386
 20
18477.38089999999
 30
0.0
 11
86678.6885
 21
18476.5071
 31
0.0
  0
LINE
  5
230
330
1238
100
AcDbEntity
  8
FG-$$$$$$$-OSBASE
  6
Continuous
100
AcDbLine
 10
86678.6885
 20
18476.5071
 30
0.0
 11
86679.11940000001
 21
18477.7233
 31
0.0
  0
LINE
  5
231
330
1238
100
AcDbEntity
  8
FG-$$$$$$$-OSBASE
  6
Continuous
100
AcDbLine
 10
86680.6215
 20
18476.8256
 30
0.0
 11
86681.1365
 21
18476.4822
 31
0.0
  0
LINE
  5
232
330
1238
100
AcDbEntity
  8
FG-$$$$$$$-OSBASE
  6
Continuous
100
AcDbLine
 10
86681.1365
 20
18476.4822
 30
0.0
 11
86680.1863
 21
18475.60859999999
 31
0.0
  0
LINE
  5
233
330
1238
100
AcDbEntity
  8
FG-$$$$$$$-OSBASE
  6
Continuous
100
AcDbLine
 10
86680.1863
 20
18475.60859999999
 30
0.0
 11
86680.61729999998
 21
18476.8247
 31
0.0
  0
LINE
  5
234
330
1238
100
AcDbEntity
  8
FG-$$$$$$$-OSBASE
  6
Continuous
100
AcDbLine
 10
86682.1723
 20
18476.0431
 30
0.0
 11
86682.76290000002
 21
18475.8575
 31
0.0
  0
LINE
  5
235
330
1238
100
AcDbEntity
  8
FG-$$$$$$$-OSBASE
  6
Continuous
100
AcDbLine
 10
86682.76290000002
 20
18475.8575
 30
0.0
 11
86682.0949
 21
18474.753
 31
0.0
  0
LINE
  5
236
330
1238
100
AcDbEntity
  8
FG-$$$$$$$-OSBASE
  6
Continuous
100
AcDbLine
 10
86682.0949
 20
18474.753
 30
0.0
 11
86682.1686
 21
18476.04119999999
 31
0.0
  0
LINE
  5
237
330
1238
100
AcDbEntity
  8
FG-$$$$$$$-OSBASE
  6
Continuous
100
AcDbLine
 10
86683.84180000002
 20
18475.5184
 30
0.0
 11
86684.43230000001
 21
18475.3328
 31
0.0
  0
LINE
  5
238
330
1238
100
AcDbEntity
  8
FG-$$$$$$$-OSBASE
  6
Continuous
100
AcDbLine
 10
86684.43230000001
 20
18475.3328
 30
0.0
 11
86683.76440000001
 21
18474.2283
 31
0.0
  0
LINE
  5
239
330
1238
100
AcDbEntity
  8
FG-$$$$$$$-OSBASE
  6
Continuous
100
AcDbLine
 10
86683.76440000001
 20
18474.2283
 30
0.0
 11
86683.83810000001
 21
18475.5165
 31
0.0
  0
LINE
  5
23A
330
1238
100
AcDbEntity
  8
FG-$$$$$$$-OSBASE
  6
Continuous
100
AcDbLine
 10
86685.4538
 20
18474.9079
 30
0.0
 11
86685.85010000001
 21
18474.4323
 31
0.0
  0
LINE
  5
23B
330
1238
100
AcDbEntity
  8
FG-$$$$$$$-OSBASE
  6
Continuous
100
AcDbLine
 10
86685.85010000001
 20
18474.4323
 30
0.0
 11
86684.69080000001
 21
18473.8646
 31
0.0
  0
LINE
  5
23C
330
1238
100
AcDbEntity
  8
FG-$$$$$$$-OSBASE
  6
Continuous
100
AcDbLine
 10
86684.69080000001
 20
18473.8646
 30
0.0
 11
86685.4496
 21
18474.9082
 31
0.0
  0
LINE
  5
23D
330
1238
100
AcDbEntity
  8
FG-$$$$$$$-OSBASE
  6
Continuous
100
AcDbLine
 10
86686.68869999998
 20
18473.7314
 30
0.0
 11
86687.276
 21
18473.5357
 31
0.0
  0
LINE
  5
23E
330
1238
100
AcDbEntity
  8
FG-$$$$$$$-OSBASE
  6
Continuous
100
AcDbLine
 10
86687.276
 20
18473.5357
 30
0.0
 11
86686.58909999998
 21
18472.4428
 31
0.0
  0
LINE
  5
23F
330
1238
100
AcDbEntity
  8
FG-$$$$$$$-OSBASE
  6
Continuous
100
AcDbLine
 10
86686.58909999998
 20
18472.4428
 30
0.0
 11
86686.685
 21
18473.7295
 31
0.0
  0
LINE
  5
240
330
1238
100
AcDbEntity
  8
FG-$$$$$$$-OSBASE
  6
Continuous
100
AcDbLine
 10
86688.3489
 20
18473.178
 30
0.0
 11
86688.93620000003
 21
18472.9822
 31
0.0
  0
LINE
  5
241
330
1238
100
AcDbEntity
  8
FG-$$$$$$$-OSBASE
  6
Continuous
100
AcDbLine
 10
86688.93620000003
 20
18472.9822
 30
0.0
 11
86688.24930000001
 21
18471.8894
 31
0.0
  0
LINE
  5
242
330
1238
100
AcDbEntity
  8
FG-$$$$$$$-OSBASE
  6
Continuous
100
AcDbLine
 10
86688.24930000001
 20
18471.8894
 30
0.0
 11
86688.3451
 21
18473.1761
 31
0.0
  0
LINE
  5
243
330
1238
100
AcDbEntity
  8
FG-$$$$$$$-OSBASE
  6
Continuous
100
AcDbLine
 10
86690.00910000001
 20
18472.62459999999
 30
0.0
 11
86690.59640000002
 21
18472.4288
 31
0.0
  0
LINE
  5
244
330
1238
100
AcDbEntity
  8
FG-$$$$$$$-OSBASE
  6
Continuous
100
AcDbLine
 10
86690.59640000002
 20
18472.4288
 30
0.0
 11
86689.90950000001
 21
18471.3359
 31
0.0
  0
LINE
  5
245
330
1238
100
AcDbEntity
  8
FG-$$$$$$$-OSBASE
  6
Continuous
100
AcDbLine
 10
86689.90950000001
 20
18471.3359
 30
0.0
 11
86690.0053
 21
18472.6227
 31
0.0
  0
LINE
  5
246
330
1238
100
AcDbEntity
  8
FG-$$$$$$$-OSBASE
  6
Continuous
100
AcDbLine
 10
86691.6882
 20
18472.136
 30
0.0
 11
86692.2887
 21
18471.9858
 31
0.0
  0
LINE
  5
247
330
1238
100
AcDbEntity
  8
FG-$$$$$$$-OSBASE
  6
Continuous
100
AcDbLine
 10
86692.2887
 20
18471.9858
 30
0.0
 11
86691.6877
 21
18470.8435
 31
0.0
  0
LINE
  5
248
330
1238
100
AcDbEntity
  8
FG-$$$$$$$-OSBASE
  6
Continuous
100
AcDbLine
 10
86691.6877
 20
18470.8435
 30
0.0
 11
86691.6845
 21
18472.1338
 31
0.0
  0
LINE
  5
249
330
1238
100
AcDbEntity
  8
FG-$$$$$$$-OSBASE
  6
Continuous
100
AcDbLine
 10
86693.3859
 20
18471.7115
 30
0.0
 11
86693.9864
 21
18471.5614
 31
0.0
  0
LINE
  5
24A
330
1238
100
AcDbEntity
  8
FG-$$$$$$$-OSBASE
  6
Continuous
100
AcDbLine
 10
86693.9864
 20
18471.5614
 30
0.0
 11
86693.3854
 21
18470.419
 31
0.0
  0
LINE
  5
24B
330
1238
100
AcDbEntity
  8
FG-$$$$$$$-OSBASE
  6
Continuous
100
AcDbLine
 10
86693.3854
 20
18470.419
 30
0.0
 11
86693.38230000001
 21
18471.7093
 31
0.0
  0
LINE
  5
24C
330
1238
100
AcDbEntity
  8
FG-$$$$$$$-OSBASE
  6
Continuous
100
AcDbLine
 10
86695.10800000001
 20
18471.4188
 30
0.0
 11
86695.7232
 21
18471.35039999999
 31
0.0
  0
LINE
  5
24D
330
1238
100
AcDbEntity
  8
FG-$$$$$$$-OSBASE
  6
Continuous
100
AcDbLine
 10
86695.7232
 20
18471.35039999999
 30
0.0
 11
86695.28060000001
 21
18470.1379
 31
0.0
  0
LINE
  5
24E
330
1238
100
AcDbEntity
  8
FG-$$$$$$$-OSBASE
  6
Continuous
100
AcDbLine
 10
86695.28060000001
 20
18470.1379
 30
0.0
 11
86695.10470000003
 21
18471.4162
 31
0.0
  0
LINE
  5
24F
330
1238
100
AcDbEntity
  8
FG-$$$$$$$-OSBASE
  6
Continuous
100
AcDbLine
 10
86696.84550000001
 20
18471.2104
 30
0.0
 11
86697.4598
 21
18471.1336
 31
0.0
  0
LINE
  5
250
330
1238
100
AcDbEntity
  8
FG-$$$$$$$-OSBASE
  6
Continuous
100
AcDbLine
 10
86697.4598
 20
18471.1336
 30
0.0
 11
86697.0006
 21
18469.9273
 31
0.0
  0
LINE
  5
251
330
1238
100
AcDbEntity
  8
FG-$$$$$$$-OSBASE
  6
Continuous
100
AcDbLine
 10
86697.0006
 20
18469.9273
 30
0.0
 11
86696.8422
 21
18471.2078
 31
0.0
  0
LINE
  5
252
330
1238
100
AcDbEntity
  8
FG-$$$$$$$-OSBASE
  6
Continuous
100
AcDbLine
 10
86698.5855
 20
18471.0492
 30
0.0
 11
86699.2045
 21
18471.0492
 31
0.0
  0
LINE
  5
253
330
1238
100
AcDbEntity
  8
FG-$$$$$$$-OSBASE
  6
Continuous
100
AcDbLine
 10
86699.2045
 20
18471.0492
 30
0.0
 11
86698.8985
 21
18469.7952
 31
0.0
  0
LINE
  5
254
330
1238
100
AcDbEntity
  8
FG-$$$$$$$-OSBASE
  6
Continuous
100
AcDbLine
 10
86698.8985
 20
18469.7952
 30
0.0
 11
86698.5825
 21
18471.04619999999
 31
0.0
  0
LINE
  5
255
330
1238
100
AcDbEntity
  8
FG-$$$$$$$-OSBASE
  6
Continuous
100
AcDbLine
 10
86700.33550000002
 20
18471.0492
 30
0.0
 11
86700.9545
 21
18471.0492
 31
0.0
  0
LINE
  5
256
330
1238
100
AcDbEntity
  8
FG-$$$$$$$-OSBASE
  6
Continuous
100
AcDbLine
 10
86700.9545
 20
18471.0492
 30
0.0
 11
86700.64850000001
 21
18469.7952
 31
0.0
  0
LINE
  5
257
330
1238
100
AcDbEntity
  8
FG-$$$$$$$-OSBASE
  6
Continuous
100
AcDbLine
 10
86700.64850000001
 20
18469.7952
 30
0.0
 11
86700.3325
 21
18471.04619999999
 31
0.0
  0
LINE
  5
258
330
1238
100
AcDbEntity
  8
FG-$$$$$$$-OSBASE
  6
Continuous
100
AcDbLine
 10
86702.08549999999
 20
18471.0492
 30
0.0
 11
86702.7045
 21
18471.0492
 31
0.0
  0
LINE
  5
259
330
1238
100
AcDbEntity
  8
FG-$$$$$$$-OSBASE
  6
Continuous
100
AcDbLine
 10
86702.7045
 20
18471.0492
 30
0.0
 11
86702.39850000001
 21
18469.7952
 31
0.0
  0
LINE
  5
25A
330
1238
100
AcDbEntity
  8
FG-$$$$$$$-OSBASE
  6
Continuous
100
AcDbLine
 10
86702.39850000001
 20
18469.7952
 30
0.0
 11
86702.08249999999
 21
18471.04619999999
 31
0.0
  0
LINE
  5
25B
330
1238
100
AcDbEntity
  8
FG-$$$$$$$-OSBASE
  6
Continuous
100
AcDbLine
 10
86703.7238
 20
18471.5324
 30
0.0
 11
86704.28000000001
 21
18471.804
 31
0.0
  0
LINE
  5
25C
330
1238
100
AcDbEntity
  8
FG-$$$$$$$-OSBASE
  6
Continuous
100
AcDbLine
 10
86704.28000000001
 20
18471.804
 30
0.0
 11
86704.5554
 21
18470.5429
 31
0.0
  0
LINE
  5
25D
330
1238
100
AcDbEntity
  8
FG-$$$$$$$-OSBASE
  6
Continuous
100
AcDbLine
 10
86704.5554
 20
18470.5429
 30
0.0
 11
86703.7224
 21
18471.5283
 31
0.0
  0
LINE
  5
25E
330
1238
100
AcDbEntity
  8
FG-$$$$$$$-OSBASE
  6
Continuous
100
AcDbLine
 10
86705.2963
 20
18472.3003
 30
0.0
 11
86705.85250000002
 21
18472.57199999999
 31
0.0
  0
LINE
  5
25F
330
1238
100
AcDbEntity
  8
FG-$$$$$$$-OSBASE
  6
Continuous
100
AcDbLine
 10
86705.85250000002
 20
18472.57199999999
 30
0.0
 11
86706.1279
 21
18471.3109
 31
0.0
  0
LINE
  5
260
330
1238
100
AcDbEntity
  8
FG-$$$$$$$-OSBASE
  6
Continuous
100
AcDbLine
 10
86706.1279
 20
18471.3109
 30
0.0
 11
86705.29490000001
 21
18472.2963
 31
0.0
  0
LINE
  5
261
330
1238
100
AcDbEntity
  8
FG-$$$$$$$-OSBASE
  6
Continuous
100
AcDbLine
 10
86706.8764
 20
18473.0544
 30
0.0
 11
86707.40720000002
 21
18473.37279999999
 31
0.0
  0
LINE
  5
262
330
1238
100
AcDbEntity
  8
FG-$$$$$$$-OSBASE
  6
Continuous
100
AcDbLine
 10
86707.40720000002
 20
18473.37279999999
 30
0.0
 11
86707.7899
 21
18472.1401
 31
0.0
  0
LINE
  5
263
330
1238
100
AcDbEntity
  8
FG-$$$$$$$-OSBASE
  6
Continuous
100
AcDbLine
 10
86707.7899
 20
18472.1401
 30
0.0
 11
86706.8753
 21
18473.0503
 31
0.0
  0
LINE
  5
264
330
1238
100
AcDbEntity
  8
FG-$$$$$$$-OSBASE
  6
Continuous
100
AcDbLine
 10
86708.4321
 20
18473.848
 30
0.0
 11
86708.98580000001
 21
18474.1248
 31
0.0
  0
LINE
  5
265
330
1238
100
AcDbEntity
  8
FG-$$$$$$$-OSBASE
  6
Continuous
100
AcDbLine
 10
86708.98580000001
 20
18474.1248
 30
0.0
 11
86709.27290000001
 21
18472.8664
 31
0.0
  0
LINE
  5
266
330
1238
100
AcDbEntity
  8
FG-$$$$$$$-OSBASE
  6
Continuous
100
AcDbLine
 10
86709.27290000001
 20
18472.8664
 30
0.0
 11
86708.4308
 21
18473.844
 31
0.0
  0
LINE
  5
267
330
1238
100
AcDbEntity
  8
FG-$$$$$$$-OSBASE
  6
Continuous
100
AcDbLine
 10
86710.0684
 20
18474.45869999999
 30
0.0
 11
86710.66360000001
 21
18474.6288
 31
0.0
  0
LINE
  5
268
330
1238
100
AcDbEntity
  8
FG-$$$$$$$-OSBASE
  6
Continuous
100
AcDbLine
 10
86710.66360000001
 20
18474.6288
 30
0.0
 11
86710.71389999999
 21
18473.33899999999
 31
0.0
  0
LINE
  5
269
330
1238
100
AcDbEntity
  8
FG-$$$$$$$-OSBASE
  6
Continuous
100
AcDbLine
 10
86710.71389999999
 20
18473.33899999999
 30
0.0
 11
86710.06640000001
 21
18474.455
 31
0.0
  0
LINE
  5
26A
330
1238
100
AcDbEntity
  8
FG-$$$$$$$-OSBASE
  6
Continuous
100
AcDbLine
 10
86711.7581
 20
18474.8987
 30
0.0
 11
86712.3533
 21
18475.0687
 31
0.0
  0
LINE
  5
26B
330
1238
100
AcDbEntity
  8
FG-$$$$$$$-OSBASE
  6
Continuous
100
AcDbLine
 10
86712.3533
 20
18475.0687
 30
0.0
 11
86712.4034
 21
18473.7789
 31
0.0
  0
LINE
  5
26C
330
1238
100
AcDbEntity
  8
FG-$$$$$$$-OSBASE
  6
Continuous
100
AcDbLine
 10
86712.4034
 20
18473.7789
 30
0.0
 11
86711.75600000001
 21
18474.895
 31
0.0
  0
LINE
  5
26D
330
1238
100
AcDbEntity
  8
FG-$$$$$$$-OSBASE
  6
Continuous
100
AcDbLine
 10
86713.46560000001
 20
18475.2533
 30
0.0
 11
86714.0784
 21
18475.34089999999
 31
0.0
  0
LINE
  5
26E
330
1238
100
AcDbEntity
  8
FG-$$$$$$$-OSBASE
  6
Continuous
100
AcDbLine
 10
86714.0784
 20
18475.34089999999
 30
0.0
 11
86713.9529
 21
18474.05619999999
 31
0.0
  0
LINE
  5
26F
330
1238
100
AcDbEntity
  8
FG-$$$$$$$-OSBASE
  6
Continuous
100
AcDbLine
 10
86713.9529
 20
18474.05619999999
 30
0.0
 11
86713.4631
 21
18475.2499
 31
0.0
  0
LINE
  5
270
330
1238
100
AcDbEntity
  8
FG-$$$$$$$-OSBASE
  6
Continuous
100
AcDbLine
 10
86715.2006
 20
18475.4487
 30
0.0
 11
86715.81960000002
 21
18475.4487
 31
0.0
  0
LINE
  5
271
330
1238
100
AcDbEntity
  8
FG-$$$$$$$-OSBASE
  6
Continuous
100
AcDbLine
 10
86715.81960000002
 20
18475.4487
 30
0.0
 11
86715.5136
 21
18474.1947
 31
0.0
  0
LINE
  5
272
330
1238
100
AcDbEntity
  8
FG-$$$$$$$-OSBASE
  6
Continuous
100
AcDbLine
 10
86715.5136
 20
18474.1947
 30
0.0
 11
86715.1976
 21
18475.4457
 31
0.0
  0
LINE
  5
273
330
1238
100
AcDbEntity
  8
FG-$$$$$$$-OSBASE
  6
Continuous
100
AcDbLine
 10
86716.9406
 20
18475.5141
 30
0.0
 11
86717.5512
 21
18475.4123
 31
0.0
  0
LINE
  5
274
330
1238
100
AcDbEntity
  8
FG-$$$$$$$-OSBASE
  6
Continuous
100
AcDbLine
 10
86717.5512
 20
18475.4123
 30
0.0
 11
86717.04319999999
 21
18474.2257
 31
0.0
  0
LINE
  5
275
330
1238
100
AcDbEntity
  8
FG-$$$$$$$-OSBASE
  6
Continuous
100
AcDbLine
 10
86717.04319999999
 20
18474.2257
 30
0.0
 11
86716.93710000001
 21
18475.5116
 31
0.0
  0
LINE
  5
276
330
1238
100
AcDbEntity
  8
FG-$$$$$$$-OSBASE
  6
Continuous
100
AcDbLine
 10
86718.6844
 20
18475.4049
 30
0.0
 11
86719.2881
 21
18475.26829999999
 31
0.0
  0
LINE
  5
277
330
1238
100
AcDbEntity
  8
FG-$$$$$$$-OSBASE
  6
Continuous
100
AcDbLine
 10
86719.2881
 20
18475.26829999999
 30
0.0
 11
86718.7127
 21
18474.1128
 31
0.0
  0
LINE
  5
278
330
1238
100
AcDbEntity
  8
FG-$$$$$$$-OSBASE
  6
Continuous
100
AcDbLine
 10
86718.7127
 20
18474.1128
 30
0.0
 11
86718.68080000002
 21
18475.4027
 31
0.0
  0
LINE
  5
279
330
1238
100
AcDbEntity
  8
FG-$$$$$$$-OSBASE
  6
Continuous
100
AcDbLine
 10
86720.3912
 20
18475.0185
 30
0.0
 11
86720.9949
 21
18474.8818
 31
0.0
  0
LINE
  5
27A
330
1238
100
AcDbEntity
  8
FG-$$$$$$$-OSBASE
  6
Continuous
100
AcDbLine
 10
86720.9949
 20
18474.8818
 30
0.0
 11
86720.4195
 21
18473.7263
 31
0.0
  0
LINE
  5
27B
330
1238
100
AcDbEntity
  8
FG-$$$$$$$-OSBASE
  6
Continuous
100
AcDbLine
 10
86720.4195
 20
18473.7263
 30
0.0
 11
86720.38760000002
 21
18475.0162
 31
0.0
  0
LINE
  5
27C
330
1238
100
AcDbEntity
  8
FG-$$$$$$$-OSBASE
  6
Continuous
100
AcDbLine
 10
86722.098
 20
18474.632
 30
0.0
 11
86722.7017
 21
18474.4953
 31
0.0
  0
LINE
  5
27D
330
1238
100
AcDbEntity
  8
FG-$$$$$$$-OSBASE
  6
Continuous
100
AcDbLine
 10
86722.7017
 20
18474.4953
 30
0.0
 11
86722.1263
 21
18473.3399
 31
0.0
  0
LINE
  5
27E
330
1238
100
AcDbEntity
  8
FG-$$$$$$$-OSBASE
  6
Continuous
100
AcDbLine
 10
86722.1263
 20
18473.3399
 30
0.0
 11
86722.09440000002
 21
18474.6298
 31
0.0
  0
LINE
  5
27F
330
1238
100
AcDbEntity
  8
FG-$$$$$$$-OSBASE
  6
Continuous
100
AcDbLine
 10
86723.80480000001
 20
18474.2456
 30
0.0
 11
86724.4085
 21
18474.10889999999
 31
0.0
  0
LINE
  5
280
330
1238
100
AcDbEntity
  8
FG-$$$$$$$-OSBASE
  6
Continuous
100
AcDbLine
 10
86724.4085
 20
18474.10889999999
 30
0.0
 11
86723.8331
 21
18472.9534
 31
0.0
  0
LINE
  5
281
330
1238
100
AcDbEntity
  8
FG-$$$$$$$-OSBASE
  6
Continuous
100
AcDbLine
 10
86723.8331
 20
18472.9534
 30
0.0
 11
86723.80120000002
 21
18474.2433
 31
0.0
  0
LINE
  5
282
330
1238
100
AcDbEntity
  8
FG-$$$$$$$-OSBASE
  6
Continuous
100
AcDbLine
 10
86725.4362
 20
18473.6282
 30
0.0
 11
86726.00430000002
 21
18473.38249999999
 31
0.0
  0
LINE
  5
283
330
1238
100
AcDbEntity
  8
FG-$$$$$$$-OSBASE
  6
Continuous
100
AcDbLine
 10
86726.00430000002
 20
18473.38249999999
 30
0.0
 11
86725.2258
 21
18472.3529
 31
0.0
  0
LINE
  5
284
330
1238
100
AcDbEntity
  8
FG-$$$$$$$-OSBASE
  6
Continuous
100
AcDbLine
 10
86725.2258
 20
18472.3529
 30
0.0
 11
86725.43220000001
 21
18473.6266
 31
0.0
  0
LINE
  5
285
330
1238
100
AcDbEntity
  8
FG-$$$$$$$-OSBASE
  6
Continuous
100
AcDbLine
 10
86727.0424
 20
18472.9336
 30
0.0
 11
86727.6106
 21
18472.6879
 31
0.0
  0
LINE
  5
286
330
1238
100
AcDbEntity
  8
FG-$$$$$$$-OSBASE
  6
Continuous
100
AcDbLine
 10
86727.6106
 20
18472.6879
 30
0.0
 11
86726.83200000001
 21
18471.6584
 31
0.0
  0
LINE
  5
287
330
1238
100
AcDbEntity
  8
FG-$$$$$$$-OSBASE
  6
Continuous
100
AcDbLine
 10
86726.83200000001
 20
18471.6584
 30
0.0
 11
86727.03850000001
 21
18472.932
 31
0.0
  0
LINE
  5
288
330
1238
100
AcDbEntity
  8
FG-$$$$$$$-OSBASE
  6
Continuous
100
AcDbLine
 10
86728.64679999999
 20
18472.2347
 30
0.0
 11
86729.21350000001
 21
18471.9856
 31
0.0
  0
LINE
  5
289
330
1238
100
AcDbEntity
  8
FG-$$$$$$$-OSBASE
  6
Continuous
100
AcDbLine
 10
86729.21350000001
 20
18471.9856
 30
0.0
 11
86728.42880000001
 21
18470.9608
 31
0.0
  0
LINE
  5
28A
330
1238
100
AcDbEntity
  8
FG-$$$$$$$-OSBASE
  6
Continuous
100
AcDbLine
 10
86728.42880000001
 20
18470.9608
 30
0.0
 11
86728.6429
 21
18472.2332
 31
0.0
  0
LINE
  5
28B
330
1238
100
AcDbEntity
  8
FG-$$$$$$$-OSBASE
  6
Continuous
100
AcDbLine
 10
86730.2489
 20
18471.5305
 30
0.0
 11
86730.81559999999
 21
18471.2814
 31
0.0
  0
LINE
  5
28C
330
1238
100
AcDbEntity
  8
FG-$$$$$$$-OSBASE
  6
Continuous
100
AcDbLine
 10
86730.81559999999
 20
18471.2814
 30
0.0
 11
86730.0308
 21
18470.2566
 31
0.0
  0
LINE
  5
28D
330
1238
100
AcDbEntity
  8
FG-$$$$$$$-OSBASE
  6
Continuous
100
AcDbLine
 10
86730.0308
 20
18470.2566
 30
0.0
 11
86730.2449
 21
18471.529
 31
0.0
  0
LINE
  5
28E
330
1238
100
AcDbEntity
  8
FG-$$$$$$$-OSBASE
  6
Continuous
100
AcDbLine
 10
86731.85100000001
 20
18470.8263
 30
0.0
 11
86732.41759999999
 21
18470.5772
 31
0.0
  0
LINE
  5
28F
330
1238
100
AcDbEntity
  8
FG-$$$$$$$-OSBASE
  6
Continuous
100
AcDbLine
 10
86732.41759999999
 20
18470.5772
 30
0.0
 11
86731.63290000001
 21
18469.5524
 31
0.0
  0
LINE
  5
290
330
1238
100
AcDbEntity
  8
FG-$$$$$$$-OSBASE
  6
Continuous
100
AcDbLine
 10
86731.63290000001
 20
18469.5524
 30
0.0
 11
86731.84700000001
 21
18470.8248
 31
0.0
  0
LINE
  5
291
330
1238
100
AcDbEntity
  8
FG-$$$$$$$-OSBASE
  6
Continuous
100
AcDbLine
 10
86733.45300000001
 20
18470.1221
 30
0.0
 11
86734.0197
 21
18469.873
 31
0.0
  0
LINE
  5
292
330
1238
100
AcDbEntity
  8
FG-$$$$$$$-OSBASE
  6
Continuous
100
AcDbLine
 10
86734.0197
 20
18469.873
 30
0.0
 11
86733.235
 21
18468.8482
 31
0.0
  0
LINE
  5
293
330
1238
100
AcDbEntity
  8
FG-$$$$$$$-OSBASE
  6
Continuous
100
AcDbLine
 10
86733.235
 20
18468.8482
 30
0.0
 11
86733.4491
 21
18470.1206
 31
0.0
  0
LINE
  5
294
330
1238
100
AcDbEntity
  8
FG-$$$$$$$-OSBASE
  6
Continuous
100
AcDbLine
 10
86735.0551
 20
18469.41789999999
 30
0.0
 11
86735.62180000001
 21
18469.1688
 31
0.0
  0
LINE
  5
295
330
1238
100
AcDbEntity
  8
FG-$$$$$$$-OSBASE
  6
Continuous
100
AcDbLine
 10
86735.62180000001
 20
18469.1688
 30
0.0
 11
86734.837
 21
18468.144
 31
0.0
  0
LINE
  5
296
330
1238
100
AcDbEntity
  8
FG-$$$$$$$-OSBASE
  6
Continuous
100
AcDbLine
 10
86734.837
 20
18468.144
 30
0.0
 11
86735.0511
 21
18469.4164
 31
0.0
  0
LINE
  5
297
330
1238
100
AcDbEntity
  8
FG-$$$$$$$-OSBASE
  6
Continuous
100
AcDbLine
 10
86736.6572
 20
18468.7137
 30
0.0
 11
86737.2238
 21
18468.4647
 31
0.0
  0
LINE
  5
298
330
1238
100
AcDbEntity
  8
FG-$$$$$$$-OSBASE
  6
Continuous
100
AcDbLine
 10
86737.2238
 20
18468.4647
 30
0.0
 11
86736.4391
 21
18467.4398
 31
0.0
  0
LINE
  5
299
330
1238
100
AcDbEntity
  8
FG-$$$$$$$-OSBASE
  6
Continuous
100
AcDbLine
 10
86736.4391
 20
18467.4398
 30
0.0
 11
86736.65320000002
 21
18468.7122
 31
0.0
  0
LINE
  5
29A
330
1238
100
AcDbEntity
  8
FG-$$$$$$$-OSBASE
  6
Continuous
100
AcDbLine
 10
86738.2656
 20
18468.0243
 30
0.0
 11
86738.8352
 21
18467.7821
 31
0.0
  0
LINE
  5
29B
330
1238
100
AcDbEntity
  8
FG-$$$$$$$-OSBASE
  6
Continuous
100
AcDbLine
 10
86738.8352
 20
18467.7821
 30
0.0
 11
86738.5775209764
 21
18467.43703765868
 31
0.0
  0
LINE
  5
29C
330
1238
100
AcDbEntity
  8
FG-$$$$$$$-OSBASE
  6
Continuous
100
AcDbLine
 10
86738.17035985297
 20
18467.43703765868
 30
0.0
 11
86738.26169999999
 21
18468.0228
 31
0.0
  0
ARC
  5
2A9
330
1238
100
AcDbEntity
  8
FG-$$$$$$$-OSBASE
  6
USTATION4
100
AcDbCircle
 10
88074.7551043656
 20
23109.86008699899
 30
0.0
 40
4840.0
100
AcDbArc
 50
252.008577834536
 51
253.5724931323036
  0
ARC
  5
2AB
330
1238
100
AcDbEntity
  8
FG-$$$$$$$-OSBASE
  6
USTATION4
100
AcDbCircle
 10
88074.7551043656
 20
23109.86008699899
 30
0.0
 40
4844.5
100
AcDbArc
 50
252.0258608564542
 51
253.3929363393843
  0
LINE
  5
2AC
330
1238
100
AcDbEntity
  8
FG-$$$$$$$-OSBASE
  6
USTATION3
100
AcDbLine
 10
86579.80200717661
 20
18477.60521185166
 30
0.0
 11
86610.08308471432
 21
18467.43703765868
 31
0.0
  0
LINE
  5
2AE
330
1238
100
AcDbEntity
  8
FG-$$$$$$$-OSBASE
  6
USTATION5
100
AcDbLine
 10
86614.2937648474
 20
18467.43703765868
 30
0.0
 11
86607.4449
 21
18469.5493
 31
0.0
  0
LINE
  5
2B0
330
1238
100
AcDbEntity
  8
FG-$$$$$$$-OSBASE
  6
USTATION5
100
AcDbLine
 10
86607.4449
 20
18469.5493
 30
0.0
 11
86579.80200717661
 21
18478.73328412769
 31
0.0
  0
LINE
  5
2B1
330
1238
100
AcDbEntity
  8
FG-$$$$$$$-OSBASE
  6
Continuous
100
AcDbLine
 10
86742.73357572831
 20
18467.43703765868
 30
0.0
 11
86725.3321
 21
18474.8488
 31
0.0
  0
LINE
  5
2B2
330
1238
100
AcDbEntity
  8
FG-$$$$$$$-OSBASE
  6
Continuous
100
AcDbLine
 10
86725.3321
 20
18474.8488
 30
0.0
 11
86703.2345
 21
18481.74799999999
 31
0.0
  0
LINE
  5
2B3
330
1238
100
AcDbEntity
  8
FG-$$$$$$$-OSBASE
  6
Continuous
100
AcDbLine
 10
86703.2345
 20
18481.74799999999
 30
0.0
 11
86665.6386
 21
18493.8467
 31
0.0
  0
LINE
  5
2B4
330
1238
100
AcDbEntity
  8
FG-$$$$$$$-OSBASE
  6
Continuous
100
AcDbLine
 10
86665.6386
 20
18493.8467
 30
0.0
 11
86636.14179999998
 21
18503.1457
 31
0.0
  0
LINE
  5
2B5
330
1238
100
AcDbEntity
  8
FG-$$$$$$$-OSBASE
  6
Continuous
100
AcDbLine
 10
86636.14179999998
 20
18503.1457
 30
0.0
 11
86624.34300000001
 21
18507.0453
 31
0.0
  0
LINE
  5
2B6
330
1238
100
AcDbEntity
  8
FG-$$$$$$$-OSBASE
  6
Continuous
100
AcDbLine
 10
86624.34300000001
 20
18507.0453
 30
0.0
 11
86601.64550000001
 21
18513.3446
 31
0.0
  0
LINE
  5
2B7
330
1238
100
AcDbEntity
  8
FG-$$$$$$$-OSBASE
  6
Continuous
100
AcDbLine
 10
86601.64550000001
 20
18513.3446
 30
0.0
 11
86580.74779999998
 21
18519.6439
 31
0.0
  0
LINE
  5
2B8
330
1238
100
AcDbEntity
  8
FG-$$$$$$$-OSBASE
  6
Continuous
100
AcDbLine
 10
86580.74779999998
 20
18519.6439
 30
0.0
 11
86579.80200717661
 21
18519.86696623928
 31
0.0
  0
LINE
  5
2B9
330
1238
100
AcDbEntity
  8
FG-$$$$$$$-OSBASE
  6
USTATION3
100
AcDbLine
 10
86649.405299454
 20
18467.43703765868
 30
0.0
 11
86646.54060000001
 21
18468.3495
 31
0.0
  0
LINE
  5
2BA
330
1238
100
AcDbEntity
  8
FG-$$$$$$$-OSBASE
  6
USTATION3
100
AcDbLine
 10
86646.54060000001
 20
18468.3495
 30
0.0
 11
86592.7465
 21
18485.7476
 31
0.0
  0
LINE
  5
2BB
330
1238
100
AcDbEntity
  8
FG-$$$$$$$-OSBASE
  6
USTATION3
100
AcDbLine
 10
86592.7465
 20
18485.7476
 30
0.0
 11
86579.80200717661
 21
18490.07008044006
 31
0.0
  0
LINE
  5
2BC
330
1238
100
AcDbEntity
  8
FG-$$$$$$$-OSBASE
  6
Continuous
100
AcDbLine
 10
86638.3646875291
 20
18467.43703765868
 30
0.0
 11
86629.24250000001
 21
18470.3493
 31
0.0
  0
LINE
  5
2BD
330
1238
100
AcDbEntity
  8
FG-$$$$$$$-OSBASE
  6
Continuous
100
AcDbLine
 10
86629.24250000001
 20
18470.3493
 30
0.0
 11
86598.44579999999
 21
18480.14819999999
 31
0.0
  0
LINE
  5
2BE
330
1238
100
AcDbEntity
  8
FG-$$$$$$$-OSBASE
  6
Continuous
100
AcDbLine
 10
86598.44579999999
 20
18480.14819999999
 30
0.0
 11
86579.80200717661
 21
18486.23789849416
 31
0.0
  0
LINE
  5
2BF
330
1238
100
AcDbEntity
  8
FG-$$$$$$$-OSBASE
  6
Continuous
100
AcDbLine
 10
86626.3414182069
 20
18467.43703765868
 30
0.0
 11
86608.74470000001
 21
18473.04899999999
 31
0.0
  0
LINE
  5
2C0
330
1238
100
AcDbEntity
  8
FG-$$$$$$$-OSBASE
  6
Continuous
100
AcDbLine
 10
86608.74470000001
 20
18473.04899999999
 30
0.0
 11
86579.80200717661
 21
18482.40887586939
 31
0.0
  0
LINE
  5
2C1
330
1238
100
AcDbEntity
  8
FG-$$$$$$$-OSBASE
  6
USTATION5
100
AcDbLine
 10
86644.16318524197
 20
18467.43703765868
 30
0.0
 11
86642.24110000001
 21
18468.0495
 31
0.0
  0
LINE
  5
2C2
330
1238
100
AcDbEntity
  8
FG-$$$$$$$-OSBASE
  6
USTATION5
100
AcDbLine
 10
86642.24110000001
 20
18468.0495
 30
0.0
 11
86605.5451
 21
18479.9482
 31
0.0
  0
LINE
  5
2C3
330
1238
100
AcDbEntity
  8
FG-$$$$$$$-OSBASE
  6
USTATION5
100
AcDbLine
 10
86605.5451
 20
18479.9482
 30
0.0
 11
86579.80200717661
 21
18488.54871586318
 31
0.0
  0
LINE
  5
2C4
330
1238
100
AcDbEntity
  8
FG-$$$$$$$-OSBASE
  6
Continuous
100
AcDbLine
 10
86621.48784072595
 20
18467.43703765868
 30
0.0
 11
86608.2448
 21
18471.6491
 31
0.0
  0
LINE
  5
2C5
330
1238
100
AcDbEntity
  8
FG-$$$$$$$-OSBASE
  6
Continuous
100
AcDbLine
 10
86608.2448
 20
18471.6491
 30
0.0
 11
86579.80200717661
 21
18480.91259844829
 31
0.0
  0
LINE
  5
2C6
330
1238
100
AcDbEntity
  8
FG-$$$$$$$-OSBASE
  6
Continuous
100
AcDbLine
 10
86633.5798065066
 20
18467.43703765868
 30
0.0
 11
86628.8426
 21
18468.9494
 31
0.0
  0
LINE
  5
2C7
330
1238
100
AcDbEntity
  8
FG-$$$$$$$-OSBASE
  6
Continuous
100
AcDbLine
 10
86628.8426
 20
18468.9494
 30
0.0
 11
86597.9459
 21
18478.7483
 31
0.0
  0
LINE
  5
2C8
330
1238
100
AcDbEntity
  8
FG-$$$$$$$-OSBASE
  6
Continuous
100
AcDbLine
 10
86597.9459
 20
18478.7483
 30
0.0
 11
86579.80200717661
 21
18484.67469921535
 31
0.0
  0
LINE
  5
2CB
330
1238
100
AcDbEntity
  8
FG-$$$$$$$-OSBASE
  6
Continuous
100
AcDbLine
 10
86756.27122493414
 20
18486.80209734773
 30
0.0
 11
86759.6284
 21
18514.34449999999
 31
0.0
  0
LINE
  5
2CC
330
1238
100
AcDbEntity
  8
FG-$$$$$$$-OSBASE
  6
Continuous
100
AcDbLine
 10
86759.6284
 20
18514.34449999999
 30
0.0
 11
86763.528
 21
18537.042
 31
0.0
  0
LINE
  5
2CD
330
1238
100
AcDbEntity
  8
FG-$$$$$$$-OSBASE
  6
Continuous
100
AcDbLine
 10
86763.528
 20
18537.042
 30
0.0
 11
86768.42739999999
 21
18552.3404
 31
0.0
  0
LINE
  5
2CE
330
1238
100
AcDbEntity
  8
FG-$$$$$$$-OSBASE
  6
Continuous
100
AcDbLine
 10
86768.42739999999
 20
18552.3404
 30
0.0
 11
86769.80200717661
 21
18557.34781808026
 31
0.0
  0
LINE
  5
2D3
330
1238
100
AcDbEntity
  8
FG-$$$$$$$-OSBASE
  6
Continuous
100
AcDbLine
 10
86769.5273
 20
18516.84419999999
 30
0.0
 11
86769.80200717661
 21
18516.7782733547
 31
0.0
  0
LINE
  5
2D7
330
1238
100
AcDbEntity
  8
FG-$$$$$$$-OSBASE
  6
USTATION1
100
AcDbLine
 10
86688.0968872644
 20
18467.43703765868
 30
0.0
 11
86687.9361
 21
18467.5496
 31
0.0
  0
LINE
  5
2D8
330
1238
100
AcDbEntity
  8
FG-$$$$$$$-OSBASE
  6
USTATION1
100
AcDbLine
 10
86687.9361
 20
18467.5496
 30
0.0
 11
86687.0362
 21
18468.3495
 31
0.0
  0
LINE
  5
2D9
330
1238
100
AcDbEntity
  8
FG-$$$$$$$-OSBASE
  6
USTATION1
100
AcDbLine
 10
86687.0362
 20
18468.3495
 30
0.0
 11
86685.13650000001
 21
18469.7493
 31
0.0
  0
LINE
  5
2DA
330
1238
100
AcDbEntity
  8
FG-$$$$$$$-OSBASE
  6
USTATION1
100
AcDbLine
 10
86685.13650000001
 20
18469.7493
 30
0.0
 11
86683.33660000001
 21
18471.1492
 31
0.0
  0
LINE
  5
2DB
330
1238
100
AcDbEntity
  8
FG-$$$$$$$-OSBASE
  6
USTATION1
100
AcDbLine
 10
86683.33660000001
 20
18471.1492
 30
0.0
 11
86681.4369
 21
18472.649
 31
0.0
  0
LINE
  5
2DC
330
1238
100
AcDbEntity
  8
FG-$$$$$$$-OSBASE
  6
USTATION1
100
AcDbLine
 10
86681.4369
 20
18472.649
 30
0.0
 11
86679.73700000001
 21
18474.1488
 31
0.0
  0
LINE
  5
2DD
330
1238
100
AcDbEntity
  8
FG-$$$$$$$-OSBASE
  6
USTATION1
100
AcDbLine
 10
86679.73700000001
 20
18474.1488
 30
0.0
 11
86678.0372
 21
18475.7487
 31
0.0
  0
LINE
  5
2DE
330
1238
100
AcDbEntity
  8
FG-$$$$$$$-OSBASE
  6
USTATION1
100
AcDbLine
 10
86678.0372
 20
18475.7487
 30
0.0
 11
86676.3374
 21
18477.4485
 31
0.0
  0
LINE
  5
2DF
330
1238
100
AcDbEntity
  8
FG-$$$$$$$-OSBASE
  6
USTATION1
100
AcDbLine
 10
86676.3374
 20
18477.4485
 30
0.0
 11
86675.5375
 21
18478.5484
 31
0.0
  0
LINE
  5
2E0
330
1238
100
AcDbEntity
  8
FG-$$$$$$$-OSBASE
  6
USTATION1
100
AcDbLine
 10
86675.5375
 20
18478.5484
 30
0.0
 11
86674.73760000001
 21
18479.64819999999
 31
0.0
  0
LINE
  5
2E1
330
1238
100
AcDbEntity
  8
FG-$$$$$$$-OSBASE
  6
USTATION1
100
AcDbLine
 10
86674.73760000001
 20
18479.64819999999
 30
0.0
 11
86673.93770000002
 21
18480.84809999999
 31
0.0
  0
LINE
  5
2E2
330
1238
100
AcDbEntity
  8
FG-$$$$$$$-OSBASE
  6
USTATION1
100
AcDbLine
 10
86673.93770000002
 20
18480.84809999999
 30
0.0
 11
86673.23769999998
 21
18482.048
 31
0.0
  0
LINE
  5
2E3
330
1238
100
AcDbEntity
  8
FG-$$$$$$$-OSBASE
  6
USTATION1
100
AcDbLine
 10
86673.23769999998
 20
18482.048
 30
0.0
 11
86672.5378
 21
18483.2479
 31
0.0
  0
LINE
  5
2E4
330
1238
100
AcDbEntity
  8
FG-$$$$$$$-OSBASE
  6
USTATION1
100
AcDbLine
 10
86672.5378
 20
18483.2479
 30
0.0
 11
86671.9379
 21
18484.4477
 31
0.0
  0
LINE
  5
2E5
330
1238
100
AcDbEntity
  8
FG-$$$$$$$-OSBASE
  6
USTATION1
100
AcDbLine
 10
86671.9379
 20
18484.4477
 30
0.0
 11
86671.138
 21
18485.5476
 31
0.0
  0
LINE
  5
2E6
330
1238
100
AcDbEntity
  8
FG-$$$$$$$-OSBASE
  6
USTATION1
100
AcDbLine
 10
86671.138
 20
18485.5476
 30
0.0
 11
86670.33810000001
 21
18486.7475
 31
0.0
  0
LINE
  5
2E7
330
1238
100
AcDbEntity
  8
FG-$$$$$$$-OSBASE
  6
USTATION1
100
AcDbLine
 10
86670.33810000001
 20
18486.7475
 30
0.0
 11
86669.5381
 21
18487.8474
 31
0.0
  0
LINE
  5
2E8
330
1238
100
AcDbEntity
  8
FG-$$$$$$$-OSBASE
  6
USTATION1
100
AcDbLine
 10
86669.5381
 20
18487.8474
 30
0.0
 11
86668.53820000001
 21
18489.0472
 31
0.0
  0
LINE
  5
2E9
330
1238
100
AcDbEntity
  8
FG-$$$$$$$-OSBASE
  6
USTATION1
100
AcDbLine
 10
86668.53820000001
 20
18489.0472
 30
0.0
 11
86667.4384
 21
18490.1471
 31
0.0
  0
LINE
  5
2EA
330
1238
100
AcDbEntity
  8
FG-$$$$$$$-OSBASE
  6
USTATION1
100
AcDbLine
 10
86667.4384
 20
18490.1471
 30
0.0
 11
86666.3385
 21
18491.347
 31
0.0
  0
LINE
  5
2EB
330
1238
100
AcDbEntity
  8
FG-$$$$$$$-OSBASE
  6
USTATION1
100
AcDbLine
 10
86666.3385
 20
18491.347
 30
0.0
 11
86665.1386
 21
18492.4469
 31
0.0
  0
LINE
  5
2EC
330
1238
100
AcDbEntity
  8
FG-$$$$$$$-OSBASE
  6
USTATION1
100
AcDbLine
 10
86665.1386
 20
18492.4469
 30
0.0
 11
86665.6386
 21
18493.8467
 31
0.0
  0
LINE
  5
2F0
330
1238
100
AcDbEntity
  8
FG-$$$$$$$-OSBASE
  6
Continuous
100
AcDbLine
 10
86763.28623457962
 20
18486.80209734773
 30
0.0
 11
86764.52780000001
 21
18502.04579999999
 31
0.0
  0
LINE
  5
2F1
330
1238
100
AcDbEntity
  8
FG-$$$$$$$-OSBASE
  6
Continuous
100
AcDbLine
 10
86764.52780000001
 20
18502.04579999999
 30
0.0
 11
86765.02780000001
 21
18505.6454
 31
0.0
  0
LINE
  5
2F2
330
1238
100
AcDbEntity
  8
FG-$$$$$$$-OSBASE
  6
Continuous
100
AcDbLine
 10
86765.02780000001
 20
18505.6454
 30
0.0
 11
86765.42770000001
 21
18508.24509999999
 31
0.0
  0
LINE
  5
2F3
330
1238
100
AcDbEntity
  8
FG-$$$$$$$-OSBASE
  6
USTATION5
100
AcDbLine
 10
86765.02780000001
 20
18505.6454
 30
0.0
 11
86765.02780000001
 21
18508.1452
 31
0.0
  0
LINE
  5
2F4
330
1238
100
AcDbEntity
  8
FG-$$$$$$$-OSBASE
  6
USTATION5
100
AcDbLine
 10
86765.02780000001
 20
18508.1452
 30
0.0
 11
86764.9278
 21
18508.3451
 31
0.0
  0
LINE
  5
2F5
330
1238
100
AcDbEntity
  8
FG-$$$$$$$-OSBASE
  6
USTATION5
100
AcDbLine
 10
86764.9278
 20
18508.3451
 30
0.0
 11
86764.9278
 21
18509.345
 31
0.0
  0
LINE
  5
2F6
330
1238
100
AcDbEntity
  8
FG-$$$$$$$-OSBASE
  6
USTATION5
100
AcDbLine
 10
86764.9278
 20
18509.345
 30
0.0
 11
86765.02780000001
 21
18509.545
 31
0.0
  0
LINE
  5
2F7
330
1238
100
AcDbEntity
  8
FG-$$$$$$$-OSBASE
  6
USTATION5
100
AcDbLine
 10
86765.02780000001
 20
18509.545
 30
0.0
 11
86765.02780000001
 21
18509.645
 31
0.0
  0
LINE
  5
2F8
330
1238
100
AcDbEntity
  8
FG-$$$$$$$-OSBASE
  6
USTATION5
100
AcDbLine
 10
86765.02780000001
 20
18509.645
 30
0.0
 11
86765.12780000002
 21
18509.745
 31
0.0
  0
LINE
  5
2F9
330
1238
100
AcDbEntity
  8
FG-$$$$$$$-OSBASE
  6
USTATION5
100
AcDbLine
 10
86765.12780000002
 20
18509.745
 30
0.0
 11
86765.2278
 21
18509.945
 31
0.0
  0
LINE
  5
2FA
330
1238
100
AcDbEntity
  8
FG-$$$$$$$-OSBASE
  6
USTATION5
100
AcDbLine
 10
86765.2278
 20
18509.945
 30
0.0
 11
86765.2278
 21
18510.045
 31
0.0
  0
LINE
  5
2FB
330
1238
100
AcDbEntity
  8
FG-$$$$$$$-OSBASE
  6
USTATION5
100
AcDbLine
 10
86765.2278
 20
18510.045
 30
0.0
 11
86765.5277
 21
18510.3449
 31
0.0
  0
LINE
  5
2FC
330
1238
100
AcDbEntity
  8
FG-$$$$$$$-OSBASE
  6
USTATION5
100
AcDbLine
 10
86765.5277
 20
18510.3449
 30
0.0
 11
86765.6277
 21
18510.5449
 31
0.0
  0
LINE
  5
2FD
330
1238
100
AcDbEntity
  8
FG-$$$$$$$-OSBASE
  6
USTATION5
100
AcDbLine
 10
86765.6277
 20
18510.5449
 30
0.0
 11
86765.9277
 21
18510.8449
 31
0.0
  0
LINE
  5
2FE
330
1238
100
AcDbEntity
  8
FG-$$$$$$$-OSBASE
  6
USTATION5
100
AcDbLine
 10
86765.9277
 20
18510.8449
 30
0.0
 11
86766.1277
 21
18510.9449
 31
0.0
  0
LINE
  5
2FF
330
1238
100
AcDbEntity
  8
FG-$$$$$$$-OSBASE
  6
USTATION5
100
AcDbLine
 10
86766.1277
 20
18510.9449
 30
0.0
 11
86766.2277
 21
18511.0448
 31
0.0
  0
LINE
  5
300
330
1238
100
AcDbEntity
  8
FG-$$$$$$$-OSBASE
  6
USTATION5
100
AcDbLine
 10
86766.2277
 20
18511.0448
 30
0.0
 11
86766.42760000001
 21
18511.1448
 31
0.0
  0
LINE
  5
301
330
1238
100
AcDbEntity
  8
FG-$$$$$$$-OSBASE
  6
USTATION5
100
AcDbLine
 10
86766.42760000001
 20
18511.1448
 30
0.0
 11
86766.6276
 21
18511.3448
 31
0.0
  0
LINE
  5
302
330
1238
100
AcDbEntity
  8
FG-$$$$$$$-OSBASE
  6
USTATION5
100
AcDbLine
 10
86766.6276
 20
18511.3448
 30
0.0
 11
86767.2276
 21
18511.6448
 31
0.0
  0
LINE
  5
303
330
1238
100
AcDbEntity
  8
FG-$$$$$$$-OSBASE
  6
USTATION5
100
AcDbLine
 10
86767.2276
 20
18511.6448
 30
0.0
 11
86767.52750000003
 21
18511.7448
 31
0.0
  0
LINE
  5
304
330
1238
100
AcDbEntity
  8
FG-$$$$$$$-OSBASE
  6
USTATION5
100
AcDbLine
 10
86767.52750000003
 20
18511.7448
 30
0.0
 11
86767.72750000001
 21
18511.8448
 31
0.0
  0
LINE
  5
305
330
1238
100
AcDbEntity
  8
FG-$$$$$$$-OSBASE
  6
USTATION5
100
AcDbLine
 10
86767.72750000001
 20
18511.8448
 30
0.0
 11
86767.9275
 21
18511.8448
 31
0.0
  0
LINE
  5
306
330
1238
100
AcDbEntity
  8
FG-$$$$$$$-OSBASE
  6
USTATION5
100
AcDbLine
 10
86767.9275
 20
18511.8448
 30
0.0
 11
86768.12749999999
 21
18511.9447
 31
0.0
  0
LINE
  5
307
330
1238
100
AcDbEntity
  8
FG-$$$$$$$-OSBASE
  6
USTATION5
100
AcDbLine
 10
86768.12749999999
 20
18511.9447
 30
0.0
 11
86768.32740000001
 21
18511.9447
 31
0.0
  0
LINE
  5
308
330
1238
100
AcDbEntity
  8
FG-$$$$$$$-OSBASE
  6
USTATION5
100
AcDbLine
 10
86768.32740000001
 20
18511.9447
 30
0.0
 11
86768.5274
 21
18512.0447
 31
0.0
  0
LINE
  5
309
330
1238
100
AcDbEntity
  8
FG-$$$$$$$-OSBASE
  6
USTATION5
100
AcDbLine
 10
86768.5274
 20
18512.0447
 30
0.0
 11
86769.80200717661
 21
18512.0447
 31
0.0
  0
LINE
  5
310
330
1238
100
AcDbEntity
  8
FG-$$$$$$$-OSBASE
  6
USTATION5
100
AcDbLine
 10
86767.62749999999
 20
18516.1443
 30
0.0
 11
86769.80200717661
 21
18515.12764802765
 31
0.0
  0
LINE
  5
319
330
1238
100
AcDbEntity
  8
FG-$$$$$$$-OSBASE
  6
USTATION5
100
AcDbLine
 10
86769.8273
 20
18531.8426
 30
0.0
 11
86769.8273
 21
18531.64259999999
 31
0.0
  0
LINE
  5
31A
330
1238
100
AcDbEntity
  8
FG-$$$$$$$-OSBASE
  6
USTATION5
100
AcDbLine
 10
86769.8273
 20
18531.64259999999
 30
0.0
 11
86769.72730000001
 21
18531.4426
 31
0.0
  0
LINE
  5
31B
330
1238
100
AcDbEntity
  8
FG-$$$$$$$-OSBASE
  6
USTATION5
100
AcDbLine
 10
86769.72730000001
 20
18531.4426
 30
0.0
 11
86769.62730000001
 21
18531.1427
 31
0.0
  0
LINE
  5
31C
330
1238
100
AcDbEntity
  8
FG-$$$$$$$-OSBASE
  6
USTATION5
100
AcDbLine
 10
86769.62730000001
 20
18531.1427
 30
0.0
 11
86769.62730000001
 21
18530.9427
 31
0.0
  0
LINE
  5
31D
330
1238
100
AcDbEntity
  8
FG-$$$$$$$-OSBASE
  6
USTATION5
100
AcDbLine
 10
86769.62730000001
 20
18530.9427
 30
0.0
 11
86766.92760000001
 21
18518.3441
 31
0.0
  0
LINE
  5
31E
330
1238
100
AcDbEntity
  8
FG-$$$$$$$-OSBASE
  6
USTATION5
100
AcDbLine
 10
86766.92760000001
 20
18518.3441
 30
0.0
 11
86766.92760000001
 21
18518.1441
 31
0.0
  0
LINE
  5
31F
330
1238
100
AcDbEntity
  8
FG-$$$$$$$-OSBASE
  6
USTATION5
100
AcDbLine
 10
86766.92760000001
 20
18518.1441
 30
0.0
 11
86766.8276
 21
18518.04409999999
 31
0.0
  0
LINE
  5
320
330
1238
100
AcDbEntity
  8
FG-$$$$$$$-OSBASE
  6
USTATION5
100
AcDbLine
 10
86766.8276
 20
18518.04409999999
 30
0.0
 11
86766.8276
 21
18517.3442
 31
0.0
  0
LINE
  5
321
330
1238
100
AcDbEntity
  8
FG-$$$$$$$-OSBASE
  6
USTATION5
100
AcDbLine
 10
86766.8276
 20
18517.3442
 30
0.0
 11
86766.92760000001
 21
18517.2442
 31
0.0
  0
LINE
  5
322
330
1238
100
AcDbEntity
  8
FG-$$$$$$$-OSBASE
  6
USTATION5
100
AcDbLine
 10
86766.92760000001
 20
18517.2442
 30
0.0
 11
86766.92760000001
 21
18516.9442
 31
0.0
  0
LINE
  5
323
330
1238
100
AcDbEntity
  8
FG-$$$$$$$-OSBASE
  6
USTATION5
100
AcDbLine
 10
86766.92760000001
 20
18516.9442
 30
0.0
 11
86767.02760000002
 21
18516.84419999999
 31
0.0
  0
LINE
  5
324
330
1238
100
AcDbEntity
  8
FG-$$$$$$$-OSBASE
  6
USTATION5
100
AcDbLine
 10
86767.02760000002
 20
18516.84419999999
 30
0.0
 11
86767.02760000002
 21
18516.7442
 31
0.0
  0
LINE
  5
325
330
1238
100
AcDbEntity
  8
FG-$$$$$$$-OSBASE
  6
USTATION5
100
AcDbLine
 10
86767.02760000002
 20
18516.7442
 30
0.0
 11
86767.1276
 21
18516.6442
 31
0.0
  0
LINE
  5
326
330
1238
100
AcDbEntity
  8
FG-$$$$$$$-OSBASE
  6
USTATION5
100
AcDbLine
 10
86767.1276
 20
18516.6442
 30
0.0
 11
86767.1276
 21
18516.5442
 31
0.0
  0
LINE
  5
327
330
1238
100
AcDbEntity
  8
FG-$$$$$$$-OSBASE
  6
USTATION5
100
AcDbLine
 10
86767.1276
 20
18516.5442
 30
0.0
 11
86767.32750000001
 21
18516.3443
 31
0.0
  0
LINE
  5
328
330
1238
100
AcDbEntity
  8
FG-$$$$$$$-OSBASE
  6
USTATION5
100
AcDbLine
 10
86767.32750000001
 20
18516.3443
 30
0.0
 11
86767.4275
 21
18516.3443
 31
0.0
  0
LINE
  5
329
330
1238
100
AcDbEntity
  8
FG-$$$$$$$-OSBASE
  6
USTATION5
100
AcDbLine
 10
86767.4275
 20
18516.3443
 30
0.0
 11
86767.52750000003
 21
18516.2443
 31
0.0
  0
LINE
  5
32A
330
1238
100
AcDbEntity
  8
FG-$$$$$$$-OSBASE
  6
USTATION5
100
AcDbLine
 10
86767.52750000003
 20
18516.2443
 30
0.0
 11
86767.52750000003
 21
18516.1443
 31
0.0
  0
LINE
  5
32B
330
1238
100
AcDbEntity
  8
FG-$$$$$$$-OSBASE
  6
USTATION5
100
AcDbLine
 10
86767.52750000003
 20
18516.1443
 30
0.0
 11
86767.62749999999
 21
18516.1443
 31
0.0
  0
LINE
  5
32C
330
1238
100
AcDbEntity
  8
FG-$$$$$$$-OSBASE
  6
Continuous
100
AcDbLine
 10
86769.5273
 20
18510.8449
 30
0.0
 11
86765.42770000001
 21
18508.4451
 31
0.0
  0
LINE
  5
32D
330
1238
100
AcDbEntity
  8
FG-$$$$$$$-OSBASE
  6
Continuous
100
AcDbLine
 10
86765.42770000001
 20
18508.4451
 30
0.0
 11
86765.42770000001
 21
18508.24509999999
 31
0.0
  0
LINE
  5
32E
330
1238
100
AcDbEntity
  8
FG-$$$$$$$-OSBASE
  6
Continuous
100
AcDbLine
 10
86765.42770000001
 20
18508.24509999999
 30
0.0
 11
86769.80200717661
 21
18507.61661799327
 31
0.0
  0
LWPOLYLINE
  5
335
330
1238
100
AcDbEntity
  8
PR-07$$$$$-ARCH
100
AcDbPolyline
 90
       10
 70
   129
 43
0.0
 10
86593.926
 20
18541.692
 10
86594.592
 20
18544.502
 10
86594.592
 20
18544.502
 10
86593.903
 20
18544.38499999999
 10
86593.255
 20
18544.088
 10
86592.665
 20
18543.651
 10
86592.552
 20
18542.92799999999
 10
86592.486
 20
18542.193
 10
86592.806
 20
18541.80099999999
 10
86593.37500000001
 20
18541.73
  0
LWPOLYLINE
  5
337
330
1238
100
AcDbEntity
  8
PR-08$$$$2-ARCH
100
AcDbPolyline
 90
        3
 70
     0
 43
0.0
 10
86590.354
 20
18527.238
 10
86588.802
 20
18527.419
 10
86583.75312862662
 20
18527.99040447929
  0
LWPOLYLINE
  5
338
330
1238
100
AcDbEntity
  8
PR-08$$$$2-ARCH
100
AcDbPolyline
 90
       14
 70
     0
 43
0.0
 10
86591.02999999998
 20
18527.127
 10
86591.02999999998
 20
18527.127
 10
86591.29099999998
 20
18528.9
 10
86591.706
 20
18530.709
 10
86592.29
 20
18532.77899999999
 10
86592.905
 20
18535.101
 10
86593.523
 20
18537.008
 10
86594.09
 20
18539.194
 10
86594.41
 20
18541.132
 10
86595.221
 20
18543.413
 10
86595.771
 20
18545.77799999999
 10
86596.297
 20
18547.978
 10
86597.097
 20
18550.56
 10
86597.676
 20
18552.67099999999
  0
LWPOLYLINE
  5
339
330
1238
100
AcDbEntity
  8
PR-05A05B$-ARCH
100
AcDbPolyline
 90
       12
 70
     0
 43
0.0
 10
86637.077
 20
18532.43899999999
 10
86636.855
 20
18531.598
 10
86636.316
 20
18530.241
 10
86635.669
 20
18528.65699999999
 10
86635.014
 20
18526.745
 10
86634.38300000002
 20
18524.725
 10
86633.707
 20
18523.017
 10
86633.5238407965
 20
18521.22231152976
 10
86632.75370443662
 20
18519.60429562651
 10
86632.43600000002
 20
18518.276
 10
86632.289
 20
18517.45599999999
 10
86631.28930386389
 20
18515.2862049773
  0
LWPOLYLINE
  5
33A
330
1238
100
AcDbEntity
  8
PR-05A05B$-ARCH
100
AcDbPolyline
 90
       10
 70
   129
 43
0.0
 10
86637.783
 20
18532.31899999999
 10
86638.348
 20
18532.418
 10
86638.599
 20
18532.805
 10
86638.396
 20
18533.255
 10
86638.066
 20
18533.543
 10
86637.721
 20
18533.72599999999
 10
86637.33699999998
 20
18533.70699999999
 10
86637.12099999998
 20
18533.374
 10
86636.912
 20
18532.934
 10
86637.077
 20
18532.43899999999
  0
TEXT
  5
33B
330
1238
100
AcDbEntity
  8
PR-05A05B$-TEXT
100
AcDbText
 10
86739.37726041987
 20
18526.32139432273
 30
0.0
 40
0.2715124584065052
  1
2218
100
AcDbText
  0
TEXT
  5
33C
330
1238
100
AcDbEntity
  8
PR-05B05C2-TEXT
100
AcDbText
 10
86734.10988104508
 20
18530.21324185552
 30
0.0
 40
0.2715124584065052
  1
2234
100
AcDbText
  0
TEXT
  5
33D
330
1238
100
AcDbEntity
  8
PR-05B05C1-TEXT
100
AcDbText
 10
86739.48896864333
 20
18517.23686150511
 30
0.0
 40
0.2715124584065052
  1
2330
100
AcDbText
  0
LWPOLYLINE
  5
33E
330
1238
100
AcDbEntity
  8
PR-05B05C1-ARCH
100
AcDbPolyline
 90
        8
 70
   129
 43
0.0
 10
86747.96
 20
18516.352
 10
86748.735
 20
18516.235
 10
86749.156
 20
18516.255
 10
86749.276
 20
18516.15299999999
 10
86749.33000000002
 20
18516.016
 10
86749.267
 20
18515.83399999999
 10
86748.628
 20
18515.45999999999
 10
86747.936
 20
18515.7
  0
TEXT
  5
33F
330
1238
100
AcDbEntity
  8
PR-08$$$$1-TEXT
100
AcDbText
 10
86751.93009232904
 20
18514.82937445443
 30
0.0
 40
0.2715124584065052
  1
2110
100
AcDbText
  0
TEXT
  5
340
330
1238
100
AcDbEntity
  8
PR-05A05B$-TEXT
100
AcDbText
 10
86636.47672972515
 20
18527.66830203178
 30
0.0
 40
0.2715124584065052
  1
Group 5019
100
AcDbText
  0
TEXT
  5
341
330
1238
100
AcDbEntity
  8
PR-05C$$$2-TEXT
100
AcDbText
 10
86751.62125214862
 20
18512.39887553427
 30
0.0
 40
0.2715124584065052
  1
Group 5001
100
AcDbText
  0
TEXT
  5
344
330
1238
100
AcDbEntity
  8
PR-99$$$$$-TEXT
100
AcDbText
 10
86730.59337213098
 20
18514.85542351642
 30
0.0
 40
0.2715124584065052
  1
2540
100
AcDbText
  0
TEXT
  5
345
330
1238
100
AcDbEntity
  8
PR-99$$$$$-TEXT
100
AcDbText
 10
86740.34396882373
 20
18516.14546810731
 30
0.0
 40
0.2715124584065052
  1
2527
100
AcDbText
  0
LWPOLYLINE
  5
346
330
1238
100
AcDbEntity
  8
PR-04D05A$-ARCH
100
AcDbPolyline
 90
        4
 70
     1
 43
0.0
 10
86741.96486114257
 20
18511.53739616391
 10
86742.194
 20
18511.33299999999
 10
86742.301
 20
18511.48099999999
 10
86742.068
 20
18511.819
  0
TEXT
  5
348
330
1238
100
AcDbEntity
  8
PR-05B05C2-TEXT
100
AcDbText
 10
86720.67792133955
 20
18516.46040757921
 30
0.0
 40
0.2715124584065052
  1
Group 5015
100
AcDbText
  0
TEXT
  5
349
330
1238
100
AcDbEntity
  8
PR-05A05B$-TEXT
100
AcDbText
 10
86723.4315908748
 20
18509.51225018725
 30
0.0
 40
0.2715124584065052
  1
2408
100
AcDbText
  0
TEXT
  5
34A
330
1238
100
AcDbEntity
  8
PR-05A05B$-TEXT
100
AcDbText
 10
86608.97817152116
 20
18529.53062641108
 30
0.0
 40
0.2715124584065052
  1
Group 5017
100
AcDbText
  0
LWPOLYLINE
  5
34B
330
1238
100
AcDbEntity
  8
PR-05B05C1-ARCH
100
AcDbPolyline
 90
       21
 70
     0
 43
0.0
 10
86749.665
 20
18543.072
 10
86748.551
 20
18543.205
 10
86747.429
 20
18543.365
 10
86746.273
 20
18543.471
 10
86745.59099999999
 20
18543.43
 10
86745.044
 20
18543.626
 10
86744.808
 20
18543.72399999999
 10
86744.718
 20
18543.637
 10
86744.711
 20
18543.504
 10
86744.90099999998
 20
18543.329
 10
86745.72299999998
 20
18543.131
 10
86746.431
 20
18542.891
 10
86746.888
 20
18542.788
 10
86746.991
 20
18542.578
 10
86747.13999999998
 20
18542.466
 10
86747.344
 20
18542.504
 10
86747.492
 20
18542.63
 10
86747.581
 20
18542.768
 10
86748.4
 20
18542.646
 10
86749.04899999998
 20
18542.432
 10
86749.62
 20
18542.378
  0
LWPOLYLINE
  5
34C
330
1238
100
AcDbEntity
  8
PR-08$$$$2-ARCH
100
AcDbPolyline
 90
       45
 70
     0
 43
0.0
 10
86749.62
 20
18542.378
 10
86749.62
 20
18542.378
 10
86749.70100000002
 20
18541.40199999999
 10
86749.639
 20
18540.464
 10
86749.5368543283
 20
18539.15306468293
 10
86749.509
 20
18537.628
 10
86749.575
 20
18536.497
 10
86749.525
 20
18535.344
 10
86749.412
 20
18534.413
 10
86749.22399999999
 20
18533.488
 10
86749.098
 20
18532.313
 10
86748.956
 20
18531.09
 10
86748.887
 20
18530.317
 10
86748.81799999998
 20
18529.74899999999
 10
86748.7227918391
 20
18528.92845512657
 10
86748.518
 20
18527.62399999999
 10
86748.425
 20
18527.167
 10
86748.33299999998
 20
18526.46
 10
86748.199
 20
18525.847
 10
86748.15325757535
 20
18525.55347044155
 10
86748.12277144496
 20
18525.08629448135
 10
86748.10452877507
 20
18524.77818622882
 10
86748.082
 20
18524.309
 10
86747.996
 20
18523.90199999999
 10
86747.92272457876
 20
18523.01147773292
 10
86747.837
 20
18521.83
 10
86747.898
 20
18520.75899999999
 10
86747.869
 20
18519.38
 10
86747.836
 20
18518.29599999999
 10
86747.605
 20
18517.33199999999
 10
86747.616
 20
18516.15699999999
 10
86747.551
 20
18515.112
 10
86747.42399999998
 20
18513.982
 10
86747.331
 20
18512.909
 10
86747.11400000002
 20
18511.774
 10
86746.801
 20
18510.631
 10
86746.79606007283
 20
18510.5656289871
 10
86746.75031935892
 20
18509.96033326375
 10
86746.71223173
 20
18509.38937782151
 10
86746.6550983786
 20
18508.37117275959
 10
86746.67414219306
 20
18507.4576435987
 10
86746.66462123983
 20
18506.6202409235
 10
86746.74079649767
 20
18505.15867903491
 10
86746.78840698786
 20
18504.32127749297
 10
86746.82572084088
 20
18503.83651125674
  0
LWPOLYLINE
  5
34D
330
1238
100
AcDbEntity
  8
PR-08$$$$2-ARCH
100
AcDbPolyline
 90
       23
 70
     0
 43
0.0
 10
86750.66300000002
 20
18543.044
 10
86750.66300000002
 20
18543.044
 10
86750.548
 20
18543.316
 10
86750.40499999998
 20
18543.669
 10
86750.399
 20
18544.756
 10
86750.392
 20
18545.786
 10
86750.552
 20
18547.073
 10
86750.562
 20
18548.252
 10
86750.5593455569
 20
18548.85103770729
 10
86750.568
 20
18549.859
 10
86750.64575154649
 20
18550.63118758985
 10
86750.649
 20
18551.096
 10
86750.553
 20
18551.219
 10
86750.45
 20
18551.24599999999
 10
86750.316
 20
18551.00999999999
 10
86750.185
 20
18550.13999999999
 10
86750.079
 20
18549.06299999999
 10
86749.984
 20
18547.9
 10
86749.9
 20
18546.63599999999
 10
86749.849
 20
18545.42299999999
 10
86749.807
 20
18544.11
 10
86749.665
 20
18543.072
 10
86749.665
 20
18543.072
  0
LWPOLYLINE
  5
34E
330
1238
100
AcDbEntity
  8
PR-05B05C1-ARCH
100
AcDbPolyline
 90
        9
 70
     0
 43
0.0
 10
86750.337
 20
18542.208
 10
86751.576
 20
18542.192
 10
86752.782
 20
18542.05699999999
 10
86753.98799999998
 20
18541.885
 10
86755.467
 20
18541.699
 10
86756.87
 20
18541.60099999999
 10
86758.43
 20
18541.426
 10
86759.759
 20
18541.24299999999
 10
86761.51413362222
 20
18540.98482830526
  0
LWPOLYLINE
  5
34F
330
1238
100
AcDbEntity
  8
PR-05B05C2-ARCH
100
AcDbPolyline
 90
       13
 70
     1
 43
0.0
 10
86721.663
 20
18518.36
 10
86721.624
 20
18518.538
 10
86721.43
 20
18518.644
 10
86721.219
 20
18518.684
 10
86721.014
 20
18518.638
 10
86720.907
 20
18518.40499999999
 10
86720.857
 20
18518.131
 10
86720.895
 20
18517.922
 10
86721.08652003096
 20
18517.79746216753
 10
86721.27961510909
 20
18517.81500871091
 10
86721.47271377374
 20
18517.92029495534
 10
86721.60437162816
 20
18518.10454646509
 10
86721.657032618
 20
18518.27125143147
  0
LWPOLYLINE
  5
350
330
1238
100
AcDbEntity
  8
PR-99$$$$$-ARCH
100
AcDbPolyline
 90
        2
 70
     0
 43
0.0
 10
86719.88185891807
 20
18507.80501918258
 10
86720.44617953179
 20
18505.5764249507
  0
LWPOLYLINE
  5
351
330
1238
100
AcDbEntity
  8
PR-99$$$$$-ARCH
100
AcDbPolyline
 90
        2
 70
     0
 43
0.0
 10
86712.22969614783
 20
18503.05813983258
 10
86712.70476225636
 20
18501.59070003621
  0
LWPOLYLINE
  5
352
330
1238
100
AcDbEntity
  8
PR-05B05C2-ARCH
100
AcDbPolyline
 90
       30
 70
     0
 43
0.0
 10
86757.98726096233
 20
18523.71634789004
 10
86756.74199999998
 20
18524.328
 10
86755.53838111398
 20
18524.90945311019
 10
86754.84338731498
 20
18524.99739302389
 10
86753.82288741256
 20
18524.86548082529
 10
86752.47688857984
 20
18524.56648185945
 10
86751.51002161636
 20
18524.29774992432
 10
86751.473
 20
18524.28899999999
 10
86750.87699999998
 20
18524.163
 10
86750.263
 20
18524.12499999999
 10
86749.679
 20
18524.03299999999
 10
86749.149
 20
18523.927
 10
86748.14887488406
 20
18523.60645289803
 10
86747.315
 20
18523.18999999999
 10
86746.64400000001
 20
18522.915
 10
86745.868
 20
18522.682
 10
86744.03123147642
 20
18522.48677774549
 10
86744.40980055484
 20
18521.43154389228
 10
86745.868
 20
18521.753
 10
86746.473
 20
18522.038
 10
86747.161
 20
18522.257
 10
86747.97985793016
 20
18522.50167143938
 10
86748.99
 20
18522.843
 10
86750.078
 20
18523.137
 10
86751.053
 20
18523.426
 10
86752.168
 20
18523.778
 10
86753.499
 20
18524.112
 10
86754.76899999999
 20
18523.986
 10
86756.138
 20
18523.504
 10
86757.81298494017
 20
18522.57494886758
  0
LWPOLYLINE
  5
353
330
1238
100
AcDbEntity
  8
PR-05B05C2-ARCH
100
AcDbPolyline
 90
       26
 70
     0
 43
0.0
 10
86758.70628660978
 20
18528.42551649001
 10
86756.91594931258
 20
18528.33451283694
 10
86755.28824122206
 20
18528.35238818348
 10
86754.35457628795
 20
18528.25407343692
 10
86753.43340129648
 20
18528.09319531812
 10
86752.35124373873
 20
18528.16469670425
 10
86751.16176466129
 20
18528.11107066465
 10
86750.13326757665
 20
18528.15575903098
 10
86749.10477106545
 20
18528.14682135772
 10
86748.60489558277
 20
18528.1774956321
 10
86747.06350882539
 20
18528.24246756459
 10
86745.43354664247
 20
18528.26077538164
 10
86744.49952510191
 20
18528.29739101574
 10
86743.98672692261
 20
18528.18754644149
 10
86743.63875839468
 20
18528.02278074413
 10
86743.45561593161
 20
18527.80309159563
 10
86743.29078986676
 20
18527.29048435845
 10
86743.3274190767
 20
18526.81449042733
 10
86743.3823610983
 20
18526.22865425001
 10
86743.49224514153
 20
18524.8556005639
 10
86743.6937004163
 20
18523.42762109859
 10
86744.64603835507
 20
18520.77304815553
 10
86744.90243565146
 20
18519.74783368119
 10
86745.47017585237
 20
18516.45250343771
 10
86746.12948369831
 20
18510.87241629316
 10
86746.82572084088
 20
18503.83651125674
  0
LWPOLYLINE
  5
354
330
1238
100
AcDbEntity
  8
PR-05C$$$1-ARCH
100
AcDbPolyline
 90
       22
 70
     0
 43
0.0
 10
86758.86769611188
 20
18529.48264784779
 10
86755.83827428446
 20
18529.41224147992
 10
86754.8973467917
 20
18529.41224147992
 10
86753.38368077778
 20
18529.49400864163
 10
86752.134
 20
18529.45899999999
 10
86751.302
 20
18529.36
 10
86750.30299999999
 20
18529.431
 10
86749.48099999999
 20
18529.391
 10
86748.77715345605
 20
18529.39696691877
 10
86747.62499999999
 20
18529.394
 10
86745.2494680956
 20
18529.22245726095
 10
86743.98627860664
 20
18528.85796082246
 10
86743.25701553308
 20
18528.45440894922
 10
86742.78820253251
 20
18528.07689403248
 10
86742.6319303368
 20
18527.72541374418
 10
86744.62899999999
 20
18516.686
 10
86744.744
 20
18515.65599999999
 10
86745.064
 20
18513.537
 10
86745.145
 20
18512.938
 10
86745.268
 20
18511.826
 10
86745.289
 20
18511.18799999999
 10
86745.83453281641
 20
18503.93746752784
  0
LWPOLYLINE
  5
355
330
1238
100
AcDbEntity
  8
PR-05C$$$1-ARCH
100
AcDbPolyline
 90
       40
 70
     0
 43
0.0
 10
86747.23197559966
 20
18503.79794567033
 10
86747.1830152011
 20
18504.29539240262
 10
86747.12221275289
 20
18504.94353960723
 10
86747.05143906186
 20
18505.96993030058
 10
86746.97250864239
 20
18507.36216194214
 10
86746.86698251808
 20
18508.89129863777
 10
86746.801
 20
18510.631
 10
86746.66999999998
 20
18511.71599999999
 10
86746.51
 20
18512.865
 10
86746.29499999998
 20
18514.24599999999
 10
86746.089
 20
18515.769
 10
86745.906
 20
18517.162
 10
86745.678
 20
18518.47
 10
86745.47399999999
 20
18519.86699999999
 10
86745.384
 20
18520.68
 10
86745.24200000001
 20
18521.615
 10
86744.993
 20
18522.58899999999
 10
86744.56799999998
 20
18523.74199999999
 10
86744.394
 20
18524.704
 10
86744.272
 20
18525.43899999999
 10
86744.066
 20
18526.241
 10
86744.092
 20
18526.803
 10
86744.086
 20
18527.037
 10
86744.346
 20
18527.446
 10
86744.83
 20
18527.805
 10
86745.47699999998
 20
18528.007
 10
86746.222
 20
18528.04799999999
 10
86746.855
 20
18527.97
 10
86747.3876284708
 20
18528.07531997158
 10
86748.04261110972
 20
18528.20119682757
 10
86748.60489558277
 20
18528.1774956321
 10
86749.10477106545
 20
18528.14682135772
 10
86750.13326757665
 20
18528.15575903098
 10
86751.16176466129
 20
18528.11107066465
 10
86752.35124373873
 20
18528.16469670425
 10
86753.43340129648
 20
18528.09319531812
 10
86754.35457628795
 20
18528.25407343692
 10
86755.28824122206
 20
18528.35238818348
 10
86756.91594931258
 20
18528.33451283694
 10
86758.70628660978
 20
18528.42551649001
  0
TEXT
  5
356
330
1238
100
AcDbEntity
  8
PR-99$$$$$-TEXT
100
AcDbText
 10
86745.1916639077
 20
18511.68715139033
 30
0.0
 40
0.2715124584065052
  1
2020
100
AcDbText
  0
TEXT
  5
357
330
1238
100
AcDbEntity
  8
PR-05B05C2-TEXT
100
AcDbText
 10
86749.0148978564
 20
18522.28951424004
 30
0.0
 40
0.2715124584065052
  1
Group 5014
100
AcDbText
  0
TEXT
  5
358
330
1238
100
AcDbEntity
  8
PR-05B05C1-TEXT
100
AcDbText
 10
86745.39579706277
 20
18524.34440606834
 30
0.0
 40
0.2715124584065052
  1
Group 5011
100
AcDbText
  0
TEXT
  5
359
330
1238
100
AcDbEntity
  8
PR-05C$$$1-TEXT
100
AcDbText
 10
86745.56465388693
 20
18527.39518596522
 30
0.0
 40
0.2715124584065052
  1
Group 5005
100
AcDbText
  0
LWPOLYLINE
  5
35A
330
1238
100
AcDbEntity
  8
PR-05B05C1-ARCH
100
AcDbPolyline
 90
       35
 70
   128
 43
0.0
 10
86757.81298494017
 20
18522.57494886758
 10
86756.138
 20
18523.504
 10
86754.76899999999
 20
18523.986
 10
86753.499
 20
18524.112
 10
86751.71854340417
 20
18524.35570667088
 10
86750.801
 20
18524.66
 10
86750.173
 20
18524.78099999999
 10
86749.431
 20
18524.844
 10
86748.18977873083
 20
18524.78592838519
 10
86747.524
 20
18524.872
 10
86747.111
 20
18525.175
 10
86746.456
 20
18525.515
 10
86746.024
 20
18525.88699999999
 10
86745.41300000002
 20
18526.089
 10
86744.736
 20
18526.166
 10
86744.066
 20
18526.24099999999
 10
86743.57393190206
 20
18526.01665699208
 10
86743.51070141434
 20
18525.5320632293
 10
86743.57393190206
 20
18523.63582130036
 10
86743.78470497642
 20
18520.68611396119
 10
86743.807
 20
18519.96399999999
 10
86743.807
 20
18519.96399999999
 10
86743.612
 20
18519.434
 10
86743.584
 20
18518.249
 10
86743.757
 20
18517.067
 10
86743.98
 20
18516.005
 10
86744.061
 20
18515.037
 10
86744.206
 20
18514.014
 10
86744.19699999999
 20
18513.02899999999
 10
86744.29899999998
 20
18511.97699999999
 10
86744.512
 20
18510.939
 10
86744.745
 20
18510.104
 10
86745.4837349304
 20
18508.05788961689
 10
86746.27577100022
 20
18505.18551104464
 10
86746.60564908118
 20
18503.89729630423
  0
LWPOLYLINE
  5
35B
330
1238
100
AcDbEntity
  8
PR-05B05C1-ARCH
100
AcDbPolyline
 90
       44
 70
   128
 43
0.0
 10
86745.227
 20
18503.997
 10
86745.15900000001
 20
18504.71399999999
 10
86744.82600000002
 20
18505.499
 10
86744.4148638759
 20
18506.54743719448
 10
86744.0344187961
 20
18507.66877123969
 10
86743.7207596734
 20
18508.71722789313
 10
86743.513
 20
18509.659
 10
86743.336
 20
18510.827
 10
86743.097
 20
18512.036
 10
86742.85600000001
 20
18513.567
 10
86742.741
 20
18514.83699999999
 10
86742.643
 20
18516.425
 10
86742.596
 20
18518.041
 10
86742.532
 20
18519.179
 10
86742.539
 20
18520.098
 10
86742.487
 20
18521.14399999999
 10
86742.472
 20
18522.17099999999
 10
86742.472
 20
18522.17099999999
 10
86742.642
 20
18522.806
 10
86742.635
 20
18523.78299999999
 10
86742.61299999998
 20
18524.90399999999
 10
86742.602
 20
18525.848
 10
86742.77300282707
 20
18526.29055953526
 10
86743.13131131507
 20
18526.58553096759
 10
86743.5950099268
 20
18526.75408440889
 10
86744.092
 20
18526.803
 10
86744.919
 20
18526.654
 10
86745.62
 20
18526.53199999999
 10
86746.358
 20
18526.363
 10
86746.984
 20
18526.13999999999
 10
86747.635
 20
18525.892
 10
86748.61791062103
 20
18525.79614613846
 10
86749.40199999999
 20
18525.747
 10
86750.309
 20
18525.525
 10
86751.126
 20
18525.418
 10
86752.39499999999
 20
18525.37099999999
 10
86752.383
 20
18525.378
 10
86753.25599999998
 20
18525.472
 10
86754.11699999998
 20
18525.523
 10
86754.916
 20
18525.435
 10
86755.746
 20
18524.917
 10
86756.74199999998
 20
18524.328
 10
86756.74199999998
 20
18524.328
 10
86757.98726096233
 20
18523.71634789004
  0
LWPOLYLINE
  5
35C
330
1238
100
AcDbEntity
  8
PR-04D05A$-ARCH
100
AcDbPolyline
 90
       31
 70
   129
 43
0.0
 10
86607.871
 20
18525.992
 10
86607.871
 20
18525.992
 10
86609.113
 20
18525.66
 10
86610.545
 20
18525.261
 10
86611.85599999999
 20
18524.89399999999
 10
86613.00800000002
 20
18524.664
 10
86613.442
 20
18524.58399999999
 10
86613.523
 20
18524.606
 10
86613.473
 20
18524.74499999999
 10
86613.04600000002
 20
18524.93199999999
 10
86612.299
 20
18525.194
 10
86611.627
 20
18525.471
 10
86607.384
 20
18527.085
 10
86606.919
 20
18527.06699999999
 10
86605.482
 20
18527.37199999999
 10
86604.298
 20
18527.598
 10
86603.145
 20
18528.02999999999
 10
86601.932
 20
18528.433
 10
86600.806
 20
18528.74
 10
86599.692
 20
18529.06899999999
 10
86599.277
 20
18529.125
 10
86599.13599999998
 20
18529.112
 10
86599.056
 20
18528.99599999999
 10
86599.147
 20
18528.874
 10
86599.433
 20
18528.63699999999
 10
86600.441
 20
18528.24299999999
 10
86601.588
 20
18527.919
 10
86603.197
 20
18527.448
 10
86604.77999999998
 20
18526.944
 10
86606.179
 20
18526.58399999999
 10
86607.198
 20
18526.286
  0
LWPOLYLINE
  5
35D
330
1238
100
AcDbEntity
  8
PR-05A05B$-ARCH
100
AcDbPolyline
 90
       40
 70
   129
 43
0.0
 10
86607.45660906495
 20
18524.49110446336
 10
86607.871
 20
18525.992
 10
86607.95255525719
 20
18526.28551929824
 10
86611.627
 20
18525.471
 10
86612.719
 20
18525.33299999999
 10
86613.641
 20
18524.99299999999
 10
86614.762
 20
18524.825
 10
86616.177
 20
18524.589
 10
86617.39599999998
 20
18524.355
 10
86618.387
 20
18524.181
 10
86618.603
 20
18524.20699999999
 10
86618.698
 20
18524.357
 10
86618.722
 20
18524.52
 10
86618.628
 20
18524.72399999999
 10
86618.381
 20
18524.802
 10
86617.36799999999
 20
18524.918
 10
86615.813
 20
18525.118
 10
86614.24
 20
18525.392
 10
86612.86
 20
18525.749
 10
86611.20399999998
 20
18526.17099999999
 10
86609.63199999998
 20
18526.67399999999
 10
86608.12100000001
 20
18527.10099999999
 10
86608.48699999998
 20
18528.791
 10
86608.774
 20
18530.635
 10
86609.279
 20
18532.258
 10
86609.771
 20
18533.708
 10
86610.1
 20
18535.40699999999
 10
86610.34500000002
 20
18536.503
 10
86610.27
 20
18536.675
 10
86610.118
 20
18536.68899999999
 10
86609.499
 20
18534.71
 10
86609.137
 20
18533.007
 10
86608.49
 20
18530.806
 10
86607.956
 20
18528.681
 10
86607.538
 20
18527.297
 10
86607.384
 20
18527.085
 10
86607.198
 20
18526.286
 10
86606.747
 20
18525.364
 10
86606.46117468199
 20
18524.61397408943
 10
86607.0387373962
 20
18524.53005459002
  0
LWPOLYLINE
  5
35E
330
1238
100
AcDbEntity
  8
PR-99$$$$$-ARCH
100
AcDbPolyline
 90
        3
 70
     0
 43
0.0
 10
86715.306
 20
18502.973
 10
86715.233
 20
18502.614
 10
86715.26099999998
 20
18502.307
  0
LWPOLYLINE
  5
35F
330
1238
100
AcDbEntity
  8
PR-08$$$$1-ARCH
100
AcDbPolyline
 90
        4
 70
     0
 43
0.0
 10
86715.26099999998
 20
18502.307
 10
86714.29066645456
 20
18502.41965711797
 10
86713.50749069294
 20
18502.3286255485
 10
86712.66967776456
 20
18501.96449228644
  0
LWPOLYLINE
  5
360
330
1238
100
AcDbEntity
  8
PR-08$$$$1-ARCH
100
AcDbPolyline
 90
        5
 70
     0
 43
0.0
 10
86714.525
 20
18501.469
 10
86714.249
 20
18501.732
 10
86713.884
 20
18501.722
 10
86713.609
 20
18501.616
 10
86713.285
 20
18501.325
  0
LWPOLYLINE
  5
361
330
1238
100
AcDbEntity
  8
PR-04D05A$-ARCH
100
AcDbPolyline
 90
        9
 70
     1
 43
0.0
 10
86731.5292825454
 20
18508.69219134702
 10
86731.47314979653
 20
18508.64855080981
 10
86731.46067405905
 20
18508.56749611598
 10
86731.48562015416
 20
18508.48644491422
 10
86731.54799346169
 20
18508.46150796326
 10
86731.6228371269
 20
18508.48644491422
 10
86731.65402378065
 20
18508.56749611598
 10
86731.64154804318
 20
18508.64231395302
 10
86731.59165047314
 20
18508.67972461758
  0
LWPOLYLINE
  5
362
330
1238
100
AcDbEntity
  8
PR-04D05A$-ARCH
100
AcDbPolyline
 90
        9
 70
     1
 43
0.0
 10
86731.43988654308
 20
18508.46773899992
 10
86731.38375379419
 20
18508.42409846272
 10
86731.37127805674
 20
18508.34304376888
 10
86731.39622415186
 20
18508.26199256712
 10
86731.45859745936
 20
18508.23705561616
 10
86731.53344112456
 20
18508.26199256712
 10
86731.56462777834
 20
18508.34304376888
 10
86731.55215204087
 20
18508.41786160592
 10
86731.5022544708
 20
18508.45527227048
  0
LWPOLYLINE
  5
363
330
1238
100
AcDbEntity
  8
PR-05A05B$-ARCH
100
AcDbPolyline
 90
       22
 70
   129
 43
0.0
 10
86731.55215204087
 20
18508.72959968352
 10
86731.30266957036
 20
18508.69842587576
 10
86731.1217955862
 20
18508.57996750152
 10
86731.06358444438
 20
18508.49475839522
 10
86730.96379289079
 20
18508.43656635619
 10
86730.82657591806
 20
18508.3451250492
 10
86730.80162802969
 20
18508.22458539464
 10
86730.84736702056
 20
18508.14145524061
 10
86730.89805900658
 20
18507.96854601019
 10
86731.09291865646
 20
18507.83868948331
 10
86731.29227581238
 20
18507.80893695255
 10
86731.49601929198
 20
18507.76944849975
 10
86731.64570662237
 20
18507.8442663368
 10
86731.72055566734
 20
18507.96896156784
 10
86731.72679084618
 20
18508.12483060664
 10
86731.69560419241
 20
18508.28693301016
 10
86731.73302602503
 20
18508.36798421192
 10
86731.75797749992
 20
18508.46774249201
 10
86731.80163451137
 20
18508.56749728
 10
86731.79539933254
 20
18508.64231511705
 10
86731.75797749992
 20
18508.69219251105
 10
86731.66441753865
 20
18508.72336631881
  0
TEXT
  5
364
330
1238
100
AcDbEntity
  8
PR-05A05B$-TEXT
100
AcDbText
 10
86731.78829380777
 20
18507.71041014087
 30
0.0
 40
0.2715124584065052
  1
2314
100
AcDbText
  0
LWPOLYLINE
  5
365
330
1238
100
AcDbEntity
  8
PR-05B05C1-ARCH
100
AcDbPolyline
 90
        8
 70
   129
 43
0.0
 10
86731.43637984153
 20
18510.96240615798
 10
86731.37041830306
 20
18511.10375231182
 10
86731.2371490723
 20
18511.18317538875
 10
86731.09849522615
 20
18511.07952154259
 10
86731.07695676462
 20
18510.89509846567
 10
86731.18330291845
 20
18510.79413692721
 10
86731.28830291846
 20
18510.79413692721
 10
86731.3874593673
 20
18510.86691438512
  0
TEXT
  5
366
330
1238
100
AcDbEntity
  8
PR-08$$$$1-TEXT
100
AcDbText
 10
86730.11092958022
 20
18511.43010115262
 30
0.0
 40
0.2715124584065052
  1
2529
100
AcDbText
  0
LWPOLYLINE
  5
367
330
1238
100
AcDbEntity
  8
PR-05C$$$2-ARCH
100
AcDbPolyline
 90
       12
 70
   129
 43
0.0
 10
86751.84900000002
 20
18508.89
 10
86751.76374694942
 20
18509.03523942354
 10
86751.60600427727
 20
18509.10016652295
 10
86751.4297049095
 20
18509.08161658828
 10
86751.251
 20
18508.90599999999
 10
86751.179
 20
18508.63399999999
 10
86750.994
 20
18508.24199999999
 10
86751.032
 20
18507.945
 10
86751.342
 20
18507.82
 10
86751.608
 20
18507.83099999999
 10
86751.767
 20
18508.136
 10
86751.843
 20
18508.53599999999
  0
LWPOLYLINE
  5
368
330
1238
100
AcDbEntity
  8
PR-05B05C2-ARCH
100
AcDbPolyline
 90
       11
 70
   129
 43
0.0
 10
86751.84900000002
 20
18508.89
 10
86751.94047049023
 20
18509.19990028775
 10
86751.89000600258
 20
18509.50249407824
 10
86751.65
 20
18509.615
 10
86751.485
 20
18509.523
 10
86751.36199999998
 20
18509.249
 10
86751.251
 20
18508.90599999999
 10
86751.31835756286
 20
18508.73842184435
 10
86751.46681830072
 20
18508.68276971227
 10
86751.66167795059
 20
18508.71986958162
 10
86751.8008603406
 20
18508.78479900908
  0
TEXT
  5
369
330
1238
100
AcDbEntity
  8
PR-05C$$$1-TEXT
100
AcDbText
 10
86752.14434559165
 20
18509.08290631973
 30
0.0
 40
0.2715124584065052
  1
2008
100
AcDbText
  0
LWPOLYLINE
  5
36A
330
1238
100
AcDbEntity
  8
PR-08$$$$1-ARCH
100
AcDbPolyline
 90
        7
 70
   129
 43
0.0
 10
86745.17656634291
 20
18551.30880601244
 10
86745.12856634292
 20
18551.54780601244
 10
86744.94256634291
 20
18551.62780601244
 10
86744.7855663429
 20
18551.46580601243
 10
86744.77256634292
 20
18551.25680601243
 10
86744.92256634291
 20
18551.11680601244
 10
86745.1045663429
 20
18551.16880601244
  0
LWPOLYLINE
  5
36B
330
1238
100
AcDbEntity
  8
PR-05C$$$1-ARCH
100
AcDbPolyline
 90
        7
 70
     1
 43
0.0
 10
86745.23734951435
 20
18551.73720901865
 10
86745.16534951435
 20
18552.09570901865
 10
86744.88634951435
 20
18552.21570901865
 10
86744.65084951435
 20
18551.97270901865
 10
86744.63134951435
 20
18551.65920901865
 10
86744.85634951436
 20
18551.44920901865
 10
86745.12934951435
 20
18551.52720901865
  0
TEXT
  5
36C
330
1238
100
AcDbEntity
  8
PR-05C$$$1-TEXT
100
AcDbText
 10
86745.700241479
 20
18551.62310096306
 30
0.0
 40
0.2715124584065052
  1
2031
100
AcDbText
  0
TEXT
  5
36D
330
1238
100
AcDbEntity
  8
PR-08$$$$2-TEXT
100
AcDbText
 10
86745.55265651365
 20
18551.1484343002
 30
0.0
 40
0.2715124584065052
  1
2036
100
AcDbText
  0
LWPOLYLINE
  5
36E
330
1238
100
AcDbEntity
  8
FG-$$$$$$$-MISC
100
AcDbPolyline
 90
        4
 70
     1
 43
0.0
 10
86579.80200717661
 20
18467.43703765868
 10
86769.80200717661
 20
18467.43703765868
 10
86769.80200717661
 20
18592.43703765868
 10
86579.80200717661
 20
18592.43703765868
  0
LINE
  5
370
330
1238
100
AcDbEntity
  8
FG-$$$$$$$-MISC
100
AcDbLine
 10
86764.41213154617
 20
18468.4848770506
 30
0.0
 11
86764.41213154617
 21
18469.15403305073
 31
0.0
  0
LINE
  5
371
330
1238
100
AcDbEntity
  8
FG-$$$$$$$-MISC
100
AcDbLine
 10
86764.41213154617
 20
18468.4848770506
 30
0.0
 11
86744.41209673624
 21
18468.4848770506
 31
0.0
  0
LINE
  5
372
330
1238
100
AcDbEntity
  8
FG-$$$$$$$-MISC
100
AcDbLine
 10
86744.41209673624
 20
18468.4848770506
 30
0.0
 11
86744.41209673624
 21
18469.14691467849
 31
0.0
  0
LINE
  5
373
330
1238
100
AcDbEntity
  8
FG-$$$$$$$-MISC
100
AcDbLine
 10
86744.41209673624
 20
18468.90019490556
 30
0.0
 11
86764.41209673612
 21
18468.90019490556
 31
0.0
  0
LWPOLYLINE
  5
374
330
1238
100
AcDbEntity
  8
FG-$$$$$$$-MISC
100
AcDbPolyline
 90
        2
 70
     0
 43
0.0
 10
86746.41209673623
 20
18468.90019490556
 10
86746.41209673623
 20
18468.4848770506
  0
LWPOLYLINE
  5
375
330
1238
100
AcDbEntity
  8
FG-$$$$$$$-MISC
100
AcDbPolyline
 90
        2
 70
     0
 43
0.0
 10
86748.41209673624
 20
18468.90019490556
 10
86748.41209673624
 20
18468.4848770506
  0
LWPOLYLINE
  5
376
330
1238
100
AcDbEntity
  8
FG-$$$$$$$-MISC
100
AcDbPolyline
 90
        2
 70
     0
 43
0.0
 10
86750.41209673624
 20
18468.90019490556
 10
86750.41209673624
 20
18468.4848770506
  0
LWPOLYLINE
  5
377
330
1238
100
AcDbEntity
  8
FG-$$$$$$$-MISC
100
AcDbPolyline
 90
        2
 70
     0
 43
0.0
 10
86752.41209673612
 20
18468.90019490556
 10
86752.41209673612
 20
18468.4848770506
  0
LWPOLYLINE
  5
378
330
1238
100
AcDbEntity
  8
FG-$$$$$$$-MISC
100
AcDbPolyline
 90
        2
 70
     0
 43
0.0
 10
86754.41209673612
 20
18468.90019490556
 10
86754.41209673612
 20
18468.4848770506
  0
LWPOLYLINE
  5
379
330
1238
100
AcDbEntity
  8
FG-$$$$$$$-MISC
100
AcDbPolyline
 90
        2
 70
     0
 43
0.0
 10
86754.41209673612
 20
18468.90019490556
 10
86754.41209673612
 20
18469.19019492568
  0
LWPOLYLINE
  5
37A
102
{ACAD_REACTORS
330
37D
102
}
330
1238
100
AcDbEntity
  8
FG-$$$$$$$-MISC
100
AcDbPolyline
 90
        4
 70
     1
 43
0.0
 10
86746.41209673623
 20
18468.90019490556
 10
86748.41209673624
 20
18468.90019490556
 10
86748.41209673624
 20
18468.4848770506
 10
86746.41209673623
 20
18468.4848770506
  0
LWPOLYLINE
  5
37B
102
{ACAD_REACTORS
330
37D
102
}
330
1238
100
AcDbEntity
  8
FG-$$$$$$$-MISC
100
AcDbPolyline
 90
        4
 70
     1
 43
0.0
 10
86750.41209673624
 20
18468.90019490556
 10
86752.41209673612
 20
18468.90019490556
 10
86752.41209673612
 20
18468.4848770506
 10
86750.41209673624
 20
18468.4848770506
  0
LWPOLYLINE
  5
37C
102
{ACAD_REACTORS
330
37D
102
}
330
1238
100
AcDbEntity
  8
FG-$$$$$$$-MISC
100
AcDbPolyline
 90
        4
 70
     1
 43
0.0
 10
86754.41209673612
 20
18468.90019490556
 10
86764.41213154617
 20
18468.90019490556
 10
86764.41213154617
 20
18468.4848770506
 10
86754.41209673612
 20
18468.4848770506
  0
HATCH
  5
37D
330
1238
100
AcDbEntity
  8
FG-$$$$$$$-MISC
  6
Continuous
100
AcDbHatch
 10
0.0
 20
0.0
 30
0.0
210
0.0
220
0.0
230
1.0
  2
SOLID
 70
     1
 71
     1
 91
        3
 92
        1
 93
        4
 72
     1
 10
86746.41209673623
 20
18468.90019490556
 11
86748.41209673624
 21
18468.90019490556
 72
     1
 10
86748.41209673624
 20
18468.90019490556
 11
86748.41209673624
 21
18468.4848770506
 72
     1
 10
86748.41209673624
 20
18468.4848770506
 11
86746.41209673623
 21
18468.4848770506
 72
     1
 10
86746.41209673623
 20
18468.4848770506
 11
86746.41209673623
 21
18468.90019490556
 97
        1
330
37A
 92
        1
 93
        4
 72
     1
 10
86750.41209673624
 20
18468.90019490556
 11
86752.41209673612
 21
18468.90019490556
 72
     1
 10
86752.41209673612
 20
18468.90019490556
 11
86752.41209673612
 21
18468.4848770506
 72
     1
 10
86752.41209673612
 20
18468.4848770506
 11
86750.41209673624
 21
18468.4848770506
 72
     1
 10
86750.41209673624
 20
18468.4848770506
 11
86750.41209673624
 21
18468.90019490556
 97
        1
330
37B
 92
        1
 93
        4
 72
     1
 10
86754.41209673612
 20
18468.90019490556
 11
86764.41213154617
 21
18468.90019490556
 72
     1
 10
86764.41213154617
 20
18468.90019490556
 11
86764.41213154617
 21
18468.4848770506
 72
     1
 10
86764.41213154617
 20
18468.4848770506
 11
86754.41209673612
 21
18468.4848770506
 72
     1
 10
86754.41209673612
 20
18468.4848770506
 11
86754.41209673612
 21
18468.90019490556
 97
        1
330
37C
 75
     0
 76
     1
 98
        1
 10
-949813.711128181
 20
-497975.5089633195
  0
LWPOLYLINE
  5
37E
330
1238
100
AcDbEntity
  8
FG-$$$$$$$-MISC
100
AcDbPolyline
 90
        4
 70
     1
 43
0.0161714285714286
 10
86767.83932995601
 20
18469.82887978445
 10
86767.83932995601
 20
18469.36206837371
 10
86769.2333598373
 20
18469.36206837371
 10
86769.2333598373
 20
18469.82887978445
  0
LWPOLYLINE
  5
37F
330
1238
100
AcDbEntity
  8
FG-$$$$$$$-MISC
100
AcDbPolyline
 90
        4
 70
     1
 43
0.0161714285714286
 10
86767.83932995601
 20
18469.36206837371
 10
86767.83932995601
 20
18468.04626850489
 10
86768.31350117765
 20
18468.04626850489
 10
86768.31350117765
 20
18469.36206837371
  0
LWPOLYLINE
  5
380
330
1238
100
AcDbEntity
  8
FG-$$$$$$$-MISC
100
AcDbPolyline
 90
        4
 70
     1
 43
0.0161714285714286
 10
86768.75918861567
 20
18469.36206837371
 10
86768.75918861567
 20
18468.04626850489
 10
86769.2333598373
 20
18468.04626850489
 10
86769.2333598373
 20
18469.36206837371
  0
LWPOLYLINE
  5
381
330
1238
100
AcDbEntity
  8
FG-$$$$$$$-MISC
100
AcDbPolyline
 90
        4
 70
     0
 43
0.0606428571428572
 10
86767.89127097322
 20
18468.00395132318
 10
86768.34701151133
 20
18468.00395132318
 10
86768.34701151133
 20
18469.31710636814
 10
86768.75248654891
 20
18469.31710636814
  0
LWPOLYLINE
  5
382
330
1238
100
AcDbEntity
  8
FG-$$$$$$$-MISC
100
AcDbPolyline
 90
        3
 70
     0
 43
0.0606428571428572
 10
86768.81112963286
 20
18468.00395132318
 10
86769.26687017098
 20
18468.00395132318
 10
86769.26687017098
 20
18469.75350230453
  0
TEXT
  5
383
330
1238
100
AcDbEntity
  8
FG-$$$$$$$-MISC
100
AcDbText
 10
86744.30487066224
 20
18469.51424983265
 30
0.0
 40
0.5430249168130103
  1
0
100
AcDbText
  0
TEXT
  5
384
330
1238
100
AcDbEntity
  8
FG-$$$$$$$-MISC
100
AcDbText
 10
86754.14166965296
 20
18469.55753007984
 30
0.0
 40
0.5430249168130103
  1
10
100
AcDbText
  0
TEXT
  5
385
330
1238
100
AcDbEntity
  8
FG-$$$$$$$-MISC
100
AcDbText
 10
86764.141704463
 20
18469.52136820489
 30
0.0
 40
0.5430249168130103
  1
20 m
100
AcDbText
  0
HATCH
  5
386
330
1238
100
AcDbEntity
  8
FG-$$$$$$$-MISC
  6
Continuous
100
AcDbHatch
 10
0.0
 20
0.0
 30
0.0
210
0.0
220
0.0
230
1.0
  2
SOLID
 70
     1
 71
     1
 91
        1
 92
        1
 93
        4
 72
     1
 10
86756.05511306749
 20
18582.29864446736
 11
86756.30145755097
 21
18582.29792183905
 72
     1
 10
86756.30145755097
 20
18582.29792183905
 11
86756.05511306749
 21
18584.64816524039
 72
     1
 10
86756.05511306749
 20
18584.64816524039
 11
86755.80876858401
 21
18582.29792183905
 72
     1
 10
86755.80876858401
 20
18582.29792183905
 11
86756.05511306749
 21
18582.29864446736
 97
        1
330
387
 75
     0
 76
     1
 98
        1
 10
86669.78249550576
 20
18451.24678585067
  0
LWPOLYLINE
  5
387
102
{ACAD_REACTORS
330
386
102
}
330
1238
100
AcDbEntity
  8
FG-$$$$$$$-MISC
100
AcDbPolyline
 90
        4
 70
     1
 43
0.0
 10
86756.05511306749
 20
18582.29864446736
 10
86756.30145755097
 20
18582.29792183905
 10
86756.05511306749
 20
18584.64816524039
 10
86755.80876858401
 20
18582.29792183905
  0
LWPOLYLINE
  5
388
330
1238
100
AcDbEntity
  8
FG-$$$$$$$-MISC
100
AcDbPolyline
 90
        2
 70
     0
 43
0.0
 10
86756.05511306749
 20
18582.29864446736
 10
86756.05511306749
 20
18573.78915777802
  0
LWPOLYLINE
  5
389
330
1238
100
AcDbEntity
  8
FG-$$$$$$$-MISC
100
AcDbPolyline
 90
        2
 70
     0
 43
0.0
 10
86757.37648964259
 20
18580.3479024133
 10
86754.67352217836
 20
18580.3479024133
  0
TEXT
  5
3B6
330
1238
100
AcDbEntity
  8
PR-07$$$$$-TEXT
100
AcDbText
 10
86627.00860516727
 20
18562.52530371767
 30
0.0
 40
0.678781146016263
  1

100
AcDbText
  0
LWPOLYLINE
  5
3BC
330
1238
100
AcDbEntity
  8
FG-$$$$$$$-MISC
100
AcDbPolyline
 90
        3
 70
     0
 43
0.0
 10
86769.80200717661
 20
18486.80209734773
 10
86743.26072845055
 20
18486.80209734773
 10
86743.26072845055
 20
18467.43703765868
  0
LWPOLYLINE
  5
3DD
330
1238
100
AcDbEntity
  8
FG-$$$$$$$-OSBASE
  6
Continuous
100
AcDbPolyline
 90
        2
 70
     0
 43
0.0
 10
86579.80200717661
 20
18500.0
 10
86769.80200717661
 20
18500.0
  0
TEXT
  5
3DF
330
1238
100
AcDbEntity
  8
FG-$$$$$$$-MISC
100
AcDbText
 10
86765.73401138488
 20
18500.73768740458
 30
0.0
 40
0.9599999999999999
  1
18500
  7
WESSEX
 11
86765.73401138488
 21
18500.45348549462
 31
0.0
100
AcDbText
 73
     1
  0
TEXT
  5
3E1
330
1238
100
AcDbEntity
  8
PAGELAYOUT_KEYETC
100
AcDbText
 10
86736.15650692179
 20
18592.8910918175
 30
0.0
 40
0.6822651523932816
  1
Contract 440: Little Stock Farm (ARC LSF99) Post-Excavation Assessment Report
  7
HEADER
100
AcDbText
  0
TEXT
  5
3E2
330
1238
100
AcDbEntity
  8
PAGELAYOUT_KEYETC
100
AcDbText
 10
86748.9670803806
 20
18465.87570352298
 30
0.0
 40
0.6822651523932816
  1
c  UNION RAILWAYS (SOUTH) LIMITED, 2001
  7
FOOTER
100
AcDbText
  0
CIRCLE
  5
3E3
330
1238
100
AcDbEntity
  8
PAGELAYOUT_KEYETC
100
AcDbCircle
 10
86749.19112136339
 20
18466.09701696771
 30
0.0
 40
0.3422429601598682
  0
LWPOLYLINE
  5
3E6
330
1238
100
AcDbEntity
  8
FG-$$$$$$$-OSBASE
  6
Continuous
100
AcDbPolyline
 90
        2
 70
     0
 43
0.0
 10
86600.0
 20
18467.43703765868
 10
86600.0
 20
18592.43703765868
  0
LWPOLYLINE
  5
3E7
330
1238
100
AcDbEntity
  8
FG-$$$$$$$-OSBASE
  6
Continuous
100
AcDbPolyline
 90
        2
 70
     0
 43
0.0
 10
86700.0
 20
18467.43703765868
 10
86700.0
 20
18592.43703765868
  0
TEXT
  5
3E9
330
1238
100
AcDbEntity
  8
FG-$$$$$$$-MISC
100
AcDbText
 10
86599.74060833699
 20
18468.05070247501
 30
0.0
 40
0.9599999999999999
  1
86600
 50
90.0
  7
WESSEX
 11
86600.02481024696
 21
18468.05070247501
 31
0.0
100
AcDbText
 73
     1
  0
TEXT
  5
3EA
330
1238
100
AcDbEntity
  8
FG-$$$$$$$-MISC
100
AcDbText
 10
86699.74060833699
 20
18468.05070247501
 30
0.0
 40
0.9599999999999999
  1
86700
 50
90.0
  7
WESSEX
 11
86700.02481024695
 21
18468.05070247501
 31
0.0
100
AcDbText
 73
     1
  0
LWPOLYLINE
  5
453
330
1238
100
AcDbEntity
  8
PR-05A05B$-ARCH
  6
Continuous
100
AcDbPolyline
 90
       13
 70
   129
 43
0.0
 10
86631.94466496742
 20
18514.96761813285
 10
86630.39594246077
 20
18515.45159391618
 10
86628.52456943189
 20
18515.96783475173
 10
86626.39507598527
 20
18516.61313579617
 10
86624.33011264305
 20
18517.29070189283
 10
86623.6525465464
 20
18517.61335241505
 10
86623.29763097195
 20
18517.96826798949
 10
86623.58801644195
 20
18518.09732819838
 10
86624.42690779972
 20
18518.00053304171
 10
86625.4271244186
 20
18517.71014757172
 10
86626.78225661191
 20
18517.48429220616
 10
86627.75020817856
 20
18517.29070189283
 10
86630.42820751297
 20
18516.70993095283
  0
LWPOLYLINE
  5
454
330
1238
100
AcDbEntity
  8
PR-08$$$$2-ARCH
  6
Continuous
100
AcDbPolyline
 90
       19
 70
   129
 43
0.0
 10
86619.522619862
 20
18516.83899116172
 10
86618.9741139742
 20
18517.90373788505
 10
86618.58693334756
 20
18518.64583408615
 10
86618.19975272087
 20
18519.32340018281
 10
86617.780307042
 20
18520.03323133169
 10
86617.39312641534
 20
18520.9366527939
 10
86618.61919839976
 20
18520.83985763724
 10
86619.232234392
 20
18519.61378565281
 10
86619.78074027976
 20
18518.58130398171
 10
86620.07112574976
 20
18518.4199787206
 10
86620.49057142864
 20
18518.4199787206
 10
86621.10360742087
 20
18518.48450882504
 10
86621.6198482564
 20
18518.80715934726
 10
86621.87796867419
 20
18518.87168945171
 10
86622.16835414419
 20
18518.35544861615
 10
86622.32967940527
 20
18517.77467767616
 10
86621.81343856975
 20
18517.64561746727
 10
86620.87775205531
 20
18517.29070189283
 10
86620.87775205531
 20
18517.29070189283
  0
CIRCLE
  5
46A
330
1238
100
AcDbEntity
  8
PR-99$$$$$-ARCH
  6
Continuous
100
AcDbCircle
 10
86727.90859382552
 20
18510.83351681225
 30
0.0
 40
4.18551324666425
  0
CIRCLE
  5
46B
330
1238
100
AcDbEntity
  8
PR-99$$$$$-ARCH
  6
Continuous
100
AcDbCircle
 10
86727.90859382552
 20
18510.83351681225
 30
0.0
 40
2.229251684522519
  0
CIRCLE
  5
46F
330
1238
100
AcDbEntity
  8
PR-99$$$$$-ARCH
  6
Continuous
100
AcDbCircle
 10
86750.60705555775
 20
18529.67723999385
 30
0.0
 40
0.2356538268650183
  0
CIRCLE
  5
470
330
1238
100
AcDbEntity
  8
PR-99$$$$$-ARCH
  6
Continuous
100
AcDbCircle
 10
86749.5858889747
 20
18530.21119932985
 30
0.0
 40
0.1110883287910838
  0
CIRCLE
  5
471
330
1238
100
AcDbEntity
  8
PR-05B05C2-ARCH
100
AcDbCircle
 10
86747.21364217608
 20
18524.27170076147
 30
0.0
 40
0.5243519678188023
  0
INSERT
  5
477
330
1238
100
AcDbEntity
  8
0
  6
Continuous
100
AcDbBlockReference
  2
LSF99
 10
-0.0335290710645495
 20
-0.0290710621738981
 30
0.0
  0
CIRCLE
  5
478
330
1238
100
AcDbEntity
  8
PR-05A05B$-ARCH
  6
Continuous
100
AcDbCircle
 10
86627.58888291747
 20
18514.87082297619
 30
0.0
 40
1.318527006513311
  0
LWPOLYLINE
  5
47D
330
1238
100
AcDbEntity
  8
PR-05A05B$-ARCH
100
AcDbPolyline
 90
        7
 70
     1
 43
0.0
 10
86748.03899999998
 20
18525.944
 10
86747.991
 20
18526.183
 10
86747.80499999998
 20
18526.263
 10
86747.64799999999
 20
18526.10099999999
 10
86747.635
 20
18525.892
 10
86747.78499999997
 20
18525.752
 10
86747.96699999999
 20
18525.804
  0
TEXT
  5
484
330
1238
100
AcDbEntity
  8
FG-$$$$$$$-MISC
100
AcDbText
 10
86581.10421546624
 20
18590.61712924677
 30
0.0
 40
0.9599999999999999
  1
URL Grid
  7
WESSEX
 11
86581.10421546624
 21
18590.33292733681
 31
0.0
100
AcDbText
 73
     1
  0
TEXT
  5
48D
330
1238
100
AcDbEntity
  8
PR-03B$$$$-TEXT
100
AcDbText
 10
86727.9631641953
 20
18507.63640153243
 30
0.0
 40
0.6516299001756125
  1
2507
100
AcDbText
  0
TEXT
  5
48E
330
1238
100
AcDbEntity
  8
PR-04D05A$-TEXT
100
AcDbText
 10
86732.7458087614
 20
18507.21535312951
 30
0.0
 40
0.6516299001756125
  1
2316
100
AcDbText
  0
TEXT
  5
48F
330
1238
100
AcDbEntity
  8
PR-04D05A$-TEXT
100
AcDbText
 10
86717.09963782885
 20
18512.28762837975
 30
0.0
 40
0.6516299001756125
  1
5009
100
AcDbText
  0
TEXT
  5
490
330
1238
100
AcDbEntity
  8
PR-04D05A$-TEXT
100
AcDbText
 10
86739.11456766452
 20
18512.09452406739
 30
0.0
 40
0.6516299001756125
  1
2104
100
AcDbText
  0
TEXT
  5
491
330
1238
100
AcDbEntity
  8
PR-04D05A$-TEXT
100
AcDbText
 10
86732.72277377972
 20
18509.0295729592
 30
0.0
 40
0.6516299001756125
  1
2318
100
AcDbText
  0
TEXT
  5
492
330
1238
100
AcDbEntity
  8
PR-04D05A$-TEXT
100
AcDbText
 10
86728.98774133658
 20
18511.25746115847
 30
0.0
 40
0.6516299001756125
  1
2503
100
AcDbText
  0
TEXT
  5
493
330
1238
100
AcDbEntity
  8
PR-04D05A$-TEXT
100
AcDbText
 10
86603.06177628903
 20
18528.64924290203
 30
0.0
 40
0.6516299001756125
  1
5016
100
AcDbText
  0
TEXT
  5
494
330
1238
100
AcDbEntity
  8
PR-04B04C$-TEXT
100
AcDbText
 10
86733.12234773471
 20
18514.98019200059
 30
0.0
 40
0.6516299001756125
  1
2214
100
AcDbText
  0
TEXT
  5
495
330
1238
100
AcDbEntity
  8
PR-04D05A$-TEXT
100
AcDbText
 10
86743.05882618688
 20
18510.48269109337
 30
0.0
 40
0.6516299001756125
  1
2105
100
AcDbText
  0
LWPOLYLINE
  5
496
330
1238
100
AcDbEntity
  8
PR-03B$$$$-ARCH
100
AcDbPolyline
 90
        4
 70
     1
 43
0.0
 10
86744.37817511428
 20
18480.11064806662
 10
86746.42280881642
 20
18480.11064806662
 10
86746.42280881642
 20
18479.02057949173
 10
86744.37817511428
 20
18479.02057949173
  0
TEXT
  5
497
330
1238
100
AcDbEntity
  8
FG-$$$$$$$-MISC
100
AcDbText
 10
86747.2984918235
 20
18479.09300334525
 30
0.0
 40
0.8145373752195155
  1
Late Neolithic
100
AcDbText
  0
LWPOLYLINE
  5
498
330
1238
100
AcDbEntity
  8
PR-04B04C$-ARCH
100
AcDbPolyline
 90
        4
 70
     1
 43
0.0
 10
86744.37817511428
 20
18478.68007278357
 10
86746.42280881642
 20
18478.68007278357
 10
86746.42280881642
 20
18477.59000420868
 10
86744.37817511428
 20
18477.59000420868
  0
TEXT
  5
499
330
1238
100
AcDbEntity
  8
FG-$$$$$$$-MISC
100
AcDbText
 10
86747.2984918235
 20
18477.6624280622
 30
0.0
 40
0.8145373752195155
  1
Early/ Middle Bronze Age
100
AcDbText
  0
LWPOLYLINE
  5
49A
330
1238
100
AcDbEntity
  8
PR-04D05A$-ARCH
100
AcDbPolyline
 90
        4
 70
     1
 43
0.0
 10
86744.37817511428
 20
18477.24949750051
 10
86746.42280881642
 20
18477.24949750051
 10
86746.42280881642
 20
18476.15942892563
 10
86744.37817511428
 20
18476.15942892563
  0
TEXT
  5
49B
330
1238
100
AcDbEntity
  8
FG-$$$$$$$-MISC
100
AcDbText
 10
86747.2984918235
 20
18476.23185277914
 30
0.0
 40
0.8145373752195155
  1
Late Bronze Age/ Early Iron Age
100
AcDbText
  0
TEXT
  5
49C
330
1238
100
AcDbEntity
  8
FG-$$$$$$$-MISC
100
AcDbText
 10
86579.64845814325
 20
18465.82440160875
 30
0.0
 40
1.08604983362602
  1
Figure 4: Distribution of Late Neolithic - Late Bronze Age/ Early Iron Age features
100
AcDbText
  0
TEXT
  5
4B1
330
1238
100
AcDbEntity
  8
PR-04B04C$-TEXT
100
AcDbText
 10
86743.00949972773
 20
18514.20754414696
 30
0.0
 40
0.6516299001756125
  1
5033
100
AcDbText
  0
TEXT
  5
4B2
330
1238
100
AcDbEntity
  8
PR-04B04C$-TEXT
100
AcDbText
 10
86747.14217317502
 20
18520.52945073607
 30
0.0
 40
0.6516299001756125
  1
362706
100
AcDbText
  0
TEXT
  5
4B3
330
1238
100
AcDbEntity
  8
PR-04B04C$-TEXT
100
AcDbText
 10
86750.30629290326
 20
18540.21003385666
 30
0.0
 40
0.6516299001756125
  1
5013
100
AcDbText
  0
LWPOLYLINE
  5
4D4
330
1238
100
AcDbEntity
  8
PR-04D05A$-TEXT
100
AcDbPolyline
 90
        2
 70
     0
 43
0.0
 10
86732.6108478295
 20
18509.02302723042
 10
86731.64154804318
 20
18508.64231395302
  0
LWPOLYLINE
  5
4D5
330
1238
100
AcDbEntity
  8
PR-04D05A$-TEXT
100
AcDbPolyline
 90
        2
 70
     0
 43
0.0
 10
86732.54504312863
 20
18507.47249732066
 10
86731.50613297819
 20
18508.25289384239
  0
LWPOLYLINE
  5
4D6
330
1238
100
AcDbEntity
  8
PR-04D05A$-TEXT
100
AcDbPolyline
 90
        2
 70
     0
 43
0.0
 10
86741.17593604309
 20
18512.13292304413
 10
86741.7899551336
 20
18511.81920157655
  0
LWPOLYLINE
  5
4D7
330
1238
100
AcDbEntity
  8
PR-04D05A$-TEXT
100
AcDbPolyline
 90
        2
 70
     0
 43
0.0
 10
86742.2475
 20
18511.407
 10
86742.94116417231
 20
18510.80688045989
  0
TEXT
  5
4EA
330
1238
100
AcDbEntity
  8
FG-$$$$$$$-MISC
100
AcDbText
 10
86641.3826040441
 20
18558.62681506117
 30
0.0
 40
1.172933820316102
  1
Limit of excavation area
 50
346.4066728507425
100
AcDbText
  0
LWPOLYLINE
  5
645
330
1238
100
AcDbEntity
  8
PR-04D05A$-ARCH
100
AcDbPolyline
 90
       40
 70
     1
 43
0.0
 10
86750.337
 20
18542.208
 10
86751.576
 20
18542.192
 10
86752.782
 20
18542.05699999999
 10
86753.98799999998
 20
18541.885
 10
86755.467
 20
18541.699
 10
86756.87
 20
18541.60099999999
 10
86758.43
 20
18541.426
 10
86759.759
 20
18541.24299999999
 10
86761.51413362222
 20
18540.98482830526
 10
86761.636
 20
18541.48
 10
86761.61609808201
 20
18541.6333459035
 10
86759.54499999998
 20
18541.88399999999
 10
86758.29
 20
18542.01199999999
 10
86757.088
 20
18542.17
 10
86755.828
 20
18542.378
 10
86754.584
 20
18542.555
 10
86753.318
 20
18542.684
 10
86751.895
 20
18542.825
 10
86750.66300000002
 20
18543.044
 10
86749.665
 20
18543.072
 10
86748.551
 20
18543.205
 10
86747.429
 20
18543.365
 10
86746.273
 20
18543.471
 10
86745.59099999999
 20
18543.43
 10
86745.044
 20
18543.626
 10
86744.808
 20
18543.72399999999
 10
86744.718
 20
18543.637
 10
86744.711
 20
18543.504
 10
86744.90099999998
 20
18543.329
 10
86745.72299999998
 20
18543.131
 10
86746.431
 20
18542.891
 10
86746.888
 20
18542.788
 10
86746.991
 20
18542.578
 10
86747.13999999998
 20
18542.466
 10
86747.344
 20
18542.504
 10
86747.492
 20
18542.63
 10
86747.581
 20
18542.768
 10
86748.4
 20
18542.646
 10
86749.04899999998
 20
18542.432
 10
86749.62
 20
18542.378
  0
TEXT
  5
646
330
1238
100
AcDbEntity
  8
PR-05C$$$1-TEXT
100
AcDbText
 10
86753.76529607405
 20
18543.03530329067
 30
0.0
 40
0.6516299001756125
  1
2244
100
AcDbText
  0
LWPOLYLINE
  5
67E
330
1238
100
AcDbEntity
  8
M-COLOR
100
AcDbPolyline
 90
       13
 70
     0
 43
0.0
 10
86568.2732060835
 20
18454.9360023027
 10
86568.2732060835
 20
18603.4360023027
 10
86778.2732060835
 20
18603.4360023027
 10
86778.2732060835
 20
18454.9360023027
 10
86568.2732060835
 20
18454.9360023027
 10
86568.2732060835
 20
18469.78600230269
 10
86566.0457060835
 20
18469.78600230269
 10
86568.2732060835
 20
18480.1810023027
 10
86568.2732060835
 20
18454.9360023027
 10
86583.1232060835
 20
18454.9360023027
 10
86583.1232060835
 20
18452.70850230269
 10
86593.5182060835
 20
18454.9360023027
 10
86568.2732060835
 20
18454.9360023027
1001
M-COLOR__358644234323
1000
PAPER
1040
2.0
1000
meter
1002
{
1004
000000000000000000000000000000000000000000000000000000000000F03F0000000000000000
1002
}
1002
{
1004
5C5C534152554D5F325C4550534F4E5F33303030420000000000000000000000010460049C004E010F0B80070200080068109A0B640001000700680102000000680100000000000000000000000000000000000000000000000000000000000000000000000000000000000000000000000000000000000000000000010000
1004
0002000000010000000000000000000000000000000000000000000000000000000100000033080000990B000000000000020000000100000000000100040006000200000000000180960001000000FFFFFFFF0200000000000000000000000000000000000000000000000400000000000000000000000000000000000000
1004
000000000100000016000000000000000000000001000000010000002A0000002A0000002A000000C60000007110000041170000680100006801000000000000444C4C4E616D6533323D655F6475313065652E646C6C000000000000000000000000000008001D1000005116000064001D1000005116000000000000140000
1004
000000000000000000000000000000320000000000000001000000000000000000000000004500500053004F004E0020005300740079006C0075007300200043004F004C004F005200200033003000300030000000000000000000000000000000000000000908000000000000
1002
}
1002
{
1004
080011002700000077696E73706F6F6C005C5C534152554D5F325C4550534F4E5F3330303042005C5C534152554D5F325C4550534F4E5F333030304200
1002
}
  0
ENDSEC
  0
SECTION
  2
OBJECTS
  0
DICTIONARY
  5
1228
330
0
100
AcDbDictionary
281
     1
  3
ACAD_DETAILVIEWSTYLE
350
12F1
  3
ACAD_GROUP
350
1229
  3
ACAD_LAYOUT
350
1235
  3
ACAD_MATERIAL
350
1242
  3
ACAD_MLEADERSTYLE
350
12EF
  3
ACAD_MLINESTYLE
350
1232
  3
ACAD_PLOTSETTINGS
350
1234
  3
ACAD_PLOTSTYLENAME
350
122A
  3
ACAD_SCALELIST
350
1281
  3
ACAD_SECTIONVIEWSTYLE
350
12F2
  3
ACAD_TABLESTYLE
350
12EE
  3
ACAD_VISUALSTYLE
350
12A3
  3
AcDbVariableDictionary
350
12BC
  0
DICTIONARY
  5
12F1
102
{ACAD_REACTORS
330
1228
102
}
330
1228
100
AcDbDictionary
281
     1
  0
DICTIONARY
  5
1229
102
{ACAD_REACTORS
330
1228
102
}
330
1228
100
AcDbDictionary
281
     1
  0
DICTIONARY
  5
1235
102
{ACAD_REACTORS
330
1228
102
}
330
1228
100
AcDbDictionary
281
     1
  3
Layout1
350
1237
  3
Model
350
1239
  0
DICTIONARY
  5
1242
102
{ACAD_REACTORS
330
1228
102
}
330
1228
100
AcDbDictionary
281
     1
  3
ByBlock
350
1244
  3
ByLayer
350
1243
  3
Global
350
1245
  0
DICTIONARY
  5
12EF
102
{ACAD_REACTORS
330
1228
102
}
330
1228
100
AcDbDictionary
281
     1
  0
DICTIONARY
  5
1232
102
{ACAD_REACTORS
330
1228
102
}
330
1228
100
AcDbDictionary
281
     1
  3
Standard
350
1233
  0
DICTIONARY
  5
1234
102
{ACAD_REACTORS
330
1228
102
}
330
1228
100
AcDbDictionary
281
     1
  0
ACDBDICTIONARYWDFLT
  5
122A
102
{ACAD_REACTORS
330
1228
102
}
330
1228
100
AcDbDictionary
281
     1
  3
Normal
350
122B
100
AcDbDictionaryWithDefault
340
122B
  0
DICTIONARY
  5
1281
102
{ACAD_REACTORS
330
1228
102
}
330
1228
100
AcDbDictionary
281
     1
  3
A0
350
1282
  3
A1
350
1283
  3
A2
350
1284
  3
A3
350
1285
  3
A4
350
1286
  3
A5
350
1287
  3
A6
350
1288
  3
A7
350
1289
  3
A8
350
128A
  3
A9
350
128B
  3
B0
350
128C
  3
B1
350
128D
  3
B2
350
128E
  3
B3
350
128F
  3
B4
350
1290
  3
B5
350
1291
  3
B6
350
1292
  3
B7
350
1293
  3
B8
350
1294
  3
B9
350
1295
  3
C0
350
1296
  3
C1
350
1297
  3
C2
350
1298
  3
C3
350
1299
  3
C4
350
129A
  3
C5
350
129B
  3
C6
350
129C
  3
C7
350
129D
  3
C8
350
129E
  3
C9
350
129F
  3
D0
350
12A0
  3
D1
350
12A1
  3
D2
350
12A2
  0
DICTIONARY
  5
12F2
102
{ACAD_REACTORS
330
1228
102
}
330
1228
100
AcDbDictionary
281
     1
  0
DICTIONARY
  5
12EE
102
{ACAD_REACTORS
330
1228
102
}
330
1228
100
AcDbDictionary
281
     1
  0
DICTIONARY
  5
12A3
102
{ACAD_REACTORS
330
1228
102
}
330
1228
100
AcDbDictionary
281
     1
  3
2dWireframe
350
12A8
  3
Basic
350
12AB
  3
Brighten
350
12AF
  3
ColorChange
350
12B3
  3
Conceptual
350
12AD
  3
Dim
350
12AE
  3
EdgeColorOff
350
12B6
  3
Facepattern
350
12B2
  3
Flat
350
12A4
  3
FlatWithEdges
350
12A5
  3
Gouraud
350
12A6
  3
GouraudWithEdges
350
12A7
  3
Hidden
350
12AA
  3
JitterOff
350
12B4
  3
Linepattern
350
12B1
  3
OverhangOff
350
12B5
  3
Realistic
350
12AC
  3
Shaded
350
12BB
  3
Shaded with edges
350
12BA
  3
Shades of Gray
350
12B7
  3
Sketchy
350
12B8
  3
Thicken
350
12B0
  3
Wireframe
350
12A9
  3
X-Ray
350
12B9
  0
DICTIONARY
  5
12BC
102
{ACAD_REACTORS
330
1228
102
}
330
1228
100
AcDbDictionary
281
     1
  3
CANNOSCALE
350
12BD
  3
MSLTSCALE
350
12F0
  0
LAYOUT
  5
1237
102
{ACAD_REACTORS
330
1235
102
}
330
1235
100
AcDbPlotSettings
  1

  2
none_device
  4

  6

 40
0.0
 41
0.0
 42
0.0
 43
0.0
 44
0.0
 45
0.0
 46
0.0
 47
0.0
 48
0.0
 49
0.0
140
0.0
141
0.0
142
1.0
143
1.0
 70
   688
 72
     0
 73
     0
 74
     5
  7

 75
    16
 76
     0
 77
     2
 78
   300
147
1.0
148
0.0
149
0.0
100
AcDbLayout
  1
Layout1
 70
     1
 71
     1
 10
0.0
 20
0.0
 11
12.0
 21
9.0
 12
0.0
 22
0.0
 32
0.0
 14
1.000000000000000E+20
 24
1.000000000000000E+20
 34
1.000000000000000E+20
 15
-1.000000000000000E+20
 25
-1.000000000000000E+20
 35
-1.000000000000000E+20
146
0.0
 13
0.0
 23
0.0
 33
0.0
 16
1.0
 26
0.0
 36
0.0
 17
0.0
 27
1.0
 37
0.0
 76
     0
330
1236
  0
LAYOUT
  5
1239
102
{ACAD_REACTORS
330
1235
102
}
330
1235
100
AcDbPlotSettings
  1

  2
none_device
  4
Letter_(8.50_x_11.00_Inches)
  6

 40
6.35
 41
6.35
 42
6.35000508
 43
6.35000508
 44
215.9
 45
279.4
 46
0.0
 47
0.0
 48
0.0
 49
0.0
140
0.0
141
0.0
142
1.0
143
1.0
 70
  1712
 72
     0
 73
     0
 74
     0
  7

 75
     0
 76
     0
 77
     2
 78
   300
147
1.0
148
0.0
149
0.0
100
AcDbLayout
  1
Model
 70
     1
 71
     0
 10
0.0
 20
0.0
 11
12.0
 21
9.0
 12
0.0
 22
0.0
 32
0.0
 14
86566.0457060835
 24
18452.70850230269
 34
0.0
 15
86778.2732060835
 25
18603.4360023027
 35
0.0
146
0.0
 13
0.0
 23
0.0
 33
0.0
 16
1.0
 26
0.0
 36
0.0
 17
0.0
 27
1.0
 37
0.0
 76
     0
330
1238
331
123B
  0
MATERIAL
  5
1244
102
{ACAD_REACTORS
330
1242
102
}
330
1242
100
AcDbMaterial
  1
ByBlock
 72
     1
 94
      127
  0
MATERIAL
  5
1243
102
{ACAD_REACTORS
330
1242
102
}
330
1242
100
AcDbMaterial
  1
ByLayer
 72
     1
 94
      127
  0
MATERIAL
  5
1245
102
{ACAD_REACTORS
330
1242
102
}
330
1242
100
AcDbMaterial
  1
Global
 72
     1
 94
      127
  0
MLINESTYLE
  5
1233
102
{ACAD_REACTORS
330
1232
102
}
330
1232
100
AcDbMlineStyle
  2
Standard
 70
     0
  3

 62
   256
 51
90.0
 52
90.0
 71
     2
 49
0.5
 62
   256
  6
BYLAYER
 49
-0.5
 62
   256
  6
BYLAYER
  0
ACDBPLACEHOLDER
  5
122B
102
{ACAD_REACTORS
330
122A
102
}
330
122A
  0
SCALE
  5
1282
102
{ACAD_REACTORS
330
1281
102
}
330
1281
100
AcDbScale
 70
     0
300
1:1
140
1.0
141
1.0
290
     1
  0
SCALE
  5
1283
102
{ACAD_REACTORS
330
1281
102
}
330
1281
100
AcDbScale
 70
     0
300
1:2
140
1.0
141
2.0
290
     0
  0
SCALE
  5
1284
102
{ACAD_REACTORS
330
1281
102
}
330
1281
100
AcDbScale
 70
     0
300
1:4
140
1.0
141
4.0
290
     0
  0
SCALE
  5
1285
102
{ACAD_REACTORS
330
1281
102
}
330
1281
100
AcDbScale
 70
     0
300
1:5
140
1.0
141
5.0
290
     0
  0
SCALE
  5
1286
102
{ACAD_REACTORS
330
1281
102
}
330
1281
100
AcDbScale
 70
     0
300
1:8
140
1.0
141
8.0
290
     0
  0
SCALE
  5
1287
102
{ACAD_REACTORS
330
1281
102
}
330
1281
100
AcDbScale
 70
     0
300
1:10
140
1.0
141
10.0
290
     0
  0
SCALE
  5
1288
102
{ACAD_REACTORS
330
1281
102
}
330
1281
100
AcDbScale
 70
     0
300
1:16
140
1.0
141
16.0
290
     0
  0
SCALE
  5
1289
102
{ACAD_REACTORS
330
1281
102
}
330
1281
100
AcDbScale
 70
     0
300
1:20
140
1.0
141
20.0
290
     0
  0
SCALE
  5
128A
102
{ACAD_REACTORS
330
1281
102
}
330
1281
100
AcDbScale
 70
     0
300
1:30
140
1.0
141
30.0
290
     0
  0
SCALE
  5
128B
102
{ACAD_REACTORS
330
1281
102
}
330
1281
100
AcDbScale
 70
     0
300
1:40
140
1.0
141
40.0
290
     0
  0
SCALE
  5
128C
102
{ACAD_REACTORS
330
1281
102
}
330
1281
100
AcDbScale
 70
     0
300
1:50
140
1.0
141
50.0
290
     0
  0
SCALE
  5
128D
102
{ACAD_REACTORS
330
1281
102
}
330
1281
100
AcDbScale
 70
     0
300
1:100
140
1.0
141
100.0
290
     0
  0
SCALE
  5
128E
102
{ACAD_REACTORS
330
1281
102
}
330
1281
100
AcDbScale
 70
     0
300
2:1
140
2.0
141
1.0
290
     0
  0
SCALE
  5
128F
102
{ACAD_REACTORS
330
1281
102
}
330
1281
100
AcDbScale
 70
     0
300
4:1
140
4.0
141
1.0
290
     0
  0
SCALE
  5
1290
102
{ACAD_REACTORS
330
1281
102
}
330
1281
100
AcDbScale
 70
     0
300
8:1
140
8.0
141
1.0
290
     0
  0
SCALE
  5
1291
102
{ACAD_REACTORS
330
1281
102
}
330
1281
100
AcDbScale
 70
     0
300
10:1
140
10.0
141
1.0
290
     0
  0
SCALE
  5
1292
102
{ACAD_REACTORS
330
1281
102
}
330
1281
100
AcDbScale
 70
     0
300
100:1
140
100.0
141
1.0
290
     0
  0
SCALE
  5
1293
102
{ACAD_REACTORS
330
1281
102
}
330
1281
100
AcDbScale
 70
     0
300
1/128" = 1'-0"
140
0.0078125
141
12.0
290
     0
  0
SCALE
  5
1294
102
{ACAD_REACTORS
330
1281
102
}
330
1281
100
AcDbScale
 70
     0
300
1/64" = 1'-0"
140
0.015625
141
12.0
290
     0
  0
SCALE
  5
1295
102
{ACAD_REACTORS
330
1281
102
}
330
1281
100
AcDbScale
 70
     0
300
1/32" = 1'-0"
140
0.03125
141
12.0
290
     0
  0
SCALE
  5
1296
102
{ACAD_REACTORS
330
1281
102
}
330
1281
100
AcDbScale
 70
     0
300
1/16" = 1'-0"
140
0.0625
141
12.0
290
     0
  0
SCALE
  5
1297
102
{ACAD_REACTORS
330
1281
102
}
330
1281
100
AcDbScale
 70
     0
300
3/32" = 1'-0"
140
0.09375
141
12.0
290
     0
  0
SCALE
  5
1298
102
{ACAD_REACTORS
330
1281
102
}
330
1281
100
AcDbScale
 70
     0
300
1/8" = 1'-0"
140
0.125
141
12.0
290
     0
  0
SCALE
  5
1299
102
{ACAD_REACTORS
330
1281
102
}
330
1281
100
AcDbScale
 70
     0
300
3/16" = 1'-0"
140
0.1875
141
12.0
290
     0
  0
SCALE
  5
129A
102
{ACAD_REACTORS
330
1281
102
}
330
1281
100
AcDbScale
 70
     0
300
1/4" = 1'-0"
140
0.25
141
12.0
290
     0
  0
SCALE
  5
129B
102
{ACAD_REACTORS
330
1281
102
}
330
1281
100
AcDbScale
 70
     0
300
3/8" = 1'-0"
140
0.375
141
12.0
290
     0
  0
SCALE
  5
129C
102
{ACAD_REACTORS
330
1281
102
}
330
1281
100
AcDbScale
 70
     0
300
1/2" = 1'-0"
140
0.5
141
12.0
290
     0
  0
SCALE
  5
129D
102
{ACAD_REACTORS
330
1281
102
}
330
1281
100
AcDbScale
 70
     0
300
3/4" = 1'-0"
140
0.75
141
12.0
290
     0
  0
SCALE
  5
129E
102
{ACAD_REACTORS
330
1281
102
}
330
1281
100
AcDbScale
 70
     0
300
1" = 1'-0"
140
1.0
141
12.0
290
     0
  0
SCALE
  5
129F
102
{ACAD_REACTORS
330
1281
102
}
330
1281
100
AcDbScale
 70
     0
300
1-1/2" = 1'-0"
140
1.5
141
12.0
290
     0
  0
SCALE
  5
12A0
102
{ACAD_REACTORS
330
1281
102
}
330
1281
100
AcDbScale
 70
     0
300
3" = 1'-0"
140
3.0
141
12.0
290
     0
  0
SCALE
  5
12A1
102
{ACAD_REACTORS
330
1281
102
}
330
1281
100
AcDbScale
 70
     0
300
6" = 1'-0"
140
6.0
141
12.0
290
     0
  0
SCALE
  5
12A2
102
{ACAD_REACTORS
330
1281
102
}
330
1281
100
AcDbScale
 70
     0
300
1'-0" = 1'-0"
140
12.0
141
12.0
290
     0
  0
VISUALSTYLE
  5
12A8
102
{ACAD_REACTORS
330
12A3
102
}
102
{ACAD_XDICTIONARY
360
12C6
102
}
330
12A3
100
AcDbVisualStyle
  2
2dWireframe
 70
     4
177
     2
291
     0
 71
     0
176
     1
 72
     2
176
     1
 73
     0
176
     1
 90
        0
176
     1
 40
0.6
176
     1
 41
30.0
176
     1
 62
     5
 63
     7
421
 16777215
176
     1
 74
     1
176
     1
 91
        4
176
     1
 64
     7
176
     1
 65
   257
176
     1
 75
     1
176
     1
175
     1
176
     1
 42
1.0
176
     1
 92
        0
176
     1
 66
   257
176
     1
 43
1.0
176
     1
 76
     1
176
     1
 77
     6
176
     1
 78
     2
176
     1
 67
     7
176
     1
 79
     5
176
     1
170
     0
176
     1
171
     0
176
     1
290
     0
176
     1
 93
        1
176
     1
 44
0.0
176
     1
173
     0
176
     1
  0
VISUALSTYLE
  5
12AB
102
{ACAD_REACTORS
330
12A3
102
}
102
{ACAD_XDICTIONARY
360
12CC
102
}
330
12A3
100
AcDbVisualStyle
  2
Basic
 70
     7
177
     2
291
     1
 71
     1
176
     1
 72
     0
176
     1
 73
     1
176
     1
 90
        0
176
     1
 40
0.6
176
     1
 41
30.0
176
     1
 62
     5
 63
     7
421
 16777215
176
     1
 74
     0
176
     1
 91
        4
176
     1
 64
     7
176
     1
 65
   257
176
     1
 75
     1
176
     1
175
     1
176
     1
 42
1.0
176
     1
 92
        8
176
     1
 66
     7
176
     1
 43
1.0
176
     1
 76
     1
176
     1
 77
     6
176
     1
 78
     2
176
     1
 67
     7
176
     1
 79
     5
176
     1
170
     0
176
     1
171
     0
176
     1
290
     0
176
     1
 93
        1
176
     1
 44
0.0
176
     1
173
     0
176
     1
  0
VISUALSTYLE
  5
12AF
102
{ACAD_REACTORS
330
12A3
102
}
102
{ACAD_XDICTIONARY
360
12D4
102
}
330
12A3
100
AcDbVisualStyle
  2
Brighten
 70
    12
177
     2
291
     1
 71
     2
176
     1
 72
     2
176
     1
 73
     0
176
     1
 90
        0
176
     1
 40
0.6
176
     1
 41
30.0
176
     1
 62
     5
 63
     7
421
 16777215
176
     1
 74
     1
176
     1
 91
        4
176
     1
 64
     7
176
     1
 65
   257
176
     1
 75
     1
176
     1
175
     1
176
     1
 42
1.0
176
     1
 92
        8
176
     1
 66
     7
176
     1
 43
1.0
176
     1
 76
     1
176
     1
 77
     6
176
     1
 78
     2
176
     1
 67
     7
176
     1
 79
     5
176
     1
170
     0
176
     1
171
     0
176
     1
290
     0
176
     1
 93
        1
176
     1
 44
50.0
176
     1
173
     0
176
     1
  0
VISUALSTYLE
  5
12B3
102
{ACAD_REACTORS
330
12A3
102
}
102
{ACAD_XDICTIONARY
360
12DC
102
}
330
12A3
100
AcDbVisualStyle
  2
ColorChange
 70
    16
177
     2
291
     1
 71
     2
176
     1
 72
     2
176
     1
 73
     3
176
     1
 90
        0
176
     1
 40
0.6
176
     1
 41
30.0
176
     1
 62
     5
 63
     8
421
  8421504
176
     1
 74
     1
176
     1
 91
        4
176
     1
 64
     7
176
     1
 65
   257
176
     1
 75
     1
176
     1
175
     1
176
     1
 42
1.0
176
     1
 92
        8
176
     1
 66
     8
424
  8421504
176
     1
 43
1.0
176
     1
 76
     1
176
     1
 77
     6
176
     1
 78
     2
176
     1
 67
     7
176
     1
 79
     5
176
     1
170
     0
176
     1
171
     0
176
     1
290
     0
176
     1
 93
        1
176
     1
 44
0.0
176
     1
173
     0
176
     1
  0
VISUALSTYLE
  5
12AD
102
{ACAD_REACTORS
330
12A3
102
}
102
{ACAD_XDICTIONARY
360
12D0
102
}
330
12A3
100
AcDbVisualStyle
  2
Conceptual
 70
     9
177
     2
291
     0
 71
     3
176
     1
 72
     2
176
     1
 73
     0
176
     1
 90
        0
176
     1
 40
0.6
176
     1
 41
30.0
176
     1
 62
     5
 63
     7
421
 16777215
176
     1
 74
     2
176
     1
 91
        2
176
     1
 64
     7
176
     1
 65
   257
176
     1
 75
     1
176
     1
175
     1
176
     1
 42
179.0
176
     1
 92
        8
176
     1
 66
     7
176
     1
 43
1.0
176
     1
 76
     1
176
     1
 77
     6
176
     1
 78
     2
176
     1
 67
     7
176
     1
 79
     3
176
     1
170
     0
176
     1
171
     0
176
     1
290
     0
176
     1
 93
        1
176
     1
 44
0.0
176
     1
173
     0
176
     1
  0
VISUALSTYLE
  5
12AE
102
{ACAD_REACTORS
330
12A3
102
}
102
{ACAD_XDICTIONARY
360
12D2
102
}
330
12A3
100
AcDbVisualStyle
  2
Dim
 70
    11
177
     2
291
     1
 71
     2
176
     1
 72
     2
176
     1
 73
     0
176
     1
 90
        0
176
     1
 40
0.6
176
     1
 41
30.0
176
     1
 62
     5
 63
     7
421
 16777215
176
     1
 74
     1
176
     1
 91
        4
176
     1
 64
     7
176
     1
 65
   257
176
     1
 75
     1
176
     1
175
     1
176
     1
 42
1.0
176
     1
 92
        8
176
     1
 66
     7
176
     1
 43
1.0
176
     1
 76
     1
176
     1
 77
     6
176
     1
 78
     2
176
     1
 67
     7
176
     1
 79
     5
176
     1
170
     0
176
     1
171
     0
176
     1
290
     0
176
     1
 93
        1
176
     1
 44
-50.0
176
     1
173
     0
176
     1
  0
VISUALSTYLE
  5
12B6
102
{ACAD_REACTORS
330
12A3
102
}
102
{ACAD_XDICTIONARY
360
12E2
102
}
330
12A3
100
AcDbVisualStyle
  2
EdgeColorOff
 70
    22
177
     2
291
     1
 71
     2
176
     0
 72
     2
176
     0
 73
     0
176
     0
 90
        0
176
     0
 40
0.6
176
     0
 41
30.0
176
     0
 62
     5
 63
     7
421
 16777215
176
     0
 74
     1
176
     0
 91
        4
176
     0
 64
     7
176
     0
 65
   257
176
     0
 75
     1
176
     0
175
     1
176
     0
 42
1.0
176
     0
 92
        8
176
     2
 66
     7
176
     0
 43
1.0
176
     0
 76
     1
176
     0
 77
     6
176
     0
 78
     2
176
     0
 67
     7
176
     0
 79
     5
176
     0
170
     0
176
     0
171
     0
176
     0
290
     0
176
     0
 93
        1
176
     0
 44
0.0
176
     0
173
     0
176
     0
  0
VISUALSTYLE
  5
12B2
102
{ACAD_REACTORS
330
12A3
102
}
102
{ACAD_XDICTIONARY
360
12DA
102
}
330
12A3
100
AcDbVisualStyle
  2
Facepattern
 70
    15
177
     2
291
     1
 71
     2
176
     1
 72
     2
176
     1
 73
     0
176
     1
 90
        0
176
     1
 40
0.6
176
     1
 41
30.0
176
     1
 62
     5
 63
     7
421
 16777215
176
     1
 74
     1
176
     1
 91
        4
176
     1
 64
     7
176
     1
 65
   257
176
     1
 75
     1
176
     1
175
     1
176
     1
 42
1.0
176
     1
 92
        8
176
     1
 66
     7
176
     1
 43
1.0
176
     1
 76
     1
176
     1
 77
     6
176
     1
 78
     2
176
     1
 67
     7
176
     1
 79
     5
176
     1
170
     0
176
     1
171
     0
176
     1
290
     0
176
     1
 93
        1
176
     1
 44
0.0
176
     1
173
     0
176
     1
  0
VISUALSTYLE
  5
12A4
102
{ACAD_REACTORS
330
12A3
102
}
102
{ACAD_XDICTIONARY
360
12BE
102
}
330
12A3
100
AcDbVisualStyle
  2
Flat
 70
     0
177
     2
291
     1
 71
     2
176
     1
 72
     1
176
     1
 73
     1
176
     1
 90
        2
176
     1
 40
0.6
176
     1
 41
30.0
176
     1
 62
     5
 63
     7
421
 16777215
176
     1
 74
     0
176
     1
 91
        0
176
     1
 64
     7
176
     1
 65
   257
176
     1
 75
     1
176
     1
175
     1
176
     1
 42
1.0
176
     1
 92
        8
176
     1
 66
     7
176
     1
 43
1.0
176
     1
 76
     1
176
     1
 77
     6
176
     1
 78
     2
176
     1
 67
     7
176
     1
 79
     5
176
     1
170
     0
176
     1
171
     0
176
     1
290
     0
176
     1
 93
       13
176
     1
 44
0.0
176
     1
173
     0
176
     1
  0
VISUALSTYLE
  5
12A5
102
{ACAD_REACTORS
330
12A3
102
}
102
{ACAD_XDICTIONARY
360
12C0
102
}
330
12A3
100
AcDbVisualStyle
  2
FlatWithEdges
 70
     1
177
     2
291
     1
 71
     2
176
     1
 72
     1
176
     1
 73
     1
176
     1
 90
        2
176
     1
 40
0.6
176
     1
 41
30.0
176
     1
 62
     5
 63
     7
421
 16777215
176
     1
 74
     1
176
     1
 91
        0
176
     1
 64
     7
176
     1
 65
   257
176
     1
 75
     1
176
     1
175
     1
176
     1
 42
1.0
176
     1
 92
        0
176
     1
 66
   257
176
     1
 43
1.0
176
     1
 76
     1
176
     1
 77
     6
176
     1
 78
     2
176
     1
 67
     7
176
     1
 79
     5
176
     1
170
     0
176
     1
171
     0
176
     1
290
     0
176
     1
 93
       13
176
     1
 44
0.0
176
     1
173
     0
176
     1
  0
VISUALSTYLE
  5
12A6
102
{ACAD_REACTORS
330
12A3
102
}
102
{ACAD_XDICTIONARY
360
12C2
102
}
330
12A3
100
AcDbVisualStyle
  2
Gouraud
 70
     2
177
     2
291
     1
 71
     2
176
     1
 72
     2
176
     1
 73
     1
176
     1
 90
        2
176
     1
 40
0.6
176
     1
 41
30.0
176
     1
 62
     5
 63
     7
421
 16777215
176
     1
 74
     0
176
     1
 91
        0
176
     1
 64
     7
176
     1
 65
   257
176
     1
 75
     1
176
     1
175
     1
176
     1
 42
1.0
176
     1
 92
        0
176
     1
 66
     7
176
     1
 43
1.0
176
     1
 76
     1
176
     1
 77
     6
176
     1
 78
     2
176
     1
 67
     7
176
     1
 79
     5
176
     1
170
     0
176
     1
171
     0
176
     1
290
     0
176
     1
 93
       13
176
     1
 44
0.0
176
     1
173
     0
176
     1
  0
VISUALSTYLE
  5
12A7
102
{ACAD_REACTORS
330
12A3
102
}
102
{ACAD_XDICTIONARY
360
12C4
102
}
330
12A3
100
AcDbVisualStyle
  2
GouraudWithEdges
 70
     3
177
     2
291
     1
 71
     2
176
     1
 72
     2
176
     1
 73
     1
176
     1
 90
        2
176
     1
 40
0.6
176
     1
 41
30.0
176
     1
 62
     5
 63
     7
421
 16777215
176
     1
 74
     1
176
     1
 91
        0
176
     1
 64
     7
176
     1
 65
   257
176
     1
 75
     1
176
     1
175
     1
176
     1
 42
1.0
176
     1
 92
        0
176
     1
 66
   257
176
     1
 43
1.0
176
     1
 76
     1
176
     1
 77
     6
176
     1
 78
     2
176
     1
 67
     7
176
     1
 79
     5
176
     1
170
     0
176
     1
171
     0
176
     1
290
     0
176
     1
 93
       13
176
     1
 44
0.0
176
     1
173
     0
176
     1
  0
VISUALSTYLE
  5
12AA
102
{ACAD_REACTORS
330
12A3
102
}
102
{ACAD_XDICTIONARY
360
12CA
102
}
330
12A3
100
AcDbVisualStyle
  2
Hidden
 70
     6
177
     2
291
     0
 71
     1
176
     1
 72
     2
176
     1
 73
     2
176
     1
 90
        0
176
     1
 40
0.6
176
     1
 41
30.0
176
     1
 62
     5
 63
     7
421
 16777215
176
     1
 74
     2
176
     1
 91
        2
176
     1
 64
     7
176
     1
 65
   257
176
     1
 75
     2
176
     1
175
     1
176
     1
 42
40.0
176
     1
 92
        0
176
     1
 66
   257
176
     1
 43
1.0
176
     1
 76
     1
176
     1
 77
     6
176
     1
 78
     2
176
     1
 67
     7
176
     1
 79
     3
176
     1
170
     0
176
     1
171
     0
176
     1
290
     0
176
     1
 93
        1
176
     1
 44
0.0
176
     1
173
     0
176
     1
  0
VISUALSTYLE
  5
12B4
102
{ACAD_REACTORS
330
12A3
102
}
102
{ACAD_XDICTIONARY
360
12DE
102
}
330
12A3
100
AcDbVisualStyle
  2
JitterOff
 70
    20
177
     2
291
     1
 71
     2
176
     0
 72
     2
176
     0
 73
     0
176
     0
 90
        0
176
     0
 40
0.6
176
     0
 41
30.0
176
     0
 62
     5
 63
     7
421
 16777215
176
     0
 74
     1
176
     0
 91
        4
176
     0
 64
     7
176
     0
 65
   257
176
     0
 75
     1
176
     0
175
     1
176
     0
 42
1.0
176
     0
 92
       10
176
     2
 66
     7
176
     0
 43
1.0
176
     0
 76
     1
176
     0
 77
     6
176
     0
 78
     2
176
     0
 67
     7
176
     0
 79
     5
176
     0
170
     0
176
     0
171
     0
176
     0
290
     0
176
     0
 93
        1
176
     0
 44
0.0
176
     0
173
     0
176
     0
  0
VISUALSTYLE
  5
12B1
102
{ACAD_REACTORS
330
12A3
102
}
102
{ACAD_XDICTIONARY
360
12D8
102
}
330
12A3
100
AcDbVisualStyle
  2
Linepattern
 70
    14
177
     2
291
     1
 71
     2
176
     1
 72
     2
176
     1
 73
     0
176
     1
 90
        0
176
     1
 40
0.6
176
     1
 41
30.0
176
     1
 62
     5
 63
     7
421
 16777215
176
     1
 74
     1
176
     1
 91
        4
176
     1
 64
     7
176
     1
 65
   257
176
     1
 75
     7
176
     1
175
     7
176
     1
 42
1.0
176
     1
 92
        8
176
     1
 66
     7
176
     1
 43
1.0
176
     1
 76
     1
176
     1
 77
     6
176
     1
 78
     2
176
     1
 67
     7
176
     1
 79
     5
176
     1
170
     0
176
     1
171
     0
176
     1
290
     0
176
     1
 93
        1
176
     1
 44
0.0
176
     1
173
     0
176
     1
  0
VISUALSTYLE
  5
12B5
102
{ACAD_REACTORS
330
12A3
102
}
102
{ACAD_XDICTIONARY
360
12E0
102
}
330
12A3
100
AcDbVisualStyle
  2
OverhangOff
 70
    21
177
     2
291
     1
 71
     2
176
     0
 72
     2
176
     0
 73
     0
176
     0
 90
        0
176
     0
 40
0.6
176
     0
 41
30.0
176
     0
 62
     5
 63
     7
421
 16777215
176
     0
 74
     1
176
     0
 91
        4
176
     0
 64
     7
176
     0
 65
   257
176
     0
 75
     1
176
     0
175
     1
176
     0
 42
1.0
176
     0
 92
        9
176
     2
 66
     7
176
     0
 43
1.0
176
     0
 76
     1
176
     0
 77
     6
176
     0
 78
     2
176
     0
 67
     7
176
     0
 79
     5
176
     0
170
     0
176
     0
171
     0
176
     0
290
     0
176
     0
 93
        1
176
     0
 44
0.0
176
     0
173
     0
176
     0
  0
VISUALSTYLE
  5
12AC
102
{ACAD_REACTORS
330
12A3
102
}
102
{ACAD_XDICTIONARY
360
12CE
102
}
330
12A3
100
AcDbVisualStyle
  2
Realistic
 70
     8
177
     2
291
     0
 71
     2
176
     1
 72
     3
176
     1
 73
     0
176
     1
 90
        2
176
     1
 40
0.6
176
     1
 41
30.0
176
     1
 62
     5
 63
     7
421
 16777215
176
     1
 74
     0
176
     1
 91
        0
176
     1
 64
     7
176
     1
 65
   257
176
     1
 75
     1
176
     1
175
     1
176
     1
 42
1.0
176
     1
 92
        8
176
     1
 66
   257
176
     1
 43
1.0
176
     1
 76
     1
176
     1
 77
     6
176
     1
 78
     2
176
     1
 67
     7
176
     1
 79
     3
176
     1
170
     0
176
     1
171
     0
176
     1
290
     0
176
     1
 93
       13
176
     1
 44
0.0
176
     1
173
     0
176
     1
  0
VISUALSTYLE
  5
12BB
102
{ACAD_REACTORS
330
12A3
102
}
102
{ACAD_XDICTIONARY
360
12EC
102
}
330
12A3
100
AcDbVisualStyle
  2
Shaded
 70
    27
177
     2
291
     0
 71
     2
176
     1
 72
     2
176
     1
 73
     1
176
     1
 90
        2
176
     1
 40
0.6
176
     1
 41
30.0
176
     1
 62
     5
 63
     7
421
 16777215
176
     1
 74
     0
176
     1
 91
        4
176
     1
 64
     7
176
     1
 65
   257
176
     1
 75
     1
176
     1
175
     1
176
     1
 42
1.0
176
     1
 92
        8
176
     1
 66
   257
176
     1
 43
1.0
176
     1
 76
     1
176
     1
 77
     6
176
     1
 78
     2
176
     1
 67
     8
425
  7895160
176
     1
 79
     3
176
     1
170
     0
176
     1
171
     0
176
     1
290
     0
176
     1
 93
        5
176
     1
 44
0.0
176
     1
173
     0
176
     1
  0
VISUALSTYLE
  5
12BA
102
{ACAD_REACTORS
330
12A3
102
}
102
{ACAD_XDICTIONARY
360
12EA
102
}
330
12A3
100
AcDbVisualStyle
  2
Shaded with edges
 70
    26
177
     2
291
     0
 71
     2
176
     1
 72
     2
176
     1
 73
     1
176
     1
 90
        2
176
     1
 40
0.6
176
     1
 41
30.0
176
     1
 62
     5
 63
     7
421
 16777215
176
     1
 74
     1
176
     1
 91
       10
176
     1
 64
     7
176
     1
 65
   257
176
     1
 75
     2
176
     1
175
     1
176
     1
 42
1.0
176
     1
 92
        8
176
     1
 66
   257
176
     1
 43
1.0
176
     1
 76
     1
176
     1
 77
     6
176
     1
 78
     2
176
     1
 67
     7
176
     1
 79
     3
176
     1
170
     0
176
     1
171
     0
176
     1
290
     0
176
     1
 93
        5
176
     1
 44
0.0
176
     1
173
     0
176
     1
  0
VISUALSTYLE
  5
12B7
102
{ACAD_REACTORS
330
12A3
102
}
102
{ACAD_XDICTIONARY
360
12E4
102
}
330
12A3
100
AcDbVisualStyle
  2
Shades of Gray
 70
    23
177
     2
291
     0
 71
     2
176
     1
 72
     2
176
     1
 73
     3
176
     1
 90
        0
176
     1
 40
0.6
176
     1
 41
30.0
176
     1
 62
     5
 63
     7
421
 16777215
176
     1
 74
     2
176
     1
 91
        2
176
     1
 64
     7
176
     1
 65
     7
176
     1
 75
     1
176
     1
175
     1
176
     1
 42
40.0
176
     1
 92
        8
176
     1
 66
     7
176
     1
 43
1.0
176
     1
 76
     1
176
     1
 77
     6
176
     1
 78
     2
176
     1
 67
     7
176
     1
 79
     3
176
     1
170
     0
176
     1
171
     0
176
     1
290
     0
176
     1
 93
        1
176
     1
 44
0.0
176
     1
173
     0
176
     1
  0
VISUALSTYLE
  5
12B8
102
{ACAD_REACTORS
330
12A3
102
}
102
{ACAD_XDICTIONARY
360
12E6
102
}
330
12A3
100
AcDbVisualStyle
  2
Sketchy
 70
    24
177
     2
291
     0
 71
     1
176
     1
 72
     2
176
     1
 73
     2
176
     1
 90
        0
176
     1
 40
0.6
176
     1
 41
30.0
176
     1
 62
     5
 63
     7
421
 16777215
176
     1
 74
     2
176
     1
 91
        2
176
     1
 64
     7
176
     1
 65
     7
176
     1
 75
     1
176
     1
175
     1
176
     1
 42
40.0
176
     1
 92
       11
176
     1
 66
     7
176
     1
 43
1.0
176
     1
 76
     1
176
     1
 77
     6
176
     1
 78
     2
176
     1
 67
     7
176
     1
 79
     6
176
     1
170
     0
176
     1
171
     0
176
     1
290
     0
176
     1
 93
        1
176
     1
 44
0.0
176
     1
173
     0
176
     1
  0
VISUALSTYLE
  5
12B0
102
{ACAD_REACTORS
330
12A3
102
}
102
{ACAD_XDICTIONARY
360
12D6
102
}
330
12A3
100
AcDbVisualStyle
  2
Thicken
 70
    13
177
     2
291
     1
 71
     2
176
     1
 72
     2
176
     1
 73
     0
176
     1
 90
        0
176
     1
 40
0.6
176
     1
 41
30.0
176
     1
 62
     5
 63
     7
421
 16777215
176
     1
 74
     1
176
     1
 91
        4
176
     1
 64
     7
176
     1
 65
   257
176
     1
 75
     1
176
     1
175
     1
176
     1
 42
1.0
176
     1
 92
       12
176
     1
 66
     7
176
     1
 43
1.0
176
     1
 76
     1
176
     1
 77
     6
176
     1
 78
     2
176
     1
 67
     7
176
     1
 79
     5
176
     1
170
     0
176
     1
171
     0
176
     1
290
     0
176
     1
 93
        1
176
     1
 44
0.0
176
     1
173
     0
176
     1
  0
VISUALSTYLE
  5
12A9
102
{ACAD_REACTORS
330
12A3
102
}
102
{ACAD_XDICTIONARY
360
12C8
102
}
330
12A3
100
AcDbVisualStyle
  2
Wireframe
 70
     5
177
     2
291
     0
 71
     0
176
     1
 72
     2
176
     1
 73
     0
176
     1
 90
        0
176
     1
 40
0.6
176
     1
 41
30.0
176
     1
 62
     5
 63
     7
421
 16777215
176
     1
 74
     1
176
     1
 91
        4
176
     1
 64
     7
176
     1
 65
   257
176
     1
 75
     1
176
     1
175
     1
176
     1
 42
1.0
176
     1
 92
        0
176
     1
 66
   257
176
     1
 43
1.0
176
     1
 76
     1
176
     1
 77
     6
176
     1
 78
     2
176
     1
 67
     7
176
     1
 79
     3
176
     1
170
     0
176
     1
171
     0
176
     1
290
     0
176
     1
 93
        1
176
     1
 44
0.0
176
     1
173
     0
176
     1
  0
VISUALSTYLE
  5
12B9
102
{ACAD_REACTORS
330
12A3
102
}
102
{ACAD_XDICTIONARY
360
12E8
102
}
330
12A3
100
AcDbVisualStyle
  2
X-Ray
 70
    25
177
     2
291
     0
 71
     2
176
     1
 72
     2
176
     1
 73
     1
176
     1
 90
        1
176
     1
 40
0.5
176
     1
 41
30.0
176
     1
 62
     5
 63
     7
421
 16777215
176
     1
 74
     1
176
     1
 91
        0
176
     1
 64
     7
176
     1
 65
   257
176
     1
 75
     1
176
     1
175
     1
176
     1
 42
1.0
176
     1
 92
        8
176
     1
 66
     7
176
     1
 43
1.0
176
     1
 76
     1
176
     1
 77
     6
176
     1
 78
     2
176
     1
 67
     7
176
     1
 79
     3
176
     1
170
     0
176
     1
171
     0
176
     1
290
     0
176
     1
 93
       13
176
     1
 44
0.0
176
     1
173
     0
176
     1
  0
DICTIONARYVAR
  5
12BD
102
{ACAD_REACTORS
330
12BC
102
}
330
12BC
100
DictionaryVariables
280
     0
  1
1:1
  0
DICTIONARYVAR
  5
12F0
102
{ACAD_REACTORS
330
12BC
102
}
330
12BC
100
DictionaryVariables
280
     0
  1
0
  0
DICTIONARY
  5
12C6
330
12A8
100
AcDbDictionary
280
     1
281
     1
  3
ACAD_XREC_ROUNDTRIP
360
12C7
  0
DICTIONARY
  5
12CC
330
12AB
100
AcDbDictionary
280
     1
281
     1
  3
ACAD_XREC_ROUNDTRIP
360
12CD
  0
DICTIONARY
  5
12D4
330
12AF
100
AcDbDictionary
280
     1
281
     1
  3
ACAD_XREC_ROUNDTRIP
360
12D5
  0
DICTIONARY
  5
12DC
330
12B3
100
AcDbDictionary
280
     1
281
     1
  3
ACAD_XREC_ROUNDTRIP
360
12DD
  0
DICTIONARY
  5
12D0
330
12AD
100
AcDbDictionary
280
     1
281
     1
  3
ACAD_XREC_ROUNDTRIP
360
12D1
  0
DICTIONARY
  5
12D2
330
12AE
100
AcDbDictionary
280
     1
281
     1
  3
ACAD_XREC_ROUNDTRIP
360
12D3
  0
DICTIONARY
  5
12E2
330
12B6
100
AcDbDictionary
280
     1
281
     1
  3
ACAD_XREC_ROUNDTRIP
360
12E3
  0
DICTIONARY
  5
12DA
330
12B2
100
AcDbDictionary
280
     1
281
     1
  3
ACAD_XREC_ROUNDTRIP
360
12DB
  0
DICTIONARY
  5
12BE
330
12A4
100
AcDbDictionary
280
     1
281
     1
  3
ACAD_XREC_ROUNDTRIP
360
12BF
  0
DICTIONARY
  5
12C0
330
12A5
100
AcDbDictionary
280
     1
281
     1
  3
ACAD_XREC_ROUNDTRIP
360
12C1
  0
DICTIONARY
  5
12C2
330
12A6
100
AcDbDictionary
280
     1
281
     1
  3
ACAD_XREC_ROUNDTRIP
360
12C3
  0
DICTIONARY
  5
12C4
330
12A7
100
AcDbDictionary
280
     1
281
     1
  3
ACAD_XREC_ROUNDTRIP
360
12C5
  0
DICTIONARY
  5
12CA
330
12AA
100
AcDbDictionary
280
     1
281
     1
  3
ACAD_XREC_ROUNDTRIP
360
12CB
  0
DICTIONARY
  5
12DE
330
12B4
100
AcDbDictionary
280
     1
281
     1
  3
ACAD_XREC_ROUNDTRIP
360
12DF
  0
DICTIONARY
  5
12D8
330
12B1
100
AcDbDictionary
280
     1
281
     1
  3
ACAD_XREC_ROUNDTRIP
360
12D9
  0
DICTIONARY
  5
12E0
330
12B5
100
AcDbDictionary
280
     1
281
     1
  3
ACAD_XREC_ROUNDTRIP
360
12E1
  0
DICTIONARY
  5
12CE
330
12AC
100
AcDbDictionary
280
     1
281
     1
  3
ACAD_XREC_ROUNDTRIP
360
12CF
  0
DICTIONARY
  5
12EC
330
12BB
100
AcDbDictionary
280
     1
281
     1
  3
ACAD_XREC_ROUNDTRIP
360
12ED
  0
DICTIONARY
  5
12EA
330
12BA
100
AcDbDictionary
280
     1
281
     1
  3
ACAD_XREC_ROUNDTRIP
360
12EB
  0
DICTIONARY
  5
12E4
330
12B7
100
AcDbDictionary
280
     1
281
     1
  3
ACAD_XREC_ROUNDTRIP
360
12E5
  0
DICTIONARY
  5
12E6
330
12B8
100
AcDbDictionary
280
     1
281
     1
  3
ACAD_XREC_ROUNDTRIP
360
12E7
  0
DICTIONARY
  5
12D6
330
12B0
100
AcDbDictionary
280
     1
281
     1
  3
ACAD_XREC_ROUNDTRIP
360
12D7
  0
DICTIONARY
  5
12C8
330
12A9
100
AcDbDictionary
280
     1
281
     1
  3
ACAD_XREC_ROUNDTRIP
360
12C9
  0
DICTIONARY
  5
12E8
330
12B9
100
AcDbDictionary
280
     1
281
     1
  3
ACAD_XREC_ROUNDTRIP
360
12E9
  0
XRECORD
  5
12C7
102
{ACAD_REACTORS
330
12C6
102
}
330
12C6
100
AcDbXrecord
280
     1
102
RTVSPost2010Prop28
280
     1
102
RTVSPost2010PropOp28
 70
     1
102
RTVSPost2010Prop29
280
     1
102
RTVSPost2010PropOp29
 70
     1
102
RTVSPost2010Prop30
280
     0
102
RTVSPost2010PropOp30
 70
     1
102
RTVSPost2010Prop31
280
     0
102
RTVSPost2010PropOp31
 70
     1
102
RTVSPost2010Prop32
280
     0
102
RTVSPost2010PropOp32
 70
     1
102
RTVSPost2010Prop33
280
     0
102
RTVSPost2010PropOp33
 70
     1
102
RTVSPost2010Prop34
280
     0
102
RTVSPost2010PropOp34
 70
     1
102
RTVSPost2010Prop35
280
     0
102
RTVSPost2010PropOp35
 70
     1
102
RTVSPost2010Prop36
280
     0
102
RTVSPost2010PropOp36
 70
     1
102
RTVSPost2010Prop37
 90
       50
102
RTVSPost2010PropOp37
 70
     1
102
RTVSPost2010Prop38
140
0.0
102
RTVSPost2010PropOp38
 70
     1
102
RTVSPost2010Prop39
140
1.0
102
RTVSPost2010PropOp39
 70
     1
102
RTVSPost2010Prop40
 90
        0
102
RTVSPost2010PropOp40
 70
     1
102
RTVSPost2010Prop41ColorIndex
 90
       18
102
RTVSPost2010Prop41ColorRGB
 90
        0
102
RTVSPost2010PropOp41
 70
     1
102
RTVSPost2010Prop42
 90
       50
102
RTVSPost2010PropOp42
 70
     1
102
RTVSPost2010Prop43
 90
        3
102
RTVSPost2010PropOp43
 70
     1
102
RTVSPost2010Prop44ColorIndex
 90
        5
102
RTVSPost2010Prop44ColorRGB
 90
      255
102
RTVSPost2010PropOp44
 70
     1
102
RTVSPost2010Prop45
280
     0
102
RTVSPost2010PropOp45
 70
     1
102
RTVSPost2010Prop46
 90
       50
102
RTVSPost2010PropOp46
 70
     1
102
RTVSPost2010Prop47
 90
       50
102
RTVSPost2010PropOp47
 70
     1
102
RTVSPost2010Prop48
 90
       50
102
RTVSPost2010PropOp48
 70
     1
102
RTVSPost2010Prop49
280
     0
102
RTVSPost2010PropOp49
 70
     1
102
RTVSPost2010Prop50
 90
       50
102
RTVSPost2010PropOp50
 70
     1
102
RTVSPost2010Prop51ColorIndex
 90
      256
102
RTVSPost2010Prop51ColorRGB
 90
-16777216
102
RTVSPost2010PropOp51
 70
     0
102
RTVSPost2010Prop52
140
1.0
102
RTVSPost2010PropOp52
 70
     0
102
RTVSPost2010Prop53
 90
        2
102
RTVSPost2010PropOp53
 70
     1
102
RTVSPost2010Prop54
  1
strokes_ogs.tif
102
RTVSPost2010PropOp54
 70
     1
102
RTVSPost2010Prop55
280
     0
102
RTVSPost2010PropOp55
 70
     1
102
RTVSPost2010Prop56
140
1.0
102
RTVSPost2010PropOp56
 70
     1
102
RTVSPost2010Prop57
140
1.0
102
RTVSPost2010PropOp57
 70
     1
  0
XRECORD
  5
12CD
102
{ACAD_REACTORS
330
12CC
102
}
330
12CC
100
AcDbXrecord
280
     1
102
RTVSPost2010Prop28
280
     0
102
RTVSPost2010PropOp28
 70
     1
102
RTVSPost2010Prop29
280
     1
102
RTVSPost2010PropOp29
 70
     1
102
RTVSPost2010Prop30
280
     1
102
RTVSPost2010PropOp30
 70
     1
102
RTVSPost2010Prop31
280
     0
102
RTVSPost2010PropOp31
 70
     1
102
RTVSPost2010Prop32
280
     0
102
RTVSPost2010PropOp32
 70
     1
102
RTVSPost2010Prop33
280
     0
102
RTVSPost2010PropOp33
 70
     1
102
RTVSPost2010Prop34
280
     0
102
RTVSPost2010PropOp34
 70
     1
102
RTVSPost2010Prop35
280
     0
102
RTVSPost2010PropOp35
 70
     1
102
RTVSPost2010Prop36
280
     0
102
RTVSPost2010PropOp36
 70
     1
102
RTVSPost2010Prop37
 90
       50
102
RTVSPost2010PropOp37
 70
     1
102
RTVSPost2010Prop38
140
0.0
102
RTVSPost2010PropOp38
 70
     1
102
RTVSPost2010Prop39
140
1.0
102
RTVSPost2010PropOp39
 70
     1
102
RTVSPost2010Prop40
 90
        0
102
RTVSPost2010PropOp40
 70
     1
102
RTVSPost2010Prop41ColorIndex
 90
       18
102
RTVSPost2010Prop41ColorRGB
 90
        0
102
RTVSPost2010PropOp41
 70
     1
102
RTVSPost2010Prop42
 90
       50
102
RTVSPost2010PropOp42
 70
     1
102
RTVSPost2010Prop43
 90
        3
102
RTVSPost2010PropOp43
 70
     1
102
RTVSPost2010Prop44ColorIndex
 90
        5
102
RTVSPost2010Prop44ColorRGB
 90
      255
102
RTVSPost2010PropOp44
 70
     1
102
RTVSPost2010Prop45
280
     0
102
RTVSPost2010PropOp45
 70
     1
102
RTVSPost2010Prop46
 90
       50
102
RTVSPost2010PropOp46
 70
     1
102
RTVSPost2010Prop47
 90
       50
102
RTVSPost2010PropOp47
 70
     1
102
RTVSPost2010Prop48
 90
       50
102
RTVSPost2010PropOp48
 70
     1
102
RTVSPost2010Prop49
280
     0
102
RTVSPost2010PropOp49
 70
     1
102
RTVSPost2010Prop50
 90
       50
102
RTVSPost2010PropOp50
 70
     1
102
RTVSPost2010Prop51ColorIndex
 90
      256
102
RTVSPost2010Prop51ColorRGB
 90
-16777216
102
RTVSPost2010PropOp51
 70
     0
102
RTVSPost2010Prop52
140
1.0
102
RTVSPost2010PropOp52
 70
     0
102
RTVSPost2010Prop53
 90
        2
102
RTVSPost2010PropOp53
 70
     1
102
RTVSPost2010Prop54
  1
strokes_ogs.tif
102
RTVSPost2010PropOp54
 70
     1
102
RTVSPost2010Prop55
280
     0
102
RTVSPost2010PropOp55
 70
     1
102
RTVSPost2010Prop56
140
1.0
102
RTVSPost2010PropOp56
 70
     1
102
RTVSPost2010Prop57
140
1.0
102
RTVSPost2010PropOp57
 70
     1
  0
XRECORD
  5
12D5
102
{ACAD_REACTORS
330
12D4
102
}
330
12D4
100
AcDbXrecord
280
     1
102
RTVSPost2010Prop28
280
     0
102
RTVSPost2010PropOp28
 70
     1
102
RTVSPost2010Prop29
280
     1
102
RTVSPost2010PropOp29
 70
     1
102
RTVSPost2010Prop30
280
     1
102
RTVSPost2010PropOp30
 70
     1
102
RTVSPost2010Prop31
280
     0
102
RTVSPost2010PropOp31
 70
     1
102
RTVSPost2010Prop32
280
     0
102
RTVSPost2010PropOp32
 70
     1
102
RTVSPost2010Prop33
280
     0
102
RTVSPost2010PropOp33
 70
     1
102
RTVSPost2010Prop34
280
     0
102
RTVSPost2010PropOp34
 70
     1
102
RTVSPost2010Prop35
280
     0
102
RTVSPost2010PropOp35
 70
     1
102
RTVSPost2010Prop36
280
     0
102
RTVSPost2010PropOp36
 70
     1
102
RTVSPost2010Prop37
 90
       50
102
RTVSPost2010PropOp37
 70
     1
102
RTVSPost2010Prop38
140
0.0
102
RTVSPost2010PropOp38
 70
     1
102
RTVSPost2010Prop39
140
1.0
102
RTVSPost2010PropOp39
 70
     1
102
RTVSPost2010Prop40
 90
        0
102
RTVSPost2010PropOp40
 70
     1
102
RTVSPost2010Prop41ColorIndex
 90
       18
102
RTVSPost2010Prop41ColorRGB
 90
        0
102
RTVSPost2010PropOp41
 70
     1
102
RTVSPost2010Prop42
 90
       50
102
RTVSPost2010PropOp42
 70
     1
102
RTVSPost2010Prop43
 90
        3
102
RTVSPost2010PropOp43
 70
     1
102
RTVSPost2010Prop44ColorIndex
 90
        5
102
RTVSPost2010Prop44ColorRGB
 90
      255
102
RTVSPost2010PropOp44
 70
     1
102
RTVSPost2010Prop45
280
     0
102
RTVSPost2010PropOp45
 70
     1
102
RTVSPost2010Prop46
 90
       50
102
RTVSPost2010PropOp46
 70
     1
102
RTVSPost2010Prop47
 90
       50
102
RTVSPost2010PropOp47
 70
     1
102
RTVSPost2010Prop48
 90
       50
102
RTVSPost2010PropOp48
 70
     1
102
RTVSPost2010Prop49
280
     0
102
RTVSPost2010PropOp49
 70
     1
102
RTVSPost2010Prop50
 90
       50
102
RTVSPost2010PropOp50
 70
     1
102
RTVSPost2010Prop51ColorIndex
 90
      256
102
RTVSPost2010Prop51ColorRGB
 90
-16777216
102
RTVSPost2010PropOp51
 70
     0
102
RTVSPost2010Prop52
140
1.0
102
RTVSPost2010PropOp52
 70
     0
102
RTVSPost2010Prop53
 90
        2
102
RTVSPost2010PropOp53
 70
     1
102
RTVSPost2010Prop54
  1
strokes_ogs.tif
102
RTVSPost2010PropOp54
 70
     1
102
RTVSPost2010Prop55
280
     0
102
RTVSPost2010PropOp55
 70
     1
102
RTVSPost2010Prop56
140
1.0
102
RTVSPost2010PropOp56
 70
     1
102
RTVSPost2010Prop57
140
1.0
102
RTVSPost2010PropOp57
 70
     1
  0
XRECORD
  5
12DD
102
{ACAD_REACTORS
330
12DC
102
}
330
12DC
100
AcDbXrecord
280
     1
102
RTVSPost2010Prop28
280
     0
102
RTVSPost2010PropOp28
 70
     1
102
RTVSPost2010Prop29
280
     1
102
RTVSPost2010PropOp29
 70
     1
102
RTVSPost2010Prop30
280
     1
102
RTVSPost2010PropOp30
 70
     1
102
RTVSPost2010Prop31
280
     0
102
RTVSPost2010PropOp31
 70
     1
102
RTVSPost2010Prop32
280
     0
102
RTVSPost2010PropOp32
 70
     1
102
RTVSPost2010Prop33
280
     0
102
RTVSPost2010PropOp33
 70
     1
102
RTVSPost2010Prop34
280
     0
102
RTVSPost2010PropOp34
 70
     1
102
RTVSPost2010Prop35
280
     0
102
RTVSPost2010PropOp35
 70
     1
102
RTVSPost2010Prop36
280
     0
102
RTVSPost2010PropOp36
 70
     1
102
RTVSPost2010Prop37
 90
       50
102
RTVSPost2010PropOp37
 70
     1
102
RTVSPost2010Prop38
140
0.0
102
RTVSPost2010PropOp38
 70
     1
102
RTVSPost2010Prop39
140
1.0
102
RTVSPost2010PropOp39
 70
     1
102
RTVSPost2010Prop40
 90
        0
102
RTVSPost2010PropOp40
 70
     1
102
RTVSPost2010Prop41ColorIndex
 90
       18
102
RTVSPost2010Prop41ColorRGB
 90
        0
102
RTVSPost2010PropOp41
 70
     1
102
RTVSPost2010Prop42
 90
       50
102
RTVSPost2010PropOp42
 70
     1
102
RTVSPost2010Prop43
 90
        3
102
RTVSPost2010PropOp43
 70
     1
102
RTVSPost2010Prop44ColorIndex
 90
        5
102
RTVSPost2010Prop44ColorRGB
 90
      255
102
RTVSPost2010PropOp44
 70
     1
102
RTVSPost2010Prop45
280
     0
102
RTVSPost2010PropOp45
 70
     1
102
RTVSPost2010Prop46
 90
       50
102
RTVSPost2010PropOp46
 70
     1
102
RTVSPost2010Prop47
 90
       50
102
RTVSPost2010PropOp47
 70
     1
102
RTVSPost2010Prop48
 90
       50
102
RTVSPost2010PropOp48
 70
     1
102
RTVSPost2010Prop49
280
     0
102
RTVSPost2010PropOp49
 70
     1
102
RTVSPost2010Prop50
 90
       50
102
RTVSPost2010PropOp50
 70
     1
102
RTVSPost2010Prop51ColorIndex
 90
      256
102
RTVSPost2010Prop51ColorRGB
 90
-16777216
102
RTVSPost2010PropOp51
 70
     0
102
RTVSPost2010Prop52
140
1.0
102
RTVSPost2010PropOp52
 70
     0
102
RTVSPost2010Prop53
 90
        2
102
RTVSPost2010PropOp53
 70
     1
102
RTVSPost2010Prop54
  1
strokes_ogs.tif
102
RTVSPost2010PropOp54
 70
     1
102
RTVSPost2010Prop55
280
     0
102
RTVSPost2010PropOp55
 70
     1
102
RTVSPost2010Prop56
140
1.0
102
RTVSPost2010PropOp56
 70
     1
102
RTVSPost2010Prop57
140
1.0
102
RTVSPost2010PropOp57
 70
     1
  0
XRECORD
  5
12D1
102
{ACAD_REACTORS
330
12D0
102
}
330
12D0
100
AcDbXrecord
280
     1
102
RTVSPost2010Prop28
280
     0
102
RTVSPost2010PropOp28
 70
     1
102
RTVSPost2010Prop29
280
     1
102
RTVSPost2010PropOp29
 70
     1
102
RTVSPost2010Prop30
280
     1
102
RTVSPost2010PropOp30
 70
     1
102
RTVSPost2010Prop31
280
     0
102
RTVSPost2010PropOp31
 70
     1
102
RTVSPost2010Prop32
280
     0
102
RTVSPost2010PropOp32
 70
     1
102
RTVSPost2010Prop33
280
     0
102
RTVSPost2010PropOp33
 70
     1
102
RTVSPost2010Prop34
280
     0
102
RTVSPost2010PropOp34
 70
     1
102
RTVSPost2010Prop35
280
     0
102
RTVSPost2010PropOp35
 70
     1
102
RTVSPost2010Prop36
280
     0
102
RTVSPost2010PropOp36
 70
     1
102
RTVSPost2010Prop37
 90
       50
102
RTVSPost2010PropOp37
 70
     1
102
RTVSPost2010Prop38
140
0.0
102
RTVSPost2010PropOp38
 70
     1
102
RTVSPost2010Prop39
140
1.0
102
RTVSPost2010PropOp39
 70
     1
102
RTVSPost2010Prop40
 90
        0
102
RTVSPost2010PropOp40
 70
     1
102
RTVSPost2010Prop41ColorIndex
 90
       18
102
RTVSPost2010Prop41ColorRGB
 90
        0
102
RTVSPost2010PropOp41
 70
     1
102
RTVSPost2010Prop42
 90
       50
102
RTVSPost2010PropOp42
 70
     1
102
RTVSPost2010Prop43
 90
        3
102
RTVSPost2010PropOp43
 70
     1
102
RTVSPost2010Prop44ColorIndex
 90
        5
102
RTVSPost2010Prop44ColorRGB
 90
      255
102
RTVSPost2010PropOp44
 70
     1
102
RTVSPost2010Prop45
280
     0
102
RTVSPost2010PropOp45
 70
     1
102
RTVSPost2010Prop46
 90
       50
102
RTVSPost2010PropOp46
 70
     1
102
RTVSPost2010Prop47
 90
       50
102
RTVSPost2010PropOp47
 70
     1
102
RTVSPost2010Prop48
 90
       50
102
RTVSPost2010PropOp48
 70
     1
102
RTVSPost2010Prop49
280
     0
102
RTVSPost2010PropOp49
 70
     1
102
RTVSPost2010Prop50
 90
       50
102
RTVSPost2010PropOp50
 70
     1
102
RTVSPost2010Prop51ColorIndex
 90
      256
102
RTVSPost2010Prop51ColorRGB
 90
-16777216
102
RTVSPost2010PropOp51
 70
     0
102
RTVSPost2010Prop52
140
1.0
102
RTVSPost2010PropOp52
 70
     0
102
RTVSPost2010Prop53
 90
        2
102
RTVSPost2010PropOp53
 70
     1
102
RTVSPost2010Prop54
  1
strokes_ogs.tif
102
RTVSPost2010PropOp54
 70
     1
102
RTVSPost2010Prop55
280
     0
102
RTVSPost2010PropOp55
 70
     1
102
RTVSPost2010Prop56
140
1.0
102
RTVSPost2010PropOp56
 70
     1
102
RTVSPost2010Prop57
140
1.0
102
RTVSPost2010PropOp57
 70
     1
  0
XRECORD
  5
12D3
102
{ACAD_REACTORS
330
12D2
102
}
330
12D2
100
AcDbXrecord
280
     1
102
RTVSPost2010Prop28
280
     0
102
RTVSPost2010PropOp28
 70
     1
102
RTVSPost2010Prop29
280
     1
102
RTVSPost2010PropOp29
 70
     1
102
RTVSPost2010Prop30
280
     1
102
RTVSPost2010PropOp30
 70
     1
102
RTVSPost2010Prop31
280
     0
102
RTVSPost2010PropOp31
 70
     1
102
RTVSPost2010Prop32
280
     0
102
RTVSPost2010PropOp32
 70
     1
102
RTVSPost2010Prop33
280
     0
102
RTVSPost2010PropOp33
 70
     1
102
RTVSPost2010Prop34
280
     0
102
RTVSPost2010PropOp34
 70
     1
102
RTVSPost2010Prop35
280
     0
102
RTVSPost2010PropOp35
 70
     1
102
RTVSPost2010Prop36
280
     0
102
RTVSPost2010PropOp36
 70
     1
102
RTVSPost2010Prop37
 90
       50
102
RTVSPost2010PropOp37
 70
     1
102
RTVSPost2010Prop38
140
0.0
102
RTVSPost2010PropOp38
 70
     1
102
RTVSPost2010Prop39
140
1.0
102
RTVSPost2010PropOp39
 70
     1
102
RTVSPost2010Prop40
 90
        0
102
RTVSPost2010PropOp40
 70
     1
102
RTVSPost2010Prop41ColorIndex
 90
       18
102
RTVSPost2010Prop41ColorRGB
 90
        0
102
RTVSPost2010PropOp41
 70
     1
102
RTVSPost2010Prop42
 90
       50
102
RTVSPost2010PropOp42
 70
     1
102
RTVSPost2010Prop43
 90
        3
102
RTVSPost2010PropOp43
 70
     1
102
RTVSPost2010Prop44ColorIndex
 90
        5
102
RTVSPost2010Prop44ColorRGB
 90
      255
102
RTVSPost2010PropOp44
 70
     1
102
RTVSPost2010Prop45
280
     0
102
RTVSPost2010PropOp45
 70
     1
102
RTVSPost2010Prop46
 90
       50
102
RTVSPost2010PropOp46
 70
     1
102
RTVSPost2010Prop47
 90
       50
102
RTVSPost2010PropOp47
 70
     1
102
RTVSPost2010Prop48
 90
       50
102
RTVSPost2010PropOp48
 70
     1
102
RTVSPost2010Prop49
280
     0
102
RTVSPost2010PropOp49
 70
     1
102
RTVSPost2010Prop50
 90
       50
102
RTVSPost2010PropOp50
 70
     1
102
RTVSPost2010Prop51ColorIndex
 90
      256
102
RTVSPost2010Prop51ColorRGB
 90
-16777216
102
RTVSPost2010PropOp51
 70
     0
102
RTVSPost2010Prop52
140
1.0
102
RTVSPost2010PropOp52
 70
     0
102
RTVSPost2010Prop53
 90
        2
102
RTVSPost2010PropOp53
 70
     1
102
RTVSPost2010Prop54
  1
strokes_ogs.tif
102
RTVSPost2010PropOp54
 70
     1
102
RTVSPost2010Prop55
280
     0
102
RTVSPost2010PropOp55
 70
     1
102
RTVSPost2010Prop56
140
1.0
102
RTVSPost2010PropOp56
 70
     1
102
RTVSPost2010Prop57
140
1.0
102
RTVSPost2010PropOp57
 70
     1
  0
XRECORD
  5
12E3
102
{ACAD_REACTORS
330
12E2
102
}
330
12E2
100
AcDbXrecord
280
     1
102
RTVSPost2010Prop28
280
     0
102
RTVSPost2010PropOp28
 70
     0
102
RTVSPost2010Prop29
280
     1
102
RTVSPost2010PropOp29
 70
     0
102
RTVSPost2010Prop30
280
     1
102
RTVSPost2010PropOp30
 70
     0
102
RTVSPost2010Prop31
280
     0
102
RTVSPost2010PropOp31
 70
     0
102
RTVSPost2010Prop32
280
     0
102
RTVSPost2010PropOp32
 70
     0
102
RTVSPost2010Prop33
280
     0
102
RTVSPost2010PropOp33
 70
     0
102
RTVSPost2010Prop34
280
     0
102
RTVSPost2010PropOp34
 70
     0
102
RTVSPost2010Prop35
280
     0
102
RTVSPost2010PropOp35
 70
     0
102
RTVSPost2010Prop36
280
     0
102
RTVSPost2010PropOp36
 70
     0
102
RTVSPost2010Prop37
 90
       50
102
RTVSPost2010PropOp37
 70
     0
102
RTVSPost2010Prop38
140
0.0
102
RTVSPost2010PropOp38
 70
     0
102
RTVSPost2010Prop39
140
1.0
102
RTVSPost2010PropOp39
 70
     0
102
RTVSPost2010Prop40
 90
        0
102
RTVSPost2010PropOp40
 70
     0
102
RTVSPost2010Prop41ColorIndex
 90
       18
102
RTVSPost2010Prop41ColorRGB
 90
        0
102
RTVSPost2010PropOp41
 70
     0
102
RTVSPost2010Prop42
 90
       50
102
RTVSPost2010PropOp42
 70
     0
102
RTVSPost2010Prop43
 90
        3
102
RTVSPost2010PropOp43
 70
     0
102
RTVSPost2010Prop44ColorIndex
 90
        5
102
RTVSPost2010Prop44ColorRGB
 90
      255
102
RTVSPost2010PropOp44
 70
     0
102
RTVSPost2010Prop45
280
     0
102
RTVSPost2010PropOp45
 70
     0
102
RTVSPost2010Prop46
 90
       50
102
RTVSPost2010PropOp46
 70
     0
102
RTVSPost2010Prop47
 90
       50
102
RTVSPost2010PropOp47
 70
     0
102
RTVSPost2010Prop48
 90
       50
102
RTVSPost2010PropOp48
 70
     0
102
RTVSPost2010Prop49
280
     0
102
RTVSPost2010PropOp49
 70
     0
102
RTVSPost2010Prop50
 90
       50
102
RTVSPost2010PropOp50
 70
     0
102
RTVSPost2010Prop51ColorIndex
 90
      256
102
RTVSPost2010Prop51ColorRGB
 90
-16777216
102
RTVSPost2010PropOp51
 70
     0
102
RTVSPost2010Prop52
140
1.0
102
RTVSPost2010PropOp52
 70
     0
102
RTVSPost2010Prop53
 90
        2
102
RTVSPost2010PropOp53
 70
     0
102
RTVSPost2010Prop54
  1
strokes_ogs.tif
102
RTVSPost2010PropOp54
 70
     0
102
RTVSPost2010Prop55
280
     0
102
RTVSPost2010PropOp55
 70
     0
102
RTVSPost2010Prop56
140
1.0
102
RTVSPost2010PropOp56
 70
     0
102
RTVSPost2010Prop57
140
1.0
102
RTVSPost2010PropOp57
 70
     0
  0
XRECORD
  5
12DB
102
{ACAD_REACTORS
330
12DA
102
}
330
12DA
100
AcDbXrecord
280
     1
102
RTVSPost2010Prop28
280
     0
102
RTVSPost2010PropOp28
 70
     1
102
RTVSPost2010Prop29
280
     1
102
RTVSPost2010PropOp29
 70
     1
102
RTVSPost2010Prop30
280
     1
102
RTVSPost2010PropOp30
 70
     1
102
RTVSPost2010Prop31
280
     0
102
RTVSPost2010PropOp31
 70
     1
102
RTVSPost2010Prop32
280
     0
102
RTVSPost2010PropOp32
 70
     1
102
RTVSPost2010Prop33
280
     0
102
RTVSPost2010PropOp33
 70
     1
102
RTVSPost2010Prop34
280
     0
102
RTVSPost2010PropOp34
 70
     1
102
RTVSPost2010Prop35
280
     0
102
RTVSPost2010PropOp35
 70
     1
102
RTVSPost2010Prop36
280
     0
102
RTVSPost2010PropOp36
 70
     1
102
RTVSPost2010Prop37
 90
       50
102
RTVSPost2010PropOp37
 70
     1
102
RTVSPost2010Prop38
140
0.0
102
RTVSPost2010PropOp38
 70
     1
102
RTVSPost2010Prop39
140
1.0
102
RTVSPost2010PropOp39
 70
     1
102
RTVSPost2010Prop40
 90
        0
102
RTVSPost2010PropOp40
 70
     1
102
RTVSPost2010Prop41ColorIndex
 90
       18
102
RTVSPost2010Prop41ColorRGB
 90
        0
102
RTVSPost2010PropOp41
 70
     1
102
RTVSPost2010Prop42
 90
       50
102
RTVSPost2010PropOp42
 70
     1
102
RTVSPost2010Prop43
 90
        3
102
RTVSPost2010PropOp43
 70
     1
102
RTVSPost2010Prop44ColorIndex
 90
        5
102
RTVSPost2010Prop44ColorRGB
 90
      255
102
RTVSPost2010PropOp44
 70
     1
102
RTVSPost2010Prop45
280
     0
102
RTVSPost2010PropOp45
 70
     1
102
RTVSPost2010Prop46
 90
       50
102
RTVSPost2010PropOp46
 70
     1
102
RTVSPost2010Prop47
 90
       50
102
RTVSPost2010PropOp47
 70
     1
102
RTVSPost2010Prop48
 90
       50
102
RTVSPost2010PropOp48
 70
     1
102
RTVSPost2010Prop49
280
     0
102
RTVSPost2010PropOp49
 70
     1
102
RTVSPost2010Prop50
 90
       50
102
RTVSPost2010PropOp50
 70
     1
102
RTVSPost2010Prop51ColorIndex
 90
      256
102
RTVSPost2010Prop51ColorRGB
 90
-16777216
102
RTVSPost2010PropOp51
 70
     0
102
RTVSPost2010Prop52
140
1.0
102
RTVSPost2010PropOp52
 70
     0
102
RTVSPost2010Prop53
 90
        2
102
RTVSPost2010PropOp53
 70
     1
102
RTVSPost2010Prop54
  1
strokes_ogs.tif
102
RTVSPost2010PropOp54
 70
     1
102
RTVSPost2010Prop55
280
     0
102
RTVSPost2010PropOp55
 70
     1
102
RTVSPost2010Prop56
140
1.0
102
RTVSPost2010PropOp56
 70
     1
102
RTVSPost2010Prop57
140
1.0
102
RTVSPost2010PropOp57
 70
     1
  0
XRECORD
  5
12BF
102
{ACAD_REACTORS
330
12BE
102
}
330
12BE
100
AcDbXrecord
280
     1
102
RTVSPost2010Prop28
280
     0
102
RTVSPost2010PropOp28
 70
     1
102
RTVSPost2010Prop29
280
     1
102
RTVSPost2010PropOp29
 70
     1
102
RTVSPost2010Prop30
280
     1
102
RTVSPost2010PropOp30
 70
     1
102
RTVSPost2010Prop31
280
     0
102
RTVSPost2010PropOp31
 70
     1
102
RTVSPost2010Prop32
280
     0
102
RTVSPost2010PropOp32
 70
     1
102
RTVSPost2010Prop33
280
     0
102
RTVSPost2010PropOp33
 70
     1
102
RTVSPost2010Prop34
280
     0
102
RTVSPost2010PropOp34
 70
     1
102
RTVSPost2010Prop35
280
     0
102
RTVSPost2010PropOp35
 70
     1
102
RTVSPost2010Prop36
280
     0
102
RTVSPost2010PropOp36
 70
     1
102
RTVSPost2010Prop37
 90
       50
102
RTVSPost2010PropOp37
 70
     1
102
RTVSPost2010Prop38
140
0.0
102
RTVSPost2010PropOp38
 70
     1
102
RTVSPost2010Prop39
140
1.0
102
RTVSPost2010PropOp39
 70
     1
102
RTVSPost2010Prop40
 90
        0
102
RTVSPost2010PropOp40
 70
     1
102
RTVSPost2010Prop41ColorIndex
 90
       18
102
RTVSPost2010Prop41ColorRGB
 90
        0
102
RTVSPost2010PropOp41
 70
     1
102
RTVSPost2010Prop42
 90
       50
102
RTVSPost2010PropOp42
 70
     1
102
RTVSPost2010Prop43
 90
        3
102
RTVSPost2010PropOp43
 70
     1
102
RTVSPost2010Prop44ColorIndex
 90
        5
102
RTVSPost2010Prop44ColorRGB
 90
      255
102
RTVSPost2010PropOp44
 70
     1
102
RTVSPost2010Prop45
280
     0
102
RTVSPost2010PropOp45
 70
     1
102
RTVSPost2010Prop46
 90
       50
102
RTVSPost2010PropOp46
 70
     1
102
RTVSPost2010Prop47
 90
       50
102
RTVSPost2010PropOp47
 70
     1
102
RTVSPost2010Prop48
 90
       50
102
RTVSPost2010PropOp48
 70
     1
102
RTVSPost2010Prop49
280
     0
102
RTVSPost2010PropOp49
 70
     1
102
RTVSPost2010Prop50
 90
       50
102
RTVSPost2010PropOp50
 70
     1
102
RTVSPost2010Prop51ColorIndex
 90
      256
102
RTVSPost2010Prop51ColorRGB
 90
-16777216
102
RTVSPost2010PropOp51
 70
     0
102
RTVSPost2010Prop52
140
1.0
102
RTVSPost2010PropOp52
 70
     0
102
RTVSPost2010Prop53
 90
        2
102
RTVSPost2010PropOp53
 70
     1
102
RTVSPost2010Prop54
  1
strokes_ogs.tif
102
RTVSPost2010PropOp54
 70
     1
102
RTVSPost2010Prop55
280
     0
102
RTVSPost2010PropOp55
 70
     1
102
RTVSPost2010Prop56
140
1.0
102
RTVSPost2010PropOp56
 70
     1
102
RTVSPost2010Prop57
140
1.0
102
RTVSPost2010PropOp57
 70
     1
  0
XRECORD
  5
12C1
102
{ACAD_REACTORS
330
12C0
102
}
330
12C0
100
AcDbXrecord
280
     1
102
RTVSPost2010Prop28
280
     0
102
RTVSPost2010PropOp28
 70
     1
102
RTVSPost2010Prop29
280
     1
102
RTVSPost2010PropOp29
 70
     1
102
RTVSPost2010Prop30
280
     1
102
RTVSPost2010PropOp30
 70
     1
102
RTVSPost2010Prop31
280
     0
102
RTVSPost2010PropOp31
 70
     1
102
RTVSPost2010Prop32
280
     0
102
RTVSPost2010PropOp32
 70
     1
102
RTVSPost2010Prop33
280
     0
102
RTVSPost2010PropOp33
 70
     1
102
RTVSPost2010Prop34
280
     0
102
RTVSPost2010PropOp34
 70
     1
102
RTVSPost2010Prop35
280
     0
102
RTVSPost2010PropOp35
 70
     1
102
RTVSPost2010Prop36
280
     0
102
RTVSPost2010PropOp36
 70
     1
102
RTVSPost2010Prop37
 90
       50
102
RTVSPost2010PropOp37
 70
     1
102
RTVSPost2010Prop38
140
0.0
102
RTVSPost2010PropOp38
 70
     1
102
RTVSPost2010Prop39
140
1.0
102
RTVSPost2010PropOp39
 70
     1
102
RTVSPost2010Prop40
 90
        0
102
RTVSPost2010PropOp40
 70
     1
102
RTVSPost2010Prop41ColorIndex
 90
       18
102
RTVSPost2010Prop41ColorRGB
 90
        0
102
RTVSPost2010PropOp41
 70
     1
102
RTVSPost2010Prop42
 90
       50
102
RTVSPost2010PropOp42
 70
     1
102
RTVSPost2010Prop43
 90
        3
102
RTVSPost2010PropOp43
 70
     1
102
RTVSPost2010Prop44ColorIndex
 90
        5
102
RTVSPost2010Prop44ColorRGB
 90
      255
102
RTVSPost2010PropOp44
 70
     1
102
RTVSPost2010Prop45
280
     0
102
RTVSPost2010PropOp45
 70
     1
102
RTVSPost2010Prop46
 90
       50
102
RTVSPost2010PropOp46
 70
     1
102
RTVSPost2010Prop47
 90
       50
102
RTVSPost2010PropOp47
 70
     1
102
RTVSPost2010Prop48
 90
       50
102
RTVSPost2010PropOp48
 70
     1
102
RTVSPost2010Prop49
280
     0
102
RTVSPost2010PropOp49
 70
     1
102
RTVSPost2010Prop50
 90
       50
102
RTVSPost2010PropOp50
 70
     1
102
RTVSPost2010Prop51ColorIndex
 90
      256
102
RTVSPost2010Prop51ColorRGB
 90
-16777216
102
RTVSPost2010PropOp51
 70
     0
102
RTVSPost2010Prop52
140
1.0
102
RTVSPost2010PropOp52
 70
     0
102
RTVSPost2010Prop53
 90
        2
102
RTVSPost2010PropOp53
 70
     1
102
RTVSPost2010Prop54
  1
strokes_ogs.tif
102
RTVSPost2010PropOp54
 70
     1
102
RTVSPost2010Prop55
280
     0
102
RTVSPost2010PropOp55
 70
     1
102
RTVSPost2010Prop56
140
1.0
102
RTVSPost2010PropOp56
 70
     1
102
RTVSPost2010Prop57
140
1.0
102
RTVSPost2010PropOp57
 70
     1
  0
XRECORD
  5
12C3
102
{ACAD_REACTORS
330
12C2
102
}
330
12C2
100
AcDbXrecord
280
     1
102
RTVSPost2010Prop28
280
     0
102
RTVSPost2010PropOp28
 70
     1
102
RTVSPost2010Prop29
280
     1
102
RTVSPost2010PropOp29
 70
     1
102
RTVSPost2010Prop30
280
     1
102
RTVSPost2010PropOp30
 70
     1
102
RTVSPost2010Prop31
280
     0
102
RTVSPost2010PropOp31
 70
     1
102
RTVSPost2010Prop32
280
     0
102
RTVSPost2010PropOp32
 70
     1
102
RTVSPost2010Prop33
280
     0
102
RTVSPost2010PropOp33
 70
     1
102
RTVSPost2010Prop34
280
     0
102
RTVSPost2010PropOp34
 70
     1
102
RTVSPost2010Prop35
280
     0
102
RTVSPost2010PropOp35
 70
     1
102
RTVSPost2010Prop36
280
     0
102
RTVSPost2010PropOp36
 70
     1
102
RTVSPost2010Prop37
 90
       50
102
RTVSPost2010PropOp37
 70
     1
102
RTVSPost2010Prop38
140
0.0
102
RTVSPost2010PropOp38
 70
     1
102
RTVSPost2010Prop39
140
1.0
102
RTVSPost2010PropOp39
 70
     1
102
RTVSPost2010Prop40
 90
        0
102
RTVSPost2010PropOp40
 70
     1
102
RTVSPost2010Prop41ColorIndex
 90
       18
102
RTVSPost2010Prop41ColorRGB
 90
        0
102
RTVSPost2010PropOp41
 70
     1
102
RTVSPost2010Prop42
 90
       50
102
RTVSPost2010PropOp42
 70
     1
102
RTVSPost2010Prop43
 90
        3
102
RTVSPost2010PropOp43
 70
     1
102
RTVSPost2010Prop44ColorIndex
 90
        5
102
RTVSPost2010Prop44ColorRGB
 90
      255
102
RTVSPost2010PropOp44
 70
     1
102
RTVSPost2010Prop45
280
     0
102
RTVSPost2010PropOp45
 70
     1
102
RTVSPost2010Prop46
 90
       50
102
RTVSPost2010PropOp46
 70
     1
102
RTVSPost2010Prop47
 90
       50
102
RTVSPost2010PropOp47
 70
     1
102
RTVSPost2010Prop48
 90
       50
102
RTVSPost2010PropOp48
 70
     1
102
RTVSPost2010Prop49
280
     0
102
RTVSPost2010PropOp49
 70
     1
102
RTVSPost2010Prop50
 90
       50
102
RTVSPost2010PropOp50
 70
     1
102
RTVSPost2010Prop51ColorIndex
 90
      256
102
RTVSPost2010Prop51ColorRGB
 90
-16777216
102
RTVSPost2010PropOp51
 70
     0
102
RTVSPost2010Prop52
140
1.0
102
RTVSPost2010PropOp52
 70
     0
102
RTVSPost2010Prop53
 90
        2
102
RTVSPost2010PropOp53
 70
     1
102
RTVSPost2010Prop54
  1
strokes_ogs.tif
102
RTVSPost2010PropOp54
 70
     1
102
RTVSPost2010Prop55
280
     0
102
RTVSPost2010PropOp55
 70
     1
102
RTVSPost2010Prop56
140
1.0
102
RTVSPost2010PropOp56
 70
     1
102
RTVSPost2010Prop57
140
1.0
102
RTVSPost2010PropOp57
 70
     1
  0
XRECORD
  5
12C5
102
{ACAD_REACTORS
330
12C4
102
}
330
12C4
100
AcDbXrecord
280
     1
102
RTVSPost2010Prop28
280
     0
102
RTVSPost2010PropOp28
 70
     1
102
RTVSPost2010Prop29
280
     1
102
RTVSPost2010PropOp29
 70
     1
102
RTVSPost2010Prop30
280
     1
102
RTVSPost2010PropOp30
 70
     1
102
RTVSPost2010Prop31
280
     0
102
RTVSPost2010PropOp31
 70
     1
102
RTVSPost2010Prop32
280
     0
102
RTVSPost2010PropOp32
 70
     1
102
RTVSPost2010Prop33
280
     0
102
RTVSPost2010PropOp33
 70
     1
102
RTVSPost2010Prop34
280
     0
102
RTVSPost2010PropOp34
 70
     1
102
RTVSPost2010Prop35
280
     0
102
RTVSPost2010PropOp35
 70
     1
102
RTVSPost2010Prop36
280
     0
102
RTVSPost2010PropOp36
 70
     1
102
RTVSPost2010Prop37
 90
       50
102
RTVSPost2010PropOp37
 70
     1
102
RTVSPost2010Prop38
140
0.0
102
RTVSPost2010PropOp38
 70
     1
102
RTVSPost2010Prop39
140
1.0
102
RTVSPost2010PropOp39
 70
     1
102
RTVSPost2010Prop40
 90
        0
102
RTVSPost2010PropOp40
 70
     1
102
RTVSPost2010Prop41ColorIndex
 90
       18
102
RTVSPost2010Prop41ColorRGB
 90
        0
102
RTVSPost2010PropOp41
 70
     1
102
RTVSPost2010Prop42
 90
       50
102
RTVSPost2010PropOp42
 70
     1
102
RTVSPost2010Prop43
 90
        3
102
RTVSPost2010PropOp43
 70
     1
102
RTVSPost2010Prop44ColorIndex
 90
        5
102
RTVSPost2010Prop44ColorRGB
 90
      255
102
RTVSPost2010PropOp44
 70
     1
102
RTVSPost2010Prop45
280
     0
102
RTVSPost2010PropOp45
 70
     1
102
RTVSPost2010Prop46
 90
       50
102
RTVSPost2010PropOp46
 70
     1
102
RTVSPost2010Prop47
 90
       50
102
RTVSPost2010PropOp47
 70
     1
102
RTVSPost2010Prop48
 90
       50
102
RTVSPost2010PropOp48
 70
     1
102
RTVSPost2010Prop49
280
     0
102
RTVSPost2010PropOp49
 70
     1
102
RTVSPost2010Prop50
 90
       50
102
RTVSPost2010PropOp50
 70
     1
102
RTVSPost2010Prop51ColorIndex
 90
      256
102
RTVSPost2010Prop51ColorRGB
 90
-16777216
102
RTVSPost2010PropOp51
 70
     0
102
RTVSPost2010Prop52
140
1.0
102
RTVSPost2010PropOp52
 70
     0
102
RTVSPost2010Prop53
 90
        2
102
RTVSPost2010PropOp53
 70
     1
102
RTVSPost2010Prop54
  1
strokes_ogs.tif
102
RTVSPost2010PropOp54
 70
     1
102
RTVSPost2010Prop55
280
     0
102
RTVSPost2010PropOp55
 70
     1
102
RTVSPost2010Prop56
140
1.0
102
RTVSPost2010PropOp56
 70
     1
102
RTVSPost2010Prop57
140
1.0
102
RTVSPost2010PropOp57
 70
     1
  0
XRECORD
  5
12CB
102
{ACAD_REACTORS
330
12CA
102
}
330
12CA
100
AcDbXrecord
280
     1
102
RTVSPost2010Prop28
280
     0
102
RTVSPost2010PropOp28
 70
     1
102
RTVSPost2010Prop29
280
     1
102
RTVSPost2010PropOp29
 70
     1
102
RTVSPost2010Prop30
280
     1
102
RTVSPost2010PropOp30
 70
     1
102
RTVSPost2010Prop31
280
     0
102
RTVSPost2010PropOp31
 70
     1
102
RTVSPost2010Prop32
280
     0
102
RTVSPost2010PropOp32
 70
     1
102
RTVSPost2010Prop33
280
     0
102
RTVSPost2010PropOp33
 70
     1
102
RTVSPost2010Prop34
280
     0
102
RTVSPost2010PropOp34
 70
     1
102
RTVSPost2010Prop35
280
     0
102
RTVSPost2010PropOp35
 70
     1
102
RTVSPost2010Prop36
280
     0
102
RTVSPost2010PropOp36
 70
     1
102
RTVSPost2010Prop37
 90
       50
102
RTVSPost2010PropOp37
 70
     1
102
RTVSPost2010Prop38
140
0.0
102
RTVSPost2010PropOp38
 70
     1
102
RTVSPost2010Prop39
140
1.0
102
RTVSPost2010PropOp39
 70
     1
102
RTVSPost2010Prop40
 90
        0
102
RTVSPost2010PropOp40
 70
     1
102
RTVSPost2010Prop41ColorIndex
 90
       18
102
RTVSPost2010Prop41ColorRGB
 90
        0
102
RTVSPost2010PropOp41
 70
     1
102
RTVSPost2010Prop42
 90
       50
102
RTVSPost2010PropOp42
 70
     1
102
RTVSPost2010Prop43
 90
        3
102
RTVSPost2010PropOp43
 70
     1
102
RTVSPost2010Prop44ColorIndex
 90
        5
102
RTVSPost2010Prop44ColorRGB
 90
      255
102
RTVSPost2010PropOp44
 70
     1
102
RTVSPost2010Prop45
280
     0
102
RTVSPost2010PropOp45
 70
     1
102
RTVSPost2010Prop46
 90
       50
102
RTVSPost2010PropOp46
 70
     1
102
RTVSPost2010Prop47
 90
       50
102
RTVSPost2010PropOp47
 70
     1
102
RTVSPost2010Prop48
 90
       50
102
RTVSPost2010PropOp48
 70
     1
102
RTVSPost2010Prop49
280
     0
102
RTVSPost2010PropOp49
 70
     1
102
RTVSPost2010Prop50
 90
       50
102
RTVSPost2010PropOp50
 70
     1
102
RTVSPost2010Prop51ColorIndex
 90
      256
102
RTVSPost2010Prop51ColorRGB
 90
-16777216
102
RTVSPost2010PropOp51
 70
     0
102
RTVSPost2010Prop52
140
1.0
102
RTVSPost2010PropOp52
 70
     0
102
RTVSPost2010Prop53
 90
        2
102
RTVSPost2010PropOp53
 70
     1
102
RTVSPost2010Prop54
  1
strokes_ogs.tif
102
RTVSPost2010PropOp54
 70
     1
102
RTVSPost2010Prop55
280
     0
102
RTVSPost2010PropOp55
 70
     1
102
RTVSPost2010Prop56
140
1.0
102
RTVSPost2010PropOp56
 70
     1
102
RTVSPost2010Prop57
140
1.0
102
RTVSPost2010PropOp57
 70
     1
  0
XRECORD
  5
12DF
102
{ACAD_REACTORS
330
12DE
102
}
330
12DE
100
AcDbXrecord
280
     1
102
RTVSPost2010Prop28
280
     0
102
RTVSPost2010PropOp28
 70
     0
102
RTVSPost2010Prop29
280
     1
102
RTVSPost2010PropOp29
 70
     0
102
RTVSPost2010Prop30
280
     1
102
RTVSPost2010PropOp30
 70
     0
102
RTVSPost2010Prop31
280
     0
102
RTVSPost2010PropOp31
 70
     0
102
RTVSPost2010Prop32
280
     0
102
RTVSPost2010PropOp32
 70
     0
102
RTVSPost2010Prop33
280
     0
102
RTVSPost2010PropOp33
 70
     0
102
RTVSPost2010Prop34
280
     0
102
RTVSPost2010PropOp34
 70
     0
102
RTVSPost2010Prop35
280
     0
102
RTVSPost2010PropOp35
 70
     0
102
RTVSPost2010Prop36
280
     0
102
RTVSPost2010PropOp36
 70
     0
102
RTVSPost2010Prop37
 90
       50
102
RTVSPost2010PropOp37
 70
     0
102
RTVSPost2010Prop38
140
0.0
102
RTVSPost2010PropOp38
 70
     0
102
RTVSPost2010Prop39
140
1.0
102
RTVSPost2010PropOp39
 70
     0
102
RTVSPost2010Prop40
 90
        0
102
RTVSPost2010PropOp40
 70
     0
102
RTVSPost2010Prop41ColorIndex
 90
       18
102
RTVSPost2010Prop41ColorRGB
 90
        0
102
RTVSPost2010PropOp41
 70
     0
102
RTVSPost2010Prop42
 90
       50
102
RTVSPost2010PropOp42
 70
     0
102
RTVSPost2010Prop43
 90
        3
102
RTVSPost2010PropOp43
 70
     0
102
RTVSPost2010Prop44ColorIndex
 90
        5
102
RTVSPost2010Prop44ColorRGB
 90
      255
102
RTVSPost2010PropOp44
 70
     0
102
RTVSPost2010Prop45
280
     0
102
RTVSPost2010PropOp45
 70
     0
102
RTVSPost2010Prop46
 90
       50
102
RTVSPost2010PropOp46
 70
     0
102
RTVSPost2010Prop47
 90
       50
102
RTVSPost2010PropOp47
 70
     0
102
RTVSPost2010Prop48
 90
       50
102
RTVSPost2010PropOp48
 70
     0
102
RTVSPost2010Prop49
280
     0
102
RTVSPost2010PropOp49
 70
     0
102
RTVSPost2010Prop50
 90
       50
102
RTVSPost2010PropOp50
 70
     0
102
RTVSPost2010Prop51ColorIndex
 90
      256
102
RTVSPost2010Prop51ColorRGB
 90
-16777216
102
RTVSPost2010PropOp51
 70
     0
102
RTVSPost2010Prop52
140
1.0
102
RTVSPost2010PropOp52
 70
     0
102
RTVSPost2010Prop53
 90
        2
102
RTVSPost2010PropOp53
 70
     0
102
RTVSPost2010Prop54
  1
strokes_ogs.tif
102
RTVSPost2010PropOp54
 70
     0
102
RTVSPost2010Prop55
280
     0
102
RTVSPost2010PropOp55
 70
     0
102
RTVSPost2010Prop56
140
1.0
102
RTVSPost2010PropOp56
 70
     0
102
RTVSPost2010Prop57
140
1.0
102
RTVSPost2010PropOp57
 70
     0
  0
XRECORD
  5
12D9
102
{ACAD_REACTORS
330
12D8
102
}
330
12D8
100
AcDbXrecord
280
     1
102
RTVSPost2010Prop28
280
     0
102
RTVSPost2010PropOp28
 70
     1
102
RTVSPost2010Prop29
280
     1
102
RTVSPost2010PropOp29
 70
     1
102
RTVSPost2010Prop30
280
     1
102
RTVSPost2010PropOp30
 70
     1
102
RTVSPost2010Prop31
280
     0
102
RTVSPost2010PropOp31
 70
     1
102
RTVSPost2010Prop32
280
     0
102
RTVSPost2010PropOp32
 70
     1
102
RTVSPost2010Prop33
280
     0
102
RTVSPost2010PropOp33
 70
     1
102
RTVSPost2010Prop34
280
     0
102
RTVSPost2010PropOp34
 70
     1
102
RTVSPost2010Prop35
280
     0
102
RTVSPost2010PropOp35
 70
     1
102
RTVSPost2010Prop36
280
     0
102
RTVSPost2010PropOp36
 70
     1
102
RTVSPost2010Prop37
 90
       50
102
RTVSPost2010PropOp37
 70
     1
102
RTVSPost2010Prop38
140
0.0
102
RTVSPost2010PropOp38
 70
     1
102
RTVSPost2010Prop39
140
1.0
102
RTVSPost2010PropOp39
 70
     1
102
RTVSPost2010Prop40
 90
        0
102
RTVSPost2010PropOp40
 70
     1
102
RTVSPost2010Prop41ColorIndex
 90
       18
102
RTVSPost2010Prop41ColorRGB
 90
        0
102
RTVSPost2010PropOp41
 70
     1
102
RTVSPost2010Prop42
 90
       50
102
RTVSPost2010PropOp42
 70
     1
102
RTVSPost2010Prop43
 90
        3
102
RTVSPost2010PropOp43
 70
     1
102
RTVSPost2010Prop44ColorIndex
 90
        5
102
RTVSPost2010Prop44ColorRGB
 90
      255
102
RTVSPost2010PropOp44
 70
     1
102
RTVSPost2010Prop45
280
     0
102
RTVSPost2010PropOp45
 70
     1
102
RTVSPost2010Prop46
 90
       50
102
RTVSPost2010PropOp46
 70
     1
102
RTVSPost2010Prop47
 90
       50
102
RTVSPost2010PropOp47
 70
     1
102
RTVSPost2010Prop48
 90
       50
102
RTVSPost2010PropOp48
 70
     1
102
RTVSPost2010Prop49
280
     0
102
RTVSPost2010PropOp49
 70
     1
102
RTVSPost2010Prop50
 90
       50
102
RTVSPost2010PropOp50
 70
     1
102
RTVSPost2010Prop51ColorIndex
 90
      256
102
RTVSPost2010Prop51ColorRGB
 90
-16777216
102
RTVSPost2010PropOp51
 70
     0
102
RTVSPost2010Prop52
140
1.0
102
RTVSPost2010PropOp52
 70
     0
102
RTVSPost2010Prop53
 90
        2
102
RTVSPost2010PropOp53
 70
     1
102
RTVSPost2010Prop54
  1
strokes_ogs.tif
102
RTVSPost2010PropOp54
 70
     1
102
RTVSPost2010Prop55
280
     0
102
RTVSPost2010PropOp55
 70
     1
102
RTVSPost2010Prop56
140
1.0
102
RTVSPost2010PropOp56
 70
     1
102
RTVSPost2010Prop57
140
1.0
102
RTVSPost2010PropOp57
 70
     1
  0
XRECORD
  5
12E1
102
{ACAD_REACTORS
330
12E0
102
}
330
12E0
100
AcDbXrecord
280
     1
102
RTVSPost2010Prop28
280
     0
102
RTVSPost2010PropOp28
 70
     0
102
RTVSPost2010Prop29
280
     1
102
RTVSPost2010PropOp29
 70
     0
102
RTVSPost2010Prop30
280
     1
102
RTVSPost2010PropOp30
 70
     0
102
RTVSPost2010Prop31
280
     0
102
RTVSPost2010PropOp31
 70
     0
102
RTVSPost2010Prop32
280
     0
102
RTVSPost2010PropOp32
 70
     0
102
RTVSPost2010Prop33
280
     0
102
RTVSPost2010PropOp33
 70
     0
102
RTVSPost2010Prop34
280
     0
102
RTVSPost2010PropOp34
 70
     0
102
RTVSPost2010Prop35
280
     0
102
RTVSPost2010PropOp35
 70
     0
102
RTVSPost2010Prop36
280
     0
102
RTVSPost2010PropOp36
 70
     0
102
RTVSPost2010Prop37
 90
       50
102
RTVSPost2010PropOp37
 70
     0
102
RTVSPost2010Prop38
140
0.0
102
RTVSPost2010PropOp38
 70
     0
102
RTVSPost2010Prop39
140
1.0
102
RTVSPost2010PropOp39
 70
     0
102
RTVSPost2010Prop40
 90
        0
102
RTVSPost2010PropOp40
 70
     0
102
RTVSPost2010Prop41ColorIndex
 90
       18
102
RTVSPost2010Prop41ColorRGB
 90
        0
102
RTVSPost2010PropOp41
 70
     0
102
RTVSPost2010Prop42
 90
       50
102
RTVSPost2010PropOp42
 70
     0
102
RTVSPost2010Prop43
 90
        3
102
RTVSPost2010PropOp43
 70
     0
102
RTVSPost2010Prop44ColorIndex
 90
        5
102
RTVSPost2010Prop44ColorRGB
 90
      255
102
RTVSPost2010PropOp44
 70
     0
102
RTVSPost2010Prop45
280
     0
102
RTVSPost2010PropOp45
 70
     0
102
RTVSPost2010Prop46
 90
       50
102
RTVSPost2010PropOp46
 70
     0
102
RTVSPost2010Prop47
 90
       50
102
RTVSPost2010PropOp47
 70
     0
102
RTVSPost2010Prop48
 90
       50
102
RTVSPost2010PropOp48
 70
     0
102
RTVSPost2010Prop49
280
     0
102
RTVSPost2010PropOp49
 70
     0
102
RTVSPost2010Prop50
 90
       50
102
RTVSPost2010PropOp50
 70
     0
102
RTVSPost2010Prop51ColorIndex
 90
      256
102
RTVSPost2010Prop51ColorRGB
 90
-16777216
102
RTVSPost2010PropOp51
 70
     0
102
RTVSPost2010Prop52
140
1.0
102
RTVSPost2010PropOp52
 70
     0
102
RTVSPost2010Prop53
 90
        2
102
RTVSPost2010PropOp53
 70
     0
102
RTVSPost2010Prop54
  1
strokes_ogs.tif
102
RTVSPost2010PropOp54
 70
     0
102
RTVSPost2010Prop55
280
     0
102
RTVSPost2010PropOp55
 70
     0
102
RTVSPost2010Prop56
140
1.0
102
RTVSPost2010PropOp56
 70
     0
102
RTVSPost2010Prop57
140
1.0
102
RTVSPost2010PropOp57
 70
     0
  0
XRECORD
  5
12CF
102
{ACAD_REACTORS
330
12CE
102
}
330
12CE
100
AcDbXrecord
280
     1
102
RTVSPost2010Prop28
280
     0
102
RTVSPost2010PropOp28
 70
     1
102
RTVSPost2010Prop29
280
     1
102
RTVSPost2010PropOp29
 70
     1
102
RTVSPost2010Prop30
280
     1
102
RTVSPost2010PropOp30
 70
     1
102
RTVSPost2010Prop31
280
     0
102
RTVSPost2010PropOp31
 70
     1
102
RTVSPost2010Prop32
280
     0
102
RTVSPost2010PropOp32
 70
     1
102
RTVSPost2010Prop33
280
     0
102
RTVSPost2010PropOp33
 70
     1
102
RTVSPost2010Prop34
280
     0
102
RTVSPost2010PropOp34
 70
     1
102
RTVSPost2010Prop35
280
     0
102
RTVSPost2010PropOp35
 70
     1
102
RTVSPost2010Prop36
280
     0
102
RTVSPost2010PropOp36
 70
     1
102
RTVSPost2010Prop37
 90
       50
102
RTVSPost2010PropOp37
 70
     1
102
RTVSPost2010Prop38
140
0.0
102
RTVSPost2010PropOp38
 70
     1
102
RTVSPost2010Prop39
140
1.0
102
RTVSPost2010PropOp39
 70
     1
102
RTVSPost2010Prop40
 90
        0
102
RTVSPost2010PropOp40
 70
     1
102
RTVSPost2010Prop41ColorIndex
 90
       18
102
RTVSPost2010Prop41ColorRGB
 90
        0
102
RTVSPost2010PropOp41
 70
     1
102
RTVSPost2010Prop42
 90
       50
102
RTVSPost2010PropOp42
 70
     1
102
RTVSPost2010Prop43
 90
        3
102
RTVSPost2010PropOp43
 70
     1
102
RTVSPost2010Prop44ColorIndex
 90
        5
102
RTVSPost2010Prop44ColorRGB
 90
      255
102
RTVSPost2010PropOp44
 70
     1
102
RTVSPost2010Prop45
280
     0
102
RTVSPost2010PropOp45
 70
     1
102
RTVSPost2010Prop46
 90
       50
102
RTVSPost2010PropOp46
 70
     1
102
RTVSPost2010Prop47
 90
       50
102
RTVSPost2010PropOp47
 70
     1
102
RTVSPost2010Prop48
 90
       50
102
RTVSPost2010PropOp48
 70
     1
102
RTVSPost2010Prop49
280
     0
102
RTVSPost2010PropOp49
 70
     1
102
RTVSPost2010Prop50
 90
       50
102
RTVSPost2010PropOp50
 70
     1
102
RTVSPost2010Prop51ColorIndex
 90
      256
102
RTVSPost2010Prop51ColorRGB
 90
-16777216
102
RTVSPost2010PropOp51
 70
     0
102
RTVSPost2010Prop52
140
1.0
102
RTVSPost2010PropOp52
 70
     0
102
RTVSPost2010Prop53
 90
        2
102
RTVSPost2010PropOp53
 70
     1
102
RTVSPost2010Prop54
  1
strokes_ogs.tif
102
RTVSPost2010PropOp54
 70
     1
102
RTVSPost2010Prop55
280
     0
102
RTVSPost2010PropOp55
 70
     1
102
RTVSPost2010Prop56
140
1.0
102
RTVSPost2010PropOp56
 70
     1
102
RTVSPost2010Prop57
140
1.0
102
RTVSPost2010PropOp57
 70
     1
  0
XRECORD
  5
12ED
102
{ACAD_REACTORS
330
12EC
102
}
330
12EC
100
AcDbXrecord
280
     1
102
RTVSPost2010Prop28
280
     0
102
RTVSPost2010PropOp28
 70
     1
102
RTVSPost2010Prop29
280
     1
102
RTVSPost2010PropOp29
 70
     1
102
RTVSPost2010Prop30
280
     1
102
RTVSPost2010PropOp30
 70
     1
102
RTVSPost2010Prop31
280
     0
102
RTVSPost2010PropOp31
 70
     1
102
RTVSPost2010Prop32
280
     0
102
RTVSPost2010PropOp32
 70
     1
102
RTVSPost2010Prop33
280
     0
102
RTVSPost2010PropOp33
 70
     1
102
RTVSPost2010Prop34
280
     0
102
RTVSPost2010PropOp34
 70
     1
102
RTVSPost2010Prop35
280
     0
102
RTVSPost2010PropOp35
 70
     1
102
RTVSPost2010Prop36
280
     0
102
RTVSPost2010PropOp36
 70
     1
102
RTVSPost2010Prop37
 90
       50
102
RTVSPost2010PropOp37
 70
     1
102
RTVSPost2010Prop38
140
0.0
102
RTVSPost2010PropOp38
 70
     1
102
RTVSPost2010Prop39
140
1.0
102
RTVSPost2010PropOp39
 70
     1
102
RTVSPost2010Prop40
 90
        0
102
RTVSPost2010PropOp40
 70
     1
102
RTVSPost2010Prop41ColorIndex
 90
       18
102
RTVSPost2010Prop41ColorRGB
 90
        0
102
RTVSPost2010PropOp41
 70
     1
102
RTVSPost2010Prop42
 90
       50
102
RTVSPost2010PropOp42
 70
     1
102
RTVSPost2010Prop43
 90
        3
102
RTVSPost2010PropOp43
 70
     1
102
RTVSPost2010Prop44ColorIndex
 90
        5
102
RTVSPost2010Prop44ColorRGB
 90
      255
102
RTVSPost2010PropOp44
 70
     1
102
RTVSPost2010Prop45
280
     0
102
RTVSPost2010PropOp45
 70
     1
102
RTVSPost2010Prop46
 90
       50
102
RTVSPost2010PropOp46
 70
     1
102
RTVSPost2010Prop47
 90
       50
102
RTVSPost2010PropOp47
 70
     1
102
RTVSPost2010Prop48
 90
       50
102
RTVSPost2010PropOp48
 70
     1
102
RTVSPost2010Prop49
280
     0
102
RTVSPost2010PropOp49
 70
     1
102
RTVSPost2010Prop50
 90
       50
102
RTVSPost2010PropOp50
 70
     1
102
RTVSPost2010Prop51ColorIndex
 90
      256
102
RTVSPost2010Prop51ColorRGB
 90
-16777216
102
RTVSPost2010PropOp51
 70
     0
102
RTVSPost2010Prop52
140
1.0
102
RTVSPost2010PropOp52
 70
     0
102
RTVSPost2010Prop53
 90
        2
102
RTVSPost2010PropOp53
 70
     1
102
RTVSPost2010Prop54
  1
strokes_ogs.tif
102
RTVSPost2010PropOp54
 70
     1
102
RTVSPost2010Prop55
280
     0
102
RTVSPost2010PropOp55
 70
     1
102
RTVSPost2010Prop56
140
1.0
102
RTVSPost2010PropOp56
 70
     1
102
RTVSPost2010Prop57
140
1.0
102
RTVSPost2010PropOp57
 70
     1
  0
XRECORD
  5
12EB
102
{ACAD_REACTORS
330
12EA
102
}
330
12EA
100
AcDbXrecord
280
     1
102
RTVSPost2010Prop28
280
     0
102
RTVSPost2010PropOp28
 70
     1
102
RTVSPost2010Prop29
280
     1
102
RTVSPost2010PropOp29
 70
     1
102
RTVSPost2010Prop30
280
     1
102
RTVSPost2010PropOp30
 70
     1
102
RTVSPost2010Prop31
280
     0
102
RTVSPost2010PropOp31
 70
     1
102
RTVSPost2010Prop32
280
     0
102
RTVSPost2010PropOp32
 70
     1
102
RTVSPost2010Prop33
280
     0
102
RTVSPost2010PropOp33
 70
     1
102
RTVSPost2010Prop34
280
     0
102
RTVSPost2010PropOp34
 70
     1
102
RTVSPost2010Prop35
280
     0
102
RTVSPost2010PropOp35
 70
     1
102
RTVSPost2010Prop36
280
     0
102
RTVSPost2010PropOp36
 70
     1
102
RTVSPost2010Prop37
 90
       50
102
RTVSPost2010PropOp37
 70
     1
102
RTVSPost2010Prop38
140
0.0
102
RTVSPost2010PropOp38
 70
     1
102
RTVSPost2010Prop39
140
1.0
102
RTVSPost2010PropOp39
 70
     1
102
RTVSPost2010Prop40
 90
        0
102
RTVSPost2010PropOp40
 70
     1
102
RTVSPost2010Prop41ColorIndex
 90
       18
102
RTVSPost2010Prop41ColorRGB
 90
        0
102
RTVSPost2010PropOp41
 70
     1
102
RTVSPost2010Prop42
 90
       50
102
RTVSPost2010PropOp42
 70
     1
102
RTVSPost2010Prop43
 90
        3
102
RTVSPost2010PropOp43
 70
     1
102
RTVSPost2010Prop44ColorIndex
 90
        5
102
RTVSPost2010Prop44ColorRGB
 90
      255
102
RTVSPost2010PropOp44
 70
     1
102
RTVSPost2010Prop45
280
     0
102
RTVSPost2010PropOp45
 70
     1
102
RTVSPost2010Prop46
 90
       50
102
RTVSPost2010PropOp46
 70
     1
102
RTVSPost2010Prop47
 90
       50
102
RTVSPost2010PropOp47
 70
     1
102
RTVSPost2010Prop48
 90
       50
102
RTVSPost2010PropOp48
 70
     1
102
RTVSPost2010Prop49
280
     0
102
RTVSPost2010PropOp49
 70
     1
102
RTVSPost2010Prop50
 90
       50
102
RTVSPost2010PropOp50
 70
     1
102
RTVSPost2010Prop51ColorIndex
 90
      256
102
RTVSPost2010Prop51ColorRGB
 90
-16777216
102
RTVSPost2010PropOp51
 70
     0
102
RTVSPost2010Prop52
140
1.0
102
RTVSPost2010PropOp52
 70
     0
102
RTVSPost2010Prop53
 90
        2
102
RTVSPost2010PropOp53
 70
     1
102
RTVSPost2010Prop54
  1
strokes_ogs.tif
102
RTVSPost2010PropOp54
 70
     1
102
RTVSPost2010Prop55
280
     0
102
RTVSPost2010PropOp55
 70
     1
102
RTVSPost2010Prop56
140
1.0
102
RTVSPost2010PropOp56
 70
     1
102
RTVSPost2010Prop57
140
1.0
102
RTVSPost2010PropOp57
 70
     1
  0
XRECORD
  5
12E5
102
{ACAD_REACTORS
330
12E4
102
}
330
12E4
100
AcDbXrecord
280
     1
102
RTVSPost2010Prop28
280
     0
102
RTVSPost2010PropOp28
 70
     1
102
RTVSPost2010Prop29
280
     1
102
RTVSPost2010PropOp29
 70
     1
102
RTVSPost2010Prop30
280
     1
102
RTVSPost2010PropOp30
 70
     1
102
RTVSPost2010Prop31
280
     0
102
RTVSPost2010PropOp31
 70
     1
102
RTVSPost2010Prop32
280
     0
102
RTVSPost2010PropOp32
 70
     1
102
RTVSPost2010Prop33
280
     0
102
RTVSPost2010PropOp33
 70
     1
102
RTVSPost2010Prop34
280
     0
102
RTVSPost2010PropOp34
 70
     1
102
RTVSPost2010Prop35
280
     0
102
RTVSPost2010PropOp35
 70
     1
102
RTVSPost2010Prop36
280
     0
102
RTVSPost2010PropOp36
 70
     1
102
RTVSPost2010Prop37
 90
       50
102
RTVSPost2010PropOp37
 70
     1
102
RTVSPost2010Prop38
140
0.0
102
RTVSPost2010PropOp38
 70
     1
102
RTVSPost2010Prop39
140
1.0
102
RTVSPost2010PropOp39
 70
     1
102
RTVSPost2010Prop40
 90
        0
102
RTVSPost2010PropOp40
 70
     1
102
RTVSPost2010Prop41ColorIndex
 90
       18
102
RTVSPost2010Prop41ColorRGB
 90
        0
102
RTVSPost2010PropOp41
 70
     1
102
RTVSPost2010Prop42
 90
       50
102
RTVSPost2010PropOp42
 70
     1
102
RTVSPost2010Prop43
 90
        3
102
RTVSPost2010PropOp43
 70
     1
102
RTVSPost2010Prop44ColorIndex
 90
        5
102
RTVSPost2010Prop44ColorRGB
 90
      255
102
RTVSPost2010PropOp44
 70
     1
102
RTVSPost2010Prop45
280
     0
102
RTVSPost2010PropOp45
 70
     1
102
RTVSPost2010Prop46
 90
       50
102
RTVSPost2010PropOp46
 70
     1
102
RTVSPost2010Prop47
 90
       50
102
RTVSPost2010PropOp47
 70
     1
102
RTVSPost2010Prop48
 90
       50
102
RTVSPost2010PropOp48
 70
     1
102
RTVSPost2010Prop49
280
     0
102
RTVSPost2010PropOp49
 70
     1
102
RTVSPost2010Prop50
 90
       50
102
RTVSPost2010PropOp50
 70
     1
102
RTVSPost2010Prop51ColorIndex
 90
      256
102
RTVSPost2010Prop51ColorRGB
 90
-16777216
102
RTVSPost2010PropOp51
 70
     0
102
RTVSPost2010Prop52
140
1.0
102
RTVSPost2010PropOp52
 70
     0
102
RTVSPost2010Prop53
 90
        2
102
RTVSPost2010PropOp53
 70
     1
102
RTVSPost2010Prop54
  1
strokes_ogs.tif
102
RTVSPost2010PropOp54
 70
     1
102
RTVSPost2010Prop55
280
     0
102
RTVSPost2010PropOp55
 70
     1
102
RTVSPost2010Prop56
140
1.0
102
RTVSPost2010PropOp56
 70
     1
102
RTVSPost2010Prop57
140
1.0
102
RTVSPost2010PropOp57
 70
     1
  0
XRECORD
  5
12E7
102
{ACAD_REACTORS
330
12E6
102
}
330
12E6
100
AcDbXrecord
280
     1
102
RTVSPost2010Prop28
280
     0
102
RTVSPost2010PropOp28
 70
     1
102
RTVSPost2010Prop29
280
     1
102
RTVSPost2010PropOp29
 70
     1
102
RTVSPost2010Prop30
280
     1
102
RTVSPost2010PropOp30
 70
     1
102
RTVSPost2010Prop31
280
     0
102
RTVSPost2010PropOp31
 70
     1
102
RTVSPost2010Prop32
280
     0
102
RTVSPost2010PropOp32
 70
     1
102
RTVSPost2010Prop33
280
     0
102
RTVSPost2010PropOp33
 70
     1
102
RTVSPost2010Prop34
280
     0
102
RTVSPost2010PropOp34
 70
     1
102
RTVSPost2010Prop35
280
     0
102
RTVSPost2010PropOp35
 70
     1
102
RTVSPost2010Prop36
280
     0
102
RTVSPost2010PropOp36
 70
     1
102
RTVSPost2010Prop37
 90
       50
102
RTVSPost2010PropOp37
 70
     1
102
RTVSPost2010Prop38
140
0.0
102
RTVSPost2010PropOp38
 70
     1
102
RTVSPost2010Prop39
140
1.0
102
RTVSPost2010PropOp39
 70
     1
102
RTVSPost2010Prop40
 90
        0
102
RTVSPost2010PropOp40
 70
     1
102
RTVSPost2010Prop41ColorIndex
 90
       18
102
RTVSPost2010Prop41ColorRGB
 90
        0
102
RTVSPost2010PropOp41
 70
     1
102
RTVSPost2010Prop42
 90
       50
102
RTVSPost2010PropOp42
 70
     1
102
RTVSPost2010Prop43
 90
        3
102
RTVSPost2010PropOp43
 70
     1
102
RTVSPost2010Prop44ColorIndex
 90
        5
102
RTVSPost2010Prop44ColorRGB
 90
      255
102
RTVSPost2010PropOp44
 70
     1
102
RTVSPost2010Prop45
280
     0
102
RTVSPost2010PropOp45
 70
     1
102
RTVSPost2010Prop46
 90
       50
102
RTVSPost2010PropOp46
 70
     1
102
RTVSPost2010Prop47
 90
       50
102
RTVSPost2010PropOp47
 70
     1
102
RTVSPost2010Prop48
 90
       50
102
RTVSPost2010PropOp48
 70
     1
102
RTVSPost2010Prop49
280
     0
102
RTVSPost2010PropOp49
 70
     1
102
RTVSPost2010Prop50
 90
       50
102
RTVSPost2010PropOp50
 70
     1
102
RTVSPost2010Prop51ColorIndex
 90
      256
102
RTVSPost2010Prop51ColorRGB
 90
-16777216
102
RTVSPost2010PropOp51
 70
     0
102
RTVSPost2010Prop52
140
1.0
102
RTVSPost2010PropOp52
 70
     0
102
RTVSPost2010Prop53
 90
        2
102
RTVSPost2010PropOp53
 70
     1
102
RTVSPost2010Prop54
  1
strokes_ogs.tif
102
RTVSPost2010PropOp54
 70
     1
102
RTVSPost2010Prop55
280
     0
102
RTVSPost2010PropOp55
 70
     1
102
RTVSPost2010Prop56
140
1.0
102
RTVSPost2010PropOp56
 70
     1
102
RTVSPost2010Prop57
140
1.0
102
RTVSPost2010PropOp57
 70
     1
  0
XRECORD
  5
12D7
102
{ACAD_REACTORS
330
12D6
102
}
330
12D6
100
AcDbXrecord
280
     1
102
RTVSPost2010Prop28
280
     0
102
RTVSPost2010PropOp28
 70
     1
102
RTVSPost2010Prop29
280
     1
102
RTVSPost2010PropOp29
 70
     1
102
RTVSPost2010Prop30
280
     1
102
RTVSPost2010PropOp30
 70
     1
102
RTVSPost2010Prop31
280
     0
102
RTVSPost2010PropOp31
 70
     1
102
RTVSPost2010Prop32
280
     0
102
RTVSPost2010PropOp32
 70
     1
102
RTVSPost2010Prop33
280
     0
102
RTVSPost2010PropOp33
 70
     1
102
RTVSPost2010Prop34
280
     0
102
RTVSPost2010PropOp34
 70
     1
102
RTVSPost2010Prop35
280
     0
102
RTVSPost2010PropOp35
 70
     1
102
RTVSPost2010Prop36
280
     0
102
RTVSPost2010PropOp36
 70
     1
102
RTVSPost2010Prop37
 90
       50
102
RTVSPost2010PropOp37
 70
     1
102
RTVSPost2010Prop38
140
0.0
102
RTVSPost2010PropOp38
 70
     1
102
RTVSPost2010Prop39
140
1.0
102
RTVSPost2010PropOp39
 70
     1
102
RTVSPost2010Prop40
 90
        0
102
RTVSPost2010PropOp40
 70
     1
102
RTVSPost2010Prop41ColorIndex
 90
       18
102
RTVSPost2010Prop41ColorRGB
 90
        0
102
RTVSPost2010PropOp41
 70
     1
102
RTVSPost2010Prop42
 90
       50
102
RTVSPost2010PropOp42
 70
     1
102
RTVSPost2010Prop43
 90
        3
102
RTVSPost2010PropOp43
 70
     1
102
RTVSPost2010Prop44ColorIndex
 90
        5
102
RTVSPost2010Prop44ColorRGB
 90
      255
102
RTVSPost2010PropOp44
 70
     1
102
RTVSPost2010Prop45
280
     0
102
RTVSPost2010PropOp45
 70
     1
102
RTVSPost2010Prop46
 90
       50
102
RTVSPost2010PropOp46
 70
     1
102
RTVSPost2010Prop47
 90
       50
102
RTVSPost2010PropOp47
 70
     1
102
RTVSPost2010Prop48
 90
       50
102
RTVSPost2010PropOp48
 70
     1
102
RTVSPost2010Prop49
280
     0
102
RTVSPost2010PropOp49
 70
     1
102
RTVSPost2010Prop50
 90
       50
102
RTVSPost2010PropOp50
 70
     1
102
RTVSPost2010Prop51ColorIndex
 90
      256
102
RTVSPost2010Prop51ColorRGB
 90
-16777216
102
RTVSPost2010PropOp51
 70
     0
102
RTVSPost2010Prop52
140
1.0
102
RTVSPost2010PropOp52
 70
     0
102
RTVSPost2010Prop53
 90
        2
102
RTVSPost2010PropOp53
 70
     1
102
RTVSPost2010Prop54
  1
strokes_ogs.tif
102
RTVSPost2010PropOp54
 70
     1
102
RTVSPost2010Prop55
280
     0
102
RTVSPost2010PropOp55
 70
     1
102
RTVSPost2010Prop56
140
1.0
102
RTVSPost2010PropOp56
 70
     1
102
RTVSPost2010Prop57
140
1.0
102
RTVSPost2010PropOp57
 70
     1
  0
XRECORD
  5
12C9
102
{ACAD_REACTORS
330
12C8
102
}
330
12C8
100
AcDbXrecord
280
     1
102
RTVSPost2010Prop28
280
     0
102
RTVSPost2010PropOp28
 70
     1
102
RTVSPost2010Prop29
280
     1
102
RTVSPost2010PropOp29
 70
     1
102
RTVSPost2010Prop30
280
     1
102
RTVSPost2010PropOp30
 70
     1
102
RTVSPost2010Prop31
280
     0
102
RTVSPost2010PropOp31
 70
     1
102
RTVSPost2010Prop32
280
     0
102
RTVSPost2010PropOp32
 70
     1
102
RTVSPost2010Prop33
280
     0
102
RTVSPost2010PropOp33
 70
     1
102
RTVSPost2010Prop34
280
     0
102
RTVSPost2010PropOp34
 70
     1
102
RTVSPost2010Prop35
280
     0
102
RTVSPost2010PropOp35
 70
     1
102
RTVSPost2010Prop36
280
     0
102
RTVSPost2010PropOp36
 70
     1
102
RTVSPost2010Prop37
 90
       50
102
RTVSPost2010PropOp37
 70
     1
102
RTVSPost2010Prop38
140
0.0
102
RTVSPost2010PropOp38
 70
     1
102
RTVSPost2010Prop39
140
1.0
102
RTVSPost2010PropOp39
 70
     1
102
RTVSPost2010Prop40
 90
        0
102
RTVSPost2010PropOp40
 70
     1
102
RTVSPost2010Prop41ColorIndex
 90
       18
102
RTVSPost2010Prop41ColorRGB
 90
        0
102
RTVSPost2010PropOp41
 70
     1
102
RTVSPost2010Prop42
 90
       50
102
RTVSPost2010PropOp42
 70
     1
102
RTVSPost2010Prop43
 90
        3
102
RTVSPost2010PropOp43
 70
     1
102
RTVSPost2010Prop44ColorIndex
 90
        5
102
RTVSPost2010Prop44ColorRGB
 90
      255
102
RTVSPost2010PropOp44
 70
     1
102
RTVSPost2010Prop45
280
     0
102
RTVSPost2010PropOp45
 70
     1
102
RTVSPost2010Prop46
 90
       50
102
RTVSPost2010PropOp46
 70
     1
102
RTVSPost2010Prop47
 90
       50
102
RTVSPost2010PropOp47
 70
     1
102
RTVSPost2010Prop48
 90
       50
102
RTVSPost2010PropOp48
 70
     1
102
RTVSPost2010Prop49
280
     0
102
RTVSPost2010PropOp49
 70
     1
102
RTVSPost2010Prop50
 90
       50
102
RTVSPost2010PropOp50
 70
     1
102
RTVSPost2010Prop51ColorIndex
 90
      256
102
RTVSPost2010Prop51ColorRGB
 90
-16777216
102
RTVSPost2010PropOp51
 70
     0
102
RTVSPost2010Prop52
140
1.0
102
RTVSPost2010PropOp52
 70
     0
102
RTVSPost2010Prop53
 90
        2
102
RTVSPost2010PropOp53
 70
     1
102
RTVSPost2010Prop54
  1
strokes_ogs.tif
102
RTVSPost2010PropOp54
 70
     1
102
RTVSPost2010Prop55
280
     0
102
RTVSPost2010PropOp55
 70
     1
102
RTVSPost2010Prop56
140
1.0
102
RTVSPost2010PropOp56
 70
     1
102
RTVSPost2010Prop57
140
1.0
102
RTVSPost2010PropOp57
 70
     1
  0
XRECORD
  5
12E9
102
{ACAD_REACTORS
330
12E8
102
}
330
12E8
100
AcDbXrecord
280
     1
102
RTVSPost2010Prop28
280
     0
102
RTVSPost2010PropOp28
 70
     1
102
RTVSPost2010Prop29
280
     1
102
RTVSPost2010PropOp29
 70
     1
102
RTVSPost2010Prop30
280
     1
102
RTVSPost2010PropOp30
 70
     1
102
RTVSPost2010Prop31
280
     0
102
RTVSPost2010PropOp31
 70
     1
102
RTVSPost2010Prop32
280
     0
102
RTVSPost2010PropOp32
 70
     1
102
RTVSPost2010Prop33
280
     0
102
RTVSPost2010PropOp33
 70
     1
102
RTVSPost2010Prop34
280
     0
102
RTVSPost2010PropOp34
 70
     1
102
RTVSPost2010Prop35
280
     0
102
RTVSPost2010PropOp35
 70
     1
102
RTVSPost2010Prop36
280
     0
102
RTVSPost2010PropOp36
 70
     1
102
RTVSPost2010Prop37
 90
       50
102
RTVSPost2010PropOp37
 70
     1
102
RTVSPost2010Prop38
140
0.0
102
RTVSPost2010PropOp38
 70
     1
102
RTVSPost2010Prop39
140
1.0
102
RTVSPost2010PropOp39
 70
     1
102
RTVSPost2010Prop40
 90
        0
102
RTVSPost2010PropOp40
 70
     1
102
RTVSPost2010Prop41ColorIndex
 90
       18
102
RTVSPost2010Prop41ColorRGB
 90
        0
102
RTVSPost2010PropOp41
 70
     1
102
RTVSPost2010Prop42
 90
       50
102
RTVSPost2010PropOp42
 70
     1
102
RTVSPost2010Prop43
 90
        3
102
RTVSPost2010PropOp43
 70
     1
102
RTVSPost2010Prop44ColorIndex
 90
        5
102
RTVSPost2010Prop44ColorRGB
 90
      255
102
RTVSPost2010PropOp44
 70
     1
102
RTVSPost2010Prop45
280
     0
102
RTVSPost2010PropOp45
 70
     1
102
RTVSPost2010Prop46
 90
       50
102
RTVSPost2010PropOp46
 70
     1
102
RTVSPost2010Prop47
 90
       50
102
RTVSPost2010PropOp47
 70
     1
102
RTVSPost2010Prop48
 90
       50
102
RTVSPost2010PropOp48
 70
     1
102
RTVSPost2010Prop49
280
     0
102
RTVSPost2010PropOp49
 70
     1
102
RTVSPost2010Prop50
 90
       50
102
RTVSPost2010PropOp50
 70
     1
102
RTVSPost2010Prop51ColorIndex
 90
      256
102
RTVSPost2010Prop51ColorRGB
 90
-16777216
102
RTVSPost2010PropOp51
 70
     0
102
RTVSPost2010Prop52
140
1.0
102
RTVSPost2010PropOp52
 70
     0
102
RTVSPost2010Prop53
 90
        2
102
RTVSPost2010PropOp53
 70
     1
102
RTVSPost2010Prop54
  1
strokes_ogs.tif
102
RTVSPost2010PropOp54
 70
     1
102
RTVSPost2010Prop55
280
     0
102
RTVSPost2010PropOp55
 70
     1
102
RTVSPost2010Prop56
140
1.0
102
RTVSPost2010PropOp56
 70
     1
102
RTVSPost2010Prop57
140
1.0
102
RTVSPost2010PropOp57
 70
     1
  0
ENDSEC
  0
EOF
