  0
SECTION
  2
HEADER
  9
$ACADVER
  1
AC1024
  9
$ACADMAINTVER
 70
     6
  9
$DWGCODEPAGE
  3
ANSI_1252
  9
$INSBASE
 10
0.0
 20
0.0
 30
0.0
  9
$EXTMIN
 10
78903.88039334115
 20
23949.79575988092
 30
0.0
  9
$EXTMAX
 10
79073.29391992991
 20
24110.20156964325
 30
0.0
  9
$LIMMIN
 10
0.0
 20
0.0
  9
$LIMMAX
 10
420.0
 20
297.0
  9
$ORTHOMODE
 70
     1
  9
$REGENMODE
 70
     1
  9
$FILLMODE
 70
     1
  9
$QTEXTMODE
 70
     0
  9
$MIRRTEXT
 70
     1
  9
$LTSCALE
 40
1.0
  9
$ATTMODE
 70
     1
  9
$TEXTSIZE
 40
1.0
  9
$TRACEWID
 40
1.0
  9
$TEXTSTYLE
  7
STYLE1
  9
$CLAYER
  8
0
  9
$CELTYPE
  6
ByLayer
  9
$CECOLOR
 62
     1
  9
$CELTSCALE
 40
1.0
  9
$DISPSILH
 70
     0
  9
$DIMSCALE
 40
1.0
  9
$DIMASZ
 40
2.5
  9
$DIMEXO
 40
0.625
  9
$DIMDLI
 40
3.75
  9
$DIMRND
 40
0.0
  9
$DIMDLE
 40
0.0
  9
$DIMEXE
 40
1.25
  9
$DIMTP
 40
0.0
  9
$DIMTM
 40
0.0
  9
$DIMTXT
 40
2.5
  9
$DIMCEN
 40
2.5
  9
$DIMTSZ
 40
0.0
  9
$DIMTOL
 70
     0
  9
$DIMLIM
 70
     0
  9
$DIMTIH
 70
     0
  9
$DIMTOH
 70
     0
  9
$DIMSE1
 70
     0
  9
$DIMSE2
 70
     0
  9
$DIMTAD
 70
     1
  9
$DIMZIN
 70
     8
  9
$DIMBLK
  1

  9
$DIMASO
 70
     1
  9
$DIMSHO
 70
     1
  9
$DIMPOST
  1

  9
$DIMAPOST
  1

  9
$DIMALT
 70
     0
  9
$DIMALTD
 70
     3
  9
$DIMALTF
 40
0.03937007874016
  9
$DIMLFAC
 40
1.0
  9
$DIMTOFL
 70
     1
  9
$DIMTVP
 40
0.0
  9
$DIMTIX
 70
     0
  9
$DIMSOXD
 70
     0
  9
$DIMSAH
 70
     0
  9
$DIMBLK1
  1

  9
$DIMBLK2
  1

  9
$DIMSTYLE
  2
ISO-25
  9
$DIMCLRD
 70
     0
  9
$DIMCLRE
 70
     0
  9
$DIMCLRT
 70
     0
  9
$DIMTFAC
 40
1.0
  9
$DIMGAP
 40
0.625
  9
$DIMJUST
 70
     0
  9
$DIMSD1
 70
     0
  9
$DIMSD2
 70
     0
  9
$DIMTOLJ
 70
     0
  9
$DIMTZIN
 70
     8
  9
$DIMALTZ
 70
     0
  9
$DIMALTTZ
 70
     0
  9
$DIMUPT
 70
     0
  9
$DIMDEC
 70
     2
  9
$DIMTDEC
 70
     2
  9
$DIMALTU
 70
     2
  9
$DIMALTTD
 70
     3
  9
$DIMTXSTY
  7
Standard
  9
$DIMAUNIT
 70
     0
  9
$DIMADEC
 70
     0
  9
$DIMALTRND
 40
0.0
  9
$DIMAZIN
 70
     0
  9
$DIMDSEP
 70
    44
  9
$DIMATFIT
 70
     3
  9
$DIMFRAC
 70
     0
  9
$DIMLDRBLK
  1

  9
$DIMLUNIT
 70
     2
  9
$DIMLWD
 70
    -2
  9
$DIMLWE
 70
    -2
  9
$DIMTMOVE
 70
     0
  9
$DIMFXL
 40
1.0
  9
$DIMFXLON
 70
     0
  9
$DIMJOGANG
 40
0.7853981633974483
  9
$DIMTFILL
 70
     0
  9
$DIMTFILLCLR
 70
     0
  9
$DIMARCSYM
 70
     0
  9
$DIMLTYPE
  6

  9
$DIMLTEX1
  6

  9
$DIMLTEX2
  6

  9
$DIMTXTDIRECTION
 70
     0
  9
$LUNITS
 70
     2
  9
$LUPREC
 70
     4
  9
$SKETCHINC
 40
1.0
  9
$FILLETRAD
 40
10.0
  9
$AUNITS
 70
     0
  9
$AUPREC
 70
     0
  9
$MENU
  1
.
  9
$ELEVATION
 40
0.0
  9
$PELEVATION
 40
0.0
  9
$THICKNESS
 40
0.0
  9
$LIMCHECK
 70
     0
  9
$CHAMFERA
 40
10.0
  9
$CHAMFERB
 40
10.0
  9
$CHAMFERC
 40
20.0
  9
$CHAMFERD
 40
0.0
  9
$SKPOLY
 70
     0
  9
$TDCREATE
 40
2451697.436424306
  9
$TDUCREATE
 40
2451697.436424306
  9
$TDUPDATE
 40
2457765.649270128
  9
$TDUUPDATE
 40
2457765.649270128
  9
$TDINDWG
 40
0.0127916667
  9
$TDUSRTIMER
 40
0.012791088
  9
$USRTIMER
 70
     1
  9
$ANGBASE
 50
0.0
  9
$ANGDIR
 70
     0
  9
$PDMODE
 70
    34
  9
$PDSIZE
 40
0.05
  9
$PLINEWID
 40
0.0
  9
$SPLFRAME
 70
     0
  9
$SPLINETYPE
 70
     6
  9
$SPLINESEGS
 70
     8
  9
$HANDSEED
  5
36B
  9
$SURFTAB1
 70
     6
  9
$SURFTAB2
 70
     6
  9
$SURFTYPE
 70
     6
  9
$SURFU
 70
     6
  9
$SURFV
 70
     6
  9
$UCSBASE
  2

  9
$UCSNAME
  2

  9
$UCSORG
 10
0.0
 20
0.0
 30
0.0
  9
$UCSXDIR
 10
1.0
 20
0.0
 30
0.0
  9
$UCSYDIR
 10
0.0
 20
1.0
 30
0.0
  9
$UCSORTHOREF
  2

  9
$UCSORTHOVIEW
 70
     0
  9
$UCSORGTOP
 10
0.0
 20
0.0
 30
0.0
  9
$UCSORGBOTTOM
 10
0.0
 20
0.0
 30
0.0
  9
$UCSORGLEFT
 10
0.0
 20
0.0
 30
0.0
  9
$UCSORGRIGHT
 10
0.0
 20
0.0
 30
0.0
  9
$UCSORGFRONT
 10
0.0
 20
0.0
 30
0.0
  9
$UCSORGBACK
 10
0.0
 20
0.0
 30
0.0
  9
$PUCSBASE
  2

  9
$PUCSNAME
  2

  9
$PUCSORG
 10
0.0
 20
0.0
 30
0.0
  9
$PUCSXDIR
 10
1.0
 20
0.0
 30
0.0
  9
$PUCSYDIR
 10
0.0
 20
1.0
 30
0.0
  9
$PUCSORTHOREF
  2

  9
$PUCSORTHOVIEW
 70
     0
  9
$PUCSORGTOP
 10
0.0
 20
0.0
 30
0.0
  9
$PUCSORGBOTTOM
 10
0.0
 20
0.0
 30
0.0
  9
$PUCSORGLEFT
 10
0.0
 20
0.0
 30
0.0
  9
$PUCSORGRIGHT
 10
0.0
 20
0.0
 30
0.0
  9
$PUCSORGFRONT
 10
0.0
 20
0.0
 30
0.0
  9
$PUCSORGBACK
 10
0.0
 20
0.0
 30
0.0
  9
$USERI1
 70
     0
  9
$USERI2
 70
     0
  9
$USERI3
 70
     0
  9
$USERI4
 70
     0
  9
$USERI5
 70
     0
  9
$USERR1
 40
0.0
  9
$USERR2
 40
0.0
  9
$USERR3
 40
0.0
  9
$USERR4
 40
0.0
  9
$USERR5
 40
0.0
  9
$WORLDVIEW
 70
     1
  9
$SHADEDGE
 70
     3
  9
$SHADEDIF
 70
    70
  9
$TILEMODE
 70
     1
  9
$MAXACTVP
 70
    48
  9
$PINSBASE
 10
0.0
 20
0.0
 30
0.0
  9
$PLIMCHECK
 70
     0
  9
$PEXTMIN
 10
1.000000000000000E+20
 20
1.000000000000000E+20
 30
1.000000000000000E+20
  9
$PEXTMAX
 10
-1.000000000000000E+20
 20
-1.000000000000000E+20
 30
-1.000000000000000E+20
  9
$PLIMMIN
 10
0.0
 20
0.0
  9
$PLIMMAX
 10
420.0
 20
297.0
  9
$UNITMODE
 70
     0
  9
$VISRETAIN
 70
     1
  9
$PLINEGEN
 70
     0
  9
$PSLTSCALE
 70
     1
  9
$TREEDEPTH
 70
  3020
  9
$CMLSTYLE
  2
Standard
  9
$CMLJUST
 70
     0
  9
$CMLSCALE
 40
20.0
  9
$PROXYGRAPHICS
 70
     1
  9
$MEASUREMENT
 70
     1
  9
$CELWEIGHT
370
    -1
  9
$ENDCAPS
280
     0
  9
$JOINSTYLE
280
     0
  9
$LWDISPLAY
290
     0
  9
$INSUNITS
 70
     4
  9
$HYPERLINKBASE
  1

  9
$STYLESHEET
  1

  9
$XEDIT
290
     1
  9
$CEPSNTYPE
380
     0
  9
$PSTYLEMODE
290
     1
  9
$FINGERPRINTGUID
  2
{FDEAD578-A652-11D2-9A35-0060089B3A3F}
  9
$VERSIONGUID
  2
{5D0287C1-37A7-11D4-A668-00A0CC60CA30}
  9
$EXTNAMES
290
     1
  9
$PSVPSCALE
 40
0.0
  9
$OLESTARTUP
290
     0
  9
$SORTENTS
280
   127
  9
$INDEXCTL
280
     0
  9
$HIDETEXT
280
     1
  9
$XCLIPFRAME
280
     2
  9
$HALOGAP
280
     0
  9
$OBSCOLOR
 70
   257
  9
$OBSLTYPE
280
     0
  9
$INTERSECTIONDISPLAY
280
     0
  9
$INTERSECTIONCOLOR
 70
   257
  9
$DIMASSOC
280
     2
  9
$PROJECTNAME
  1

  9
$CAMERADISPLAY
290
     0
  9
$LENSLENGTH
 40
50.0
  9
$CAMERAHEIGHT
 40
0.0
  9
$STEPSPERSEC
 40
2.0
  9
$STEPSIZE
 40
6.0
  9
$3DDWFPREC
 40
2.0
  9
$PSOLWIDTH
 40
0.25
  9
$PSOLHEIGHT
 40
4.0
  9
$LOFTANG1
 40
1.570796326794897
  9
$LOFTANG2
 40
1.570796326794897
  9
$LOFTMAG1
 40
0.0
  9
$LOFTMAG2
 40
0.0
  9
$LOFTPARAM
 70
     7
  9
$LOFTNORMALS
280
     1
  9
$LATITUDE
 40
37.795
  9
$LONGITUDE
 40
-122.394
  9
$NORTHDIRECTION
 40
0.0
  9
$TIMEZONE
 70
 -8000
  9
$LIGHTGLYPHDISPLAY
280
     1
  9
$TILEMODELIGHTSYNCH
280
     1
  9
$SOLIDHIST
280
     1
  9
$SHOWHIST
280
     1
  9
$DWFFRAME
280
     2
  9
$DGNFRAME
280
     2
  9
$REALWORLDSCALE
290
     1
  9
$INTERFERECOLOR
 62
   256
  9
$CSHADOW
280
     0
  9
$SHADOWPLANELOCATION
 40
0.0
  0
ENDSEC
  0
SECTION
  2
CLASSES
  0
CLASS
  1
ACDBDICTIONARYWDFLT
  2
AcDbDictionaryWithDefault
  3
ObjectDBX Classes
 90
        0
 91
        4
280
     0
281
     0
  0
CLASS
  1
ACDBPLACEHOLDER
  2
AcDbPlaceHolder
  3
ObjectDBX Classes
 90
        0
 91
        1
280
     0
281
     0
  0
CLASS
  1
LAYOUT
  2
AcDbLayout
  3
ObjectDBX Classes
 90
        0
 91
        1
280
     0
281
     0
  0
CLASS
  1
IRD_DSC_DICT
  2
CIrdDscDict
  3
"IRD"
 90
        1
 91
        2
280
     1
281
     0
  0
CLASS
  1
IRD_DSC_RECORD
  2
CIrdDscRecord
  3
"IRD"
 90
        1
 91
       11
280
     1
281
     0
  0
CLASS
  1
IRD_OBJ_RECORD
  2
CIrdObjRecord
  3
"IRD"
 90
        1
 91
       43
280
     1
281
     0
  0
CLASS
  1
ADEPREVIEW
  2
CAdePreview
  3
ADE_ARX
 90
        0
 91
        1
280
     1
281
     1
  0
CLASS
  1
LONG_TRANSACTION
  2
AcDbLongTransaction
  3
ObjectDBX Classes
 90
        0
 91
        1
280
     0
281
     0
  0
CLASS
  1
LWPOLYLINE
  2
AcDbPolyline
  3
ObjectDBX Classes
 90
        0
 91
        1
280
     0
281
     1
  0
CLASS
  1
HATCH
  2
AcDbHatch
  3
ObjectDBX Classes
 90
        0
 91
        1
280
     0
281
     1
  0
CLASS
  1
XRECORD
  2
AcDbXrecord
  3
ObjectDBX Classes
 90
        0
 91
        1
280
     0
281
     0
  0
CLASS
  1
LONG_TRANSACTION
  2
AcDbLongTransaction
  3
ObjectDBX Classes
 90
        0
 91
        1
280
     0
281
     0
  0
CLASS
  1
LWPOLYLINE
  2
AcDbPolyline
  3
ObjectDBX Classes
 90
        0
 91
        1
280
     0
281
     1
  0
CLASS
  1
HATCH
  2
AcDbHatch
  3
ObjectDBX Classes
 90
        0
 91
        1
280
     0
281
     1
  0
CLASS
  1
XRECORD
  2
AcDbXrecord
  3
ObjectDBX Classes
 90
        0
 91
        1
280
     0
281
     0
  0
CLASS
  1
VISUALSTYLE
  2
AcDbVisualStyle
  3
ObjectDBX Classes
 90
     4095
 91
        4
280
     0
281
     0
  0
CLASS
  1
SCALE
  2
AcDbScale
  3
ObjectDBX Classes
 90
     1153
 91
        4
280
     0
281
     0
  0
CLASS
  1
MATERIAL
  2
AcDbMaterial
  3
ObjectDBX Classes
 90
     1153
 91
        4
280
     0
281
     0
  0
CLASS
  1
DICTIONARYVAR
  2
AcDbDictionaryVar
  3
ObjectDBX Classes
 90
        0
 91
        4
280
     0
281
     0
  0
ENDSEC
  0
SECTION
  2
TABLES
  0
TABLE
  2
VPORT
  5
8
330
0
100
AcDbSymbolTable
 70
     3
  0
VPORT
  5
2F4
330
8
100
AcDbSymbolTableRecord
100
AcDbViewportTableRecord
  2
*ACTIVE
 70
     0
 10
0.0
 20
0.0
 11
1.0
 21
1.0
 12
78981.61893918984
 22
24020.47770426494
 13
0.0
 23
0.0
 14
10.0
 24
10.0
 15
10.0
 25
10.0
 16
0.0
 26
0.0
 36
1.0
 17
0.0
 27
0.0
 37
0.0
 40
248.0001056662004
 41
1.2734375
 42
50.0
 43
0.0
 44
0.0
 50
0.0
 51
0.0
 71
     0
 72
   100
 73
     1
 74
     3
 75
     0
 76
     0
 77
     0
 78
     0
281
     0
 65
     1
110
0.0
120
0.0
130
0.0
111
1.0
121
0.0
131
0.0
112
0.0
122
1.0
132
0.0
 79
     0
146
0.0
348
2FA
 60
     3
 61
     5
292
     1
282
     1
141
0.0
142
0.0
 63
   256
  0
ENDTAB
  0
TABLE
  2
LTYPE
  5
5
330
0
100
AcDbSymbolTable
 70
     5
  0
LTYPE
  5
14
330
5
100
AcDbSymbolTableRecord
100
AcDbLinetypeTableRecord
  2
ByBlock
 70
     0
  3

 72
    65
 73
     0
 40
0.0
  0
LTYPE
  5
15
330
5
100
AcDbSymbolTableRecord
100
AcDbLinetypeTableRecord
  2
ByLayer
 70
     0
  3

 72
    65
 73
     0
 40
0.0
  0
LTYPE
  5
16
330
5
100
AcDbSymbolTableRecord
100
AcDbLinetypeTableRecord
  2
Continuous
 70
     0
  3
Solid line
 72
    65
 73
     0
 40
0.0
  0
LTYPE
  5
4B
330
5
100
AcDbSymbolTableRecord
100
AcDbLinetypeTableRecord
  2
DASHDOT
 70
     0
  3
Dash dot __ . __ . __ . __ . __ . __ . __ . __
 72
    65
 73
     4
 40
25.4
 49
12.7
 74
     0
 49
-6.35
 74
     0
 49
0.0
 74
     0
 49
-6.35
 74
     0
  0
LTYPE
  5
C4
330
5
100
AcDbSymbolTableRecord
100
AcDbLinetypeTableRecord
  2
DASHED
 70
     0
  3
Dashed __ __ __ __ __ __ __ __ __ __ __ __ __ _
 72
    65
 73
     2
 40
0.75
 49
0.5
 74
     0
 49
-0.25
 74
     0
  0
LTYPE
  5
1C9
330
5
100
AcDbSymbolTableRecord
100
AcDbLinetypeTableRecord
  2
DIVIDE
 70
     0
  3
Divide ____ . . ____ . . ____ . . ____ . . ____
 72
    65
 73
     6
 40
1.25
 49
0.5
 74
     0
 49
-0.25
 74
     0
 49
0.0
 74
     0
 49
-0.25
 74
     0
 49
0.0
 74
     0
 49
-0.25
 74
     0
  0
LTYPE
  5
1CA
330
5
100
AcDbSymbolTableRecord
100
AcDbLinetypeTableRecord
  2
ACAD_ISO03W100
 70
     0
  3
ISO dash space __    __    __    __    __    __
 72
    65
 73
     2
 40
30.0
 49
12.0
 74
     0
 49
-18.0
 74
     0
  0
ENDTAB
  0
TABLE
  2
LAYER
  5
2
330
0
100
AcDbSymbolTable
 70
     9
  0
LAYER
  5
10
330
2
100
AcDbSymbolTableRecord
100
AcDbLayerTableRecord
  2
0
 70
     0
 62
     7
  6
Continuous
370
    -3
390
F
347
333
  0
LAYER
  5
4C
330
2
100
AcDbSymbolTableRecord
100
AcDbLayerTableRecord
  2
0X-ARCHAEOLOGY
 70
     0
 62
     7
  6
Continuous
370
    -3
390
F
347
333
  0
LAYER
  5
4D
330
2
100
AcDbSymbolTableRecord
100
AcDbLayerTableRecord
  2
0X-SECTIONS
 70
     0
 62
     4
  6
Continuous
370
    -3
390
F
347
333
  0
LAYER
  5
4E
330
2
100
AcDbSymbolTableRecord
100
AcDbLayerTableRecord
  2
0X-HACHURES
 70
     0
 62
     5
  6
Continuous
370
    -3
390
F
347
333
  0
LAYER
  5
4F
330
2
100
AcDbSymbolTableRecord
100
AcDbLayerTableRecord
  2
0X-LIMITEXCAVATION
 70
     0
 62
     7
  6
DASHDOT
370
    -3
390
F
347
333
  0
LAYER
  5
1CB
330
2
100
AcDbSymbolTableRecord
100
AcDbLayerTableRecord
  2
ARCH-TEXT
 70
     0
 62
     7
  6
Continuous
370
    -3
390
F
347
333
  0
LAYER
  5
1CC
330
2
100
AcDbSymbolTableRecord
100
AcDbLayerTableRecord
  2
1-FENCES
 70
     0
 62
     7
  6
Continuous
370
    -3
390
F
347
333
  0
LAYER
  5
1CD
330
2
100
AcDbSymbolTableRecord
100
AcDbLayerTableRecord
  2
ARCHAEOLOGICAL-SYMBOLS
 70
     0
 62
     7
  6
Continuous
370
    -3
390
F
347
333
  0
LAYER
  5
1CE
330
2
100
AcDbSymbolTableRecord
100
AcDbLayerTableRecord
  2
ARCH-LEGEND
 70
     0
 62
     7
  6
Continuous
370
    -3
390
F
347
333
  0
ENDTAB
  0
TABLE
  2
STYLE
  5
3
330
0
100
AcDbSymbolTable
 70
     2
  0
STYLE
  5
11
330
3
100
AcDbSymbolTableRecord
100
AcDbTextStyleTableRecord
  2
Standard
 70
     0
 40
0.0
 41
1.0
 50
0.0
 71
     0
 42
2.5
  3
txt
  4

  0
STYLE
  5
1CF
330
3
100
AcDbSymbolTableRecord
100
AcDbTextStyleTableRecord
  2
STYLE1
 70
     0
 40
1.0
 41
1.0
 50
0.0
 71
     0
 42
1.0
  3
ARIAL.TTF
  4

1001
ACAD
1000
Arial
1071
       34
  0
ENDTAB
  0
TABLE
  2
VIEW
  5
6
330
0
100
AcDbSymbolTable
 70
     0
  0
ENDTAB
  0
TABLE
  2
UCS
  5
7
330
0
100
AcDbSymbolTable
 70
     0
  0
ENDTAB
  0
TABLE
  2
APPID
  5
9
330
0
100
AcDbSymbolTable
 70
     3
  0
APPID
  5
12
330
9
100
AcDbSymbolTableRecord
100
AcDbRegAppTableRecord
  2
ACAD
 70
     0
  0
APPID
  5
40
330
9
100
AcDbSymbolTableRecord
100
AcDbRegAppTableRecord
  2
IRD
 70
     0
  0
APPID
  5
C6
330
9
100
AcDbSymbolTableRecord
100
AcDbRegAppTableRecord
  2
ADE
 70
     0
  0
ENDTAB
  0
TABLE
  2
DIMSTYLE
  5
A
330
0
100
AcDbSymbolTable
 70
     2
100
AcDbDimStyleTable
  0
DIMSTYLE
105
27
330
A
100
AcDbSymbolTableRecord
100
AcDbDimStyleTableRecord
  2
ISO-25
 70
     0
 41
2.5
 42
0.625
 43
3.75
 44
1.25
 73
     0
 74
     0
 77
     1
 78
     8
140
2.5
141
2.5
143
0.03937007874016
147
0.625
171
     3
172
     1
178
     0
271
     2
272
     2
274
     3
278
    44
283
     0
284
     8
340
11
  0
DIMSTYLE
105
50
330
A
100
AcDbSymbolTableRecord
100
AcDbDimStyleTableRecord
  2
STANDARD
 70
     0
178
     0
340
11
  0
ENDTAB
  0
TABLE
  2
BLOCK_RECORD
  5
1
330
0
100
AcDbSymbolTable
 70
     2
  0
BLOCK_RECORD
  5
1F
330
1
100
AcDbSymbolTableRecord
100
AcDbBlockTableRecord
  2
*Model_Space
340
22
 70
     0
280
     1
281
     0
  0
BLOCK_RECORD
  5
1B
330
1
100
AcDbSymbolTableRecord
100
AcDbBlockTableRecord
  2
*Paper_Space
340
1E
 70
     0
280
     1
281
     0
  0
BLOCK_RECORD
  5
23
330
1
100
AcDbSymbolTableRecord
100
AcDbBlockTableRecord
  2
*PAPER_SPACE0
340
26
 70
     0
280
     1
281
     0
  0
BLOCK_RECORD
  5
1BE
330
1
100
AcDbSymbolTableRecord
100
AcDbBlockTableRecord
  2
NORTH
340
0
102
{BLKREFS
331
21B
102
}
 70
     0
280
     1
281
     0
  0
ENDTAB
  0
ENDSEC
  0
SECTION
  2
BLOCKS
  0
BLOCK
  5
20
330
1F
100
AcDbEntity
  8
0
100
AcDbBlockBegin
  2
*Model_Space
 70
     0
 10
0.0
 20
0.0
 30
0.0
  3
*Model_Space
  1
*Model_Space
  0
ENDBLK
  5
21
330
1F
100
AcDbEntity
  8
0
100
AcDbBlockEnd
  0
BLOCK
  5
1C
330
1B
100
AcDbEntity
 67
     1
  8
0
100
AcDbBlockBegin
  2
*Paper_Space
 70
     0
 10
0.0
 20
0.0
 30
0.0
  3
*Paper_Space
  1
*Paper_Space
  0
ENDBLK
  5
1D
330
1B
100
AcDbEntity
 67
     1
  8
0
100
AcDbBlockEnd
  0
BLOCK
  5
24
330
23
100
AcDbEntity
  8
0
100
AcDbBlockBegin
  2
*PAPER_SPACE0
 70
     0
 10
0.0
 20
0.0
 30
0.0
  3
*PAPER_SPACE0
  1
*PAPER_SPACE0
  0
ENDBLK
  5
25
330
23
100
AcDbEntity
  8
0
100
AcDbBlockEnd
  0
BLOCK
  5
1C7
330
1BE
100
AcDbEntity
  8
0
 48
0.1
100
AcDbBlockBegin
  2
NORTH
 70
     0
 10
0.0
 20
0.0
 30
0.0
  3
NORTH
  1
NORTH
  0
LINE
  5
1BF
330
1BE
100
AcDbEntity
  8
ARCHAEOLOGICAL-SYMBOLS
 48
0.1
100
AcDbLine
 10
0.0
 20
22.75859520296217
 30
0.0
 11
-2.219468965340639
 21
17.47702071414096
 31
0.0
  0
LINE
  5
1C0
330
1BE
100
AcDbEntity
  8
ARCHAEOLOGICAL-SYMBOLS
 48
0.1
100
AcDbLine
 10
-2.219468965340639
 20
17.47702071414096
 30
0.0
 11
-0.069867624057224
 21
18.39821435057092
 31
0.0
  0
LINE
  5
1C1
330
1BE
100
AcDbEntity
  8
ARCHAEOLOGICAL-SYMBOLS
 48
0.1
100
AcDbLine
 10
-0.069867624057224
 20
18.39821435057092
 30
0.0
 11
1.895801058301004
 21
17.47702071414096
 31
0.0
  0
LINE
  5
1C2
330
1BE
100
AcDbEntity
  8
ARCHAEOLOGICAL-SYMBOLS
 48
0.1
100
AcDbLine
 10
1.895801058301004
 20
17.47702071414096
 30
0.0
 11
0.0
 21
22.75859520296217
 31
0.0
  0
LWPOLYLINE
  5
1C3
330
1BE
100
AcDbEntity
  8
ARCHAEOLOGICAL-SYMBOLS
100
AcDbPolyline
 90
        2
 70
     0
 43
0.25
 10
0.0
 20
0.0
 10
0.0
 20
22.20587902111583
  0
HATCH
  5
1C4
330
1BE
100
AcDbEntity
  8
ARCHAEOLOGICAL-SYMBOLS
 48
0.1
100
AcDbHatch
 10
0.0
 20
0.0
 30
0.0
210
0.0
220
0.0
230
1.0
  2
SOLID
 70
     1
 71
     0
 91
        2
 92
        7
 72
     0
 73
     1
 93
        4
 10
-2.219468965333363
 20
17.47702071414096
 10
-0.069867624057224
 20
18.39821435057092
 10
0.0
 20
18.36547149252146
 10
0.000000000007276
 20
22.75859520299127
 97
        0
 92
        7
 72
     0
 73
     1
 93
        3
 10
-0.000000000007276
 20
22.75859520295489
 10
0.0
 20
18.36547149251419
 10
1.89580105830828
 20
17.47702071414824
 97
        0
 75
     0
 76
     1
 47
0.0614117269855627
 98
        2
 10
-1.421013721526833
 20
18.95093053241726
 10
1.220116399927065
 20
18.88958193000872
  0
TEXT
  5
1C5
330
1BE
100
AcDbEntity
  8
ARCHAEOLOGICAL-SYMBOLS
 48
0.1
100
AcDbText
 10
-2.833768330980092
 20
23.6182473168592
 30
0.0
 40
5.6
  1
N
  7
STYLE1
100
AcDbText
  0
LWPOLYLINE
  5
1C6
330
1BE
100
AcDbEntity
  8
ARCHAEOLOGICAL-SYMBOLS
 48
0.1
100
AcDbPolyline
 90
        3
 70
     0
 43
0.25
 10
-1.421013721526833
 20
5.133218906325055
 10
0.0
 20
5.133218906325055
 10
1.527266082761344
 20
5.133218906325055
  0
ENDBLK
  5
1C8
330
1BE
100
AcDbEntity
  8
0
 48
0.1
100
AcDbBlockEnd
  0
ENDSEC
  0
SECTION
  2
ENTITIES
  0
LWPOLYLINE
  5
51
330
1F
100
AcDbEntity
  8
0X-LIMITEXCAVATION
100
AcDbPolyline
 90
       18
 70
     0
 43
0.0
 10
79068.72898995533
 20
23998.55
 10
79049.5814
 20
23985.6482
 10
79019.1252553518
 20
23951.93821734751
 10
79012.82519269793
 20
23959.40235065404
 10
79001.41621505341
 20
23966.24552222091
 10
78980.87995869305
 20
23975.36968800929
 10
78964.33715845924
 20
23982.21285957613
 10
78952.92818081472
 20
24006.16377115791
 10
78949.50539092108
 20
24018.13922694878
 10
78949.50539092108
 20
24040.9497358709
 10
78953.49860554689
 20
24055.20618588332
 10
78980.30953396088
 20
24080.29787792917
 10
79011.68410173286
 20
24104.24878951095
 10
79048.19273359491
 20
24081.43828058883
 10
79045.34060993418
 20
24039.23903743029
 10
79061.31322693662
 20
24015.85823272725
 10
79068.72898995533
 20
23998.55
 10
79068.72898995533
 20
23998.55
  0
LWPOLYLINE
  5
52
330
1F
100
AcDbEntity
  8
0X-ARCHAEOLOGY
100
AcDbPolyline
 90
       14
 70
     1
 43
0.0
 10
78964.99190153438
 20
24039.34030192497
 10
78964.83366148238
 20
24039.30580742912
 10
78964.74335331586
 20
24039.2105324631
 10
78964.61418170482
 20
24038.89209448471
 10
78964.5223535453
 20
24038.61723222974
 10
78964.48990759556
 20
24038.41755006887
 10
78964.52786323486
 20
24038.19631947338
 10
78964.63009858585
 20
24037.98562366812
 10
78964.77090176381
 20
24037.85633306036
 10
78964.92700963502
 20
24037.79120890237
 10
78965.19698442402
 20
24037.79120890237
 10
78965.3916601222
 20
24037.85058681114
 10
78965.48348828172
 20
24037.93151315453
 10
78965.60715020332
 20
24038.0612826164
1001
IRD
1002
{
1000
TPMLINK_Ch87300-_-ade
1070
   515
1071
        1
1004
01000C000000020000000200000000000000E0F125CECD911040E0F125CECD9110400500000000000000
1002
}
  0
LWPOLYLINE
  5
53
330
1F
100
AcDbEntity
  8
0X-ARCHAEOLOGY
100
AcDbPolyline
 90
       14
 70
     1
 43
0.0
 10
78965.13209252455
 20
24036.2588757734
 10
78965.15168253193
 20
24036.3532100317
 10
78965.19943317492
 20
24036.43796720786
 10
78965.29738321179
 20
24036.47723324428
 10
78965.42716701061
 20
24036.48537376407
 10
78965.51164891734
 20
24036.45951564249
 10
78965.56307268667
 20
24036.38481440244
 10
78965.5551142462
 20
24036.28042420803
 10
78965.50430266454
 20
24036.1726820349
 10
78965.45471545844
 20
24036.11569839669
 10
78965.38982355909
 20
24036.09989621129
 10
78965.2661616375
 20
24036.11569839669
 10
78965.17923097988
 20
24036.15304901672
 10
78965.1382144019
 20
24036.21003265493
1001
IRD
1002
{
1000
TPMLINK_Ch87300-_-ade
1070
   515
1071
        1
1004
01000B000000030000000300000000000000103236B57102F53F103236B57102F53F0000000006000000
1002
}
  0
LWPOLYLINE
  5
54
330
1F
100
AcDbEntity
  8
0X-ARCHAEOLOGY
100
AcDbPolyline
 90
        5
 70
     0
 43
0.0
 10
79023.04076648992
 20
24086.42267387459
 10
79023.49990728765
 20
24086.45619366178
 10
79023.80110365094
 20
24086.49785396876
 10
79024.06801750127
 20
24086.51461386232
 10
79024.100283674
 20
24086.52249858122
1001
IRD
1002
{
1000
TPMLINK_Ch87300-_-ade
1070
   515
1071
        1
1004
010009000000010000001300000000000000FF267B1A930AF13FFF267B1A930AF13F0000000027000000
1002
}
  0
POINT
  5
55
330
1F
100
AcDbEntity
  8
0X-ARCHAEOLOGY
100
AcDbPoint
 10
79023.04076648992
 20
24086.42267387459
 30
0.0
1001
IRD
1002
{
1000
TPMNODE_Ch87300-_-ade
1070
   515
1071
        1
1004
0100010000000000000000000000
1002
}
  0
POINT
  5
56
330
1F
100
AcDbEntity
  8
0X-ARCHAEOLOGY
100
AcDbPoint
 10
78964.99190153438
 20
24039.34030192497
 30
0.0
1001
IRD
1002
{
1000
TPMNODE_Ch87300-_-ade
1070
   515
1071
        1
1004
0100020000000000000000000000
1002
}
  0
POINT
  5
57
330
1F
100
AcDbEntity
  8
0X-ARCHAEOLOGY
100
AcDbPoint
 10
78965.13209252455
 20
24036.2588757734
 30
0.0
1001
IRD
1002
{
1000
TPMNODE_Ch87300-_-ade
1070
   515
1071
        1
1004
0100030000000000000000000000
1002
}
  0
POINT
  5
58
330
1F
100
AcDbEntity
  8
0X-ARCHAEOLOGY
100
AcDbPoint
 10
78966.36626298877
 20
24032.92030496872
 30
0.0
1001
IRD
1002
{
1000
TPMNODE_Ch87300-_-ade
1070
   515
1071
        1
1004
0100040000000000000000000000
1002
}
  0
POINT
  5
59
102
{ACAD_XDICTIONARY
360
5A
102
}
330
1F
100
AcDbEntity
  8
0X-ARCHAEOLOGY
100
AcDbPoint
 10
78964.93846092878
 20
24038.5706218894
 30
0.0
1001
IRD
1002
{
1000
TPMCNTR_Ch87300-_-ade
1070
   515
1071
        1
1004
01000500000000000080C586F13FE0F125CECD91104001000000
1002
}
  0
POINT
  5
5C
102
{ACAD_XDICTIONARY
360
5D
102
}
330
1F
100
AcDbEntity
  8
0X-ARCHAEOLOGY
100
AcDbPoint
 10
78965.3477460635
 20
24036.29384596541
 30
0.0
1001
IRD
1002
{
1000
TPMCNTR_Ch87300-_-ade
1070
   515
1071
        1
1004
0100060000000000000035D8C03F103236B57102F53F01000000
1002
}
  0
POINT
  5
5F
102
{ACAD_XDICTIONARY
360
60
102
}
330
1F
100
AcDbEntity
  8
0X-ARCHAEOLOGY
100
AcDbPoint
 10
78966.42046728151
 20
24033.50569575408
 30
0.0
1001
IRD
1002
{
1000
TPMCNTR_Ch87300-_-ade
1070
   515
1071
        1
1004
010007000000000000E066F8F53FA2D84E3DCE1C114002000000
1002
}
  0
POINT
  5
62
102
{ACAD_XDICTIONARY
360
63
102
}
330
1F
100
AcDbEntity
  8
0X-ARCHAEOLOGY
100
AcDbPoint
 10
79024.48479740319
 20
24086.09114276006
 30
0.0
1001
IRD
1002
{
1000
TPMCNTR_Ch87300-_-ade
1070
   515
1071
        1
1004
010008000000000000406D9BE03F3FA4EB53D0DC084004000000
1002
}
  0
LWPOLYLINE
  5
65
330
1F
100
AcDbEntity
  8
0X-ARCHAEOLOGY
100
AcDbPolyline
 90
        4
 70
     0
 43
0.0
 10
78966.36626298877
 20
24032.92030496872
 10
78966.74030969187
 20
24033.07018630288
 10
78967.03966949205
 20
24033.20618086809
 10
78967.06186591725
 20
24033.24174174455
1001
IRD
1002
{
1000
TPMLINK_Ch87300-_-ade
1070
   515
1071
        1
1004
01000A000000040000000F000000000000009F703488FCC1E83F9F703488FCC1E83F0700000011000000
1002
}
  0
POINT
  5
66
330
1F
100
AcDbEntity
  8
0X-ARCHAEOLOGY
100
AcDbPoint
 10
78967.06186591725
 20
24033.24174174455
 30
0.0
1001
IRD
1002
{
1000
TPMNODE_Ch87300-_-ade
1070
   515
1071
        1
1004
01000F0000000000000000000000
1002
}
  0
LWPOLYLINE
  5
67
330
1F
100
AcDbEntity
  8
0X-ARCHAEOLOGY
100
AcDbPolyline
 90
       18
 70
     0
 43
0.0
 10
78967.06186591725
 20
24033.24174174455
 10
78967.14129265526
 20
24033.36899126304
 10
78967.16210703808
 20
24033.57298311085
 10
78967.08374700858
 20
24033.78032693733
 10
78966.8866225594
 20
24033.93356025021
 10
78966.60073088948
 20
24034.04226013157
 10
78966.36258986231
 20
24034.10690543544
 10
78966.17219947826
 20
24034.11025741417
 10
78966.01609160705
 20
24034.04561211029
 10
78965.8085599665
 20
24033.86556296761
 10
78965.72040493332
 20
24033.67833101342
 10
78965.67938835546
 20
24033.47433916567
 10
78965.668981164
 20
24033.29429002298
 10
78965.78101151867
 20
24033.08359421778
 10
78965.93405845121
 20
24032.92365694745
 10
78966.16240447457
 20
24032.89348913892
 10
78966.35902428473
 20
24032.91935277962
 10
78966.36626298877
 20
24032.92030496872
1001
IRD
1002
{
1000
TPMLINK_Ch87300-_-ade
1070
   515
1071
        1
1004
0100100000000F00000004000000000000001C9590581D090C401C9590581D090C400700000000000000
1002
}
  0
LWPOLYLINE
  5
68
330
1F
100
AcDbEntity
  8
0X-ARCHAEOLOGY
100
AcDbPolyline
 90
       12
 70
     0
 43
0.0
 10
78967.06186591725
 20
24033.24174174455
 10
78967.1571391094
 20
24033.16511309394
 10
78967.1982181366
 20
24033.04876146951
 10
78967.20506320112
 20
24032.85027859096
 10
78967.16398417392
 20
24032.69970490666
 10
78967.09209695633
 20
24032.56282004631
 10
78967.00309167738
 20
24032.46357691748
 10
78966.89012543258
 20
24032.4533111443
 10
78966.67103800751
 20
24032.49779897735
 10
78966.4964532219
 20
24032.60046346739
 10
78966.40744794295
 20
24032.74076968894
 10
78966.36626298877
 20
24032.92030496872
1001
IRD
1002
{
1000
TPMLINK_Ch87300-_-ade
1070
   515
1071
        1
1004
0100120000000F00000004000000000000008C45CA603C73FC3F8C45CA603C73FC3F0000000011000000
1002
}
  0
POINT
  5
69
102
{ACAD_XDICTIONARY
360
6A
102
}
330
1F
100
AcDbEntity
  8
0X-ARCHAEOLOGY
100
AcDbPoint
 10
78966.79368905838
 20
24032.85000329915
 30
0.0
1001
IRD
1002
{
1000
TPMCNTR_Ch87300-_-ade
1070
   515
1071
        1
1004
01001100000000000080B80ADC3FEE3E72521D6A044002000000
1002
}
  0
POINT
  5
6C
330
1F
100
AcDbEntity
  8
0X-ARCHAEOLOGY
100
AcDbPoint
 10
79024.100283674
 20
24086.52249858122
 30
0.0
1001
IRD
1002
{
1000
TPMNODE_Ch87300-_-ade
1070
   515
1071
        1
1004
0100130000000000000000000000
1002
}
  0
LWPOLYLINE
  5
6D
330
1F
100
AcDbEntity
  8
0X-ARCHAEOLOGY
100
AcDbPolyline
 90
        3
 70
     0
 43
0.0
 10
79024.100283674
 20
24086.52249858122
 10
79024.47757109278
 20
24086.61469436984
 10
79024.61632763088
 20
24086.64566239617
1001
IRD
1002
{
1000
TPMLINK_Ch87300-_-ade
1070
   515
1071
        1
1004
010014000000130000002300000000000000BC62451657FAE03FBC62451657FAE03F0000000008000000
1002
}
  0
POINT
  5
6E
330
1F
100
AcDbEntity
  8
0X-ARCHAEOLOGY
100
AcDbPoint
 10
79024.40219406509
 20
24085.5296147563
 30
0.0
1001
IRD
1002
{
1000
TPMNODE_Ch87300-_-ade
1070
   515
1071
        1
1004
0100170000000000000000000000
1002
}
  0
LWPOLYLINE
  5
6F
330
1F
100
AcDbEntity
  8
0X-ARCHAEOLOGY
100
AcDbPolyline
 90
        3
 70
     0
 43
0.0
 10
79024.40219406509
 20
24085.5296147563
 10
79023.17912091699
 20
24085.58898888162
 10
79023.04076648992
 20
24086.42267387459
1001
IRD
1002
{
1000
TPMLINK_Ch87300-_-ade
1070
   515
1071
        1
1004
0100180000001700000001000000000000001D5F63DD8A8E00401D5F63DD8A8E00400000000027000000
1002
}
  0
POINT
  5
70
330
1F
100
AcDbEntity
  8
0X-ARCHAEOLOGY
100
AcDbPoint
 10
79026.37528663824
 20
24086.84847235034
 30
0.0
1001
IRD
1002
{
1000
TPMNODE_Ch87300-_-ade
1070
   515
1071
        1
1004
01001B0000000000000000000000
1002
}
  0
LWPOLYLINE
  5
71
330
1F
100
AcDbEntity
  8
0X-ARCHAEOLOGY
100
AcDbPolyline
 90
        4
 70
     0
 43
0.0
 10
79026.37528663824
 20
24086.84847235034
 10
79026.49901497806
 20
24086.87375443947
 10
79026.91652701003
 20
24086.89865485276
 10
79027.1084534927
 20
24086.92597888899
1001
IRD
1002
{
1000
TPMLINK_Ch87300-_-ade
1070
   515
1071
        1
1004
01001C0000001B0000002100000000000000DBBB5347FAA0E73FDBBB5347FAA0E73F000000002B000000
1002
}
  0
POINT
  5
72
330
1F
100
AcDbEntity
  8
0X-ARCHAEOLOGY
100
AcDbPoint
 10
79026.49922025145
 20
24085.85294234789
 30
0.0
1001
IRD
1002
{
1000
TPMNODE_Ch87300-_-ade
1070
   515
1071
        1
1004
01001D0000000000000000000000
1002
}
  0
POINT
  5
73
330
1F
100
AcDbEntity
  8
0X-ARCHAEOLOGY
100
AcDbPoint
 10
79027.22966175823
 20
24086.00984987538
 30
0.0
1001
IRD
1002
{
1000
TPMNODE_Ch87300-_-ade
1070
   515
1071
        1
1004
01001F0000000000000000000000
1002
}
  0
LWPOLYLINE
  5
74
330
1F
100
AcDbEntity
  8
0X-ARCHAEOLOGY
100
AcDbPolyline
 90
        6
 70
     0
 43
0.0
 10
79027.22966175823
 20
24086.00984987538
 10
79027.10018332908
 20
24085.96345278999
 10
79026.89999794133
 20
24085.96345278999
 10
79026.67410066887
 20
24085.89689206972
 10
79026.58227250935
 20
24085.86337228253
 10
79026.49922025145
 20
24085.85294234789
1001
IRD
1002
{
1000
TPMLINK_Ch87300-_-ade
1070
   515
1071
        1
1004
0100200000001F0000001D0000000000000061ECC5D25F26E83F61ECC5D25F26E83F000000002B000000
1002
}
  0
POINT
  5
75
330
1F
100
AcDbEntity
  8
0X-ARCHAEOLOGY
100
AcDbPoint
 10
79027.1084534927
 20
24086.92597888899
 30
0.0
1001
IRD
1002
{
1000
TPMNODE_Ch87300-_-ade
1070
   515
1071
        1
1004
0100210000000000000000000000
1002
}
  0
LWPOLYLINE
  5
76
330
1F
100
AcDbEntity
  8
0X-ARCHAEOLOGY
100
AcDbPolyline
 90
       15
 70
     0
 43
0.0
 10
79027.1084534927
 20
24086.92597888899
 10
79027.20915274508
 20
24086.94031515974
 10
79027.60156508011
 20
24086.79043382558
 10
79027.97744834656
 20
24086.62331374368
 10
79028.1445755969
 20
24086.72339425114
 10
79028.40353100677
 20
24086.80671486503
 10
79028.82961366698
 20
24086.92403412022
 10
79029.34752448671
 20
24087.07391545438
 10
79029.25508413953
 20
24086.43129324843
 10
79028.62881609146
 20
24086.37287304789
 10
79028.26946189383
 20
24086.33121274097
 10
79027.86847893056
 20
24086.26417316659
 10
79027.55136568623
 20
24086.13871339161
 10
79027.334039042
 20
24086.04725225799
 10
79027.22966175823
 20
24086.00984987538
1001
IRD
1002
{
1000
TPMLINK_Ch87300-_-ade
1070
   515
1071
        1
1004
010022000000210000001F000000000000001568D249107614401568D24910761440000000002D000000
1002
}
  0
POINT
  5
77
330
1F
100
AcDbEntity
  8
0X-ARCHAEOLOGY
100
AcDbPoint
 10
79024.61632763088
 20
24086.64566239617
 30
0.0
1001
IRD
1002
{
1000
TPMNODE_Ch87300-_-ade
1070
   515
1071
        1
1004
0100230000000000000000000000
1002
}
  0
POINT
  5
78
330
1F
100
AcDbEntity
  8
0X-ARCHAEOLOGY
100
AcDbPoint
 10
79024.8499157688
 20
24085.58237276019
 30
0.0
1001
IRD
1002
{
1000
TPMNODE_Ch87300-_-ade
1070
   515
1071
        1
1004
0100250000000000000000000000
1002
}
  0
LWPOLYLINE
  5
79
330
1F
100
AcDbEntity
  8
0X-ARCHAEOLOGY
100
AcDbPolyline
 90
        5
 70
     0
 43
0.0
 10
79024.8499157688
 20
24085.58237276019
 10
79024.74448494322
 20
24085.57127127983
 10
79024.59449894924
 20
24085.5545113862
 10
79024.40227200196
 20
24085.52961097285
 10
79024.40219406509
 20
24085.5296147563
1001
IRD
1002
{
1000
TPMLINK_Ch87300-_-ade
1070
   515
1071
        1
1004
010026000000250000001700000000000000431D05A2A1DADC3F431D05A2A1DADC3F0000000008000000
1002
}
  0
LWPOLYLINE
  5
7A
330
1F
100
AcDbEntity
  8
0X-ARCHAEOLOGY
100
AcDbPolyline
 90
        8
 70
     0
 43
0.0
 10
79026.49922025145
 20
24085.85294234789
 10
79026.44881558418
 20
24085.84661238891
 10
79025.85560567351
 20
24085.74653188145
 10
79025.50482210412
 20
24085.68811168091
 10
79025.15403853473
 20
24085.63783200009
 10
79024.94449405177
 20
24085.5961541936
 10
79024.90365375299
 20
24085.58803117339
 10
79024.8499157688
 20
24085.58237276019
1001
IRD
1002
{
1000
TPMLINK_Ch87300-_-ade
1070
   515
1071
        1
1004
01001A0000001D0000002500000000000000D7586B404ABFFA3FD7586B404ABFFA3F0000000029000000
1002
}
  0
LWPOLYLINE
  5
7B
330
1F
100
AcDbEntity
  8
0X-ARCHAEOLOGY
100
AcDbPolyline
 90
        7
 70
     0
 43
0.0
 10
79024.61632763088
 20
24086.64566239617
 10
79024.6905300008
 20
24086.66222306406
 10
79024.70285617758
 20
24086.6649740506
 10
79025.00344035309
 20
24086.68173394422
 10
79025.61317933234
 20
24086.71525373141
 10
79026.1310901522
 20
24086.7985743453
 10
79026.37528663824
 20
24086.84847235034
1001
IRD
1002
{
1000
TPMLINK_Ch87300-_-ade
1070
   515
1071
        1
1004
010016000000230000001B00000000000000EA57F43C0B63FC3FEA57F43C0B63FC3F0000000029000000
1002
}
  0
LWPOLYLINE
  5
7C
330
1F
100
AcDbEntity
  8
0X-ARCHAEOLOGY
100
AcDbPolyline
 90
        2
 70
     0
 43
0.0
 10
79024.100283674
 20
24086.52249858122
 10
79024.40219406509
 20
24085.5296147563
1001
IRD
1002
{
1000
TPMLINK_Ch87300-_-ade
1070
   515
1071
        1
1004
010028000000130000001700000000000000E5C64086B59AF03FE5C64086B59AF03F0800000027000000
1002
}
  0
POINT
  5
7D
102
{ACAD_XDICTIONARY
360
7E
102
}
330
1F
100
AcDbEntity
  8
0X-ARCHAEOLOGY
100
AcDbPoint
 10
79023.6781799946
 20
24086.0291758133
 30
0.0
1001
IRD
1002
{
1000
TPMCNTR_Ch87300-_-ade
1070
   515
1071
        1
1004
010027000000000000E098B1F03F06ABE09697B0104003000000
1002
}
  0
LWPOLYLINE
  5
80
330
1F
100
AcDbEntity
  8
0X-ARCHAEOLOGY
100
AcDbPolyline
 90
        2
 70
     0
 43
0.0
 10
79024.61632763088
 20
24086.64566239617
 10
79024.8499157688
 20
24085.58237276019
1001
IRD
1002
{
1000
TPMLINK_Ch87300-_-ade
1070
   515
1071
        1
1004
01002A000000230000002500000000000000EA88F22D176BF13FEA88F22D176BF13F2900000008000000
1002
}
  0
POINT
  5
81
102
{ACAD_XDICTIONARY
360
82
102
}
330
1F
100
AcDbEntity
  8
0X-ARCHAEOLOGY
100
AcDbPoint
 10
79025.58178536588
 20
24086.21940000712
 30
0.0
1001
IRD
1002
{
1000
TPMCNTR_Ch87300-_-ade
1070
   515
1071
        1
1004
010029000000000000001528FC3F45D9BCDAA526164004000000
1002
}
  0
LWPOLYLINE
  5
84
330
1F
100
AcDbEntity
  8
0X-ARCHAEOLOGY
100
AcDbPolyline
 90
        2
 70
     0
 43
0.0
 10
79026.37528663824
 20
24086.84847235034
 10
79026.49922025145
 20
24085.85294234789
1001
IRD
1002
{
1000
TPMLINK_Ch87300-_-ade
1070
   515
1071
        1
1004
01002C0000001B0000001D00000000000000692BA1BF2A0DF03F692BA1BF2A0DF03F2B00000029000000
1002
}
  0
POINT
  5
85
102
{ACAD_XDICTIONARY
360
86
102
}
330
1F
100
AcDbEntity
  8
0X-ARCHAEOLOGY
100
AcDbPoint
 10
79026.8055004204
 20
24086.39283156273
 30
0.0
1001
IRD
1002
{
1000
TPMCNTR_Ch87300-_-ade
1070
   515
1071
        1
1004
01002B00000000000080CBCCE63F20B948F7005D0B4004000000
1002
}
  0
LWPOLYLINE
  5
88
330
1F
100
AcDbEntity
  8
0X-ARCHAEOLOGY
100
AcDbPolyline
 90
        2
 70
     0
 43
0.0
 10
79027.1084534927
 20
24086.92597888899
 10
79027.22966175823
 20
24086.00984987538
1001
IRD
1002
{
1000
TPMLINK_Ch87300-_-ade
1070
   515
1071
        1
1004
01002E000000210000001F000000000000006DE5C6435492ED3F6DE5C6435492ED3F2D0000002B000000
1002
}
  0
POINT
  5
89
102
{ACAD_XDICTIONARY
360
8A
102
}
330
1F
100
AcDbEntity
  8
0X-ARCHAEOLOGY
100
AcDbPoint
 10
79028.21515106731
 20
24086.5452254269
 30
0.0
1001
IRD
1002
{
1000
TPMCNTR_Ch87300-_-ade
1070
   515
1071
        1
1004
01002D000000000000A099F5F23FBF444BD25A28184002000000
1002
}
  0
LWPOLYLINE
  5
8C
330
1F
100
AcDbEntity
  8
0X-SECTIONS
100
AcDbPolyline
 90
        4
 70
     0
 43
0.0
 10
79024.48582030066
 20
24086.6871576935
 10
79024.61632763088
 20
24086.64566239617
 10
79024.88402420757
 20
24085.49293198686
 10
79024.74127145603
 20
24085.46288821157
  0
LWPOLYLINE
  5
8D
330
1F
100
AcDbEntity
  8
0X-SECTIONS
100
AcDbPolyline
 90
        4
 70
     0
 43
0.0
 10
79026.96520894527
 20
24086.97257017967
 10
79027.1084534927
 20
24086.92597888899
 10
79027.24319978143
 20
24085.91353977229
 10
79027.08542201605
 20
24085.8609640103
  0
LWPOLYLINE
  5
8E
330
1F
100
AcDbEntity
  8
0X-HACHURES
100
AcDbPolyline
 90
        2
 70
     0
 43
0.0
 10
79024.2452509084
 20
24086.0457491005
 10
79024.71519594945
 20
24086.19561532018
  0
LWPOLYLINE
  5
8F
330
1F
100
AcDbEntity
  8
0X-HACHURES
100
AcDbPolyline
 90
        2
 70
     0
 43
0.0
 10
79024.30178303286
 20
24085.85983356518
 10
79024.75170998328
 20
24086.06269134578
  0
LWPOLYLINE
  5
90
330
1F
100
AcDbEntity
  8
0X-HACHURES
100
AcDbPolyline
 90
        2
 70
     0
 43
0.0
 10
79026.44978672997
 20
24086.25003037343
 10
79027.19133943418
 20
24086.30320129589
  0
LWPOLYLINE
  5
91
330
1F
100
AcDbEntity
  8
0X-HACHURES
100
AcDbPolyline
 90
        2
 70
     0
 43
0.0
 10
79026.46854587011
 20
24086.0993425467
 10
79027.20453040143
 20
24086.19980032977
  0
LWPOLYLINE
  5
92
330
1F
100
AcDbEntity
  8
0X-HACHURES
100
AcDbPolyline
 90
       15
 70
     0
 43
0.0
 10
79025.92086032296
 20
24086.63458193152
 10
79025.92086032296
 20
24086.63458193152
 10
79025.75556789066
 20
24086.60453815623
 10
79025.64286732681
 20
24086.51440683035
 10
79025.62032764604
 20
24086.37170143205
 10
79025.7029738622
 20
24086.2064623575
 10
79025.80815975912
 20
24086.13135460882
 10
79026.00350653911
 20
24086.14637649647
 10
79026.1237196099
 20
24086.19895225845
 10
79026.19885115912
 20
24086.31912567006
 10
79026.19885115912
 20
24086.41676709499
 10
79026.16128646451
 20
24086.52191861895
 10
79026.13123211681
 20
24086.58200447998
 10
79026.0335587268
 20
24086.62707014292
 10
79025.92086032296
 20
24086.63458193152
  0
LWPOLYLINE
  5
93
330
1F
100
AcDbEntity
  8
0X-HACHURES
100
AcDbPolyline
 90
        7
 70
     0
 43
0.0
 10
78965.00725532552
 20
24038.86857629066
 10
78964.86354569055
 20
24038.76844783182
 10
78964.81564319889
 20
24038.57254491305
 10
78964.85048196373
 20
24038.42017691487
 10
78964.93322322023
 20
24038.27216122607
 10
78965.08564200641
 20
24038.18944707338
 10
78965.29031785984
 20
24038.24604061163
  0
LWPOLYLINE
  5
94
330
1F
100
AcDbEntity
  8
0X-HACHURES
100
AcDbPolyline
 90
        6
 70
     0
 43
0.0
 10
78965.10741488443
 20
24038.65090675638
 10
78965.0725761196
 20
24038.5899592192
 10
78965.0725761196
 20
24038.52901168202
 10
78965.10741488443
 20
24038.46371014591
 10
78965.14660822487
 20
24038.4332372221
 10
78965.22064033015
 20
24038.43758953147
  0
LWPOLYLINE
  5
95
330
1F
100
AcDbEntity
  8
0X-HACHURES
100
AcDbPolyline
 90
       12
 70
     0
 43
0.0
 10
78965.7298599949
 20
24033.65686829684
 10
78965.7355537753
 20
24033.52880970362
 10
78965.78679347891
 20
24033.45197522351
 10
78965.90919895754
 20
24033.35522081816
 10
78966.03160443617
 20
24033.29261413199
 10
78966.11415777198
 20
24033.27838633806
 10
78966.19101732741
 20
24033.29546104243
 10
78966.29064984442
 20
24033.31822618855
 10
78966.36466250964
 20
24033.24992906063
 10
78966.46429502666
 20
24033.21293443101
 10
78966.53261607149
 20
24033.22716391451
 10
78966.5810088849
 20
24033.24139170844
  0
LWPOLYLINE
  5
96
330
1F
100
AcDbEntity
  8
0X-HACHURES
100
AcDbPolyline
 90
        6
 70
     0
 43
0.0
 10
78966.25079770162
 20
24033.75646792306
 10
78966.185323547
 20
24033.68247866383
 10
78966.16539747559
 20
24033.59426161067
 10
78966.23656325061
 20
24033.44913000264
 10
78966.29634362482
 20
24033.41213537303
 10
78966.46429502666
 20
24033.4292100774
  0
LWPOLYLINE
  5
97
330
1F
100
AcDbEntity
  8
0X-HACHURES
100
AcDbPolyline
 90
        6
 70
     0
 43
0.0
 10
78966.36626298877
 20
24032.92030496872
 10
78966.50699621967
 20
24032.78038482781
 10
78966.64078925911
 20
24032.72631549382
 10
78966.74042177614
 20
24032.69216608508
 10
78966.84574807357
 20
24032.69785821639
 10
78966.93114613957
 20
24032.73200762513
  0
LWPOLYLINE
  5
98
330
1F
100
AcDbEntity
  8
0X-HACHURES
100
AcDbPolyline
 90
        4
 70
     0
 43
0.0
 10
78966.62721975577
 20
24033.0248709175
 10
78966.68064140192
 20
24032.97389363851
 10
78966.72618732513
 20
24032.9682015072
 10
78966.75465406713
 20
24032.97958576982
  0
LWPOLYLINE
  5
99
330
1F
100
AcDbEntity
  8
0X-HACHURES
100
AcDbPolyline
 90
        6
 70
     0
 43
0.0
 10
78965.29676672403
 20
24036.28953541069
 10
78965.3376349894
 20
24036.2372791933
 10
78965.39468079382
 20
24036.22386069913
 10
78965.43494981811
 20
24036.24398844039
 10
78965.4332714921
 20
24036.29262921459
 10
78965.39975421727
 20
24036.3446516186
  0
LWPOLYLINE
  5
9A
330
1F
100
AcDbEntity
  8
0X-SECTIONS
100
AcDbPolyline
 90
        4
 70
     0
 43
0.0
 10
78965.1195174078
 20
24036.11316065655
 10
78965.0792483835
 20
24036.17354219076
 10
78965.60776555738
 20
24036.44190869509
 10
78965.64971074769
 20
24036.37984773716
  0
LWPOLYLINE
  5
9B
330
1F
100
AcDbEntity
  8
0X-SECTIONS
100
AcDbPolyline
 90
        5
 70
     0
 43
0.0
 10
78964.64076249223
 20
24039.33548311862
 10
78964.779117468
 20
24039.38270973019
 10
78964.80611324475
 20
24039.39283020112
 10
78965.48439023527
 20
24037.76347324193
 10
78965.3865289246
 20
24037.70612446987
  0
LWPOLYLINE
  5
9C
330
1F
100
AcDbEntity
  8
0X-SECTIONS
100
AcDbPolyline
 90
        4
 70
     0
 43
0.0
 10
78965.97517207394
 20
24034.08538491772
 10
78966.07951772785
 20
24034.13174647402
 10
78967.10365299773
 20
24032.38935111969
 10
78967.00317159767
 20
24032.31981047481
  0
LWPOLYLINE
  5
9D
330
1F
100
AcDbEntity
  8
0X-ARCHAEOLOGY
100
AcDbPolyline
 90
        4
 70
     0
 43
0.0
 10
78995.97695598216
 20
24085.5523487817
 10
78996.28816989737
 20
24085.73535528067
 10
78996.47123703336
 20
24085.87444163912
 10
78996.6231003268
 20
24085.97104950415
1001
IRD
1002
{
1000
TPMLINK_Ch87300-_-ade
1070
   515
1071
        1
1004
0100310000002F0000003500000000000000E603FB7C78ABE83FE603FB7C78ABE83F000000003F000000
1002
}
  0
POINT
  5
9E
330
1F
100
AcDbEntity
  8
0X-ARCHAEOLOGY
100
AcDbPoint
 10
78995.97695598216
 20
24085.5523487817
 30
0.0
1001
IRD
1002
{
1000
TPMNODE_Ch87300-_-ade
1070
   515
1071
        1
1004
01002F0000000000000000000000
1002
}
  0
POINT
  5
9F
102
{ACAD_XDICTIONARY
360
A0
102
}
330
1F
100
AcDbEntity
  8
0X-ARCHAEOLOGY
100
AcDbPoint
 10
78996.8937642119
 20
24085.95204313803
 30
0.0
1001
IRD
1002
{
1000
TPMCNTR_Ch87300-_-ade
1070
   515
1071
        1
1004
010030000000000000005CC4BA3F2A3430DBEFA8F43F04000000
1002
}
  0
LWPOLYLINE
  5
A2
330
1F
100
AcDbEntity
  8
0X-ARCHAEOLOGY
100
AcDbPolyline
 90
        4
 70
     0
 43
0.0
 10
78997.19618531114
 20
24086.21117623293
 10
78997.11563430249
 20
24086.38686355326
 10
78997.10831187625
 20
24086.59549224615
 10
78997.11322845056
 20
24086.60417536158
1001
IRD
1002
{
1000
TPMLINK_Ch87300-_-ade
1070
   515
1071
        1
1004
010034000000320000003D00000000000000310C45CA595EDA3F310C45CA595EDA3F0000000043000000
1002
}
  0
POINT
  5
A3
330
1F
100
AcDbEntity
  8
0X-ARCHAEOLOGY
100
AcDbPoint
 10
78997.19618531114
 20
24086.21117623293
 30
0.0
1001
IRD
1002
{
1000
TPMNODE_Ch87300-_-ade
1070
   515
1071
        1
1004
0100320000000000000000000000
1002
}
  0
POINT
  5
A4
102
{ACAD_XDICTIONARY
360
A5
102
}
330
1F
100
AcDbEntity
  8
0X-ARCHAEOLOGY
100
AcDbPoint
 10
78998.34431798065
 20
24086.69711957069
 30
0.0
1001
IRD
1002
{
1000
TPMCNTR_Ch87300-_-ade
1070
   515
1071
        1
1004
010033000000000000E011EBF53FCF84AAAC30D01A4002000000
1002
}
  0
POINT
  5
A7
330
1F
100
AcDbEntity
  8
0X-ARCHAEOLOGY
100
AcDbPoint
 10
78996.6231003268
 20
24085.97104950415
 30
0.0
1001
IRD
1002
{
1000
TPMNODE_Ch87300-_-ade
1070
   515
1071
        1
1004
0100350000000000000000000000
1002
}
  0
LWPOLYLINE
  5
A8
330
1F
100
AcDbEntity
  8
0X-ARCHAEOLOGY
100
AcDbPolyline
 90
        5
 70
     0
 43
0.0
 10
78996.6231003268
 20
24085.97104950415
 10
78996.63233689065
 20
24085.97692534612
 10
78996.6982408868
 20
24086.07208987448
 10
78996.79343674793
 20
24086.14529348781
 10
78996.81513299164
 20
24086.15653939431
1001
IRD
1002
{
1000
TPMLINK_Ch87300-_-ade
1070
   515
1071
        1
1004
010036000000350000003900000000000000718ECC19D15BD13F718ECC19D15BD13F0000000030000000
1002
}
  0
POINT
  5
A9
330
1F
100
AcDbEntity
  8
0X-ARCHAEOLOGY
100
AcDbPoint
 10
78996.77949501153
 20
24085.70446007595
 30
0.0
1001
IRD
1002
{
1000
TPMNODE_Ch87300-_-ade
1070
   515
1071
        1
1004
0100370000000000000000000000
1002
}
  0
LWPOLYLINE
  5
AA
330
1F
100
AcDbEntity
  8
0X-ARCHAEOLOGY
100
AcDbPolyline
 90
        5
 70
     0
 43
0.0
 10
78996.77949501153
 20
24085.70446007595
 10
78996.76414488297
 20
24085.7024139081
 10
78996.63233689065
 20
24085.64019244186
 10
78996.14171705257
 20
24085.34005880992
 10
78995.97695598216
 20
24085.5523487817
1001
IRD
1002
{
1000
TPMLINK_Ch87300-_-ade
1070
   515
1071
        1
1004
010038000000370000002F0000000000000081CD9B32ED14F03F81CD9B32ED14F03F000000003F000000
1002
}
  0
POINT
  5
AB
330
1F
100
AcDbEntity
  8
0X-ARCHAEOLOGY
100
AcDbPoint
 10
78996.81513299164
 20
24086.15653939431
 30
0.0
1001
IRD
1002
{
1000
TPMNODE_Ch87300-_-ade
1070
   515
1071
        1
1004
0100390000000000000000000000
1002
}
  0
LWPOLYLINE
  5
AC
330
1F
100
AcDbEntity
  8
0X-ARCHAEOLOGY
100
AcDbPolyline
 90
        9
 70
     0
 43
0.0
 10
78996.81513299164
 20
24086.15653939431
 10
78996.89229382218
 20
24086.19653449653
 10
78996.97650388393
 20
24086.19287490721
 10
78997.05705273258
 20
24086.13797261961
 10
78997.12662010186
 20
24086.01718758688
 10
78997.15957101993
 20
24085.93666479492
 10
78997.15224859369
 20
24085.88176250732
 10
78997.10098945002
 20
24085.83051980903
 10
78997.04286073014
 20
24085.79381870824
1001
IRD
1002
{
1000
TPMLINK_Ch87300-_-ade
1070
   515
1071
        1
1004
01003A000000390000003B000000000000006D2F6CAE4622E63F6D2F6CAE4622E63F0000000041000000
1002
}
  0
POINT
  5
AD
330
1F
100
AcDbEntity
  8
0X-ARCHAEOLOGY
100
AcDbPoint
 10
78997.04286073014
 20
24085.79381870824
 30
0.0
1001
IRD
1002
{
1000
TPMNODE_Ch87300-_-ade
1070
   515
1071
        1
1004
01003B0000000000000000000000
1002
}
  0
LWPOLYLINE
  5
AE
330
1F
100
AcDbEntity
  8
0X-ARCHAEOLOGY
100
AcDbPolyline
 90
        4
 70
     0
 43
0.0
 10
78997.04286073014
 20
24085.79381870824
 10
78996.96185903145
 20
24085.74267614887
 10
78996.87398559657
 20
24085.71705564451
 10
78996.77949501153
 20
24085.70446007595
1001
IRD
1002
{
1000
TPMLINK_Ch87300-_-ade
1070
   515
1071
        1
1004
01003C0000003B0000003700000000000000E1584C980217D23FE1584C980217D23F0000000030000000
1002
}
  0
POINT
  5
AF
330
1F
100
AcDbEntity
  8
0X-ARCHAEOLOGY
100
AcDbPoint
 10
78997.11322845056
 20
24086.60417536158
 30
0.0
1001
IRD
1002
{
1000
TPMNODE_Ch87300-_-ade
1070
   515
1071
        1
1004
01003D0000000000000000000000
1002
}
  0
LWPOLYLINE
  5
B0
330
1F
100
AcDbEntity
  8
0X-ARCHAEOLOGY
100
AcDbPolyline
 90
       22
 70
     0
 43
0.0
 10
78997.11322845056
 20
24086.60417536158
 10
78997.21815258985
 20
24086.78948089221
 10
78997.46712372202
 20
24087.1079141603
 10
78997.72708065354
 20
24087.30190280635
 10
78997.93211506827
 20
24087.39706564516
 10
78998.11884341738
 20
24087.43000701772
 10
78998.35316969707
 20
24087.41536697088
 10
78998.52525319371
 20
24087.35680509396
 10
78998.69001426411
 20
24087.23967965055
 10
78998.73761219467
 20
24087.1079141603
 10
78998.76690189964
 20
24086.93954601861
 10
78998.7412734078
 20
24086.83706231161
 10
78998.67903062476
 20
24086.64673494444
 10
78998.6314326942
 20
24086.49300853915
 10
78998.39710641452
 20
24086.30267948242
 10
78998.18108620042
 20
24086.16359312397
 10
78997.93211506827
 20
24086.03914850192
 10
78997.74904793226
 20
24085.96228529928
 10
78997.55865837002
 20
24085.95496443108
 10
78997.34996058217
 20
24086.04646937013
 10
78997.26575052041
 20
24086.13065175141
 10
78997.19618531114
 20
24086.21117623293
1001
IRD
1002
{
1000
TPMLINK_Ch87300-_-ade
1070
   515
1071
        1
1004
01003E0000003D0000003200000000000000AA4015E6ACBB1140AA4015E6ACBB11400000000033000000
1002
}
  0
LWPOLYLINE
  5
B1
330
1F
100
AcDbEntity
  8
0X-ARCHAEOLOGY
100
AcDbPolyline
 90
        2
 70
     0
 43
0.0
 10
78996.6231003268
 20
24085.97104950415
 10
78996.77949501153
 20
24085.70446007595
1001
IRD
1002
{
1000
TPMLINK_Ch87300-_-ade
1070
   515
1071
        1
1004
010040000000350000003700000000000000C72AD229EFC7D33FC72AD229EFC7D33F300000003F000000
1002
}
  0
POINT
  5
B2
102
{ACAD_XDICTIONARY
360
B3
102
}
330
1F
100
AcDbEntity
  8
0X-ARCHAEOLOGY
100
AcDbPoint
 10
78996.41245594902
 20
24085.65753641431
 30
0.0
1001
IRD
1002
{
1000
TPMCNTR_Ch87300-_-ade
1070
   515
1071
        1
1004
01003F000000000000009351CA3F13EDC69D52AE004003000000
1002
}
  0
LWPOLYLINE
  5
B5
330
1F
100
AcDbEntity
  8
0X-ARCHAEOLOGY
100
AcDbPolyline
 90
        2
 70
     0
 43
0.0
 10
78996.81513299164
 20
24086.15653939431
 10
78997.04286073014
 20
24085.79381870824
1001
IRD
1002
{
1000
TPMLINK_Ch87300-_-ade
1070
   515
1071
        1
1004
010042000000390000003B000000000000008CBED590FC68DB3F8CBED590FC68DB3F4100000030000000
1002
}
  0
POINT
  5
B6
102
{ACAD_XDICTIONARY
360
B7
102
}
330
1F
100
AcDbEntity
  8
0X-ARCHAEOLOGY
100
AcDbPoint
 10
78997.0253785118
 20
24085.99644173404
 30
0.0
1001
IRD
1002
{
1000
TPMCNTR_Ch87300-_-ade
1070
   515
1071
        1
1004
010041000000000000003295B23F5C876B7B62EBF13F02000000
1002
}
  0
LWPOLYLINE
  5
B9
330
1F
100
AcDbEntity
  8
0X-ARCHAEOLOGY
100
AcDbPolyline
 90
        4
 70
     0
 43
0.0
 10
78997.19618531114
 20
24086.21117623293
 10
78998.07857007306
 20
24086.74921865144
 10
78997.86254985898
 20
24087.0456910045
 10
78997.11322845056
 20
24086.60417536158
1001
IRD
1002
{
1000
TPMLINK_Ch87300-_-ade
1070
   515
1071
        1
1004
010044000000320000003D000000000000004C882A8D072902404C882A8D072902404300000033000000
1002
}
  0
POINT
  5
BA
102
{ACAD_XDICTIONARY
360
BB
102
}
330
1F
100
AcDbEntity
  8
0X-ARCHAEOLOGY
100
AcDbPoint
 10
78997.52181549172
 20
24086.63105524687
 30
0.0
1001
IRD
1002
{
1000
TPMCNTR_Ch87300-_-ade
1070
   515
1071
        1
1004
010043000000000000807E44D73FD22973C6D274054002000000
1002
}
  0
LWPOLYLINE
  5
BD
330
1F
100
AcDbEntity
  8
0X-HACHURES
100
AcDbPolyline
 90
        2
 70
     0
 43
0.0
 10
78996.67981616584
 20
24085.87437202995
 10
78996.88030457543
 20
24086.05273525635
  0
LWPOLYLINE
  5
BE
330
1F
100
AcDbEntity
  8
0X-HACHURES
100
AcDbPolyline
 90
        2
 70
     0
 43
0.0
 10
78996.72686994949
 20
24085.79416443659
 10
78996.98058670612
 20
24085.8930076646
  0
LWPOLYLINE
  5
BF
330
1F
100
AcDbEntity
  8
0X-HACHURES
100
AcDbPolyline
 90
        4
 70
     0
 43
0.0
 10
78997.49583772346
 20
24086.8296166438
 10
78997.43783401707
 20
24086.6650345806
 10
78997.43417280394
 20
24086.49666812847
 10
78997.46481758617
 20
24086.37497729249
  0
LWPOLYLINE
  5
C0
330
1F
100
AcDbEntity
  8
0X-SECTIONS
100
AcDbPolyline
 90
        4
 70
     0
 43
0.0
 10
78996.6982408868
 20
24086.14895307713
 10
78996.78245310856
 20
24086.20751495405
 10
78997.0790221713
 20
24085.72803610203
 10
78996.99480994952
 20
24085.65117289938
  0
LWPOLYLINE
  5
C1
330
1F
100
AcDbEntity
  8
0X-SECTIONS
100
AcDbPolyline
 90
        4
 70
     0
 43
0.0
 10
78997.11197308937
 20
24086.26973810986
 10
78997.14858738058
 20
24086.18189444969
 10
78998.14813528235
 20
24086.78948089221
 10
78998.07857007306
 20
24086.87366327349
  0
LWPOLYLINE
  5
C7
330
1F
100
AcDbEntity
  8
0X-LIMITEXCAVATION
 62
     1
100
AcDbPolyline
 90
       18
 70
     0
 43
0.1
 10
79068.72898995533
 20
23998.55
 10
79049.5814
 20
23985.6482
 10
79019.1252553518
 20
23951.93821734751
 10
79012.82519269793
 20
23959.40235065404
 10
79001.41621505341
 20
23966.24552222091
 10
78980.87995869305
 20
23975.36968800929
 10
78964.33715845924
 20
23982.21285957613
 10
78952.92818081472
 20
24006.16377115791
 10
78949.50539092108
 20
24018.13922694878
 10
78949.50539092108
 20
24040.9497358709
 10
78953.49860554689
 20
24055.20618588332
 10
78980.30953396088
 20
24080.29787792917
 10
79011.68410173286
 20
24104.24878951095
 10
79048.19273359491
 20
24081.43828058883
 10
79045.34060993418
 20
24039.23903743029
 10
79061.31322693662
 20
24015.85823272725
 10
79068.72898995533
 20
23998.55
 10
79068.72898995533
 20
23998.55
  0
LWPOLYLINE
  5
C8
330
1F
100
AcDbEntity
  8
0X-ARCHAEOLOGY
100
AcDbPolyline
 90
       14
 70
     1
 43
0.0
 10
78964.99190153438
 20
24039.34030192497
 10
78964.83366148238
 20
24039.30580742912
 10
78964.74335331586
 20
24039.2105324631
 10
78964.61418170482
 20
24038.89209448471
 10
78964.5223535453
 20
24038.61723222974
 10
78964.48990759556
 20
24038.41755006887
 10
78964.52786323486
 20
24038.19631947338
 10
78964.63009858585
 20
24037.98562366812
 10
78964.77090176381
 20
24037.85633306036
 10
78964.92700963502
 20
24037.79120890237
 10
78965.19698442402
 20
24037.79120890237
 10
78965.3916601222
 20
24037.85058681114
 10
78965.48348828172
 20
24037.93151315453
 10
78965.60715020332
 20
24038.0612826164
1001
IRD
1002
{
1000
TPMLINK_Ch87300-_-ade
1070
   515
1071
        1
1004
01000C000000020000000200000000000000E0F125CECD911040E0F125CECD9110400500000000000000
1002
}
  0
LWPOLYLINE
  5
C9
330
1F
100
AcDbEntity
  8
0X-ARCHAEOLOGY
100
AcDbPolyline
 90
       14
 70
     1
 43
0.0
 10
78965.13209252455
 20
24036.2588757734
 10
78965.15168253193
 20
24036.3532100317
 10
78965.19943317492
 20
24036.43796720786
 10
78965.29738321179
 20
24036.47723324428
 10
78965.42716701061
 20
24036.48537376407
 10
78965.51164891734
 20
24036.45951564249
 10
78965.56307268667
 20
24036.38481440244
 10
78965.5551142462
 20
24036.28042420803
 10
78965.50430266454
 20
24036.1726820349
 10
78965.45471545844
 20
24036.11569839669
 10
78965.38982355909
 20
24036.09989621129
 10
78965.2661616375
 20
24036.11569839669
 10
78965.17923097988
 20
24036.15304901672
 10
78965.1382144019
 20
24036.21003265493
1001
IRD
1002
{
1000
TPMLINK_Ch87300-_-ade
1070
   515
1071
        1
1004
01000B000000030000000300000000000000103236B57102F53F103236B57102F53F0000000006000000
1002
}
  0
LWPOLYLINE
  5
CA
330
1F
100
AcDbEntity
  8
0X-ARCHAEOLOGY
100
AcDbPolyline
 90
        5
 70
     0
 43
0.0
 10
79023.04076648992
 20
24086.42267387459
 10
79023.49990728765
 20
24086.45619366178
 10
79023.80110365094
 20
24086.49785396876
 10
79024.06801750127
 20
24086.51461386232
 10
79024.100283674
 20
24086.52249858122
1001
IRD
1002
{
1000
TPMLINK_Ch87300-_-ade
1070
   515
1071
        1
1004
010009000000010000001300000000000000FF267B1A930AF13FFF267B1A930AF13F0000000027000000
1002
}
  0
POINT
  5
CB
330
1F
100
AcDbEntity
  8
0X-ARCHAEOLOGY
100
AcDbPoint
 10
79023.04076648992
 20
24086.42267387459
 30
0.0
1001
IRD
1002
{
1000
TPMNODE_Ch87300-_-ade
1070
   515
1071
        1
1004
0100010000000000000000000000
1002
}
  0
POINT
  5
CC
330
1F
100
AcDbEntity
  8
0X-ARCHAEOLOGY
100
AcDbPoint
 10
78964.99190153438
 20
24039.34030192497
 30
0.0
1001
IRD
1002
{
1000
TPMNODE_Ch87300-_-ade
1070
   515
1071
        1
1004
0100020000000000000000000000
1002
}
  0
POINT
  5
CD
330
1F
100
AcDbEntity
  8
0X-ARCHAEOLOGY
100
AcDbPoint
 10
78965.13209252455
 20
24036.2588757734
 30
0.0
1001
IRD
1002
{
1000
TPMNODE_Ch87300-_-ade
1070
   515
1071
        1
1004
0100030000000000000000000000
1002
}
  0
POINT
  5
CE
330
1F
100
AcDbEntity
  8
0X-ARCHAEOLOGY
100
AcDbPoint
 10
78966.36626298877
 20
24032.92030496872
 30
0.0
1001
IRD
1002
{
1000
TPMNODE_Ch87300-_-ade
1070
   515
1071
        1
1004
0100040000000000000000000000
1002
}
  0
POINT
  5
CF
102
{ACAD_XDICTIONARY
360
D0
102
}
330
1F
100
AcDbEntity
  8
0X-ARCHAEOLOGY
100
AcDbPoint
 10
78964.93846092878
 20
24038.5706218894
 30
0.0
1001
IRD
1002
{
1000
TPMCNTR_Ch87300-_-ade
1070
   515
1071
        1
1004
01000500000000000080C586F13FE0F125CECD91104001000000
1002
}
  0
POINT
  5
D2
102
{ACAD_XDICTIONARY
360
D3
102
}
330
1F
100
AcDbEntity
  8
0X-ARCHAEOLOGY
100
AcDbPoint
 10
78965.3477460635
 20
24036.29384596541
 30
0.0
1001
IRD
1002
{
1000
TPMCNTR_Ch87300-_-ade
1070
   515
1071
        1
1004
0100060000000000000035D8C03F103236B57102F53F01000000
1002
}
  0
POINT
  5
D5
102
{ACAD_XDICTIONARY
360
D6
102
}
330
1F
100
AcDbEntity
  8
0X-ARCHAEOLOGY
100
AcDbPoint
 10
78966.42046728151
 20
24033.50569575408
 30
0.0
1001
IRD
1002
{
1000
TPMCNTR_Ch87300-_-ade
1070
   515
1071
        1
1004
010007000000000000E066F8F53FA2D84E3DCE1C114002000000
1002
}
  0
POINT
  5
D8
102
{ACAD_XDICTIONARY
360
D9
102
}
330
1F
100
AcDbEntity
  8
0X-ARCHAEOLOGY
100
AcDbPoint
 10
79024.48479740319
 20
24086.09114276006
 30
0.0
1001
IRD
1002
{
1000
TPMCNTR_Ch87300-_-ade
1070
   515
1071
        1
1004
010008000000000000406D9BE03F3FA4EB53D0DC084004000000
1002
}
  0
LWPOLYLINE
  5
DB
330
1F
100
AcDbEntity
  8
0X-ARCHAEOLOGY
100
AcDbPolyline
 90
        4
 70
     0
 43
0.0
 10
78966.36626298877
 20
24032.92030496872
 10
78966.74030969187
 20
24033.07018630288
 10
78967.03966949205
 20
24033.20618086809
 10
78967.06186591725
 20
24033.24174174455
1001
IRD
1002
{
1000
TPMLINK_Ch87300-_-ade
1070
   515
1071
        1
1004
01000A000000040000000F000000000000009F703488FCC1E83F9F703488FCC1E83F0700000011000000
1002
}
  0
POINT
  5
DC
330
1F
100
AcDbEntity
  8
0X-ARCHAEOLOGY
100
AcDbPoint
 10
78967.06186591725
 20
24033.24174174455
 30
0.0
1001
IRD
1002
{
1000
TPMNODE_Ch87300-_-ade
1070
   515
1071
        1
1004
01000F0000000000000000000000
1002
}
  0
LWPOLYLINE
  5
DD
330
1F
100
AcDbEntity
  8
0X-ARCHAEOLOGY
100
AcDbPolyline
 90
       18
 70
     0
 43
0.0
 10
78967.06186591725
 20
24033.24174174455
 10
78967.14129265526
 20
24033.36899126304
 10
78967.16210703808
 20
24033.57298311085
 10
78967.08374700858
 20
24033.78032693733
 10
78966.8866225594
 20
24033.93356025021
 10
78966.60073088948
 20
24034.04226013157
 10
78966.36258986231
 20
24034.10690543544
 10
78966.17219947826
 20
24034.11025741417
 10
78966.01609160705
 20
24034.04561211029
 10
78965.8085599665
 20
24033.86556296761
 10
78965.72040493332
 20
24033.67833101342
 10
78965.67938835546
 20
24033.47433916567
 10
78965.668981164
 20
24033.29429002298
 10
78965.78101151867
 20
24033.08359421778
 10
78965.93405845121
 20
24032.92365694745
 10
78966.16240447457
 20
24032.89348913892
 10
78966.35902428473
 20
24032.91935277962
 10
78966.36626298877
 20
24032.92030496872
1001
IRD
1002
{
1000
TPMLINK_Ch87300-_-ade
1070
   515
1071
        1
1004
0100100000000F00000004000000000000001C9590581D090C401C9590581D090C400700000000000000
1002
}
  0
LWPOLYLINE
  5
DE
330
1F
100
AcDbEntity
  8
0X-ARCHAEOLOGY
100
AcDbPolyline
 90
       12
 70
     0
 43
0.0
 10
78967.06186591725
 20
24033.24174174455
 10
78967.1571391094
 20
24033.16511309394
 10
78967.1982181366
 20
24033.04876146951
 10
78967.20506320112
 20
24032.85027859096
 10
78967.16398417392
 20
24032.69970490666
 10
78967.09209695633
 20
24032.56282004631
 10
78967.00309167738
 20
24032.46357691748
 10
78966.89012543258
 20
24032.4533111443
 10
78966.67103800751
 20
24032.49779897735
 10
78966.4964532219
 20
24032.60046346739
 10
78966.40744794295
 20
24032.74076968894
 10
78966.36626298877
 20
24032.92030496872
1001
IRD
1002
{
1000
TPMLINK_Ch87300-_-ade
1070
   515
1071
        1
1004
0100120000000F00000004000000000000008C45CA603C73FC3F8C45CA603C73FC3F0000000011000000
1002
}
  0
POINT
  5
DF
102
{ACAD_XDICTIONARY
360
E0
102
}
330
1F
100
AcDbEntity
  8
0X-ARCHAEOLOGY
100
AcDbPoint
 10
78966.79368905838
 20
24032.85000329915
 30
0.0
1001
IRD
1002
{
1000
TPMCNTR_Ch87300-_-ade
1070
   515
1071
        1
1004
01001100000000000080B80ADC3FEE3E72521D6A044002000000
1002
}
  0
POINT
  5
E2
330
1F
100
AcDbEntity
  8
0X-ARCHAEOLOGY
100
AcDbPoint
 10
79024.100283674
 20
24086.52249858122
 30
0.0
1001
IRD
1002
{
1000
TPMNODE_Ch87300-_-ade
1070
   515
1071
        1
1004
0100130000000000000000000000
1002
}
  0
LWPOLYLINE
  5
E3
330
1F
100
AcDbEntity
  8
0X-ARCHAEOLOGY
100
AcDbPolyline
 90
        3
 70
     0
 43
0.0
 10
79024.100283674
 20
24086.52249858122
 10
79024.47757109278
 20
24086.61469436984
 10
79024.61632763088
 20
24086.64566239617
1001
IRD
1002
{
1000
TPMLINK_Ch87300-_-ade
1070
   515
1071
        1
1004
010014000000130000002300000000000000BC62451657FAE03FBC62451657FAE03F0000000008000000
1002
}
  0
POINT
  5
E4
330
1F
100
AcDbEntity
  8
0X-ARCHAEOLOGY
100
AcDbPoint
 10
79024.40219406509
 20
24085.5296147563
 30
0.0
1001
IRD
1002
{
1000
TPMNODE_Ch87300-_-ade
1070
   515
1071
        1
1004
0100170000000000000000000000
1002
}
  0
LWPOLYLINE
  5
E5
330
1F
100
AcDbEntity
  8
0X-ARCHAEOLOGY
100
AcDbPolyline
 90
        3
 70
     0
 43
0.0
 10
79024.40219406509
 20
24085.5296147563
 10
79023.17912091699
 20
24085.58898888162
 10
79023.04076648992
 20
24086.42267387459
1001
IRD
1002
{
1000
TPMLINK_Ch87300-_-ade
1070
   515
1071
        1
1004
0100180000001700000001000000000000001D5F63DD8A8E00401D5F63DD8A8E00400000000027000000
1002
}
  0
POINT
  5
E6
330
1F
100
AcDbEntity
  8
0X-ARCHAEOLOGY
100
AcDbPoint
 10
79026.37528663824
 20
24086.84847235034
 30
0.0
1001
IRD
1002
{
1000
TPMNODE_Ch87300-_-ade
1070
   515
1071
        1
1004
01001B0000000000000000000000
1002
}
  0
LWPOLYLINE
  5
E7
330
1F
100
AcDbEntity
  8
0X-ARCHAEOLOGY
100
AcDbPolyline
 90
        4
 70
     0
 43
0.0
 10
79026.37528663824
 20
24086.84847235034
 10
79026.49901497806
 20
24086.87375443947
 10
79026.91652701003
 20
24086.89865485276
 10
79027.1084534927
 20
24086.92597888899
1001
IRD
1002
{
1000
TPMLINK_Ch87300-_-ade
1070
   515
1071
        1
1004
01001C0000001B0000002100000000000000DBBB5347FAA0E73FDBBB5347FAA0E73F000000002B000000
1002
}
  0
POINT
  5
E8
330
1F
100
AcDbEntity
  8
0X-ARCHAEOLOGY
100
AcDbPoint
 10
79026.49922025145
 20
24085.85294234789
 30
0.0
1001
IRD
1002
{
1000
TPMNODE_Ch87300-_-ade
1070
   515
1071
        1
1004
01001D0000000000000000000000
1002
}
  0
POINT
  5
E9
330
1F
100
AcDbEntity
  8
0X-ARCHAEOLOGY
100
AcDbPoint
 10
79027.22966175823
 20
24086.00984987538
 30
0.0
1001
IRD
1002
{
1000
TPMNODE_Ch87300-_-ade
1070
   515
1071
        1
1004
01001F0000000000000000000000
1002
}
  0
LWPOLYLINE
  5
EA
330
1F
100
AcDbEntity
  8
0X-ARCHAEOLOGY
100
AcDbPolyline
 90
        6
 70
     0
 43
0.0
 10
79027.22966175823
 20
24086.00984987538
 10
79027.10018332908
 20
24085.96345278999
 10
79026.89999794133
 20
24085.96345278999
 10
79026.67410066887
 20
24085.89689206972
 10
79026.58227250935
 20
24085.86337228253
 10
79026.49922025145
 20
24085.85294234789
1001
IRD
1002
{
1000
TPMLINK_Ch87300-_-ade
1070
   515
1071
        1
1004
0100200000001F0000001D0000000000000061ECC5D25F26E83F61ECC5D25F26E83F000000002B000000
1002
}
  0
POINT
  5
EB
330
1F
100
AcDbEntity
  8
0X-ARCHAEOLOGY
100
AcDbPoint
 10
79027.1084534927
 20
24086.92597888899
 30
0.0
1001
IRD
1002
{
1000
TPMNODE_Ch87300-_-ade
1070
   515
1071
        1
1004
0100210000000000000000000000
1002
}
  0
LWPOLYLINE
  5
EC
330
1F
100
AcDbEntity
  8
0X-ARCHAEOLOGY
100
AcDbPolyline
 90
       15
 70
     0
 43
0.0
 10
79027.1084534927
 20
24086.92597888899
 10
79027.20915274508
 20
24086.94031515974
 10
79027.60156508011
 20
24086.79043382558
 10
79027.97744834656
 20
24086.62331374368
 10
79028.1445755969
 20
24086.72339425114
 10
79028.40353100677
 20
24086.80671486503
 10
79028.82961366698
 20
24086.92403412022
 10
79029.34752448671
 20
24087.07391545438
 10
79029.25508413953
 20
24086.43129324843
 10
79028.62881609146
 20
24086.37287304789
 10
79028.26946189383
 20
24086.33121274097
 10
79027.86847893056
 20
24086.26417316659
 10
79027.55136568623
 20
24086.13871339161
 10
79027.334039042
 20
24086.04725225799
 10
79027.22966175823
 20
24086.00984987538
1001
IRD
1002
{
1000
TPMLINK_Ch87300-_-ade
1070
   515
1071
        1
1004
010022000000210000001F000000000000001568D249107614401568D24910761440000000002D000000
1002
}
  0
POINT
  5
ED
330
1F
100
AcDbEntity
  8
0X-ARCHAEOLOGY
100
AcDbPoint
 10
79024.61632763088
 20
24086.64566239617
 30
0.0
1001
IRD
1002
{
1000
TPMNODE_Ch87300-_-ade
1070
   515
1071
        1
1004
0100230000000000000000000000
1002
}
  0
POINT
  5
EE
330
1F
100
AcDbEntity
  8
0X-ARCHAEOLOGY
100
AcDbPoint
 10
79024.8499157688
 20
24085.58237276019
 30
0.0
1001
IRD
1002
{
1000
TPMNODE_Ch87300-_-ade
1070
   515
1071
        1
1004
0100250000000000000000000000
1002
}
  0
LWPOLYLINE
  5
EF
330
1F
100
AcDbEntity
  8
0X-ARCHAEOLOGY
100
AcDbPolyline
 90
        5
 70
     0
 43
0.0
 10
79024.8499157688
 20
24085.58237276019
 10
79024.74448494322
 20
24085.57127127983
 10
79024.59449894924
 20
24085.5545113862
 10
79024.40227200196
 20
24085.52961097285
 10
79024.40219406509
 20
24085.5296147563
1001
IRD
1002
{
1000
TPMLINK_Ch87300-_-ade
1070
   515
1071
        1
1004
010026000000250000001700000000000000431D05A2A1DADC3F431D05A2A1DADC3F0000000008000000
1002
}
  0
LWPOLYLINE
  5
F0
330
1F
100
AcDbEntity
  8
0X-ARCHAEOLOGY
100
AcDbPolyline
 90
        8
 70
     0
 43
0.0
 10
79026.49922025145
 20
24085.85294234789
 10
79026.44881558418
 20
24085.84661238891
 10
79025.85560567351
 20
24085.74653188145
 10
79025.50482210412
 20
24085.68811168091
 10
79025.15403853473
 20
24085.63783200009
 10
79024.94449405177
 20
24085.5961541936
 10
79024.90365375299
 20
24085.58803117339
 10
79024.8499157688
 20
24085.58237276019
1001
IRD
1002
{
1000
TPMLINK_Ch87300-_-ade
1070
   515
1071
        1
1004
01001A0000001D0000002500000000000000D7586B404ABFFA3FD7586B404ABFFA3F0000000029000000
1002
}
  0
LWPOLYLINE
  5
F1
330
1F
100
AcDbEntity
  8
0X-ARCHAEOLOGY
100
AcDbPolyline
 90
        7
 70
     0
 43
0.0
 10
79024.61632763088
 20
24086.64566239617
 10
79024.6905300008
 20
24086.66222306406
 10
79024.70285617758
 20
24086.6649740506
 10
79025.00344035309
 20
24086.68173394422
 10
79025.61317933234
 20
24086.71525373141
 10
79026.1310901522
 20
24086.7985743453
 10
79026.37528663824
 20
24086.84847235034
1001
IRD
1002
{
1000
TPMLINK_Ch87300-_-ade
1070
   515
1071
        1
1004
010016000000230000001B00000000000000EA57F43C0B63FC3FEA57F43C0B63FC3F0000000029000000
1002
}
  0
LWPOLYLINE
  5
F2
330
1F
100
AcDbEntity
  8
0X-ARCHAEOLOGY
100
AcDbPolyline
 90
        2
 70
     0
 43
0.0
 10
79024.100283674
 20
24086.52249858122
 10
79024.40219406509
 20
24085.5296147563
1001
IRD
1002
{
1000
TPMLINK_Ch87300-_-ade
1070
   515
1071
        1
1004
010028000000130000001700000000000000E5C64086B59AF03FE5C64086B59AF03F0800000027000000
1002
}
  0
POINT
  5
F3
102
{ACAD_XDICTIONARY
360
F4
102
}
330
1F
100
AcDbEntity
  8
0X-ARCHAEOLOGY
100
AcDbPoint
 10
79023.6781799946
 20
24086.0291758133
 30
0.0
1001
IRD
1002
{
1000
TPMCNTR_Ch87300-_-ade
1070
   515
1071
        1
1004
010027000000000000E098B1F03F06ABE09697B0104003000000
1002
}
  0
LWPOLYLINE
  5
F6
330
1F
100
AcDbEntity
  8
0X-ARCHAEOLOGY
100
AcDbPolyline
 90
        2
 70
     0
 43
0.0
 10
79024.61632763088
 20
24086.64566239617
 10
79024.8499157688
 20
24085.58237276019
1001
IRD
1002
{
1000
TPMLINK_Ch87300-_-ade
1070
   515
1071
        1
1004
01002A000000230000002500000000000000EA88F22D176BF13FEA88F22D176BF13F2900000008000000
1002
}
  0
POINT
  5
F7
102
{ACAD_XDICTIONARY
360
F8
102
}
330
1F
100
AcDbEntity
  8
0X-ARCHAEOLOGY
100
AcDbPoint
 10
79025.58178536588
 20
24086.21940000712
 30
0.0
1001
IRD
1002
{
1000
TPMCNTR_Ch87300-_-ade
1070
   515
1071
        1
1004
010029000000000000001528FC3F45D9BCDAA526164004000000
1002
}
  0
LWPOLYLINE
  5
FA
330
1F
100
AcDbEntity
  8
0X-ARCHAEOLOGY
100
AcDbPolyline
 90
        2
 70
     0
 43
0.0
 10
79026.37528663824
 20
24086.84847235034
 10
79026.49922025145
 20
24085.85294234789
1001
IRD
1002
{
1000
TPMLINK_Ch87300-_-ade
1070
   515
1071
        1
1004
01002C0000001B0000001D00000000000000692BA1BF2A0DF03F692BA1BF2A0DF03F2B00000029000000
1002
}
  0
POINT
  5
FB
102
{ACAD_XDICTIONARY
360
FC
102
}
330
1F
100
AcDbEntity
  8
0X-ARCHAEOLOGY
100
AcDbPoint
 10
79026.8055004204
 20
24086.39283156273
 30
0.0
1001
IRD
1002
{
1000
TPMCNTR_Ch87300-_-ade
1070
   515
1071
        1
1004
01002B00000000000080CBCCE63F20B948F7005D0B4004000000
1002
}
  0
LWPOLYLINE
  5
FE
330
1F
100
AcDbEntity
  8
0X-ARCHAEOLOGY
100
AcDbPolyline
 90
        2
 70
     0
 43
0.0
 10
79027.1084534927
 20
24086.92597888899
 10
79027.22966175823
 20
24086.00984987538
1001
IRD
1002
{
1000
TPMLINK_Ch87300-_-ade
1070
   515
1071
        1
1004
01002E000000210000001F000000000000006DE5C6435492ED3F6DE5C6435492ED3F2D0000002B000000
1002
}
  0
POINT
  5
FF
102
{ACAD_XDICTIONARY
360
100
102
}
330
1F
100
AcDbEntity
  8
0X-ARCHAEOLOGY
100
AcDbPoint
 10
79028.21515106731
 20
24086.5452254269
 30
0.0
1001
IRD
1002
{
1000
TPMCNTR_Ch87300-_-ade
1070
   515
1071
        1
1004
01002D000000000000A099F5F23FBF444BD25A28184002000000
1002
}
  0
LWPOLYLINE
  5
102
330
1F
100
AcDbEntity
  8
0X-SECTIONS
100
AcDbPolyline
 90
        4
 70
     0
 43
0.0
 10
79024.48582030066
 20
24086.6871576935
 10
79024.61632763088
 20
24086.64566239617
 10
79024.88402420757
 20
24085.49293198686
 10
79024.74127145603
 20
24085.46288821157
  0
LWPOLYLINE
  5
103
330
1F
100
AcDbEntity
  8
0X-SECTIONS
100
AcDbPolyline
 90
        4
 70
     0
 43
0.0
 10
79026.96520894527
 20
24086.97257017967
 10
79027.1084534927
 20
24086.92597888899
 10
79027.24319978143
 20
24085.91353977229
 10
79027.08542201605
 20
24085.8609640103
  0
LWPOLYLINE
  5
104
330
1F
100
AcDbEntity
  8
0X-HACHURES
100
AcDbPolyline
 90
        2
 70
     0
 43
0.0
 10
79024.2452509084
 20
24086.0457491005
 10
79024.71519594945
 20
24086.19561532018
  0
LWPOLYLINE
  5
105
330
1F
100
AcDbEntity
  8
0X-HACHURES
100
AcDbPolyline
 90
        2
 70
     0
 43
0.0
 10
79024.30178303286
 20
24085.85983356518
 10
79024.75170998328
 20
24086.06269134578
  0
LWPOLYLINE
  5
106
330
1F
100
AcDbEntity
  8
0X-HACHURES
100
AcDbPolyline
 90
        2
 70
     0
 43
0.0
 10
79026.44978672997
 20
24086.25003037343
 10
79027.19133943418
 20
24086.30320129589
  0
LWPOLYLINE
  5
107
330
1F
100
AcDbEntity
  8
0X-HACHURES
100
AcDbPolyline
 90
        2
 70
     0
 43
0.0
 10
79026.46854587011
 20
24086.0993425467
 10
79027.20453040143
 20
24086.19980032977
  0
LWPOLYLINE
  5
108
330
1F
100
AcDbEntity
  8
0X-HACHURES
100
AcDbPolyline
 90
       15
 70
     0
 43
0.0
 10
79025.92086032296
 20
24086.63458193152
 10
79025.92086032296
 20
24086.63458193152
 10
79025.75556789066
 20
24086.60453815623
 10
79025.64286732681
 20
24086.51440683035
 10
79025.62032764604
 20
24086.37170143205
 10
79025.7029738622
 20
24086.2064623575
 10
79025.80815975912
 20
24086.13135460882
 10
79026.00350653911
 20
24086.14637649647
 10
79026.1237196099
 20
24086.19895225845
 10
79026.19885115912
 20
24086.31912567006
 10
79026.19885115912
 20
24086.41676709499
 10
79026.16128646451
 20
24086.52191861895
 10
79026.13123211681
 20
24086.58200447998
 10
79026.0335587268
 20
24086.62707014292
 10
79025.92086032296
 20
24086.63458193152
  0
LWPOLYLINE
  5
109
330
1F
100
AcDbEntity
  8
0X-HACHURES
100
AcDbPolyline
 90
        7
 70
     0
 43
0.0
 10
78965.00725532552
 20
24038.86857629066
 10
78964.86354569055
 20
24038.76844783182
 10
78964.81564319889
 20
24038.57254491305
 10
78964.85048196373
 20
24038.42017691487
 10
78964.93322322023
 20
24038.27216122607
 10
78965.08564200641
 20
24038.18944707338
 10
78965.29031785984
 20
24038.24604061163
  0
LWPOLYLINE
  5
10A
330
1F
100
AcDbEntity
  8
0X-HACHURES
100
AcDbPolyline
 90
        6
 70
     0
 43
0.0
 10
78965.10741488443
 20
24038.65090675638
 10
78965.0725761196
 20
24038.5899592192
 10
78965.0725761196
 20
24038.52901168202
 10
78965.10741488443
 20
24038.46371014591
 10
78965.14660822487
 20
24038.4332372221
 10
78965.22064033015
 20
24038.43758953147
  0
LWPOLYLINE
  5
10B
330
1F
100
AcDbEntity
  8
0X-HACHURES
100
AcDbPolyline
 90
       12
 70
     0
 43
0.0
 10
78965.7298599949
 20
24033.65686829684
 10
78965.7355537753
 20
24033.52880970362
 10
78965.78679347891
 20
24033.45197522351
 10
78965.90919895754
 20
24033.35522081816
 10
78966.03160443617
 20
24033.29261413199
 10
78966.11415777198
 20
24033.27838633806
 10
78966.19101732741
 20
24033.29546104243
 10
78966.29064984442
 20
24033.31822618855
 10
78966.36466250964
 20
24033.24992906063
 10
78966.46429502666
 20
24033.21293443101
 10
78966.53261607149
 20
24033.22716391451
 10
78966.5810088849
 20
24033.24139170844
  0
LWPOLYLINE
  5
10C
330
1F
100
AcDbEntity
  8
0X-HACHURES
100
AcDbPolyline
 90
        6
 70
     0
 43
0.0
 10
78966.25079770162
 20
24033.75646792306
 10
78966.185323547
 20
24033.68247866383
 10
78966.16539747559
 20
24033.59426161067
 10
78966.23656325061
 20
24033.44913000264
 10
78966.29634362482
 20
24033.41213537303
 10
78966.46429502666
 20
24033.4292100774
  0
LWPOLYLINE
  5
10D
330
1F
100
AcDbEntity
  8
0X-HACHURES
100
AcDbPolyline
 90
        6
 70
     0
 43
0.0
 10
78966.36626298877
 20
24032.92030496872
 10
78966.50699621967
 20
24032.78038482781
 10
78966.64078925911
 20
24032.72631549382
 10
78966.74042177614
 20
24032.69216608508
 10
78966.84574807357
 20
24032.69785821639
 10
78966.93114613957
 20
24032.73200762513
  0
LWPOLYLINE
  5
10E
330
1F
100
AcDbEntity
  8
0X-HACHURES
100
AcDbPolyline
 90
        4
 70
     0
 43
0.0
 10
78966.62721975577
 20
24033.0248709175
 10
78966.68064140192
 20
24032.97389363851
 10
78966.72618732513
 20
24032.9682015072
 10
78966.75465406713
 20
24032.97958576982
  0
LWPOLYLINE
  5
10F
330
1F
100
AcDbEntity
  8
0X-HACHURES
100
AcDbPolyline
 90
        6
 70
     0
 43
0.0
 10
78965.29676672403
 20
24036.28953541069
 10
78965.3376349894
 20
24036.2372791933
 10
78965.39468079382
 20
24036.22386069913
 10
78965.43494981811
 20
24036.24398844039
 10
78965.4332714921
 20
24036.29262921459
 10
78965.39975421727
 20
24036.3446516186
  0
LWPOLYLINE
  5
110
330
1F
100
AcDbEntity
  8
0X-SECTIONS
100
AcDbPolyline
 90
        4
 70
     0
 43
0.0
 10
78965.1195174078
 20
24036.11316065655
 10
78965.0792483835
 20
24036.17354219076
 10
78965.60776555738
 20
24036.44190869509
 10
78965.64971074769
 20
24036.37984773716
  0
LWPOLYLINE
  5
111
330
1F
100
AcDbEntity
  8
0X-SECTIONS
100
AcDbPolyline
 90
        5
 70
     0
 43
0.0
 10
78964.64076249223
 20
24039.33548311862
 10
78964.779117468
 20
24039.38270973019
 10
78964.80611324475
 20
24039.39283020112
 10
78965.48439023527
 20
24037.76347324193
 10
78965.3865289246
 20
24037.70612446987
  0
LWPOLYLINE
  5
112
330
1F
100
AcDbEntity
  8
0X-SECTIONS
100
AcDbPolyline
 90
        4
 70
     0
 43
0.0
 10
78965.97517207394
 20
24034.08538491772
 10
78966.07951772785
 20
24034.13174647402
 10
78967.10365299773
 20
24032.38935111969
 10
78967.00317159767
 20
24032.31981047481
  0
LWPOLYLINE
  5
113
330
1F
100
AcDbEntity
  8
0X-ARCHAEOLOGY
100
AcDbPolyline
 90
        4
 70
     0
 43
0.0
 10
78995.97695598216
 20
24085.5523487817
 10
78996.28816989737
 20
24085.73535528067
 10
78996.47123703336
 20
24085.87444163912
 10
78996.6231003268
 20
24085.97104950415
1001
IRD
1002
{
1000
TPMLINK_Ch87300-_-ade
1070
   515
1071
        1
1004
0100310000002F0000003500000000000000E603FB7C78ABE83FE603FB7C78ABE83F000000003F000000
1002
}
  0
POINT
  5
114
330
1F
100
AcDbEntity
  8
0X-ARCHAEOLOGY
100
AcDbPoint
 10
78995.97695598216
 20
24085.5523487817
 30
0.0
1001
IRD
1002
{
1000
TPMNODE_Ch87300-_-ade
1070
   515
1071
        1
1004
01002F0000000000000000000000
1002
}
  0
POINT
  5
115
102
{ACAD_XDICTIONARY
360
116
102
}
330
1F
100
AcDbEntity
  8
0X-ARCHAEOLOGY
100
AcDbPoint
 10
78996.8937642119
 20
24085.95204313803
 30
0.0
1001
IRD
1002
{
1000
TPMCNTR_Ch87300-_-ade
1070
   515
1071
        1
1004
010030000000000000005CC4BA3F2A3430DBEFA8F43F04000000
1002
}
  0
LWPOLYLINE
  5
118
330
1F
100
AcDbEntity
  8
0X-ARCHAEOLOGY
100
AcDbPolyline
 90
        4
 70
     0
 43
0.0
 10
78997.19618531114
 20
24086.21117623293
 10
78997.11563430249
 20
24086.38686355326
 10
78997.10831187625
 20
24086.59549224615
 10
78997.11322845056
 20
24086.60417536158
1001
IRD
1002
{
1000
TPMLINK_Ch87300-_-ade
1070
   515
1071
        1
1004
010034000000320000003D00000000000000310C45CA595EDA3F310C45CA595EDA3F0000000043000000
1002
}
  0
POINT
  5
119
330
1F
100
AcDbEntity
  8
0X-ARCHAEOLOGY
100
AcDbPoint
 10
78997.19618531114
 20
24086.21117623293
 30
0.0
1001
IRD
1002
{
1000
TPMNODE_Ch87300-_-ade
1070
   515
1071
        1
1004
0100320000000000000000000000
1002
}
  0
POINT
  5
11A
102
{ACAD_XDICTIONARY
360
11B
102
}
330
1F
100
AcDbEntity
  8
0X-ARCHAEOLOGY
100
AcDbPoint
 10
78998.34431798065
 20
24086.69711957069
 30
0.0
1001
IRD
1002
{
1000
TPMCNTR_Ch87300-_-ade
1070
   515
1071
        1
1004
010033000000000000E011EBF53FCF84AAAC30D01A4002000000
1002
}
  0
POINT
  5
11D
330
1F
100
AcDbEntity
  8
0X-ARCHAEOLOGY
100
AcDbPoint
 10
78996.6231003268
 20
24085.97104950415
 30
0.0
1001
IRD
1002
{
1000
TPMNODE_Ch87300-_-ade
1070
   515
1071
        1
1004
0100350000000000000000000000
1002
}
  0
LWPOLYLINE
  5
11E
330
1F
100
AcDbEntity
  8
0X-ARCHAEOLOGY
100
AcDbPolyline
 90
        5
 70
     0
 43
0.0
 10
78996.6231003268
 20
24085.97104950415
 10
78996.63233689065
 20
24085.97692534612
 10
78996.6982408868
 20
24086.07208987448
 10
78996.79343674793
 20
24086.14529348781
 10
78996.81513299164
 20
24086.15653939431
1001
IRD
1002
{
1000
TPMLINK_Ch87300-_-ade
1070
   515
1071
        1
1004
010036000000350000003900000000000000718ECC19D15BD13F718ECC19D15BD13F0000000030000000
1002
}
  0
POINT
  5
11F
330
1F
100
AcDbEntity
  8
0X-ARCHAEOLOGY
100
AcDbPoint
 10
78996.77949501153
 20
24085.70446007595
 30
0.0
1001
IRD
1002
{
1000
TPMNODE_Ch87300-_-ade
1070
   515
1071
        1
1004
0100370000000000000000000000
1002
}
  0
LWPOLYLINE
  5
120
330
1F
100
AcDbEntity
  8
0X-ARCHAEOLOGY
100
AcDbPolyline
 90
        5
 70
     0
 43
0.0
 10
78996.77949501153
 20
24085.70446007595
 10
78996.76414488297
 20
24085.7024139081
 10
78996.63233689065
 20
24085.64019244186
 10
78996.14171705257
 20
24085.34005880992
 10
78995.97695598216
 20
24085.5523487817
1001
IRD
1002
{
1000
TPMLINK_Ch87300-_-ade
1070
   515
1071
        1
1004
010038000000370000002F0000000000000081CD9B32ED14F03F81CD9B32ED14F03F000000003F000000
1002
}
  0
POINT
  5
121
330
1F
100
AcDbEntity
  8
0X-ARCHAEOLOGY
100
AcDbPoint
 10
78996.81513299164
 20
24086.15653939431
 30
0.0
1001
IRD
1002
{
1000
TPMNODE_Ch87300-_-ade
1070
   515
1071
        1
1004
0100390000000000000000000000
1002
}
  0
LWPOLYLINE
  5
122
330
1F
100
AcDbEntity
  8
0X-ARCHAEOLOGY
100
AcDbPolyline
 90
        9
 70
     0
 43
0.0
 10
78996.81513299164
 20
24086.15653939431
 10
78996.89229382218
 20
24086.19653449653
 10
78996.97650388393
 20
24086.19287490721
 10
78997.05705273258
 20
24086.13797261961
 10
78997.12662010186
 20
24086.01718758688
 10
78997.15957101993
 20
24085.93666479492
 10
78997.15224859369
 20
24085.88176250732
 10
78997.10098945002
 20
24085.83051980903
 10
78997.04286073014
 20
24085.79381870824
1001
IRD
1002
{
1000
TPMLINK_Ch87300-_-ade
1070
   515
1071
        1
1004
01003A000000390000003B000000000000006D2F6CAE4622E63F6D2F6CAE4622E63F0000000041000000
1002
}
  0
POINT
  5
123
330
1F
100
AcDbEntity
  8
0X-ARCHAEOLOGY
100
AcDbPoint
 10
78997.04286073014
 20
24085.79381870824
 30
0.0
1001
IRD
1002
{
1000
TPMNODE_Ch87300-_-ade
1070
   515
1071
        1
1004
01003B0000000000000000000000
1002
}
  0
LWPOLYLINE
  5
124
330
1F
100
AcDbEntity
  8
0X-ARCHAEOLOGY
100
AcDbPolyline
 90
        4
 70
     0
 43
0.0
 10
78997.04286073014
 20
24085.79381870824
 10
78996.96185903145
 20
24085.74267614887
 10
78996.87398559657
 20
24085.71705564451
 10
78996.77949501153
 20
24085.70446007595
1001
IRD
1002
{
1000
TPMLINK_Ch87300-_-ade
1070
   515
1071
        1
1004
01003C0000003B0000003700000000000000E1584C980217D23FE1584C980217D23F0000000030000000
1002
}
  0
POINT
  5
125
330
1F
100
AcDbEntity
  8
0X-ARCHAEOLOGY
100
AcDbPoint
 10
78997.11322845056
 20
24086.60417536158
 30
0.0
1001
IRD
1002
{
1000
TPMNODE_Ch87300-_-ade
1070
   515
1071
        1
1004
01003D0000000000000000000000
1002
}
  0
LWPOLYLINE
  5
126
330
1F
100
AcDbEntity
  8
0X-ARCHAEOLOGY
100
AcDbPolyline
 90
       22
 70
     0
 43
0.0
 10
78997.11322845056
 20
24086.60417536158
 10
78997.21815258985
 20
24086.78948089221
 10
78997.46712372202
 20
24087.1079141603
 10
78997.72708065354
 20
24087.30190280635
 10
78997.93211506827
 20
24087.39706564516
 10
78998.11884341738
 20
24087.43000701772
 10
78998.35316969707
 20
24087.41536697088
 10
78998.52525319371
 20
24087.35680509396
 10
78998.69001426411
 20
24087.23967965055
 10
78998.73761219467
 20
24087.1079141603
 10
78998.76690189964
 20
24086.93954601861
 10
78998.7412734078
 20
24086.83706231161
 10
78998.67903062476
 20
24086.64673494444
 10
78998.6314326942
 20
24086.49300853915
 10
78998.39710641452
 20
24086.30267948242
 10
78998.18108620042
 20
24086.16359312397
 10
78997.93211506827
 20
24086.03914850192
 10
78997.74904793226
 20
24085.96228529928
 10
78997.55865837002
 20
24085.95496443108
 10
78997.34996058217
 20
24086.04646937013
 10
78997.26575052041
 20
24086.13065175141
 10
78997.19618531114
 20
24086.21117623293
1001
IRD
1002
{
1000
TPMLINK_Ch87300-_-ade
1070
   515
1071
        1
1004
01003E0000003D0000003200000000000000AA4015E6ACBB1140AA4015E6ACBB11400000000033000000
1002
}
  0
LWPOLYLINE
  5
127
330
1F
100
AcDbEntity
  8
0X-ARCHAEOLOGY
100
AcDbPolyline
 90
        2
 70
     0
 43
0.0
 10
78996.6231003268
 20
24085.97104950415
 10
78996.77949501153
 20
24085.70446007595
1001
IRD
1002
{
1000
TPMLINK_Ch87300-_-ade
1070
   515
1071
        1
1004
010040000000350000003700000000000000C72AD229EFC7D33FC72AD229EFC7D33F300000003F000000
1002
}
  0
POINT
  5
128
102
{ACAD_XDICTIONARY
360
129
102
}
330
1F
100
AcDbEntity
  8
0X-ARCHAEOLOGY
100
AcDbPoint
 10
78996.41245594902
 20
24085.65753641431
 30
0.0
1001
IRD
1002
{
1000
TPMCNTR_Ch87300-_-ade
1070
   515
1071
        1
1004
01003F000000000000009351CA3F13EDC69D52AE004003000000
1002
}
  0
LWPOLYLINE
  5
12B
330
1F
100
AcDbEntity
  8
0X-ARCHAEOLOGY
100
AcDbPolyline
 90
        2
 70
     0
 43
0.0
 10
78996.81513299164
 20
24086.15653939431
 10
78997.04286073014
 20
24085.79381870824
1001
IRD
1002
{
1000
TPMLINK_Ch87300-_-ade
1070
   515
1071
        1
1004
010042000000390000003B000000000000008CBED590FC68DB3F8CBED590FC68DB3F4100000030000000
1002
}
  0
POINT
  5
12C
102
{ACAD_XDICTIONARY
360
12D
102
}
330
1F
100
AcDbEntity
  8
0X-ARCHAEOLOGY
100
AcDbPoint
 10
78997.0253785118
 20
24085.99644173404
 30
0.0
1001
IRD
1002
{
1000
TPMCNTR_Ch87300-_-ade
1070
   515
1071
        1
1004
010041000000000000003295B23F5C876B7B62EBF13F02000000
1002
}
  0
LWPOLYLINE
  5
12F
330
1F
100
AcDbEntity
  8
0X-ARCHAEOLOGY
100
AcDbPolyline
 90
        4
 70
     0
 43
0.0
 10
78997.19618531114
 20
24086.21117623293
 10
78998.07857007306
 20
24086.74921865144
 10
78997.86254985898
 20
24087.0456910045
 10
78997.11322845056
 20
24086.60417536158
1001
IRD
1002
{
1000
TPMLINK_Ch87300-_-ade
1070
   515
1071
        1
1004
010044000000320000003D000000000000004C882A8D072902404C882A8D072902404300000033000000
1002
}
  0
POINT
  5
130
102
{ACAD_XDICTIONARY
360
131
102
}
330
1F
100
AcDbEntity
  8
0X-ARCHAEOLOGY
100
AcDbPoint
 10
78997.52181549172
 20
24086.63105524687
 30
0.0
1001
IRD
1002
{
1000
TPMCNTR_Ch87300-_-ade
1070
   515
1071
        1
1004
010043000000000000807E44D73FD22973C6D274054002000000
1002
}
  0
LWPOLYLINE
  5
133
330
1F
100
AcDbEntity
  8
0X-HACHURES
100
AcDbPolyline
 90
        2
 70
     0
 43
0.0
 10
78996.67981616584
 20
24085.87437202995
 10
78996.88030457543
 20
24086.05273525635
  0
LWPOLYLINE
  5
134
330
1F
100
AcDbEntity
  8
0X-HACHURES
100
AcDbPolyline
 90
        2
 70
     0
 43
0.0
 10
78996.72686994949
 20
24085.79416443659
 10
78996.98058670612
 20
24085.8930076646
  0
LWPOLYLINE
  5
135
330
1F
100
AcDbEntity
  8
0X-HACHURES
100
AcDbPolyline
 90
        4
 70
     0
 43
0.0
 10
78997.49583772346
 20
24086.8296166438
 10
78997.43783401707
 20
24086.6650345806
 10
78997.43417280394
 20
24086.49666812847
 10
78997.46481758617
 20
24086.37497729249
  0
LWPOLYLINE
  5
136
330
1F
100
AcDbEntity
  8
0X-SECTIONS
100
AcDbPolyline
 90
        4
 70
     0
 43
0.0
 10
78996.6982408868
 20
24086.14895307713
 10
78996.78245310856
 20
24086.20751495405
 10
78997.0790221713
 20
24085.72803610203
 10
78996.99480994952
 20
24085.65117289938
  0
LWPOLYLINE
  5
137
330
1F
100
AcDbEntity
  8
0X-SECTIONS
100
AcDbPolyline
 90
        4
 70
     0
 43
0.0
 10
78997.11197308937
 20
24086.26973810986
 10
78997.14858738058
 20
24086.18189444969
 10
78998.14813528235
 20
24086.78948089221
 10
78998.07857007306
 20
24086.87366327349
  0
POINT
  5
146
102
{ACAD_XDICTIONARY
360
147
102
}
330
1F
100
AcDbEntity
  8
0X-ARCHAEOLOGY
100
AcDbPoint
 10
78964.93846092878
 20
24038.5706218894
 30
0.0
1001
IRD
1002
{
1000
TPMCNTR_Ch87300-_-ade
1070
   515
1071
        1
1004
01000500000000000080C586F13FE0F125CECD91104001000000
1002
}
  0
POINT
  5
149
102
{ACAD_XDICTIONARY
360
14A
102
}
330
1F
100
AcDbEntity
  8
0X-ARCHAEOLOGY
100
AcDbPoint
 10
78965.3477460635
 20
24036.29384596541
 30
0.0
1001
IRD
1002
{
1000
TPMCNTR_Ch87300-_-ade
1070
   515
1071
        1
1004
0100060000000000000035D8C03F103236B57102F53F01000000
1002
}
  0
POINT
  5
14C
102
{ACAD_XDICTIONARY
360
14D
102
}
330
1F
100
AcDbEntity
  8
0X-ARCHAEOLOGY
100
AcDbPoint
 10
78966.42046728151
 20
24033.50569575408
 30
0.0
1001
IRD
1002
{
1000
TPMCNTR_Ch87300-_-ade
1070
   515
1071
        1
1004
010007000000000000E066F8F53FA2D84E3DCE1C114002000000
1002
}
  0
POINT
  5
14F
102
{ACAD_XDICTIONARY
360
150
102
}
330
1F
100
AcDbEntity
  8
0X-ARCHAEOLOGY
100
AcDbPoint
 10
79024.48479740319
 20
24086.09114276006
 30
0.0
1001
IRD
1002
{
1000
TPMCNTR_Ch87300-_-ade
1070
   515
1071
        1
1004
010008000000000000406D9BE03F3FA4EB53D0DC084004000000
1002
}
  0
POINT
  5
152
102
{ACAD_XDICTIONARY
360
153
102
}
330
1F
100
AcDbEntity
  8
0X-ARCHAEOLOGY
100
AcDbPoint
 10
78966.79368905838
 20
24032.85000329915
 30
0.0
1001
IRD
1002
{
1000
TPMCNTR_Ch87300-_-ade
1070
   515
1071
        1
1004
01001100000000000080B80ADC3FEE3E72521D6A044002000000
1002
}
  0
POINT
  5
155
102
{ACAD_XDICTIONARY
360
156
102
}
330
1F
100
AcDbEntity
  8
0X-ARCHAEOLOGY
100
AcDbPoint
 10
79023.6781799946
 20
24086.0291758133
 30
0.0
1001
IRD
1002
{
1000
TPMCNTR_Ch87300-_-ade
1070
   515
1071
        1
1004
010027000000000000E098B1F03F06ABE09697B0104003000000
1002
}
  0
POINT
  5
158
102
{ACAD_XDICTIONARY
360
159
102
}
330
1F
100
AcDbEntity
  8
0X-ARCHAEOLOGY
100
AcDbPoint
 10
79025.58178536588
 20
24086.21940000712
 30
0.0
1001
IRD
1002
{
1000
TPMCNTR_Ch87300-_-ade
1070
   515
1071
        1
1004
010029000000000000001528FC3F45D9BCDAA526164004000000
1002
}
  0
POINT
  5
15B
102
{ACAD_XDICTIONARY
360
15C
102
}
330
1F
100
AcDbEntity
  8
0X-ARCHAEOLOGY
100
AcDbPoint
 10
79026.8055004204
 20
24086.39283156273
 30
0.0
1001
IRD
1002
{
1000
TPMCNTR_Ch87300-_-ade
1070
   515
1071
        1
1004
01002B00000000000080CBCCE63F20B948F7005D0B4004000000
1002
}
  0
POINT
  5
15E
102
{ACAD_XDICTIONARY
360
15F
102
}
330
1F
100
AcDbEntity
  8
0X-ARCHAEOLOGY
100
AcDbPoint
 10
79028.21515106731
 20
24086.5452254269
 30
0.0
1001
IRD
1002
{
1000
TPMCNTR_Ch87300-_-ade
1070
   515
1071
        1
1004
01002D000000000000A099F5F23FBF444BD25A28184002000000
1002
}
  0
POINT
  5
161
102
{ACAD_XDICTIONARY
360
162
102
}
330
1F
100
AcDbEntity
  8
0X-ARCHAEOLOGY
100
AcDbPoint
 10
78996.8937642119
 20
24085.95204313803
 30
0.0
1001
IRD
1002
{
1000
TPMCNTR_Ch87300-_-ade
1070
   515
1071
        1
1004
010030000000000000005CC4BA3F2A3430DBEFA8F43F04000000
1002
}
  0
POINT
  5
164
102
{ACAD_XDICTIONARY
360
165
102
}
330
1F
100
AcDbEntity
  8
0X-ARCHAEOLOGY
100
AcDbPoint
 10
78998.34431798065
 20
24086.69711957069
 30
0.0
1001
IRD
1002
{
1000
TPMCNTR_Ch87300-_-ade
1070
   515
1071
        1
1004
010033000000000000E011EBF53FCF84AAAC30D01A4002000000
1002
}
  0
POINT
  5
167
102
{ACAD_XDICTIONARY
360
168
102
}
330
1F
100
AcDbEntity
  8
0X-ARCHAEOLOGY
100
AcDbPoint
 10
78996.41245594902
 20
24085.65753641431
 30
0.0
1001
IRD
1002
{
1000
TPMCNTR_Ch87300-_-ade
1070
   515
1071
        1
1004
01003F000000000000009351CA3F13EDC69D52AE004003000000
1002
}
  0
POINT
  5
16A
102
{ACAD_XDICTIONARY
360
16B
102
}
330
1F
100
AcDbEntity
  8
0X-ARCHAEOLOGY
100
AcDbPoint
 10
78997.0253785118
 20
24085.99644173404
 30
0.0
1001
IRD
1002
{
1000
TPMCNTR_Ch87300-_-ade
1070
   515
1071
        1
1004
010041000000000000003295B23F5C876B7B62EBF13F02000000
1002
}
  0
POINT
  5
16D
102
{ACAD_XDICTIONARY
360
16E
102
}
330
1F
100
AcDbEntity
  8
0X-ARCHAEOLOGY
100
AcDbPoint
 10
78997.52181549172
 20
24086.63105524687
 30
0.0
1001
IRD
1002
{
1000
TPMCNTR_Ch87300-_-ade
1070
   515
1071
        1
1004
010043000000000000807E44D73FD22973C6D274054002000000
1002
}
  0
TEXT
  5
170
330
1F
100
AcDbEntity
  8
0
 62
     1
100
AcDbText
 10
78961.49069063868
 20
24039.82425164667
 30
0.0
 40
2.0
  1
816
 72
     1
 11
78963.824023972
 21
24039.82425164667
 31
0.0
100
AcDbText
  0
TEXT
  5
171
330
1F
100
AcDbEntity
  8
0
 62
     1
100
AcDbText
 10
78959.79329911541
 20
24034.5773142945
 30
0.0
 40
2.0
  1
825
 72
     1
 11
78962.45996578208
 21
24034.5773142945
 31
0.0
100
AcDbText
  0
TEXT
  5
172
330
1F
100
AcDbEntity
  8
0
 62
     1
100
AcDbText
 10
78967.16577703888
 20
24033.62332568501
 30
0.0
 40
2.0
  1
819
 72
     1
 11
78969.49911037221
 21
24033.62332568501
 31
0.0
100
AcDbText
  0
TEXT
  5
174
330
1F
100
AcDbEntity
  8
0
 62
     1
100
AcDbText
 10
78967.15076080382
 20
24030.54930500432
 30
0.0
 40
2.0
  1
822
 72
     1
 11
78969.8174274705
 21
24030.54930500432
 31
0.0
100
AcDbText
  0
TEXT
  5
175
330
1F
100
AcDbEntity
  8
0
 62
     1
100
AcDbText
 10
79017.93076875465
 20
24084.09620225648
 30
0.0
 40
2.0
  1
807
 72
     1
 11
79020.43076875465
 21
24084.09620225648
 31
0.0
100
AcDbText
  0
TEXT
  5
17A
330
1F
100
AcDbEntity
  8
0
 62
     1
100
AcDbText
 10
78998.51320664248
 20
24087.46005533628
 30
0.0
 40
2.0
  1
829
 72
     1
 11
79001.17987330916
 21
24087.46005533628
 31
0.0
100
AcDbText
  0
TEXT
  5
17B
330
1F
100
AcDbEntity
  8
0
 62
     1
100
AcDbText
 10
78990.61211493415
 20
24083.49329715539
 30
0.0
 40
2.0
  1
827
 72
     1
 11
78993.27878160082
 21
24083.49329715539
 31
0.0
100
AcDbText
  0
LWPOLYLINE
  5
1F9
330
1F
100
AcDbEntity
  8
0
 62
     3
100
AcDbPolyline
 90
        2
 70
     0
 43
0.2
 10
78909.19639385596
 20
23967.33604455764
 10
78914.19682778619
 20
23967.33604455764
  0
LWPOLYLINE
  5
1FA
330
1F
100
AcDbEntity
  8
0
  6
DIVIDE
100
AcDbPolyline
 90
        2
 70
     0
 43
0.2
 10
78909.25903998918
 20
23963.19609351894
 10
78914.19682778619
 20
23963.19609351894
  0
HATCH
  5
1FB
330
1F
100
AcDbEntity
  8
0
100
AcDbHatch
 10
0.0
 20
0.0
 30
0.0
210
0.0
220
0.0
230
1.0
  2
SOLID
 70
     1
 71
     1
 91
        2
 92
        7
 72
     0
 73
     1
 93
        4
 10
78919.01318654449
 20
23989.0666597192
 10
78919.0071462013
 20
23990.10134675661
 10
78909.0131865445
 20
23990.10134675661
 10
78909.0131865445
 20
23989.0666597192
 97
        3
330
209
330
200
330
1FF
 92
        7
 72
     0
 73
     1
 93
        4
 10
78923.99175545722
 20
23990.10134675661
 10
78924.01318654449
 20
23989.0666597192
 10
78929.0131865445
 20
23989.0666597192
 10
78928.97636471316
 20
23990.1013467566
 97
        4
330
1FD
330
1FC
330
1FE
330
200
 75
     0
 76
     1
 47
0.0334422169390341
 98
        2
 10
78915.46111403572
 20
23989.40097884466
 10
78927.3036803281
 20
23989.66861333599
  0
LWPOLYLINE
  5
1FC
102
{ACAD_REACTORS
330
1FB
102
}
330
1F
100
AcDbEntity
  8
0
100
AcDbPolyline
 90
        2
 70
     0
 43
0.0
 10
78924.0131865445
 20
23989.0666597192
 10
78923.99175545722
 20
23990.10134675661
  0
LWPOLYLINE
  5
1FD
102
{ACAD_REACTORS
330
1FB
102
}
330
1F
100
AcDbEntity
  8
0
100
AcDbPolyline
 90
        2
 70
     0
 43
0.0
 10
78919.0071462013
 20
23990.10134675661
 10
78928.97636471316
 20
23990.10134675661
  0
LWPOLYLINE
  5
1FE
102
{ACAD_REACTORS
330
1FB
102
}
330
1F
100
AcDbEntity
  8
0
100
AcDbPolyline
 90
        2
 70
     0
 43
0.0
 10
78919.0131865445
 20
23989.0666597192
 10
78929.0131865445
 20
23989.0666597192
  0
LWPOLYLINE
  5
1FF
102
{ACAD_REACTORS
330
1FB
102
}
330
1F
100
AcDbEntity
  8
0
100
AcDbPolyline
 90
        2
 70
     0
 43
0.0
 10
78919.0131865445
 20
23989.0666597192
 10
78919.0071462013
 20
23990.10134675661
  0
LWPOLYLINE
  5
200
102
{ACAD_REACTORS
330
1FB
102
}
330
1F
100
AcDbEntity
  8
0
100
AcDbPolyline
 90
        4
 70
     0
 43
0.0
 10
78909.0131865445
 20
23990.10134675661
 10
78909.0131865445
 20
23989.0666597192
 10
78929.0131865445
 20
23989.0666597192
 10
78928.97636471316
 20
23990.10134675661
  0
LWPOLYLINE
  5
201
330
1F
100
AcDbEntity
  8
ARCH-LEGEND
 62
     5
 48
0.1
100
AcDbPolyline
 90
        5
 70
     0
 43
0.0
 10
78911.11514600404
 20
23972.39913764971
 10
78910.90368755549
 20
23971.86800379834
 10
78911.33222178053
 20
23971.65389194495
 10
78911.689333229
 20
23971.6182067496
 10
78912.025338346
 20
23971.78250504665
  0
LWPOLYLINE
  5
202
330
1F
100
AcDbEntity
  8
ARCH-LEGEND
 62
     4
 48
0.1
100
AcDbPolyline
 90
        4
 70
     0
 43
0.0
 10
78910.29659760618
 20
23972.4389686272
 10
78910.5822868867
 20
23972.76013640729
 10
78912.68924601507
 20
23971.33272416485
 10
78912.5821124588
 20
23971.11861231145
  0
POINT
  5
203
330
1F
100
AcDbEntity
  8
ARCH-LEGEND
 48
0.1
100
AcDbPoint
 10
78911.47506611646
 20
23972.04643011575
 30
0.0
  0
POINT
  5
204
330
1F
100
AcDbEntity
  8
ARCH-LEGEND
 48
0.1
100
AcDbPoint
 10
78911.72504461728
 20
23972.5460245539
 30
0.0
  0
LWPOLYLINE
  5
205
330
1F
100
AcDbEntity
  8
ARCH-LEGEND
 48
0.1
100
AcDbPolyline
 90
        8
 70
     0
 43
0.0
 10
78911.72504461728
 20
23972.5460245539
 10
78910.8322653875
 20
23972.61739494459
 10
78910.36801977418
 20
23971.97505972504
 10
78910.79655399921
 20
23971.40409489621
 10
78912.01073389777
 20
23971.40409489621
 10
78912.61782384707
 20
23971.5111508229
 10
78912.90351312756
 20
23972.01074492039
 10
78911.72504461728
 20
23972.5460245539
  0
TEXT
  5
206
330
1F
100
AcDbEntity
  8
ARCHAEOLOGICAL-SYMBOLS
 48
0.1
100
AcDbText
 10
78928.4163580394
 20
23990.85667854654
 30
0.0
 40
1.4
  1
20m
  7
STYLE1
100
AcDbText
  0
TEXT
  5
207
330
1F
100
AcDbEntity
  8
ARCHAEOLOGICAL-SYMBOLS
 48
0.1
100
AcDbText
 10
78908.56422258978
 20
23990.85667854654
 30
0.0
 40
1.4
  1
0
  7
STYLE1
100
AcDbText
  0
LINE
  5
208
330
1F
100
AcDbEntity
  8
ARCHAEOLOGICAL-SYMBOLS
 48
0.1
100
AcDbLine
 10
78921.5131865445
 20
23990.10134675661
 30
0.0
 11
78928.97636471316
 21
23990.10134675661
 31
0.0
  0
LINE
  5
209
102
{ACAD_REACTORS
330
1FB
102
}
330
1F
100
AcDbEntity
  8
ARCHAEOLOGICAL-SYMBOLS
 48
0.1
100
AcDbLine
 10
78928.97636471316
 20
23990.10134675661
 30
0.0
 11
78909.0131865445
 21
23990.10134675661
 31
0.0
  0
TEXT
  5
20A
330
1F
100
AcDbEntity
  8
ARCH-TEXT
 48
0.1
100
AcDbText
 10
78908.78886770812
 20
23994.31985215383
 30
0.0
 40
1.40625
  1
SCALE 1:1000
  7
STYLE1
100
AcDbText
  0
TEXT
  5
20B
330
1F
100
AcDbEntity
  8
ARCH-TEXT
  6
ACAD_ISO03W100
 48
0.1
100
AcDbText
 10
78917.05403736935
 20
23962.53481765864
 30
0.0
 40
1.40625
  1
Truncated by Machine
  7
STYLE1
100
AcDbText
  0
TEXT
  5
20C
330
1F
100
AcDbEntity
  8
ARCH-TEXT
  6
ACAD_ISO03W100
 48
0.1
100
AcDbText
 10
78916.92554645549
 20
23966.49694275741
 30
0.0
 40
1.40625
  1
Extrapolated Feature
  7
STYLE1
100
AcDbText
  0
TEXT
  5
20D
330
1F
100
AcDbEntity
  8
ARCH-TEXT
  6
DIVIDE
 48
0.1
100
AcDbText
 10
78916.93520024634
 20
23970.70522651143
 30
0.0
 40
1.40625
  1
excavation area
  7
STYLE1
100
AcDbText
  0
LWPOLYLINE
  5
20E
330
1F
100
AcDbEntity
  8
ARCH-TEXT
  6
DASHDOT
 62
     1
 48
0.1
100
AcDbPolyline
 90
        5
 70
     0
 43
0.140625
 10
78909.08584055983
 20
23973.08238566418
 10
78914.41943205052
 20
23973.08238566418
 10
78914.41943205052
 20
23970.70522651143
 10
78909.08584055983
 20
23970.70522651143
 10
78909.08584055983
 20
23973.08238566418
  0
TEXT
  5
20F
330
1F
100
AcDbEntity
  8
ARCH-TEXT
 48
0.1
100
AcDbText
 10
78917.05403736935
 20
23974.72078186335
 30
0.0
 40
1.40625
  1
post hole
  7
STYLE1
100
AcDbText
  0
HATCH
  5
210
330
1F
100
AcDbEntity
  8
ARCH-TEXT
 48
0.1
100
AcDbHatch
 10
0.0
 20
0.0
 30
0.0
210
0.0
220
0.0
230
1.0
  2
SOLID
 70
     1
 71
     0
 91
        1
 92
        7
 72
     0
 73
     1
 93
        3
 10
78911.72051357673
 20
23977.54769912995
 10
78910.11403866301
 20
23974.78502466406
 10
78913.32698849039
 20
23974.78502466406
 97
        0
 75
     0
 76
     1
 47
0.456881033828098
 98
        1
 10
78912.62015306798
 20
23975.5559967814
  0
LWPOLYLINE
  5
211
330
1F
100
AcDbEntity
  8
ARCH-TEXT
 48
0.1
100
AcDbPolyline
 90
        3
 70
     0
 43
0.0
 10
78913.32698849039
 20
23974.78502466406
 10
78911.72051357673
 20
23977.54769912995
 10
78910.11403866301
 20
23974.78502466406
  0
TEXT
  5
212
330
1F
100
AcDbEntity
  8
ARCH-TEXT
 48
0.1
100
AcDbText
 10
78917.05403736935
 20
23979.08970187358
 30
0.0
 40
1.40625
  1
pit
  7
STYLE1
100
AcDbText
  0
HATCH
  5
213
330
1F
100
AcDbEntity
  8
ARCH-TEXT
 62
   150
 48
0.1
100
AcDbHatch
 10
0.0
 20
0.0
 30
0.0
210
0.0
220
0.0
230
1.0
  2
SOLID
 70
     1
 71
     1
 91
        1
 92
        7
 72
     1
 73
     1
 93
        2
 10
78910.11275464401
 20
23980.37467490548
 42
1.0
 10
78913.32827250945
 20
23980.37467490548
 42
1.0
 97
        1
330
214
 75
     0
 76
     1
 47
0.456881033828098
 98
        1
 10
78910.37102049074
 20
23980.37467490548
  0
CIRCLE
  5
214
102
{ACAD_REACTORS
330
213
102
}
330
1F
100
AcDbEntity
  8
ARCH-TEXT
 48
0.1
100
AcDbCircle
 10
78911.72051357673
 20
23980.37467490548
 30
0.0
 40
1.607758932719358
  0
TEXT
  5
215
330
1F
100
AcDbEntity
  8
ARCH-TEXT
 48
0.1
100
AcDbText
 10
78916.92554645549
 20
23983.58716599415
 30
0.0
 40
1.40625
  1
linear feature
  7
STYLE1
100
AcDbText
  0
HATCH
  5
216
330
1F
100
AcDbEntity
  8
ARCH-TEXT
 62
    82
 48
0.1
100
AcDbHatch
 10
0.0
 20
0.0
 30
0.0
210
0.0
220
0.0
230
1.0
  2
SOLID
 70
     1
 71
     1
 91
        1
 92
        7
 72
     0
 73
     1
 93
        4
 10
78914.35511889553
 20
23983.58716599415
 10
78914.35511889553
 20
23986.47832606146
 10
78909.08584055983
 20
23986.47832606146
 10
78909.08584055983
 20
23983.58716599415
 97
        1
330
217
 75
     0
 76
     1
 47
0.456881033828098
 98
        1
 10
78911.59195496477
 20
23984.2296525101
  0
LWPOLYLINE
  5
217
102
{ACAD_REACTORS
330
216
102
}
330
1F
100
AcDbEntity
  8
ARCH-TEXT
100
AcDbPolyline
 90
        4
 70
     1
 43
0.0
 10
78909.08584055983
 20
23986.47832606146
 10
78914.35511889553
 20
23986.47832606146
 10
78914.35511889553
 20
23983.58716599415
 10
78909.08584055983
 20
23983.58716599415
  0
LWPOLYLINE
  5
218
330
1F
100
AcDbEntity
  8
ARCH-LEGEND
100
AcDbPolyline
 90
        4
 70
     1
 43
0.0
 10
78907.01613947749
 20
24027.01680173319
 10
78944.34143939766
 20
24027.01680173319
 10
78944.34143939766
 20
23959.67526429627
 10
78907.01613947749
 20
23959.67526429627
  0
MTEXT
  5
21A
330
1F
100
AcDbEntity
  8
1-FENCES
 48
0.1
100
AcDbMText
 10
78908.79238137146
 20
24002.07384905474
 30
0.0
 40
0.5
 41
24.70524509168832
 46
0.0
 71
     1
 72
     5
  3
{\fSymbol|b0|i0|c2|p18;Ó }Union Railways (South) Limited 2000.\PReproduced from the Ordnance Survey's 1:25,000 map of 1997\Pwith the permission of the Controller of Her Majesty's Stationary \POffice {\fSymbol|b0|i0|c2|p18;Ó }Crown Copyright.  Licence
  1
 No. 854166.
  7
STYLE1
 11
0.9998476951563913
 21
0.01745240643728351
 31
0.0
 73
     1
 44
1.0
  0
INSERT
  5
21B
330
1F
100
AcDbEntity
  8
ARCH-LEGEND
 48
0.1
100
AcDbBlockReference
  2
NORTH
 10
78909.04126708399
 20
24018.15017706569
 30
0.0
 41
0.25
 42
0.25
 43
0.25
  0
MTEXT
  5
221
330
1F
100
AcDbEntity
  8
ARCH-LEGEND
 48
0.1
100
AcDbMText
 10
78909.02335494981
 20
24015.73456203079
 30
0.0
 40
1.4
 41
37.01185
 46
0.0
 71
     1
 72
     5
  1
Channel Tunnel Rail Link\PProject Area 430\PSignificant Discovery Individual\PLodge Wood (ARC 430/99)\P(Watching Brief)
  7
STYLE1
 73
     1
 44
1.0
  0
LWPOLYLINE
  5
222
330
1F
100
AcDbEntity
  8
0
100
AcDbPolyline
 90
        4
 70
     1
 43
0.0
 10
78903.88039334115
 20
23949.79575988092
 10
79073.29391992991
 20
23949.79575988092
 10
79073.29391992991
 20
24110.20156964325
 10
78903.88039334115
 20
24110.20156964325
  0
CIRCLE
  5
2E1
330
1F
100
AcDbEntity
  8
0
 62
     1
100
AcDbCircle
 10
78920.0
 20
24090.0
 30
0.0
 40
1.165015597513667
  0
LWPOLYLINE
  5
2E2
330
1F
100
AcDbEntity
  8
0
 62
     1
100
AcDbPolyline
 90
        2
 70
     0
 43
0.0
 10
78920.0
 20
24090.0
 10
78920.0
 20
24088.34090678718
  0
LWPOLYLINE
  5
2E3
330
1F
100
AcDbEntity
  8
0
 62
     1
100
AcDbPolyline
 90
        2
 70
     0
 43
0.0
 10
78920.0
 20
24090.0
 10
78920.0
 20
24091.94956215455
  0
LWPOLYLINE
  5
2E4
330
1F
100
AcDbEntity
  8
0
 62
     1
100
AcDbPolyline
 90
        2
 70
     0
 43
0.0
 10
78920.0
 20
24090.0
 10
78921.70614411047
 20
24090.0
  0
LWPOLYLINE
  5
2E5
330
1F
100
AcDbEntity
  8
0
 62
     1
100
AcDbPolyline
 90
        2
 70
     0
 43
0.0
 10
78920.0
 20
24090.0
 10
78918.4320811373
 20
24090.0
  0
TEXT
  5
2E6
330
1F
100
AcDbEntity
  8
0
 62
     1
100
AcDbText
 10
78922.79749846917
 20
24088.84443989319
 30
0.0
 40
2.0
  1
78920, 24090
  7
STYLE1
100
AcDbText
  0
LWPOLYLINE
  5
2E7
330
1F
100
AcDbEntity
  8
0
 62
     1
100
AcDbPolyline
 90
        2
 70
     0
 43
0.0
 10
79050.0
 20
24090.0
 10
79048.4320811373
 20
24090.0
  0
CIRCLE
  5
2E8
330
1F
100
AcDbEntity
  8
0
 62
     1
100
AcDbCircle
 10
79050.0
 20
24090.0
 30
0.0
 40
1.165015597513667
  0
TEXT
  5
2E9
330
1F
100
AcDbEntity
  8
0
 62
     1
100
AcDbText
 10
79052.79749846917
 20
24088.84443989319
 30
0.0
 40
2.0
  1
79050, 24090
  7
STYLE1
100
AcDbText
  0
LWPOLYLINE
  5
2EA
330
1F
100
AcDbEntity
  8
0
 62
     1
100
AcDbPolyline
 90
        2
 70
     0
 43
0.0
 10
79050.0
 20
24090.0
 10
79051.70614411047
 20
24090.0
  0
LWPOLYLINE
  5
2EB
330
1F
100
AcDbEntity
  8
0
 62
     1
100
AcDbPolyline
 90
        2
 70
     0
 43
0.0
 10
79050.0
 20
24090.0
 10
79050.0
 20
24091.94956215455
  0
LWPOLYLINE
  5
2EC
330
1F
100
AcDbEntity
  8
0
 62
     1
100
AcDbPolyline
 90
        2
 70
     0
 43
0.0
 10
79050.0
 20
24090.0
 10
79050.0
 20
24088.34090678718
  0
TEXT
  5
2ED
330
1F
100
AcDbEntity
  8
0
 62
     1
100
AcDbText
 10
79052.79749846917
 20
23998.84443989319
 30
0.0
 40
2.0
  1
79050, 24000
  7
STYLE1
100
AcDbText
  0
LWPOLYLINE
  5
2EE
330
1F
100
AcDbEntity
  8
0
 62
     1
100
AcDbPolyline
 90
        2
 70
     0
 43
0.0
 10
79050.0
 20
24000.0
 10
79050.0
 20
23998.34090678718
  0
LWPOLYLINE
  5
2EF
330
1F
100
AcDbEntity
  8
0
 62
     1
100
AcDbPolyline
 90
        2
 70
     0
 43
0.0
 10
79050.0
 20
24000.0
 10
79050.0
 20
24001.94956215455
  0
LWPOLYLINE
  5
2F0
330
1F
100
AcDbEntity
  8
0
 62
     1
100
AcDbPolyline
 90
        2
 70
     0
 43
0.0
 10
79050.0
 20
24000.0
 10
79051.70614411047
 20
24000.0
  0
CIRCLE
  5
2F1
330
1F
100
AcDbEntity
  8
0
 62
     1
100
AcDbCircle
 10
79050.0
 20
24000.0
 30
0.0
 40
1.165015597513667
  0
LWPOLYLINE
  5
2F2
330
1F
100
AcDbEntity
  8
0
 62
     1
100
AcDbPolyline
 90
        2
 70
     0
 43
0.0
 10
79050.0
 20
24000.0
 10
79048.4320811373
 20
24000.0
  0
ENDSEC
  0
SECTION
  2
OBJECTS
  0
DICTIONARY
  5
C
330
0
100
AcDbDictionary
281
     1
  3
ACAD_DETAILVIEWSTYLE
350
369
  3
ACAD_GROUP
350
D
  3
ACAD_LAYOUT
350
1A
  3
ACAD_MATERIAL
350
330
  3
ACAD_MLEADERSTYLE
350
367
  3
ACAD_MLINESTYLE
350
17
  3
ACAD_PLOTSETTINGS
350
19
  3
ACAD_PLOTSTYLENAME
350
E
  3
ACAD_SCALELIST
350
30E
  3
ACAD_SECTIONVIEWSTYLE
350
36A
  3
ACAD_TABLESTYLE
350
366
  3
ACAD_VISUALSTYLE
350
2F5
  3
AcDbVariableDictionary
350
334
  3
ADE_DRAWING_SETS
350
17E
  3
ADE_QUERY_LIBRARY
350
17F
  3
IrdDscDictionary
350
41
1001
ADE
1000
ADE02C003
1000
[Workspace]
1000
Drawings=1
1000
QueryLibrary=1
1000
Databases=1
1000
Tables=1
1000
Queries=1
1000
Topologies=1
1000
LPNs=1
1000
ShowWSpaceOnStartup=1
1000
WSpaceDockingView=1
1000
WSpaceWindowRect=0,0,0,0
1000
[Work Session]
1000
RestoreLastActiveDwgsOnStartup=1
1000
ActivateDwgsOnAttach=1
1000
DontAddObjectsToSaveSet=0
1000
MarkObjectsForEditingWithoutPrompting=0
1000
LogFileActive=1
1000
LogFileName=acadmap.log
1000
LogMessageLevel=1
1000
[Query]
1000
QueryFileDirectory=C:\Program Files\Autodesk\ACADMAP4
1000
CaseSensitiveMatch=0
1000
SaveCurrQueryInSession=1
1000
MkSelSetWithQryObj=0
1000
ShowBlockAsInsPt=0
1000
CreateAssociativeHatchObjects=0
1000
ReferenceBoundaryForAreaLocation=1
1000
ShowImageAsBoundary=1
1000
DefaultJoinOperator=2
1000
ColorForAdd=red
1000
ColorForRemove=red
1000
BlockLocnForQuery=1
1000
TextLocnForQuery=1
1000
[Save Back]
1000
RedefineBlockDefinitions=1
1000
RedefineLayerDefinitions=1
1000
RedefineTextStyleDefinitions=1
1000
RemoveUnusedGroups=1
1000
EraseSavedBackObjects=1
1000
RemoveLockAfterSave=1
1000
CreateHistoryFileOfChanges=0
1000
CreateBackupFileOfSourceDwg=1
1000
[External Database]
1000
DisplayTabsInSingleView=0
1000
OpenDataViewReadOnly=0
1000
SaveDataViewFmtChanges=1
1000
KeepDataViewOnTop=0
1000
ReconnectDbOnWSOpen=1
1000
NoOfSQLConditionsInHistory=10
1000
ShowFullDBPath=1
1000
[Database Types]
1000
dbfDatabases=Prompt
1000
xlsDatabases=Prompt
1000
dbDatabases=Prompt
1000
[Coordinate Transformation]
1000
AdjustSizesAndScalesForChangesInUnits=1
1000
AdjustRotationsForMapDistortions=1
1000
AdjustSizesAndScalesForMapDistortions=1
1000
AdjustElevations=1
1000
AdjustZeroRotationObjects=1
  0
DICTIONARY
  5
5A
330
59
100
AcDbDictionary
280
     1
281
     1
  3
*A1
360
5B
  0
DICTIONARY
  5
5D
330
5C
100
AcDbDictionary
280
     1
281
     1
  3
*A1
360
5E
  0
DICTIONARY
  5
60
330
5F
100
AcDbDictionary
280
     1
281
     1
  3
*A1
360
61
  0
DICTIONARY
  5
63
330
62
100
AcDbDictionary
280
     1
281
     1
  3
*A1
360
64
  0
DICTIONARY
  5
6A
330
69
100
AcDbDictionary
280
     1
281
     1
  3
*A1
360
6B
  0
DICTIONARY
  5
7E
330
7D
100
AcDbDictionary
280
     1
281
     1
  3
*A1
360
7F
  0
DICTIONARY
  5
82
330
81
100
AcDbDictionary
280
     1
281
     1
  3
*A1
360
83
  0
DICTIONARY
  5
86
330
85
100
AcDbDictionary
280
     1
281
     1
  3
*A1
360
87
  0
DICTIONARY
  5
8A
330
89
100
AcDbDictionary
280
     1
281
     1
  3
*A1
360
8B
  0
DICTIONARY
  5
A0
330
9F
100
AcDbDictionary
280
     1
281
     1
  3
*A1
360
A1
  0
DICTIONARY
  5
A5
330
A4
100
AcDbDictionary
280
     1
281
     1
  3
*A1
360
A6
  0
DICTIONARY
  5
B3
330
B2
100
AcDbDictionary
280
     1
281
     1
  3
*A1
360
B4
  0
DICTIONARY
  5
B7
330
B6
100
AcDbDictionary
280
     1
281
     1
  3
*A1
360
B8
  0
DICTIONARY
  5
BB
330
BA
100
AcDbDictionary
280
     1
281
     1
  3
*A1
360
BC
  0
DICTIONARY
  5
D0
330
CF
100
AcDbDictionary
280
     1
281
     1
  3
*A1
360
D1
  0
DICTIONARY
  5
D3
330
D2
100
AcDbDictionary
280
     1
281
     1
  3
*A1
360
D4
  0
DICTIONARY
  5
D6
330
D5
100
AcDbDictionary
280
     1
281
     1
  3
*A1
360
D7
  0
DICTIONARY
  5
D9
330
D8
100
AcDbDictionary
280
     1
281
     1
  3
*A1
360
DA
  0
DICTIONARY
  5
E0
330
DF
100
AcDbDictionary
280
     1
281
     1
  3
*A1
360
E1
  0
DICTIONARY
  5
F4
330
F3
100
AcDbDictionary
280
     1
281
     1
  3
*A1
360
F5
  0
DICTIONARY
  5
F8
330
F7
100
AcDbDictionary
280
     1
281
     1
  3
*A1
360
F9
  0
DICTIONARY
  5
FC
330
FB
100
AcDbDictionary
280
     1
281
     1
  3
*A1
360
FD
  0
DICTIONARY
  5
100
330
FF
100
AcDbDictionary
280
     1
281
     1
  3
*A1
360
101
  0
DICTIONARY
  5
116
330
115
100
AcDbDictionary
280
     1
281
     1
  3
*A1
360
117
  0
DICTIONARY
  5
11B
330
11A
100
AcDbDictionary
280
     1
281
     1
  3
*A1
360
11C
  0
DICTIONARY
  5
129
330
128
100
AcDbDictionary
280
     1
281
     1
  3
*A1
360
12A
  0
DICTIONARY
  5
12D
330
12C
100
AcDbDictionary
280
     1
281
     1
  3
*A1
360
12E
  0
DICTIONARY
  5
131
330
130
100
AcDbDictionary
280
     1
281
     1
  3
*A1
360
132
  0
DICTIONARY
  5
147
330
146
100
AcDbDictionary
280
     1
281
     1
  3
*A1
360
148
  0
DICTIONARY
  5
14A
330
149
100
AcDbDictionary
280
     1
281
     1
  3
*A1
360
14B
  0
DICTIONARY
  5
14D
330
14C
100
AcDbDictionary
280
     1
281
     1
  3
*A1
360
14E
  0
DICTIONARY
  5
150
330
14F
100
AcDbDictionary
280
     1
281
     1
  3
*A1
360
151
  0
DICTIONARY
  5
153
330
152
100
AcDbDictionary
280
     1
281
     1
  3
*A1
360
154
  0
DICTIONARY
  5
156
330
155
100
AcDbDictionary
280
     1
281
     1
  3
*A1
360
157
  0
DICTIONARY
  5
159
330
158
100
AcDbDictionary
280
     1
281
     1
  3
*A1
360
15A
  0
DICTIONARY
  5
15C
330
15B
100
AcDbDictionary
280
     1
281
     1
  3
*A1
360
15D
  0
DICTIONARY
  5
15F
330
15E
100
AcDbDictionary
280
     1
281
     1
  3
*A1
360
160
  0
DICTIONARY
  5
162
330
161
100
AcDbDictionary
280
     1
281
     1
  3
*A1
360
163
  0
DICTIONARY
  5
165
330
164
100
AcDbDictionary
280
     1
281
     1
  3
*A1
360
166
  0
DICTIONARY
  5
168
330
167
100
AcDbDictionary
280
     1
281
     1
  3
*A1
360
169
  0
DICTIONARY
  5
16B
330
16A
100
AcDbDictionary
280
     1
281
     1
  3
*A1
360
16C
  0
DICTIONARY
  5
16E
330
16D
100
AcDbDictionary
280
     1
281
     1
  3
*A1
360
16F
  0
DICTIONARY
  5
369
102
{ACAD_REACTORS
330
C
102
}
330
C
100
AcDbDictionary
281
     1
  0
DICTIONARY
  5
D
102
{ACAD_REACTORS
330
C
102
}
330
C
100
AcDbDictionary
281
     1
  0
DICTIONARY
  5
1A
102
{ACAD_REACTORS
330
C
102
}
330
C
100
AcDbDictionary
281
     1
  3
Layout1
350
1E
  3
Layout2
350
26
  3
Model
350
22
  0
DICTIONARY
  5
330
102
{ACAD_REACTORS
330
C
102
}
330
C
100
AcDbDictionary
281
     1
  3
ByBlock
350
332
  3
ByLayer
350
331
  3
Global
350
333
  0
DICTIONARY
  5
367
102
{ACAD_REACTORS
330
C
102
}
330
C
100
AcDbDictionary
281
     1
  0
DICTIONARY
  5
17
102
{ACAD_REACTORS
330
C
102
}
330
C
100
AcDbDictionary
281
     1
  3
Standard
350
18
  0
DICTIONARY
  5
19
102
{ACAD_REACTORS
330
C
102
}
330
C
100
AcDbDictionary
281
     1
  0
ACDBDICTIONARYWDFLT
  5
E
102
{ACAD_REACTORS
330
C
102
}
330
C
100
AcDbDictionary
281
     1
  3
Normal
350
F
100
AcDbDictionaryWithDefault
340
F
  0
DICTIONARY
  5
30E
102
{ACAD_REACTORS
330
C
102
}
330
C
100
AcDbDictionary
281
     1
  3
A0
350
30F
  3
A1
350
310
  3
A2
350
311
  3
A3
350
312
  3
A4
350
313
  3
A5
350
314
  3
A6
350
315
  3
A7
350
316
  3
A8
350
317
  3
A9
350
318
  3
B0
350
319
  3
B1
350
31A
  3
B2
350
31B
  3
B3
350
31C
  3
B4
350
31D
  3
B5
350
31E
  3
B6
350
31F
  3
B7
350
320
  3
B8
350
321
  3
B9
350
322
  3
C0
350
323
  3
C1
350
324
  3
C2
350
325
  3
C3
350
326
  3
C4
350
327
  3
C5
350
328
  3
C6
350
329
  3
C7
350
32A
  3
C8
350
32B
  3
C9
350
32C
  3
D0
350
32D
  3
D1
350
32E
  3
D2
350
32F
  0
DICTIONARY
  5
36A
102
{ACAD_REACTORS
330
C
102
}
330
C
100
AcDbDictionary
281
     1
  0
DICTIONARY
  5
366
102
{ACAD_REACTORS
330
C
102
}
330
C
100
AcDbDictionary
281
     1
  0
DICTIONARY
  5
2F5
102
{ACAD_REACTORS
330
C
102
}
330
C
100
AcDbDictionary
281
     1
  3
2dWireframe
350
2FA
  3
Basic
350
2FD
  3
Brighten
350
301
  3
ColorChange
350
305
  3
Conceptual
350
2FF
  3
Dim
350
300
  3
EdgeColorOff
350
308
  3
Facepattern
350
304
  3
Flat
350
2F6
  3
FlatWithEdges
350
2F7
  3
Gouraud
350
2F8
  3
GouraudWithEdges
350
2F9
  3
Hidden
350
2FC
  3
JitterOff
350
306
  3
Linepattern
350
303
  3
OverhangOff
350
307
  3
Realistic
350
2FE
  3
Shaded
350
30D
  3
Shaded with edges
350
30C
  3
Shades of Gray
350
309
  3
Sketchy
350
30A
  3
Thicken
350
302
  3
Wireframe
350
2FB
  3
X-Ray
350
30B
  0
DICTIONARY
  5
334
102
{ACAD_REACTORS
330
C
102
}
330
C
100
AcDbDictionary
281
     1
  3
CANNOSCALE
350
335
  3
MSLTSCALE
350
368
  0
DICTIONARY
  5
17E
102
{ACAD_REACTORS
330
C
102
}
330
C
100
AcDbDictionary
281
     1
  0
DICTIONARY
  5
17F
102
{ACAD_REACTORS
330
C
102
}
330
C
100
AcDbDictionary
281
     1
  3
_CurrQry
350
180
  0
ACAD_PROXY_OBJECT
  5
41
102
{ACAD_REACTORS
330
C
102
}
330
C
100
AcDbProxyObject
 90
      499
 91
      503
 95
   589845
 70
     0
161
               368
310
42801032A4131410A904C4C1032A413240CA904CD032A413440CA904D5032A413640CA904DD032A413840CA904E6
350
42
350
49
350
4A
350
C2
350
43
350
44
350
45
350
46
350
47
350
48
 94
        0
  0
ACAD_PROXY_OBJECT
  5
5B
102
{ACAD_REACTORS
330
5A
102
}
330
5A
100
AcDbProxyObject
 90
      499
 91
      505
 95
   589845
 70
     0
161
                88
310
0100902908000030030000
330
4A
 94
        0
  0
ACAD_PROXY_OBJECT
  5
5E
102
{ACAD_REACTORS
330
5D
102
}
330
5D
100
AcDbProxyObject
 90
      499
 91
      505
 95
   589845
 70
     0
161
                88
310
0100902908000039030000
330
4A
 94
        0
  0
ACAD_PROXY_OBJECT
  5
61
102
{ACAD_REACTORS
330
60
102
}
330
60
100
AcDbProxyObject
 90
      499
 91
      505
 95
   589845
 70
     0
161
                88
310
0100902908000033030000
330
4A
 94
        0
  0
ACAD_PROXY_OBJECT
  5
64
102
{ACAD_REACTORS
330
63
102
}
330
63
100
AcDbProxyObject
 90
      499
 91
      505
 95
   589845
 70
     0
161
                88
310
0100902908000027030000
330
4A
 94
        0
  0
ACAD_PROXY_OBJECT
  5
6B
102
{ACAD_REACTORS
330
6A
102
}
330
6A
100
AcDbProxyObject
 90
      499
 91
      505
 95
   589845
 70
     0
161
                88
310
0100902908000036030000
330
4A
 94
        0
  0
ACAD_PROXY_OBJECT
  5
7F
102
{ACAD_REACTORS
330
7E
102
}
330
7E
100
AcDbProxyObject
 90
      499
 91
      505
 95
   589845
 70
     0
161
                88
310
0100902908000027030000
330
4A
 94
        0
  0
ACAD_PROXY_OBJECT
  5
83
102
{ACAD_REACTORS
330
82
102
}
330
82
100
AcDbProxyObject
 90
      499
 91
      505
 95
   589845
 70
     0
161
                88
310
0100902908000027030000
330
4A
 94
        0
  0
ACAD_PROXY_OBJECT
  5
87
102
{ACAD_REACTORS
330
86
102
}
330
86
100
AcDbProxyObject
 90
      499
 91
      505
 95
   589845
 70
     0
161
                88
310
0100902908000027030000
330
4A
 94
        0
  0
ACAD_PROXY_OBJECT
  5
8B
102
{ACAD_REACTORS
330
8A
102
}
330
8A
100
AcDbProxyObject
 90
      499
 91
      505
 95
   589845
 70
     0
161
                88
310
0100902908000027030000
330
4A
 94
        0
  0
ACAD_PROXY_OBJECT
  5
A1
102
{ACAD_REACTORS
330
A0
102
}
330
A0
100
AcDbProxyObject
 90
      499
 91
      505
 95
   589845
 70
     0
161
                88
310
010090290800003B030000
330
4A
 94
        0
  0
ACAD_PROXY_OBJECT
  5
A6
102
{ACAD_REACTORS
330
A5
102
}
330
A5
100
AcDbProxyObject
 90
      499
 91
      505
 95
   589845
 70
     0
161
                88
310
010090290800003D030000
330
4A
 94
        0
  0
ACAD_PROXY_OBJECT
  5
B4
102
{ACAD_REACTORS
330
B3
102
}
330
B3
100
AcDbProxyObject
 90
      499
 91
      505
 95
   589845
 70
     0
161
                88
310
010090290800003B030000
330
4A
 94
        0
  0
ACAD_PROXY_OBJECT
  5
B8
102
{ACAD_REACTORS
330
B7
102
}
330
B7
100
AcDbProxyObject
 90
      499
 91
      505
 95
   589845
 70
     0
161
                88
310
010090290800003B030000
330
4A
 94
        0
  0
ACAD_PROXY_OBJECT
  5
BC
102
{ACAD_REACTORS
330
BB
102
}
330
BB
100
AcDbProxyObject
 90
      499
 91
      505
 95
   589845
 70
     0
161
                88
310
010090290800003D030000
330
4A
 94
        0
  0
ACAD_PROXY_OBJECT
  5
D1
102
{ACAD_REACTORS
330
D0
102
}
330
D0
100
AcDbProxyObject
 90
      499
 91
      505
 95
   589845
 70
     0
161
                88
310
0100902908000030030000
330
4A
 94
        0
  0
ACAD_PROXY_OBJECT
  5
D4
102
{ACAD_REACTORS
330
D3
102
}
330
D3
100
AcDbProxyObject
 90
      499
 91
      505
 95
   589845
 70
     0
161
                88
310
0100902908000039030000
330
4A
 94
        0
  0
ACAD_PROXY_OBJECT
  5
D7
102
{ACAD_REACTORS
330
D6
102
}
330
D6
100
AcDbProxyObject
 90
      499
 91
      505
 95
   589845
 70
     0
161
                88
310
0100902908000033030000
330
4A
 94
        0
  0
ACAD_PROXY_OBJECT
  5
DA
102
{ACAD_REACTORS
330
D9
102
}
330
D9
100
AcDbProxyObject
 90
      499
 91
      505
 95
   589845
 70
     0
161
                88
310
0100902908000027030000
330
4A
 94
        0
  0
ACAD_PROXY_OBJECT
  5
E1
102
{ACAD_REACTORS
330
E0
102
}
330
E0
100
AcDbProxyObject
 90
      499
 91
      505
 95
   589845
 70
     0
161
                88
310
0100902908000036030000
330
4A
 94
        0
  0
ACAD_PROXY_OBJECT
  5
F5
102
{ACAD_REACTORS
330
F4
102
}
330
F4
100
AcDbProxyObject
 90
      499
 91
      505
 95
   589845
 70
     0
161
                88
310
0100902908000027030000
330
4A
 94
        0
  0
ACAD_PROXY_OBJECT
  5
F9
102
{ACAD_REACTORS
330
F8
102
}
330
F8
100
AcDbProxyObject
 90
      499
 91
      505
 95
   589845
 70
     0
161
                88
310
0100902908000027030000
330
4A
 94
        0
  0
ACAD_PROXY_OBJECT
  5
FD
102
{ACAD_REACTORS
330
FC
102
}
330
FC
100
AcDbProxyObject
 90
      499
 91
      505
 95
   589845
 70
     0
161
                88
310
0100902908000027030000
330
4A
 94
        0
  0
ACAD_PROXY_OBJECT
  5
101
102
{ACAD_REACTORS
330
100
102
}
330
100
100
AcDbProxyObject
 90
      499
 91
      505
 95
   589845
 70
     0
161
                88
310
0100902908000027030000
330
4A
 94
        0
  0
ACAD_PROXY_OBJECT
  5
117
102
{ACAD_REACTORS
330
116
102
}
330
116
100
AcDbProxyObject
 90
      499
 91
      505
 95
   589845
 70
     0
161
                88
310
010090290800003B030000
330
4A
 94
        0
  0
ACAD_PROXY_OBJECT
  5
11C
102
{ACAD_REACTORS
330
11B
102
}
330
11B
100
AcDbProxyObject
 90
      499
 91
      505
 95
   589845
 70
     0
161
                88
310
010090290800003D030000
330
4A
 94
        0
  0
ACAD_PROXY_OBJECT
  5
12A
102
{ACAD_REACTORS
330
129
102
}
330
129
100
AcDbProxyObject
 90
      499
 91
      505
 95
   589845
 70
     0
161
                88
310
010090290800003B030000
330
4A
 94
        0
  0
ACAD_PROXY_OBJECT
  5
12E
102
{ACAD_REACTORS
330
12D
102
}
330
12D
100
AcDbProxyObject
 90
      499
 91
      505
 95
   589845
 70
     0
161
                88
310
010090290800003B030000
330
4A
 94
        0
  0
ACAD_PROXY_OBJECT
  5
132
102
{ACAD_REACTORS
330
131
102
}
330
131
100
AcDbProxyObject
 90
      499
 91
      505
 95
   589845
 70
     0
161
                88
310
010090290800003D030000
330
4A
 94
        0
  0
ACAD_PROXY_OBJECT
  5
148
102
{ACAD_REACTORS
330
147
102
}
330
147
100
AcDbProxyObject
 90
      499
 91
      505
 95
   589845
 70
     0
161
                88
310
0100902908000030030000
330
4A
 94
        0
  0
ACAD_PROXY_OBJECT
  5
14B
102
{ACAD_REACTORS
330
14A
102
}
330
14A
100
AcDbProxyObject
 90
      499
 91
      505
 95
   589845
 70
     0
161
                88
310
0100902908000039030000
330
4A
 94
        0
  0
ACAD_PROXY_OBJECT
  5
14E
102
{ACAD_REACTORS
330
14D
102
}
330
14D
100
AcDbProxyObject
 90
      499
 91
      505
 95
   589845
 70
     0
161
                88
310
0100902908000033030000
330
4A
 94
        0
  0
ACAD_PROXY_OBJECT
  5
151
102
{ACAD_REACTORS
330
150
102
}
330
150
100
AcDbProxyObject
 90
      499
 91
      505
 95
   589845
 70
     0
161
                88
310
0100902908000027030000
330
4A
 94
        0
  0
ACAD_PROXY_OBJECT
  5
154
102
{ACAD_REACTORS
330
153
102
}
330
153
100
AcDbProxyObject
 90
      499
 91
      505
 95
   589845
 70
     0
161
                88
310
0100902908000036030000
330
4A
 94
        0
  0
ACAD_PROXY_OBJECT
  5
157
102
{ACAD_REACTORS
330
156
102
}
330
156
100
AcDbProxyObject
 90
      499
 91
      505
 95
   589845
 70
     0
161
                88
310
0100902908000027030000
330
4A
 94
        0
  0
ACAD_PROXY_OBJECT
  5
15A
102
{ACAD_REACTORS
330
159
102
}
330
159
100
AcDbProxyObject
 90
      499
 91
      505
 95
   589845
 70
     0
161
                88
310
0100902908000027030000
330
4A
 94
        0
  0
ACAD_PROXY_OBJECT
  5
15D
102
{ACAD_REACTORS
330
15C
102
}
330
15C
100
AcDbProxyObject
 90
      499
 91
      505
 95
   589845
 70
     0
161
                88
310
0100902908000027030000
330
4A
 94
        0
  0
ACAD_PROXY_OBJECT
  5
160
102
{ACAD_REACTORS
330
15F
102
}
330
15F
100
AcDbProxyObject
 90
      499
 91
      505
 95
   589845
 70
     0
161
                88
310
0100902908000027030000
330
4A
 94
        0
  0
ACAD_PROXY_OBJECT
  5
163
102
{ACAD_REACTORS
330
162
102
}
330
162
100
AcDbProxyObject
 90
      499
 91
      505
 95
   589845
 70
     0
161
                88
310
010090290800003B030000
330
4A
 94
        0
  0
ACAD_PROXY_OBJECT
  5
166
102
{ACAD_REACTORS
330
165
102
}
330
165
100
AcDbProxyObject
 90
      499
 91
      505
 95
   589845
 70
     0
161
                88
310
010090290800003D030000
330
4A
 94
        0
  0
ACAD_PROXY_OBJECT
  5
169
102
{ACAD_REACTORS
330
168
102
}
330
168
100
AcDbProxyObject
 90
      499
 91
      505
 95
   589845
 70
     0
161
                88
310
010090290800003B030000
330
4A
 94
        0
  0
ACAD_PROXY_OBJECT
  5
16C
102
{ACAD_REACTORS
330
16B
102
}
330
16B
100
AcDbProxyObject
 90
      499
 91
      505
 95
   589845
 70
     0
161
                88
310
010090290800003B030000
330
4A
 94
        0
  0
ACAD_PROXY_OBJECT
  5
16F
102
{ACAD_REACTORS
330
16E
102
}
330
16E
100
AcDbProxyObject
 90
      499
 91
      505
 95
   589845
 70
     0
161
                88
310
010090290800003D030000
330
4A
 94
        0
  0
LAYOUT
  5
1E
102
{ACAD_REACTORS
330
1A
102
}
330
1A
100
AcDbPlotSettings
  1

  2

  4

  6

 40
0.0
 41
0.0
 42
0.0
 43
0.0
 44
0.0
 45
0.0
 46
0.0
 47
0.0
 48
0.0
 49
0.0
140
0.0
141
0.0
142
1.0
143
1.0
 70
   688
 72
     0
 73
     0
 74
     5
  7

 75
    16
 76
     0
 77
     2
 78
   300
147
1.0
148
0.0
149
0.0
100
AcDbLayout
  1
Layout1
 70
     1
 71
     1
 10
0.0
 20
0.0
 11
420.0
 21
297.0
 12
0.0
 22
0.0
 32
0.0
 14
1.000000000000000E+20
 24
1.000000000000000E+20
 34
1.000000000000000E+20
 15
-1.000000000000000E+20
 25
-1.000000000000000E+20
 35
-1.000000000000000E+20
146
0.0
 13
0.0
 23
0.0
 33
0.0
 16
1.0
 26
0.0
 36
0.0
 17
0.0
 27
1.0
 37
0.0
 76
     0
330
1B
  0
LAYOUT
  5
26
102
{ACAD_REACTORS
330
1A
102
}
330
1A
100
AcDbPlotSettings
  1

  2

  4

  6

 40
0.0
 41
0.0
 42
0.0
 43
0.0
 44
0.0
 45
0.0
 46
0.0
 47
0.0
 48
0.0
 49
0.0
140
0.0
141
0.0
142
1.0
143
1.0
 70
   688
 72
     0
 73
     0
 74
     5
  7

 75
    16
 76
     0
 77
     2
 78
   300
147
1.0
148
0.0
149
0.0
100
AcDbLayout
  1
Layout2
 70
     1
 71
     2
 10
0.0
 20
0.0
 11
12.0
 21
9.0
 12
0.0
 22
0.0
 32
0.0
 14
0.0
 24
0.0
 34
0.0
 15
0.0
 25
0.0
 35
0.0
146
0.0
 13
0.0
 23
0.0
 33
0.0
 16
1.0
 26
0.0
 36
0.0
 17
0.0
 27
1.0
 37
0.0
 76
     0
330
23
  0
LAYOUT
  5
22
102
{ACAD_REACTORS
330
1A
102
}
330
1A
100
AcDbPlotSettings
  1

  2
HP LaserJet 8000 PCL 6
  4
A4
  6

 40
5.027083396911621
 41
5.027085304260254
 42
5.027084350585938
 43
5.027069091796875
 44
209.9733276367188
 45
296.9259948730469
 46
0.0
 47
0.0
 48
0.0
 49
0.0
140
0.0
141
0.0
142
1.0
143
1.0
 70
 11952
 72
     1
 73
     1
 74
     0
  7

 75
     0
 76
     0
 77
     2
 78
   300
147
1.0
148
-78927.71955397846
149
-23940.2651699072
100
AcDbLayout
  1
Model
 70
     1
 71
     0
 10
0.0
 20
0.0
 11
12.0
 21
9.0
 12
0.0
 22
0.0
 32
0.0
 14
0.0
 24
0.0
 34
0.0
 15
0.0
 25
0.0
 35
0.0
146
0.0
 13
0.0
 23
0.0
 33
0.0
 16
1.0
 26
0.0
 36
0.0
 17
0.0
 27
1.0
 37
0.0
 76
     0
330
1F
331
2F4
  0
MATERIAL
  5
332
102
{ACAD_REACTORS
330
330
102
}
330
330
100
AcDbMaterial
  1
ByBlock
 72
     1
 94
      127
  0
MATERIAL
  5
331
102
{ACAD_REACTORS
330
330
102
}
330
330
100
AcDbMaterial
  1
ByLayer
 72
     1
 94
      127
  0
MATERIAL
  5
333
102
{ACAD_REACTORS
330
330
102
}
330
330
100
AcDbMaterial
  1
Global
 72
     1
 94
      127
  0
MLINESTYLE
  5
18
102
{ACAD_REACTORS
330
17
102
}
330
17
100
AcDbMlineStyle
  2
STANDARD
 70
     0
  3

 62
   256
 51
90.0
 52
90.0
 71
     2
 49
0.5
 62
   256
  6
BYLAYER
 49
-0.5
 62
   256
  6
BYLAYER
  0
ACDBPLACEHOLDER
  5
F
102
{ACAD_REACTORS
330
E
102
}
330
E
  0
SCALE
  5
30F
102
{ACAD_REACTORS
330
30E
102
}
330
30E
100
AcDbScale
 70
     0
300
1:1
140
1.0
141
1.0
290
     1
  0
SCALE
  5
310
102
{ACAD_REACTORS
330
30E
102
}
330
30E
100
AcDbScale
 70
     0
300
1:2
140
1.0
141
2.0
290
     0
  0
SCALE
  5
311
102
{ACAD_REACTORS
330
30E
102
}
330
30E
100
AcDbScale
 70
     0
300
1:4
140
1.0
141
4.0
290
     0
  0
SCALE
  5
312
102
{ACAD_REACTORS
330
30E
102
}
330
30E
100
AcDbScale
 70
     0
300
1:5
140
1.0
141
5.0
290
     0
  0
SCALE
  5
313
102
{ACAD_REACTORS
330
30E
102
}
330
30E
100
AcDbScale
 70
     0
300
1:8
140
1.0
141
8.0
290
     0
  0
SCALE
  5
314
102
{ACAD_REACTORS
330
30E
102
}
330
30E
100
AcDbScale
 70
     0
300
1:10
140
1.0
141
10.0
290
     0
  0
SCALE
  5
315
102
{ACAD_REACTORS
330
30E
102
}
330
30E
100
AcDbScale
 70
     0
300
1:16
140
1.0
141
16.0
290
     0
  0
SCALE
  5
316
102
{ACAD_REACTORS
330
30E
102
}
330
30E
100
AcDbScale
 70
     0
300
1:20
140
1.0
141
20.0
290
     0
  0
SCALE
  5
317
102
{ACAD_REACTORS
330
30E
102
}
330
30E
100
AcDbScale
 70
     0
300
1:30
140
1.0
141
30.0
290
     0
  0
SCALE
  5
318
102
{ACAD_REACTORS
330
30E
102
}
330
30E
100
AcDbScale
 70
     0
300
1:40
140
1.0
141
40.0
290
     0
  0
SCALE
  5
319
102
{ACAD_REACTORS
330
30E
102
}
330
30E
100
AcDbScale
 70
     0
300
1:50
140
1.0
141
50.0
290
     0
  0
SCALE
  5
31A
102
{ACAD_REACTORS
330
30E
102
}
330
30E
100
AcDbScale
 70
     0
300
1:100
140
1.0
141
100.0
290
     0
  0
SCALE
  5
31B
102
{ACAD_REACTORS
330
30E
102
}
330
30E
100
AcDbScale
 70
     0
300
2:1
140
2.0
141
1.0
290
     0
  0
SCALE
  5
31C
102
{ACAD_REACTORS
330
30E
102
}
330
30E
100
AcDbScale
 70
     0
300
4:1
140
4.0
141
1.0
290
     0
  0
SCALE
  5
31D
102
{ACAD_REACTORS
330
30E
102
}
330
30E
100
AcDbScale
 70
     0
300
8:1
140
8.0
141
1.0
290
     0
  0
SCALE
  5
31E
102
{ACAD_REACTORS
330
30E
102
}
330
30E
100
AcDbScale
 70
     0
300
10:1
140
10.0
141
1.0
290
     0
  0
SCALE
  5
31F
102
{ACAD_REACTORS
330
30E
102
}
330
30E
100
AcDbScale
 70
     0
300
100:1
140
100.0
141
1.0
290
     0
  0
SCALE
  5
320
102
{ACAD_REACTORS
330
30E
102
}
330
30E
100
AcDbScale
 70
     0
300
1/128" = 1'-0"
140
0.0078125
141
12.0
290
     0
  0
SCALE
  5
321
102
{ACAD_REACTORS
330
30E
102
}
330
30E
100
AcDbScale
 70
     0
300
1/64" = 1'-0"
140
0.015625
141
12.0
290
     0
  0
SCALE
  5
322
102
{ACAD_REACTORS
330
30E
102
}
330
30E
100
AcDbScale
 70
     0
300
1/32" = 1'-0"
140
0.03125
141
12.0
290
     0
  0
SCALE
  5
323
102
{ACAD_REACTORS
330
30E
102
}
330
30E
100
AcDbScale
 70
     0
300
1/16" = 1'-0"
140
0.0625
141
12.0
290
     0
  0
SCALE
  5
324
102
{ACAD_REACTORS
330
30E
102
}
330
30E
100
AcDbScale
 70
     0
300
3/32" = 1'-0"
140
0.09375
141
12.0
290
     0
  0
SCALE
  5
325
102
{ACAD_REACTORS
330
30E
102
}
330
30E
100
AcDbScale
 70
     0
300
1/8" = 1'-0"
140
0.125
141
12.0
290
     0
  0
SCALE
  5
326
102
{ACAD_REACTORS
330
30E
102
}
330
30E
100
AcDbScale
 70
     0
300
3/16" = 1'-0"
140
0.1875
141
12.0
290
     0
  0
SCALE
  5
327
102
{ACAD_REACTORS
330
30E
102
}
330
30E
100
AcDbScale
 70
     0
300
1/4" = 1'-0"
140
0.25
141
12.0
290
     0
  0
SCALE
  5
328
102
{ACAD_REACTORS
330
30E
102
}
330
30E
100
AcDbScale
 70
     0
300
3/8" = 1'-0"
140
0.375
141
12.0
290
     0
  0
SCALE
  5
329
102
{ACAD_REACTORS
330
30E
102
}
330
30E
100
AcDbScale
 70
     0
300
1/2" = 1'-0"
140
0.5
141
12.0
290
     0
  0
SCALE
  5
32A
102
{ACAD_REACTORS
330
30E
102
}
330
30E
100
AcDbScale
 70
     0
300
3/4" = 1'-0"
140
0.75
141
12.0
290
     0
  0
SCALE
  5
32B
102
{ACAD_REACTORS
330
30E
102
}
330
30E
100
AcDbScale
 70
     0
300
1" = 1'-0"
140
1.0
141
12.0
290
     0
  0
SCALE
  5
32C
102
{ACAD_REACTORS
330
30E
102
}
330
30E
100
AcDbScale
 70
     0
300
1-1/2" = 1'-0"
140
1.5
141
12.0
290
     0
  0
SCALE
  5
32D
102
{ACAD_REACTORS
330
30E
102
}
330
30E
100
AcDbScale
 70
     0
300
3" = 1'-0"
140
3.0
141
12.0
290
     0
  0
SCALE
  5
32E
102
{ACAD_REACTORS
330
30E
102
}
330
30E
100
AcDbScale
 70
     0
300
6" = 1'-0"
140
6.0
141
12.0
290
     0
  0
SCALE
  5
32F
102
{ACAD_REACTORS
330
30E
102
}
330
30E
100
AcDbScale
 70
     0
300
1'-0" = 1'-0"
140
12.0
141
12.0
290
     0
  0
VISUALSTYLE
  5
2FA
102
{ACAD_REACTORS
330
2F5
102
}
102
{ACAD_XDICTIONARY
360
33E
102
}
330
2F5
100
AcDbVisualStyle
  2
2dWireframe
 70
     4
177
     2
291
     0
 71
     0
176
     1
 72
     2
176
     1
 73
     0
176
     1
 90
        0
176
     1
 40
0.6
176
     1
 41
30.0
176
     1
 62
     5
 63
     7
421
 16777215
176
     1
 74
     1
176
     1
 91
        4
176
     1
 64
     7
176
     1
 65
   257
176
     1
 75
     1
176
     1
175
     1
176
     1
 42
1.0
176
     1
 92
        0
176
     1
 66
   257
176
     1
 43
1.0
176
     1
 76
     1
176
     1
 77
     6
176
     1
 78
     2
176
     1
 67
     7
176
     1
 79
     5
176
     1
170
     0
176
     1
171
     0
176
     1
290
     0
176
     1
 93
        1
176
     1
 44
0.0
176
     1
173
     0
176
     1
  0
VISUALSTYLE
  5
2FD
102
{ACAD_REACTORS
330
2F5
102
}
102
{ACAD_XDICTIONARY
360
344
102
}
330
2F5
100
AcDbVisualStyle
  2
Basic
 70
     7
177
     2
291
     1
 71
     1
176
     1
 72
     0
176
     1
 73
     1
176
     1
 90
        0
176
     1
 40
0.6
176
     1
 41
30.0
176
     1
 62
     5
 63
     7
421
 16777215
176
     1
 74
     0
176
     1
 91
        4
176
     1
 64
     7
176
     1
 65
   257
176
     1
 75
     1
176
     1
175
     1
176
     1
 42
1.0
176
     1
 92
        8
176
     1
 66
     7
176
     1
 43
1.0
176
     1
 76
     1
176
     1
 77
     6
176
     1
 78
     2
176
     1
 67
     7
176
     1
 79
     5
176
     1
170
     0
176
     1
171
     0
176
     1
290
     0
176
     1
 93
        1
176
     1
 44
0.0
176
     1
173
     0
176
     1
  0
VISUALSTYLE
  5
301
102
{ACAD_REACTORS
330
2F5
102
}
102
{ACAD_XDICTIONARY
360
34C
102
}
330
2F5
100
AcDbVisualStyle
  2
Brighten
 70
    12
177
     2
291
     1
 71
     2
176
     1
 72
     2
176
     1
 73
     0
176
     1
 90
        0
176
     1
 40
0.6
176
     1
 41
30.0
176
     1
 62
     5
 63
     7
421
 16777215
176
     1
 74
     1
176
     1
 91
        4
176
     1
 64
     7
176
     1
 65
   257
176
     1
 75
     1
176
     1
175
     1
176
     1
 42
1.0
176
     1
 92
        8
176
     1
 66
     7
176
     1
 43
1.0
176
     1
 76
     1
176
     1
 77
     6
176
     1
 78
     2
176
     1
 67
     7
176
     1
 79
     5
176
     1
170
     0
176
     1
171
     0
176
     1
290
     0
176
     1
 93
        1
176
     1
 44
50.0
176
     1
173
     0
176
     1
  0
VISUALSTYLE
  5
305
102
{ACAD_REACTORS
330
2F5
102
}
102
{ACAD_XDICTIONARY
360
354
102
}
330
2F5
100
AcDbVisualStyle
  2
ColorChange
 70
    16
177
     2
291
     1
 71
     2
176
     1
 72
     2
176
     1
 73
     3
176
     1
 90
        0
176
     1
 40
0.6
176
     1
 41
30.0
176
     1
 62
     5
 63
     8
421
  8421504
176
     1
 74
     1
176
     1
 91
        4
176
     1
 64
     7
176
     1
 65
   257
176
     1
 75
     1
176
     1
175
     1
176
     1
 42
1.0
176
     1
 92
        8
176
     1
 66
     8
424
  8421504
176
     1
 43
1.0
176
     1
 76
     1
176
     1
 77
     6
176
     1
 78
     2
176
     1
 67
     7
176
     1
 79
     5
176
     1
170
     0
176
     1
171
     0
176
     1
290
     0
176
     1
 93
        1
176
     1
 44
0.0
176
     1
173
     0
176
     1
  0
VISUALSTYLE
  5
2FF
102
{ACAD_REACTORS
330
2F5
102
}
102
{ACAD_XDICTIONARY
360
348
102
}
330
2F5
100
AcDbVisualStyle
  2
Conceptual
 70
     9
177
     2
291
     0
 71
     3
176
     1
 72
     2
176
     1
 73
     0
176
     1
 90
        0
176
     1
 40
0.6
176
     1
 41
30.0
176
     1
 62
     5
 63
     7
421
 16777215
176
     1
 74
     2
176
     1
 91
        2
176
     1
 64
     7
176
     1
 65
   257
176
     1
 75
     1
176
     1
175
     1
176
     1
 42
179.0
176
     1
 92
        8
176
     1
 66
     7
176
     1
 43
1.0
176
     1
 76
     1
176
     1
 77
     6
176
     1
 78
     2
176
     1
 67
     7
176
     1
 79
     3
176
     1
170
     0
176
     1
171
     0
176
     1
290
     0
176
     1
 93
        1
176
     1
 44
0.0
176
     1
173
     0
176
     1
  0
VISUALSTYLE
  5
300
102
{ACAD_REACTORS
330
2F5
102
}
102
{ACAD_XDICTIONARY
360
34A
102
}
330
2F5
100
AcDbVisualStyle
  2
Dim
 70
    11
177
     2
291
     1
 71
     2
176
     1
 72
     2
176
     1
 73
     0
176
     1
 90
        0
176
     1
 40
0.6
176
     1
 41
30.0
176
     1
 62
     5
 63
     7
421
 16777215
176
     1
 74
     1
176
     1
 91
        4
176
     1
 64
     7
176
     1
 65
   257
176
     1
 75
     1
176
     1
175
     1
176
     1
 42
1.0
176
     1
 92
        8
176
     1
 66
     7
176
     1
 43
1.0
176
     1
 76
     1
176
     1
 77
     6
176
     1
 78
     2
176
     1
 67
     7
176
     1
 79
     5
176
     1
170
     0
176
     1
171
     0
176
     1
290
     0
176
     1
 93
        1
176
     1
 44
-50.0
176
     1
173
     0
176
     1
  0
VISUALSTYLE
  5
308
102
{ACAD_REACTORS
330
2F5
102
}
102
{ACAD_XDICTIONARY
360
35A
102
}
330
2F5
100
AcDbVisualStyle
  2
EdgeColorOff
 70
    22
177
     2
291
     1
 71
     2
176
     0
 72
     2
176
     0
 73
     0
176
     0
 90
        0
176
     0
 40
0.6
176
     0
 41
30.0
176
     0
 62
     5
 63
     7
421
 16777215
176
     0
 74
     1
176
     0
 91
        4
176
     0
 64
     7
176
     0
 65
   257
176
     0
 75
     1
176
     0
175
     1
176
     0
 42
1.0
176
     0
 92
        8
176
     2
 66
     7
176
     0
 43
1.0
176
     0
 76
     1
176
     0
 77
     6
176
     0
 78
     2
176
     0
 67
     7
176
     0
 79
     5
176
     0
170
     0
176
     0
171
     0
176
     0
290
     0
176
     0
 93
        1
176
     0
 44
0.0
176
     0
173
     0
176
     0
  0
VISUALSTYLE
  5
304
102
{ACAD_REACTORS
330
2F5
102
}
102
{ACAD_XDICTIONARY
360
352
102
}
330
2F5
100
AcDbVisualStyle
  2
Facepattern
 70
    15
177
     2
291
     1
 71
     2
176
     1
 72
     2
176
     1
 73
     0
176
     1
 90
        0
176
     1
 40
0.6
176
     1
 41
30.0
176
     1
 62
     5
 63
     7
421
 16777215
176
     1
 74
     1
176
     1
 91
        4
176
     1
 64
     7
176
     1
 65
   257
176
     1
 75
     1
176
     1
175
     1
176
     1
 42
1.0
176
     1
 92
        8
176
     1
 66
     7
176
     1
 43
1.0
176
     1
 76
     1
176
     1
 77
     6
176
     1
 78
     2
176
     1
 67
     7
176
     1
 79
     5
176
     1
170
     0
176
     1
171
     0
176
     1
290
     0
176
     1
 93
        1
176
     1
 44
0.0
176
     1
173
     0
176
     1
  0
VISUALSTYLE
  5
2F6
102
{ACAD_REACTORS
330
2F5
102
}
102
{ACAD_XDICTIONARY
360
336
102
}
330
2F5
100
AcDbVisualStyle
  2
Flat
 70
     0
177
     2
291
     1
 71
     2
176
     1
 72
     1
176
     1
 73
     1
176
     1
 90
        2
176
     1
 40
0.6
176
     1
 41
30.0
176
     1
 62
     5
 63
     7
421
 16777215
176
     1
 74
     0
176
     1
 91
        0
176
     1
 64
     7
176
     1
 65
   257
176
     1
 75
     1
176
     1
175
     1
176
     1
 42
1.0
176
     1
 92
        8
176
     1
 66
     7
176
     1
 43
1.0
176
     1
 76
     1
176
     1
 77
     6
176
     1
 78
     2
176
     1
 67
     7
176
     1
 79
     5
176
     1
170
     0
176
     1
171
     0
176
     1
290
     0
176
     1
 93
       13
176
     1
 44
0.0
176
     1
173
     0
176
     1
  0
VISUALSTYLE
  5
2F7
102
{ACAD_REACTORS
330
2F5
102
}
102
{ACAD_XDICTIONARY
360
338
102
}
330
2F5
100
AcDbVisualStyle
  2
FlatWithEdges
 70
     1
177
     2
291
     1
 71
     2
176
     1
 72
     1
176
     1
 73
     1
176
     1
 90
        2
176
     1
 40
0.6
176
     1
 41
30.0
176
     1
 62
     5
 63
     7
421
 16777215
176
     1
 74
     1
176
     1
 91
        0
176
     1
 64
     7
176
     1
 65
   257
176
     1
 75
     1
176
     1
175
     1
176
     1
 42
1.0
176
     1
 92
        0
176
     1
 66
   257
176
     1
 43
1.0
176
     1
 76
     1
176
     1
 77
     6
176
     1
 78
     2
176
     1
 67
     7
176
     1
 79
     5
176
     1
170
     0
176
     1
171
     0
176
     1
290
     0
176
     1
 93
       13
176
     1
 44
0.0
176
     1
173
     0
176
     1
  0
VISUALSTYLE
  5
2F8
102
{ACAD_REACTORS
330
2F5
102
}
102
{ACAD_XDICTIONARY
360
33A
102
}
330
2F5
100
AcDbVisualStyle
  2
Gouraud
 70
     2
177
     2
291
     1
 71
     2
176
     1
 72
     2
176
     1
 73
     1
176
     1
 90
        2
176
     1
 40
0.6
176
     1
 41
30.0
176
     1
 62
     5
 63
     7
421
 16777215
176
     1
 74
     0
176
     1
 91
        0
176
     1
 64
     7
176
     1
 65
   257
176
     1
 75
     1
176
     1
175
     1
176
     1
 42
1.0
176
     1
 92
        0
176
     1
 66
     7
176
     1
 43
1.0
176
     1
 76
     1
176
     1
 77
     6
176
     1
 78
     2
176
     1
 67
     7
176
     1
 79
     5
176
     1
170
     0
176
     1
171
     0
176
     1
290
     0
176
     1
 93
       13
176
     1
 44
0.0
176
     1
173
     0
176
     1
  0
VISUALSTYLE
  5
2F9
102
{ACAD_REACTORS
330
2F5
102
}
102
{ACAD_XDICTIONARY
360
33C
102
}
330
2F5
100
AcDbVisualStyle
  2
GouraudWithEdges
 70
     3
177
     2
291
     1
 71
     2
176
     1
 72
     2
176
     1
 73
     1
176
     1
 90
        2
176
     1
 40
0.6
176
     1
 41
30.0
176
     1
 62
     5
 63
     7
421
 16777215
176
     1
 74
     1
176
     1
 91
        0
176
     1
 64
     7
176
     1
 65
   257
176
     1
 75
     1
176
     1
175
     1
176
     1
 42
1.0
176
     1
 92
        0
176
     1
 66
   257
176
     1
 43
1.0
176
     1
 76
     1
176
     1
 77
     6
176
     1
 78
     2
176
     1
 67
     7
176
     1
 79
     5
176
     1
170
     0
176
     1
171
     0
176
     1
290
     0
176
     1
 93
       13
176
     1
 44
0.0
176
     1
173
     0
176
     1
  0
VISUALSTYLE
  5
2FC
102
{ACAD_REACTORS
330
2F5
102
}
102
{ACAD_XDICTIONARY
360
342
102
}
330
2F5
100
AcDbVisualStyle
  2
Hidden
 70
     6
177
     2
291
     0
 71
     1
176
     1
 72
     2
176
     1
 73
     2
176
     1
 90
        0
176
     1
 40
0.6
176
     1
 41
30.0
176
     1
 62
     5
 63
     7
421
 16777215
176
     1
 74
     2
176
     1
 91
        2
176
     1
 64
     7
176
     1
 65
   257
176
     1
 75
     2
176
     1
175
     1
176
     1
 42
40.0
176
     1
 92
        0
176
     1
 66
   257
176
     1
 43
1.0
176
     1
 76
     1
176
     1
 77
     6
176
     1
 78
     2
176
     1
 67
     7
176
     1
 79
     3
176
     1
170
     0
176
     1
171
     0
176
     1
290
     0
176
     1
 93
        1
176
     1
 44
0.0
176
     1
173
     0
176
     1
  0
VISUALSTYLE
  5
306
102
{ACAD_REACTORS
330
2F5
102
}
102
{ACAD_XDICTIONARY
360
356
102
}
330
2F5
100
AcDbVisualStyle
  2
JitterOff
 70
    20
177
     2
291
     1
 71
     2
176
     0
 72
     2
176
     0
 73
     0
176
     0
 90
        0
176
     0
 40
0.6
176
     0
 41
30.0
176
     0
 62
     5
 63
     7
421
 16777215
176
     0
 74
     1
176
     0
 91
        4
176
     0
 64
     7
176
     0
 65
   257
176
     0
 75
     1
176
     0
175
     1
176
     0
 42
1.0
176
     0
 92
       10
176
     2
 66
     7
176
     0
 43
1.0
176
     0
 76
     1
176
     0
 77
     6
176
     0
 78
     2
176
     0
 67
     7
176
     0
 79
     5
176
     0
170
     0
176
     0
171
     0
176
     0
290
     0
176
     0
 93
        1
176
     0
 44
0.0
176
     0
173
     0
176
     0
  0
VISUALSTYLE
  5
303
102
{ACAD_REACTORS
330
2F5
102
}
102
{ACAD_XDICTIONARY
360
350
102
}
330
2F5
100
AcDbVisualStyle
  2
Linepattern
 70
    14
177
     2
291
     1
 71
     2
176
     1
 72
     2
176
     1
 73
     0
176
     1
 90
        0
176
     1
 40
0.6
176
     1
 41
30.0
176
     1
 62
     5
 63
     7
421
 16777215
176
     1
 74
     1
176
     1
 91
        4
176
     1
 64
     7
176
     1
 65
   257
176
     1
 75
     7
176
     1
175
     7
176
     1
 42
1.0
176
     1
 92
        8
176
     1
 66
     7
176
     1
 43
1.0
176
     1
 76
     1
176
     1
 77
     6
176
     1
 78
     2
176
     1
 67
     7
176
     1
 79
     5
176
     1
170
     0
176
     1
171
     0
176
     1
290
     0
176
     1
 93
        1
176
     1
 44
0.0
176
     1
173
     0
176
     1
  0
VISUALSTYLE
  5
307
102
{ACAD_REACTORS
330
2F5
102
}
102
{ACAD_XDICTIONARY
360
358
102
}
330
2F5
100
AcDbVisualStyle
  2
OverhangOff
 70
    21
177
     2
291
     1
 71
     2
176
     0
 72
     2
176
     0
 73
     0
176
     0
 90
        0
176
     0
 40
0.6
176
     0
 41
30.0
176
     0
 62
     5
 63
     7
421
 16777215
176
     0
 74
     1
176
     0
 91
        4
176
     0
 64
     7
176
     0
 65
   257
176
     0
 75
     1
176
     0
175
     1
176
     0
 42
1.0
176
     0
 92
        9
176
     2
 66
     7
176
     0
 43
1.0
176
     0
 76
     1
176
     0
 77
     6
176
     0
 78
     2
176
     0
 67
     7
176
     0
 79
     5
176
     0
170
     0
176
     0
171
     0
176
     0
290
     0
176
     0
 93
        1
176
     0
 44
0.0
176
     0
173
     0
176
     0
  0
VISUALSTYLE
  5
2FE
102
{ACAD_REACTORS
330
2F5
102
}
102
{ACAD_XDICTIONARY
360
346
102
}
330
2F5
100
AcDbVisualStyle
  2
Realistic
 70
     8
177
     2
291
     0
 71
     2
176
     1
 72
     3
176
     1
 73
     0
176
     1
 90
        2
176
     1
 40
0.6
176
     1
 41
30.0
176
     1
 62
     5
 63
     7
421
 16777215
176
     1
 74
     0
176
     1
 91
        0
176
     1
 64
     7
176
     1
 65
   257
176
     1
 75
     1
176
     1
175
     1
176
     1
 42
1.0
176
     1
 92
        8
176
     1
 66
   257
176
     1
 43
1.0
176
     1
 76
     1
176
     1
 77
     6
176
     1
 78
     2
176
     1
 67
     7
176
     1
 79
     3
176
     1
170
     0
176
     1
171
     0
176
     1
290
     0
176
     1
 93
       13
176
     1
 44
0.0
176
     1
173
     0
176
     1
  0
VISUALSTYLE
  5
30D
102
{ACAD_REACTORS
330
2F5
102
}
102
{ACAD_XDICTIONARY
360
364
102
}
330
2F5
100
AcDbVisualStyle
  2
Shaded
 70
    27
177
     2
291
     0
 71
     2
176
     1
 72
     2
176
     1
 73
     1
176
     1
 90
        2
176
     1
 40
0.6
176
     1
 41
30.0
176
     1
 62
     5
 63
     7
421
 16777215
176
     1
 74
     0
176
     1
 91
        4
176
     1
 64
     7
176
     1
 65
   257
176
     1
 75
     1
176
     1
175
     1
176
     1
 42
1.0
176
     1
 92
        8
176
     1
 66
   257
176
     1
 43
1.0
176
     1
 76
     1
176
     1
 77
     6
176
     1
 78
     2
176
     1
 67
     8
425
  7895160
176
     1
 79
     3
176
     1
170
     0
176
     1
171
     0
176
     1
290
     0
176
     1
 93
        5
176
     1
 44
0.0
176
     1
173
     0
176
     1
  0
VISUALSTYLE
  5
30C
102
{ACAD_REACTORS
330
2F5
102
}
102
{ACAD_XDICTIONARY
360
362
102
}
330
2F5
100
AcDbVisualStyle
  2
Shaded with edges
 70
    26
177
     2
291
     0
 71
     2
176
     1
 72
     2
176
     1
 73
     1
176
     1
 90
        2
176
     1
 40
0.6
176
     1
 41
30.0
176
     1
 62
     5
 63
     7
421
 16777215
176
     1
 74
     1
176
     1
 91
       10
176
     1
 64
     7
176
     1
 65
   257
176
     1
 75
     2
176
     1
175
     1
176
     1
 42
1.0
176
     1
 92
        8
176
     1
 66
   257
176
     1
 43
1.0
176
     1
 76
     1
176
     1
 77
     6
176
     1
 78
     2
176
     1
 67
     7
176
     1
 79
     3
176
     1
170
     0
176
     1
171
     0
176
     1
290
     0
176
     1
 93
        5
176
     1
 44
0.0
176
     1
173
     0
176
     1
  0
VISUALSTYLE
  5
309
102
{ACAD_REACTORS
330
2F5
102
}
102
{ACAD_XDICTIONARY
360
35C
102
}
330
2F5
100
AcDbVisualStyle
  2
Shades of Gray
 70
    23
177
     2
291
     0
 71
     2
176
     1
 72
     2
176
     1
 73
     3
176
     1
 90
        0
176
     1
 40
0.6
176
     1
 41
30.0
176
     1
 62
     5
 63
     7
421
 16777215
176
     1
 74
     2
176
     1
 91
        2
176
     1
 64
     7
176
     1
 65
     7
176
     1
 75
     1
176
     1
175
     1
176
     1
 42
40.0
176
     1
 92
        8
176
     1
 66
     7
176
     1
 43
1.0
176
     1
 76
     1
176
     1
 77
     6
176
     1
 78
     2
176
     1
 67
     7
176
     1
 79
     3
176
     1
170
     0
176
     1
171
     0
176
     1
290
     0
176
     1
 93
        1
176
     1
 44
0.0
176
     1
173
     0
176
     1
  0
VISUALSTYLE
  5
30A
102
{ACAD_REACTORS
330
2F5
102
}
102
{ACAD_XDICTIONARY
360
35E
102
}
330
2F5
100
AcDbVisualStyle
  2
Sketchy
 70
    24
177
     2
291
     0
 71
     1
176
     1
 72
     2
176
     1
 73
     2
176
     1
 90
        0
176
     1
 40
0.6
176
     1
 41
30.0
176
     1
 62
     5
 63
     7
421
 16777215
176
     1
 74
     2
176
     1
 91
        2
176
     1
 64
     7
176
     1
 65
     7
176
     1
 75
     1
176
     1
175
     1
176
     1
 42
40.0
176
     1
 92
       11
176
     1
 66
     7
176
     1
 43
1.0
176
     1
 76
     1
176
     1
 77
     6
176
     1
 78
     2
176
     1
 67
     7
176
     1
 79
     6
176
     1
170
     0
176
     1
171
     0
176
     1
290
     0
176
     1
 93
        1
176
     1
 44
0.0
176
     1
173
     0
176
     1
  0
VISUALSTYLE
  5
302
102
{ACAD_REACTORS
330
2F5
102
}
102
{ACAD_XDICTIONARY
360
34E
102
}
330
2F5
100
AcDbVisualStyle
  2
Thicken
 70
    13
177
     2
291
     1
 71
     2
176
     1
 72
     2
176
     1
 73
     0
176
     1
 90
        0
176
     1
 40
0.6
176
     1
 41
30.0
176
     1
 62
     5
 63
     7
421
 16777215
176
     1
 74
     1
176
     1
 91
        4
176
     1
 64
     7
176
     1
 65
   257
176
     1
 75
     1
176
     1
175
     1
176
     1
 42
1.0
176
     1
 92
       12
176
     1
 66
     7
176
     1
 43
1.0
176
     1
 76
     1
176
     1
 77
     6
176
     1
 78
     2
176
     1
 67
     7
176
     1
 79
     5
176
     1
170
     0
176
     1
171
     0
176
     1
290
     0
176
     1
 93
        1
176
     1
 44
0.0
176
     1
173
     0
176
     1
  0
VISUALSTYLE
  5
2FB
102
{ACAD_REACTORS
330
2F5
102
}
102
{ACAD_XDICTIONARY
360
340
102
}
330
2F5
100
AcDbVisualStyle
  2
Wireframe
 70
     5
177
     2
291
     0
 71
     0
176
     1
 72
     2
176
     1
 73
     0
176
     1
 90
        0
176
     1
 40
0.6
176
     1
 41
30.0
176
     1
 62
     5
 63
     7
421
 16777215
176
     1
 74
     1
176
     1
 91
        4
176
     1
 64
     7
176
     1
 65
   257
176
     1
 75
     1
176
     1
175
     1
176
     1
 42
1.0
176
     1
 92
        0
176
     1
 66
   257
176
     1
 43
1.0
176
     1
 76
     1
176
     1
 77
     6
176
     1
 78
     2
176
     1
 67
     7
176
     1
 79
     3
176
     1
170
     0
176
     1
171
     0
176
     1
290
     0
176
     1
 93
        1
176
     1
 44
0.0
176
     1
173
     0
176
     1
  0
VISUALSTYLE
  5
30B
102
{ACAD_REACTORS
330
2F5
102
}
102
{ACAD_XDICTIONARY
360
360
102
}
330
2F5
100
AcDbVisualStyle
  2
X-Ray
 70
    25
177
     2
291
     0
 71
     2
176
     1
 72
     2
176
     1
 73
     1
176
     1
 90
        1
176
     1
 40
0.5
176
     1
 41
30.0
176
     1
 62
     5
 63
     7
421
 16777215
176
     1
 74
     1
176
     1
 91
        0
176
     1
 64
     7
176
     1
 65
   257
176
     1
 75
     1
176
     1
175
     1
176
     1
 42
1.0
176
     1
 92
        8
176
     1
 66
     7
176
     1
 43
1.0
176
     1
 76
     1
176
     1
 77
     6
176
     1
 78
     2
176
     1
 67
     7
176
     1
 79
     3
176
     1
170
     0
176
     1
171
     0
176
     1
290
     0
176
     1
 93
       13
176
     1
 44
0.0
176
     1
173
     0
176
     1
  0
DICTIONARYVAR
  5
335
102
{ACAD_REACTORS
330
334
102
}
330
334
100
DictionaryVariables
280
     0
  1
1:1
  0
DICTIONARYVAR
  5
368
102
{ACAD_REACTORS
330
334
102
}
330
334
100
DictionaryVariables
280
     0
  1
0
  0
XRECORD
  5
180
102
{ACAD_REACTORS
330
17F
102
}
330
17F
100
AcDbXrecord
280
     1
1000
ADE02C001
1070
     2
1070
     1
1002
{
1002
{
1070
     1
1070
     0
1070
     0
1070
     0
1002
{
1070
     3
1070
     1
1000
Context_ID
1000
Context_ID
1070
     2
1000
1
1002
}
1070
     0
1070
     0
1002
}
1002
}
1002
{
1070
   113
1070
     2
1000
red
1070
     3
1000
0
1070
     4
1000
0.0
1070
     5
1000
2
1070
     6
1000
Standard
1070
     7
1000
.LABELPT
1070
     8
1000
CENTER
1070
     9
1000
:Context_ID@Context_ID
1002
}
1002
{
1002
}
1000

  0
ACAD_PROXY_OBJECT
  5
42
102
{ACAD_REACTORS
330
41
102
}
330
41
100
AcDbProxyObject
 90
      499
 91
      504
 95
   589845
 70
     0
161
              1062
310
0100A9720115000043006C0061007300730000004900720064000000000049007200640000005400680065002000620061007300650020007300750070006500720063006C006100730073000000490072006400200043006C0061007300730020005600200031002E00300032000000000000000045400010B436C6173732
310
D5F2D4972648
  0
ACAD_PROXY_OBJECT
  5
49
102
{ACAD_REACTORS
330
41
102
}
330
41
100
AcDbProxyObject
 90
      499
 91
      504
 95
   589845
 70
     0
161
              2510
310
0100A81A01000001300400540050004D0043004E00540052005F0043006800380037003300300030000000610064006500000043006C00610073007300000049007200640000000000000004000080000049004400000043006C006100730073004C006F006E00670000004900720064000000000000000000008000004100
310
520045004100000043006C006100730073005200650061006C00000049007200640000000000000000000080000050004500520049004D004500540045005200000043006C006100730073005200650061006C0000004900720064000000000000000000008000004C0049004E004B0053005F00510054005900000043006C
310
006100730073004C006F006E006700000049007200640000000000000000000000004C010011554504D434E54525F436838373330302D5F2D6164658
  0
ACAD_PROXY_OBJECT
  5
4A
102
{ACAD_REACTORS
330
41
102
}
330
41
100
AcDbProxyObject
 90
      499
 91
      504
 95
   589845
 70
     0
161
              1358
310
0100A9920030000043006F006E0074006500780074005F00490044000000610064006500000043006C006100730073000000490072006400000000003100000001000080000043006F006E0074006500780074005F0049004400000043006C006100730073004C006F006E0067000000490072006400000043006F006E0074
310
0065007800740020006E006F000000000000000000000C0000110436F6E746578745F49442D5F2D6164658
  0
ACAD_PROXY_OBJECT
  5
C2
102
{ACAD_REACTORS
330
41
102
}
330
41
100
AcDbProxyObject
 90
      499
 91
      504
 95
   589845
 70
     0
161
              9022
310
0100A84804000001300400540050004D0044004500530043005F0043006800380037003300300030000000610064006500000043006C0061007300730000004900720064000000570065007300740020006F0066002000530069007400740069006E00670062006F0072006E006500200052006F0061006400000032002E00
310
330031003700630000000E00008000005400590050004500000043006C006100730073004C006F006E006700000049007200640000000000060000000100030000000080000054004F004C004500520041004E0043004500000043006C006100730073005200650061006C000000490072006400000000000A000000010004
310
4F69BC9CFFD33D008000004C0049004E004B005F004C004100590045005200000043006C0061007300730043006800610072000000490072006400000000000400000001000000008000004C0049004E004B005F0043004F004C004F005200000043006C006100730073004C006F006E006700000049007200640000000000
310
060000000100FFFFFFFF008000004300520045004100540045005F004E004F0044004500000043006C006100730073004C006F006E00670000004900720064000000000006000000010001000000008000004E004F00440045005F004C004100590045005200000043006C0061007300730043006800610072000000490072
310
00640000000000200000000100300058002D004100520043004800410045004F004C004F00470059000000008000004E004F00440045005F0043004F004C004F005200000043006C006100730073004C006F006E006700000049007200640000000000060000000100FFFFFFFF008000004E004F00440045005F0054005900
310
50004500000043006C006100730073004C006F006E00670000004900720064000000000006000000010001000000008000004E004F00440045005F0042004C004F0043004B00000043006C0061007300730043006800610072000000490072006400000000000400000001000000008000004300520045004100540045005F
310
0043004E0054005200000043006C006100730073004C006F006E006700000049007200640000000000060000000100010000000080000043004E00540052005F004C004100590045005200000043006C006100730073004300680061007200000049007200640000000000200000000100300058002D004100520043004800
310
410045004F004C004F004700590000000080000043004E00540052005F0043004F004C004F005200000043006C006100730073004C006F006E006700000049007200640000000000060000000100FFFFFFFF0080000043004E00540052005F005400590050004500000043006C006100730073004C006F006E006700000049
310
007200640000000000060000000100010000000080000043004E00540052005F0042004C004F0043004B00000043006C00610073007300430068006100720000004900720064000000000004000000010000000000004C010011554504D444553435F436838373330302D5F2D6164658
  0
ACAD_PROXY_OBJECT
  5
43
102
{ACAD_REACTORS
330
41
102
}
330
41
100
AcDbProxyObject
 90
      499
 91
      504
 95
   589845
 70
     0
161
              1502
310
0100A9A20117000043006C006100730073004E0075006D0065007200690063000000490072006400000043006C006100730073000000490072006400000054006800650020006200610073006500200063006C00610073007300200066006F007200200074006800650020006E0075006D0065007200690063007300000049
310
0072006400200043006C0061007300730020005600200031002E00300032000000000000000045C000112436C6173734E756D657269632D5F2D4972648
  0
ACAD_PROXY_OBJECT
  5
44
102
{ACAD_REACTORS
330
41
102
}
330
41
100
AcDbProxyObject
 90
      499
 91
      504
 95
   589845
 70
     0
161
              1270
310
0100A9880116000043006C006100730073004C006F006E0067000000490072006400000043006C006100730073004E0075006D0065007200690063000000490072006400000054006800650020006C006F006E0067002000760061006C00750065000000490072006400200043006C0061007300730020005600200031002E
310
00300032000000000000000045800010F436C6173734C6F6E672D5F2D4972648
  0
ACAD_PROXY_OBJECT
  5
45
102
{ACAD_REACTORS
330
41
102
}
330
41
100
AcDbProxyObject
 90
      499
 91
      504
 95
   589845
 70
     0
161
              1270
310
0100A9880116000043006C006100730073005200650061006C000000490072006400000043006C006100730073004E0075006D0065007200690063000000490072006400000054006800650020007200650061006C002000760061006C00750065000000490072006400200043006C0061007300730020005600200031002E
310
00300032000000000000000045800010F436C6173735265616C2D5F2D4972648
  0
ACAD_PROXY_OBJECT
  5
46
102
{ACAD_REACTORS
330
41
102
}
330
41
100
AcDbProxyObject
 90
      499
 91
      504
 95
   589845
 70
     0
161
              1238
310
0100A9840116000043006C0061007300730043006800610072000000490072006400000043006C006100730073000000490072006400000054006800650020006300680061007200610063007400650072002000760061006C00750065000000490072006400200043006C0061007300730020005600200031002E00300032
310
000000000000000045800010F436C617373436861722D5F2D4972648
  0
ACAD_PROXY_OBJECT
  5
47
102
{ACAD_REACTORS
330
41
102
}
330
41
100
AcDbProxyObject
 90
      499
 91
      504
 95
   589845
 70
     0
161
              1654
310
0100A9B201300400540050004D004E004F00440045005F0043006800380037003300300030000000610064006500000043006C00610073007300000049007200640000000000000002000080000049004400000043006C006100730073004C006F006E00670000004900720064000000000000000000008000005200450053
310
0049005300540041004E0043004500000043006C006100730073005200650061006C00000049007200640000000000000000000000004C010011554504D4E4F44455F436838373330302D5F2D6164658
  0
ACAD_PROXY_OBJECT
  5
48
102
{ACAD_REACTORS
330
41
102
}
330
41
100
AcDbProxyObject
 90
      499
 91
      504
 95
   589845
 70
     0
161
              4830
310
0100A83C02000001300400540050004D004C0049004E004B005F0043006800380037003300300030000000610064006500000043006C00610073007300000049007200640000000000000008000080000049004400000043006C006100730073004C006F006E00670000004900720064000000000000000000008000005300
310
54004100520054005F004E004F0044004500000043006C006100730073004C006F006E006700000049007200640000000000000000000080000045004E0044005F004E004F0044004500000043006C006100730073004C006F006E006700000049007200640000000000000000000080000044004900520045004300540049
310
004F004E00000043006C006100730073004C006F006E00670000004900720064000000000000000000008000004400490052004500430054005F0052004500530049005300540041004E0043004500000043006C006100730073005200650061006C0000004900720064000000000000000000008000005200450056004500
310
5200530045005F0052004500530049005300540041004E0043004500000043006C006100730073005200650061006C0000004900720064000000000000000000008000004C004500460054005F0050004F004C00590047004F004E00000043006C006100730073004C006F006E006700000049007200640000000000000000
310
0000800000520049004700480054005F0050004F004C00590047004F004E00000043006C006100730073004C006F006E006700000049007200640000000000000000000000004C010011554504D4C494E4B5F436838373330302D5F2D6164658
  0
DICTIONARY
  5
33E
330
2FA
100
AcDbDictionary
280
     1
281
     1
  3
ACAD_XREC_ROUNDTRIP
360
33F
  0
DICTIONARY
  5
344
330
2FD
100
AcDbDictionary
280
     1
281
     1
  3
ACAD_XREC_ROUNDTRIP
360
345
  0
DICTIONARY
  5
34C
330
301
100
AcDbDictionary
280
     1
281
     1
  3
ACAD_XREC_ROUNDTRIP
360
34D
  0
DICTIONARY
  5
354
330
305
100
AcDbDictionary
280
     1
281
     1
  3
ACAD_XREC_ROUNDTRIP
360
355
  0
DICTIONARY
  5
348
330
2FF
100
AcDbDictionary
280
     1
281
     1
  3
ACAD_XREC_ROUNDTRIP
360
349
  0
DICTIONARY
  5
34A
330
300
100
AcDbDictionary
280
     1
281
     1
  3
ACAD_XREC_ROUNDTRIP
360
34B
  0
DICTIONARY
  5
35A
330
308
100
AcDbDictionary
280
     1
281
     1
  3
ACAD_XREC_ROUNDTRIP
360
35B
  0
DICTIONARY
  5
352
330
304
100
AcDbDictionary
280
     1
281
     1
  3
ACAD_XREC_ROUNDTRIP
360
353
  0
DICTIONARY
  5
336
330
2F6
100
AcDbDictionary
280
     1
281
     1
  3
ACAD_XREC_ROUNDTRIP
360
337
  0
DICTIONARY
  5
338
330
2F7
100
AcDbDictionary
280
     1
281
     1
  3
ACAD_XREC_ROUNDTRIP
360
339
  0
DICTIONARY
  5
33A
330
2F8
100
AcDbDictionary
280
     1
281
     1
  3
ACAD_XREC_ROUNDTRIP
360
33B
  0
DICTIONARY
  5
33C
330
2F9
100
AcDbDictionary
280
     1
281
     1
  3
ACAD_XREC_ROUNDTRIP
360
33D
  0
DICTIONARY
  5
342
330
2FC
100
AcDbDictionary
280
     1
281
     1
  3
ACAD_XREC_ROUNDTRIP
360
343
  0
DICTIONARY
  5
356
330
306
100
AcDbDictionary
280
     1
281
     1
  3
ACAD_XREC_ROUNDTRIP
360
357
  0
DICTIONARY
  5
350
330
303
100
AcDbDictionary
280
     1
281
     1
  3
ACAD_XREC_ROUNDTRIP
360
351
  0
DICTIONARY
  5
358
330
307
100
AcDbDictionary
280
     1
281
     1
  3
ACAD_XREC_ROUNDTRIP
360
359
  0
DICTIONARY
  5
346
330
2FE
100
AcDbDictionary
280
     1
281
     1
  3
ACAD_XREC_ROUNDTRIP
360
347
  0
DICTIONARY
  5
364
330
30D
100
AcDbDictionary
280
     1
281
     1
  3
ACAD_XREC_ROUNDTRIP
360
365
  0
DICTIONARY
  5
362
330
30C
100
AcDbDictionary
280
     1
281
     1
  3
ACAD_XREC_ROUNDTRIP
360
363
  0
DICTIONARY
  5
35C
330
309
100
AcDbDictionary
280
     1
281
     1
  3
ACAD_XREC_ROUNDTRIP
360
35D
  0
DICTIONARY
  5
35E
330
30A
100
AcDbDictionary
280
     1
281
     1
  3
ACAD_XREC_ROUNDTRIP
360
35F
  0
DICTIONARY
  5
34E
330
302
100
AcDbDictionary
280
     1
281
     1
  3
ACAD_XREC_ROUNDTRIP
360
34F
  0
DICTIONARY
  5
340
330
2FB
100
AcDbDictionary
280
     1
281
     1
  3
ACAD_XREC_ROUNDTRIP
360
341
  0
DICTIONARY
  5
360
330
30B
100
AcDbDictionary
280
     1
281
     1
  3
ACAD_XREC_ROUNDTRIP
360
361
  0
XRECORD
  5
33F
102
{ACAD_REACTORS
330
33E
102
}
330
33E
100
AcDbXrecord
280
     1
102
RTVSPost2010Prop28
280
     1
102
RTVSPost2010PropOp28
 70
     1
102
RTVSPost2010Prop29
280
     1
102
RTVSPost2010PropOp29
 70
     1
102
RTVSPost2010Prop30
280
     0
102
RTVSPost2010PropOp30
 70
     1
102
RTVSPost2010Prop31
280
     0
102
RTVSPost2010PropOp31
 70
     1
102
RTVSPost2010Prop32
280
     0
102
RTVSPost2010PropOp32
 70
     1
102
RTVSPost2010Prop33
280
     0
102
RTVSPost2010PropOp33
 70
     1
102
RTVSPost2010Prop34
280
     0
102
RTVSPost2010PropOp34
 70
     1
102
RTVSPost2010Prop35
280
     0
102
RTVSPost2010PropOp35
 70
     1
102
RTVSPost2010Prop36
280
     0
102
RTVSPost2010PropOp36
 70
     1
102
RTVSPost2010Prop37
 90
       50
102
RTVSPost2010PropOp37
 70
     1
102
RTVSPost2010Prop38
140
0.0
102
RTVSPost2010PropOp38
 70
     1
102
RTVSPost2010Prop39
140
1.0
102
RTVSPost2010PropOp39
 70
     1
102
RTVSPost2010Prop40
 90
        0
102
RTVSPost2010PropOp40
 70
     1
102
RTVSPost2010Prop41ColorIndex
 90
       18
102
RTVSPost2010Prop41ColorRGB
 90
        0
102
RTVSPost2010PropOp41
 70
     1
102
RTVSPost2010Prop42
 90
       50
102
RTVSPost2010PropOp42
 70
     1
102
RTVSPost2010Prop43
 90
        3
102
RTVSPost2010PropOp43
 70
     1
102
RTVSPost2010Prop44ColorIndex
 90
        5
102
RTVSPost2010Prop44ColorRGB
 90
      255
102
RTVSPost2010PropOp44
 70
     1
102
RTVSPost2010Prop45
280
     0
102
RTVSPost2010PropOp45
 70
     1
102
RTVSPost2010Prop46
 90
       50
102
RTVSPost2010PropOp46
 70
     1
102
RTVSPost2010Prop47
 90
       50
102
RTVSPost2010PropOp47
 70
     1
102
RTVSPost2010Prop48
 90
       50
102
RTVSPost2010PropOp48
 70
     1
102
RTVSPost2010Prop49
280
     0
102
RTVSPost2010PropOp49
 70
     1
102
RTVSPost2010Prop50
 90
       50
102
RTVSPost2010PropOp50
 70
     1
102
RTVSPost2010Prop51ColorIndex
 90
      256
102
RTVSPost2010Prop51ColorRGB
 90
-16777216
102
RTVSPost2010PropOp51
 70
     0
102
RTVSPost2010Prop52
140
1.0
102
RTVSPost2010PropOp52
 70
     0
102
RTVSPost2010Prop53
 90
        2
102
RTVSPost2010PropOp53
 70
     1
102
RTVSPost2010Prop54
  1
strokes_ogs.tif
102
RTVSPost2010PropOp54
 70
     1
102
RTVSPost2010Prop55
280
     0
102
RTVSPost2010PropOp55
 70
     1
102
RTVSPost2010Prop56
140
1.0
102
RTVSPost2010PropOp56
 70
     1
102
RTVSPost2010Prop57
140
1.0
102
RTVSPost2010PropOp57
 70
     1
  0
XRECORD
  5
345
102
{ACAD_REACTORS
330
344
102
}
330
344
100
AcDbXrecord
280
     1
102
RTVSPost2010Prop28
280
     0
102
RTVSPost2010PropOp28
 70
     1
102
RTVSPost2010Prop29
280
     1
102
RTVSPost2010PropOp29
 70
     1
102
RTVSPost2010Prop30
280
     1
102
RTVSPost2010PropOp30
 70
     1
102
RTVSPost2010Prop31
280
     0
102
RTVSPost2010PropOp31
 70
     1
102
RTVSPost2010Prop32
280
     0
102
RTVSPost2010PropOp32
 70
     1
102
RTVSPost2010Prop33
280
     0
102
RTVSPost2010PropOp33
 70
     1
102
RTVSPost2010Prop34
280
     0
102
RTVSPost2010PropOp34
 70
     1
102
RTVSPost2010Prop35
280
     0
102
RTVSPost2010PropOp35
 70
     1
102
RTVSPost2010Prop36
280
     0
102
RTVSPost2010PropOp36
 70
     1
102
RTVSPost2010Prop37
 90
       50
102
RTVSPost2010PropOp37
 70
     1
102
RTVSPost2010Prop38
140
0.0
102
RTVSPost2010PropOp38
 70
     1
102
RTVSPost2010Prop39
140
1.0
102
RTVSPost2010PropOp39
 70
     1
102
RTVSPost2010Prop40
 90
        0
102
RTVSPost2010PropOp40
 70
     1
102
RTVSPost2010Prop41ColorIndex
 90
       18
102
RTVSPost2010Prop41ColorRGB
 90
        0
102
RTVSPost2010PropOp41
 70
     1
102
RTVSPost2010Prop42
 90
       50
102
RTVSPost2010PropOp42
 70
     1
102
RTVSPost2010Prop43
 90
        3
102
RTVSPost2010PropOp43
 70
     1
102
RTVSPost2010Prop44ColorIndex
 90
        5
102
RTVSPost2010Prop44ColorRGB
 90
      255
102
RTVSPost2010PropOp44
 70
     1
102
RTVSPost2010Prop45
280
     0
102
RTVSPost2010PropOp45
 70
     1
102
RTVSPost2010Prop46
 90
       50
102
RTVSPost2010PropOp46
 70
     1
102
RTVSPost2010Prop47
 90
       50
102
RTVSPost2010PropOp47
 70
     1
102
RTVSPost2010Prop48
 90
       50
102
RTVSPost2010PropOp48
 70
     1
102
RTVSPost2010Prop49
280
     0
102
RTVSPost2010PropOp49
 70
     1
102
RTVSPost2010Prop50
 90
       50
102
RTVSPost2010PropOp50
 70
     1
102
RTVSPost2010Prop51ColorIndex
 90
      256
102
RTVSPost2010Prop51ColorRGB
 90
-16777216
102
RTVSPost2010PropOp51
 70
     0
102
RTVSPost2010Prop52
140
1.0
102
RTVSPost2010PropOp52
 70
     0
102
RTVSPost2010Prop53
 90
        2
102
RTVSPost2010PropOp53
 70
     1
102
RTVSPost2010Prop54
  1
strokes_ogs.tif
102
RTVSPost2010PropOp54
 70
     1
102
RTVSPost2010Prop55
280
     0
102
RTVSPost2010PropOp55
 70
     1
102
RTVSPost2010Prop56
140
1.0
102
RTVSPost2010PropOp56
 70
     1
102
RTVSPost2010Prop57
140
1.0
102
RTVSPost2010PropOp57
 70
     1
  0
XRECORD
  5
34D
102
{ACAD_REACTORS
330
34C
102
}
330
34C
100
AcDbXrecord
280
     1
102
RTVSPost2010Prop28
280
     0
102
RTVSPost2010PropOp28
 70
     1
102
RTVSPost2010Prop29
280
     1
102
RTVSPost2010PropOp29
 70
     1
102
RTVSPost2010Prop30
280
     1
102
RTVSPost2010PropOp30
 70
     1
102
RTVSPost2010Prop31
280
     0
102
RTVSPost2010PropOp31
 70
     1
102
RTVSPost2010Prop32
280
     0
102
RTVSPost2010PropOp32
 70
     1
102
RTVSPost2010Prop33
280
     0
102
RTVSPost2010PropOp33
 70
     1
102
RTVSPost2010Prop34
280
     0
102
RTVSPost2010PropOp34
 70
     1
102
RTVSPost2010Prop35
280
     0
102
RTVSPost2010PropOp35
 70
     1
102
RTVSPost2010Prop36
280
     0
102
RTVSPost2010PropOp36
 70
     1
102
RTVSPost2010Prop37
 90
       50
102
RTVSPost2010PropOp37
 70
     1
102
RTVSPost2010Prop38
140
0.0
102
RTVSPost2010PropOp38
 70
     1
102
RTVSPost2010Prop39
140
1.0
102
RTVSPost2010PropOp39
 70
     1
102
RTVSPost2010Prop40
 90
        0
102
RTVSPost2010PropOp40
 70
     1
102
RTVSPost2010Prop41ColorIndex
 90
       18
102
RTVSPost2010Prop41ColorRGB
 90
        0
102
RTVSPost2010PropOp41
 70
     1
102
RTVSPost2010Prop42
 90
       50
102
RTVSPost2010PropOp42
 70
     1
102
RTVSPost2010Prop43
 90
        3
102
RTVSPost2010PropOp43
 70
     1
102
RTVSPost2010Prop44ColorIndex
 90
        5
102
RTVSPost2010Prop44ColorRGB
 90
      255
102
RTVSPost2010PropOp44
 70
     1
102
RTVSPost2010Prop45
280
     0
102
RTVSPost2010PropOp45
 70
     1
102
RTVSPost2010Prop46
 90
       50
102
RTVSPost2010PropOp46
 70
     1
102
RTVSPost2010Prop47
 90
       50
102
RTVSPost2010PropOp47
 70
     1
102
RTVSPost2010Prop48
 90
       50
102
RTVSPost2010PropOp48
 70
     1
102
RTVSPost2010Prop49
280
     0
102
RTVSPost2010PropOp49
 70
     1
102
RTVSPost2010Prop50
 90
       50
102
RTVSPost2010PropOp50
 70
     1
102
RTVSPost2010Prop51ColorIndex
 90
      256
102
RTVSPost2010Prop51ColorRGB
 90
-16777216
102
RTVSPost2010PropOp51
 70
     0
102
RTVSPost2010Prop52
140
1.0
102
RTVSPost2010PropOp52
 70
     0
102
RTVSPost2010Prop53
 90
        2
102
RTVSPost2010PropOp53
 70
     1
102
RTVSPost2010Prop54
  1
strokes_ogs.tif
102
RTVSPost2010PropOp54
 70
     1
102
RTVSPost2010Prop55
280
     0
102
RTVSPost2010PropOp55
 70
     1
102
RTVSPost2010Prop56
140
1.0
102
RTVSPost2010PropOp56
 70
     1
102
RTVSPost2010Prop57
140
1.0
102
RTVSPost2010PropOp57
 70
     1
  0
XRECORD
  5
355
102
{ACAD_REACTORS
330
354
102
}
330
354
100
AcDbXrecord
280
     1
102
RTVSPost2010Prop28
280
     0
102
RTVSPost2010PropOp28
 70
     1
102
RTVSPost2010Prop29
280
     1
102
RTVSPost2010PropOp29
 70
     1
102
RTVSPost2010Prop30
280
     1
102
RTVSPost2010PropOp30
 70
     1
102
RTVSPost2010Prop31
280
     0
102
RTVSPost2010PropOp31
 70
     1
102
RTVSPost2010Prop32
280
     0
102
RTVSPost2010PropOp32
 70
     1
102
RTVSPost2010Prop33
280
     0
102
RTVSPost2010PropOp33
 70
     1
102
RTVSPost2010Prop34
280
     0
102
RTVSPost2010PropOp34
 70
     1
102
RTVSPost2010Prop35
280
     0
102
RTVSPost2010PropOp35
 70
     1
102
RTVSPost2010Prop36
280
     0
102
RTVSPost2010PropOp36
 70
     1
102
RTVSPost2010Prop37
 90
       50
102
RTVSPost2010PropOp37
 70
     1
102
RTVSPost2010Prop38
140
0.0
102
RTVSPost2010PropOp38
 70
     1
102
RTVSPost2010Prop39
140
1.0
102
RTVSPost2010PropOp39
 70
     1
102
RTVSPost2010Prop40
 90
        0
102
RTVSPost2010PropOp40
 70
     1
102
RTVSPost2010Prop41ColorIndex
 90
       18
102
RTVSPost2010Prop41ColorRGB
 90
        0
102
RTVSPost2010PropOp41
 70
     1
102
RTVSPost2010Prop42
 90
       50
102
RTVSPost2010PropOp42
 70
     1
102
RTVSPost2010Prop43
 90
        3
102
RTVSPost2010PropOp43
 70
     1
102
RTVSPost2010Prop44ColorIndex
 90
        5
102
RTVSPost2010Prop44ColorRGB
 90
      255
102
RTVSPost2010PropOp44
 70
     1
102
RTVSPost2010Prop45
280
     0
102
RTVSPost2010PropOp45
 70
     1
102
RTVSPost2010Prop46
 90
       50
102
RTVSPost2010PropOp46
 70
     1
102
RTVSPost2010Prop47
 90
       50
102
RTVSPost2010PropOp47
 70
     1
102
RTVSPost2010Prop48
 90
       50
102
RTVSPost2010PropOp48
 70
     1
102
RTVSPost2010Prop49
280
     0
102
RTVSPost2010PropOp49
 70
     1
102
RTVSPost2010Prop50
 90
       50
102
RTVSPost2010PropOp50
 70
     1
102
RTVSPost2010Prop51ColorIndex
 90
      256
102
RTVSPost2010Prop51ColorRGB
 90
-16777216
102
RTVSPost2010PropOp51
 70
     0
102
RTVSPost2010Prop52
140
1.0
102
RTVSPost2010PropOp52
 70
     0
102
RTVSPost2010Prop53
 90
        2
102
RTVSPost2010PropOp53
 70
     1
102
RTVSPost2010Prop54
  1
strokes_ogs.tif
102
RTVSPost2010PropOp54
 70
     1
102
RTVSPost2010Prop55
280
     0
102
RTVSPost2010PropOp55
 70
     1
102
RTVSPost2010Prop56
140
1.0
102
RTVSPost2010PropOp56
 70
     1
102
RTVSPost2010Prop57
140
1.0
102
RTVSPost2010PropOp57
 70
     1
  0
XRECORD
  5
349
102
{ACAD_REACTORS
330
348
102
}
330
348
100
AcDbXrecord
280
     1
102
RTVSPost2010Prop28
280
     0
102
RTVSPost2010PropOp28
 70
     1
102
RTVSPost2010Prop29
280
     1
102
RTVSPost2010PropOp29
 70
     1
102
RTVSPost2010Prop30
280
     1
102
RTVSPost2010PropOp30
 70
     1
102
RTVSPost2010Prop31
280
     0
102
RTVSPost2010PropOp31
 70
     1
102
RTVSPost2010Prop32
280
     0
102
RTVSPost2010PropOp32
 70
     1
102
RTVSPost2010Prop33
280
     0
102
RTVSPost2010PropOp33
 70
     1
102
RTVSPost2010Prop34
280
     0
102
RTVSPost2010PropOp34
 70
     1
102
RTVSPost2010Prop35
280
     0
102
RTVSPost2010PropOp35
 70
     1
102
RTVSPost2010Prop36
280
     0
102
RTVSPost2010PropOp36
 70
     1
102
RTVSPost2010Prop37
 90
       50
102
RTVSPost2010PropOp37
 70
     1
102
RTVSPost2010Prop38
140
0.0
102
RTVSPost2010PropOp38
 70
     1
102
RTVSPost2010Prop39
140
1.0
102
RTVSPost2010PropOp39
 70
     1
102
RTVSPost2010Prop40
 90
        0
102
RTVSPost2010PropOp40
 70
     1
102
RTVSPost2010Prop41ColorIndex
 90
       18
102
RTVSPost2010Prop41ColorRGB
 90
        0
102
RTVSPost2010PropOp41
 70
     1
102
RTVSPost2010Prop42
 90
       50
102
RTVSPost2010PropOp42
 70
     1
102
RTVSPost2010Prop43
 90
        3
102
RTVSPost2010PropOp43
 70
     1
102
RTVSPost2010Prop44ColorIndex
 90
        5
102
RTVSPost2010Prop44ColorRGB
 90
      255
102
RTVSPost2010PropOp44
 70
     1
102
RTVSPost2010Prop45
280
     0
102
RTVSPost2010PropOp45
 70
     1
102
RTVSPost2010Prop46
 90
       50
102
RTVSPost2010PropOp46
 70
     1
102
RTVSPost2010Prop47
 90
       50
102
RTVSPost2010PropOp47
 70
     1
102
RTVSPost2010Prop48
 90
       50
102
RTVSPost2010PropOp48
 70
     1
102
RTVSPost2010Prop49
280
     0
102
RTVSPost2010PropOp49
 70
     1
102
RTVSPost2010Prop50
 90
       50
102
RTVSPost2010PropOp50
 70
     1
102
RTVSPost2010Prop51ColorIndex
 90
      256
102
RTVSPost2010Prop51ColorRGB
 90
-16777216
102
RTVSPost2010PropOp51
 70
     0
102
RTVSPost2010Prop52
140
1.0
102
RTVSPost2010PropOp52
 70
     0
102
RTVSPost2010Prop53
 90
        2
102
RTVSPost2010PropOp53
 70
     1
102
RTVSPost2010Prop54
  1
strokes_ogs.tif
102
RTVSPost2010PropOp54
 70
     1
102
RTVSPost2010Prop55
280
     0
102
RTVSPost2010PropOp55
 70
     1
102
RTVSPost2010Prop56
140
1.0
102
RTVSPost2010PropOp56
 70
     1
102
RTVSPost2010Prop57
140
1.0
102
RTVSPost2010PropOp57
 70
     1
  0
XRECORD
  5
34B
102
{ACAD_REACTORS
330
34A
102
}
330
34A
100
AcDbXrecord
280
     1
102
RTVSPost2010Prop28
280
     0
102
RTVSPost2010PropOp28
 70
     1
102
RTVSPost2010Prop29
280
     1
102
RTVSPost2010PropOp29
 70
     1
102
RTVSPost2010Prop30
280
     1
102
RTVSPost2010PropOp30
 70
     1
102
RTVSPost2010Prop31
280
     0
102
RTVSPost2010PropOp31
 70
     1
102
RTVSPost2010Prop32
280
     0
102
RTVSPost2010PropOp32
 70
     1
102
RTVSPost2010Prop33
280
     0
102
RTVSPost2010PropOp33
 70
     1
102
RTVSPost2010Prop34
280
     0
102
RTVSPost2010PropOp34
 70
     1
102
RTVSPost2010Prop35
280
     0
102
RTVSPost2010PropOp35
 70
     1
102
RTVSPost2010Prop36
280
     0
102
RTVSPost2010PropOp36
 70
     1
102
RTVSPost2010Prop37
 90
       50
102
RTVSPost2010PropOp37
 70
     1
102
RTVSPost2010Prop38
140
0.0
102
RTVSPost2010PropOp38
 70
     1
102
RTVSPost2010Prop39
140
1.0
102
RTVSPost2010PropOp39
 70
     1
102
RTVSPost2010Prop40
 90
        0
102
RTVSPost2010PropOp40
 70
     1
102
RTVSPost2010Prop41ColorIndex
 90
       18
102
RTVSPost2010Prop41ColorRGB
 90
        0
102
RTVSPost2010PropOp41
 70
     1
102
RTVSPost2010Prop42
 90
       50
102
RTVSPost2010PropOp42
 70
     1
102
RTVSPost2010Prop43
 90
        3
102
RTVSPost2010PropOp43
 70
     1
102
RTVSPost2010Prop44ColorIndex
 90
        5
102
RTVSPost2010Prop44ColorRGB
 90
      255
102
RTVSPost2010PropOp44
 70
     1
102
RTVSPost2010Prop45
280
     0
102
RTVSPost2010PropOp45
 70
     1
102
RTVSPost2010Prop46
 90
       50
102
RTVSPost2010PropOp46
 70
     1
102
RTVSPost2010Prop47
 90
       50
102
RTVSPost2010PropOp47
 70
     1
102
RTVSPost2010Prop48
 90
       50
102
RTVSPost2010PropOp48
 70
     1
102
RTVSPost2010Prop49
280
     0
102
RTVSPost2010PropOp49
 70
     1
102
RTVSPost2010Prop50
 90
       50
102
RTVSPost2010PropOp50
 70
     1
102
RTVSPost2010Prop51ColorIndex
 90
      256
102
RTVSPost2010Prop51ColorRGB
 90
-16777216
102
RTVSPost2010PropOp51
 70
     0
102
RTVSPost2010Prop52
140
1.0
102
RTVSPost2010PropOp52
 70
     0
102
RTVSPost2010Prop53
 90
        2
102
RTVSPost2010PropOp53
 70
     1
102
RTVSPost2010Prop54
  1
strokes_ogs.tif
102
RTVSPost2010PropOp54
 70
     1
102
RTVSPost2010Prop55
280
     0
102
RTVSPost2010PropOp55
 70
     1
102
RTVSPost2010Prop56
140
1.0
102
RTVSPost2010PropOp56
 70
     1
102
RTVSPost2010Prop57
140
1.0
102
RTVSPost2010PropOp57
 70
     1
  0
XRECORD
  5
35B
102
{ACAD_REACTORS
330
35A
102
}
330
35A
100
AcDbXrecord
280
     1
102
RTVSPost2010Prop28
280
     0
102
RTVSPost2010PropOp28
 70
     0
102
RTVSPost2010Prop29
280
     1
102
RTVSPost2010PropOp29
 70
     0
102
RTVSPost2010Prop30
280
     1
102
RTVSPost2010PropOp30
 70
     0
102
RTVSPost2010Prop31
280
     0
102
RTVSPost2010PropOp31
 70
     0
102
RTVSPost2010Prop32
280
     0
102
RTVSPost2010PropOp32
 70
     0
102
RTVSPost2010Prop33
280
     0
102
RTVSPost2010PropOp33
 70
     0
102
RTVSPost2010Prop34
280
     0
102
RTVSPost2010PropOp34
 70
     0
102
RTVSPost2010Prop35
280
     0
102
RTVSPost2010PropOp35
 70
     0
102
RTVSPost2010Prop36
280
     0
102
RTVSPost2010PropOp36
 70
     0
102
RTVSPost2010Prop37
 90
       50
102
RTVSPost2010PropOp37
 70
     0
102
RTVSPost2010Prop38
140
0.0
102
RTVSPost2010PropOp38
 70
     0
102
RTVSPost2010Prop39
140
1.0
102
RTVSPost2010PropOp39
 70
     0
102
RTVSPost2010Prop40
 90
        0
102
RTVSPost2010PropOp40
 70
     0
102
RTVSPost2010Prop41ColorIndex
 90
       18
102
RTVSPost2010Prop41ColorRGB
 90
        0
102
RTVSPost2010PropOp41
 70
     0
102
RTVSPost2010Prop42
 90
       50
102
RTVSPost2010PropOp42
 70
     0
102
RTVSPost2010Prop43
 90
        3
102
RTVSPost2010PropOp43
 70
     0
102
RTVSPost2010Prop44ColorIndex
 90
        5
102
RTVSPost2010Prop44ColorRGB
 90
      255
102
RTVSPost2010PropOp44
 70
     0
102
RTVSPost2010Prop45
280
     0
102
RTVSPost2010PropOp45
 70
     0
102
RTVSPost2010Prop46
 90
       50
102
RTVSPost2010PropOp46
 70
     0
102
RTVSPost2010Prop47
 90
       50
102
RTVSPost2010PropOp47
 70
     0
102
RTVSPost2010Prop48
 90
       50
102
RTVSPost2010PropOp48
 70
     0
102
RTVSPost2010Prop49
280
     0
102
RTVSPost2010PropOp49
 70
     0
102
RTVSPost2010Prop50
 90
       50
102
RTVSPost2010PropOp50
 70
     0
102
RTVSPost2010Prop51ColorIndex
 90
      256
102
RTVSPost2010Prop51ColorRGB
 90
-16777216
102
RTVSPost2010PropOp51
 70
     0
102
RTVSPost2010Prop52
140
1.0
102
RTVSPost2010PropOp52
 70
     0
102
RTVSPost2010Prop53
 90
        2
102
RTVSPost2010PropOp53
 70
     0
102
RTVSPost2010Prop54
  1
strokes_ogs.tif
102
RTVSPost2010PropOp54
 70
     0
102
RTVSPost2010Prop55
280
     0
102
RTVSPost2010PropOp55
 70
     0
102
RTVSPost2010Prop56
140
1.0
102
RTVSPost2010PropOp56
 70
     0
102
RTVSPost2010Prop57
140
1.0
102
RTVSPost2010PropOp57
 70
     0
  0
XRECORD
  5
353
102
{ACAD_REACTORS
330
352
102
}
330
352
100
AcDbXrecord
280
     1
102
RTVSPost2010Prop28
280
     0
102
RTVSPost2010PropOp28
 70
     1
102
RTVSPost2010Prop29
280
     1
102
RTVSPost2010PropOp29
 70
     1
102
RTVSPost2010Prop30
280
     1
102
RTVSPost2010PropOp30
 70
     1
102
RTVSPost2010Prop31
280
     0
102
RTVSPost2010PropOp31
 70
     1
102
RTVSPost2010Prop32
280
     0
102
RTVSPost2010PropOp32
 70
     1
102
RTVSPost2010Prop33
280
     0
102
RTVSPost2010PropOp33
 70
     1
102
RTVSPost2010Prop34
280
     0
102
RTVSPost2010PropOp34
 70
     1
102
RTVSPost2010Prop35
280
     0
102
RTVSPost2010PropOp35
 70
     1
102
RTVSPost2010Prop36
280
     0
102
RTVSPost2010PropOp36
 70
     1
102
RTVSPost2010Prop37
 90
       50
102
RTVSPost2010PropOp37
 70
     1
102
RTVSPost2010Prop38
140
0.0
102
RTVSPost2010PropOp38
 70
     1
102
RTVSPost2010Prop39
140
1.0
102
RTVSPost2010PropOp39
 70
     1
102
RTVSPost2010Prop40
 90
        0
102
RTVSPost2010PropOp40
 70
     1
102
RTVSPost2010Prop41ColorIndex
 90
       18
102
RTVSPost2010Prop41ColorRGB
 90
        0
102
RTVSPost2010PropOp41
 70
     1
102
RTVSPost2010Prop42
 90
       50
102
RTVSPost2010PropOp42
 70
     1
102
RTVSPost2010Prop43
 90
        3
102
RTVSPost2010PropOp43
 70
     1
102
RTVSPost2010Prop44ColorIndex
 90
        5
102
RTVSPost2010Prop44ColorRGB
 90
      255
102
RTVSPost2010PropOp44
 70
     1
102
RTVSPost2010Prop45
280
     0
102
RTVSPost2010PropOp45
 70
     1
102
RTVSPost2010Prop46
 90
       50
102
RTVSPost2010PropOp46
 70
     1
102
RTVSPost2010Prop47
 90
       50
102
RTVSPost2010PropOp47
 70
     1
102
RTVSPost2010Prop48
 90
       50
102
RTVSPost2010PropOp48
 70
     1
102
RTVSPost2010Prop49
280
     0
102
RTVSPost2010PropOp49
 70
     1
102
RTVSPost2010Prop50
 90
       50
102
RTVSPost2010PropOp50
 70
     1
102
RTVSPost2010Prop51ColorIndex
 90
      256
102
RTVSPost2010Prop51ColorRGB
 90
-16777216
102
RTVSPost2010PropOp51
 70
     0
102
RTVSPost2010Prop52
140
1.0
102
RTVSPost2010PropOp52
 70
     0
102
RTVSPost2010Prop53
 90
        2
102
RTVSPost2010PropOp53
 70
     1
102
RTVSPost2010Prop54
  1
strokes_ogs.tif
102
RTVSPost2010PropOp54
 70
     1
102
RTVSPost2010Prop55
280
     0
102
RTVSPost2010PropOp55
 70
     1
102
RTVSPost2010Prop56
140
1.0
102
RTVSPost2010PropOp56
 70
     1
102
RTVSPost2010Prop57
140
1.0
102
RTVSPost2010PropOp57
 70
     1
  0
XRECORD
  5
337
102
{ACAD_REACTORS
330
336
102
}
330
336
100
AcDbXrecord
280
     1
102
RTVSPost2010Prop28
280
     0
102
RTVSPost2010PropOp28
 70
     1
102
RTVSPost2010Prop29
280
     1
102
RTVSPost2010PropOp29
 70
     1
102
RTVSPost2010Prop30
280
     1
102
RTVSPost2010PropOp30
 70
     1
102
RTVSPost2010Prop31
280
     0
102
RTVSPost2010PropOp31
 70
     1
102
RTVSPost2010Prop32
280
     0
102
RTVSPost2010PropOp32
 70
     1
102
RTVSPost2010Prop33
280
     0
102
RTVSPost2010PropOp33
 70
     1
102
RTVSPost2010Prop34
280
     0
102
RTVSPost2010PropOp34
 70
     1
102
RTVSPost2010Prop35
280
     0
102
RTVSPost2010PropOp35
 70
     1
102
RTVSPost2010Prop36
280
     0
102
RTVSPost2010PropOp36
 70
     1
102
RTVSPost2010Prop37
 90
       50
102
RTVSPost2010PropOp37
 70
     1
102
RTVSPost2010Prop38
140
0.0
102
RTVSPost2010PropOp38
 70
     1
102
RTVSPost2010Prop39
140
1.0
102
RTVSPost2010PropOp39
 70
     1
102
RTVSPost2010Prop40
 90
        0
102
RTVSPost2010PropOp40
 70
     1
102
RTVSPost2010Prop41ColorIndex
 90
       18
102
RTVSPost2010Prop41ColorRGB
 90
        0
102
RTVSPost2010PropOp41
 70
     1
102
RTVSPost2010Prop42
 90
       50
102
RTVSPost2010PropOp42
 70
     1
102
RTVSPost2010Prop43
 90
        3
102
RTVSPost2010PropOp43
 70
     1
102
RTVSPost2010Prop44ColorIndex
 90
        5
102
RTVSPost2010Prop44ColorRGB
 90
      255
102
RTVSPost2010PropOp44
 70
     1
102
RTVSPost2010Prop45
280
     0
102
RTVSPost2010PropOp45
 70
     1
102
RTVSPost2010Prop46
 90
       50
102
RTVSPost2010PropOp46
 70
     1
102
RTVSPost2010Prop47
 90
       50
102
RTVSPost2010PropOp47
 70
     1
102
RTVSPost2010Prop48
 90
       50
102
RTVSPost2010PropOp48
 70
     1
102
RTVSPost2010Prop49
280
     0
102
RTVSPost2010PropOp49
 70
     1
102
RTVSPost2010Prop50
 90
       50
102
RTVSPost2010PropOp50
 70
     1
102
RTVSPost2010Prop51ColorIndex
 90
      256
102
RTVSPost2010Prop51ColorRGB
 90
-16777216
102
RTVSPost2010PropOp51
 70
     0
102
RTVSPost2010Prop52
140
1.0
102
RTVSPost2010PropOp52
 70
     0
102
RTVSPost2010Prop53
 90
        2
102
RTVSPost2010PropOp53
 70
     1
102
RTVSPost2010Prop54
  1
strokes_ogs.tif
102
RTVSPost2010PropOp54
 70
     1
102
RTVSPost2010Prop55
280
     0
102
RTVSPost2010PropOp55
 70
     1
102
RTVSPost2010Prop56
140
1.0
102
RTVSPost2010PropOp56
 70
     1
102
RTVSPost2010Prop57
140
1.0
102
RTVSPost2010PropOp57
 70
     1
  0
XRECORD
  5
339
102
{ACAD_REACTORS
330
338
102
}
330
338
100
AcDbXrecord
280
     1
102
RTVSPost2010Prop28
280
     0
102
RTVSPost2010PropOp28
 70
     1
102
RTVSPost2010Prop29
280
     1
102
RTVSPost2010PropOp29
 70
     1
102
RTVSPost2010Prop30
280
     1
102
RTVSPost2010PropOp30
 70
     1
102
RTVSPost2010Prop31
280
     0
102
RTVSPost2010PropOp31
 70
     1
102
RTVSPost2010Prop32
280
     0
102
RTVSPost2010PropOp32
 70
     1
102
RTVSPost2010Prop33
280
     0
102
RTVSPost2010PropOp33
 70
     1
102
RTVSPost2010Prop34
280
     0
102
RTVSPost2010PropOp34
 70
     1
102
RTVSPost2010Prop35
280
     0
102
RTVSPost2010PropOp35
 70
     1
102
RTVSPost2010Prop36
280
     0
102
RTVSPost2010PropOp36
 70
     1
102
RTVSPost2010Prop37
 90
       50
102
RTVSPost2010PropOp37
 70
     1
102
RTVSPost2010Prop38
140
0.0
102
RTVSPost2010PropOp38
 70
     1
102
RTVSPost2010Prop39
140
1.0
102
RTVSPost2010PropOp39
 70
     1
102
RTVSPost2010Prop40
 90
        0
102
RTVSPost2010PropOp40
 70
     1
102
RTVSPost2010Prop41ColorIndex
 90
       18
102
RTVSPost2010Prop41ColorRGB
 90
        0
102
RTVSPost2010PropOp41
 70
     1
102
RTVSPost2010Prop42
 90
       50
102
RTVSPost2010PropOp42
 70
     1
102
RTVSPost2010Prop43
 90
        3
102
RTVSPost2010PropOp43
 70
     1
102
RTVSPost2010Prop44ColorIndex
 90
        5
102
RTVSPost2010Prop44ColorRGB
 90
      255
102
RTVSPost2010PropOp44
 70
     1
102
RTVSPost2010Prop45
280
     0
102
RTVSPost2010PropOp45
 70
     1
102
RTVSPost2010Prop46
 90
       50
102
RTVSPost2010PropOp46
 70
     1
102
RTVSPost2010Prop47
 90
       50
102
RTVSPost2010PropOp47
 70
     1
102
RTVSPost2010Prop48
 90
       50
102
RTVSPost2010PropOp48
 70
     1
102
RTVSPost2010Prop49
280
     0
102
RTVSPost2010PropOp49
 70
     1
102
RTVSPost2010Prop50
 90
       50
102
RTVSPost2010PropOp50
 70
     1
102
RTVSPost2010Prop51ColorIndex
 90
      256
102
RTVSPost2010Prop51ColorRGB
 90
-16777216
102
RTVSPost2010PropOp51
 70
     0
102
RTVSPost2010Prop52
140
1.0
102
RTVSPost2010PropOp52
 70
     0
102
RTVSPost2010Prop53
 90
        2
102
RTVSPost2010PropOp53
 70
     1
102
RTVSPost2010Prop54
  1
strokes_ogs.tif
102
RTVSPost2010PropOp54
 70
     1
102
RTVSPost2010Prop55
280
     0
102
RTVSPost2010PropOp55
 70
     1
102
RTVSPost2010Prop56
140
1.0
102
RTVSPost2010PropOp56
 70
     1
102
RTVSPost2010Prop57
140
1.0
102
RTVSPost2010PropOp57
 70
     1
  0
XRECORD
  5
33B
102
{ACAD_REACTORS
330
33A
102
}
330
33A
100
AcDbXrecord
280
     1
102
RTVSPost2010Prop28
280
     0
102
RTVSPost2010PropOp28
 70
     1
102
RTVSPost2010Prop29
280
     1
102
RTVSPost2010PropOp29
 70
     1
102
RTVSPost2010Prop30
280
     1
102
RTVSPost2010PropOp30
 70
     1
102
RTVSPost2010Prop31
280
     0
102
RTVSPost2010PropOp31
 70
     1
102
RTVSPost2010Prop32
280
     0
102
RTVSPost2010PropOp32
 70
     1
102
RTVSPost2010Prop33
280
     0
102
RTVSPost2010PropOp33
 70
     1
102
RTVSPost2010Prop34
280
     0
102
RTVSPost2010PropOp34
 70
     1
102
RTVSPost2010Prop35
280
     0
102
RTVSPost2010PropOp35
 70
     1
102
RTVSPost2010Prop36
280
     0
102
RTVSPost2010PropOp36
 70
     1
102
RTVSPost2010Prop37
 90
       50
102
RTVSPost2010PropOp37
 70
     1
102
RTVSPost2010Prop38
140
0.0
102
RTVSPost2010PropOp38
 70
     1
102
RTVSPost2010Prop39
140
1.0
102
RTVSPost2010PropOp39
 70
     1
102
RTVSPost2010Prop40
 90
        0
102
RTVSPost2010PropOp40
 70
     1
102
RTVSPost2010Prop41ColorIndex
 90
       18
102
RTVSPost2010Prop41ColorRGB
 90
        0
102
RTVSPost2010PropOp41
 70
     1
102
RTVSPost2010Prop42
 90
       50
102
RTVSPost2010PropOp42
 70
     1
102
RTVSPost2010Prop43
 90
        3
102
RTVSPost2010PropOp43
 70
     1
102
RTVSPost2010Prop44ColorIndex
 90
        5
102
RTVSPost2010Prop44ColorRGB
 90
      255
102
RTVSPost2010PropOp44
 70
     1
102
RTVSPost2010Prop45
280
     0
102
RTVSPost2010PropOp45
 70
     1
102
RTVSPost2010Prop46
 90
       50
102
RTVSPost2010PropOp46
 70
     1
102
RTVSPost2010Prop47
 90
       50
102
RTVSPost2010PropOp47
 70
     1
102
RTVSPost2010Prop48
 90
       50
102
RTVSPost2010PropOp48
 70
     1
102
RTVSPost2010Prop49
280
     0
102
RTVSPost2010PropOp49
 70
     1
102
RTVSPost2010Prop50
 90
       50
102
RTVSPost2010PropOp50
 70
     1
102
RTVSPost2010Prop51ColorIndex
 90
      256
102
RTVSPost2010Prop51ColorRGB
 90
-16777216
102
RTVSPost2010PropOp51
 70
     0
102
RTVSPost2010Prop52
140
1.0
102
RTVSPost2010PropOp52
 70
     0
102
RTVSPost2010Prop53
 90
        2
102
RTVSPost2010PropOp53
 70
     1
102
RTVSPost2010Prop54
  1
strokes_ogs.tif
102
RTVSPost2010PropOp54
 70
     1
102
RTVSPost2010Prop55
280
     0
102
RTVSPost2010PropOp55
 70
     1
102
RTVSPost2010Prop56
140
1.0
102
RTVSPost2010PropOp56
 70
     1
102
RTVSPost2010Prop57
140
1.0
102
RTVSPost2010PropOp57
 70
     1
  0
XRECORD
  5
33D
102
{ACAD_REACTORS
330
33C
102
}
330
33C
100
AcDbXrecord
280
     1
102
RTVSPost2010Prop28
280
     0
102
RTVSPost2010PropOp28
 70
     1
102
RTVSPost2010Prop29
280
     1
102
RTVSPost2010PropOp29
 70
     1
102
RTVSPost2010Prop30
280
     1
102
RTVSPost2010PropOp30
 70
     1
102
RTVSPost2010Prop31
280
     0
102
RTVSPost2010PropOp31
 70
     1
102
RTVSPost2010Prop32
280
     0
102
RTVSPost2010PropOp32
 70
     1
102
RTVSPost2010Prop33
280
     0
102
RTVSPost2010PropOp33
 70
     1
102
RTVSPost2010Prop34
280
     0
102
RTVSPost2010PropOp34
 70
     1
102
RTVSPost2010Prop35
280
     0
102
RTVSPost2010PropOp35
 70
     1
102
RTVSPost2010Prop36
280
     0
102
RTVSPost2010PropOp36
 70
     1
102
RTVSPost2010Prop37
 90
       50
102
RTVSPost2010PropOp37
 70
     1
102
RTVSPost2010Prop38
140
0.0
102
RTVSPost2010PropOp38
 70
     1
102
RTVSPost2010Prop39
140
1.0
102
RTVSPost2010PropOp39
 70
     1
102
RTVSPost2010Prop40
 90
        0
102
RTVSPost2010PropOp40
 70
     1
102
RTVSPost2010Prop41ColorIndex
 90
       18
102
RTVSPost2010Prop41ColorRGB
 90
        0
102
RTVSPost2010PropOp41
 70
     1
102
RTVSPost2010Prop42
 90
       50
102
RTVSPost2010PropOp42
 70
     1
102
RTVSPost2010Prop43
 90
        3
102
RTVSPost2010PropOp43
 70
     1
102
RTVSPost2010Prop44ColorIndex
 90
        5
102
RTVSPost2010Prop44ColorRGB
 90
      255
102
RTVSPost2010PropOp44
 70
     1
102
RTVSPost2010Prop45
280
     0
102
RTVSPost2010PropOp45
 70
     1
102
RTVSPost2010Prop46
 90
       50
102
RTVSPost2010PropOp46
 70
     1
102
RTVSPost2010Prop47
 90
       50
102
RTVSPost2010PropOp47
 70
     1
102
RTVSPost2010Prop48
 90
       50
102
RTVSPost2010PropOp48
 70
     1
102
RTVSPost2010Prop49
280
     0
102
RTVSPost2010PropOp49
 70
     1
102
RTVSPost2010Prop50
 90
       50
102
RTVSPost2010PropOp50
 70
     1
102
RTVSPost2010Prop51ColorIndex
 90
      256
102
RTVSPost2010Prop51ColorRGB
 90
-16777216
102
RTVSPost2010PropOp51
 70
     0
102
RTVSPost2010Prop52
140
1.0
102
RTVSPost2010PropOp52
 70
     0
102
RTVSPost2010Prop53
 90
        2
102
RTVSPost2010PropOp53
 70
     1
102
RTVSPost2010Prop54
  1
strokes_ogs.tif
102
RTVSPost2010PropOp54
 70
     1
102
RTVSPost2010Prop55
280
     0
102
RTVSPost2010PropOp55
 70
     1
102
RTVSPost2010Prop56
140
1.0
102
RTVSPost2010PropOp56
 70
     1
102
RTVSPost2010Prop57
140
1.0
102
RTVSPost2010PropOp57
 70
     1
  0
XRECORD
  5
343
102
{ACAD_REACTORS
330
342
102
}
330
342
100
AcDbXrecord
280
     1
102
RTVSPost2010Prop28
280
     0
102
RTVSPost2010PropOp28
 70
     1
102
RTVSPost2010Prop29
280
     1
102
RTVSPost2010PropOp29
 70
     1
102
RTVSPost2010Prop30
280
     1
102
RTVSPost2010PropOp30
 70
     1
102
RTVSPost2010Prop31
280
     0
102
RTVSPost2010PropOp31
 70
     1
102
RTVSPost2010Prop32
280
     0
102
RTVSPost2010PropOp32
 70
     1
102
RTVSPost2010Prop33
280
     0
102
RTVSPost2010PropOp33
 70
     1
102
RTVSPost2010Prop34
280
     0
102
RTVSPost2010PropOp34
 70
     1
102
RTVSPost2010Prop35
280
     0
102
RTVSPost2010PropOp35
 70
     1
102
RTVSPost2010Prop36
280
     0
102
RTVSPost2010PropOp36
 70
     1
102
RTVSPost2010Prop37
 90
       50
102
RTVSPost2010PropOp37
 70
     1
102
RTVSPost2010Prop38
140
0.0
102
RTVSPost2010PropOp38
 70
     1
102
RTVSPost2010Prop39
140
1.0
102
RTVSPost2010PropOp39
 70
     1
102
RTVSPost2010Prop40
 90
        0
102
RTVSPost2010PropOp40
 70
     1
102
RTVSPost2010Prop41ColorIndex
 90
       18
102
RTVSPost2010Prop41ColorRGB
 90
        0
102
RTVSPost2010PropOp41
 70
     1
102
RTVSPost2010Prop42
 90
       50
102
RTVSPost2010PropOp42
 70
     1
102
RTVSPost2010Prop43
 90
        3
102
RTVSPost2010PropOp43
 70
     1
102
RTVSPost2010Prop44ColorIndex
 90
        5
102
RTVSPost2010Prop44ColorRGB
 90
      255
102
RTVSPost2010PropOp44
 70
     1
102
RTVSPost2010Prop45
280
     0
102
RTVSPost2010PropOp45
 70
     1
102
RTVSPost2010Prop46
 90
       50
102
RTVSPost2010PropOp46
 70
     1
102
RTVSPost2010Prop47
 90
       50
102
RTVSPost2010PropOp47
 70
     1
102
RTVSPost2010Prop48
 90
       50
102
RTVSPost2010PropOp48
 70
     1
102
RTVSPost2010Prop49
280
     0
102
RTVSPost2010PropOp49
 70
     1
102
RTVSPost2010Prop50
 90
       50
102
RTVSPost2010PropOp50
 70
     1
102
RTVSPost2010Prop51ColorIndex
 90
      256
102
RTVSPost2010Prop51ColorRGB
 90
-16777216
102
RTVSPost2010PropOp51
 70
     0
102
RTVSPost2010Prop52
140
1.0
102
RTVSPost2010PropOp52
 70
     0
102
RTVSPost2010Prop53
 90
        2
102
RTVSPost2010PropOp53
 70
     1
102
RTVSPost2010Prop54
  1
strokes_ogs.tif
102
RTVSPost2010PropOp54
 70
     1
102
RTVSPost2010Prop55
280
     0
102
RTVSPost2010PropOp55
 70
     1
102
RTVSPost2010Prop56
140
1.0
102
RTVSPost2010PropOp56
 70
     1
102
RTVSPost2010Prop57
140
1.0
102
RTVSPost2010PropOp57
 70
     1
  0
XRECORD
  5
357
102
{ACAD_REACTORS
330
356
102
}
330
356
100
AcDbXrecord
280
     1
102
RTVSPost2010Prop28
280
     0
102
RTVSPost2010PropOp28
 70
     0
102
RTVSPost2010Prop29
280
     1
102
RTVSPost2010PropOp29
 70
     0
102
RTVSPost2010Prop30
280
     1
102
RTVSPost2010PropOp30
 70
     0
102
RTVSPost2010Prop31
280
     0
102
RTVSPost2010PropOp31
 70
     0
102
RTVSPost2010Prop32
280
     0
102
RTVSPost2010PropOp32
 70
     0
102
RTVSPost2010Prop33
280
     0
102
RTVSPost2010PropOp33
 70
     0
102
RTVSPost2010Prop34
280
     0
102
RTVSPost2010PropOp34
 70
     0
102
RTVSPost2010Prop35
280
     0
102
RTVSPost2010PropOp35
 70
     0
102
RTVSPost2010Prop36
280
     0
102
RTVSPost2010PropOp36
 70
     0
102
RTVSPost2010Prop37
 90
       50
102
RTVSPost2010PropOp37
 70
     0
102
RTVSPost2010Prop38
140
0.0
102
RTVSPost2010PropOp38
 70
     0
102
RTVSPost2010Prop39
140
1.0
102
RTVSPost2010PropOp39
 70
     0
102
RTVSPost2010Prop40
 90
        0
102
RTVSPost2010PropOp40
 70
     0
102
RTVSPost2010Prop41ColorIndex
 90
       18
102
RTVSPost2010Prop41ColorRGB
 90
        0
102
RTVSPost2010PropOp41
 70
     0
102
RTVSPost2010Prop42
 90
       50
102
RTVSPost2010PropOp42
 70
     0
102
RTVSPost2010Prop43
 90
        3
102
RTVSPost2010PropOp43
 70
     0
102
RTVSPost2010Prop44ColorIndex
 90
        5
102
RTVSPost2010Prop44ColorRGB
 90
      255
102
RTVSPost2010PropOp44
 70
     0
102
RTVSPost2010Prop45
280
     0
102
RTVSPost2010PropOp45
 70
     0
102
RTVSPost2010Prop46
 90
       50
102
RTVSPost2010PropOp46
 70
     0
102
RTVSPost2010Prop47
 90
       50
102
RTVSPost2010PropOp47
 70
     0
102
RTVSPost2010Prop48
 90
       50
102
RTVSPost2010PropOp48
 70
     0
102
RTVSPost2010Prop49
280
     0
102
RTVSPost2010PropOp49
 70
     0
102
RTVSPost2010Prop50
 90
       50
102
RTVSPost2010PropOp50
 70
     0
102
RTVSPost2010Prop51ColorIndex
 90
      256
102
RTVSPost2010Prop51ColorRGB
 90
-16777216
102
RTVSPost2010PropOp51
 70
     0
102
RTVSPost2010Prop52
140
1.0
102
RTVSPost2010PropOp52
 70
     0
102
RTVSPost2010Prop53
 90
        2
102
RTVSPost2010PropOp53
 70
     0
102
RTVSPost2010Prop54
  1
strokes_ogs.tif
102
RTVSPost2010PropOp54
 70
     0
102
RTVSPost2010Prop55
280
     0
102
RTVSPost2010PropOp55
 70
     0
102
RTVSPost2010Prop56
140
1.0
102
RTVSPost2010PropOp56
 70
     0
102
RTVSPost2010Prop57
140
1.0
102
RTVSPost2010PropOp57
 70
     0
  0
XRECORD
  5
351
102
{ACAD_REACTORS
330
350
102
}
330
350
100
AcDbXrecord
280
     1
102
RTVSPost2010Prop28
280
     0
102
RTVSPost2010PropOp28
 70
     1
102
RTVSPost2010Prop29
280
     1
102
RTVSPost2010PropOp29
 70
     1
102
RTVSPost2010Prop30
280
     1
102
RTVSPost2010PropOp30
 70
     1
102
RTVSPost2010Prop31
280
     0
102
RTVSPost2010PropOp31
 70
     1
102
RTVSPost2010Prop32
280
     0
102
RTVSPost2010PropOp32
 70
     1
102
RTVSPost2010Prop33
280
     0
102
RTVSPost2010PropOp33
 70
     1
102
RTVSPost2010Prop34
280
     0
102
RTVSPost2010PropOp34
 70
     1
102
RTVSPost2010Prop35
280
     0
102
RTVSPost2010PropOp35
 70
     1
102
RTVSPost2010Prop36
280
     0
102
RTVSPost2010PropOp36
 70
     1
102
RTVSPost2010Prop37
 90
       50
102
RTVSPost2010PropOp37
 70
     1
102
RTVSPost2010Prop38
140
0.0
102
RTVSPost2010PropOp38
 70
     1
102
RTVSPost2010Prop39
140
1.0
102
RTVSPost2010PropOp39
 70
     1
102
RTVSPost2010Prop40
 90
        0
102
RTVSPost2010PropOp40
 70
     1
102
RTVSPost2010Prop41ColorIndex
 90
       18
102
RTVSPost2010Prop41ColorRGB
 90
        0
102
RTVSPost2010PropOp41
 70
     1
102
RTVSPost2010Prop42
 90
       50
102
RTVSPost2010PropOp42
 70
     1
102
RTVSPost2010Prop43
 90
        3
102
RTVSPost2010PropOp43
 70
     1
102
RTVSPost2010Prop44ColorIndex
 90
        5
102
RTVSPost2010Prop44ColorRGB
 90
      255
102
RTVSPost2010PropOp44
 70
     1
102
RTVSPost2010Prop45
280
     0
102
RTVSPost2010PropOp45
 70
     1
102
RTVSPost2010Prop46
 90
       50
102
RTVSPost2010PropOp46
 70
     1
102
RTVSPost2010Prop47
 90
       50
102
RTVSPost2010PropOp47
 70
     1
102
RTVSPost2010Prop48
 90
       50
102
RTVSPost2010PropOp48
 70
     1
102
RTVSPost2010Prop49
280
     0
102
RTVSPost2010PropOp49
 70
     1
102
RTVSPost2010Prop50
 90
       50
102
RTVSPost2010PropOp50
 70
     1
102
RTVSPost2010Prop51ColorIndex
 90
      256
102
RTVSPost2010Prop51ColorRGB
 90
-16777216
102
RTVSPost2010PropOp51
 70
     0
102
RTVSPost2010Prop52
140
1.0
102
RTVSPost2010PropOp52
 70
     0
102
RTVSPost2010Prop53
 90
        2
102
RTVSPost2010PropOp53
 70
     1
102
RTVSPost2010Prop54
  1
strokes_ogs.tif
102
RTVSPost2010PropOp54
 70
     1
102
RTVSPost2010Prop55
280
     0
102
RTVSPost2010PropOp55
 70
     1
102
RTVSPost2010Prop56
140
1.0
102
RTVSPost2010PropOp56
 70
     1
102
RTVSPost2010Prop57
140
1.0
102
RTVSPost2010PropOp57
 70
     1
  0
XRECORD
  5
359
102
{ACAD_REACTORS
330
358
102
}
330
358
100
AcDbXrecord
280
     1
102
RTVSPost2010Prop28
280
     0
102
RTVSPost2010PropOp28
 70
     0
102
RTVSPost2010Prop29
280
     1
102
RTVSPost2010PropOp29
 70
     0
102
RTVSPost2010Prop30
280
     1
102
RTVSPost2010PropOp30
 70
     0
102
RTVSPost2010Prop31
280
     0
102
RTVSPost2010PropOp31
 70
     0
102
RTVSPost2010Prop32
280
     0
102
RTVSPost2010PropOp32
 70
     0
102
RTVSPost2010Prop33
280
     0
102
RTVSPost2010PropOp33
 70
     0
102
RTVSPost2010Prop34
280
     0
102
RTVSPost2010PropOp34
 70
     0
102
RTVSPost2010Prop35
280
     0
102
RTVSPost2010PropOp35
 70
     0
102
RTVSPost2010Prop36
280
     0
102
RTVSPost2010PropOp36
 70
     0
102
RTVSPost2010Prop37
 90
       50
102
RTVSPost2010PropOp37
 70
     0
102
RTVSPost2010Prop38
140
0.0
102
RTVSPost2010PropOp38
 70
     0
102
RTVSPost2010Prop39
140
1.0
102
RTVSPost2010PropOp39
 70
     0
102
RTVSPost2010Prop40
 90
        0
102
RTVSPost2010PropOp40
 70
     0
102
RTVSPost2010Prop41ColorIndex
 90
       18
102
RTVSPost2010Prop41ColorRGB
 90
        0
102
RTVSPost2010PropOp41
 70
     0
102
RTVSPost2010Prop42
 90
       50
102
RTVSPost2010PropOp42
 70
     0
102
RTVSPost2010Prop43
 90
        3
102
RTVSPost2010PropOp43
 70
     0
102
RTVSPost2010Prop44ColorIndex
 90
        5
102
RTVSPost2010Prop44ColorRGB
 90
      255
102
RTVSPost2010PropOp44
 70
     0
102
RTVSPost2010Prop45
280
     0
102
RTVSPost2010PropOp45
 70
     0
102
RTVSPost2010Prop46
 90
       50
102
RTVSPost2010PropOp46
 70
     0
102
RTVSPost2010Prop47
 90
       50
102
RTVSPost2010PropOp47
 70
     0
102
RTVSPost2010Prop48
 90
       50
102
RTVSPost2010PropOp48
 70
     0
102
RTVSPost2010Prop49
280
     0
102
RTVSPost2010PropOp49
 70
     0
102
RTVSPost2010Prop50
 90
       50
102
RTVSPost2010PropOp50
 70
     0
102
RTVSPost2010Prop51ColorIndex
 90
      256
102
RTVSPost2010Prop51ColorRGB
 90
-16777216
102
RTVSPost2010PropOp51
 70
     0
102
RTVSPost2010Prop52
140
1.0
102
RTVSPost2010PropOp52
 70
     0
102
RTVSPost2010Prop53
 90
        2
102
RTVSPost2010PropOp53
 70
     0
102
RTVSPost2010Prop54
  1
strokes_ogs.tif
102
RTVSPost2010PropOp54
 70
     0
102
RTVSPost2010Prop55
280
     0
102
RTVSPost2010PropOp55
 70
     0
102
RTVSPost2010Prop56
140
1.0
102
RTVSPost2010PropOp56
 70
     0
102
RTVSPost2010Prop57
140
1.0
102
RTVSPost2010PropOp57
 70
     0
  0
XRECORD
  5
347
102
{ACAD_REACTORS
330
346
102
}
330
346
100
AcDbXrecord
280
     1
102
RTVSPost2010Prop28
280
     0
102
RTVSPost2010PropOp28
 70
     1
102
RTVSPost2010Prop29
280
     1
102
RTVSPost2010PropOp29
 70
     1
102
RTVSPost2010Prop30
280
     1
102
RTVSPost2010PropOp30
 70
     1
102
RTVSPost2010Prop31
280
     0
102
RTVSPost2010PropOp31
 70
     1
102
RTVSPost2010Prop32
280
     0
102
RTVSPost2010PropOp32
 70
     1
102
RTVSPost2010Prop33
280
     0
102
RTVSPost2010PropOp33
 70
     1
102
RTVSPost2010Prop34
280
     0
102
RTVSPost2010PropOp34
 70
     1
102
RTVSPost2010Prop35
280
     0
102
RTVSPost2010PropOp35
 70
     1
102
RTVSPost2010Prop36
280
     0
102
RTVSPost2010PropOp36
 70
     1
102
RTVSPost2010Prop37
 90
       50
102
RTVSPost2010PropOp37
 70
     1
102
RTVSPost2010Prop38
140
0.0
102
RTVSPost2010PropOp38
 70
     1
102
RTVSPost2010Prop39
140
1.0
102
RTVSPost2010PropOp39
 70
     1
102
RTVSPost2010Prop40
 90
        0
102
RTVSPost2010PropOp40
 70
     1
102
RTVSPost2010Prop41ColorIndex
 90
       18
102
RTVSPost2010Prop41ColorRGB
 90
        0
102
RTVSPost2010PropOp41
 70
     1
102
RTVSPost2010Prop42
 90
       50
102
RTVSPost2010PropOp42
 70
     1
102
RTVSPost2010Prop43
 90
        3
102
RTVSPost2010PropOp43
 70
     1
102
RTVSPost2010Prop44ColorIndex
 90
        5
102
RTVSPost2010Prop44ColorRGB
 90
      255
102
RTVSPost2010PropOp44
 70
     1
102
RTVSPost2010Prop45
280
     0
102
RTVSPost2010PropOp45
 70
     1
102
RTVSPost2010Prop46
 90
       50
102
RTVSPost2010PropOp46
 70
     1
102
RTVSPost2010Prop47
 90
       50
102
RTVSPost2010PropOp47
 70
     1
102
RTVSPost2010Prop48
 90
       50
102
RTVSPost2010PropOp48
 70
     1
102
RTVSPost2010Prop49
280
     0
102
RTVSPost2010PropOp49
 70
     1
102
RTVSPost2010Prop50
 90
       50
102
RTVSPost2010PropOp50
 70
     1
102
RTVSPost2010Prop51ColorIndex
 90
      256
102
RTVSPost2010Prop51ColorRGB
 90
-16777216
102
RTVSPost2010PropOp51
 70
     0
102
RTVSPost2010Prop52
140
1.0
102
RTVSPost2010PropOp52
 70
     0
102
RTVSPost2010Prop53
 90
        2
102
RTVSPost2010PropOp53
 70
     1
102
RTVSPost2010Prop54
  1
strokes_ogs.tif
102
RTVSPost2010PropOp54
 70
     1
102
RTVSPost2010Prop55
280
     0
102
RTVSPost2010PropOp55
 70
     1
102
RTVSPost2010Prop56
140
1.0
102
RTVSPost2010PropOp56
 70
     1
102
RTVSPost2010Prop57
140
1.0
102
RTVSPost2010PropOp57
 70
     1
  0
XRECORD
  5
365
102
{ACAD_REACTORS
330
364
102
}
330
364
100
AcDbXrecord
280
     1
102
RTVSPost2010Prop28
280
     0
102
RTVSPost2010PropOp28
 70
     1
102
RTVSPost2010Prop29
280
     1
102
RTVSPost2010PropOp29
 70
     1
102
RTVSPost2010Prop30
280
     1
102
RTVSPost2010PropOp30
 70
     1
102
RTVSPost2010Prop31
280
     0
102
RTVSPost2010PropOp31
 70
     1
102
RTVSPost2010Prop32
280
     0
102
RTVSPost2010PropOp32
 70
     1
102
RTVSPost2010Prop33
280
     0
102
RTVSPost2010PropOp33
 70
     1
102
RTVSPost2010Prop34
280
     0
102
RTVSPost2010PropOp34
 70
     1
102
RTVSPost2010Prop35
280
     0
102
RTVSPost2010PropOp35
 70
     1
102
RTVSPost2010Prop36
280
     0
102
RTVSPost2010PropOp36
 70
     1
102
RTVSPost2010Prop37
 90
       50
102
RTVSPost2010PropOp37
 70
     1
102
RTVSPost2010Prop38
140
0.0
102
RTVSPost2010PropOp38
 70
     1
102
RTVSPost2010Prop39
140
1.0
102
RTVSPost2010PropOp39
 70
     1
102
RTVSPost2010Prop40
 90
        0
102
RTVSPost2010PropOp40
 70
     1
102
RTVSPost2010Prop41ColorIndex
 90
       18
102
RTVSPost2010Prop41ColorRGB
 90
        0
102
RTVSPost2010PropOp41
 70
     1
102
RTVSPost2010Prop42
 90
       50
102
RTVSPost2010PropOp42
 70
     1
102
RTVSPost2010Prop43
 90
        3
102
RTVSPost2010PropOp43
 70
     1
102
RTVSPost2010Prop44ColorIndex
 90
        5
102
RTVSPost2010Prop44ColorRGB
 90
      255
102
RTVSPost2010PropOp44
 70
     1
102
RTVSPost2010Prop45
280
     0
102
RTVSPost2010PropOp45
 70
     1
102
RTVSPost2010Prop46
 90
       50
102
RTVSPost2010PropOp46
 70
     1
102
RTVSPost2010Prop47
 90
       50
102
RTVSPost2010PropOp47
 70
     1
102
RTVSPost2010Prop48
 90
       50
102
RTVSPost2010PropOp48
 70
     1
102
RTVSPost2010Prop49
280
     0
102
RTVSPost2010PropOp49
 70
     1
102
RTVSPost2010Prop50
 90
       50
102
RTVSPost2010PropOp50
 70
     1
102
RTVSPost2010Prop51ColorIndex
 90
      256
102
RTVSPost2010Prop51ColorRGB
 90
-16777216
102
RTVSPost2010PropOp51
 70
     0
102
RTVSPost2010Prop52
140
1.0
102
RTVSPost2010PropOp52
 70
     0
102
RTVSPost2010Prop53
 90
        2
102
RTVSPost2010PropOp53
 70
     1
102
RTVSPost2010Prop54
  1
strokes_ogs.tif
102
RTVSPost2010PropOp54
 70
     1
102
RTVSPost2010Prop55
280
     0
102
RTVSPost2010PropOp55
 70
     1
102
RTVSPost2010Prop56
140
1.0
102
RTVSPost2010PropOp56
 70
     1
102
RTVSPost2010Prop57
140
1.0
102
RTVSPost2010PropOp57
 70
     1
  0
XRECORD
  5
363
102
{ACAD_REACTORS
330
362
102
}
330
362
100
AcDbXrecord
280
     1
102
RTVSPost2010Prop28
280
     0
102
RTVSPost2010PropOp28
 70
     1
102
RTVSPost2010Prop29
280
     1
102
RTVSPost2010PropOp29
 70
     1
102
RTVSPost2010Prop30
280
     1
102
RTVSPost2010PropOp30
 70
     1
102
RTVSPost2010Prop31
280
     0
102
RTVSPost2010PropOp31
 70
     1
102
RTVSPost2010Prop32
280
     0
102
RTVSPost2010PropOp32
 70
     1
102
RTVSPost2010Prop33
280
     0
102
RTVSPost2010PropOp33
 70
     1
102
RTVSPost2010Prop34
280
     0
102
RTVSPost2010PropOp34
 70
     1
102
RTVSPost2010Prop35
280
     0
102
RTVSPost2010PropOp35
 70
     1
102
RTVSPost2010Prop36
280
     0
102
RTVSPost2010PropOp36
 70
     1
102
RTVSPost2010Prop37
 90
       50
102
RTVSPost2010PropOp37
 70
     1
102
RTVSPost2010Prop38
140
0.0
102
RTVSPost2010PropOp38
 70
     1
102
RTVSPost2010Prop39
140
1.0
102
RTVSPost2010PropOp39
 70
     1
102
RTVSPost2010Prop40
 90
        0
102
RTVSPost2010PropOp40
 70
     1
102
RTVSPost2010Prop41ColorIndex
 90
       18
102
RTVSPost2010Prop41ColorRGB
 90
        0
102
RTVSPost2010PropOp41
 70
     1
102
RTVSPost2010Prop42
 90
       50
102
RTVSPost2010PropOp42
 70
     1
102
RTVSPost2010Prop43
 90
        3
102
RTVSPost2010PropOp43
 70
     1
102
RTVSPost2010Prop44ColorIndex
 90
        5
102
RTVSPost2010Prop44ColorRGB
 90
      255
102
RTVSPost2010PropOp44
 70
     1
102
RTVSPost2010Prop45
280
     0
102
RTVSPost2010PropOp45
 70
     1
102
RTVSPost2010Prop46
 90
       50
102
RTVSPost2010PropOp46
 70
     1
102
RTVSPost2010Prop47
 90
       50
102
RTVSPost2010PropOp47
 70
     1
102
RTVSPost2010Prop48
 90
       50
102
RTVSPost2010PropOp48
 70
     1
102
RTVSPost2010Prop49
280
     0
102
RTVSPost2010PropOp49
 70
     1
102
RTVSPost2010Prop50
 90
       50
102
RTVSPost2010PropOp50
 70
     1
102
RTVSPost2010Prop51ColorIndex
 90
      256
102
RTVSPost2010Prop51ColorRGB
 90
-16777216
102
RTVSPost2010PropOp51
 70
     0
102
RTVSPost2010Prop52
140
1.0
102
RTVSPost2010PropOp52
 70
     0
102
RTVSPost2010Prop53
 90
        2
102
RTVSPost2010PropOp53
 70
     1
102
RTVSPost2010Prop54
  1
strokes_ogs.tif
102
RTVSPost2010PropOp54
 70
     1
102
RTVSPost2010Prop55
280
     0
102
RTVSPost2010PropOp55
 70
     1
102
RTVSPost2010Prop56
140
1.0
102
RTVSPost2010PropOp56
 70
     1
102
RTVSPost2010Prop57
140
1.0
102
RTVSPost2010PropOp57
 70
     1
  0
XRECORD
  5
35D
102
{ACAD_REACTORS
330
35C
102
}
330
35C
100
AcDbXrecord
280
     1
102
RTVSPost2010Prop28
280
     0
102
RTVSPost2010PropOp28
 70
     1
102
RTVSPost2010Prop29
280
     1
102
RTVSPost2010PropOp29
 70
     1
102
RTVSPost2010Prop30
280
     1
102
RTVSPost2010PropOp30
 70
     1
102
RTVSPost2010Prop31
280
     0
102
RTVSPost2010PropOp31
 70
     1
102
RTVSPost2010Prop32
280
     0
102
RTVSPost2010PropOp32
 70
     1
102
RTVSPost2010Prop33
280
     0
102
RTVSPost2010PropOp33
 70
     1
102
RTVSPost2010Prop34
280
     0
102
RTVSPost2010PropOp34
 70
     1
102
RTVSPost2010Prop35
280
     0
102
RTVSPost2010PropOp35
 70
     1
102
RTVSPost2010Prop36
280
     0
102
RTVSPost2010PropOp36
 70
     1
102
RTVSPost2010Prop37
 90
       50
102
RTVSPost2010PropOp37
 70
     1
102
RTVSPost2010Prop38
140
0.0
102
RTVSPost2010PropOp38
 70
     1
102
RTVSPost2010Prop39
140
1.0
102
RTVSPost2010PropOp39
 70
     1
102
RTVSPost2010Prop40
 90
        0
102
RTVSPost2010PropOp40
 70
     1
102
RTVSPost2010Prop41ColorIndex
 90
       18
102
RTVSPost2010Prop41ColorRGB
 90
        0
102
RTVSPost2010PropOp41
 70
     1
102
RTVSPost2010Prop42
 90
       50
102
RTVSPost2010PropOp42
 70
     1
102
RTVSPost2010Prop43
 90
        3
102
RTVSPost2010PropOp43
 70
     1
102
RTVSPost2010Prop44ColorIndex
 90
        5
102
RTVSPost2010Prop44ColorRGB
 90
      255
102
RTVSPost2010PropOp44
 70
     1
102
RTVSPost2010Prop45
280
     0
102
RTVSPost2010PropOp45
 70
     1
102
RTVSPost2010Prop46
 90
       50
102
RTVSPost2010PropOp46
 70
     1
102
RTVSPost2010Prop47
 90
       50
102
RTVSPost2010PropOp47
 70
     1
102
RTVSPost2010Prop48
 90
       50
102
RTVSPost2010PropOp48
 70
     1
102
RTVSPost2010Prop49
280
     0
102
RTVSPost2010PropOp49
 70
     1
102
RTVSPost2010Prop50
 90
       50
102
RTVSPost2010PropOp50
 70
     1
102
RTVSPost2010Prop51ColorIndex
 90
      256
102
RTVSPost2010Prop51ColorRGB
 90
-16777216
102
RTVSPost2010PropOp51
 70
     0
102
RTVSPost2010Prop52
140
1.0
102
RTVSPost2010PropOp52
 70
     0
102
RTVSPost2010Prop53
 90
        2
102
RTVSPost2010PropOp53
 70
     1
102
RTVSPost2010Prop54
  1
strokes_ogs.tif
102
RTVSPost2010PropOp54
 70
     1
102
RTVSPost2010Prop55
280
     0
102
RTVSPost2010PropOp55
 70
     1
102
RTVSPost2010Prop56
140
1.0
102
RTVSPost2010PropOp56
 70
     1
102
RTVSPost2010Prop57
140
1.0
102
RTVSPost2010PropOp57
 70
     1
  0
XRECORD
  5
35F
102
{ACAD_REACTORS
330
35E
102
}
330
35E
100
AcDbXrecord
280
     1
102
RTVSPost2010Prop28
280
     0
102
RTVSPost2010PropOp28
 70
     1
102
RTVSPost2010Prop29
280
     1
102
RTVSPost2010PropOp29
 70
     1
102
RTVSPost2010Prop30
280
     1
102
RTVSPost2010PropOp30
 70
     1
102
RTVSPost2010Prop31
280
     0
102
RTVSPost2010PropOp31
 70
     1
102
RTVSPost2010Prop32
280
     0
102
RTVSPost2010PropOp32
 70
     1
102
RTVSPost2010Prop33
280
     0
102
RTVSPost2010PropOp33
 70
     1
102
RTVSPost2010Prop34
280
     0
102
RTVSPost2010PropOp34
 70
     1
102
RTVSPost2010Prop35
280
     0
102
RTVSPost2010PropOp35
 70
     1
102
RTVSPost2010Prop36
280
     0
102
RTVSPost2010PropOp36
 70
     1
102
RTVSPost2010Prop37
 90
       50
102
RTVSPost2010PropOp37
 70
     1
102
RTVSPost2010Prop38
140
0.0
102
RTVSPost2010PropOp38
 70
     1
102
RTVSPost2010Prop39
140
1.0
102
RTVSPost2010PropOp39
 70
     1
102
RTVSPost2010Prop40
 90
        0
102
RTVSPost2010PropOp40
 70
     1
102
RTVSPost2010Prop41ColorIndex
 90
       18
102
RTVSPost2010Prop41ColorRGB
 90
        0
102
RTVSPost2010PropOp41
 70
     1
102
RTVSPost2010Prop42
 90
       50
102
RTVSPost2010PropOp42
 70
     1
102
RTVSPost2010Prop43
 90
        3
102
RTVSPost2010PropOp43
 70
     1
102
RTVSPost2010Prop44ColorIndex
 90
        5
102
RTVSPost2010Prop44ColorRGB
 90
      255
102
RTVSPost2010PropOp44
 70
     1
102
RTVSPost2010Prop45
280
     0
102
RTVSPost2010PropOp45
 70
     1
102
RTVSPost2010Prop46
 90
       50
102
RTVSPost2010PropOp46
 70
     1
102
RTVSPost2010Prop47
 90
       50
102
RTVSPost2010PropOp47
 70
     1
102
RTVSPost2010Prop48
 90
       50
102
RTVSPost2010PropOp48
 70
     1
102
RTVSPost2010Prop49
280
     0
102
RTVSPost2010PropOp49
 70
     1
102
RTVSPost2010Prop50
 90
       50
102
RTVSPost2010PropOp50
 70
     1
102
RTVSPost2010Prop51ColorIndex
 90
      256
102
RTVSPost2010Prop51ColorRGB
 90
-16777216
102
RTVSPost2010PropOp51
 70
     0
102
RTVSPost2010Prop52
140
1.0
102
RTVSPost2010PropOp52
 70
     0
102
RTVSPost2010Prop53
 90
        2
102
RTVSPost2010PropOp53
 70
     1
102
RTVSPost2010Prop54
  1
strokes_ogs.tif
102
RTVSPost2010PropOp54
 70
     1
102
RTVSPost2010Prop55
280
     0
102
RTVSPost2010PropOp55
 70
     1
102
RTVSPost2010Prop56
140
1.0
102
RTVSPost2010PropOp56
 70
     1
102
RTVSPost2010Prop57
140
1.0
102
RTVSPost2010PropOp57
 70
     1
  0
XRECORD
  5
34F
102
{ACAD_REACTORS
330
34E
102
}
330
34E
100
AcDbXrecord
280
     1
102
RTVSPost2010Prop28
280
     0
102
RTVSPost2010PropOp28
 70
     1
102
RTVSPost2010Prop29
280
     1
102
RTVSPost2010PropOp29
 70
     1
102
RTVSPost2010Prop30
280
     1
102
RTVSPost2010PropOp30
 70
     1
102
RTVSPost2010Prop31
280
     0
102
RTVSPost2010PropOp31
 70
     1
102
RTVSPost2010Prop32
280
     0
102
RTVSPost2010PropOp32
 70
     1
102
RTVSPost2010Prop33
280
     0
102
RTVSPost2010PropOp33
 70
     1
102
RTVSPost2010Prop34
280
     0
102
RTVSPost2010PropOp34
 70
     1
102
RTVSPost2010Prop35
280
     0
102
RTVSPost2010PropOp35
 70
     1
102
RTVSPost2010Prop36
280
     0
102
RTVSPost2010PropOp36
 70
     1
102
RTVSPost2010Prop37
 90
       50
102
RTVSPost2010PropOp37
 70
     1
102
RTVSPost2010Prop38
140
0.0
102
RTVSPost2010PropOp38
 70
     1
102
RTVSPost2010Prop39
140
1.0
102
RTVSPost2010PropOp39
 70
     1
102
RTVSPost2010Prop40
 90
        0
102
RTVSPost2010PropOp40
 70
     1
102
RTVSPost2010Prop41ColorIndex
 90
       18
102
RTVSPost2010Prop41ColorRGB
 90
        0
102
RTVSPost2010PropOp41
 70
     1
102
RTVSPost2010Prop42
 90
       50
102
RTVSPost2010PropOp42
 70
     1
102
RTVSPost2010Prop43
 90
        3
102
RTVSPost2010PropOp43
 70
     1
102
RTVSPost2010Prop44ColorIndex
 90
        5
102
RTVSPost2010Prop44ColorRGB
 90
      255
102
RTVSPost2010PropOp44
 70
     1
102
RTVSPost2010Prop45
280
     0
102
RTVSPost2010PropOp45
 70
     1
102
RTVSPost2010Prop46
 90
       50
102
RTVSPost2010PropOp46
 70
     1
102
RTVSPost2010Prop47
 90
       50
102
RTVSPost2010PropOp47
 70
     1
102
RTVSPost2010Prop48
 90
       50
102
RTVSPost2010PropOp48
 70
     1
102
RTVSPost2010Prop49
280
     0
102
RTVSPost2010PropOp49
 70
     1
102
RTVSPost2010Prop50
 90
       50
102
RTVSPost2010PropOp50
 70
     1
102
RTVSPost2010Prop51ColorIndex
 90
      256
102
RTVSPost2010Prop51ColorRGB
 90
-16777216
102
RTVSPost2010PropOp51
 70
     0
102
RTVSPost2010Prop52
140
1.0
102
RTVSPost2010PropOp52
 70
     0
102
RTVSPost2010Prop53
 90
        2
102
RTVSPost2010PropOp53
 70
     1
102
RTVSPost2010Prop54
  1
strokes_ogs.tif
102
RTVSPost2010PropOp54
 70
     1
102
RTVSPost2010Prop55
280
     0
102
RTVSPost2010PropOp55
 70
     1
102
RTVSPost2010Prop56
140
1.0
102
RTVSPost2010PropOp56
 70
     1
102
RTVSPost2010Prop57
140
1.0
102
RTVSPost2010PropOp57
 70
     1
  0
XRECORD
  5
341
102
{ACAD_REACTORS
330
340
102
}
330
340
100
AcDbXrecord
280
     1
102
RTVSPost2010Prop28
280
     0
102
RTVSPost2010PropOp28
 70
     1
102
RTVSPost2010Prop29
280
     1
102
RTVSPost2010PropOp29
 70
     1
102
RTVSPost2010Prop30
280
     1
102
RTVSPost2010PropOp30
 70
     1
102
RTVSPost2010Prop31
280
     0
102
RTVSPost2010PropOp31
 70
     1
102
RTVSPost2010Prop32
280
     0
102
RTVSPost2010PropOp32
 70
     1
102
RTVSPost2010Prop33
280
     0
102
RTVSPost2010PropOp33
 70
     1
102
RTVSPost2010Prop34
280
     0
102
RTVSPost2010PropOp34
 70
     1
102
RTVSPost2010Prop35
280
     0
102
RTVSPost2010PropOp35
 70
     1
102
RTVSPost2010Prop36
280
     0
102
RTVSPost2010PropOp36
 70
     1
102
RTVSPost2010Prop37
 90
       50
102
RTVSPost2010PropOp37
 70
     1
102
RTVSPost2010Prop38
140
0.0
102
RTVSPost2010PropOp38
 70
     1
102
RTVSPost2010Prop39
140
1.0
102
RTVSPost2010PropOp39
 70
     1
102
RTVSPost2010Prop40
 90
        0
102
RTVSPost2010PropOp40
 70
     1
102
RTVSPost2010Prop41ColorIndex
 90
       18
102
RTVSPost2010Prop41ColorRGB
 90
        0
102
RTVSPost2010PropOp41
 70
     1
102
RTVSPost2010Prop42
 90
       50
102
RTVSPost2010PropOp42
 70
     1
102
RTVSPost2010Prop43
 90
        3
102
RTVSPost2010PropOp43
 70
     1
102
RTVSPost2010Prop44ColorIndex
 90
        5
102
RTVSPost2010Prop44ColorRGB
 90
      255
102
RTVSPost2010PropOp44
 70
     1
102
RTVSPost2010Prop45
280
     0
102
RTVSPost2010PropOp45
 70
     1
102
RTVSPost2010Prop46
 90
       50
102
RTVSPost2010PropOp46
 70
     1
102
RTVSPost2010Prop47
 90
       50
102
RTVSPost2010PropOp47
 70
     1
102
RTVSPost2010Prop48
 90
       50
102
RTVSPost2010PropOp48
 70
     1
102
RTVSPost2010Prop49
280
     0
102
RTVSPost2010PropOp49
 70
     1
102
RTVSPost2010Prop50
 90
       50
102
RTVSPost2010PropOp50
 70
     1
102
RTVSPost2010Prop51ColorIndex
 90
      256
102
RTVSPost2010Prop51ColorRGB
 90
-16777216
102
RTVSPost2010PropOp51
 70
     0
102
RTVSPost2010Prop52
140
1.0
102
RTVSPost2010PropOp52
 70
     0
102
RTVSPost2010Prop53
 90
        2
102
RTVSPost2010PropOp53
 70
     1
102
RTVSPost2010Prop54
  1
strokes_ogs.tif
102
RTVSPost2010PropOp54
 70
     1
102
RTVSPost2010Prop55
280
     0
102
RTVSPost2010PropOp55
 70
     1
102
RTVSPost2010Prop56
140
1.0
102
RTVSPost2010PropOp56
 70
     1
102
RTVSPost2010Prop57
140
1.0
102
RTVSPost2010PropOp57
 70
     1
  0
XRECORD
  5
361
102
{ACAD_REACTORS
330
360
102
}
330
360
100
AcDbXrecord
280
     1
102
RTVSPost2010Prop28
280
     0
102
RTVSPost2010PropOp28
 70
     1
102
RTVSPost2010Prop29
280
     1
102
RTVSPost2010PropOp29
 70
     1
102
RTVSPost2010Prop30
280
     1
102
RTVSPost2010PropOp30
 70
     1
102
RTVSPost2010Prop31
280
     0
102
RTVSPost2010PropOp31
 70
     1
102
RTVSPost2010Prop32
280
     0
102
RTVSPost2010PropOp32
 70
     1
102
RTVSPost2010Prop33
280
     0
102
RTVSPost2010PropOp33
 70
     1
102
RTVSPost2010Prop34
280
     0
102
RTVSPost2010PropOp34
 70
     1
102
RTVSPost2010Prop35
280
     0
102
RTVSPost2010PropOp35
 70
     1
102
RTVSPost2010Prop36
280
     0
102
RTVSPost2010PropOp36
 70
     1
102
RTVSPost2010Prop37
 90
       50
102
RTVSPost2010PropOp37
 70
     1
102
RTVSPost2010Prop38
140
0.0
102
RTVSPost2010PropOp38
 70
     1
102
RTVSPost2010Prop39
140
1.0
102
RTVSPost2010PropOp39
 70
     1
102
RTVSPost2010Prop40
 90
        0
102
RTVSPost2010PropOp40
 70
     1
102
RTVSPost2010Prop41ColorIndex
 90
       18
102
RTVSPost2010Prop41ColorRGB
 90
        0
102
RTVSPost2010PropOp41
 70
     1
102
RTVSPost2010Prop42
 90
       50
102
RTVSPost2010PropOp42
 70
     1
102
RTVSPost2010Prop43
 90
        3
102
RTVSPost2010PropOp43
 70
     1
102
RTVSPost2010Prop44ColorIndex
 90
        5
102
RTVSPost2010Prop44ColorRGB
 90
      255
102
RTVSPost2010PropOp44
 70
     1
102
RTVSPost2010Prop45
280
     0
102
RTVSPost2010PropOp45
 70
     1
102
RTVSPost2010Prop46
 90
       50
102
RTVSPost2010PropOp46
 70
     1
102
RTVSPost2010Prop47
 90
       50
102
RTVSPost2010PropOp47
 70
     1
102
RTVSPost2010Prop48
 90
       50
102
RTVSPost2010PropOp48
 70
     1
102
RTVSPost2010Prop49
280
     0
102
RTVSPost2010PropOp49
 70
     1
102
RTVSPost2010Prop50
 90
       50
102
RTVSPost2010PropOp50
 70
     1
102
RTVSPost2010Prop51ColorIndex
 90
      256
102
RTVSPost2010Prop51ColorRGB
 90
-16777216
102
RTVSPost2010PropOp51
 70
     0
102
RTVSPost2010Prop52
140
1.0
102
RTVSPost2010PropOp52
 70
     0
102
RTVSPost2010Prop53
 90
        2
102
RTVSPost2010PropOp53
 70
     1
102
RTVSPost2010Prop54
  1
strokes_ogs.tif
102
RTVSPost2010PropOp54
 70
     1
102
RTVSPost2010Prop55
280
     0
102
RTVSPost2010PropOp55
 70
     1
102
RTVSPost2010Prop56
140
1.0
102
RTVSPost2010PropOp56
 70
     1
102
RTVSPost2010Prop57
140
1.0
102
RTVSPost2010PropOp57
 70
     1
  0
ENDSEC
  0
EOF
