  0
SECTION
  2
HEADER
  9
$ACADVER
  1
AC1024
  9
$ACADMAINTVER
 70
     6
  9
$DWGCODEPAGE
  3
ANSI_1252
  9
$INSBASE
 10
0.0
 20
0.0
 30
0.0
  9
$EXTMIN
 10
58373.700888
 20
37865.89455
 30
0.0
  9
$EXTMAX
 10
58449.927906
 20
37919.957847
 30
0.0
  9
$LIMMIN
 10
0.0
 20
0.0
  9
$LIMMAX
 10
420.0
 20
297.0
  9
$ORTHOMODE
 70
     1
  9
$REGENMODE
 70
     1
  9
$FILLMODE
 70
     1
  9
$QTEXTMODE
 70
     0
  9
$MIRRTEXT
 70
     1
  9
$LTSCALE
 40
1.0
  9
$ATTMODE
 70
     1
  9
$TEXTSIZE
 40
5.6
  9
$TRACEWID
 40
1.0
  9
$TEXTSTYLE
  7
STYLE1
  9
$CLAYER
  8
0
  9
$CELTYPE
  6
ByLayer
  9
$CECOLOR
 62
     1
  9
$CELTSCALE
 40
1.0
  9
$DISPSILH
 70
     0
  9
$DIMSCALE
 40
1.0
  9
$DIMASZ
 40
2.5
  9
$DIMEXO
 40
0.625
  9
$DIMDLI
 40
3.75
  9
$DIMRND
 40
0.0
  9
$DIMDLE
 40
0.0
  9
$DIMEXE
 40
1.25
  9
$DIMTP
 40
0.0
  9
$DIMTM
 40
0.0
  9
$DIMTXT
 40
2.5
  9
$DIMCEN
 40
2.5
  9
$DIMTSZ
 40
0.0
  9
$DIMTOL
 70
     0
  9
$DIMLIM
 70
     0
  9
$DIMTIH
 70
     0
  9
$DIMTOH
 70
     0
  9
$DIMSE1
 70
     0
  9
$DIMSE2
 70
     0
  9
$DIMTAD
 70
     1
  9
$DIMZIN
 70
     8
  9
$DIMBLK
  1

  9
$DIMASO
 70
     1
  9
$DIMSHO
 70
     1
  9
$DIMPOST
  1

  9
$DIMAPOST
  1

  9
$DIMALT
 70
     0
  9
$DIMALTD
 70
     3
  9
$DIMALTF
 40
0.03937
  9
$DIMLFAC
 40
1.0
  9
$DIMTOFL
 70
     1
  9
$DIMTVP
 40
0.0
  9
$DIMTIX
 70
     0
  9
$DIMSOXD
 70
     0
  9
$DIMSAH
 70
     0
  9
$DIMBLK1
  1

  9
$DIMBLK2
  1

  9
$DIMSTYLE
  2
ISO-25
  9
$DIMCLRD
 70
     0
  9
$DIMCLRE
 70
     0
  9
$DIMCLRT
 70
     0
  9
$DIMTFAC
 40
1.0
  9
$DIMGAP
 40
0.625
  9
$DIMJUST
 70
     0
  9
$DIMSD1
 70
     0
  9
$DIMSD2
 70
     0
  9
$DIMTOLJ
 70
     1
  9
$DIMTZIN
 70
     0
  9
$DIMALTZ
 70
     0
  9
$DIMALTTZ
 70
     0
  9
$DIMUPT
 70
     0
  9
$DIMDEC
 70
     4
  9
$DIMTDEC
 70
     4
  9
$DIMALTU
 70
     2
  9
$DIMALTTD
 70
     2
  9
$DIMTXSTY
  7
Standard
  9
$DIMAUNIT
 70
     0
  9
$DIMADEC
 70
     0
  9
$DIMALTRND
 40
0.0
  9
$DIMAZIN
 70
     0
  9
$DIMDSEP
 70
    46
  9
$DIMATFIT
 70
     3
  9
$DIMFRAC
 70
     0
  9
$DIMLDRBLK
  1

  9
$DIMLUNIT
 70
     2
  9
$DIMLWD
 70
    -2
  9
$DIMLWE
 70
    -2
  9
$DIMTMOVE
 70
     2
  9
$DIMFXL
 40
1.0
  9
$DIMFXLON
 70
     0
  9
$DIMJOGANG
 40
0.7853981633974483
  9
$DIMTFILL
 70
     0
  9
$DIMTFILLCLR
 70
     0
  9
$DIMARCSYM
 70
     0
  9
$DIMLTYPE
  6

  9
$DIMLTEX1
  6

  9
$DIMLTEX2
  6

  9
$DIMTXTDIRECTION
 70
     0
  9
$LUNITS
 70
     2
  9
$LUPREC
 70
     4
  9
$SKETCHINC
 40
1.0
  9
$FILLETRAD
 40
10.0
  9
$AUNITS
 70
     0
  9
$AUPREC
 70
     0
  9
$MENU
  1
.
  9
$ELEVATION
 40
0.0
  9
$PELEVATION
 40
0.0
  9
$THICKNESS
 40
0.0
  9
$LIMCHECK
 70
     0
  9
$CHAMFERA
 40
10.0
  9
$CHAMFERB
 40
10.0
  9
$CHAMFERC
 40
0.0
  9
$CHAMFERD
 40
0.0
  9
$SKPOLY
 70
     0
  9
$TDCREATE
 40
2451696.692133993
  9
$TDUCREATE
 40
2451696.692133993
  9
$TDUPDATE
 40
2457737.411500856
  9
$TDUUPDATE
 40
2457737.411500856
  9
$TDINDWG
 40
0.02869
  9
$TDUSRTIMER
 40
0.02869
  9
$USRTIMER
 70
     1
  9
$ANGBASE
 50
0.0
  9
$ANGDIR
 70
     0
  9
$PDMODE
 70
     0
  9
$PDSIZE
 40
0.0
  9
$PLINEWID
 40
0.0
  9
$SPLFRAME
 70
     0
  9
$SPLINETYPE
 70
     6
  9
$SPLINESEGS
 70
     8
  9
$HANDSEED
  5
819
  9
$SURFTAB1
 70
     6
  9
$SURFTAB2
 70
     6
  9
$SURFTYPE
 70
     6
  9
$SURFU
 70
     6
  9
$SURFV
 70
     6
  9
$UCSBASE
  2

  9
$UCSNAME
  2

  9
$UCSORG
 10
0.0
 20
0.0
 30
0.0
  9
$UCSXDIR
 10
1.0
 20
0.0
 30
0.0
  9
$UCSYDIR
 10
0.0
 20
1.0
 30
0.0
  9
$UCSORTHOREF
  2

  9
$UCSORTHOVIEW
 70
     0
  9
$UCSORGTOP
 10
0.0
 20
0.0
 30
0.0
  9
$UCSORGBOTTOM
 10
0.0
 20
0.0
 30
0.0
  9
$UCSORGLEFT
 10
0.0
 20
0.0
 30
0.0
  9
$UCSORGRIGHT
 10
0.0
 20
0.0
 30
0.0
  9
$UCSORGFRONT
 10
0.0
 20
0.0
 30
0.0
  9
$UCSORGBACK
 10
0.0
 20
0.0
 30
0.0
  9
$PUCSBASE
  2

  9
$PUCSNAME
  2

  9
$PUCSORG
 10
0.0
 20
0.0
 30
0.0
  9
$PUCSXDIR
 10
1.0
 20
0.0
 30
0.0
  9
$PUCSYDIR
 10
0.0
 20
1.0
 30
0.0
  9
$PUCSORTHOREF
  2

  9
$PUCSORTHOVIEW
 70
     0
  9
$PUCSORGTOP
 10
0.0
 20
0.0
 30
0.0
  9
$PUCSORGBOTTOM
 10
0.0
 20
0.0
 30
0.0
  9
$PUCSORGLEFT
 10
0.0
 20
0.0
 30
0.0
  9
$PUCSORGRIGHT
 10
0.0
 20
0.0
 30
0.0
  9
$PUCSORGFRONT
 10
0.0
 20
0.0
 30
0.0
  9
$PUCSORGBACK
 10
0.0
 20
0.0
 30
0.0
  9
$USERI1
 70
     0
  9
$USERI2
 70
     0
  9
$USERI3
 70
     0
  9
$USERI4
 70
     0
  9
$USERI5
 70
     0
  9
$USERR1
 40
0.0
  9
$USERR2
 40
0.0
  9
$USERR3
 40
0.0
  9
$USERR4
 40
0.0
  9
$USERR5
 40
0.0
  9
$WORLDVIEW
 70
     1
  9
$SHADEDGE
 70
     3
  9
$SHADEDIF
 70
    70
  9
$TILEMODE
 70
     1
  9
$MAXACTVP
 70
    48
  9
$PINSBASE
 10
0.0
 20
0.0
 30
0.0
  9
$PLIMCHECK
 70
     0
  9
$PEXTMIN
 10
1.000000000000000E+20
 20
1.000000000000000E+20
 30
1.000000000000000E+20
  9
$PEXTMAX
 10
-1.000000000000000E+20
 20
-1.000000000000000E+20
 30
-1.000000000000000E+20
  9
$PLIMMIN
 10
0.0
 20
0.0
  9
$PLIMMAX
 10
420.0
 20
297.0
  9
$UNITMODE
 70
     0
  9
$VISRETAIN
 70
     1
  9
$PLINEGEN
 70
     0
  9
$PSLTSCALE
 70
     1
  9
$TREEDEPTH
 70
  3020
  9
$CMLSTYLE
  2
Standard
  9
$CMLJUST
 70
     0
  9
$CMLSCALE
 40
1.0
  9
$PROXYGRAPHICS
 70
     1
  9
$MEASUREMENT
 70
     0
  9
$CELWEIGHT
370
    -1
  9
$ENDCAPS
280
     0
  9
$JOINSTYLE
280
     0
  9
$LWDISPLAY
290
     0
  9
$INSUNITS
 70
     0
  9
$HYPERLINKBASE
  1

  9
$STYLESHEET
  1

  9
$XEDIT
290
     1
  9
$CEPSNTYPE
380
     0
  9
$PSTYLEMODE
290
     1
  9
$FINGERPRINTGUID
  2
{E2B718BA-7D6B-470B-95C6-1313F81CEA97}
  9
$VERSIONGUID
  2
{FAEB1C32-E019-11D5-929B-00C0DF256EC4}
  9
$EXTNAMES
290
     1
  9
$PSVPSCALE
 40
0.0
  9
$OLESTARTUP
290
     0
  9
$SORTENTS
280
   127
  9
$INDEXCTL
280
     0
  9
$HIDETEXT
280
     1
  9
$XCLIPFRAME
280
     2
  9
$HALOGAP
280
     0
  9
$OBSCOLOR
 70
   257
  9
$OBSLTYPE
280
     0
  9
$INTERSECTIONDISPLAY
280
     0
  9
$INTERSECTIONCOLOR
 70
   257
  9
$DIMASSOC
280
     2
  9
$PROJECTNAME
  1

  9
$CAMERADISPLAY
290
     0
  9
$LENSLENGTH
 40
50.0
  9
$CAMERAHEIGHT
 40
0.0
  9
$STEPSPERSEC
 40
2.0
  9
$STEPSIZE
 40
6.0
  9
$3DDWFPREC
 40
2.0
  9
$PSOLWIDTH
 40
0.25
  9
$PSOLHEIGHT
 40
4.0
  9
$LOFTANG1
 40
1.570796326794897
  9
$LOFTANG2
 40
1.570796326794897
  9
$LOFTMAG1
 40
0.0
  9
$LOFTMAG2
 40
0.0
  9
$LOFTPARAM
 70
     7
  9
$LOFTNORMALS
280
     1
  9
$LATITUDE
 40
37.795
  9
$LONGITUDE
 40
-122.394
  9
$NORTHDIRECTION
 40
0.0
  9
$TIMEZONE
 70
 -8000
  9
$LIGHTGLYPHDISPLAY
280
     1
  9
$TILEMODELIGHTSYNCH
280
     1
  9
$SOLIDHIST
280
     1
  9
$SHOWHIST
280
     1
  9
$DWFFRAME
280
     2
  9
$DGNFRAME
280
     2
  9
$REALWORLDSCALE
290
     1
  9
$INTERFERECOLOR
 62
   256
  9
$CSHADOW
280
     0
  9
$SHADOWPLANELOCATION
 40
0.0
  0
ENDSEC
  0
SECTION
  2
CLASSES
  0
CLASS
  1
ACDBDICTIONARYWDFLT
  2
AcDbDictionaryWithDefault
  3
ObjectDBX Classes
 90
        0
 91
        4
280
     0
281
     0
  0
CLASS
  1
MATERIAL
  2
AcDbMaterial
  3
ObjectDBX Classes
 90
     1153
 91
        4
280
     0
281
     0
  0
CLASS
  1
SCALE
  2
AcDbScale
  3
ObjectDBX Classes
 90
     1153
 91
        4
280
     0
281
     0
  0
CLASS
  1
VISUALSTYLE
  2
AcDbVisualStyle
  3
ObjectDBX Classes
 90
     4095
 91
        4
280
     0
281
     0
  0
CLASS
  1
DICTIONARYVAR
  2
AcDbDictionaryVar
  3
ObjectDBX Classes
 90
        0
 91
        4
280
     0
281
     0
  0
ENDSEC
  0
SECTION
  2
TABLES
  0
TABLE
  2
VPORT
  5
763
330
0
100
AcDbSymbolTable
 70
     1
  0
VPORT
  5
77A
330
763
100
AcDbSymbolTableRecord
100
AcDbViewportTableRecord
  2
*ACTIVE
 70
     0
 10
0.0
 20
0.0
 11
1.0
 21
1.0
 12
58427.050262
 22
37896.305372
 13
0.0
 23
0.0
 14
10.0
 24
10.0
 15
10.0
 25
10.0
 16
0.0
 26
0.0
 36
1.0
 17
0.0
 27
0.0
 37
0.0
 40
79.920724
 41
1.533724
 42
50.0
 43
0.0
 44
0.0
 50
0.0
 51
0.0
 71
     0
 72
   100
 73
     1
 74
     3
 75
     0
 76
     0
 77
     0
 78
     0
281
     0
 65
     0
110
0.0
120
0.0
130
0.0
111
1.0
121
0.0
131
0.0
112
0.0
122
1.0
132
0.0
 79
     0
146
0.0
348
7CE
 60
     3
 61
     5
292
     1
282
     1
141
0.0
142
0.0
 63
   256
  0
ENDTAB
  0
TABLE
  2
LTYPE
  5
760
330
0
100
AcDbSymbolTable
 70
     5
  0
LTYPE
  5
76E
330
760
100
AcDbSymbolTableRecord
100
AcDbLinetypeTableRecord
  2
ByBlock
 70
     0
  3

 72
    65
 73
     0
 40
0.0
  0
LTYPE
  5
76F
330
760
100
AcDbSymbolTableRecord
100
AcDbLinetypeTableRecord
  2
ByLayer
 70
     0
  3

 72
    65
 73
     0
 40
0.0
  0
LTYPE
  5
770
330
760
100
AcDbSymbolTableRecord
100
AcDbLinetypeTableRecord
  2
CONTINUOUS
 70
     0
  3
Solid line
 72
    65
 73
     0
 40
0.0
  0
LTYPE
  5
77C
330
760
100
AcDbSymbolTableRecord
100
AcDbLinetypeTableRecord
  2
ACAD_ISO12W100
 70
     0
  3
ISO dash double-dot __ . . __ . . __ . . __ . .
 72
    65
 73
     6
 40
21.0
 49
12.0
 74
     0
 49
-3.0
 74
     0
 49
0.0
 74
     0
 49
-3.0
 74
     0
 49
0.0
 74
     0
 49
-3.0
 74
     0
  0
LTYPE
  5
77D
330
760
100
AcDbSymbolTableRecord
100
AcDbLinetypeTableRecord
  2
DASHDOT
 70
     0
  3
Dash dot __ . __ . __ . __ . __ . __ . __ . __
 72
    65
 73
     4
 40
25.4
 49
12.7
 74
     0
 49
-6.35
 74
     0
 49
0.0
 74
     0
 49
-6.35
 74
     0
  0
LTYPE
  5
77E
330
760
100
AcDbSymbolTableRecord
100
AcDbLinetypeTableRecord
  2
DIVIDE
 70
     0
  3
Divide ____ . . ____ . . ____ . . ____ . . ____
 72
    65
 73
     6
 40
1.25
 49
0.5
 74
     0
 49
-0.25
 74
     0
 49
0.0
 74
     0
 49
-0.25
 74
     0
 49
0.0
 74
     0
 49
-0.25
 74
     0
  0
LTYPE
  5
77F
330
760
100
AcDbSymbolTableRecord
100
AcDbLinetypeTableRecord
  2
ACAD_ISO03W100
 70
     0
  3
ISO dash space __    __    __    __    __    __
 72
    65
 73
     2
 40
30.0
 49
12.0
 74
     0
 49
-18.0
 74
     0
  0
ENDTAB
  0
TABLE
  2
LAYER
  5
75D
330
0
100
AcDbSymbolTable
 70
    12
  0
LAYER
  5
76B
330
75D
100
AcDbSymbolTableRecord
100
AcDbLayerTableRecord
  2
0
 70
     0
 62
     7
  6
CONTINUOUS
370
    -3
390
76A
347
784
  0
LAYER
  5
785
330
75D
100
AcDbSymbolTableRecord
100
AcDbLayerTableRecord
  2
0X-ARCHAEOLOGY
 70
     0
 62
     7
  6
CONTINUOUS
370
    -3
390
76A
347
784
  0
LAYER
  5
786
330
75D
100
AcDbSymbolTableRecord
100
AcDbLayerTableRecord
  2
0X-SECTIONS
 70
     0
 62
     4
  6
CONTINUOUS
370
    -3
390
76A
347
784
  0
LAYER
  5
787
330
75D
100
AcDbSymbolTableRecord
100
AcDbLayerTableRecord
  2
0X-HACHURES
 70
     0
 62
     5
  6
CONTINUOUS
370
    -3
390
76A
347
784
  0
LAYER
  5
788
330
75D
100
AcDbSymbolTableRecord
100
AcDbLayerTableRecord
  2
0X-EXTRAPOLATED
 70
     0
 62
     3
  6
CONTINUOUS
370
    -3
390
76A
347
784
  0
LAYER
  5
789
330
75D
100
AcDbSymbolTableRecord
100
AcDbLayerTableRecord
  2
0X-EVALUATION
 70
     0
 62
     1
  6
DASHDOT
370
    -3
390
76A
347
784
  0
LAYER
  5
78A
330
75D
100
AcDbSymbolTableRecord
100
AcDbLayerTableRecord
  2
0X-WATCHINGBRIEF
 70
     0
 62
     7
  6
CONTINUOUS
370
    -3
390
76A
347
784
  0
LAYER
  5
78B
330
75D
100
AcDbSymbolTableRecord
100
AcDbLayerTableRecord
  2
ARCH-TEXT
 70
     0
 62
     7
  6
CONTINUOUS
370
    -3
390
76A
347
784
  0
LAYER
  5
78C
330
75D
100
AcDbSymbolTableRecord
100
AcDbLayerTableRecord
  2
1-FENCES
 70
     0
 62
     7
  6
CONTINUOUS
370
    -3
390
76A
347
784
  0
LAYER
  5
78D
330
75D
100
AcDbSymbolTableRecord
100
AcDbLayerTableRecord
  2
ARCHAEOLOGICAL-SYMBOLS
 70
     0
 62
     7
  6
CONTINUOUS
370
    -3
390
76A
347
784
  0
LAYER
  5
78E
330
75D
100
AcDbSymbolTableRecord
100
AcDbLayerTableRecord
  2
ARCH-LEGEND
 70
     0
 62
     7
  6
CONTINUOUS
370
    -3
390
76A
347
784
  0
LAYER
  5
7A6
330
75D
100
AcDbSymbolTableRecord
100
AcDbLayerTableRecord
  2
1
 70
     0
 62
     7
  6
CONTINUOUS
370
    -3
390
76A
347
784
  0
ENDTAB
  0
TABLE
  2
STYLE
  5
75E
330
0
100
AcDbSymbolTable
 70
     2
  0
STYLE
  5
76C
330
75E
100
AcDbSymbolTableRecord
100
AcDbTextStyleTableRecord
  2
Standard
 70
     0
 40
0.0
 41
1.0
 50
0.0
 71
     0
 42
2.5
  3
txt
  4

  0
STYLE
  5
790
330
75E
100
AcDbSymbolTableRecord
100
AcDbTextStyleTableRecord
  2
STYLE1
 70
     0
 40
5.6
 41
1.0
 50
0.0
 71
     0
 42
5.6
  3
txt
  4

  0
ENDTAB
  0
TABLE
  2
VIEW
  5
761
330
0
100
AcDbSymbolTable
 70
     0
  0
ENDTAB
  0
TABLE
  2
UCS
  5
762
330
0
100
AcDbSymbolTable
 70
     0
  0
ENDTAB
  0
TABLE
  2
APPID
  5
764
330
0
100
AcDbSymbolTable
 70
     3
  0
APPID
  5
76D
330
764
100
AcDbSymbolTableRecord
100
AcDbRegAppTableRecord
  2
ACAD
 70
     0
  0
APPID
  5
792
330
764
100
AcDbSymbolTableRecord
100
AcDbRegAppTableRecord
  2
IRD
 70
     0
  0
APPID
  5
793
330
764
100
AcDbSymbolTableRecord
100
AcDbRegAppTableRecord
  2
ADE
 70
     0
  0
ENDTAB
  0
TABLE
  2
DIMSTYLE
  5
765
330
0
100
AcDbSymbolTable
 70
     2
100
AcDbDimStyleTable
  0
DIMSTYLE
105
794
330
765
100
AcDbSymbolTableRecord
100
AcDbDimStyleTableRecord
  2
ISO-25
 70
     0
 41
2.5
 42
0.625
 43
3.75
 44
1.25
 73
     0
 74
     0
 77
     1
 78
     8
140
2.5
141
2.5
143
0.03937
147
0.625
171
     3
172
     1
178
     0
340
790
  0
DIMSTYLE
105
795
330
765
100
AcDbSymbolTableRecord
100
AcDbDimStyleTableRecord
  2
STANDARD
 70
     0
178
     0
340
790
  0
ENDTAB
  0
TABLE
  2
BLOCK_RECORD
  5
75C
330
0
100
AcDbSymbolTable
 70
     7
  0
BLOCK_RECORD
  5
777
330
75C
100
AcDbSymbolTableRecord
100
AcDbBlockTableRecord
  2
*Model_Space
340
778
 70
     0
280
     1
281
     0
  0
BLOCK_RECORD
  5
775
330
75C
100
AcDbSymbolTableRecord
100
AcDbBlockTableRecord
  2
*Paper_Space
340
776
 70
     0
280
     1
281
     0
  0
BLOCK_RECORD
  5
799
330
75C
100
AcDbSymbolTableRecord
100
AcDbBlockTableRecord
  2
*N0
340
0
 70
     0
280
     1
281
     0
  0
BLOCK_RECORD
  5
79B
330
75C
100
AcDbSymbolTableRecord
100
AcDbBlockTableRecord
  2
NORTH
340
0
102
{BLKREFS
331
221
102
}
 70
     0
280
     1
281
     0
  0
BLOCK_RECORD
  5
79D
330
75C
100
AcDbSymbolTableRecord
100
AcDbBlockTableRecord
  2
*U2
340
0
 70
     0
280
     1
281
     0
  0
BLOCK_RECORD
  5
79F
330
75C
100
AcDbSymbolTableRecord
100
AcDbBlockTableRecord
  2
*U3
340
0
 70
     0
280
     1
281
     0
  0
BLOCK_RECORD
  5
7A1
330
75C
100
AcDbSymbolTableRecord
100
AcDbBlockTableRecord
  2
*U4
340
0
 70
     0
280
     1
281
     0
  0
BLOCK_RECORD
  5
7A3
330
75C
100
AcDbSymbolTableRecord
100
AcDbBlockTableRecord
  2
*U5
340
0
 70
     0
280
     1
281
     0
  0
BLOCK_RECORD
  5
7A5
330
75C
100
AcDbSymbolTableRecord
100
AcDbBlockTableRecord
  2
*U6
340
0
 70
     0
280
     1
281
     0
  0
ENDTAB
  0
ENDSEC
  0
SECTION
  2
BLOCKS
  0
BLOCK
  5
796
330
777
100
AcDbEntity
  8
0
100
AcDbBlockBegin
  2
*Model_Space
 70
     0
 10
0.0
 20
0.0
 30
0.0
  3
*Model_Space
  1
*Model_Space
  0
ENDBLK
  5
21
330
777
100
AcDbEntity
  8
0
100
AcDbBlockEnd
  0
BLOCK
  5
797
330
775
100
AcDbEntity
 67
     1
  8
0
100
AcDbBlockBegin
  2
*Paper_Space
 70
     0
 10
0.0
 20
0.0
 30
0.0
  3
*Paper_Space
  1
*Paper_Space
  0
ENDBLK
  5
1D
330
775
100
AcDbEntity
 67
     1
  8
0
100
AcDbBlockEnd
  0
BLOCK
  5
798
330
799
100
AcDbEntity
  8
0
100
AcDbBlockBegin
  2
*N0
 70
     1
 10
0.0
 20
0.0
 30
0.0
  3
*N0
  1
*N0
  0
ENDBLK
  5
25
330
799
100
AcDbEntity
  8
0
100
AcDbBlockEnd
  0
BLOCK
  5
79A
330
79B
100
AcDbEntity
  8
0
100
AcDbBlockBegin
  2
NORTH
 70
     0
 10
0.0
 20
0.0
 30
0.0
  3
NORTH
  1
NORTH
  0
LINE
  5
1E4
330
79B
100
AcDbEntity
  8
ARCHAEOLOGICAL-SYMBOLS
100
AcDbLine
 10
0.0
 20
22.758595
 30
0.0
 11
-2.219469
 21
17.477021
 31
0.0
  0
LINE
  5
1E5
330
79B
100
AcDbEntity
  8
ARCHAEOLOGICAL-SYMBOLS
100
AcDbLine
 10
-2.219469
 20
17.477021
 30
0.0
 11
-0.069868
 21
18.398214
 31
0.0
  0
LINE
  5
1E6
330
79B
100
AcDbEntity
  8
ARCHAEOLOGICAL-SYMBOLS
100
AcDbLine
 10
-0.069868
 20
18.398214
 30
0.0
 11
1.895801
 21
17.477021
 31
0.0
  0
LINE
  5
1E7
330
79B
100
AcDbEntity
  8
ARCHAEOLOGICAL-SYMBOLS
100
AcDbLine
 10
1.895801
 20
17.477021
 30
0.0
 11
0.0
 21
22.758595
 31
0.0
  0
LWPOLYLINE
  5
1E8
330
79B
100
AcDbEntity
  8
ARCHAEOLOGICAL-SYMBOLS
100
AcDbPolyline
 90
        2
 70
     0
 43
0.25
 10
0.0
 20
0.0
 10
0.0
 20
22.205879
  0
HATCH
  5
1E9
330
79B
100
AcDbEntity
  8
ARCHAEOLOGICAL-SYMBOLS
  6
Continuous
100
AcDbHatch
 10
0.0
 20
0.0
 30
0.0
210
0.0
220
0.0
230
1.0
  2
SOLID
 70
     1
 71
     0
 91
        2
 92
        7
 72
     0
 73
     1
 93
        4
 10
-2.219469
 20
17.477021
 10
-0.069868
 20
18.398214
 10
0.0
 20
18.365471
 10
0.0
 20
22.758595
 97
        0
 92
        7
 72
     0
 73
     1
 93
        3
 10
0.0
 20
22.758595
 10
0.0
 20
18.365471
 10
1.895801
 20
17.477021
 97
        0
 75
     0
 76
     1
 47
0.061412
 98
        2
 10
-1.421014
 20
18.950931
 10
1.220116
 20
18.889582
  0
TEXT
  5
1EA
330
79B
100
AcDbEntity
  8
ARCHAEOLOGICAL-SYMBOLS
100
AcDbText
 10
-2.833768
 20
23.618247
 30
0.0
 40
5.6
  1
N
  7
STYLE1
100
AcDbText
  0
LWPOLYLINE
  5
1EB
330
79B
100
AcDbEntity
  8
ARCHAEOLOGICAL-SYMBOLS
100
AcDbPolyline
 90
        3
 70
     0
 43
0.25
 10
-1.421014
 20
5.133219
 10
0.0
 20
5.133219
 10
1.527266
 20
5.133219
  0
ENDBLK
  5
1ED
330
79B
100
AcDbEntity
  8
0
100
AcDbBlockEnd
  0
BLOCK
  5
79C
330
79D
100
AcDbEntity
  8
0
 62
     1
100
AcDbBlockBegin
  2
*U2
 70
     1
 10
0.0
 20
0.0
 30
0.0
  3
*U2
  1
*U2
  0
SOLID
  5
6C8
330
79D
100
AcDbEntity
  8
0
  6
Continuous
100
AcDbTrace
 10
0.0
 20
22.758595
 30
0.0
 11
-2.219469
 21
17.477021
 31
0.0
 12
-0.069868
 22
18.398214
 32
0.0
 13
-0.069868
 23
18.398214
 33
0.0
  0
SOLID
  5
6C9
330
79D
100
AcDbEntity
  8
0
  6
Continuous
100
AcDbTrace
 10
0.0
 20
22.758595
 30
0.0
 11
-0.069868
 21
18.398214
 31
0.0
 12
0.0
 22
18.365471
 32
0.0
 13
0.0
 23
18.365471
 33
0.0
  0
SOLID
  5
6CA
330
79D
100
AcDbEntity
  8
0
  6
Continuous
100
AcDbTrace
 10
0.0
 20
22.758595
 30
0.0
 11
0.0
 21
18.365471
 31
0.0
 12
1.895801
 22
17.477021
 32
0.0
 13
1.895801
 23
17.477021
 33
0.0
  0
ENDBLK
  5
6CC
330
79D
100
AcDbEntity
  8
0
 62
     1
100
AcDbBlockEnd
  0
BLOCK
  5
79E
330
79F
100
AcDbEntity
  8
0
 62
     1
100
AcDbBlockBegin
  2
*U3
 70
     1
 10
0.0
 20
0.0
 30
0.0
  3
*U3
  1
*U3
  0
SOLID
  5
6DC
330
79F
100
AcDbEntity
  8
0
  6
Continuous
 62
    82
100
AcDbTrace
 10
58377.404214
 20
37879.718195
 30
0.0
 11
58378.721533
 21
37878.995405
 31
0.0
 12
58378.721533
 22
37880.440985
 32
0.0
 13
58378.721533
 23
37880.440985
 33
0.0
  0
SOLID
  5
6DD
330
79F
100
AcDbEntity
  8
0
  6
Continuous
 62
    82
100
AcDbTrace
 10
58377.404214
 20
37879.718195
 30
0.0
 11
58378.721533
 21
37880.440985
 31
0.0
 12
58376.086894
 22
37880.440985
 32
0.0
 13
58376.086894
 23
37880.440985
 33
0.0
  0
SOLID
  5
6DE
330
79F
100
AcDbEntity
  8
0
  6
Continuous
 62
    82
100
AcDbTrace
 10
58377.404214
 20
37879.718195
 30
0.0
 11
58376.086894
 21
37880.440985
 31
0.0
 12
58376.086894
 22
37878.995405
 32
0.0
 13
58376.086894
 23
37878.995405
 33
0.0
  0
SOLID
  5
6DF
330
79F
100
AcDbEntity
  8
0
  6
Continuous
 62
    82
100
AcDbTrace
 10
58377.404214
 20
37879.718195
 30
0.0
 11
58376.086894
 21
37878.995405
 31
0.0
 12
58378.721533
 22
37878.995405
 32
0.0
 13
58378.721533
 23
37878.995405
 33
0.0
  0
ENDBLK
  5
6E1
330
79F
100
AcDbEntity
  8
0
 62
     1
100
AcDbBlockEnd
  0
BLOCK
  5
7A0
330
7A1
100
AcDbEntity
  8
0
 62
     1
100
AcDbBlockBegin
  2
*U4
 70
     1
 10
0.0
 20
0.0
 30
0.0
  3
*U4
  1
*U4
  0
SOLID
  5
6E3
330
7A1
100
AcDbEntity
  8
0
  6
Continuous
 62
   150
100
AcDbTrace
 10
58378.20811
 20
37877.389159
 30
0.0
 11
58377.972659
 21
37877.957588
 31
0.0
 12
58377.972659
 22
37876.820731
 32
0.0
 13
58377.972659
 23
37876.820731
 33
0.0
  0
SOLID
  5
6E4
330
7A1
100
AcDbEntity
  8
0
  6
Continuous
 62
   150
100
AcDbTrace
 10
58377.404231
 20
37878.193039
 30
0.0
 11
58377.972659
 21
37876.820731
 31
0.0
 12
58377.972659
 22
37877.957588
 32
0.0
 13
58377.972659
 23
37877.957588
 33
0.0
  0
SOLID
  5
6E5
330
7A1
100
AcDbEntity
  8
0
  6
Continuous
 62
   150
100
AcDbTrace
 10
58377.972659
 20
37876.820731
 30
0.0
 11
58377.404231
 21
37878.193039
 31
0.0
 12
58377.404231
 22
37876.58528
 32
0.0
 13
58377.404231
 23
37876.58528
 33
0.0
  0
SOLID
  5
6E6
330
7A1
100
AcDbEntity
  8
0
  6
Continuous
 62
   150
100
AcDbTrace
 10
58376.835802
 20
37877.957588
 30
0.0
 11
58377.404231
 21
37876.58528
 31
0.0
 12
58377.404231
 22
37878.193039
 32
0.0
 13
58377.404231
 23
37878.193039
 33
0.0
  0
SOLID
  5
6E7
330
7A1
100
AcDbEntity
  8
0
  6
Continuous
 62
   150
100
AcDbTrace
 10
58377.404231
 20
37876.58528
 30
0.0
 11
58376.835802
 21
37877.957588
 31
0.0
 12
58376.835802
 22
37876.820731
 32
0.0
 13
58376.835802
 23
37876.820731
 33
0.0
  0
SOLID
  5
6E8
330
7A1
100
AcDbEntity
  8
0
  6
Continuous
 62
   150
100
AcDbTrace
 10
58376.600351
 20
37877.389159
 30
0.0
 11
58376.835802
 21
37876.820731
 31
0.0
 12
58376.835802
 22
37877.957588
 32
0.0
 13
58376.835802
 23
37877.957588
 33
0.0
  0
ENDBLK
  5
6EA
330
7A1
100
AcDbEntity
  8
0
 62
     1
100
AcDbBlockEnd
  0
BLOCK
  5
7A2
330
7A3
100
AcDbEntity
  8
0
 62
     1
100
AcDbBlockBegin
  2
*U5
 70
     1
 10
0.0
 20
0.0
 30
0.0
  3
*U5
  1
*U5
  0
SOLID
  5
6F0
330
7A3
100
AcDbEntity
  8
0
  6
Continuous
100
AcDbTrace
 10
58377.404231
 20
37875.05478
 30
0.0
 11
58377.404231
 21
37875.975672
 31
0.0
 12
58376.600993
 22
37874.594334
 32
0.0
 13
58376.600993
 23
37874.594334
 33
0.0
  0
SOLID
  5
6F1
330
7A3
100
AcDbEntity
  8
0
  6
Continuous
100
AcDbTrace
 10
58377.404231
 20
37875.05478
 30
0.0
 11
58376.600993
 21
37874.594334
 31
0.0
 12
58378.207468
 22
37874.594334
 32
0.0
 13
58378.207468
 23
37874.594334
 33
0.0
  0
SOLID
  5
6F2
330
7A3
100
AcDbEntity
  8
0
  6
Continuous
100
AcDbTrace
 10
58377.404231
 20
37875.05478
 30
0.0
 11
58378.207468
 21
37874.594334
 31
0.0
 12
58377.404231
 22
37875.975672
 32
0.0
 13
58377.404231
 23
37875.975672
 33
0.0
  0
ENDBLK
  5
6F4
330
7A3
100
AcDbEntity
  8
0
 62
     1
100
AcDbBlockEnd
  0
BLOCK
  5
7A4
330
7A5
100
AcDbEntity
  8
0
 62
     1
100
AcDbBlockBegin
  2
*U6
 70
     1
 10
0.0
 20
0.0
 30
0.0
  3
*U6
  1
*U6
  0
SOLID
  5
726
330
7A5
100
AcDbEntity
  8
0
  6
Continuous
100
AcDbTrace
 10
58383.550567
 20
37881.735152
 30
0.0
 11
58386.032156
 21
37882.252495
 31
0.0
 12
58383.539852
 22
37882.252495
 32
0.0
 13
58383.539852
 23
37882.252495
 33
0.0
  0
SOLID
  5
727
330
7A5
100
AcDbEntity
  8
0
  6
Continuous
100
AcDbTrace
 10
58386.032156
 20
37882.252495
 30
0.0
 11
58383.550567
 21
37881.735152
 31
0.0
 12
58386.050567
 22
37881.735152
 32
0.0
 13
58386.050567
 23
37881.735152
 33
0.0
  0
SOLID
  5
728
330
7A5
100
AcDbEntity
  8
0
  6
Continuous
100
AcDbTrace
 10
58381.050567
 20
37881.735152
 30
0.0
 11
58381.047547
 21
37882.252495
 31
0.0
 12
58376.050567
 22
37882.252495
 32
0.0
 13
58376.050567
 23
37882.252495
 33
0.0
  0
SOLID
  5
729
330
7A5
100
AcDbEntity
  8
0
  6
Continuous
100
AcDbTrace
 10
58376.050567
 20
37882.252495
 30
0.0
 11
58376.050567
 21
37881.735152
 31
0.0
 12
58381.050567
 22
37881.735152
 32
0.0
 13
58381.050567
 23
37881.735152
 33
0.0
  0
ENDBLK
  5
72B
330
7A5
100
AcDbEntity
  8
0
 62
     1
100
AcDbBlockEnd
  0
ENDSEC
  0
SECTION
  2
ENTITIES
  0
POINT
  5
50
330
777
100
AcDbEntity
  8
0X-ARCHAEOLOGY
100
AcDbPoint
 10
58430.333597
 20
37871.200796
 30
0.0
1001
IRD
1002
{
1000
TPMCNTR_CH61900-_-ade
1070
   515
1071
        3
1004
0100D10100000000001096BD13402A12B8D6D4EB214004000000
1002
}
  0
POINT
  5
53
330
777
100
AcDbEntity
  8
0X-ARCHAEOLOGY
100
AcDbPoint
 10
58430.137044
 20
37912.37453
 30
0.0
1001
IRD
1002
{
1000
TPMCNTR_CH61900-_-ade
1070
   515
1071
        3
1004
0100D201000000000010DB761A40E2418BC856C8244004000000
1002
}
  0
POINT
  5
56
330
777
100
AcDbEntity
  8
0X-ARCHAEOLOGY
100
AcDbPoint
 10
58429.563613
 20
37877.778385
 30
0.0
1001
IRD
1002
{
1000
TPMCNTR_CH61900-_-ade
1070
   515
1071
        3
1004
0100D401000000000000FDB0D63F802D8D9CDE4C034004000000
1002
}
  0
POINT
  5
59
330
777
100
AcDbEntity
  8
0X-ARCHAEOLOGY
100
AcDbPoint
 10
58429.572684
 20
37877.083699
 30
0.0
1001
IRD
1002
{
1000
TPMCNTR_CH61900-_-ade
1070
   515
1071
        3
1004
0100D501000000000000E7D0D43F50503894A06E024004000000
1002
}
  0
POINT
  5
5C
330
777
100
AcDbEntity
  8
0X-ARCHAEOLOGY
100
AcDbPoint
 10
58429.456798
 20
37883.617539
 30
0.0
1001
IRD
1002
{
1000
TPMCNTR_CH61900-_-ade
1070
   515
1071
        3
1004
0100DA010000000000006197E73F302186CE726D0F4004000000
1002
}
  0
POINT
  5
5F
330
777
100
AcDbEntity
  8
0X-ARCHAEOLOGY
100
AcDbPoint
 10
58443.694292
 20
37892.012876
 30
0.0
1001
IRD
1002
{
1000
TPMCNTR_CH61900-_-ade
1070
   515
1071
        3
1004
0100DD0100000000007013DC1240328ED12C21A8214004000000
1002
}
  0
POINT
  5
62
330
777
100
AcDbEntity
  8
0X-ARCHAEOLOGY
100
AcDbPoint
 10
58415.457268
 20
37901.247766
 30
0.0
1001
IRD
1002
{
1000
TPMCNTR_CH61900-_-ade
1070
   515
1071
        3
1004
0100DF010000000000E89F5F24406C05E3491F23304004000000
1002
}
  0
POINT
  5
65
330
777
100
AcDbEntity
  8
0X-ARCHAEOLOGY
100
AcDbPoint
 10
58426.854246
 20
37906.982454
 30
0.0
1001
IRD
1002
{
1000
TPMCNTR_CH61900-_-ade
1070
   515
1071
        3
1004
0100E2010000000000006EE9FC3FF625C87FE4551B4004000000
1002
}
  0
POINT
  5
68
330
777
100
AcDbEntity
  8
0X-ARCHAEOLOGY
100
AcDbPoint
 10
58418.481097
 20
37872.902625
 30
0.0
1001
IRD
1002
{
1000
TPMCNTR_CH61900-_-ade
1070
   515
1071
        3
1004
0100E301000000000040C6A5F63F1ACCAFFD00AA144004000000
1002
}
  0
POINT
  5
6B
330
777
100
AcDbEntity
  8
0X-ARCHAEOLOGY
100
AcDbPoint
 10
58419.901603
 20
37874.989006
 30
0.0
1001
IRD
1002
{
1000
TPMCNTR_CH61900-_-ade
1070
   515
1071
        3
1004
0100E401000000000080EC9BF83F9C4B96EB3B8C154001000000
1002
}
  0
POINT
  5
6E
330
777
100
AcDbEntity
  8
0X-ARCHAEOLOGY
100
AcDbPoint
 10
58429.062031
 20
37905.962296
 30
0.0
1001
IRD
1002
{
1000
TPMCNTR_CH61900-_-ade
1070
   515
1071
        3
1004
0100E5010000000000C03C4EFD3F186E7DD62CED164003000000
1002
}
  0
POINT
  5
71
330
777
100
AcDbEntity
  8
0X-ARCHAEOLOGY
100
AcDbPoint
 10
58436.235596
 20
37901.993508
 30
0.0
1001
IRD
1002
{
1000
TPMCNTR_CH61900-_-ade
1070
   515
1071
        3
1004
0100E7010000000000801331F93FE6DDBF388AE9184003000000
1002
}
  0
POINT
  5
74
330
777
100
AcDbEntity
  8
0X-ARCHAEOLOGY
100
AcDbPoint
 10
58437.100912
 20
37901.031362
 30
0.0
1001
IRD
1002
{
1000
TPMCNTR_CH61900-_-ade
1070
   515
1071
        3
1004
0100E8010000000000509AC1104026A4EEC1D754224002000000
1002
}
  0
POINT
  5
77
330
777
100
AcDbEntity
  8
0X-ARCHAEOLOGY
100
AcDbPoint
 10
58442.520625
 20
37901.002424
 30
0.0
1001
IRD
1002
{
1000
TPMCNTR_CH61900-_-ade
1070
   515
1071
        3
1004
0100E9010000000000606BED1140EE0AAE7F6B7C254003000000
1002
}
  0
POINT
  5
7A
330
777
100
AcDbEntity
  8
0X-ARCHAEOLOGY
100
AcDbPoint
 10
58423.956981
 20
37906.135175
 30
0.0
1001
IRD
1002
{
1000
TPMCNTR_CH61900-_-ade
1070
   515
1071
        3
1004
0100EB010000000000D062E21C40DB07775F02042B4004000000
1002
}
  0
POINT
  5
7D
330
777
100
AcDbEntity
  8
0X-ARCHAEOLOGY
100
AcDbPoint
 10
58409.932368
 20
37882.142361
 30
0.0
1001
IRD
1002
{
1000
TPMCNTR_CH61900-_-ade
1070
   515
1071
        1
1004
01006F020000000000409657F03FC58E20478655104004000000
1002
}
  0
POINT
  5
80
330
777
100
AcDbEntity
  8
0X-ARCHAEOLOGY
100
AcDbPoint
 10
58411.815825
 20
37881.563557
 30
0.0
1001
IRD
1002
{
1000
TPMCNTR_CH61900-_-ade
1070
   515
1071
        1
1004
01007202000000000000382CCC3FB493E8D0C6FCFA3F01000000
1002
}
  0
POINT
  5
83
330
777
100
AcDbEntity
  8
0X-ARCHAEOLOGY
100
AcDbPoint
 10
58410.312859
 20
37881.147312
 30
0.0
1001
IRD
1002
{
1000
TPMCNTR_CH61900-_-ade
1070
   515
1071
        3
1004
01007B02000000000000D069F63FB3C423117D72124002000000
1002
}
  0
POINT
  5
86
330
777
100
AcDbEntity
  8
0X-ARCHAEOLOGY
100
AcDbPoint
 10
58409.679098
 20
37883.00983
 30
0.0
1001
IRD
1002
{
1000
TPMCNTR_CH61900-_-ade
1070
   515
1071
        1
1004
01008902000000000080269FEE3F8D197E8B532F0F4004000000
1002
}
  0
POINT
  5
89
330
777
100
AcDbEntity
  8
0X-ARCHAEOLOGY
100
AcDbPoint
 10
58408.879924
 20
37886.802743
 30
0.0
1001
IRD
1002
{
1000
TPMCNTR_CH61900-_-ade
1070
   515
1071
        1
1004
01008B020000000000303EB9154056C1F351F2792B4004000000
1002
}
  0
POINT
  5
8C
330
777
100
AcDbEntity
  8
0X-ARCHAEOLOGY
100
AcDbPoint
 10
58419.20041
 20
37879.17066
 30
0.0
1001
IRD
1002
{
1000
TPMCNTR_CH61900-_-ade
1070
   515
1071
        1
1004
01008E02000000000040535CFA3F1F6365832667124001000000
1002
}
  0
POINT
  5
8F
330
777
100
AcDbEntity
  8
0X-ARCHAEOLOGY
100
AcDbPoint
 10
58415.880305
 20
37874.859727
 30
0.0
1001
IRD
1002
{
1000
TPMCNTR_CH61900-_-ade
1070
   515
1071
        1
1004
01009802000000000060A9B9074086EA03392433204004000000
1002
}
  0
POINT
  5
92
330
777
100
AcDbEntity
  8
0X-ARCHAEOLOGY
100
AcDbPoint
 10
58419.955712
 20
37872.442847
 30
0.0
1001
IRD
1002
{
1000
TPMCNTR_CH61900-_-ade
1070
   515
1071
        1
1004
01009E0200000000000014C9E63FE46D83CB558A0D4004000000
1002
}
  0
POINT
  5
95
330
777
100
AcDbEntity
  8
0X-ARCHAEOLOGY
100
AcDbPoint
 10
58420.901057
 20
37872.159695
 30
0.0
1001
IRD
1002
{
1000
TPMCNTR_CH61900-_-ade
1070
   515
1071
        1
1004
0100A40200000000000042E5C63FD029E36BBD1DFC3F02000000
1002
}
  0
POINT
  5
98
330
777
100
AcDbEntity
  8
0X-ARCHAEOLOGY
100
AcDbPoint
 10
58414.820669
 20
37875.724061
 30
0.0
1001
IRD
1002
{
1000
TPMCNTR_CH61900-_-ade
1070
   515
1071
        1
1004
0100AA020000000000C028DDF33F91A4CA972354114002000000
1002
}
  0
POINT
  5
9B
330
777
100
AcDbEntity
  8
0X-ARCHAEOLOGY
100
AcDbPoint
 10
58408.310363
 20
37889.615977
 30
0.0
1001
IRD
1002
{
1000
TPMCNTR_CH61900-_-ade
1070
   515
1071
        1
1004
0100B002000000000000842FE83F2CB29DAF6A7B0F4002000000
1002
}
  0
POINT
  5
9E
330
777
100
AcDbEntity
  8
0X-ARCHAEOLOGY
  6
ACAD_ISO12W100
100
AcDbPoint
 10
58402.843528
 20
37893.209975
 30
0.0
1001
IRD
1002
{
1000
TPMCNTR_CH61900-_-ade
1070
   515
1071
        1
1004
0100B3020000000000002E72DB3F6F73B37A31B4064001000000
1002
}
  0
TEXT
  5
A2
330
777
100
AcDbEntity
  8
0
 62
     1
100
AcDbText
 10
58429.916931
 20
37871.200796
 30
0.0
 40
0.5
  1
57
 72
     1
 11
58430.333597
 21
37871.200796
 31
0.0
100
AcDbText
  0
TEXT
  5
A8
330
777
100
AcDbEntity
  8
0
 62
     1
100
AcDbText
 10
58415.040601
 20
37901.247766
 30
0.0
 40
0.5
  1
47
 72
     1
 11
58415.457268
 21
37901.247766
 31
0.0
100
AcDbText
  0
TEXT
  5
AA
330
777
100
AcDbEntity
  8
0
 62
     1
100
AcDbText
 10
58418.064431
 20
37872.902625
 30
0.0
 40
0.5
  1
27
 72
     1
 11
58418.481097
 21
37872.902625
 31
0.0
100
AcDbText
  0
TEXT
  5
AB
330
777
100
AcDbEntity
  8
0
 62
     1
100
AcDbText
 10
58419.44327
 20
37874.989006
 30
0.0
 40
0.5
  1
110
 72
     1
 11
58419.901603
 21
37874.989006
 31
0.0
100
AcDbText
  0
TEXT
  5
AC
330
777
100
AcDbEntity
  8
0
 62
     1
100
AcDbText
 10
58428.645365
 20
37905.962296
 30
0.0
 40
0.5
  1
79
 72
     1
 11
58429.062031
 21
37905.962296
 31
0.0
100
AcDbText
  0
TEXT
  5
AE
330
777
100
AcDbEntity
  8
0
 62
     1
100
AcDbText
 10
58436.642579
 20
37901.031362
 30
0.0
 40
0.5
  1
101
 72
     1
 11
58437.100912
 21
37901.031362
 31
0.0
100
AcDbText
  0
TEXT
  5
AF
330
777
100
AcDbEntity
  8
0
 62
     1
100
AcDbText
 10
58442.020625
 20
37901.002424
 30
0.0
 40
0.5
  1
114
 72
     1
 11
58442.520625
 21
37901.002424
 31
0.0
100
AcDbText
  0
TEXT
  5
B0
330
777
100
AcDbEntity
  8
0
 62
     1
100
AcDbText
 10
58423.633656
 20
37906.296001
 30
0.0
 40
0.5
  1
81
 72
     1
 11
58423.966989
 21
37906.296001
 31
0.0
100
AcDbText
  0
TEXT
  5
B5
330
777
100
AcDbEntity
  8
0
 62
     1
100
AcDbText
 10
58408.713257
 20
37886.802743
 30
0.0
 40
0.5
  1
5
 72
     1
 11
58408.879924
 21
37886.802743
 31
0.0
100
AcDbText
  0
TEXT
  5
B6
330
777
100
AcDbEntity
  8
0
 62
     1
100
AcDbText
 10
58419.033743
 20
37879.17066
 30
0.0
 40
0.5
  1
9
 72
     1
 11
58419.20041
 21
37879.17066
 31
0.0
100
AcDbText
  0
TEXT
  5
B7
330
777
100
AcDbEntity
  8
0
 62
     1
100
AcDbText
 10
58415.463638
 20
37874.859727
 30
0.0
 40
0.5
  1
27
 72
     1
 11
58415.880305
 21
37874.859727
 31
0.0
100
AcDbText
  0
TEXT
  5
B8
330
777
100
AcDbEntity
  8
0
 62
     1
100
AcDbText
 10
58419.539045
 20
37872.442847
 30
0.0
 40
0.5
  1
27
 72
     1
 11
58419.955712
 21
37872.442847
 31
0.0
100
AcDbText
  0
TEXT
  5
BA
330
777
100
AcDbEntity
  8
0
 62
     1
100
AcDbText
 10
58414.487336
 20
37875.724061
 30
0.0
 40
0.5
  1
17
 72
     1
 11
58414.820669
 21
37875.724061
 31
0.0
100
AcDbText
  0
LWPOLYLINE
  5
C4
330
777
100
AcDbEntity
  8
0X-ARCHAEOLOGY
100
AcDbPolyline
 90
        5
 70
     0
 43
0.0
 10
58420.239197
 20
37905.268175
 10
58422.369715
 20
37906.272801
 10
58423.254045
 20
37906.754996
 10
58424.017846
 20
37907.096578
 10
58424.119915
 20
37907.170548
1001
IRD
1002
{
1000
TPMLINK_CH61900-_-ade
1070
   515
1071
        1
1004
0100F2010000910100008D01000000000000574BBD5E514D1140574BBD5E514D114000000000EB010000
1002
}
  0
POINT
  5
C5
330
777
100
AcDbEntity
  8
0X-ARCHAEOLOGY
100
AcDbPoint
 10
58420.239197
 20
37905.268175
 30
0.0
1001
IRD
1002
{
1000
TPMNODE_CH61900-_-ade
1070
   515
1071
        1
1004
0100910100000000000000000000
1002
}
  0
POINT
  5
C6
330
777
100
AcDbEntity
  8
0X-ARCHAEOLOGY
100
AcDbPoint
 10
58429.396466
 20
37869.761723
 30
0.0
1001
IRD
1002
{
1000
TPMNODE_CH61900-_-ade
1070
   515
1071
        1
1004
0100CA0100000000000000000000
1002
}
  0
LWPOLYLINE
  5
C7
330
777
100
AcDbEntity
  8
0X-EXTRAPOLATED
100
AcDbPolyline
 90
        9
 70
     0
 43
0.0
 10
58429.396466
 20
37869.761723
 10
58428.798754
 20
37869.750868
 10
58427.319581
 20
37869.851138
 10
58426.04097
 20
37869.82599
 10
58423.834933
 20
37869.82599
 10
58422.079955
 20
37869.876178
 10
58420.751271
 20
37870.1268
 10
58418.971257
 20
37870.653084
 10
58418.236109
 20
37871.059233
1001
IRD
1002
{
1000
TPMLINK_CH61900-_-ade
1070
   515
1071
        1
1004
0100F3010000CA010000C8010000000000006D45673401BD26406D45673401BD264000000000E1010000
1002
}
  0
POINT
  5
C8
330
777
100
AcDbEntity
  8
0X-ARCHAEOLOGY
100
AcDbPoint
 10
58429.415118
 20
37872.323717
 30
0.0
1001
IRD
1002
{
1000
TPMNODE_CH61900-_-ade
1070
   515
1071
        1
1004
0100C60100000000000000000000
1002
}
  0
LWPOLYLINE
  5
C9
330
777
100
AcDbEntity
  8
0X-ARCHAEOLOGY
100
AcDbPolyline
 90
        4
 70
     0
 43
0.0
 10
58429.415118
 20
37872.323717
 10
58429.929339
 20
37872.455911
 10
58430.60613
 20
37872.53114
 10
58431.254802
 20
37872.621898
1001
IRD
1002
{
1000
TPMLINK_CH61900-_-ade
1070
   515
1071
        1
1004
0100F4010000C6010000C501000000000000AC543261C9DEFD3FAC543261C9DEFD3F00000000D1010000
1002
}
  0
POINT
  5
CA
330
777
100
AcDbEntity
  8
0X-ARCHAEOLOGY
100
AcDbPoint
 10
58431.254802
 20
37872.621898
 30
0.0
1001
IRD
1002
{
1000
TPMNODE_CH61900-_-ade
1070
   515
1071
        1
1004
0100C50100000000000000000000
1002
}
  0
LWPOLYLINE
  5
CB
330
777
100
AcDbEntity
  8
0X-EXTRAPOLATED
100
AcDbPolyline
 90
       17
 70
     0
 43
0.0
 10
58431.254802
 20
37872.621898
 10
58431.859706
 20
37872.706532
 10
58433.514267
 20
37872.982194
 10
58435.143792
 20
37873.232816
 10
58436.973879
 20
37873.734059
 10
58437.66312
 20
37874.109991
 10
58438.816278
 20
37875.28787
 10
58440.019645
 20
37876.966991
 10
58440.721609
 20
37878.67126
 10
58441.423573
 20
37880.575855
 10
58442.27589
 20
37882.806408
 10
58442.677012
 20
37884.184827
 10
58442.877573
 20
37885.883638
 10
58442.927782
 20
37888.114191
 10
58442.727221
 20
37889.993853
 10
58442.551696
 20
37890.695529
 10
58442.496418
 20
37891.026972
1001
IRD
1002
{
1000
TPMLINK_CH61900-_-ade
1070
   515
1071
        1
1004
0100F5010000C5010000A5010000000000002D739A3DE4EB38402D739A3DE4EB384000000000D3010000
1002
}
  0
POINT
  5
CC
330
777
100
AcDbEntity
  8
0X-ARCHAEOLOGY
100
AcDbPoint
 10
58431.264943
 20
37869.977373
 30
0.0
1001
IRD
1002
{
1000
TPMNODE_CH61900-_-ade
1070
   515
1071
        1
1004
0100C90100000000000000000000
1002
}
  0
LWPOLYLINE
  5
CD
330
777
100
AcDbEntity
  8
0X-ARCHAEOLOGY
100
AcDbPolyline
 90
        3
 70
     0
 43
0.0
 10
58431.264943
 20
37869.977373
 10
58430.177509
 20
37869.775908
 10
58429.396466
 20
37869.761723
1001
IRD
1002
{
1000
TPMLINK_CH61900-_-ade
1070
   515
1071
        1
1004
0100F6010000C9010000CA01000000000000CC28BDD69A31FE3FCC28BDD69A31FE3F00000000D1010000
1002
}
  0
LWPOLYLINE
  5
CE
330
777
100
AcDbEntity
  8
0X-ARCHAEOLOGY
100
AcDbPolyline
 90
        2
 70
     0
 43
0.0
 10
58429.415118
 20
37872.323717
 10
58429.396466
 20
37869.761723
1001
IRD
1002
{
1000
TPMLINK_CH61900-_-ade
1070
   515
1071
        1
1004
0100F7010000C6010000CA01000000000000B1BD4D451A7F0440B1BD4D451A7F0440D1010000E1010000
1002
}
  0
LWPOLYLINE
  5
CF
330
777
100
AcDbEntity
  8
0X-ARCHAEOLOGY
100
AcDbPolyline
 90
        2
 70
     0
 43
0.0
 10
58431.254802
 20
37872.621898
 10
58431.264943
 20
37869.977373
1001
IRD
1002
{
1000
TPMLINK_CH61900-_-ade
1070
   515
1071
        1
1004
0100F8010000C5010000C9010000000000003CCC9AF9062805403CCC9AF906280540D3010000D1010000
1002
}
  0
POINT
  5
D0
330
777
100
AcDbEntity
  8
0X-ARCHAEOLOGY
100
AcDbPoint
 10
58444.109523
 20
37889.075492
 30
0.0
1001
IRD
1002
{
1000
TPMCNTR_CH61900-_-ade
1070
   515
1071
        1
1004
0100D3010000000000BD2BBF50409EA88650BB8B4D4005000000
1002
}
  0
LWPOLYLINE
  5
D1
330
777
100
AcDbEntity
  8
0X-HACHURES
100
AcDbPolyline
 90
        2
 70
     0
 43
0.0
 10
58429.410928
 20
37871.748153
 10
58431.256986
 20
37872.052311
  0
LWPOLYLINE
  5
D2
330
777
100
AcDbEntity
  8
0X-HACHURES
100
AcDbPolyline
 90
        4
 70
     0
 43
0.0
 10
58429.400249
 20
37870.28129
 10
58430.891321
 20
37870.377984
 10
58431.195859
 20
37870.447175
 10
58431.263036
 20
37870.474896
  0
LWPOLYLINE
  5
D3
330
777
100
AcDbEntity
  8
0X-ARCHAEOLOGY
100
AcDbPolyline
 90
        3
 70
     0
 43
0.0
 10
58429.311074
 20
37878.13716
 10
58428.288802
 20
37878.100444
 10
58428.264317
 20
37877.408952
1001
IRD
1002
{
1000
TPMLINK_CH61900-_-ade
1070
   515
1071
        1
1004
0100F9010000B8010000BE01000000000000409AD4E10C70FB3F409AD4E10C70FB3FD801000000000000
1002
}
  0
POINT
  5
D4
330
777
100
AcDbEntity
  8
0X-ARCHAEOLOGY
100
AcDbPoint
 10
58429.311074
 20
37878.13716
 30
0.0
1001
IRD
1002
{
1000
TPMNODE_CH61900-_-ade
1070
   515
1071
        1
1004
0100B80100000000000000000000
1002
}
  0
POINT
  5
D5
330
777
100
AcDbEntity
  8
0X-ARCHAEOLOGY
100
AcDbPoint
 10
58429.317198
 20
37877.420982
 30
0.0
1001
IRD
1002
{
1000
TPMNODE_CH61900-_-ade
1070
   515
1071
        1
1004
0100BB0100000000000000000000
1002
}
  0
LWPOLYLINE
  5
D6
330
777
100
AcDbEntity
  8
0X-ARCHAEOLOGY
100
AcDbPolyline
 90
        3
 70
     0
 43
0.0
 10
58429.317198
 20
37877.420982
 10
58429.33556
 20
37877.421191
 10
58429.813028
 20
37877.415072
1001
IRD
1002
{
1000
TPMLINK_CH61900-_-ade
1070
   515
1071
        1
1004
0100FA010000BB010000BC01000000000000434120B057BCDF3F434120B057BCDF3FD4010000D5010000
1002
}
  0
POINT
  5
D7
330
777
100
AcDbEntity
  8
0X-ARCHAEOLOGY
100
AcDbPoint
 10
58429.813028
 20
37877.415072
 30
0.0
1001
IRD
1002
{
1000
TPMNODE_CH61900-_-ade
1070
   515
1071
        1
1004
0100BC0100000000000000000000
1002
}
  0
LWPOLYLINE
  5
D8
330
777
100
AcDbEntity
  8
0X-ARCHAEOLOGY
100
AcDbPolyline
 90
        3
 70
     0
 43
0.0
 10
58429.813028
 20
37877.415072
 10
58431.171976
 20
37877.415072
 10
58432.071821
 20
37877.415072
1001
IRD
1002
{
1000
TPMLINK_CH61900-_-ade
1070
   515
1071
        1
1004
0100FB010000BC010000BD0100000000000000C007BE0112024000C007BE01120240D9010000D7010000
1002
}
  0
POINT
  5
D9
330
777
100
AcDbEntity
  8
0X-ARCHAEOLOGY
100
AcDbPoint
 10
58429.813135
 20
37878.112572
 30
0.0
1001
IRD
1002
{
1000
TPMNODE_CH61900-_-ade
1070
   515
1071
        1
1004
0100B90100000000000000000000
1002
}
  0
LWPOLYLINE
  5
DA
330
777
100
AcDbEntity
  8
0X-ARCHAEOLOGY
100
AcDbPolyline
 90
        4
 70
     0
 43
0.0
 10
58429.813135
 20
37878.112572
 10
58429.806907
 20
37878.112683
 10
58429.604901
 20
37878.131041
 10
58429.311074
 20
37878.13716
1001
IRD
1002
{
1000
TPMLINK_CH61900-_-ade
1070
   515
1071
        1
1004
0100FC010000B9010000B8010000000000000256991A3C18E03F0256991A3C18E03FD401000000000000
1002
}
  0
POINT
  5
DB
330
777
100
AcDbEntity
  8
0X-ARCHAEOLOGY
100
AcDbPoint
 10
58428.264317
 20
37877.408952
 30
0.0
1001
IRD
1002
{
1000
TPMNODE_CH61900-_-ade
1070
   515
1071
        1
1004
0100BE0100000000000000000000
1002
}
  0
LWPOLYLINE
  5
DC
330
777
100
AcDbEntity
  8
0X-ARCHAEOLOGY
100
AcDbPolyline
 90
        2
 70
     0
 43
0.0
 10
58428.264317
 20
37877.408952
 10
58429.317198
 20
37877.420982
1001
IRD
1002
{
1000
TPMLINK_CH61900-_-ade
1070
   515
1071
        1
1004
0100FD010000BE010000BB01000000000000002A9318E2D8F03F002A9318E2D8F03FD8010000D6010000
1002
}
  0
POINT
  5
DD
330
777
100
AcDbEntity
  8
0X-ARCHAEOLOGY
100
AcDbPoint
 10
58432.071821
 20
37877.415072
 30
0.0
1001
IRD
1002
{
1000
TPMNODE_CH61900-_-ade
1070
   515
1071
        1
1004
0100BD0100000000000000000000
1002
}
  0
LWPOLYLINE
  5
DE
330
777
100
AcDbEntity
  8
0X-ARCHAEOLOGY
100
AcDbPolyline
 90
        4
 70
     0
 43
0.0
 10
58432.071821
 20
37877.415072
 10
58432.071821
 20
37878.118802
 10
58431.178098
 20
37878.088205
 10
58429.813135
 20
37878.112572
1001
IRD
1002
{
1000
TPMLINK_CH61900-_-ade
1070
   515
1071
        1
1004
0100FE010000BD010000B9010000000000008A63477F8BB407408A63477F8BB40740D901000000000000
1002
}
  0
LWPOLYLINE
  5
DF
330
777
100
AcDbEntity
  8
0X-ARCHAEOLOGY
100
AcDbPolyline
 90
        3
 70
     0
 43
0.0
 10
58428.264317
 20
37877.408952
 10
58428.27656
 20
37876.748058
 10
58429.335664
 20
37876.74211
1001
IRD
1002
{
1000
TPMLINK_CH61900-_-ade
1070
   515
1071
        1
1004
0100FF010000BE010000C101000000000000587A014AA685FB3F587A014AA685FB3FD601000000000000
1002
}
  0
POINT
  5
E0
330
777
100
AcDbEntity
  8
0X-ARCHAEOLOGY
100
AcDbPoint
 10
58429.335664
 20
37876.74211
 30
0.0
1001
IRD
1002
{
1000
TPMNODE_CH61900-_-ade
1070
   515
1071
        1
1004
0100C10100000000000000000000
1002
}
  0
POINT
  5
E1
330
777
100
AcDbEntity
  8
0X-ARCHAEOLOGY
100
AcDbPoint
 10
58429.82453
 20
37876.776304
 30
0.0
1001
IRD
1002
{
1000
TPMNODE_CH61900-_-ade
1070
   515
1071
        1
1004
0100C00100000000000000000000
1002
}
  0
LWPOLYLINE
  5
E2
330
777
100
AcDbEntity
  8
0X-ARCHAEOLOGY
100
AcDbPolyline
 90
        7
 70
     0
 43
0.0
 10
58429.82453
 20
37876.776304
 10
58429.855878
 20
37876.778655
 10
58430.064005
 20
37876.748058
 10
58430.645537
 20
37876.772535
 10
58431.208705
 20
37876.766416
 10
58432.071821
 20
37876.797013
 10
58432.071821
 20
37877.415072
1001
IRD
1002
{
1000
TPMLINK_CH61900-_-ade
1070
   515
1071
        1
1004
010001020000C0010000BD010000000000002855A2223BF306402855A2223BF30640D701000000000000
1002
}
  0
LWPOLYLINE
  5
E3
330
777
100
AcDbEntity
  8
0X-ARCHAEOLOGY
100
AcDbPolyline
 90
        4
 70
     0
 43
0.0
 10
58429.335664
 20
37876.74211
 10
58429.366167
 20
37876.741938
 10
58429.812355
 20
37876.775392
 10
58429.82453
 20
37876.776304
1001
IRD
1002
{
1000
TPMLINK_CH61900-_-ade
1070
   515
1071
        1
1004
010000020000C1010000C001000000000000BCF7521DA95EDF3FBCF7521DA95EDF3FD501000000000000
1002
}
  0
LWPOLYLINE
  5
E4
330
777
100
AcDbEntity
  8
0X-ARCHAEOLOGY
100
AcDbPolyline
 90
        2
 70
     0
 43
0.0
 10
58429.335664
 20
37876.74211
 10
58429.317198
 20
37877.420982
1001
IRD
1002
{
1000
TPMLINK_CH61900-_-ade
1070
   515
1071
        1
1004
010002020000C1010000BB01000000000000F9FDAC2E60BBE53FF9FDAC2E60BBE53FD6010000D5010000
1002
}
  0
POINT
  5
E5
330
777
100
AcDbEntity
  8
0X-ARCHAEOLOGY
100
AcDbPoint
 10
58428.798358
 20
37877.083678
 30
0.0
1001
IRD
1002
{
1000
TPMCNTR_CH61900-_-ade
1070
   515
1071
        1
1004
0100D60100000000000056A3E63FAA91F53C1C9E0B4003000000
1002
}
  0
LWPOLYLINE
  5
E6
330
777
100
AcDbEntity
  8
0X-ARCHAEOLOGY
100
AcDbPolyline
 90
        2
 70
     0
 43
0.0
 10
58429.813028
 20
37877.415072
 10
58429.82453
 20
37876.776304
1001
IRD
1002
{
1000
TPMLINK_CH61900-_-ade
1070
   515
1071
        1
1004
010003020000BC010000C001000000000000CAA67ABBA171E43FCAA67ABBA171E43FD7010000D5010000
1002
}
  0
POINT
  5
E7
330
777
100
AcDbEntity
  8
0X-ARCHAEOLOGY
100
AcDbPoint
 10
58430.945408
 20
37877.08366
 30
0.0
1001
IRD
1002
{
1000
TPMCNTR_CH61900-_-ade
1070
   515
1071
        1
1004
0100D7010000000000407B34F73F6D5FC4A7D210174003000000
1002
}
  0
LWPOLYLINE
  5
E8
330
777
100
AcDbEntity
  8
0X-ARCHAEOLOGY
100
AcDbPolyline
 90
        2
 70
     0
 43
0.0
 10
58429.317198
 20
37877.420982
 10
58429.311074
 20
37878.13716
1001
IRD
1002
{
1000
TPMLINK_CH61900-_-ade
1070
   515
1071
        1
1004
010004020000BB010000B8010000000000009FD8920327EBE63F9FD8920327EBE63FD8010000D4010000
1002
}
  0
POINT
  5
E9
330
777
100
AcDbEntity
  8
0X-ARCHAEOLOGY
100
AcDbPoint
 10
58428.795729
 20
37877.775344
 30
0.0
1001
IRD
1002
{
1000
TPMCNTR_CH61900-_-ade
1070
   515
1071
        1
1004
0100D801000000000000A55CE73F4898183E41DF0B4003000000
1002
}
  0
LWPOLYLINE
  5
EA
330
777
100
AcDbEntity
  8
0X-ARCHAEOLOGY
100
AcDbPolyline
 90
        2
 70
     0
 43
0.0
 10
58429.813135
 20
37878.112572
 10
58429.813028
 20
37877.415072
1001
IRD
1002
{
1000
TPMLINK_CH61900-_-ade
1070
   515
1071
        1
1004
010005020000B9010000BC01000000000000BB66F87BEB51E63FBB66F87BEB51E63FD9010000D4010000
1002
}
  0
POINT
  5
EB
330
777
100
AcDbEntity
  8
0X-ARCHAEOLOGY
100
AcDbPoint
 10
58430.942452
 20
37877.769148
 30
0.0
1001
IRD
1002
{
1000
TPMCNTR_CH61900-_-ade
1070
   515
1071
        1
1004
0100D901000000000080D1CFF83F9C9E260E84AD174003000000
1002
}
  0
LWPOLYLINE
  5
EC
330
777
100
AcDbEntity
  8
0X-HACHURES
100
AcDbPolyline
 90
        5
 70
     0
 43
0.0
 10
58429.31254
 20
37877.965725
 10
58429.312643
 20
37877.953644
 10
58429.531444
 20
37877.953579
 10
58429.708965
 20
37877.892385
 10
58429.813099
 20
37877.874027
  0
LWPOLYLINE
  5
ED
330
777
100
AcDbEntity
  8
0X-HACHURES
100
AcDbPolyline
 90
        2
 70
     0
 43
0.0
 10
58429.315731
 20
37877.592522
 10
58429.813056
 20
37877.598658
  0
LWPOLYLINE
  5
EE
330
777
100
AcDbEntity
  8
0X-HACHURES
100
AcDbPolyline
 90
        3
 70
     0
 43
0.0
 10
58429.323018
 20
37877.207004
 10
58429.635508
 20
37877.188654
 10
58429.81733
 20
37877.176162
  0
LWPOLYLINE
  5
EF
330
777
100
AcDbEntity
  8
0X-HACHURES
100
AcDbPolyline
 90
        3
 70
     0
 43
0.0
 10
58429.330683
 20
37876.925221
 10
58429.580415
 20
37876.962237
 10
58429.821401
 20
37876.950038
  0
LWPOLYLINE
  5
F0
330
777
100
AcDbEntity
  8
0X-ARCHAEOLOGY
100
AcDbPolyline
 90
        2
 70
     0
 43
0.0
 10
58428.032819
 20
37884.305581
 10
58429.189242
 20
37884.334483
1001
IRD
1002
{
1000
TPMLINK_CH61900-_-ade
1070
   515
1071
        1
1004
010006020000AB010000AA01000000000000DFCD36FF3082F23FDFCD36FF3082F23F00000000DB010000
1002
}
  0
POINT
  5
F1
330
777
100
AcDbEntity
  8
0X-ARCHAEOLOGY
100
AcDbPoint
 10
58428.032819
 20
37884.305581
 30
0.0
1001
IRD
1002
{
1000
TPMNODE_CH61900-_-ade
1070
   515
1071
        1
1004
0100AB0100000000000000000000
1002
}
  0
POINT
  5
F2
330
777
100
AcDbEntity
  8
0X-ARCHAEOLOGY
100
AcDbPoint
 10
58429.189242
 20
37884.334483
 30
0.0
1001
IRD
1002
{
1000
TPMNODE_CH61900-_-ade
1070
   515
1071
        1
1004
0100AA0100000000000000000000
1002
}
  0
LWPOLYLINE
  5
F3
330
777
100
AcDbEntity
  8
0X-ARCHAEOLOGY
100
AcDbPolyline
 90
        3
 70
     0
 43
0.0
 10
58429.189242
 20
37884.334483
 10
58429.196511
 20
37884.334664
 10
58429.706263
 20
37884.355323
1001
IRD
1002
{
1000
TPMLINK_CH61900-_-ade
1070
   515
1071
        1
1004
010007020000AA010000A9010000000000004BB897F6DF8EE03F4BB897F6DF8EE03F00000000DA010000
1002
}
  0
POINT
  5
F4
330
777
100
AcDbEntity
  8
0X-ARCHAEOLOGY
100
AcDbPoint
 10
58429.219034
 20
37882.870426
 30
0.0
1001
IRD
1002
{
1000
TPMNODE_CH61900-_-ade
1070
   515
1071
        1
1004
0100AD0100000000000000000000
1002
}
  0
LWPOLYLINE
  5
F5
330
777
100
AcDbEntity
  8
0X-ARCHAEOLOGY
100
AcDbPolyline
 90
        4
 70
     0
 43
0.0
 10
58429.219034
 20
37882.870426
 10
58429.051049
 20
37882.85871
 10
58427.960088
 20
37882.85144
 10
58428.032819
 20
37884.305581
1001
IRD
1002
{
1000
TPMLINK_CH61900-_-ade
1070
   515
1071
        1
1004
010008020000AD010000AB01000000000000DB56BA5603B90540DB56BA5603B9054000000000DB010000
1002
}
  0
POINT
  5
F6
330
777
100
AcDbEntity
  8
0X-ARCHAEOLOGY
100
AcDbPoint
 10
58429.706263
 20
37884.355323
 30
0.0
1001
IRD
1002
{
1000
TPMNODE_CH61900-_-ade
1070
   515
1071
        1
1004
0100A90100000000000000000000
1002
}
  0
LWPOLYLINE
  5
F7
330
777
100
AcDbEntity
  8
0X-ARCHAEOLOGY
100
AcDbPolyline
 90
       10
 70
     0
 43
0.0
 10
58429.706263
 20
37884.355323
 10
58429.734719
 20
37884.356476
 10
58430.0911
 20
37884.341935
 10
58431.029326
 20
37884.385559
 10
58431.531169
 20
37884.421913
 10
58432.011192
 20
37884.407371
 10
58432.011192
 20
37882.953229
 10
58431.043873
 20
37882.902334
 10
58430.331111
 20
37882.931417
 10
58429.71315
 20
37882.903961
1001
IRD
1002
{
1000
TPMLINK_CH61900-_-ade
1070
   515
1071
        1
1004
010009020000A9010000AC01000000000000B01EF3D505401840B01EF3D50540184000000000DC010000
1002
}
  0
POINT
  5
F8
330
777
100
AcDbEntity
  8
0X-ARCHAEOLOGY
100
AcDbPoint
 10
58429.71315
 20
37882.903961
 30
0.0
1001
IRD
1002
{
1000
TPMNODE_CH61900-_-ade
1070
   515
1071
        1
1004
0100AC0100000000000000000000
1002
}
  0
LWPOLYLINE
  5
F9
330
777
100
AcDbEntity
  8
0X-ARCHAEOLOGY
100
AcDbPolyline
 90
        3
 70
     0
 43
0.0
 10
58429.71315
 20
37882.903961
 10
58429.676534
 20
37882.902334
 10
58429.219034
 20
37882.870426
1001
IRD
1002
{
1000
TPMLINK_CH61900-_-ade
1070
   515
1071
        1
1004
01000A020000AC010000AD01000000000000D2AA48E764B2DF3FD2AA48E764B2DF3F00000000DA010000
1002
}
  0
LWPOLYLINE
  5
FA
330
777
100
AcDbEntity
  8
0X-ARCHAEOLOGY
100
AcDbPolyline
 90
        2
 70
     0
 43
0.0
 10
58429.189242
 20
37884.334483
 10
58429.219034
 20
37882.870426
1001
IRD
1002
{
1000
TPMLINK_CH61900-_-ade
1070
   515
1071
        1
1004
01000B020000AA010000AD010000000000007F5B772C046EF73F7F5B772C046EF73FDA010000DB010000
1002
}
  0
POINT
  5
FB
330
777
100
AcDbEntity
  8
0X-ARCHAEOLOGY
100
AcDbPoint
 10
58428.600823
 20
37883.59762
 30
0.0
1001
IRD
1002
{
1000
TPMCNTR_CH61900-_-ade
1070
   515
1071
        1
1004
0100DB010000000000C04347FC3FC5B548F68E58154003000000
1002
}
  0
LWPOLYLINE
  5
FC
330
777
100
AcDbEntity
  8
0X-ARCHAEOLOGY
100
AcDbPolyline
 90
        2
 70
     0
 43
0.0
 10
58429.706263
 20
37884.355323
 10
58429.71315
 20
37882.903961
1001
IRD
1002
{
1000
TPMLINK_CH61900-_-ade
1070
   515
1071
        1
1004
01000C020000A9010000AC0100000000000009E0763BD838F73F09E0763BD838F73FDC010000DA010000
1002
}
  0
POINT
  5
FD
330
777
100
AcDbEntity
  8
0X-ARCHAEOLOGY
100
AcDbPoint
 10
58430.860361
 20
37883.666897
 30
0.0
1001
IRD
1002
{
1000
TPMCNTR_CH61900-_-ade
1070
   515
1071
        1
1004
0100DC0100000000008052DD0A40B2D6D0E43B0E1E4002000000
1002
}
  0
LWPOLYLINE
  5
FE
330
777
100
AcDbEntity
  8
0X-HACHURES
100
AcDbPolyline
 90
        2
 70
     0
 43
0.0
 10
58429.194125
 20
37884.094534
 10
58429.707464
 20
37884.102114
  0
LWPOLYLINE
  5
FF
330
777
100
AcDbEntity
  8
0X-HACHURES
100
AcDbPolyline
 90
        2
 70
     0
 43
0.0
 10
58429.214842
 20
37883.076465
 10
58429.712226
 20
37883.098606
  0
POINT
  5
100
330
777
100
AcDbEntity
  8
0X-ARCHAEOLOGY
100
AcDbPoint
 10
58442.337158
 20
37892.982786
 30
0.0
1001
IRD
1002
{
1000
TPMNODE_CH61900-_-ade
1070
   515
1071
        1
1004
0100A30100000000000000000000
1002
}
  0
LWPOLYLINE
  5
101
330
777
100
AcDbEntity
  8
0X-EXTRAPOLATED
100
AcDbPolyline
 90
       10
 70
     0
 43
0.0
 10
58442.337158
 20
37892.982786
 10
58442.250854
 20
37893.126515
 10
58441.774487
 20
37894.129001
 10
58441.624135
 20
37895.056258
 10
58441.423573
 20
37896.133866
 10
58440.997415
 20
37896.524673
 10
58438.039069
 20
37898.329105
 10
58436.284228
 20
37899.456902
 10
58435.105897
 20
37900.058415
 10
58434.392885
 20
37900.368273
1001
IRD
1002
{
1000
TPMLINK_CH61900-_-ade
1070
   515
1071
        1
1004
01000D020000A30100006802000000000000C45DF516F7152740C45DF516F715274000000000EA010000
1002
}
  0
POINT
  5
102
330
777
100
AcDbEntity
  8
0X-ARCHAEOLOGY
100
AcDbPoint
 10
58444.640802
 20
37892.986467
 30
0.0
1001
IRD
1002
{
1000
TPMNODE_CH61900-_-ade
1070
   515
1071
        1
1004
0100A20100000000000000000000
1002
}
  0
LWPOLYLINE
  5
103
330
777
100
AcDbEntity
  8
0X-ARCHAEOLOGY
100
AcDbPolyline
 90
        6
 70
     0
 43
0.0
 10
58444.640802
 20
37892.986467
 10
58444.694937
 20
37892.80869
 10
58444.870462
 20
37892.457798
 10
58444.94557
 20
37891.655852
 10
58445.020814
 20
37891.229731
 10
58445.052098
 20
37891.063026
1001
IRD
1002
{
1000
TPMLINK_CH61900-_-ade
1070
   515
1071
        1
1004
01000E020000A2010000A4010000000000009FD5EBC883C6FF3F9FD5EBC883C6FF3F00000000DD010000
1002
}
  0
POINT
  5
104
330
777
100
AcDbEntity
  8
0X-ARCHAEOLOGY
100
AcDbPoint
 10
58442.496418
 20
37891.026972
 30
0.0
1001
IRD
1002
{
1000
TPMNODE_CH61900-_-ade
1070
   515
1071
        1
1004
0100A50100000000000000000000
1002
}
  0
LWPOLYLINE
  5
105
330
777
100
AcDbEntity
  8
0X-ARCHAEOLOGY
100
AcDbPolyline
 90
        9
 70
     0
 43
0.0
 10
58442.496418
 20
37891.026972
 10
58442.476451
 20
37891.14669
 10
58442.501624
 20
37891.472434
 10
58442.476451
 20
37891.773137
 10
58442.476451
 20
37892.023759
 10
58442.476451
 20
37892.299528
 10
58442.426379
 20
37892.57519
 10
58442.401343
 20
37892.875893
 10
58442.337158
 20
37892.982786
1001
IRD
1002
{
1000
TPMLINK_CH61900-_-ade
1070
   515
1071
        1
1004
01000F020000A5010000A3010000000000004E483B75ADB9FF3F4E483B75ADB9FF3F00000000DD010000
1002
}
  0
POINT
  5
106
330
777
100
AcDbEntity
  8
0X-ARCHAEOLOGY
100
AcDbPoint
 10
58445.052098
 20
37891.063026
 30
0.0
1001
IRD
1002
{
1000
TPMNODE_CH61900-_-ade
1070
   515
1071
        1
1004
0100A40100000000000000000000
1002
}
  0
LWPOLYLINE
  5
107
330
777
100
AcDbEntity
  8
0X-ARCHAEOLOGY
100
AcDbPolyline
 90
       14
 70
     0
 43
0.0
 10
58445.052098
 20
37891.063026
 10
58445.096059
 20
37890.828758
 10
58445.547253
 20
37888.172192
 10
58445.547253
 20
37886.79388
 10
58445.446973
 20
37886.257965
 10
58445.472145
 20
37885.556289
 10
58445.371865
 20
37884.729195
 10
58445.271584
 20
37883.927249
 10
58445.19634
 20
37883.250614
 10
58444.770181
 20
37882.649101
 10
58444.494376
 20
37881.646615
 10
58444.118289
 20
37880.794587
 10
58443.742203
 20
37880.092804
 10
58443.659308
 20
37879.767079
1001
IRD
1002
{
1000
TPMLINK_CH61900-_-ade
1070
   515
1071
        1
1004
010010020000A40100006C02000000000000B21F525B52712740B21F525B5271274000000000D3010000
1002
}
  0
LWPOLYLINE
  5
108
330
777
100
AcDbEntity
  8
0X-ARCHAEOLOGY
100
AcDbPolyline
 90
        2
 70
     0
 43
0.0
 10
58442.496418
 20
37891.026972
 10
58445.052098
 20
37891.063026
1001
IRD
1002
{
1000
TPMLINK_CH61900-_-ade
1070
   515
1071
        1
1004
010011020000A5010000A4010000000000002B84FDAD8D7204402B84FDAD8D720440DD010000D3010000
1002
}
  0
LWPOLYLINE
  5
109
330
777
100
AcDbEntity
  8
0X-ARCHAEOLOGY
100
AcDbPolyline
 90
        2
 70
     0
 43
0.0
 10
58442.337158
 20
37892.982786
 10
58444.640802
 20
37892.986467
1001
IRD
1002
{
1000
TPMLINK_CH61900-_-ade
1070
   515
1071
        1
1004
010012020000A3010000A201000000000000A7253566DE6D0240A7253566DE6D0240EA010000DD010000
1002
}
  0
POINT
  5
10A
330
777
100
AcDbEntity
  8
0X-ARCHAEOLOGY
100
AcDbPoint
 10
58429.161432
 20
37904.131663
 30
0.0
1001
IRD
1002
{
1000
TPMCNTR_CH61900-_-ade
1070
   515
1071
        1
1004
0100DE010000000000809497EE3FD1A33E532D66124005000000
1002
}
  0
LWPOLYLINE
  5
10B
330
777
100
AcDbEntity
  8
0X-HACHURES
100
AcDbPolyline
 90
        2
 70
     0
 43
0.0
 10
58443.280886
 20
37892.984294
 10
58443.3768
 20
37891.039392
  0
LWPOLYLINE
  5
10C
330
777
100
AcDbEntity
  8
0X-HACHURES
100
AcDbPolyline
 90
        4
 70
     0
 43
0.0
 10
58443.951377
 20
37891.047498
 10
58443.935288
 20
37891.551241
 10
58443.943268
 20
37891.806526
 10
58443.871449
 20
37892.985238
  0
LWPOLYLINE
  5
10D
330
777
100
AcDbEntity
  8
0X-SECTIONS
100
AcDbPolyline
 90
        4
 70
     0
 43
0.0
 10
58442.275394
 20
37892.755868
 10
58442.337158
 20
37892.982786
 10
58445.044544
 20
37892.995197
 10
58445.060505
 20
37892.74789
  0
POINT
  5
10E
330
777
100
AcDbEntity
  8
0X-ARCHAEOLOGY
100
AcDbPoint
 10
58427.911661
 20
37911.736593
 30
0.0
1001
IRD
1002
{
1000
TPMNODE_CH61900-_-ade
1070
   515
1071
        1
1004
01008A0100000000000000000000
1002
}
  0
LWPOLYLINE
  5
10F
330
777
100
AcDbEntity
  8
0X-ARCHAEOLOGY
100
AcDbPolyline
 90
        6
 70
     0
 43
0.0
 10
58427.911661
 20
37911.736593
 10
58428.39941
 20
37912.280548
 10
58428.741158
 20
37912.662259
 10
58428.96224
 20
37912.883345
 10
58429.163212
 20
37913.044077
 10
58429.375962
 20
37913.314705
1001
IRD
1002
{
1000
TPMLINK_CH61900-_-ade
1070
   515
1071
        1
1004
0100130200008A010000890100000000000081B7BD40EE41014081B7BD40EE41014000000000D2010000
1002
}
  0
POINT
  5
110
330
777
100
AcDbEntity
  8
0X-ARCHAEOLOGY
100
AcDbPoint
 10
58430.129347
 20
37909.865365
 30
0.0
1001
IRD
1002
{
1000
TPMNODE_CH61900-_-ade
1070
   515
1071
        1
1004
01008C0100000000000000000000
1002
}
  0
LWPOLYLINE
  5
111
330
777
100
AcDbEntity
  8
0X-EXTRAPOLATED
100
AcDbPolyline
 90
        6
 70
     0
 43
0.0
 10
58430.129347
 20
37909.865365
 10
58429.786374
 20
37909.608251
 10
58428.922018
 20
37908.704001
 10
58428.057799
 20
37907.558762
 10
58427.655856
 20
37907.016212
 10
58427.643468
 20
37907.003947
1001
IRD
1002
{
1000
TPMLINK_CH61900-_-ade
1070
   515
1071
        1
1004
0100140200008C0100008F01000000000000BC3A68129B740E40BC3A68129B740E4000000000ED010000
1002
}
  0
POINT
  5
112
330
777
100
AcDbEntity
  8
0X-ARCHAEOLOGY
100
AcDbPoint
 10
58429.375962
 20
37913.314705
 30
0.0
1001
IRD
1002
{
1000
TPMNODE_CH61900-_-ade
1070
   515
1071
        1
1004
0100890100000000000000000000
1002
}
  0
LWPOLYLINE
  5
113
330
777
100
AcDbEntity
  8
0X-ARCHAEOLOGY
100
AcDbPolyline
 90
        8
 70
     0
 43
0.0
 10
58429.375962
 20
37913.314705
 10
58429.384294
 20
37913.325304
 10
58429.84657
 20
37913.626756
 10
58430.489843
 20
37914.028585
 10
58431.15309
 20
37914.470651
 10
58431.776116
 20
37914.852362
 10
58431.796227
 20
37911.396417
 10
58431.782029
 20
37911.382227
1001
IRD
1002
{
1000
TPMLINK_CH61900-_-ade
1070
   515
1071
        1
1004
010015020000890100008B01000000000000B62652817E4F1940B62652817E4F194000000000E0010000
1002
}
  0
POINT
  5
114
330
777
100
AcDbEntity
  8
0X-ARCHAEOLOGY
100
AcDbPoint
 10
58431.782029
 20
37911.382227
 30
0.0
1001
IRD
1002
{
1000
TPMNODE_CH61900-_-ade
1070
   515
1071
        1
1004
01008B0100000000000000000000
1002
}
  0
LWPOLYLINE
  5
115
330
777
100
AcDbEntity
  8
0X-ARCHAEOLOGY
100
AcDbPolyline
 90
        4
 70
     0
 43
0.0
 10
58431.782029
 20
37911.382227
 10
58431.253508
 20
37910.853974
 10
58430.509954
 20
37910.150693
 10
58430.129347
 20
37909.865365
1001
IRD
1002
{
1000
TPMLINK_CH61900-_-ade
1070
   515
1071
        1
1004
0100160200008B0100008C01000000000000205E1B539FF80140205E1B539FF8014000000000D2010000
1002
}
  0
LWPOLYLINE
  5
116
330
777
100
AcDbEntity
  8
0X-ARCHAEOLOGY
100
AcDbPolyline
 90
        2
 70
     0
 43
0.0
 10
58427.911661
 20
37911.736593
 10
58430.129347
 20
37909.865365
1001
IRD
1002
{
1000
TPMLINK_CH61900-_-ade
1070
   515
1071
        1
1004
0100170200008A0100008C01000000000000FD6B9EB598360740FD6B9EB598360740D2010000ED010000
1002
}
  0
LWPOLYLINE
  5
117
330
777
100
AcDbEntity
  8
0X-ARCHAEOLOGY
100
AcDbPolyline
 90
        2
 70
     0
 43
0.0
 10
58429.375962
 20
37913.314705
 10
58431.782029
 20
37911.382227
1001
IRD
1002
{
1000
TPMLINK_CH61900-_-ade
1070
   515
1071
        1
1004
010018020000890100008B01000000000000EC85B5D834B00840EC85B5D834B00840E0010000D2010000
1002
}
  0
POINT
  5
118
330
777
100
AcDbEntity
  8
0X-ARCHAEOLOGY
100
AcDbPoint
 10
58430.697164
 20
37913.128196
 30
0.0
1001
IRD
1002
{
1000
TPMCNTR_CH61900-_-ade
1070
   515
1071
        1
1004
0100E0010000000000D033D91040D674D676CCD3224002000000
1002
}
  0
LWPOLYLINE
  5
119
330
777
100
AcDbEntity
  8
0X-SECTIONS
100
AcDbPolyline
 90
        4
 70
     0
 43
0.0
 10
58427.908092
 20
37911.898461
 10
58427.810419
 20
37911.800819
 10
58430.129347
 20
37909.865365
 10
58430.232882
 20
37909.942982
  0
LWPOLYLINE
  5
11A
330
777
100
AcDbEntity
  8
0X-HACHURES
100
AcDbPolyline
 90
        2
 70
     0
 43
0.0
 10
58429.032017
 20
37910.781233
 10
58430.337789
 20
37912.542196
  0
LWPOLYLINE
  5
11B
330
777
100
AcDbEntity
  8
0X-HACHURES
100
AcDbPolyline
 90
        2
 70
     0
 43
0.0
 10
58429.458009
 20
37910.425686
 10
58430.733139
 20
37912.224663
  0
POINT
  5
11C
330
777
100
AcDbEntity
  8
0X-ARCHAEOLOGY
100
AcDbPoint
 10
58411.860107
 20
37900.271653
 30
0.0
1001
IRD
1002
{
1000
TPMNODE_CH61900-_-ade
1070
   515
1071
        1
1004
0100A00100000000000000000000
1002
}
  0
LWPOLYLINE
  5
11D
330
777
100
AcDbEntity
  8
0X-ARCHAEOLOGY
100
AcDbPolyline
 90
        6
 70
     0
 43
0.0
 10
58411.860107
 20
37900.271653
 10
58412.242744
 20
37900.704124
 10
58412.593795
 20
37901.105097
 10
58413.019953
 20
37901.430948
 10
58413.5966
 20
37902.107583
 10
58413.730481
 20
37902.211691
1001
IRD
1002
{
1000
TPMLINK_CH61900-_-ade
1070
   515
1071
        1
1004
010019020000A00100009B0100000000000015E589FFC3A4054015E589FFC3A4054000000000DF010000
1002
}
  0
POINT
  5
11E
330
777
100
AcDbEntity
  8
0X-ARCHAEOLOGY
100
AcDbPoint
 10
58417.182435
 20
37900.306138
 30
0.0
1001
IRD
1002
{
1000
TPMNODE_CH61900-_-ade
1070
   515
1071
        1
1004
01009F0100000000000000000000
1002
}
  0
LWPOLYLINE
  5
11F
330
777
100
AcDbEntity
  8
0X-EXTRAPOLATED
100
AcDbPolyline
 90
       14
 70
     0
 43
0.0
 10
58417.182435
 20
37900.306138
 10
58416.175029
 20
37899.255292
 10
58414.971662
 20
37898.252913
 10
58414.019065
 20
37897.55113
 10
58412.765626
 20
37896.573684
 10
58411.461978
 20
37895.345724
 10
58410.810086
 20
37894.242968
 10
58410.183367
 20
37893.16536
 10
58410.007841
 20
37892.463577
 10
58409.95777
 20
37891.285698
 10
58410.183367
 20
37889.271202
 10
58410.484208
 20
37887.717392
 10
58410.78505
 20
37886.414203
 10
58411.185225
 20
37885.194916
1001
IRD
1002
{
1000
TPMLINK_CH61900-_-ade
1070
   515
1071
        1
1004
01001A0200009F010000C702000000000000AFD7CC6DF73E3240AFD7CC6DF73E324000000000EE010000
1002
}
  0
POINT
  5
120
330
777
100
AcDbEntity
  8
0X-ARCHAEOLOGY
100
AcDbPoint
 10
58413.730481
 20
37902.211691
 30
0.0
1001
IRD
1002
{
1000
TPMNODE_CH61900-_-ade
1070
   515
1071
        1
1004
01009B0100000000000000000000
1002
}
  0
LWPOLYLINE
  5
121
330
777
100
AcDbEntity
  8
0X-EXTRAPOLATED
100
AcDbPolyline
 90
        7
 70
     0
 43
0.0
 10
58413.730481
 20
37902.211691
 10
58414.273392
 20
37902.633867
 10
58415.075636
 20
37903.072294
 10
58416.329212
 20
37903.648766
 10
58418.084054
 20
37904.350442
 10
58419.287421
 20
37904.876726
 10
58420.239197
 20
37905.268175
1001
IRD
1002
{
1000
TPMLINK_CH61900-_-ade
1070
   515
1071
        1
1004
01001B0200009B0100009101000000000000D6652F3D5BDB1C40D6652F3D5BDB1C4000000000EC010000
1002
}
  0
POINT
  5
122
330
777
100
AcDbEntity
  8
0X-ARCHAEOLOGY
100
AcDbPoint
 10
58419.138071
 20
37902.168198
 30
0.0
1001
IRD
1002
{
1000
TPMNODE_CH61900-_-ade
1070
   515
1071
        1
1004
01009C0100000000000000000000
1002
}
  0
LWPOLYLINE
  5
123
330
777
100
AcDbEntity
  8
0X-ARCHAEOLOGY
100
AcDbPolyline
 90
        4
 70
     0
 43
0.0
 10
58419.138071
 20
37902.168198
 10
58418.581763
 20
37901.686278
 10
58417.328324
 20
37900.458318
 10
58417.182435
 20
37900.306138
1001
IRD
1002
{
1000
TPMLINK_CH61900-_-ade
1070
   515
1071
        1
1004
01001C0200009C0100009F0100000000000015CADFFEC09C054015CADFFEC09C054000000000DF010000
1002
}
  0
LWPOLYLINE
  5
124
330
777
100
AcDbEntity
  8
0X-ARCHAEOLOGY
100
AcDbPolyline
 90
        2
 70
     0
 43
0.0
 10
58411.860107
 20
37900.271653
 10
58417.182435
 20
37900.306138
1001
IRD
1002
{
1000
TPMLINK_CH61900-_-ade
1070
   515
1071
        1
1004
01001D020000A00100009F0100000000000051F98C9B2D4A154051F98C9B2D4A1540DF010000EE010000
1002
}
  0
POINT
  5
125
330
777
100
AcDbEntity
  8
0X-ARCHAEOLOGY
100
AcDbPoint
 10
58424.057397
 20
37871.695758
 30
0.0
1001
IRD
1002
{
1000
TPMCNTR_CH61900-_-ade
1070
   515
1071
        1
1004
0100E1010000000000943E8A3940C55194CABF043E4008000000
1002
}
  0
LWPOLYLINE
  5
126
330
777
100
AcDbEntity
  8
0X-ARCHAEOLOGY
100
AcDbPolyline
 90
        2
 70
     0
 43
0.0
 10
58413.730481
 20
37902.211691
 10
58419.138071
 20
37902.168198
1001
IRD
1002
{
1000
TPMLINK_CH61900-_-ade
1070
   515
1071
        1
1004
01001E0200009B0100009C01000000000000CA44CA0C8DA11540CA44CA0C8DA11540EC010000DF010000
1002
}
  0
LWPOLYLINE
  5
127
330
777
100
AcDbEntity
  8
0X-HACHURES
100
AcDbPolyline
 90
        6
 70
     0
 43
0.0
 10
58413.139657
 20
37900.279943
 10
58413.557479
 20
37900.625789
 10
58413.920808
 20
37901.116122
 10
58414.156971
 20
37901.297727
 10
58414.483966
 20
37901.915184
 10
58414.666056
 20
37902.204166
  0
LWPOLYLINE
  5
128
330
777
100
AcDbEntity
  8
0X-HACHURES
100
AcDbPolyline
 90
        7
 70
     0
 43
0.0
 10
58416.118824
 20
37900.299246
 10
58416.282441
 20
37900.607628
 10
58416.627603
 20
37900.898196
 10
58416.881933
 20
37901.279567
 10
58417.136263
 20
37901.624616
 10
58417.35426
 20
37901.860703
 10
58417.681485
 20
37902.179913
  0
POINT
  5
129
330
777
100
AcDbEntity
  8
0X-ARCHAEOLOGY
100
AcDbPoint
 10
58416.750554
 20
37872.054724
 30
0.0
1001
IRD
1002
{
1000
TPMNODE_CH61900-_-ade
1070
   515
1071
        1
1004
0100C70100000000000000000000
1002
}
  0
LWPOLYLINE
  5
12A
330
777
100
AcDbEntity
  8
0X-EXTRAPOLATED
100
AcDbPolyline
 90
        5
 70
     0
 43
0.0
 10
58416.750554
 20
37872.054724
 10
58415.937803
 20
37872.582827
 10
58415.085487
 20
37873.535124
 10
58414.423881
 20
37874.261948
 10
58413.359512
 20
37875.307873
1001
IRD
1002
{
1000
TPMLINK_CH61900-_-ade
1070
   515
1071
        1
1004
01001F020000C7010000B502000000000000E79A9913B7E31240E79A9913B7E3124000000000EF010000
1002
}
  0
POINT
  5
12B
330
777
100
AcDbEntity
  8
0X-ARCHAEOLOGY
100
AcDbPoint
 10
58418.236109
 20
37871.059233
 30
0.0
1001
IRD
1002
{
1000
TPMNODE_CH61900-_-ade
1070
   515
1071
        1
1004
0100C80100000000000000000000
1002
}
  0
LWPOLYLINE
  5
12C
330
777
100
AcDbEntity
  8
0X-ARCHAEOLOGY
100
AcDbPolyline
 90
        4
 70
     0
 43
0.0
 10
58418.236109
 20
37871.059233
 10
58418.01866
 20
37871.179367
 10
58416.940609
 20
37871.931232
 10
58416.750554
 20
37872.054724
1001
IRD
1002
{
1000
TPMLINK_CH61900-_-ade
1070
   515
1071
        1
1004
010020020000C8010000C70100000000000080153BBF78A1FC3F80153BBF78A1FC3F000000009A020000
1002
}
  0
POINT
  5
12D
330
777
100
AcDbEntity
  8
0X-ARCHAEOLOGY
100
AcDbPoint
 10
58418.700983
 20
37874.722998
 30
0.0
1001
IRD
1002
{
1000
TPMNODE_CH61900-_-ade
1070
   515
1071
        1
1004
0100C30100000000000000000000
1002
}
  0
LWPOLYLINE
  5
12E
330
777
100
AcDbEntity
  8
0X-ARCHAEOLOGY
100
AcDbPolyline
 90
        3
 70
     0
 43
0.0
 10
58418.700983
 20
37874.722998
 10
58419.011615
 20
37874.467946
 10
58420.116775
 20
37873.616362
1001
IRD
1002
{
1000
TPMLINK_CH61900-_-ade
1070
   515
1071
        1
1004
010021020000C3010000C4010000000000001D4F2DE702C1FC3F1D4F2DE702C1FC3F000000009C020000
1002
}
  0
POINT
  5
12F
330
777
100
AcDbEntity
  8
0X-ARCHAEOLOGY
100
AcDbPoint
 10
58420.116775
 20
37873.616362
 30
0.0
1001
IRD
1002
{
1000
TPMNODE_CH61900-_-ade
1070
   515
1071
        1
1004
0100C40100000000000000000000
1002
}
  0
LWPOLYLINE
  5
130
330
777
100
AcDbEntity
  8
0X-EXTRAPOLATED
100
AcDbPolyline
 90
       10
 70
     0
 43
0.0
 10
58420.116775
 20
37873.616362
 10
58420.214982
 20
37873.540689
 10
58421.443385
 20
37872.881924
 10
58422.646752
 20
37872.43087
 10
58423.875155
 20
37872.079978
 10
58425.554889
 20
37872.054938
 10
58426.63294
 20
37872.13006
 10
58427.948763
 20
37872.180248
 10
58429.05185
 20
37872.23033
 10
58429.415118
 20
37872.323717
1001
IRD
1002
{
1000
TPMLINK_CH61900-_-ade
1070
   515
1071
        1
1004
010022020000C4010000C60100000000000044C418803F46234044C418803F46234000000000E1010000
1002
}
  0
LWPOLYLINE
  5
131
330
777
100
AcDbEntity
  8
0X-ARCHAEOLOGY
100
AcDbPolyline
 90
        2
 70
     0
 43
0.0
 10
58418.236109
 20
37871.059233
 10
58419.239611
 20
37872.423687
1001
IRD
1002
{
1000
TPMLINK_CH61900-_-ade
1070
   515
1071
        1
1004
010023020000C801000094020000000000007BEEE2ED8D19FB3F7BEEE2ED8D19FB3F9A020000E1010000
1002
}
  0
LWPOLYLINE
  5
132
330
777
100
AcDbEntity
  8
0X-ARCHAEOLOGY
100
AcDbPolyline
 90
        2
 70
     0
 43
0.0
 10
58416.750554
 20
37872.054724
 10
58417.601815
 20
37873.219287
1001
IRD
1002
{
1000
TPMLINK_CH61900-_-ade
1070
   515
1071
        1
1004
010024020000C70100009002000000000000D60019F88A14F73FD60019F88A14F73FEF0100009A020000
1002
}
  0
LWPOLYLINE
  5
133
330
777
100
AcDbEntity
  8
0X-ARCHAEOLOGY
100
AcDbPolyline
 90
        7
 70
     1
 43
0.0
 10
58419.040415
 20
37875.151484
 10
58419.554055
 20
37874.726541
 10
58419.979136
 20
37874.443245
 10
58420.545912
 20
37874.07142
 10
58420.988705
 20
37874.655717
 10
58420.315659
 20
37875.186896
 10
58419.571767
 20
37875.895134
1001
IRD
1002
{
1000
TPMLINK_CH61900-_-ade
1070
   515
1071
        1
1004
010025020000C2010000C2010000000000009C4B96EB3B8C15409C4B96EB3B8C1540E401000000000000
1002
}
  0
POINT
  5
134
330
777
100
AcDbEntity
  8
0X-ARCHAEOLOGY
100
AcDbPoint
 10
58419.040415
 20
37875.151484
 30
0.0
1001
IRD
1002
{
1000
TPMNODE_CH61900-_-ade
1070
   515
1071
        1
1004
0100C20100000000000000000000
1002
}
  0
POINT
  5
135
330
777
100
AcDbEntity
  8
0X-ARCHAEOLOGY
100
AcDbPoint
 10
58428.549177
 20
37904.987012
 30
0.0
1001
IRD
1002
{
1000
TPMNODE_CH61900-_-ade
1070
   515
1071
        1
1004
0100940100000000000000000000
1002
}
  0
LWPOLYLINE
  5
136
330
777
100
AcDbEntity
  8
0X-ARCHAEOLOGY
100
AcDbPolyline
 90
        7
 70
     0
 43
0.0
 10
58428.549177
 20
37904.987012
 10
58428.537723
 20
37905.02055
 10
58428.537723
 20
37905.672144
 10
58428.612831
 20
37906.173387
 10
58428.763321
 20
37906.624549
 10
58428.813392
 20
37906.950293
 10
58428.831487
 20
37906.973984
1001
IRD
1002
{
1000
TPMLINK_CH61900-_-ade
1070
   515
1071
        1
1004
01002602000094010000900100000000000093FFBEA5163B004093FFBEA5163B004000000000E5010000
1002
}
  0
POINT
  5
137
330
777
100
AcDbEntity
  8
0X-ARCHAEOLOGY
100
AcDbPoint
 10
58429.466626
 20
37903.265498
 30
0.0
1001
IRD
1002
{
1000
TPMNODE_CH61900-_-ade
1070
   515
1071
        1
1004
0100980100000000000000000000
1002
}
  0
LWPOLYLINE
  5
138
330
777
100
AcDbEntity
  8
0X-ARCHAEOLOGY
100
AcDbPolyline
 90
        4
 70
     0
 43
0.0
 10
58429.466626
 20
37903.265498
 10
58429.465285
 20
37903.266306
 10
58428.888637
 20
37903.993023
 10
58428.549177
 20
37904.987012
1001
IRD
1002
{
1000
TPMLINK_CH61900-_-ade
1070
   515
1071
        1
1004
010027020000980100009401000000000000F5EC8BC38FACFF3FF5EC8BC38FACFF3F00000000DE010000
1002
}
  0
LWPOLYLINE
  5
139
330
777
100
AcDbEntity
  8
0X-ARCHAEOLOGY
100
AcDbPolyline
 90
        2
 70
     0
 43
0.0
 10
58429.466626
 20
37903.265498
 10
58429.47154
 20
37903.550237
1001
IRD
1002
{
1000
TPMLINK_CH61900-_-ade
1070
   515
1071
        1
1004
01002802000098010000970100000000000055D1808EDE39D23F55D1808EDE39D23FDE010000EA010000
1002
}
  0
POINT
  5
13A
330
777
100
AcDbEntity
  8
0X-ARCHAEOLOGY
100
AcDbPoint
 10
58429.47154
 20
37903.550237
 30
0.0
1001
IRD
1002
{
1000
TPMNODE_CH61900-_-ade
1070
   515
1071
        1
1004
0100970100000000000000000000
1002
}
  0
LWPOLYLINE
  5
13B
330
777
100
AcDbEntity
  8
0X-ARCHAEOLOGY
100
AcDbPolyline
 90
        2
 70
     0
 43
0.0
 10
58429.47154
 20
37903.550237
 10
58429.492217
 20
37904.74835
1001
IRD
1002
{
1000
TPMLINK_CH61900-_-ade
1070
   515
1071
        1
1004
010029020000970100009601000000000000A98D23F9322CF33FA98D23F9322CF33FDE010000E6010000
1002
}
  0
POINT
  5
13C
330
777
100
AcDbEntity
  8
0X-ARCHAEOLOGY
100
AcDbPoint
 10
58429.492217
 20
37904.74835
 30
0.0
1001
IRD
1002
{
1000
TPMNODE_CH61900-_-ade
1070
   515
1071
        1
1004
0100960100000000000000000000
1002
}
  0
LWPOLYLINE
  5
13D
330
777
100
AcDbEntity
  8
0X-ARCHAEOLOGY
100
AcDbPolyline
 90
        2
 70
     0
 43
0.0
 10
58429.492217
 20
37904.74835
 10
58429.495486
 20
37904.937814
1001
IRD
1002
{
1000
TPMLINK_CH61900-_-ade
1070
   515
1071
        1
1004
01002A020000960100009501000000000000D320DFD94C41C83FD320DFD94C41C83FDE010000EA010000
1002
}
  0
LWPOLYLINE
  5
13E
330
777
100
AcDbEntity
  8
0X-ARCHAEOLOGY
100
AcDbPolyline
 90
        8
 70
     0
 43
0.0
 10
58429.47154
 20
37903.550237
 10
58429.644787
 20
37903.691357
 10
58429.790053
 20
37903.901117
 10
58429.854615
 20
37904.058436
 10
58429.834439
 20
37904.312569
 10
58429.721455
 20
37904.530396
 10
58429.58426
 20
37904.69175
 10
58429.492217
 20
37904.74835
1001
IRD
1002
{
1000
TPMLINK_CH61900-_-ade
1070
   515
1071
        1
1004
01002B020000970100009601000000000000A57D3EFD4680F73FA57D3EFD4680F73FE6010000EA010000
1002
}
  0
POINT
  5
13F
330
777
100
AcDbEntity
  8
0X-ARCHAEOLOGY
100
AcDbPoint
 10
58429.664523
 20
37904.153057
 30
0.0
1001
IRD
1002
{
1000
TPMCNTR_CH61900-_-ade
1070
   515
1071
        1
1004
0100E6010000000000004646D33FA70531FB3C56054002000000
1002
}
  0
LWPOLYLINE
  5
140
330
777
100
AcDbEntity
  8
0X-EVALUATION
100
AcDbPolyline
 90
        4
 70
     1
 43
0.0
 10
58411.639535
 20
37907.66503
 10
58411.577214
 20
37905.671801
 10
58429.495486
 20
37904.937814
 10
58429.588404
 20
37906.918509
  0
LWPOLYLINE
  5
141
330
777
100
AcDbEntity
  8
0X-EVALUATION
100
AcDbPolyline
 90
        3
 70
     0
 43
0.0
 10
58409.192391
 20
37902.206951
 10
58429.372405
 20
37902.26717
 10
58429.495486
 20
37904.937814
  0
LWPOLYLINE
  5
142
330
777
100
AcDbEntity
  8
0X-EVALUATION
100
AcDbPolyline
 90
        9
 70
     0
 43
0.0
 10
58409.192391
 20
37902.206951
 10
58409.132152
 20
37900.249826
 10
58429.312166
 20
37900.340155
 10
58444.787413
 20
37900.460593
 10
58444.817533
 20
37902.32739
 10
58431.32403
 20
37902.357499
 10
58431.797089
 20
37916.251511
 10
58429.899565
 20
37916.341839
 10
58429.588404
 20
37906.918509
  0
LWPOLYLINE
  5
143
330
777
100
AcDbEntity
  8
0X-EVALUATION
100
AcDbPolyline
 90
        4
 70
     0
 43
0.0
 10
58437.459547
 20
37902.343808
 10
58437.730615
 20
37917.034361
 10
58439.808856
 20
37917.004251
 10
58439.475215
 20
37902.390996
  0
LWPOLYLINE
  5
144
330
777
100
AcDbEntity
  8
0X-EVALUATION
100
AcDbPolyline
 90
        4
 70
     1
 43
0.0
 10
58429.396314
 20
37868.363974
 10
58429.160336
 20
37886.313018
 10
58431.049814
 20
37886.313018
 10
58431.270976
 20
37868.361152
  0
LWPOLYLINE
  5
145
330
777
100
AcDbEntity
  8
0X-EVALUATION
100
AcDbPolyline
 90
        4
 70
     1
 43
0.0
 10
58403.771067
 20
37884.683729
 10
58403.941432
 20
37882.753553
 10
58422.000137
 20
37884.1728
 10
58421.829772
 20
37886.074592
  0
LWPOLYLINE
  5
146
330
777
100
AcDbEntity
  8
0X-EVALUATION
100
AcDbPolyline
 90
        4
 70
     1
 43
0.0
 10
58414.304007
 20
37868.696418
 10
58415.655865
 20
37867.587045
 10
58421.668604
 20
37875.554358
 10
58420.276393
 20
37876.845264
  0
LWPOLYLINE
  5
147
330
777
100
AcDbEntity
  8
0X-ARCHAEOLOGY
100
AcDbPolyline
 90
        2
 70
     0
 43
0.0
 10
58434.879419
 20
37902.292664
 10
58435.160726
 20
37901.649887
1001
IRD
1002
{
1000
TPMLINK_CH61900-_-ade
1070
   515
1071
        1
1004
01002C0200009A0100009E0100000000000006A8AD3ED073E63F06A8AD3ED073E63FE7010000EA010000
1002
}
  0
POINT
  5
148
330
777
100
AcDbEntity
  8
0X-ARCHAEOLOGY
100
AcDbPoint
 10
58434.879419
 20
37902.292664
 30
0.0
1001
IRD
1002
{
1000
TPMNODE_CH61900-_-ade
1070
   515
1071
        1
1004
01009A0100000000000000000000
1002
}
  0
POINT
  5
149
330
777
100
AcDbEntity
  8
0X-ARCHAEOLOGY
100
AcDbPoint
 10
58435.160726
 20
37901.649887
 30
0.0
1001
IRD
1002
{
1000
TPMNODE_CH61900-_-ade
1070
   515
1071
        1
1004
01009E0100000000000000000000
1002
}
  0
LWPOLYLINE
  5
14A
330
777
100
AcDbEntity
  8
0X-ARCHAEOLOGY
100
AcDbPolyline
 90
        6
 70
     0
 43
0.0
 10
58435.160726
 20
37901.649887
 10
58435.663059
 20
37900.625462
 10
58435.823805
 20
37900.364334
 10
58438.717242
 20
37900.404508
 10
58438.757429
 20
37901.6298
 10
58437.451363
 20
37901.690061
1001
IRD
1002
{
1000
TPMLINK_CH61900-_-ade
1070
   515
1071
        1
1004
01002D0200009E0100009D01000000000000789B9A44B67F1B40789B9A44B67F1B40E8010000EA010000
1002
}
  0
POINT
  5
14B
330
777
100
AcDbEntity
  8
0X-ARCHAEOLOGY
100
AcDbPoint
 10
58437.451363
 20
37901.690061
 30
0.0
1001
IRD
1002
{
1000
TPMNODE_CH61900-_-ade
1070
   515
1071
        1
1004
01009D0100000000000000000000
1002
}
  0
LWPOLYLINE
  5
14C
330
777
100
AcDbEntity
  8
0X-ARCHAEOLOGY
100
AcDbPolyline
 90
        3
 70
     0
 43
0.0
 10
58437.451363
 20
37901.690061
 10
58437.471457
 20
37902.332837
 10
58434.879419
 20
37902.292664
1001
IRD
1002
{
1000
TPMLINK_CH61900-_-ade
1070
   515
1071
        1
1004
01002E0200009D0100009A0100000000000024F84EE32DE2094024F84EE32DE20940E7010000EA010000
1002
}
  0
LWPOLYLINE
  5
14D
330
777
100
AcDbEntity
  8
0X-ARCHAEOLOGY
100
AcDbPolyline
 90
        2
 70
     0
 43
0.0
 10
58435.160726
 20
37901.649887
 10
58437.451363
 20
37901.690061
1001
IRD
1002
{
1000
TPMLINK_CH61900-_-ade
1070
   515
1071
        1
1004
01002F0200009E0100009D01000000000000A659857EF2530240A659857EF2530240E7010000E8010000
1002
}
  0
POINT
  5
14E
330
777
100
AcDbEntity
  8
0X-ARCHAEOLOGY
100
AcDbPoint
 10
58439.868929
 20
37902.300191
 30
0.0
1001
IRD
1002
{
1000
TPMNODE_CH61900-_-ade
1070
   515
1071
        1
1004
0100990100000000000000000000
1002
}
  0
LWPOLYLINE
  5
14F
330
777
100
AcDbEntity
  8
0X-ARCHAEOLOGY
100
AcDbPolyline
 90
        5
 70
     0
 43
0.0
 10
58439.868929
 20
37902.300191
 10
58439.994609
 20
37902.271204
 10
58440.997415
 20
37901.769961
 10
58441.423573
 20
37901.293759
 10
58442.075329
 20
37900.416583
1001
IRD
1002
{
1000
TPMLINK_CH61900-_-ade
1070
   515
1071
        1
1004
010030020000990100006A02000000000000FF7F2DB3FDDA0740FF7F2DB3FDDA0740E9010000EA010000
1002
}
  0
POINT
  5
150
330
777
100
AcDbEntity
  8
0X-ARCHAEOLOGY
100
AcDbPoint
 10
58443.692131
 20
37899.675527
 30
0.0
1001
IRD
1002
{
1000
TPMNODE_CH61900-_-ade
1070
   515
1071
        1
1004
0100A10100000000000000000000
1002
}
  0
LWPOLYLINE
  5
151
330
777
100
AcDbEntity
  8
0X-ARCHAEOLOGY
100
AcDbPolyline
 90
        6
 70
     0
 43
0.0
 10
58443.692131
 20
37899.675527
 10
58443.842483
 20
37898.497648
 10
58443.992973
 20
37897.670662
 10
58444.243606
 20
37895.289757
 10
58444.343886
 20
37893.961527
 10
58444.640802
 20
37892.986467
1001
IRD
1002
{
1000
TPMLINK_CH61900-_-ade
1070
   515
1071
        1
1004
010031020000A1010000A2010000000000007EF9750BE6171B407EF9750BE6171B4000000000EA010000
1002
}
  0
LWPOLYLINE
  5
152
330
777
100
AcDbEntity
  8
0X-ARCHAEOLOGY
100
AcDbPolyline
 90
        5
 70
     0
 43
0.0
 10
58439.868929
 20
37902.300191
 10
58443.157864
 20
37902.312751
 10
58443.25833
 20
37901.589627
 10
58443.62001
 20
37900.103206
 10
58443.692131
 20
37899.675527
1001
IRD
1002
{
1000
TPMLINK_CH61900-_-ade
1070
   515
1071
        1
1004
01003202000099010000A1010000000000009E4518E31DEE17409E4518E31DEE174000000000E9010000
1002
}
  0
POINT
  5
153
330
777
100
AcDbEntity
  8
0X-ARCHAEOLOGY
100
AcDbPoint
 10
58428.831487
 20
37906.973984
 30
0.0
1001
IRD
1002
{
1000
TPMNODE_CH61900-_-ade
1070
   515
1071
        1
1004
0100900100000000000000000000
1002
}
  0
LWPOLYLINE
  5
154
330
777
100
AcDbEntity
  8
0X-EXTRAPOLATED
100
AcDbPolyline
 90
        9
 70
     0
 43
0.0
 10
58428.831487
 20
37906.973984
 10
58429.565565
 20
37907.935122
 10
58429.740954
 20
37907.935122
 10
58430.894249
 20
37907.108135
 10
58431.495932
 20
37906.606892
 10
58437.688156
 20
37903.424042
 10
58438.941595
 20
37902.797488
 10
58439.342717
 20
37902.421555
 10
58439.868929
 20
37902.300191
1001
IRD
1002
{
1000
TPMLINK_CH61900-_-ade
1070
   515
1071
        1
1004
0100330200009001000099010000000000005B4D1AD8BA142A405B4D1AD8BA142A4000000000EA010000
1002
}
  0
POINT
  5
155
330
777
100
AcDbEntity
  8
0X-ARCHAEOLOGY
100
AcDbPoint
 10
58429.495486
 20
37904.937814
 30
0.0
1001
IRD
1002
{
1000
TPMNODE_CH61900-_-ade
1070
   515
1071
        1
1004
0100950100000000000000000000
1002
}
  0
LWPOLYLINE
  5
156
330
777
100
AcDbEntity
  8
0X-ARCHAEOLOGY
100
AcDbPolyline
 90
        2
 70
     0
 43
0.0
 10
58429.495486
 20
37904.937814
 10
58428.549177
 20
37904.987012
1001
IRD
1002
{
1000
TPMLINK_CH61900-_-ade
1070
   515
1071
        1
1004
0100340200009501000094010000000000006EF8DDA2A252EE3F6EF8DDA2A252EE3FDE010000E5010000
1002
}
  0
LWPOLYLINE
  5
157
330
777
100
AcDbEntity
  8
0X-ARCHAEOLOGY
100
AcDbPolyline
 90
        3
 70
     0
 43
0.0
 10
58429.495486
 20
37904.937814
 10
58429.587773
 20
37906.933489
 10
58428.831487
 20
37906.973984
1001
IRD
1002
{
1000
TPMLINK_CH61900-_-ade
1070
   515
1071
        1
1004
010035020000950100009001000000000000805E845E9A0A0640805E845E9A0A0640E5010000EA010000
1002
}
  0
POINT
  5
158
330
777
100
AcDbEntity
  8
0X-ARCHAEOLOGY
100
AcDbPoint
 10
58440.364757
 20
37900.505927
 30
0.0
1001
IRD
1002
{
1000
TPMCNTR_CH61900-_-ade
1070
   515
1071
        1
1004
0100EA010000000000CA397A514067C22EDAFFD34D400E000000
1002
}
  0
POINT
  5
159
330
777
100
AcDbEntity
  8
0X-ARCHAEOLOGY
100
AcDbPoint
 10
58424.119915
 20
37907.170548
 30
0.0
1001
IRD
1002
{
1000
TPMNODE_CH61900-_-ade
1070
   515
1071
        1
1004
01008D0100000000000000000000
1002
}
  0
LWPOLYLINE
  5
15A
330
777
100
AcDbEntity
  8
0X-EXTRAPOLATED
100
AcDbPolyline
 90
        9
 70
     0
 43
0.0
 10
58424.119915
 20
37907.170548
 10
58424.82187
 20
37907.679257
 10
58425.866949
 20
37908.643754
 10
58426.510222
 20
37909.547896
 10
58427.032694
 20
37910.210941
 10
58427.434774
 20
37910.914222
 10
58427.695941
 20
37911.456772
 10
58427.876939
 20
37911.697869
 10
58427.911661
 20
37911.736593
1001
IRD
1002
{
1000
TPMLINK_CH61900-_-ade
1070
   515
1071
        1
1004
0100360200008D0100008A01000000000000DF849E4FC1081840DF849E4FC108184000000000ED010000
1002
}
  0
LWPOLYLINE
  5
15B
330
777
100
AcDbEntity
  8
0X-ARCHAEOLOGY
100
AcDbPolyline
 90
        2
 70
     0
 43
0.0
 10
58420.239197
 20
37905.268175
 10
58425.281569
 20
37905.086709
1001
IRD
1002
{
1000
TPMLINK_CH61900-_-ade
1070
   515
1071
        1
1004
010037020000910100009301000000000000CEBCA651BB2E1440CEBCA651BB2E1440EB010000EC010000
1002
}
  0
POINT
  5
15C
330
777
100
AcDbEntity
  8
0X-ARCHAEOLOGY
100
AcDbPoint
 10
58425.715377
 20
37905.095038
 30
0.0
1001
IRD
1002
{
1000
TPMNODE_CH61900-_-ade
1070
   515
1071
        1
1004
0100920100000000000000000000
1002
}
  0
LWPOLYLINE
  5
15D
330
777
100
AcDbEntity
  8
0X-EXTRAPOLATED
100
AcDbPolyline
 90
        8
 70
     0
 43
0.0
 10
58425.715377
 20
37905.095038
 10
58425.56556
 20
37904.946712
 10
58424.058068
 20
37904.122935
 10
58422.570687
 20
37903.479902
 10
58421.103416
 20
37903.057954
 10
58419.977893
 20
37902.636114
 10
58419.333936
 20
37902.337872
 10
58419.138071
 20
37902.168198
1001
IRD
1002
{
1000
TPMLINK_CH61900-_-ade
1070
   515
1071
        1
1004
010038020000920100009C010000000000000E8DF2A194FC1C400E8DF2A194FC1C4000000000EC010000
1002
}
  0
POINT
  5
15E
330
777
100
AcDbEntity
  8
0X-ARCHAEOLOGY
100
AcDbPoint
 10
58427.643468
 20
37907.003947
 30
0.0
1001
IRD
1002
{
1000
TPMNODE_CH61900-_-ade
1070
   515
1071
        1
1004
01008F0100000000000000000000
1002
}
  0
LWPOLYLINE
  5
15F
330
777
100
AcDbEntity
  8
0X-ARCHAEOLOGY
100
AcDbPolyline
 90
        2
 70
     0
 43
0.0
 10
58427.643468
 20
37907.003947
 10
58425.715377
 20
37905.095038
1001
IRD
1002
{
1000
TPMLINK_CH61900-_-ade
1070
   515
1071
        1
1004
0100390200008F01000092010000000000001D520916A4B405401D520916A4B4054000000000E2010000
1002
}
  0
POINT
  5
160
330
777
100
AcDbEntity
  8
0X-ARCHAEOLOGY
100
AcDbPoint
 10
58426.105395
 20
37907.055213
 30
0.0
1001
IRD
1002
{
1000
TPMNODE_CH61900-_-ade
1070
   515
1071
        1
1004
01008E0100000000000000000000
1002
}
  0
LWPOLYLINE
  5
161
330
777
100
AcDbEntity
  8
0X-ARCHAEOLOGY
100
AcDbPolyline
 90
        2
 70
     0
 43
0.0
 10
58426.105395
 20
37907.055213
 10
58424.119915
 20
37907.170548
1001
IRD
1002
{
1000
TPMLINK_CH61900-_-ade
1070
   515
1071
        1
1004
01003A0200008E0100008D01000000000000ACF6A4243CD2FF3FACF6A4243CD2FF3FEB010000ED010000
1002
}
  0
POINT
  5
162
330
777
100
AcDbEntity
  8
0X-ARCHAEOLOGY
100
AcDbPoint
 10
58425.281569
 20
37905.086709
 30
0.0
1001
IRD
1002
{
1000
TPMNODE_CH61900-_-ade
1070
   515
1071
        1
1004
0100930100000000000000000000
1002
}
  0
LWPOLYLINE
  5
163
330
777
100
AcDbEntity
  8
0X-ARCHAEOLOGY
100
AcDbPolyline
 90
        4
 70
     0
 43
0.0
 10
58425.281569
 20
37905.086709
 10
58425.603063
 20
37905.669226
 10
58425.904462
 20
37906.271829
 10
58426.105395
 20
37907.055213
1001
IRD
1002
{
1000
TPMLINK_CH61900-_-ade
1070
   515
1071
        1
1004
01003B020000930100008E01000000000000CF93C10AD22E0140CF93C10AD22E0140EB010000E2010000
1002
}
  0
LWPOLYLINE
  5
164
330
777
100
AcDbEntity
  8
0X-ARCHAEOLOGY
100
AcDbPolyline
 90
        2
 70
     0
 43
0.0
 10
58425.281569
 20
37905.086709
 10
58425.715377
 20
37905.095038
1001
IRD
1002
{
1000
TPMLINK_CH61900-_-ade
1070
   515
1071
        1
1004
01003C0200009301000092010000000000007211D081CEC4DB3F7211D081CEC4DB3FE2010000EC010000
1002
}
  0
POINT
  5
165
330
777
100
AcDbEntity
  8
0X-ARCHAEOLOGY
100
AcDbPoint
 10
58419.835782
 20
37903.727925
 30
0.0
1001
IRD
1002
{
1000
TPMCNTR_CH61900-_-ade
1070
   515
1071
        1
1004
0100EC01000000000034DB66324064FD6B492159394005000000
1002
}
  0
LWPOLYLINE
  5
166
330
777
100
AcDbEntity
  8
0X-ARCHAEOLOGY
100
AcDbPolyline
 90
        2
 70
     0
 43
0.0
 10
58426.105395
 20
37907.055213
 10
58427.643468
 20
37907.003947
1001
IRD
1002
{
1000
TPMLINK_CH61900-_-ade
1070
   515
1071
        1
1004
01003D0200008E0100008F01000000000000A5C7161D729FF83FA5C7161D729FF83FED010000E2010000
1002
}
  0
POINT
  5
167
330
777
100
AcDbEntity
  8
0X-ARCHAEOLOGY
100
AcDbPoint
 10
58427.983764
 20
37909.385138
 30
0.0
1001
IRD
1002
{
1000
TPMCNTR_CH61900-_-ade
1070
   515
1071
        1
1004
0100ED010000000000B80B4B2840F43104B1B13E304005000000
1002
}
  0
LWPOLYLINE
  5
168
330
777
100
AcDbEntity
  8
0X-HACHURES
100
AcDbPolyline
 90
        6
 70
     0
 43
0.0
 10
58429.487832
 20
37904.494304
 10
58429.652318
 20
37904.316341
 10
58429.718254
 20
37904.224061
 10
58429.705067
 20
37904.032909
 10
58429.533633
 20
37903.795616
 10
58429.47498
 20
37903.749578
  0
POINT
  5
169
330
777
100
AcDbEntity
  8
0X-ARCHAEOLOGY
100
AcDbPoint
 10
58412.676673
 20
37881.537788
 30
0.0
1001
IRD
1002
{
1000
TPMNODE_CH61900-_-ade
1070
   515
1071
        1
1004
0100B20100000000000000000000
1002
}
  0
POINT
  5
16A
330
777
100
AcDbEntity
  8
0X-ARCHAEOLOGY
100
AcDbPoint
 10
58408.265756
 20
37890.44063
 30
0.0
1001
IRD
1002
{
1000
TPMCNTR_CH61900-_-ade
1070
   515
1071
        1
1004
0100EE0100000000003E98344F405C5B9FF1123C534010000000
1002
}
  0
POINT
  5
16B
330
777
100
AcDbEntity
  8
0X-ARCHAEOLOGY
100
AcDbPoint
 10
58416.956595
 20
37875.399865
 30
0.0
1001
IRD
1002
{
1000
TPMCNTR_CH61900-_-ade
1070
   515
1071
        1
1004
0100EF0100000000002893012540B87EC1525A48384007000000
1002
}
  0
LWPOLYLINE
  5
16C
330
777
100
AcDbEntity
  8
0X-EVALUATION
100
AcDbPolyline
 90
        4
 70
     1
 43
0.0
 10
58443.692131
 20
37899.675527
 10
58443.595226
 20
37869.94909
 10
58445.529626
 20
37870.00769
 10
58445.471007
 20
37899.659258
  0
LWPOLYLINE
  5
16D
330
777
100
AcDbEntity
  8
0X-EVALUATION
100
AcDbPolyline
 90
        4
 70
     0
 43
0.0
 10
58427.911661
 20
37911.736593
 10
58426.211425
 20
37913.282858
 10
58427.560359
 20
37914.830949
 10
58429.375962
 20
37913.314705
  0
POINT
  5
16E
330
777
100
AcDbEntity
  8
0X-ARCHAEOLOGY
100
AcDbPoint
 10
58434.392885
 20
37900.368273
 30
0.0
1001
IRD
1002
{
1000
TPMNODE_CH61900-_-ade
1070
   515
1071
        1
1004
0100680200000000000000000000
1002
}
  0
LWPOLYLINE
  5
16F
330
777
100
AcDbEntity
  8
0X-ARCHAEOLOGY
100
AcDbPolyline
 90
        6
 70
     0
 43
0.0
 10
58434.392885
 20
37900.368273
 10
58433.952738
 20
37900.559551
 10
58432.498738
 20
37901.486915
 10
58431.646285
 20
37902.038239
 10
58431.170055
 20
37902.238779
 10
58429.466626
 20
37903.265498
1001
IRD
1002
{
1000
TPMLINK_CH61900-_-ade
1070
   515
1071
        1
1004
0100690200006802000098010000000000001CBF211CBEE616401CBF211CBEE6164000000000EA010000
1002
}
  0
POINT
  5
170
330
777
100
AcDbEntity
  8
0X-ARCHAEOLOGY
100
AcDbPoint
 10
58442.075329
 20
37900.416583
 30
0.0
1001
IRD
1002
{
1000
TPMNODE_CH61900-_-ade
1070
   515
1071
        1
1004
01006A0200000000000000000000
1002
}
  0
LWPOLYLINE
  5
171
330
777
100
AcDbEntity
  8
0X-EXTRAPOLATED
100
AcDbPolyline
 90
        2
 70
     0
 43
0.0
 10
58442.075329
 20
37900.416583
 10
58443.692131
 20
37899.675527
1001
IRD
1002
{
1000
TPMLINK_CH61900-_-ade
1070
   515
1071
        1
1004
01006B0200006A020000A101000000000000F640B40AE974FC3FF640B40AE974FC3FE9010000EA010000
1002
}
  0
POINT
  5
172
330
777
100
AcDbEntity
  8
0X-ARCHAEOLOGY
100
AcDbPoint
 10
58443.659308
 20
37879.767079
 30
0.0
1001
IRD
1002
{
1000
TPMNODE_CH61900-_-ade
1070
   515
1071
        1
1004
01006C0200000000000000000000
1002
}
  0
LWPOLYLINE
  5
173
330
777
100
AcDbEntity
  8
0X-EXTRAPOLATED
100
AcDbPolyline
 90
       14
 70
     0
 43
0.0
 10
58443.659308
 20
37879.767079
 10
58443.381439
 20
37878.67522
 10
58442.679475
 20
37877.04618
 10
58442.077791
 20
37875.51741
 10
58441.275547
 20
37874.464842
 10
58440.347985
 20
37873.387127
 10
58439.44546
 20
37872.510059
 10
58438.643216
 20
37871.908546
 10
58437.866144
 20
37871.382262
 10
58436.738021
 20
37871.03137
 10
58434.632129
 20
37870.680479
 10
58432.802042
 20
37870.379776
 10
58431.272661
 20
37869.978803
 10
58431.264943
 20
37869.977373
1001
IRD
1002
{
1000
TPMLINK_CH61900-_-ade
1070
   515
1071
        1
1004
01006D0200006C020000C9010000000000002AC4D6A0963F31402AC4D6A0963F314000000000D3010000
1002
}
  0
LWPOLYLINE
  5
174
330
777
100
AcDbEntity
  8
0X-WATCHINGBRIEF
100
AcDbPolyline
 90
        4
 70
     0
 43
0.0
 10
58409.577321
 20
37881.532939
 10
58409.469197
 20
37881.878783
 10
58409.361073
 20
37882.116551
 10
58409.279513
 20
37882.422266
1001
IRD
1002
{
1000
TPMLINK_CH61900-_-ade
1070
   515
1071
        1
1004
0100700200006E0200008102000000000000EE7285B42114EE3FEE7285B42114EE3FEE0100006F020000
1002
}
  0
POINT
  5
175
330
777
100
AcDbEntity
  8
0X-ARCHAEOLOGY
100
AcDbPoint
 10
58409.577321
 20
37881.532939
 30
0.0
1001
IRD
1002
{
1000
TPMNODE_CH61900-_-ade
1070
   515
1071
        1
1004
01006E0200000000000000000000
1002
}
  0
LWPOLYLINE
  5
176
330
777
100
AcDbEntity
  8
0X-WATCHINGBRIEF
100
AcDbPolyline
 90
       14
 70
     0
 43
0.0
 10
58411.561989
 20
37881.467019
 10
58411.561989
 20
37881.581955
 10
58411.613733
 20
37881.748613
 10
58411.722971
 20
37881.829068
 10
58411.855207
 20
37881.834815
 10
58411.993191
 20
37881.760107
 10
58412.039186
 20
37881.685398
 10
58412.079432
 20
37881.524487
 10
58412.027687
 20
37881.380817
 10
58411.9127
 20
37881.300361
 10
58411.82071
 20
37881.288868
 10
58411.722971
 20
37881.300361
 10
58411.630982
 20
37881.369323
 10
58411.561989
 20
37881.467019
1001
IRD
1002
{
1000
TPMLINK_CH61900-_-ade
1070
   515
1071
        1
1004
010073020000710200007102000000000000B493E8D0C6FCFA3FB493E8D0C6FCFA3FEE01000072020000
1002
}
  0
POINT
  5
177
330
777
100
AcDbEntity
  8
0X-ARCHAEOLOGY
100
AcDbPoint
 10
58411.561989
 20
37881.467019
 30
0.0
1001
IRD
1002
{
1000
TPMNODE_CH61900-_-ade
1070
   515
1071
        1
1004
0100710200000000000000000000
1002
}
  0
POINT
  5
178
330
777
100
AcDbEntity
  8
0X-WATCHINGBRIEF
100
AcDbPoint
 10
58410.636938
 20
37881.835553
 30
0.0
1001
IRD
1002
{
1000
TPMNODE_CH61900-_-ade
1070
   515
1071
        1
1004
0100780200000000000000000000
1002
}
  0
LWPOLYLINE
  5
179
330
777
100
AcDbEntity
  8
0X-WATCHINGBRIEF
100
AcDbPolyline
 90
        2
 70
     0
 43
0.0
 10
58410.636938
 20
37881.835553
 10
58409.577321
 20
37881.532939
1001
IRD
1002
{
1000
TPMLINK_CH61900-_-ade
1070
   515
1071
        1
1004
010079020000780200006E02000000000000D3A8CF8BB7A1F13FD3A8CF8BB7A1F13F7B0200006F020000
1002
}
  0
POINT
  5
17A
330
777
100
AcDbEntity
  8
0X-WATCHINGBRIEF
100
AcDbPoint
 10
58409.279513
 20
37882.422266
 30
0.0
1001
IRD
1002
{
1000
TPMNODE_CH61900-_-ade
1070
   515
1071
        1
1004
0100810200000000000000000000
1002
}
  0
LWPOLYLINE
  5
17B
330
777
100
AcDbEntity
  8
0X-WATCHINGBRIEF
100
AcDbPolyline
 90
        4
 70
     0
 43
0.0
 10
58409.279513
 20
37882.422266
 10
58409.274573
 20
37882.440781
 10
58409.101574
 20
37883.046008
 10
58409.047835
 20
37883.274298
1001
IRD
1002
{
1000
TPMLINK_CH61900-_-ade
1070
   515
1071
        1
1004
010082020000810200008302000000000000363602F0D642EC3F363602F0D642EC3FEE01000089020000
1002
}
  0
POINT
  5
17C
330
777
100
AcDbEntity
  8
0X-WATCHINGBRIEF
100
AcDbPoint
 10
58409.047835
 20
37883.274298
 30
0.0
1001
IRD
1002
{
1000
TPMNODE_CH61900-_-ade
1070
   515
1071
        1
1004
0100830200000000000000000000
1002
}
  0
LWPOLYLINE
  5
17D
330
777
100
AcDbEntity
  8
0X-WATCHINGBRIEF
100
AcDbPolyline
 90
       11
 70
     0
 43
0.0
 10
58409.047835
 20
37883.274298
 10
58409.015075
 20
37883.413468
 10
58408.928576
 20
37883.975465
 10
58408.798827
 20
37884.623924
 10
58408.755577
 20
37884.991383
 10
58408.647453
 20
37885.51015
 10
58408.539329
 20
37886.245069
 10
58408.214956
 20
37887.606832
 10
58408.128456
 20
37888.363366
 10
58407.955458
 20
37889.119901
 10
58407.923077
 20
37889.314098
1001
IRD
1002
{
1000
TPMLINK_CH61900-_-ade
1070
   515
1071
        1
1004
01008402000083020000AC02000000000000913CDDAF81991840913CDDAF81991840EE0100008B020000
1002
}
  0
POINT
  5
17E
330
777
100
AcDbEntity
  8
0X-WATCHINGBRIEF
100
AcDbPoint
 10
58410.066261
 20
37883.590057
 30
0.0
1001
IRD
1002
{
1000
TPMNODE_CH61900-_-ade
1070
   515
1071
        1
1004
0100850200000000000000000000
1002
}
  0
LWPOLYLINE
  5
17F
330
777
100
AcDbEntity
  8
0X-WATCHINGBRIEF
100
AcDbPolyline
 90
        3
 70
     0
 43
0.0
 10
58410.066261
 20
37883.590057
 10
58410.226066
 20
37883.110854
 10
58410.299435
 20
37882.744173
1001
IRD
1002
{
1000
TPMLINK_CH61900-_-ade
1070
   515
1071
        1
1004
010086020000850200008702000000000000AD99199F8B21EC3FAD99199F8B21EC3FEE01000089020000
1002
}
  0
POINT
  5
180
330
777
100
AcDbEntity
  8
0X-WATCHINGBRIEF
100
AcDbPoint
 10
58410.299435
 20
37882.744173
 30
0.0
1001
IRD
1002
{
1000
TPMNODE_CH61900-_-ade
1070
   515
1071
        1
1004
0100870200000000000000000000
1002
}
  0
LWPOLYLINE
  5
181
330
777
100
AcDbEntity
  8
0X-WATCHINGBRIEF
100
AcDbPolyline
 90
        3
 70
     0
 43
0.0
 10
58410.299435
 20
37882.744173
 10
58410.33419
 20
37882.570472
 10
58410.636938
 20
37881.835553
1001
IRD
1002
{
1000
TPMLINK_CH61900-_-ade
1070
   515
1071
        1
1004
010088020000870200007802000000000000CDE145ED731AEF3FCDE145ED731AEF3FEE0100006F020000
1002
}
  0
LWPOLYLINE
  5
182
330
777
100
AcDbEntity
  8
0X-WATCHINGBRIEF
100
AcDbPolyline
 90
        3
 70
     0
 43
0.0
 10
58409.279513
 20
37882.422266
 10
58410.168991
 20
37882.69825
 10
58410.299435
 20
37882.744173
1001
IRD
1002
{
1000
TPMLINK_CH61900-_-ade
1070
   515
1071
        1
1004
01008A020000810200008702000000000000EBE7CCBF161DF13FEBE7CCBF161DF13F890200006F020000
1002
}
  0
LWPOLYLINE
  5
183
330
777
100
AcDbEntity
  8
0X-WATCHINGBRIEF
100
AcDbPolyline
 90
        2
 70
     0
 43
0.0
 10
58409.047835
 20
37883.274298
 10
58410.066261
 20
37883.590057
1001
IRD
1002
{
1000
TPMLINK_CH61900-_-ade
1070
   515
1071
        1
1004
01008C0200008302000085020000000000004163A10F5F0FF13F4163A10F5F0FF13F8B02000089020000
1002
}
  0
LWPOLYLINE
  5
184
330
777
100
AcDbEntity
  8
0X-WATCHINGBRIEF
100
AcDbPolyline
 90
       22
 70
     0
 43
0.0
 10
58418.624283
 20
37879.633377
 10
58418.800153
 20
37879.796307
 10
58419.00605
 20
37879.89921
 10
58419.220526
 20
37879.903497
 10
58419.45216
 20
37879.813457
 10
58419.62803
 20
37879.667678
 10
58419.833927
 20
37879.479023
 10
58419.936876
 20
37879.324669
 10
58419.949744
 20
37879.140301
 10
58419.911139
 20
37878.938783
 10
58419.778164
 20
37878.732977
 10
58419.572267
 20
37878.548609
 10
58419.443581
 20
37878.445706
 10
58419.199079
 20
37878.428556
 10
58418.924549
 20
37878.505733
 10
58418.727232
 20
37878.647224
 10
58418.572809
 20
37878.831592
 10
58418.47844
 20
37879.041686
 10
58418.439834
 20
37879.238916
 10
58418.461282
 20
37879.427571
 10
58418.534203
 20
37879.53905
 10
58418.624283
 20
37879.633377
1001
IRD
1002
{
1000
TPMLINK_CH61900-_-ade
1070
   515
1071
        1
1004
01008F0200008D0200008D020000000000001F636583266712401F63658326671240000000008E020000
1002
}
  0
POINT
  5
185
330
777
100
AcDbEntity
  8
0X-ARCHAEOLOGY
100
AcDbPoint
 10
58418.624283
 20
37879.633377
 30
0.0
1001
IRD
1002
{
1000
TPMNODE_CH61900-_-ade
1070
   515
1071
        1
1004
01008D0200000000000000000000
1002
}
  0
POINT
  5
186
330
777
100
AcDbEntity
  8
0X-WATCHINGBRIEF
100
AcDbPoint
 10
58417.601815
 20
37873.219287
 30
0.0
1001
IRD
1002
{
1000
TPMNODE_CH61900-_-ade
1070
   515
1071
        1
1004
0100900200000000000000000000
1002
}
  0
LWPOLYLINE
  5
187
330
777
100
AcDbEntity
  8
0X-ARCHAEOLOGY
100
AcDbPolyline
 90
        2
 70
     0
 43
0.0
 10
58417.601815
 20
37873.219287
 10
58418.08998
 20
37873.887118
1001
IRD
1002
{
1000
TPMLINK_CH61900-_-ade
1070
   515
1071
        1
1004
01009102000090020000920200000000000082066F91A378EA3F82066F91A378EA3F98020000E3010000
1002
}
  0
POINT
  5
188
330
777
100
AcDbEntity
  8
0X-WATCHINGBRIEF
100
AcDbPoint
 10
58418.08998
 20
37873.887118
 30
0.0
1001
IRD
1002
{
1000
TPMNODE_CH61900-_-ade
1070
   515
1071
        1
1004
0100920200000000000000000000
1002
}
  0
LWPOLYLINE
  5
189
330
777
100
AcDbEntity
  8
0X-ARCHAEOLOGY
100
AcDbPolyline
 90
        2
 70
     0
 43
0.0
 10
58418.08998
 20
37873.887118
 10
58418.700983
 20
37874.722998
1001
IRD
1002
{
1000
TPMLINK_CH61900-_-ade
1070
   515
1071
        1
1004
01009302000092020000C301000000000000FBE800F5EE90F03FFBE800F5EE90F03FEF0100009C020000
1002
}
  0
POINT
  5
18A
330
777
100
AcDbEntity
  8
0X-WATCHINGBRIEF
100
AcDbPoint
 10
58419.239611
 20
37872.423687
 30
0.0
1001
IRD
1002
{
1000
TPMNODE_CH61900-_-ade
1070
   515
1071
        1
1004
0100940200000000000000000000
1002
}
  0
LWPOLYLINE
  5
18B
330
777
100
AcDbEntity
  8
0X-ARCHAEOLOGY
100
AcDbPolyline
 90
        2
 70
     0
 43
0.0
 10
58419.239611
 20
37872.423687
 10
58419.655037
 20
37872.988539
1001
IRD
1002
{
1000
TPMLINK_CH61900-_-ade
1070
   515
1071
        1
1004
0100950200009402000096020000000000003FE01731F86FE63F3FE01731F86FE63FE30100009E020000
1002
}
  0
POINT
  5
18C
330
777
100
AcDbEntity
  8
0X-WATCHINGBRIEF
100
AcDbPoint
 10
58419.655037
 20
37872.988539
 30
0.0
1001
IRD
1002
{
1000
TPMNODE_CH61900-_-ade
1070
   515
1071
        1
1004
0100960200000000000000000000
1002
}
  0
LWPOLYLINE
  5
18D
330
777
100
AcDbEntity
  8
0X-ARCHAEOLOGY
100
AcDbPolyline
 90
        2
 70
     0
 43
0.0
 10
58419.655037
 20
37872.988539
 10
58420.116775
 20
37873.616362
1001
IRD
1002
{
1000
TPMLINK_CH61900-_-ade
1070
   515
1071
        1
1004
01009702000096020000C401000000000000D25D4BD851F0E83FD25D4BD851F0E83F9C020000E1010000
1002
}
  0
LWPOLYLINE
  5
18E
330
777
100
AcDbEntity
  8
0X-WATCHINGBRIEF
100
AcDbPolyline
 90
        7
 70
     0
 43
0.0
 10
58417.601815
 20
37873.219287
 10
58416.974893
 20
37873.533131
 10
58416.724951
 20
37873.672743
 10
58416.394144
 20
37873.922575
 10
58415.806043
 20
37874.282628
 10
58415.232645
 20
37874.738204
 10
58414.944406
 20
37874.958886
1001
IRD
1002
{
1000
TPMLINK_CH61900-_-ade
1070
   515
1071
        1
1004
01009902000090020000A602000000000000008F23A8B17E0940008F23A8B17E0940EF01000098020000
1002
}
  0
LWPOLYLINE
  5
18F
330
777
100
AcDbEntity
  8
0X-WATCHINGBRIEF
100
AcDbPolyline
 90
        4
 70
     0
 43
0.0
 10
58417.601815
 20
37873.219287
 10
58418.213236
 20
37872.882235
 10
58418.771932
 20
37872.566271
 10
58419.239611
 20
37872.423687
1001
IRD
1002
{
1000
TPMLINK_CH61900-_-ade
1070
   515
1071
        1
1004
01009B020000900200009402000000000000295032566343FD3F295032566343FD3FE30100009A020000
1002
}
  0
POINT
  5
190
330
777
100
AcDbEntity
  8
0X-ARCHAEOLOGY
100
AcDbPoint
 10
58417.926362
 20
37872.146046
 30
0.0
1001
IRD
1002
{
1000
TPMCNTR_CH61900-_-ade
1070
   515
1071
        1
1004
01009A02000000000040340506403F55DA3EBD041B4004000000
1002
}
  0
LWPOLYLINE
  5
191
330
777
100
AcDbEntity
  8
0X-WATCHINGBRIEF
100
AcDbPolyline
 90
        7
 70
     0
 43
0.0
 10
58418.08998
 20
37873.887118
 10
58418.374964
 20
37873.71256
 10
58418.536692
 20
37873.63908
 10
58418.867498
 20
37873.433336
 10
58419.161549
 20
37873.227591
 10
58419.426194
 20
37873.095328
 10
58419.655037
 20
37872.988539
1001
IRD
1002
{
1000
TPMLINK_CH61900-_-ade
1070
   515
1071
        1
1004
01009D020000920200009602000000000000DC6C49BF52F0FC3FDC6C49BF52F0FC3F9C020000E3010000
1002
}
  0
POINT
  5
192
330
777
100
AcDbEntity
  8
0X-ARCHAEOLOGY
100
AcDbPoint
 10
58418.965637
 20
37873.861217
 30
0.0
1001
IRD
1002
{
1000
TPMCNTR_CH61900-_-ade
1070
   515
1071
        1
1004
01009C020000000000006D41FA3FF754E7619BAE154004000000
1002
}
  0
LWPOLYLINE
  5
193
330
777
100
AcDbEntity
  8
0X-WATCHINGBRIEF
100
AcDbPolyline
 90
        5
 70
     0
 43
0.0
 10
58419.239611
 20
37872.423687
 10
58419.536463
 20
37872.316439
 10
58419.955484
 20
37872.198871
 10
58420.315696
 20
37872.088651
 10
58420.602395
 20
37872.05191
1001
IRD
1002
{
1000
TPMLINK_CH61900-_-ade
1070
   515
1071
        1
1004
01009F02000094020000A0020000000000009FA17FD64AAAF63F9FA17FD64AAAF63F9E020000E1010000
1002
}
  0
POINT
  5
194
330
777
100
AcDbEntity
  8
0X-WATCHINGBRIEF
100
AcDbPoint
 10
58420.602395
 20
37872.05191
 30
0.0
1001
IRD
1002
{
1000
TPMNODE_CH61900-_-ade
1070
   515
1071
        1
1004
0100A00200000000000000000000
1002
}
  0
LWPOLYLINE
  5
195
330
777
100
AcDbEntity
  8
0X-WATCHINGBRIEF
100
AcDbPolyline
 90
        7
 70
     0
 43
0.0
 10
58420.602395
 20
37872.05191
 10
58420.874391
 20
37871.971083
 10
58421.116983
 20
37871.890254
 10
58421.175793
 20
37872.176827
 10
58420.918499
 20
37872.309091
 10
58420.764122
 20
37872.397267
 10
58420.697581
 20
37872.425772
1001
IRD
1002
{
1000
TPMLINK_CH61900-_-ade
1070
   515
1071
        1
1004
0100A1020000A0020000A2020000000000000E7A04C78CF1F53F0E7A04C78CF1F53FA4020000E1010000
1002
}
  0
POINT
  5
196
330
777
100
AcDbEntity
  8
0X-WATCHINGBRIEF
100
AcDbPoint
 10
58420.697581
 20
37872.425772
 30
0.0
1001
IRD
1002
{
1000
TPMNODE_CH61900-_-ade
1070
   515
1071
        1
1004
0100A20200000000000000000000
1002
}
  0
LWPOLYLINE
  5
197
330
777
100
AcDbEntity
  8
0X-WATCHINGBRIEF
100
AcDbPolyline
 90
        7
 70
     0
 43
0.0
 10
58420.697581
 20
37872.425772
 10
58420.558287
 20
37872.485443
 10
58420.330398
 20
37872.588315
 10
58420.109861
 20
37872.749971
 10
58419.926079
 20
37872.852843
 10
58419.779054
 20
37872.933671
 10
58419.655037
 20
37872.988539
1001
IRD
1002
{
1000
TPMLINK_CH61900-_-ade
1070
   515
1071
        1
1004
0100A3020000A20200009602000000000000489A1C033406F33F489A1C033406F33F9E020000E1010000
1002
}
  0
LWPOLYLINE
  5
198
330
777
100
AcDbEntity
  8
0X-WATCHINGBRIEF
100
AcDbPolyline
 90
        2
 70
     0
 43
0.0
 10
58420.602395
 20
37872.05191
 10
58420.697581
 20
37872.425772
1001
IRD
1002
{
1000
TPMLINK_CH61900-_-ade
1070
   515
1071
        1
1004
0100A5020000A0020000A20200000000000006BF7A93C2B0D83F06BF7A93C2B0D83F9E020000A4020000
1002
}
  0
POINT
  5
199
330
777
100
AcDbEntity
  8
0X-WATCHINGBRIEF
100
AcDbPoint
 10
58414.944406
 20
37874.958886
 30
0.0
1001
IRD
1002
{
1000
TPMNODE_CH61900-_-ade
1070
   515
1071
        1
1004
0100A60200000000000000000000
1002
}
  0
LWPOLYLINE
  5
19A
330
777
100
AcDbEntity
  8
0X-WATCHINGBRIEF
100
AcDbPolyline
 90
       14
 70
     0
 43
0.0
 10
58414.944406
 20
37874.958886
 10
58414.887136
 20
37875.002732
 10
58414.490168
 20
37875.348088
 10
58414.218172
 20
37875.546485
 10
58414.078498
 20
37875.686097
 10
58414.093201
 20
37875.781621
 10
58414.328441
 20
37876.149021
 10
58414.512222
 20
37876.384157
 10
58414.67395
 20
37876.479681
 10
58414.843029
 20
37876.406201
 10
58415.019459
 20
37876.244545
 10
58415.350265
 20
37875.943277
 10
58415.54875
 20
37875.730185
 10
58415.578255
 20
37875.708276
1001
IRD
1002
{
1000
TPMLINK_CH61900-_-ade
1070
   515
1071
        1
1004
0100A7020000A6020000A8020000000000009E59AA2D28CE0A409E59AA2D28CE0A40EF010000AA020000
1002
}
  0
POINT
  5
19B
330
777
100
AcDbEntity
  8
0X-WATCHINGBRIEF
100
AcDbPoint
 10
58415.578255
 20
37875.708276
 30
0.0
1001
IRD
1002
{
1000
TPMNODE_CH61900-_-ade
1070
   515
1071
        1
1004
0100A80200000000000000000000
1002
}
  0
LWPOLYLINE
  5
19C
330
777
100
AcDbEntity
  8
0X-WATCHINGBRIEF
100
AcDbPolyline
 90
        7
 70
     0
 43
0.0
 10
58415.578255
 20
37875.708276
 10
58415.806043
 20
37875.539137
 10
58416.19566
 20
37875.23052
 10
58416.452954
 20
37875.017428
 10
58417.041055
 20
37874.620636
 10
58417.629155
 20
37874.201799
 10
58418.08998
 20
37873.887118
1001
IRD
1002
{
1000
TPMLINK_CH61900-_-ade
1070
   515
1071
        1
1004
0100A9020000A80200009202000000000000F469A55597D50840F469A55597D50840EF01000098020000
1002
}
  0
LWPOLYLINE
  5
19D
330
777
100
AcDbEntity
  8
0X-WATCHINGBRIEF
100
AcDbPolyline
 90
        2
 70
     0
 43
0.0
 10
58414.944406
 20
37874.958886
 10
58415.578255
 20
37875.708276
1001
IRD
1002
{
1000
TPMLINK_CH61900-_-ade
1070
   515
1071
        1
1004
0100AB020000A6020000A802000000000000FDBDAB077C68EF3FFDBDAB077C68EF3FAA02000098020000
1002
}
  0
LWPOLYLINE
  5
19E
330
777
100
AcDbEntity
  8
0X-HACHURES
100
AcDbPolyline
 90
        9
 70
     0
 43
0.0
 10
58415.077641
 20
37875.219316
 10
58414.904694
 20
37875.404534
 10
58414.744101
 20
37875.565057
 10
58414.59586
 20
37875.750275
 10
58414.509387
 20
37875.873754
 10
58414.620567
 20
37875.997233
 10
58414.756454
 20
37875.972537
 10
58414.941754
 20
37875.651492
 10
58415.278722
 20
37875.354143
  0
LWPOLYLINE
  5
19F
330
777
100
AcDbEntity
  8
0X-HACHURES
100
AcDbPolyline
 90
       10
 70
     0
 43
0.0
 10
58418.669566
 20
37879.589988
 10
58418.574141
 20
37879.448453
 10
58418.521811
 20
37879.29461
 10
58418.571063
 20
37879.033078
 10
58418.657253
 20
37878.891543
 10
58418.808085
 20
37878.746931
 10
58418.961996
 20
37878.673086
 10
58419.122063
 20
37878.596165
 10
58419.291365
 20
37878.577704
 10
58419.442197
 20
37878.651548
  0
LWPOLYLINE
  5
1A0
330
777
100
AcDbEntity
  8
0X-HACHURES
100
AcDbPolyline
 90
        8
 70
     0
 43
0.0
 10
58418.808085
 20
37879.454607
 10
58418.743443
 20
37879.266919
 10
58418.792694
 20
37878.971541
 10
58418.906588
 20
37878.842313
 10
58418.998934
 20
37878.771546
 10
58419.122063
 20
37878.743854
 10
58419.2298
 20
37878.743854
 10
58419.349851
 20
37878.765392
  0
LWPOLYLINE
  5
1A1
330
777
100
AcDbEntity
  8
0X-HACHURES
100
AcDbPolyline
 90
        5
 70
     0
 43
0.0
 10
58418.857337
 20
37878.937695
 10
58418.995856
 20
37878.959233
 10
58419.100515
 20
37878.910004
 10
58419.199018
 20
37878.84539
 10
58419.268261
 20
37878.750754
  0
LWPOLYLINE
  5
1A2
330
777
100
AcDbEntity
  8
0X-HACHURES
100
AcDbPolyline
 90
        2
 70
     0
 43
0.0
 10
58420.652125
 20
37872.247234
 10
58421.148504
 20
37872.043849
  0
LWPOLYLINE
  5
1A3
330
777
100
AcDbEntity
  8
0X-HACHURES
100
AcDbPolyline
 90
        2
 70
     0
 43
0.0
 10
58420.632437
 20
37872.169907
 10
58421.142868
 20
37872.01639
  0
LWPOLYLINE
  5
1A4
330
777
100
AcDbEntity
  8
0X-HACHURES
100
AcDbPolyline
 90
        2
 70
     0
 43
0.0
 10
58409.46251
 20
37883.402866
 10
58409.660839
 20
37882.540583
  0
LWPOLYLINE
  5
1A5
330
777
100
AcDbEntity
  8
0X-HACHURES
100
AcDbPolyline
 90
        2
 70
     0
 43
0.0
 10
58409.660767
 20
37883.464335
 10
58409.898617
 20
37882.61436
  0
LWPOLYLINE
  5
1A6
330
777
100
AcDbEntity
  8
0X-HACHURES
100
AcDbPolyline
 90
        9
 70
     0
 43
0.0
 10
58409.974145
 20
37881.589253
 10
58410.141315
 20
37881.125098
 10
58410.20323
 20
37880.933248
 10
58410.302293
 20
37880.790907
 10
58410.494229
 20
37880.809473
 10
58410.587101
 20
37880.896115
 10
58410.605675
 20
37881.007513
 10
58410.469463
 20
37881.391214
 10
58410.34015
 20
37881.750794
  0
LWPOLYLINE
  5
1A7
330
777
100
AcDbEntity
  8
0X-HACHURES
100
AcDbPolyline
 90
        6
 70
     0
 43
0.0
 10
58410.086303
 20
37881.277843
 10
58410.215613
 20
37881.236496
 10
58410.289911
 20
37881.273628
 10
58410.388974
 20
37881.292194
 10
58410.426123
 20
37881.354081
 10
58410.452832
 20
37881.437461
  0
LWPOLYLINE
  5
1A8
330
777
100
AcDbEntity
  8
0X-HACHURES
100
AcDbPolyline
 90
        6
 70
     0
 43
0.0
 10
58411.738715
 20
37881.521177
 10
58411.800629
 20
37881.415969
 10
58411.862544
 20
37881.422157
 10
58411.899693
 20
37881.45929
 10
58411.936842
 20
37881.5088
 10
58411.924459
 20
37881.620197
  0
LWPOLYLINE
  5
1A9
330
777
100
AcDbEntity
  8
0X-SECTIONS
100
AcDbPolyline
 90
        4
 70
     0
 43
0.0
 10
58409.548702
 20
37881.308843
 10
58409.466615
 20
37881.46179
 10
58410.79142
 20
37881.886312
 10
58410.840951
 20
37881.731594
  0
LWPOLYLINE
  5
1AA
330
777
100
AcDbEntity
  8
0X-SECTIONS
100
AcDbPolyline
 90
        4
 70
     0
 43
0.0
 10
58411.571545
 20
37881.323138
 10
58411.561989
 20
37881.467019
 10
58412.066863
 20
37881.713028
 10
58412.14116
 20
37881.552121
  0
LWPOLYLINE
  5
1AB
330
777
100
AcDbEntity
  8
0X-SECTIONS
100
AcDbPolyline
 90
        4
 70
     0
 43
0.0
 10
58409.02685
 20
37882.468053
 10
58409.063999
 20
37882.344279
 10
58410.450889
 20
37882.796056
 10
58410.388974
 20
37883.025039
  0
LWPOLYLINE
  5
1AC
330
777
100
AcDbEntity
  8
0X-SECTIONS
100
AcDbPolyline
 90
        4
 70
     0
 43
0.0
 10
58414.649305
 20
37874.927942
 10
58414.831252
 20
37874.832223
 10
58415.712257
 20
37875.846845
 10
58415.587767
 20
37875.980852
  0
LWPOLYLINE
  5
1AD
330
777
100
AcDbEntity
  8
0X-SECTIONS
100
AcDbPolyline
 90
        4
 70
     0
 43
0.0
 10
58420.720579
 20
37871.893648
 10
58420.576937
 20
37871.912792
 10
58420.768459
 20
37872.592397
 10
58420.873797
 20
37872.496678
  0
LWPOLYLINE
  5
1AE
330
777
100
AcDbEntity
  8
0X-SECTIONS
100
AcDbPolyline
 90
        4
 70
     0
 43
0.0
 10
58418.289444
 20
37879.739923
 10
58418.452239
 20
37879.912218
 10
58419.745018
 20
37878.332853
 10
58419.601376
 20
37878.208418
  0
POINT
  5
1AF
330
777
100
AcDbEntity
  8
0X-ARCHAEOLOGY
100
AcDbPoint
 10
58407.923077
 20
37889.314098
 30
0.0
1001
IRD
1002
{
1000
TPMNODE_CH61900-_-ade
1070
   515
1071
        1
1004
0100AC0200000000000000000000
1002
}
  0
LWPOLYLINE
  5
1B0
330
777
100
AcDbEntity
  8
0X-WATCHINGBRIEF
100
AcDbPolyline
 90
        4
 70
     0
 43
0.0
 10
58407.923077
 20
37889.314098
 10
58407.760834
 20
37890.287126
 10
58408.733952
 20
37889.681898
 10
58408.892652
 20
37888.936341
1001
IRD
1002
{
1000
TPMLINK_CH61900-_-ade
1070
   515
1071
        1
1004
0100AD020000AC020000AE02000000000000DDEF7B1A57280740DDEF7B1A57280740EE010000B0020000
1002
}
  0
POINT
  5
1B1
330
777
100
AcDbEntity
  8
0X-ARCHAEOLOGY
100
AcDbPoint
 10
58408.892652
 20
37888.936341
 30
0.0
1001
IRD
1002
{
1000
TPMNODE_CH61900-_-ade
1070
   515
1071
        1
1004
0100AE0200000000000000000000
1002
}
  0
LWPOLYLINE
  5
1B2
330
777
100
AcDbEntity
  8
0X-WATCHINGBRIEF
100
AcDbPolyline
 90
        9
 70
     0
 43
0.0
 10
58408.892652
 20
37888.936341
 10
58408.950201
 20
37888.66598
 10
58409.231323
 20
37887.304218
 10
58409.425947
 20
37886.504453
 10
58409.534071
 20
37886.093762
 10
58409.577321
 20
37885.553381
 10
58409.793569
 20
37884.537462
 10
58410.031443
 20
37883.694467
 10
58410.066261
 20
37883.590057
1001
IRD
1002
{
1000
TPMLINK_CH61900-_-ade
1070
   515
1071
        1
1004
0100AF020000AE0200008502000000000000210C916501ED1540210C916501ED1540EE0100008B020000
1002
}
  0
LWPOLYLINE
  5
1B3
330
777
100
AcDbEntity
  8
0X-WATCHINGBRIEF
100
AcDbPolyline
 90
        2
 70
     0
 43
0.0
 10
58407.923077
 20
37889.314098
 10
58408.892652
 20
37888.936341
1001
IRD
1002
{
1000
TPMLINK_CH61900-_-ade
1070
   515
1071
        1
1004
0100B1020000AC020000AE020000000000009E84432A27A6F03F9E84432A27A6F03FB00200008B020000
1002
}
  0
LWPOLYLINE
  5
1B4
330
777
100
AcDbEntity
  8
0X-HACHURES
100
AcDbPolyline
 90
        2
 70
     0
 43
0.0
 10
58408.056048
 20
37890.056812
 10
58408.230873
 20
37889.194177
  0
LWPOLYLINE
  5
1B5
330
777
100
AcDbEntity
  8
0X-HACHURES
100
AcDbPolyline
 90
        2
 70
     0
 43
0.0
 10
58408.340998
 20
37889.926295
 10
58408.520183
 20
37889.081459
  0
LWPOLYLINE
  5
1B6
330
777
100
AcDbEntity
  8
0X-SECTIONS
100
AcDbPolyline
 90
        4
 70
     0
 43
0.0
 10
58406.446663
 20
37890.878722
 10
58406.477189
 20
37890.998404
 10
58409.867094
 20
37889.068803
 10
58409.820656
 20
37888.949446
  0
LWPOLYLINE
  5
1B7
330
777
100
AcDbEntity
  8
0X-WATCHINGBRIEF
  6
ACAD_ISO12W100
100
AcDbPolyline
 90
        3
 70
     0
 43
0.0
 10
58399.726959
 20
37894.866176
 10
58423.759392
 20
37881.325222
 10
58420.39179
 20
37869.62033
  0
LWPOLYLINE
  5
1B8
330
777
100
AcDbEntity
  8
0X-WATCHINGBRIEF
  6
ACAD_ISO12W100
100
AcDbPolyline
 90
        9
 70
     1
 43
0.0
 10
58402.163162
 20
37893.402824
 10
58402.280396
 20
37893.514426
 10
58402.509282
 20
37893.598127
 10
58402.749332
 20
37893.586967
 10
58402.955887
 20
37893.508846
 10
58403.123364
 20
37893.369343
 10
58403.218268
 20
37893.140559
 10
58403.229433
 20
37892.956416
 10
58403.17919
 20
37892.816914
1001
IRD
1002
{
1000
TPMLINK_CH61900-_-ade
1070
   515
1071
        1
1004
0100B4020000B2020000B2020000000000006F73B37A31B406406F73B37A31B4064000000000B3020000
1002
}
  0
POINT
  5
1B9
330
777
100
AcDbEntity
  8
0X-ARCHAEOLOGY
  6
ACAD_ISO12W100
100
AcDbPoint
 10
58402.163162
 20
37893.402824
 30
0.0
1001
IRD
1002
{
1000
TPMNODE_CH61900-_-ade
1070
   515
1071
        1
1004
0100B20200000000000000000000
1002
}
  0
LWPOLYLINE
  5
1BA
330
777
100
AcDbEntity
  8
0X-SECTIONS
  6
ACAD_ISO12W100
100
AcDbPolyline
 90
        4
 70
     0
 43
0.0
 10
58402.101754
 20
37893.626028
 10
58402.034763
 20
37893.475365
 10
58403.44157
 20
37892.655091
 10
58403.536474
 20
37892.772273
  0
POINT
  5
1BB
330
777
100
AcDbEntity
  8
0X-ARCHAEOLOGY
100
AcDbPoint
 10
58413.359512
 20
37875.307873
 30
0.0
1001
IRD
1002
{
1000
TPMNODE_CH61900-_-ade
1070
   515
1071
        1
1004
0100B50200000000000000000000
1002
}
  0
LWPOLYLINE
  5
1BC
330
777
100
AcDbEntity
  8
0X-EXTRAPOLATED
100
AcDbPolyline
 90
        7
 70
     0
 43
0.0
 10
58413.359512
 20
37875.307873
 10
58415.628786
 20
37877.603346
 10
58415.727529
 20
37877.500445
 10
58415.825759
 20
37877.405951
 10
58417.056212
 20
37876.222296
 10
58418.309651
 20
37875.044311
 10
58418.700983
 20
37874.722998
1001
IRD
1002
{
1000
TPMLINK_CH61900-_-ade
1070
   515
1071
        1
1004
0100BC020000B5020000C3010000000000003A3C6C261BC31D403A3C6C261BC31D4000000000EF010000
1002
}
  0
LWPOLYLINE
  5
1BD
330
777
100
AcDbEntity
  8
0X-WATCHINGBRIEF
100
AcDbPolyline
 90
       17
 70
     0
 43
0.0
 10
58410.636938
 20
37881.835553
 10
58410.762828
 20
37881.51874
 10
58410.906562
 20
37881.185425
 10
58411.027899
 20
37880.87028
 10
58411.038798
 20
37880.777401
 10
58411.004301
 20
37880.696946
 10
58410.866317
 20
37880.61649
 10
58410.705335
 20
37880.61649
 10
58410.596097
 20
37880.587756
 10
58410.435115
 20
37880.455579
 10
58410.239637
 20
37880.380871
 10
58410.014803
 20
37880.450368
 10
58409.917673
 20
37880.501554
 10
58409.85443
 20
37880.604997
 10
58409.758794
 20
37880.919609
 10
58409.676199
 20
37881.26588
 10
58409.577321
 20
37881.532939
1001
IRD
1002
{
1000
TPMLINK_CH61900-_-ade
1070
   515
1071
        1
1004
01007C020000780200006E02000000000000FFB45F5C1E140C40FFB45F5C1E140C40EE0100007B020000
1002
}
  0
LWPOLYLINE
  5
1BE
330
777
100
AcDbEntity
  8
0X-EXTRAPOLATED
100
AcDbPolyline
 90
        3
 70
     0
 43
0.0
 10
58412.676673
 20
37881.537788
 10
58409.775066
 20
37879.867882
 10
58408.437264
 20
37883.120406
1001
IRD
1002
{
1000
TPMLINK_CH61900-_-ade
1070
   515
1071
        1
1004
0100BE020000B2010000C30200000000000035997F387B751B4035997F387B751B4000000000EE010000
1002
}
  0
POINT
  5
1BF
330
777
100
AcDbEntity
  8
0X-ARCHAEOLOGY
100
AcDbPoint
 10
58407.705082
 20
37884.900521
 30
0.0
1001
IRD
1002
{
1000
TPMNODE_CH61900-_-ade
1070
   515
1071
        1
1004
0100C10200000000000000000000
1002
}
  0
LWPOLYLINE
  5
1C0
330
777
100
AcDbEntity
  8
0X-EXTRAPOLATED
100
AcDbPolyline
 90
       15
 70
     0
 43
0.0
 10
58407.705082
 20
37884.900521
 10
58407.203816
 20
37886.780076
 10
58406.67724
 20
37889.186021
 10
58406.451643
 20
37890.614521
 10
58406.426607
 20
37891.942858
 10
58406.652204
 20
37892.644534
 10
58406.852765
 20
37893.285855
 10
58407.203816
 20
37893.737017
 10
58407.504521
 20
37893.987638
 10
58407.955852
 20
37894.914895
 10
58408.657816
 20
37895.8673
 10
58409.635586
 20
37897.345881
 10
58410.863989
 20
37898.799422
 10
58411.666233
 20
37900.052529
 10
58411.860107
 20
37900.271653
1001
IRD
1002
{
1000
TPMLINK_CH61900-_-ade
1070
   515
1071
        1
1004
0100C2020000C1020000A001000000000000FF5AF0DCC3393140FF5AF0DCC339314000000000EE010000
1002
}
  0
POINT
  5
1C1
330
777
100
AcDbEntity
  8
0X-ARCHAEOLOGY
100
AcDbPoint
 10
58408.437264
 20
37883.120406
 30
0.0
1001
IRD
1002
{
1000
TPMNODE_CH61900-_-ade
1070
   515
1071
        1
1004
0100C30200000000000000000000
1002
}
  0
LWPOLYLINE
  5
1C2
330
777
100
AcDbEntity
  8
0X-ARCHAEOLOGY
100
AcDbPolyline
 90
        2
 70
     0
 43
0.0
 10
58408.437264
 20
37883.120406
 10
58407.705082
 20
37884.900521
1001
IRD
1002
{
1000
TPMLINK_CH61900-_-ade
1070
   515
1071
        1
1004
0100C4020000C3020000C10200000000000005E2ACAF07CCFE3F05E2ACAF07CCFE3F00000000EE010000
1002
}
  0
POINT
  5
1C3
330
777
100
AcDbEntity
  8
0X-ARCHAEOLOGY
100
AcDbPoint
 10
58411.852584
 20
37883.362374
 30
0.0
1001
IRD
1002
{
1000
TPMNODE_CH61900-_-ade
1070
   515
1071
        1
1004
0100C50200000000000000000000
1002
}
  0
LWPOLYLINE
  5
1C4
330
777
100
AcDbEntity
  8
0X-EXTRAPOLATED
100
AcDbPolyline
 90
        3
 70
     0
 43
0.0
 10
58411.852584
 20
37883.362374
 10
58412.267917
 20
37882.262147
 10
58412.676673
 20
37881.537788
1001
IRD
1002
{
1000
TPMLINK_CH61900-_-ade
1070
   515
1071
        1
1004
0100C6020000C5020000B201000000000000E92471ABDB0F0040E92471ABDB0F004000000000EE010000
1002
}
  0
POINT
  5
1C5
330
777
100
AcDbEntity
  8
0X-ARCHAEOLOGY
100
AcDbPoint
 10
58411.185225
 20
37885.194916
 30
0.0
1001
IRD
1002
{
1000
TPMNODE_CH61900-_-ade
1070
   515
1071
        1
1004
0100C70200000000000000000000
1002
}
  0
LWPOLYLINE
  5
1C6
330
777
100
AcDbEntity
  8
0X-ARCHAEOLOGY
100
AcDbPolyline
 90
        4
 70
     0
 43
0.0
 10
58411.185225
 20
37885.194916
 10
58411.311489
 20
37884.810203
 10
58411.766514
 20
37883.590376
 10
58411.852584
 20
37883.362374
1001
IRD
1002
{
1000
TPMLINK_CH61900-_-ade
1070
   515
1071
        1
1004
0100C8020000C7020000C502000000000000C4A375386B35FF3FC4A375386B35FF3F00000000EE010000
1002
}
  0
TEXT
  5
1C7
330
777
100
AcDbEntity
  8
0
 62
     1
100
AcDbText
 10
58429.916931
 20
37871.200796
 30
0.0
 40
0.5
  1
57
 72
     1
 11
58430.333597
 21
37871.200796
 31
0.0
100
AcDbText
  0
TEXT
  5
1C8
330
777
100
AcDbEntity
  8
0
 62
     1
100
AcDbText
 10
58428.763674
 20
37911.962737
 30
0.0
 40
0.5
  1
50
 72
     1
 11
58429.138674
 21
37911.962737
 31
0.0
100
AcDbText
  0
TEXT
  5
1C9
330
777
100
AcDbEntity
  8
0
 62
     1
100
AcDbText
 10
58430.113165
 20
37877.53178
 30
0.0
 40
0.5
  1
61
 72
     1
 11
58430.446498
 21
37877.53178
 31
0.0
100
AcDbText
  0
TEXT
  5
1CA
330
777
100
AcDbEntity
  8
0
 62
     1
100
AcDbText
 10
58430.031503
 20
37876.764228
 30
0.0
 40
0.5
  1
59
 72
     1
 11
58430.44817
 21
37876.764228
 31
0.0
100
AcDbText
  0
TEXT
  5
1CB
330
777
100
AcDbEntity
  8
0
 62
     1
100
AcDbText
 10
58429.713583
 20
37883.39158
 30
0.0
 40
0.5
  1
63
 72
     1
 11
58430.130249
 21
37883.39158
 31
0.0
100
AcDbText
  0
TEXT
  5
1CC
330
777
100
AcDbEntity
  8
0
 62
     1
100
AcDbText
 10
58444.020801
 20
37891.731639
 30
0.0
 40
0.5
  1
39
 72
     1
 11
58444.437468
 21
37891.731639
 31
0.0
100
AcDbText
  0
TEXT
  5
1CD
330
777
100
AcDbEntity
  8
0
 62
     1
100
AcDbText
 10
58415.040601
 20
37901.247766
 30
0.0
 40
0.5
  1
47
 72
     1
 11
58415.457268
 21
37901.247766
 31
0.0
100
AcDbText
  0
TEXT
  5
1CE
330
777
100
AcDbEntity
  8
0
 62
     1
100
AcDbText
 10
58426.621741
 20
37907.214931
 30
0.0
 40
0.5
  1
81
 72
     1
 11
58426.955074
 21
37907.214931
 31
0.0
100
AcDbText
  0
TEXT
  5
1CF
330
777
100
AcDbEntity
  8
0
 62
     1
100
AcDbText
 10
58418.064431
 20
37872.902625
 30
0.0
 40
0.5
  1
27
 72
     1
 11
58418.481097
 21
37872.902625
 31
0.0
100
AcDbText
  0
TEXT
  5
1D0
330
777
100
AcDbEntity
  8
0
 62
     1
100
AcDbText
 10
58419.44327
 20
37874.989006
 30
0.0
 40
0.5
  1
110
 72
     1
 11
58419.901603
 21
37874.989006
 31
0.0
100
AcDbText
  0
TEXT
  5
1D1
330
777
100
AcDbEntity
  8
0
 62
     1
100
AcDbText
 10
58428.645365
 20
37905.962296
 30
0.0
 40
0.5
  1
79
 72
     1
 11
58429.062031
 21
37905.962296
 31
0.0
100
AcDbText
  0
TEXT
  5
1D2
330
777
100
AcDbEntity
  8
0
 62
     1
100
AcDbText
 10
58435.618222
 20
37901.665218
 30
0.0
 40
0.5
  1
65
 72
     1
 11
58436.034888
 21
37901.665218
 31
0.0
100
AcDbText
  0
TEXT
  5
1D3
330
777
100
AcDbEntity
  8
0
 62
     1
100
AcDbText
 10
58436.642579
 20
37901.031362
 30
0.0
 40
0.5
  1
101
 72
     1
 11
58437.100912
 21
37901.031362
 31
0.0
100
AcDbText
  0
TEXT
  5
1D4
330
777
100
AcDbEntity
  8
0
 62
     1
100
AcDbText
 10
58442.020625
 20
37901.002424
 30
0.0
 40
0.5
  1
114
 72
     1
 11
58442.520625
 21
37901.002424
 31
0.0
100
AcDbText
  0
TEXT
  5
1D6
330
777
100
AcDbEntity
  8
0
 62
     1
100
AcDbText
 10
58409.744489
 20
37881.994029
 30
0.0
 40
0.5
  1
5
 72
     1
 11
58409.911155
 21
37881.994029
 31
0.0
100
AcDbText
  0
TEXT
  5
1D7
330
777
100
AcDbEntity
  8
0
 62
     1
100
AcDbText
 10
58411.472319
 20
37881.832662
 30
0.0
 40
0.5
  1
15
 72
     1
 11
58411.805652
 21
37881.832662
 31
0.0
100
AcDbText
  0
TEXT
  5
1D8
330
777
100
AcDbEntity
  8
0
 62
     1
100
AcDbText
 10
58409.890585
 20
37881.082245
 30
0.0
 40
0.5
  1
22
 72
     1
 11
58410.307252
 21
37881.082245
 31
0.0
100
AcDbText
  0
TEXT
  5
1D9
330
777
100
AcDbEntity
  8
0
 62
     1
100
AcDbText
 10
58409.773854
 20
37882.881462
 30
0.0
 40
0.5
  1
6
 72
     1
 11
58409.94052
 21
37882.881462
 31
0.0
100
AcDbText
  0
TEXT
  5
1DA
330
777
100
AcDbEntity
  8
0
 62
     1
100
AcDbText
 10
58408.713257
 20
37886.802743
 30
0.0
 40
0.5
  1
5
 72
     1
 11
58408.879924
 21
37886.802743
 31
0.0
100
AcDbText
  0
TEXT
  5
1DB
330
777
100
AcDbEntity
  8
0
 62
     1
100
AcDbText
 10
58419.033743
 20
37879.17066
 30
0.0
 40
0.5
  1
9
 72
     1
 11
58419.20041
 21
37879.17066
 31
0.0
100
AcDbText
  0
TEXT
  5
1DC
330
777
100
AcDbEntity
  8
0
 62
     1
100
AcDbText
 10
58415.463638
 20
37874.859727
 30
0.0
 40
0.5
  1
27
 72
     1
 11
58415.880305
 21
37874.859727
 31
0.0
100
AcDbText
  0
TEXT
  5
1DD
330
777
100
AcDbEntity
  8
0
 62
     1
100
AcDbText
 10
58419.539045
 20
37872.442847
 30
0.0
 40
0.5
  1
27
 72
     1
 11
58419.955712
 21
37872.442847
 31
0.0
100
AcDbText
  0
TEXT
  5
1DE
330
777
100
AcDbEntity
  8
0
 62
     1
100
AcDbText
 10
58421.205618
 20
37871.709226
 30
0.0
 40
0.5
  1
25
 72
     1
 11
58421.622285
 21
37871.709226
 31
0.0
100
AcDbText
  0
TEXT
  5
1DF
330
777
100
AcDbEntity
  8
0
 62
     1
100
AcDbText
 10
58414.487336
 20
37875.724061
 30
0.0
 40
0.5
  1
17
 72
     1
 11
58414.820669
 21
37875.724061
 31
0.0
100
AcDbText
  0
TEXT
  5
1E0
330
777
100
AcDbEntity
  8
0
 62
     1
100
AcDbText
 10
58408.050853
 20
37890.123827
 30
0.0
 40
0.5
  1
12
 72
     1
 11
58408.384186
 21
37890.123827
 31
0.0
100
AcDbText
  0
TEXT
  5
1E1
330
777
100
AcDbEntity
  8
0
 62
     1
100
AcDbText
 10
58402.486806
 20
37893.560187
 30
0.0
 40
0.5
  1
19
 72
     1
 11
58402.82014
 21
37893.560187
 31
0.0
100
AcDbText
  0
LWPOLYLINE
  5
1E2
330
777
100
AcDbEntity
  8
0
  6
DASHDOT
 62
     1
100
AcDbPolyline
 90
        4
 70
     1
 43
0.0
 10
58399.500429
 20
37918.516999
 10
58448.388231
 20
37918.516999
 10
58448.388231
 20
37867.168393
 10
58399.500429
 20
37867.168393
  0
INSERT
  5
221
330
777
100
AcDbEntity
  8
ARCH-LEGEND
100
AcDbBlockReference
  2
NORTH
 10
58376.064607
 20
37896.276911
 30
0.0
 41
0.125
 42
0.125
 43
0.125
  0
TEXT
  5
753
330
777
100
AcDbEntity
  8
1
100
AcDbText
 10
58375.9
 20
37887.9
 30
0.0
 40
0.25
  1
Ó Union Railways (South) Limited 2000.
  7
STYLE1
100
AcDbText
  0
TEXT
  5
754
330
777
100
AcDbEntity
  8
1
100
AcDbText
 10
58375.9
 20
37887.6
 30
0.0
 40
0.25
  1
Reproduced from the Ordnance Survey's 1:25,000 map of 1997
  7
STYLE1
100
AcDbText
  0
TEXT
  5
755
330
777
100
AcDbEntity
  8
1
100
AcDbText
 10
58375.9
 20
37887.3
 30
0.0
 40
0.25
  1
with the permission of the Controller of Her Majesty's Stationary 
  7
STYLE1
100
AcDbText
  0
TEXT
  5
756
330
777
100
AcDbEntity
  8
1
100
AcDbText
 10
58375.9
 20
37886.9
 30
0.0
 40
0.25
  1
Office Ó Crown Copyright.  Licence No. 854166.
  7
STYLE1
100
AcDbText
  0
TEXT
  5
757
330
777
100
AcDbEntity
  8
0
100
AcDbText
 10
58376.0
 20
37894.3
 30
0.0
 40
0.7
  1
Channel Tunnel Rail Link
  7
STYLE1
100
AcDbText
  0
TEXT
  5
758
330
777
100
AcDbEntity
  8
0
100
AcDbText
 10
58376.0
 20
37893.4
 30
0.0
 40
0.7
  1
Project Area 420
  7
STYLE1
100
AcDbText
  0
TEXT
  5
759
330
777
100
AcDbEntity
  8
0
100
AcDbText
 10
58376.0
 20
37892.5
 30
0.0
 40
0.7
  1
Significant Discovery Individual
  7
STYLE1
100
AcDbText
  0
TEXT
  5
75A
330
777
100
AcDbEntity
  8
0
100
AcDbText
 10
58376.0
 20
37891.5
 30
0.0
 40
0.7
  1
West of Sittingborne Road (ARC 420/99)
  7
STYLE1
100
AcDbText
  0
TEXT
  5
75B
330
777
100
AcDbEntity
  8
0
100
AcDbText
 10
58376.0
 20
37890.6
 30
0.0
 40
0.7
  1
(Watching Brief)
  7
STYLE1
100
AcDbText
  0
LWPOLYLINE
  5
224
330
777
100
AcDbEntity
  8
ARCH-LEGEND
100
AcDbPolyline
 90
        4
 70
     1
 43
0.0
 10
58375.052044
 20
37900.710223
 10
58393.714694
 20
37900.710223
 10
58393.714694
 20
37867.039454
 10
58375.052044
 20
37867.039454
  0
LWPOLYLINE
  5
225
102
{ACAD_REACTORS
330
226
102
}
330
777
100
AcDbEntity
  8
ARCH-TEXT
100
AcDbPolyline
 90
        4
 70
     1
 43
0.0
 10
58376.086894
 20
37880.440985
 10
58378.721533
 20
37880.440985
 10
58378.721533
 20
37878.995405
 10
58376.086894
 20
37878.995405
  0
HATCH
  5
226
330
777
100
AcDbEntity
  8
ARCH-TEXT
  6
Continuous
 62
    82
100
AcDbHatch
 10
0.0
 20
0.0
 30
0.0
210
0.0
220
0.0
230
1.0
  2
SOLID
 70
     1
 71
     1
 91
        1
 92
        7
 72
     0
 73
     1
 93
        4
 10
58378.721533
 20
37878.995405
 10
58378.721533
 20
37880.440985
 10
58376.086894
 20
37880.440985
 10
58376.086894
 20
37878.995405
 97
        1
330
225
 75
     0
 76
     1
 47
0.456881
 98
        1
 10
58377.339951
 20
37879.316648
  0
TEXT
  5
227
330
777
100
AcDbEntity
  8
ARCH-TEXT
100
AcDbText
 10
58380.006747
 20
37878.995405
 30
0.0
 40
0.703125
  1
linear feature
  7
STYLE1
100
AcDbText
  0
CIRCLE
  5
228
102
{ACAD_REACTORS
330
229
102
}
330
777
100
AcDbEntity
  8
ARCH-TEXT
100
AcDbCircle
 10
58377.404231
 20
37877.389159
 30
0.0
 40
0.803879
  0
HATCH
  5
229
330
777
100
AcDbEntity
  8
ARCH-TEXT
  6
Continuous
 62
   150
100
AcDbHatch
 10
0.0
 20
0.0
 30
0.0
210
0.0
220
0.0
230
1.0
  2
SOLID
 70
     1
 71
     1
 91
        1
 92
        7
 72
     1
 73
     1
 93
        2
 10
58378.20811
 20
37877.389159
 42
1.0
 10
58376.600351
 20
37877.389159
 42
1.0
 97
        1
330
228
 75
     0
 76
     1
 47
0.456881
 98
        1
 10
58376.729484
 20
37877.389159
  0
TEXT
  5
22A
330
777
100
AcDbEntity
  8
ARCH-TEXT
100
AcDbText
 10
58380.070993
 20
37876.746673
 30
0.0
 40
0.703125
  1
pit
  7
STYLE1
100
AcDbText
  0
LWPOLYLINE
  5
22B
330
777
100
AcDbEntity
  8
ARCH-TEXT
100
AcDbPolyline
 90
        3
 70
     0
 43
0.0
 10
58378.207468
 20
37874.594334
 10
58377.404231
 20
37875.975672
 10
58376.600993
 20
37874.594334
  0
HATCH
  5
22C
330
777
100
AcDbEntity
  8
ARCH-TEXT
  6
Continuous
100
AcDbHatch
 10
0.0
 20
0.0
 30
0.0
210
0.0
220
0.0
230
1.0
  2
SOLID
 70
     1
 71
     0
 91
        1
 92
        7
 72
     0
 73
     1
 93
        3
 10
58377.404231
 20
37875.975672
 10
58376.600993
 20
37874.594334
 10
58378.207468
 20
37874.594334
 97
        0
 75
     0
 76
     1
 47
0.456881
 98
        1
 10
58377.85405
 20
37874.97982
  0
TEXT
  5
22D
330
777
100
AcDbEntity
  8
ARCH-TEXT
100
AcDbText
 10
58380.070993
 20
37874.562213
 30
0.0
 40
0.703125
  1
post hole
  7
STYLE1
100
AcDbText
  0
LWPOLYLINE
  5
22E
330
777
100
AcDbEntity
  8
ARCH-TEXT
  6
DASHDOT
 62
     1
100
AcDbPolyline
 90
        5
 70
     0
 43
0.070313
 10
58376.086894
 20
37873.743015
 10
58378.75369
 20
37873.743015
 10
58378.75369
 20
37872.554435
 10
58376.086894
 20
37872.554435
 10
58376.086894
 20
37873.743015
  0
TEXT
  5
22F
330
777
100
AcDbEntity
  8
ARCH-TEXT
  6
DIVIDE
100
AcDbText
 10
58380.011574
 20
37872.554435
 30
0.0
 40
0.703125
  1
excavation area
  7
STYLE1
100
AcDbText
  0
TEXT
  5
232
330
777
100
AcDbEntity
  8
ARCH-TEXT
  6
ACAD_ISO03W100
100
AcDbText
 10
58380.006747
 20
37870.450293
 30
0.0
 40
0.703125
  1
Extrapolated Feature
  7
STYLE1
100
AcDbText
  0
TEXT
  5
233
330
777
100
AcDbEntity
  8
ARCH-TEXT
  6
ACAD_ISO03W100
100
AcDbText
 10
58380.070993
 20
37868.469231
 30
0.0
 40
0.703125
  1
Truncated by Machine
  7
STYLE1
100
AcDbText
  0
TEXT
  5
236
330
777
100
AcDbEntity
  8
ARCH-TEXT
100
AcDbText
 10
58375.938408
 20
37884.361748
 30
0.0
 40
0.703125
  1
SCALE 1:250
  7
STYLE1
100
AcDbText
  0
LINE
  5
239
102
{ACAD_REACTORS
330
2A7
102
}
330
777
100
AcDbEntity
  8
ARCHAEOLOGICAL-SYMBOLS
100
AcDbLine
 10
58386.032156
 20
37882.252495
 30
0.0
 11
58376.050567
 21
37882.252495
 31
0.0
  0
LINE
  5
23D
330
777
100
AcDbEntity
  8
ARCHAEOLOGICAL-SYMBOLS
100
AcDbLine
 10
58382.300567
 20
37882.252495
 30
0.0
 11
58386.032156
 21
37882.252495
 31
0.0
  0
TEXT
  5
240
330
777
100
AcDbEntity
  8
ARCHAEOLOGICAL-SYMBOLS
100
AcDbText
 10
58375.826085
 20
37882.630161
 30
0.0
 40
0.7
  1
0
  7
STYLE1
100
AcDbText
  0
TEXT
  5
241
330
777
100
AcDbEntity
  8
ARCHAEOLOGICAL-SYMBOLS
100
AcDbText
 10
58385.752153
 20
37882.630161
 30
0.0
 40
0.7
  1
10m
  7
STYLE1
100
AcDbText
  0
LWPOLYLINE
  5
242
330
777
100
AcDbEntity
  8
ARCH-LEGEND
100
AcDbPolyline
 90
        8
 70
     0
 43
0.0
 10
58377.406496
 20
37873.474834
 10
58376.960107
 20
37873.51052
 10
58376.727984
 20
37873.189352
 10
58376.942251
 20
37872.903869
 10
58377.549341
 20
37872.903869
 10
58377.852886
 20
37872.957397
 10
58377.99573
 20
37873.207194
 10
58377.406496
 20
37873.474834
  0
POINT
  5
243
330
777
100
AcDbEntity
  8
ARCH-LEGEND
100
AcDbPoint
 10
58377.406496
 20
37873.474834
 30
0.0
  0
POINT
  5
244
330
777
100
AcDbEntity
  8
ARCH-LEGEND
100
AcDbPoint
 10
58377.281507
 20
37873.225037
 30
0.0
  0
LWPOLYLINE
  5
245
330
777
100
AcDbEntity
  8
ARCH-LEGEND
 62
     4
100
AcDbPolyline
 90
        4
 70
     0
 43
0.0
 10
58376.692273
 20
37873.421306
 10
58376.835117
 20
37873.58189
 10
58377.888597
 20
37872.868184
 10
58377.83503
 20
37872.761128
  0
LWPOLYLINE
  5
246
330
777
100
AcDbEntity
  8
ARCH-LEGEND
 62
     5
100
AcDbPolyline
 90
        5
 70
     0
 43
0.0
 10
58377.101547
 20
37873.401391
 10
58376.995818
 20
37873.135824
 10
58377.210085
 20
37873.028768
 10
58377.38864
 20
37873.010925
 10
58377.556643
 20
37873.093075
  0
LWPOLYLINE
  5
24F
330
777
100
AcDbEntity
  8
0
100
AcDbPolyline
 90
        4
 70
     1
 43
0.0
 10
58373.700888
 20
37919.957847
 10
58449.927906
 20
37919.957847
 10
58449.927906
 20
37865.89455
 10
58373.700888
 20
37865.89455
  0
LWPOLYLINE
  5
297
102
{ACAD_REACTORS
330
2A7
102
}
330
777
100
AcDbEntity
  8
0
100
AcDbPolyline
 90
        4
 70
     0
 43
0.0
 10
58376.050567
 20
37882.252495
 10
58376.050567
 20
37881.735152
 10
58386.050567
 20
37881.735152
 10
58386.032156
 20
37882.252495
  0
LWPOLYLINE
  5
298
102
{ACAD_REACTORS
330
2A7
102
}
330
777
100
AcDbEntity
  8
0
100
AcDbPolyline
 90
        2
 70
     0
 43
0.0
 10
58381.050567
 20
37881.735152
 10
58381.047547
 20
37882.252495
  0
LWPOLYLINE
  5
29A
102
{ACAD_REACTORS
330
2A7
102
}
330
777
100
AcDbEntity
  8
0
100
AcDbPolyline
 90
        2
 70
     0
 43
0.0
 10
58381.050567
 20
37881.735152
 10
58386.050567
 20
37881.735152
  0
LWPOLYLINE
  5
29B
102
{ACAD_REACTORS
330
2A7
102
}
330
777
100
AcDbEntity
  8
0
100
AcDbPolyline
 90
        2
 70
     0
 43
0.0
 10
58381.047547
 20
37882.252495
 10
58386.032156
 20
37882.252495
  0
LWPOLYLINE
  5
29C
102
{ACAD_REACTORS
330
2A7
102
}
330
777
100
AcDbEntity
  8
0
100
AcDbPolyline
 90
        2
 70
     0
 43
0.0
 10
58383.550567
 20
37881.735152
 10
58383.539852
 20
37882.252495
  0
HATCH
  5
2A7
330
777
100
AcDbEntity
  8
0
  6
Continuous
100
AcDbHatch
 10
0.0
 20
0.0
 30
0.0
210
0.0
220
0.0
230
1.0
  2
SOLID
 70
     1
 71
     1
 91
        2
 92
        7
 72
     0
 73
     1
 93
        4
 10
58381.050567
 20
37881.735152
 10
58381.047547
 20
37882.252495
 10
58376.050567
 20
37882.252495
 10
58376.050567
 20
37881.735152
 97
        3
330
239
330
297
330
298
 92
        7
 72
     0
 73
     1
 93
        4
 10
58383.539852
 20
37882.252495
 10
58383.550567
 20
37881.735152
 10
58386.050567
 20
37881.735152
 10
58386.032156
 20
37882.252495
 97
        4
330
29B
330
29C
330
29A
330
297
 75
     0
 76
     1
 47
0.033442
 98
        2
 10
58379.274531
 20
37881.902311
 10
58385.195814
 20
37882.036129
  0
LWPOLYLINE
  5
2A8
330
777
100
AcDbEntity
  8
0
  6
DIVIDE
100
AcDbPolyline
 90
        2
 70
     0
 43
0.1
 10
58376.173494
 20
37868.799869
 10
58378.642388
 20
37868.799869
  0
LWPOLYLINE
  5
2A9
330
777
100
AcDbEntity
  8
0
 62
     3
100
AcDbPolyline
 90
        2
 70
     0
 43
0.1
 10
58376.142171
 20
37870.869844
 10
58378.642388
 20
37870.869844
  0
CIRCLE
  5
2F9
330
777
100
AcDbEntity
  8
0
 62
     1
100
AcDbCircle
 10
58380.0
 20
37910.0
 30
0.0
 40
0.324453
  0
LWPOLYLINE
  5
2FA
330
777
100
AcDbEntity
  8
0
 62
     1
100
AcDbPolyline
 90
        3
 70
     0
 43
0.0
 10
58380.0
 20
37910.0
 10
58380.0
 20
37909.567585
 10
58380.0
 20
37910.420568
  0
LWPOLYLINE
  5
2FB
330
777
100
AcDbEntity
  8
0
 62
     1
100
AcDbPolyline
 90
        3
 70
     0
 43
0.0
 10
58380.0
 20
37910.0
 10
58380.429501
 20
37910.0
 10
58379.531908
 20
37910.0
  0
TEXT
  5
2FC
330
777
100
AcDbEntity
  8
0
 62
     1
100
AcDbText
 10
58380.584641
 20
37909.678362
 30
0.0
 40
0.5
  1
58380,37910
  7
STYLE1
100
AcDbText
  0
TEXT
  5
2FD
330
777
100
AcDbEntity
  8
0
 62
     1
100
AcDbText
 10
58380.584641
 20
37909.678362
 30
0.0
 40
0.5
  1
58380,37910
  7
STYLE1
100
AcDbText
  0
LWPOLYLINE
  5
2FE
330
777
100
AcDbEntity
  8
0
 62
     1
100
AcDbPolyline
 90
        3
 70
     0
 43
0.0
 10
58380.0
 20
37910.0
 10
58380.429501
 20
37910.0
 10
58379.531908
 20
37910.0
  0
LWPOLYLINE
  5
2FF
330
777
100
AcDbEntity
  8
0
 62
     1
100
AcDbPolyline
 90
        3
 70
     0
 43
0.0
 10
58380.0
 20
37910.0
 10
58380.0
 20
37909.567585
 10
58380.0
 20
37910.420568
  0
CIRCLE
  5
300
330
777
100
AcDbEntity
  8
0
 62
     1
100
AcDbCircle
 10
58380.0
 20
37910.0
 30
0.0
 40
0.324453
  0
CIRCLE
  5
301
330
777
100
AcDbEntity
  8
0
 62
     1
100
AcDbCircle
 10
58440.0
 20
37910.0
 30
0.0
 40
0.324453
  0
LWPOLYLINE
  5
302
330
777
100
AcDbEntity
  8
0
 62
     1
100
AcDbPolyline
 90
        3
 70
     0
 43
0.0
 10
58440.0
 20
37910.0
 10
58440.0
 20
37909.567585
 10
58440.0
 20
37910.420568
  0
LWPOLYLINE
  5
303
330
777
100
AcDbEntity
  8
0
 62
     1
100
AcDbPolyline
 90
        3
 70
     0
 43
0.0
 10
58440.0
 20
37910.0
 10
58440.429501
 20
37910.0
 10
58439.531908
 20
37910.0
  0
TEXT
  5
304
330
777
100
AcDbEntity
  8
0
 62
     1
100
AcDbText
 10
58440.584641
 20
37909.678362
 30
0.0
 40
0.5
  1
58380,37910
  7
STYLE1
100
AcDbText
  0
TEXT
  5
305
330
777
100
AcDbEntity
  8
0
 62
     1
100
AcDbText
 10
58440.584641
 20
37909.678362
 30
0.0
 40
0.5
  1
58440,37910
  7
STYLE1
100
AcDbText
  0
LWPOLYLINE
  5
306
330
777
100
AcDbEntity
  8
0
 62
     1
100
AcDbPolyline
 90
        3
 70
     0
 43
0.0
 10
58440.0
 20
37910.0
 10
58440.429501
 20
37910.0
 10
58439.531908
 20
37910.0
  0
LWPOLYLINE
  5
307
330
777
100
AcDbEntity
  8
0
 62
     1
100
AcDbPolyline
 90
        3
 70
     0
 43
0.0
 10
58440.0
 20
37910.0
 10
58440.0
 20
37909.567585
 10
58440.0
 20
37910.420568
  0
CIRCLE
  5
308
330
777
100
AcDbEntity
  8
0
 62
     1
100
AcDbCircle
 10
58440.0
 20
37910.0
 30
0.0
 40
0.324453
  0
ENDSEC
  0
SECTION
  2
OBJECTS
  0
DICTIONARY
  5
767
330
0
100
AcDbDictionary
281
     1
  3
ACAD_DETAILVIEWSTYLE
350
817
  3
ACAD_GROUP
350
768
  3
ACAD_LAYOUT
350
774
  3
ACAD_MATERIAL
350
781
  3
ACAD_MLEADERSTYLE
350
815
  3
ACAD_MLINESTYLE
350
771
  3
ACAD_PLOTSETTINGS
350
773
  3
ACAD_PLOTSTYLENAME
350
769
  3
ACAD_SCALELIST
350
7A7
  3
ACAD_SECTIONVIEWSTYLE
350
818
  3
ACAD_TABLESTYLE
350
814
  3
ACAD_VISUALSTYLE
350
7C9
  3
AcDbVariableDictionary
350
7E2
  0
DICTIONARY
  5
817
102
{ACAD_REACTORS
330
767
102
}
330
767
100
AcDbDictionary
281
     1
  0
DICTIONARY
  5
768
102
{ACAD_REACTORS
330
767
102
}
330
767
100
AcDbDictionary
281
     1
  0
DICTIONARY
  5
774
102
{ACAD_REACTORS
330
767
102
}
330
767
100
AcDbDictionary
281
     1
  3
Layout1
350
776
  3
Model
350
778
  0
DICTIONARY
  5
781
102
{ACAD_REACTORS
330
767
102
}
330
767
100
AcDbDictionary
281
     1
  3
ByBlock
350
783
  3
ByLayer
350
782
  3
Global
350
784
  0
DICTIONARY
  5
815
102
{ACAD_REACTORS
330
767
102
}
330
767
100
AcDbDictionary
281
     1
  0
DICTIONARY
  5
771
102
{ACAD_REACTORS
330
767
102
}
330
767
100
AcDbDictionary
281
     1
  3
Standard
350
772
  0
DICTIONARY
  5
773
102
{ACAD_REACTORS
330
767
102
}
330
767
100
AcDbDictionary
281
     1
  0
ACDBDICTIONARYWDFLT
  5
769
102
{ACAD_REACTORS
330
767
102
}
330
767
100
AcDbDictionary
281
     1
  3
Normal
350
76A
100
AcDbDictionaryWithDefault
340
76A
  0
DICTIONARY
  5
7A7
102
{ACAD_REACTORS
330
767
102
}
330
767
100
AcDbDictionary
281
     1
  3
A0
350
7A8
  3
A1
350
7A9
  3
A2
350
7AA
  3
A3
350
7AB
  3
A4
350
7AC
  3
A5
350
7AD
  3
A6
350
7AE
  3
A7
350
7AF
  3
A8
350
7B0
  3
A9
350
7B1
  3
B0
350
7B2
  3
B1
350
7B3
  3
B2
350
7B4
  3
B3
350
7B5
  3
B4
350
7B6
  3
B5
350
7B7
  3
B6
350
7B8
  3
B7
350
7B9
  3
B8
350
7BA
  3
B9
350
7BB
  3
C0
350
7BC
  3
C1
350
7BD
  3
C2
350
7BE
  3
C3
350
7BF
  3
C4
350
7C0
  3
C5
350
7C1
  3
C6
350
7C2
  3
C7
350
7C3
  3
C8
350
7C4
  3
C9
350
7C5
  3
D0
350
7C6
  3
D1
350
7C7
  3
D2
350
7C8
  0
DICTIONARY
  5
818
102
{ACAD_REACTORS
330
767
102
}
330
767
100
AcDbDictionary
281
     1
  0
DICTIONARY
  5
814
102
{ACAD_REACTORS
330
767
102
}
330
767
100
AcDbDictionary
281
     1
  0
DICTIONARY
  5
7C9
102
{ACAD_REACTORS
330
767
102
}
330
767
100
AcDbDictionary
281
     1
  3
2dWireframe
350
7CE
  3
Basic
350
7D1
  3
Brighten
350
7D5
  3
ColorChange
350
7D9
  3
Conceptual
350
7D3
  3
Dim
350
7D4
  3
EdgeColorOff
350
7DC
  3
Facepattern
350
7D8
  3
Flat
350
7CA
  3
FlatWithEdges
350
7CB
  3
Gouraud
350
7CC
  3
GouraudWithEdges
350
7CD
  3
Hidden
350
7D0
  3
JitterOff
350
7DA
  3
Linepattern
350
7D7
  3
OverhangOff
350
7DB
  3
Realistic
350
7D2
  3
Shaded
350
7E1
  3
Shaded with edges
350
7E0
  3
Shades of Gray
350
7DD
  3
Sketchy
350
7DE
  3
Thicken
350
7D6
  3
Wireframe
350
7CF
  3
X-Ray
350
7DF
  0
DICTIONARY
  5
7E2
102
{ACAD_REACTORS
330
767
102
}
330
767
100
AcDbDictionary
281
     1
  3
CANNOSCALE
350
7E3
  3
MSLTSCALE
350
816
  0
LAYOUT
  5
776
102
{ACAD_REACTORS
330
774
102
}
330
774
100
AcDbPlotSettings
  1

  2
none_device
  4

  6

 40
0.0
 41
0.0
 42
0.0
 43
0.0
 44
0.0
 45
0.0
 46
0.0
 47
0.0
 48
0.0
 49
0.0
140
0.0
141
0.0
142
1.0
143
1.0
 70
   688
 72
     0
 73
     0
 74
     5
  7

 75
    16
 76
     0
 77
     2
 78
   300
147
1.0
148
0.0
149
0.0
100
AcDbLayout
  1
Layout1
 70
     1
 71
     1
 10
0.0
 20
0.0
 11
420.0
 21
297.0
 12
0.0
 22
0.0
 32
0.0
 14
1.000000000000000E+20
 24
1.000000000000000E+20
 34
1.000000000000000E+20
 15
-1.000000000000000E+20
 25
-1.000000000000000E+20
 35
-1.000000000000000E+20
146
0.0
 13
0.0
 23
0.0
 33
0.0
 16
1.0
 26
0.0
 36
0.0
 17
0.0
 27
1.0
 37
0.0
 76
     0
330
775
  0
LAYOUT
  5
778
102
{ACAD_REACTORS
330
774
102
}
330
774
100
AcDbPlotSettings
  1

  2
none_device
  4
Letter_(8.50_x_11.00_Inches)
  6

 40
6.35
 41
6.35
 42
6.35000508
 43
6.35000508
 44
215.9
 45
279.4
 46
0.0
 47
0.0
 48
0.0
 49
0.0
140
0.0
141
0.0
142
1.0
143
1.0
 70
  1712
 72
     0
 73
     0
 74
     0
  7

 75
     0
 76
     0
 77
     2
 78
   300
147
1.0
148
0.0
149
0.0
100
AcDbLayout
  1
Model
 70
     1
 71
     0
 10
0.0
 20
0.0
 11
12.0
 21
9.0
 12
0.0
 22
0.0
 32
0.0
 14
58373.700888
 24
37865.89455
 34
0.0
 15
58449.927906
 25
37919.957847
 35
0.0
146
0.0
 13
0.0
 23
0.0
 33
0.0
 16
1.0
 26
0.0
 36
0.0
 17
0.0
 27
1.0
 37
0.0
 76
     0
330
777
331
77A
  0
MATERIAL
  5
783
102
{ACAD_REACTORS
330
781
102
}
330
781
100
AcDbMaterial
  1
ByBlock
 72
     1
 94
      127
  0
MATERIAL
  5
782
102
{ACAD_REACTORS
330
781
102
}
330
781
100
AcDbMaterial
  1
ByLayer
 72
     1
 94
      127
  0
MATERIAL
  5
784
102
{ACAD_REACTORS
330
781
102
}
330
781
100
AcDbMaterial
  1
Global
 72
     1
 94
      127
  0
MLINESTYLE
  5
772
102
{ACAD_REACTORS
330
771
102
}
330
771
100
AcDbMlineStyle
  2
Standard
 70
     0
  3

 62
   256
 51
90.0
 52
90.0
 71
     2
 49
0.5
 62
   256
  6
BYLAYER
 49
-0.5
 62
   256
  6
BYLAYER
  0
ACDBPLACEHOLDER
  5
76A
102
{ACAD_REACTORS
330
769
102
}
330
769
  0
SCALE
  5
7A8
102
{ACAD_REACTORS
330
7A7
102
}
330
7A7
100
AcDbScale
 70
     0
300
1:1
140
1.0
141
1.0
290
     1
  0
SCALE
  5
7A9
102
{ACAD_REACTORS
330
7A7
102
}
330
7A7
100
AcDbScale
 70
     0
300
1:2
140
1.0
141
2.0
290
     0
  0
SCALE
  5
7AA
102
{ACAD_REACTORS
330
7A7
102
}
330
7A7
100
AcDbScale
 70
     0
300
1:4
140
1.0
141
4.0
290
     0
  0
SCALE
  5
7AB
102
{ACAD_REACTORS
330
7A7
102
}
330
7A7
100
AcDbScale
 70
     0
300
1:5
140
1.0
141
5.0
290
     0
  0
SCALE
  5
7AC
102
{ACAD_REACTORS
330
7A7
102
}
330
7A7
100
AcDbScale
 70
     0
300
1:8
140
1.0
141
8.0
290
     0
  0
SCALE
  5
7AD
102
{ACAD_REACTORS
330
7A7
102
}
330
7A7
100
AcDbScale
 70
     0
300
1:10
140
1.0
141
10.0
290
     0
  0
SCALE
  5
7AE
102
{ACAD_REACTORS
330
7A7
102
}
330
7A7
100
AcDbScale
 70
     0
300
1:16
140
1.0
141
16.0
290
     0
  0
SCALE
  5
7AF
102
{ACAD_REACTORS
330
7A7
102
}
330
7A7
100
AcDbScale
 70
     0
300
1:20
140
1.0
141
20.0
290
     0
  0
SCALE
  5
7B0
102
{ACAD_REACTORS
330
7A7
102
}
330
7A7
100
AcDbScale
 70
     0
300
1:30
140
1.0
141
30.0
290
     0
  0
SCALE
  5
7B1
102
{ACAD_REACTORS
330
7A7
102
}
330
7A7
100
AcDbScale
 70
     0
300
1:40
140
1.0
141
40.0
290
     0
  0
SCALE
  5
7B2
102
{ACAD_REACTORS
330
7A7
102
}
330
7A7
100
AcDbScale
 70
     0
300
1:50
140
1.0
141
50.0
290
     0
  0
SCALE
  5
7B3
102
{ACAD_REACTORS
330
7A7
102
}
330
7A7
100
AcDbScale
 70
     0
300
1:100
140
1.0
141
100.0
290
     0
  0
SCALE
  5
7B4
102
{ACAD_REACTORS
330
7A7
102
}
330
7A7
100
AcDbScale
 70
     0
300
2:1
140
2.0
141
1.0
290
     0
  0
SCALE
  5
7B5
102
{ACAD_REACTORS
330
7A7
102
}
330
7A7
100
AcDbScale
 70
     0
300
4:1
140
4.0
141
1.0
290
     0
  0
SCALE
  5
7B6
102
{ACAD_REACTORS
330
7A7
102
}
330
7A7
100
AcDbScale
 70
     0
300
8:1
140
8.0
141
1.0
290
     0
  0
SCALE
  5
7B7
102
{ACAD_REACTORS
330
7A7
102
}
330
7A7
100
AcDbScale
 70
     0
300
10:1
140
10.0
141
1.0
290
     0
  0
SCALE
  5
7B8
102
{ACAD_REACTORS
330
7A7
102
}
330
7A7
100
AcDbScale
 70
     0
300
100:1
140
100.0
141
1.0
290
     0
  0
SCALE
  5
7B9
102
{ACAD_REACTORS
330
7A7
102
}
330
7A7
100
AcDbScale
 70
     0
300
1/128" = 1'-0"
140
0.0078125
141
12.0
290
     0
  0
SCALE
  5
7BA
102
{ACAD_REACTORS
330
7A7
102
}
330
7A7
100
AcDbScale
 70
     0
300
1/64" = 1'-0"
140
0.015625
141
12.0
290
     0
  0
SCALE
  5
7BB
102
{ACAD_REACTORS
330
7A7
102
}
330
7A7
100
AcDbScale
 70
     0
300
1/32" = 1'-0"
140
0.03125
141
12.0
290
     0
  0
SCALE
  5
7BC
102
{ACAD_REACTORS
330
7A7
102
}
330
7A7
100
AcDbScale
 70
     0
300
1/16" = 1'-0"
140
0.0625
141
12.0
290
     0
  0
SCALE
  5
7BD
102
{ACAD_REACTORS
330
7A7
102
}
330
7A7
100
AcDbScale
 70
     0
300
3/32" = 1'-0"
140
0.09375
141
12.0
290
     0
  0
SCALE
  5
7BE
102
{ACAD_REACTORS
330
7A7
102
}
330
7A7
100
AcDbScale
 70
     0
300
1/8" = 1'-0"
140
0.125
141
12.0
290
     0
  0
SCALE
  5
7BF
102
{ACAD_REACTORS
330
7A7
102
}
330
7A7
100
AcDbScale
 70
     0
300
3/16" = 1'-0"
140
0.1875
141
12.0
290
     0
  0
SCALE
  5
7C0
102
{ACAD_REACTORS
330
7A7
102
}
330
7A7
100
AcDbScale
 70
     0
300
1/4" = 1'-0"
140
0.25
141
12.0
290
     0
  0
SCALE
  5
7C1
102
{ACAD_REACTORS
330
7A7
102
}
330
7A7
100
AcDbScale
 70
     0
300
3/8" = 1'-0"
140
0.375
141
12.0
290
     0
  0
SCALE
  5
7C2
102
{ACAD_REACTORS
330
7A7
102
}
330
7A7
100
AcDbScale
 70
     0
300
1/2" = 1'-0"
140
0.5
141
12.0
290
     0
  0
SCALE
  5
7C3
102
{ACAD_REACTORS
330
7A7
102
}
330
7A7
100
AcDbScale
 70
     0
300
3/4" = 1'-0"
140
0.75
141
12.0
290
     0
  0
SCALE
  5
7C4
102
{ACAD_REACTORS
330
7A7
102
}
330
7A7
100
AcDbScale
 70
     0
300
1" = 1'-0"
140
1.0
141
12.0
290
     0
  0
SCALE
  5
7C5
102
{ACAD_REACTORS
330
7A7
102
}
330
7A7
100
AcDbScale
 70
     0
300
1-1/2" = 1'-0"
140
1.5
141
12.0
290
     0
  0
SCALE
  5
7C6
102
{ACAD_REACTORS
330
7A7
102
}
330
7A7
100
AcDbScale
 70
     0
300
3" = 1'-0"
140
3.0
141
12.0
290
     0
  0
SCALE
  5
7C7
102
{ACAD_REACTORS
330
7A7
102
}
330
7A7
100
AcDbScale
 70
     0
300
6" = 1'-0"
140
6.0
141
12.0
290
     0
  0
SCALE
  5
7C8
102
{ACAD_REACTORS
330
7A7
102
}
330
7A7
100
AcDbScale
 70
     0
300
1'-0" = 1'-0"
140
12.0
141
12.0
290
     0
  0
VISUALSTYLE
  5
7CE
102
{ACAD_REACTORS
330
7C9
102
}
102
{ACAD_XDICTIONARY
360
7EC
102
}
330
7C9
100
AcDbVisualStyle
  2
2dWireframe
 70
     4
177
     2
291
     0
 71
     0
176
     1
 72
     2
176
     1
 73
     0
176
     1
 90
        0
176
     1
 40
0.6
176
     1
 41
30.0
176
     1
 62
     5
 63
     7
421
 16777215
176
     1
 74
     1
176
     1
 91
        4
176
     1
 64
     7
176
     1
 65
   257
176
     1
 75
     1
176
     1
175
     1
176
     1
 42
1.0
176
     1
 92
        0
176
     1
 66
   257
176
     1
 43
1.0
176
     1
 76
     1
176
     1
 77
     6
176
     1
 78
     2
176
     1
 67
     7
176
     1
 79
     5
176
     1
170
     0
176
     1
171
     0
176
     1
290
     0
176
     1
 93
        1
176
     1
 44
0.0
176
     1
173
     0
176
     1
  0
VISUALSTYLE
  5
7D1
102
{ACAD_REACTORS
330
7C9
102
}
102
{ACAD_XDICTIONARY
360
7F2
102
}
330
7C9
100
AcDbVisualStyle
  2
Basic
 70
     7
177
     2
291
     1
 71
     1
176
     1
 72
     0
176
     1
 73
     1
176
     1
 90
        0
176
     1
 40
0.6
176
     1
 41
30.0
176
     1
 62
     5
 63
     7
421
 16777215
176
     1
 74
     0
176
     1
 91
        4
176
     1
 64
     7
176
     1
 65
   257
176
     1
 75
     1
176
     1
175
     1
176
     1
 42
1.0
176
     1
 92
        8
176
     1
 66
     7
176
     1
 43
1.0
176
     1
 76
     1
176
     1
 77
     6
176
     1
 78
     2
176
     1
 67
     7
176
     1
 79
     5
176
     1
170
     0
176
     1
171
     0
176
     1
290
     0
176
     1
 93
        1
176
     1
 44
0.0
176
     1
173
     0
176
     1
  0
VISUALSTYLE
  5
7D5
102
{ACAD_REACTORS
330
7C9
102
}
102
{ACAD_XDICTIONARY
360
7FA
102
}
330
7C9
100
AcDbVisualStyle
  2
Brighten
 70
    12
177
     2
291
     1
 71
     2
176
     1
 72
     2
176
     1
 73
     0
176
     1
 90
        0
176
     1
 40
0.6
176
     1
 41
30.0
176
     1
 62
     5
 63
     7
421
 16777215
176
     1
 74
     1
176
     1
 91
        4
176
     1
 64
     7
176
     1
 65
   257
176
     1
 75
     1
176
     1
175
     1
176
     1
 42
1.0
176
     1
 92
        8
176
     1
 66
     7
176
     1
 43
1.0
176
     1
 76
     1
176
     1
 77
     6
176
     1
 78
     2
176
     1
 67
     7
176
     1
 79
     5
176
     1
170
     0
176
     1
171
     0
176
     1
290
     0
176
     1
 93
        1
176
     1
 44
50.0
176
     1
173
     0
176
     1
  0
VISUALSTYLE
  5
7D9
102
{ACAD_REACTORS
330
7C9
102
}
102
{ACAD_XDICTIONARY
360
802
102
}
330
7C9
100
AcDbVisualStyle
  2
ColorChange
 70
    16
177
     2
291
     1
 71
     2
176
     1
 72
     2
176
     1
 73
     3
176
     1
 90
        0
176
     1
 40
0.6
176
     1
 41
30.0
176
     1
 62
     5
 63
     8
421
  8421504
176
     1
 74
     1
176
     1
 91
        4
176
     1
 64
     7
176
     1
 65
   257
176
     1
 75
     1
176
     1
175
     1
176
     1
 42
1.0
176
     1
 92
        8
176
     1
 66
     8
424
  8421504
176
     1
 43
1.0
176
     1
 76
     1
176
     1
 77
     6
176
     1
 78
     2
176
     1
 67
     7
176
     1
 79
     5
176
     1
170
     0
176
     1
171
     0
176
     1
290
     0
176
     1
 93
        1
176
     1
 44
0.0
176
     1
173
     0
176
     1
  0
VISUALSTYLE
  5
7D3
102
{ACAD_REACTORS
330
7C9
102
}
102
{ACAD_XDICTIONARY
360
7F6
102
}
330
7C9
100
AcDbVisualStyle
  2
Conceptual
 70
     9
177
     2
291
     0
 71
     3
176
     1
 72
     2
176
     1
 73
     0
176
     1
 90
        0
176
     1
 40
0.6
176
     1
 41
30.0
176
     1
 62
     5
 63
     7
421
 16777215
176
     1
 74
     2
176
     1
 91
        2
176
     1
 64
     7
176
     1
 65
   257
176
     1
 75
     1
176
     1
175
     1
176
     1
 42
179.0
176
     1
 92
        8
176
     1
 66
     7
176
     1
 43
1.0
176
     1
 76
     1
176
     1
 77
     6
176
     1
 78
     2
176
     1
 67
     7
176
     1
 79
     3
176
     1
170
     0
176
     1
171
     0
176
     1
290
     0
176
     1
 93
        1
176
     1
 44
0.0
176
     1
173
     0
176
     1
  0
VISUALSTYLE
  5
7D4
102
{ACAD_REACTORS
330
7C9
102
}
102
{ACAD_XDICTIONARY
360
7F8
102
}
330
7C9
100
AcDbVisualStyle
  2
Dim
 70
    11
177
     2
291
     1
 71
     2
176
     1
 72
     2
176
     1
 73
     0
176
     1
 90
        0
176
     1
 40
0.6
176
     1
 41
30.0
176
     1
 62
     5
 63
     7
421
 16777215
176
     1
 74
     1
176
     1
 91
        4
176
     1
 64
     7
176
     1
 65
   257
176
     1
 75
     1
176
     1
175
     1
176
     1
 42
1.0
176
     1
 92
        8
176
     1
 66
     7
176
     1
 43
1.0
176
     1
 76
     1
176
     1
 77
     6
176
     1
 78
     2
176
     1
 67
     7
176
     1
 79
     5
176
     1
170
     0
176
     1
171
     0
176
     1
290
     0
176
     1
 93
        1
176
     1
 44
-50.0
176
     1
173
     0
176
     1
  0
VISUALSTYLE
  5
7DC
102
{ACAD_REACTORS
330
7C9
102
}
102
{ACAD_XDICTIONARY
360
808
102
}
330
7C9
100
AcDbVisualStyle
  2
EdgeColorOff
 70
    22
177
     2
291
     1
 71
     2
176
     0
 72
     2
176
     0
 73
     0
176
     0
 90
        0
176
     0
 40
0.6
176
     0
 41
30.0
176
     0
 62
     5
 63
     7
421
 16777215
176
     0
 74
     1
176
     0
 91
        4
176
     0
 64
     7
176
     0
 65
   257
176
     0
 75
     1
176
     0
175
     1
176
     0
 42
1.0
176
     0
 92
        8
176
     2
 66
     7
176
     0
 43
1.0
176
     0
 76
     1
176
     0
 77
     6
176
     0
 78
     2
176
     0
 67
     7
176
     0
 79
     5
176
     0
170
     0
176
     0
171
     0
176
     0
290
     0
176
     0
 93
        1
176
     0
 44
0.0
176
     0
173
     0
176
     0
  0
VISUALSTYLE
  5
7D8
102
{ACAD_REACTORS
330
7C9
102
}
102
{ACAD_XDICTIONARY
360
800
102
}
330
7C9
100
AcDbVisualStyle
  2
Facepattern
 70
    15
177
     2
291
     1
 71
     2
176
     1
 72
     2
176
     1
 73
     0
176
     1
 90
        0
176
     1
 40
0.6
176
     1
 41
30.0
176
     1
 62
     5
 63
     7
421
 16777215
176
     1
 74
     1
176
     1
 91
        4
176
     1
 64
     7
176
     1
 65
   257
176
     1
 75
     1
176
     1
175
     1
176
     1
 42
1.0
176
     1
 92
        8
176
     1
 66
     7
176
     1
 43
1.0
176
     1
 76
     1
176
     1
 77
     6
176
     1
 78
     2
176
     1
 67
     7
176
     1
 79
     5
176
     1
170
     0
176
     1
171
     0
176
     1
290
     0
176
     1
 93
        1
176
     1
 44
0.0
176
     1
173
     0
176
     1
  0
VISUALSTYLE
  5
7CA
102
{ACAD_REACTORS
330
7C9
102
}
102
{ACAD_XDICTIONARY
360
7E4
102
}
330
7C9
100
AcDbVisualStyle
  2
Flat
 70
     0
177
     2
291
     1
 71
     2
176
     1
 72
     1
176
     1
 73
     1
176
     1
 90
        2
176
     1
 40
0.6
176
     1
 41
30.0
176
     1
 62
     5
 63
     7
421
 16777215
176
     1
 74
     0
176
     1
 91
        0
176
     1
 64
     7
176
     1
 65
   257
176
     1
 75
     1
176
     1
175
     1
176
     1
 42
1.0
176
     1
 92
        8
176
     1
 66
     7
176
     1
 43
1.0
176
     1
 76
     1
176
     1
 77
     6
176
     1
 78
     2
176
     1
 67
     7
176
     1
 79
     5
176
     1
170
     0
176
     1
171
     0
176
     1
290
     0
176
     1
 93
       13
176
     1
 44
0.0
176
     1
173
     0
176
     1
  0
VISUALSTYLE
  5
7CB
102
{ACAD_REACTORS
330
7C9
102
}
102
{ACAD_XDICTIONARY
360
7E6
102
}
330
7C9
100
AcDbVisualStyle
  2
FlatWithEdges
 70
     1
177
     2
291
     1
 71
     2
176
     1
 72
     1
176
     1
 73
     1
176
     1
 90
        2
176
     1
 40
0.6
176
     1
 41
30.0
176
     1
 62
     5
 63
     7
421
 16777215
176
     1
 74
     1
176
     1
 91
        0
176
     1
 64
     7
176
     1
 65
   257
176
     1
 75
     1
176
     1
175
     1
176
     1
 42
1.0
176
     1
 92
        0
176
     1
 66
   257
176
     1
 43
1.0
176
     1
 76
     1
176
     1
 77
     6
176
     1
 78
     2
176
     1
 67
     7
176
     1
 79
     5
176
     1
170
     0
176
     1
171
     0
176
     1
290
     0
176
     1
 93
       13
176
     1
 44
0.0
176
     1
173
     0
176
     1
  0
VISUALSTYLE
  5
7CC
102
{ACAD_REACTORS
330
7C9
102
}
102
{ACAD_XDICTIONARY
360
7E8
102
}
330
7C9
100
AcDbVisualStyle
  2
Gouraud
 70
     2
177
     2
291
     1
 71
     2
176
     1
 72
     2
176
     1
 73
     1
176
     1
 90
        2
176
     1
 40
0.6
176
     1
 41
30.0
176
     1
 62
     5
 63
     7
421
 16777215
176
     1
 74
     0
176
     1
 91
        0
176
     1
 64
     7
176
     1
 65
   257
176
     1
 75
     1
176
     1
175
     1
176
     1
 42
1.0
176
     1
 92
        0
176
     1
 66
     7
176
     1
 43
1.0
176
     1
 76
     1
176
     1
 77
     6
176
     1
 78
     2
176
     1
 67
     7
176
     1
 79
     5
176
     1
170
     0
176
     1
171
     0
176
     1
290
     0
176
     1
 93
       13
176
     1
 44
0.0
176
     1
173
     0
176
     1
  0
VISUALSTYLE
  5
7CD
102
{ACAD_REACTORS
330
7C9
102
}
102
{ACAD_XDICTIONARY
360
7EA
102
}
330
7C9
100
AcDbVisualStyle
  2
GouraudWithEdges
 70
     3
177
     2
291
     1
 71
     2
176
     1
 72
     2
176
     1
 73
     1
176
     1
 90
        2
176
     1
 40
0.6
176
     1
 41
30.0
176
     1
 62
     5
 63
     7
421
 16777215
176
     1
 74
     1
176
     1
 91
        0
176
     1
 64
     7
176
     1
 65
   257
176
     1
 75
     1
176
     1
175
     1
176
     1
 42
1.0
176
     1
 92
        0
176
     1
 66
   257
176
     1
 43
1.0
176
     1
 76
     1
176
     1
 77
     6
176
     1
 78
     2
176
     1
 67
     7
176
     1
 79
     5
176
     1
170
     0
176
     1
171
     0
176
     1
290
     0
176
     1
 93
       13
176
     1
 44
0.0
176
     1
173
     0
176
     1
  0
VISUALSTYLE
  5
7D0
102
{ACAD_REACTORS
330
7C9
102
}
102
{ACAD_XDICTIONARY
360
7F0
102
}
330
7C9
100
AcDbVisualStyle
  2
Hidden
 70
     6
177
     2
291
     0
 71
     1
176
     1
 72
     2
176
     1
 73
     2
176
     1
 90
        0
176
     1
 40
0.6
176
     1
 41
30.0
176
     1
 62
     5
 63
     7
421
 16777215
176
     1
 74
     2
176
     1
 91
        2
176
     1
 64
     7
176
     1
 65
   257
176
     1
 75
     2
176
     1
175
     1
176
     1
 42
40.0
176
     1
 92
        0
176
     1
 66
   257
176
     1
 43
1.0
176
     1
 76
     1
176
     1
 77
     6
176
     1
 78
     2
176
     1
 67
     7
176
     1
 79
     3
176
     1
170
     0
176
     1
171
     0
176
     1
290
     0
176
     1
 93
        1
176
     1
 44
0.0
176
     1
173
     0
176
     1
  0
VISUALSTYLE
  5
7DA
102
{ACAD_REACTORS
330
7C9
102
}
102
{ACAD_XDICTIONARY
360
804
102
}
330
7C9
100
AcDbVisualStyle
  2
JitterOff
 70
    20
177
     2
291
     1
 71
     2
176
     0
 72
     2
176
     0
 73
     0
176
     0
 90
        0
176
     0
 40
0.6
176
     0
 41
30.0
176
     0
 62
     5
 63
     7
421
 16777215
176
     0
 74
     1
176
     0
 91
        4
176
     0
 64
     7
176
     0
 65
   257
176
     0
 75
     1
176
     0
175
     1
176
     0
 42
1.0
176
     0
 92
       10
176
     2
 66
     7
176
     0
 43
1.0
176
     0
 76
     1
176
     0
 77
     6
176
     0
 78
     2
176
     0
 67
     7
176
     0
 79
     5
176
     0
170
     0
176
     0
171
     0
176
     0
290
     0
176
     0
 93
        1
176
     0
 44
0.0
176
     0
173
     0
176
     0
  0
VISUALSTYLE
  5
7D7
102
{ACAD_REACTORS
330
7C9
102
}
102
{ACAD_XDICTIONARY
360
7FE
102
}
330
7C9
100
AcDbVisualStyle
  2
Linepattern
 70
    14
177
     2
291
     1
 71
     2
176
     1
 72
     2
176
     1
 73
     0
176
     1
 90
        0
176
     1
 40
0.6
176
     1
 41
30.0
176
     1
 62
     5
 63
     7
421
 16777215
176
     1
 74
     1
176
     1
 91
        4
176
     1
 64
     7
176
     1
 65
   257
176
     1
 75
     7
176
     1
175
     7
176
     1
 42
1.0
176
     1
 92
        8
176
     1
 66
     7
176
     1
 43
1.0
176
     1
 76
     1
176
     1
 77
     6
176
     1
 78
     2
176
     1
 67
     7
176
     1
 79
     5
176
     1
170
     0
176
     1
171
     0
176
     1
290
     0
176
     1
 93
        1
176
     1
 44
0.0
176
     1
173
     0
176
     1
  0
VISUALSTYLE
  5
7DB
102
{ACAD_REACTORS
330
7C9
102
}
102
{ACAD_XDICTIONARY
360
806
102
}
330
7C9
100
AcDbVisualStyle
  2
OverhangOff
 70
    21
177
     2
291
     1
 71
     2
176
     0
 72
     2
176
     0
 73
     0
176
     0
 90
        0
176
     0
 40
0.6
176
     0
 41
30.0
176
     0
 62
     5
 63
     7
421
 16777215
176
     0
 74
     1
176
     0
 91
        4
176
     0
 64
     7
176
     0
 65
   257
176
     0
 75
     1
176
     0
175
     1
176
     0
 42
1.0
176
     0
 92
        9
176
     2
 66
     7
176
     0
 43
1.0
176
     0
 76
     1
176
     0
 77
     6
176
     0
 78
     2
176
     0
 67
     7
176
     0
 79
     5
176
     0
170
     0
176
     0
171
     0
176
     0
290
     0
176
     0
 93
        1
176
     0
 44
0.0
176
     0
173
     0
176
     0
  0
VISUALSTYLE
  5
7D2
102
{ACAD_REACTORS
330
7C9
102
}
102
{ACAD_XDICTIONARY
360
7F4
102
}
330
7C9
100
AcDbVisualStyle
  2
Realistic
 70
     8
177
     2
291
     0
 71
     2
176
     1
 72
     3
176
     1
 73
     0
176
     1
 90
        2
176
     1
 40
0.6
176
     1
 41
30.0
176
     1
 62
     5
 63
     7
421
 16777215
176
     1
 74
     0
176
     1
 91
        0
176
     1
 64
     7
176
     1
 65
   257
176
     1
 75
     1
176
     1
175
     1
176
     1
 42
1.0
176
     1
 92
        8
176
     1
 66
   257
176
     1
 43
1.0
176
     1
 76
     1
176
     1
 77
     6
176
     1
 78
     2
176
     1
 67
     7
176
     1
 79
     3
176
     1
170
     0
176
     1
171
     0
176
     1
290
     0
176
     1
 93
       13
176
     1
 44
0.0
176
     1
173
     0
176
     1
  0
VISUALSTYLE
  5
7E1
102
{ACAD_REACTORS
330
7C9
102
}
102
{ACAD_XDICTIONARY
360
812
102
}
330
7C9
100
AcDbVisualStyle
  2
Shaded
 70
    27
177
     2
291
     0
 71
     2
176
     1
 72
     2
176
     1
 73
     1
176
     1
 90
        2
176
     1
 40
0.6
176
     1
 41
30.0
176
     1
 62
     5
 63
     7
421
 16777215
176
     1
 74
     0
176
     1
 91
        4
176
     1
 64
     7
176
     1
 65
   257
176
     1
 75
     1
176
     1
175
     1
176
     1
 42
1.0
176
     1
 92
        8
176
     1
 66
   257
176
     1
 43
1.0
176
     1
 76
     1
176
     1
 77
     6
176
     1
 78
     2
176
     1
 67
     8
425
  7895160
176
     1
 79
     3
176
     1
170
     0
176
     1
171
     0
176
     1
290
     0
176
     1
 93
        5
176
     1
 44
0.0
176
     1
173
     0
176
     1
  0
VISUALSTYLE
  5
7E0
102
{ACAD_REACTORS
330
7C9
102
}
102
{ACAD_XDICTIONARY
360
810
102
}
330
7C9
100
AcDbVisualStyle
  2
Shaded with edges
 70
    26
177
     2
291
     0
 71
     2
176
     1
 72
     2
176
     1
 73
     1
176
     1
 90
        2
176
     1
 40
0.6
176
     1
 41
30.0
176
     1
 62
     5
 63
     7
421
 16777215
176
     1
 74
     1
176
     1
 91
       10
176
     1
 64
     7
176
     1
 65
   257
176
     1
 75
     2
176
     1
175
     1
176
     1
 42
1.0
176
     1
 92
        8
176
     1
 66
   257
176
     1
 43
1.0
176
     1
 76
     1
176
     1
 77
     6
176
     1
 78
     2
176
     1
 67
     7
176
     1
 79
     3
176
     1
170
     0
176
     1
171
     0
176
     1
290
     0
176
     1
 93
        5
176
     1
 44
0.0
176
     1
173
     0
176
     1
  0
VISUALSTYLE
  5
7DD
102
{ACAD_REACTORS
330
7C9
102
}
102
{ACAD_XDICTIONARY
360
80A
102
}
330
7C9
100
AcDbVisualStyle
  2
Shades of Gray
 70
    23
177
     2
291
     0
 71
     2
176
     1
 72
     2
176
     1
 73
     3
176
     1
 90
        0
176
     1
 40
0.6
176
     1
 41
30.0
176
     1
 62
     5
 63
     7
421
 16777215
176
     1
 74
     2
176
     1
 91
        2
176
     1
 64
     7
176
     1
 65
     7
176
     1
 75
     1
176
     1
175
     1
176
     1
 42
40.0
176
     1
 92
        8
176
     1
 66
     7
176
     1
 43
1.0
176
     1
 76
     1
176
     1
 77
     6
176
     1
 78
     2
176
     1
 67
     7
176
     1
 79
     3
176
     1
170
     0
176
     1
171
     0
176
     1
290
     0
176
     1
 93
        1
176
     1
 44
0.0
176
     1
173
     0
176
     1
  0
VISUALSTYLE
  5
7DE
102
{ACAD_REACTORS
330
7C9
102
}
102
{ACAD_XDICTIONARY
360
80C
102
}
330
7C9
100
AcDbVisualStyle
  2
Sketchy
 70
    24
177
     2
291
     0
 71
     1
176
     1
 72
     2
176
     1
 73
     2
176
     1
 90
        0
176
     1
 40
0.6
176
     1
 41
30.0
176
     1
 62
     5
 63
     7
421
 16777215
176
     1
 74
     2
176
     1
 91
        2
176
     1
 64
     7
176
     1
 65
     7
176
     1
 75
     1
176
     1
175
     1
176
     1
 42
40.0
176
     1
 92
       11
176
     1
 66
     7
176
     1
 43
1.0
176
     1
 76
     1
176
     1
 77
     6
176
     1
 78
     2
176
     1
 67
     7
176
     1
 79
     6
176
     1
170
     0
176
     1
171
     0
176
     1
290
     0
176
     1
 93
        1
176
     1
 44
0.0
176
     1
173
     0
176
     1
  0
VISUALSTYLE
  5
7D6
102
{ACAD_REACTORS
330
7C9
102
}
102
{ACAD_XDICTIONARY
360
7FC
102
}
330
7C9
100
AcDbVisualStyle
  2
Thicken
 70
    13
177
     2
291
     1
 71
     2
176
     1
 72
     2
176
     1
 73
     0
176
     1
 90
        0
176
     1
 40
0.6
176
     1
 41
30.0
176
     1
 62
     5
 63
     7
421
 16777215
176
     1
 74
     1
176
     1
 91
        4
176
     1
 64
     7
176
     1
 65
   257
176
     1
 75
     1
176
     1
175
     1
176
     1
 42
1.0
176
     1
 92
       12
176
     1
 66
     7
176
     1
 43
1.0
176
     1
 76
     1
176
     1
 77
     6
176
     1
 78
     2
176
     1
 67
     7
176
     1
 79
     5
176
     1
170
     0
176
     1
171
     0
176
     1
290
     0
176
     1
 93
        1
176
     1
 44
0.0
176
     1
173
     0
176
     1
  0
VISUALSTYLE
  5
7CF
102
{ACAD_REACTORS
330
7C9
102
}
102
{ACAD_XDICTIONARY
360
7EE
102
}
330
7C9
100
AcDbVisualStyle
  2
Wireframe
 70
     5
177
     2
291
     0
 71
     0
176
     1
 72
     2
176
     1
 73
     0
176
     1
 90
        0
176
     1
 40
0.6
176
     1
 41
30.0
176
     1
 62
     5
 63
     7
421
 16777215
176
     1
 74
     1
176
     1
 91
        4
176
     1
 64
     7
176
     1
 65
   257
176
     1
 75
     1
176
     1
175
     1
176
     1
 42
1.0
176
     1
 92
        0
176
     1
 66
   257
176
     1
 43
1.0
176
     1
 76
     1
176
     1
 77
     6
176
     1
 78
     2
176
     1
 67
     7
176
     1
 79
     3
176
     1
170
     0
176
     1
171
     0
176
     1
290
     0
176
     1
 93
        1
176
     1
 44
0.0
176
     1
173
     0
176
     1
  0
VISUALSTYLE
  5
7DF
102
{ACAD_REACTORS
330
7C9
102
}
102
{ACAD_XDICTIONARY
360
80E
102
}
330
7C9
100
AcDbVisualStyle
  2
X-Ray
 70
    25
177
     2
291
     0
 71
     2
176
     1
 72
     2
176
     1
 73
     1
176
     1
 90
        1
176
     1
 40
0.5
176
     1
 41
30.0
176
     1
 62
     5
 63
     7
421
 16777215
176
     1
 74
     1
176
     1
 91
        0
176
     1
 64
     7
176
     1
 65
   257
176
     1
 75
     1
176
     1
175
     1
176
     1
 42
1.0
176
     1
 92
        8
176
     1
 66
     7
176
     1
 43
1.0
176
     1
 76
     1
176
     1
 77
     6
176
     1
 78
     2
176
     1
 67
     7
176
     1
 79
     3
176
     1
170
     0
176
     1
171
     0
176
     1
290
     0
176
     1
 93
       13
176
     1
 44
0.0
176
     1
173
     0
176
     1
  0
DICTIONARYVAR
  5
7E3
102
{ACAD_REACTORS
330
7E2
102
}
330
7E2
100
DictionaryVariables
280
     0
  1
1:1
  0
DICTIONARYVAR
  5
816
102
{ACAD_REACTORS
330
7E2
102
}
330
7E2
100
DictionaryVariables
280
     0
  1
0
  0
DICTIONARY
  5
7EC
330
7CE
100
AcDbDictionary
280
     1
281
     1
  3
ACAD_XREC_ROUNDTRIP
360
7ED
  0
DICTIONARY
  5
7F2
330
7D1
100
AcDbDictionary
280
     1
281
     1
  3
ACAD_XREC_ROUNDTRIP
360
7F3
  0
DICTIONARY
  5
7FA
330
7D5
100
AcDbDictionary
280
     1
281
     1
  3
ACAD_XREC_ROUNDTRIP
360
7FB
  0
DICTIONARY
  5
802
330
7D9
100
AcDbDictionary
280
     1
281
     1
  3
ACAD_XREC_ROUNDTRIP
360
803
  0
DICTIONARY
  5
7F6
330
7D3
100
AcDbDictionary
280
     1
281
     1
  3
ACAD_XREC_ROUNDTRIP
360
7F7
  0
DICTIONARY
  5
7F8
330
7D4
100
AcDbDictionary
280
     1
281
     1
  3
ACAD_XREC_ROUNDTRIP
360
7F9
  0
DICTIONARY
  5
808
330
7DC
100
AcDbDictionary
280
     1
281
     1
  3
ACAD_XREC_ROUNDTRIP
360
809
  0
DICTIONARY
  5
800
330
7D8
100
AcDbDictionary
280
     1
281
     1
  3
ACAD_XREC_ROUNDTRIP
360
801
  0
DICTIONARY
  5
7E4
330
7CA
100
AcDbDictionary
280
     1
281
     1
  3
ACAD_XREC_ROUNDTRIP
360
7E5
  0
DICTIONARY
  5
7E6
330
7CB
100
AcDbDictionary
280
     1
281
     1
  3
ACAD_XREC_ROUNDTRIP
360
7E7
  0
DICTIONARY
  5
7E8
330
7CC
100
AcDbDictionary
280
     1
281
     1
  3
ACAD_XREC_ROUNDTRIP
360
7E9
  0
DICTIONARY
  5
7EA
330
7CD
100
AcDbDictionary
280
     1
281
     1
  3
ACAD_XREC_ROUNDTRIP
360
7EB
  0
DICTIONARY
  5
7F0
330
7D0
100
AcDbDictionary
280
     1
281
     1
  3
ACAD_XREC_ROUNDTRIP
360
7F1
  0
DICTIONARY
  5
804
330
7DA
100
AcDbDictionary
280
     1
281
     1
  3
ACAD_XREC_ROUNDTRIP
360
805
  0
DICTIONARY
  5
7FE
330
7D7
100
AcDbDictionary
280
     1
281
     1
  3
ACAD_XREC_ROUNDTRIP
360
7FF
  0
DICTIONARY
  5
806
330
7DB
100
AcDbDictionary
280
     1
281
     1
  3
ACAD_XREC_ROUNDTRIP
360
807
  0
DICTIONARY
  5
7F4
330
7D2
100
AcDbDictionary
280
     1
281
     1
  3
ACAD_XREC_ROUNDTRIP
360
7F5
  0
DICTIONARY
  5
812
330
7E1
100
AcDbDictionary
280
     1
281
     1
  3
ACAD_XREC_ROUNDTRIP
360
813
  0
DICTIONARY
  5
810
330
7E0
100
AcDbDictionary
280
     1
281
     1
  3
ACAD_XREC_ROUNDTRIP
360
811
  0
DICTIONARY
  5
80A
330
7DD
100
AcDbDictionary
280
     1
281
     1
  3
ACAD_XREC_ROUNDTRIP
360
80B
  0
DICTIONARY
  5
80C
330
7DE
100
AcDbDictionary
280
     1
281
     1
  3
ACAD_XREC_ROUNDTRIP
360
80D
  0
DICTIONARY
  5
7FC
330
7D6
100
AcDbDictionary
280
     1
281
     1
  3
ACAD_XREC_ROUNDTRIP
360
7FD
  0
DICTIONARY
  5
7EE
330
7CF
100
AcDbDictionary
280
     1
281
     1
  3
ACAD_XREC_ROUNDTRIP
360
7EF
  0
DICTIONARY
  5
80E
330
7DF
100
AcDbDictionary
280
     1
281
     1
  3
ACAD_XREC_ROUNDTRIP
360
80F
  0
XRECORD
  5
7ED
102
{ACAD_REACTORS
330
7EC
102
}
330
7EC
100
AcDbXrecord
280
     1
102
RTVSPost2010Prop28
280
     1
102
RTVSPost2010PropOp28
 70
     1
102
RTVSPost2010Prop29
280
     1
102
RTVSPost2010PropOp29
 70
     1
102
RTVSPost2010Prop30
280
     0
102
RTVSPost2010PropOp30
 70
     1
102
RTVSPost2010Prop31
280
     0
102
RTVSPost2010PropOp31
 70
     1
102
RTVSPost2010Prop32
280
     0
102
RTVSPost2010PropOp32
 70
     1
102
RTVSPost2010Prop33
280
     0
102
RTVSPost2010PropOp33
 70
     1
102
RTVSPost2010Prop34
280
     0
102
RTVSPost2010PropOp34
 70
     1
102
RTVSPost2010Prop35
280
     0
102
RTVSPost2010PropOp35
 70
     1
102
RTVSPost2010Prop36
280
     0
102
RTVSPost2010PropOp36
 70
     1
102
RTVSPost2010Prop37
 90
       50
102
RTVSPost2010PropOp37
 70
     1
102
RTVSPost2010Prop38
140
0.0
102
RTVSPost2010PropOp38
 70
     1
102
RTVSPost2010Prop39
140
1.0
102
RTVSPost2010PropOp39
 70
     1
102
RTVSPost2010Prop40
 90
        0
102
RTVSPost2010PropOp40
 70
     1
102
RTVSPost2010Prop41ColorIndex
 90
       18
102
RTVSPost2010Prop41ColorRGB
 90
        0
102
RTVSPost2010PropOp41
 70
     1
102
RTVSPost2010Prop42
 90
       50
102
RTVSPost2010PropOp42
 70
     1
102
RTVSPost2010Prop43
 90
        3
102
RTVSPost2010PropOp43
 70
     1
102
RTVSPost2010Prop44ColorIndex
 90
        5
102
RTVSPost2010Prop44ColorRGB
 90
      255
102
RTVSPost2010PropOp44
 70
     1
102
RTVSPost2010Prop45
280
     0
102
RTVSPost2010PropOp45
 70
     1
102
RTVSPost2010Prop46
 90
       50
102
RTVSPost2010PropOp46
 70
     1
102
RTVSPost2010Prop47
 90
       50
102
RTVSPost2010PropOp47
 70
     1
102
RTVSPost2010Prop48
 90
       50
102
RTVSPost2010PropOp48
 70
     1
102
RTVSPost2010Prop49
280
     0
102
RTVSPost2010PropOp49
 70
     1
102
RTVSPost2010Prop50
 90
       50
102
RTVSPost2010PropOp50
 70
     1
102
RTVSPost2010Prop51ColorIndex
 90
      256
102
RTVSPost2010Prop51ColorRGB
 90
-16777216
102
RTVSPost2010PropOp51
 70
     0
102
RTVSPost2010Prop52
140
1.0
102
RTVSPost2010PropOp52
 70
     0
102
RTVSPost2010Prop53
 90
        2
102
RTVSPost2010PropOp53
 70
     1
102
RTVSPost2010Prop54
  1
strokes_ogs.tif
102
RTVSPost2010PropOp54
 70
     1
102
RTVSPost2010Prop55
280
     0
102
RTVSPost2010PropOp55
 70
     1
102
RTVSPost2010Prop56
140
1.0
102
RTVSPost2010PropOp56
 70
     1
102
RTVSPost2010Prop57
140
1.0
102
RTVSPost2010PropOp57
 70
     1
  0
XRECORD
  5
7F3
102
{ACAD_REACTORS
330
7F2
102
}
330
7F2
100
AcDbXrecord
280
     1
102
RTVSPost2010Prop28
280
     0
102
RTVSPost2010PropOp28
 70
     1
102
RTVSPost2010Prop29
280
     1
102
RTVSPost2010PropOp29
 70
     1
102
RTVSPost2010Prop30
280
     1
102
RTVSPost2010PropOp30
 70
     1
102
RTVSPost2010Prop31
280
     0
102
RTVSPost2010PropOp31
 70
     1
102
RTVSPost2010Prop32
280
     0
102
RTVSPost2010PropOp32
 70
     1
102
RTVSPost2010Prop33
280
     0
102
RTVSPost2010PropOp33
 70
     1
102
RTVSPost2010Prop34
280
     0
102
RTVSPost2010PropOp34
 70
     1
102
RTVSPost2010Prop35
280
     0
102
RTVSPost2010PropOp35
 70
     1
102
RTVSPost2010Prop36
280
     0
102
RTVSPost2010PropOp36
 70
     1
102
RTVSPost2010Prop37
 90
       50
102
RTVSPost2010PropOp37
 70
     1
102
RTVSPost2010Prop38
140
0.0
102
RTVSPost2010PropOp38
 70
     1
102
RTVSPost2010Prop39
140
1.0
102
RTVSPost2010PropOp39
 70
     1
102
RTVSPost2010Prop40
 90
        0
102
RTVSPost2010PropOp40
 70
     1
102
RTVSPost2010Prop41ColorIndex
 90
       18
102
RTVSPost2010Prop41ColorRGB
 90
        0
102
RTVSPost2010PropOp41
 70
     1
102
RTVSPost2010Prop42
 90
       50
102
RTVSPost2010PropOp42
 70
     1
102
RTVSPost2010Prop43
 90
        3
102
RTVSPost2010PropOp43
 70
     1
102
RTVSPost2010Prop44ColorIndex
 90
        5
102
RTVSPost2010Prop44ColorRGB
 90
      255
102
RTVSPost2010PropOp44
 70
     1
102
RTVSPost2010Prop45
280
     0
102
RTVSPost2010PropOp45
 70
     1
102
RTVSPost2010Prop46
 90
       50
102
RTVSPost2010PropOp46
 70
     1
102
RTVSPost2010Prop47
 90
       50
102
RTVSPost2010PropOp47
 70
     1
102
RTVSPost2010Prop48
 90
       50
102
RTVSPost2010PropOp48
 70
     1
102
RTVSPost2010Prop49
280
     0
102
RTVSPost2010PropOp49
 70
     1
102
RTVSPost2010Prop50
 90
       50
102
RTVSPost2010PropOp50
 70
     1
102
RTVSPost2010Prop51ColorIndex
 90
      256
102
RTVSPost2010Prop51ColorRGB
 90
-16777216
102
RTVSPost2010PropOp51
 70
     0
102
RTVSPost2010Prop52
140
1.0
102
RTVSPost2010PropOp52
 70
     0
102
RTVSPost2010Prop53
 90
        2
102
RTVSPost2010PropOp53
 70
     1
102
RTVSPost2010Prop54
  1
strokes_ogs.tif
102
RTVSPost2010PropOp54
 70
     1
102
RTVSPost2010Prop55
280
     0
102
RTVSPost2010PropOp55
 70
     1
102
RTVSPost2010Prop56
140
1.0
102
RTVSPost2010PropOp56
 70
     1
102
RTVSPost2010Prop57
140
1.0
102
RTVSPost2010PropOp57
 70
     1
  0
XRECORD
  5
7FB
102
{ACAD_REACTORS
330
7FA
102
}
330
7FA
100
AcDbXrecord
280
     1
102
RTVSPost2010Prop28
280
     0
102
RTVSPost2010PropOp28
 70
     1
102
RTVSPost2010Prop29
280
     1
102
RTVSPost2010PropOp29
 70
     1
102
RTVSPost2010Prop30
280
     1
102
RTVSPost2010PropOp30
 70
     1
102
RTVSPost2010Prop31
280
     0
102
RTVSPost2010PropOp31
 70
     1
102
RTVSPost2010Prop32
280
     0
102
RTVSPost2010PropOp32
 70
     1
102
RTVSPost2010Prop33
280
     0
102
RTVSPost2010PropOp33
 70
     1
102
RTVSPost2010Prop34
280
     0
102
RTVSPost2010PropOp34
 70
     1
102
RTVSPost2010Prop35
280
     0
102
RTVSPost2010PropOp35
 70
     1
102
RTVSPost2010Prop36
280
     0
102
RTVSPost2010PropOp36
 70
     1
102
RTVSPost2010Prop37
 90
       50
102
RTVSPost2010PropOp37
 70
     1
102
RTVSPost2010Prop38
140
0.0
102
RTVSPost2010PropOp38
 70
     1
102
RTVSPost2010Prop39
140
1.0
102
RTVSPost2010PropOp39
 70
     1
102
RTVSPost2010Prop40
 90
        0
102
RTVSPost2010PropOp40
 70
     1
102
RTVSPost2010Prop41ColorIndex
 90
       18
102
RTVSPost2010Prop41ColorRGB
 90
        0
102
RTVSPost2010PropOp41
 70
     1
102
RTVSPost2010Prop42
 90
       50
102
RTVSPost2010PropOp42
 70
     1
102
RTVSPost2010Prop43
 90
        3
102
RTVSPost2010PropOp43
 70
     1
102
RTVSPost2010Prop44ColorIndex
 90
        5
102
RTVSPost2010Prop44ColorRGB
 90
      255
102
RTVSPost2010PropOp44
 70
     1
102
RTVSPost2010Prop45
280
     0
102
RTVSPost2010PropOp45
 70
     1
102
RTVSPost2010Prop46
 90
       50
102
RTVSPost2010PropOp46
 70
     1
102
RTVSPost2010Prop47
 90
       50
102
RTVSPost2010PropOp47
 70
     1
102
RTVSPost2010Prop48
 90
       50
102
RTVSPost2010PropOp48
 70
     1
102
RTVSPost2010Prop49
280
     0
102
RTVSPost2010PropOp49
 70
     1
102
RTVSPost2010Prop50
 90
       50
102
RTVSPost2010PropOp50
 70
     1
102
RTVSPost2010Prop51ColorIndex
 90
      256
102
RTVSPost2010Prop51ColorRGB
 90
-16777216
102
RTVSPost2010PropOp51
 70
     0
102
RTVSPost2010Prop52
140
1.0
102
RTVSPost2010PropOp52
 70
     0
102
RTVSPost2010Prop53
 90
        2
102
RTVSPost2010PropOp53
 70
     1
102
RTVSPost2010Prop54
  1
strokes_ogs.tif
102
RTVSPost2010PropOp54
 70
     1
102
RTVSPost2010Prop55
280
     0
102
RTVSPost2010PropOp55
 70
     1
102
RTVSPost2010Prop56
140
1.0
102
RTVSPost2010PropOp56
 70
     1
102
RTVSPost2010Prop57
140
1.0
102
RTVSPost2010PropOp57
 70
     1
  0
XRECORD
  5
803
102
{ACAD_REACTORS
330
802
102
}
330
802
100
AcDbXrecord
280
     1
102
RTVSPost2010Prop28
280
     0
102
RTVSPost2010PropOp28
 70
     1
102
RTVSPost2010Prop29
280
     1
102
RTVSPost2010PropOp29
 70
     1
102
RTVSPost2010Prop30
280
     1
102
RTVSPost2010PropOp30
 70
     1
102
RTVSPost2010Prop31
280
     0
102
RTVSPost2010PropOp31
 70
     1
102
RTVSPost2010Prop32
280
     0
102
RTVSPost2010PropOp32
 70
     1
102
RTVSPost2010Prop33
280
     0
102
RTVSPost2010PropOp33
 70
     1
102
RTVSPost2010Prop34
280
     0
102
RTVSPost2010PropOp34
 70
     1
102
RTVSPost2010Prop35
280
     0
102
RTVSPost2010PropOp35
 70
     1
102
RTVSPost2010Prop36
280
     0
102
RTVSPost2010PropOp36
 70
     1
102
RTVSPost2010Prop37
 90
       50
102
RTVSPost2010PropOp37
 70
     1
102
RTVSPost2010Prop38
140
0.0
102
RTVSPost2010PropOp38
 70
     1
102
RTVSPost2010Prop39
140
1.0
102
RTVSPost2010PropOp39
 70
     1
102
RTVSPost2010Prop40
 90
        0
102
RTVSPost2010PropOp40
 70
     1
102
RTVSPost2010Prop41ColorIndex
 90
       18
102
RTVSPost2010Prop41ColorRGB
 90
        0
102
RTVSPost2010PropOp41
 70
     1
102
RTVSPost2010Prop42
 90
       50
102
RTVSPost2010PropOp42
 70
     1
102
RTVSPost2010Prop43
 90
        3
102
RTVSPost2010PropOp43
 70
     1
102
RTVSPost2010Prop44ColorIndex
 90
        5
102
RTVSPost2010Prop44ColorRGB
 90
      255
102
RTVSPost2010PropOp44
 70
     1
102
RTVSPost2010Prop45
280
     0
102
RTVSPost2010PropOp45
 70
     1
102
RTVSPost2010Prop46
 90
       50
102
RTVSPost2010PropOp46
 70
     1
102
RTVSPost2010Prop47
 90
       50
102
RTVSPost2010PropOp47
 70
     1
102
RTVSPost2010Prop48
 90
       50
102
RTVSPost2010PropOp48
 70
     1
102
RTVSPost2010Prop49
280
     0
102
RTVSPost2010PropOp49
 70
     1
102
RTVSPost2010Prop50
 90
       50
102
RTVSPost2010PropOp50
 70
     1
102
RTVSPost2010Prop51ColorIndex
 90
      256
102
RTVSPost2010Prop51ColorRGB
 90
-16777216
102
RTVSPost2010PropOp51
 70
     0
102
RTVSPost2010Prop52
140
1.0
102
RTVSPost2010PropOp52
 70
     0
102
RTVSPost2010Prop53
 90
        2
102
RTVSPost2010PropOp53
 70
     1
102
RTVSPost2010Prop54
  1
strokes_ogs.tif
102
RTVSPost2010PropOp54
 70
     1
102
RTVSPost2010Prop55
280
     0
102
RTVSPost2010PropOp55
 70
     1
102
RTVSPost2010Prop56
140
1.0
102
RTVSPost2010PropOp56
 70
     1
102
RTVSPost2010Prop57
140
1.0
102
RTVSPost2010PropOp57
 70
     1
  0
XRECORD
  5
7F7
102
{ACAD_REACTORS
330
7F6
102
}
330
7F6
100
AcDbXrecord
280
     1
102
RTVSPost2010Prop28
280
     0
102
RTVSPost2010PropOp28
 70
     1
102
RTVSPost2010Prop29
280
     1
102
RTVSPost2010PropOp29
 70
     1
102
RTVSPost2010Prop30
280
     1
102
RTVSPost2010PropOp30
 70
     1
102
RTVSPost2010Prop31
280
     0
102
RTVSPost2010PropOp31
 70
     1
102
RTVSPost2010Prop32
280
     0
102
RTVSPost2010PropOp32
 70
     1
102
RTVSPost2010Prop33
280
     0
102
RTVSPost2010PropOp33
 70
     1
102
RTVSPost2010Prop34
280
     0
102
RTVSPost2010PropOp34
 70
     1
102
RTVSPost2010Prop35
280
     0
102
RTVSPost2010PropOp35
 70
     1
102
RTVSPost2010Prop36
280
     0
102
RTVSPost2010PropOp36
 70
     1
102
RTVSPost2010Prop37
 90
       50
102
RTVSPost2010PropOp37
 70
     1
102
RTVSPost2010Prop38
140
0.0
102
RTVSPost2010PropOp38
 70
     1
102
RTVSPost2010Prop39
140
1.0
102
RTVSPost2010PropOp39
 70
     1
102
RTVSPost2010Prop40
 90
        0
102
RTVSPost2010PropOp40
 70
     1
102
RTVSPost2010Prop41ColorIndex
 90
       18
102
RTVSPost2010Prop41ColorRGB
 90
        0
102
RTVSPost2010PropOp41
 70
     1
102
RTVSPost2010Prop42
 90
       50
102
RTVSPost2010PropOp42
 70
     1
102
RTVSPost2010Prop43
 90
        3
102
RTVSPost2010PropOp43
 70
     1
102
RTVSPost2010Prop44ColorIndex
 90
        5
102
RTVSPost2010Prop44ColorRGB
 90
      255
102
RTVSPost2010PropOp44
 70
     1
102
RTVSPost2010Prop45
280
     0
102
RTVSPost2010PropOp45
 70
     1
102
RTVSPost2010Prop46
 90
       50
102
RTVSPost2010PropOp46
 70
     1
102
RTVSPost2010Prop47
 90
       50
102
RTVSPost2010PropOp47
 70
     1
102
RTVSPost2010Prop48
 90
       50
102
RTVSPost2010PropOp48
 70
     1
102
RTVSPost2010Prop49
280
     0
102
RTVSPost2010PropOp49
 70
     1
102
RTVSPost2010Prop50
 90
       50
102
RTVSPost2010PropOp50
 70
     1
102
RTVSPost2010Prop51ColorIndex
 90
      256
102
RTVSPost2010Prop51ColorRGB
 90
-16777216
102
RTVSPost2010PropOp51
 70
     0
102
RTVSPost2010Prop52
140
1.0
102
RTVSPost2010PropOp52
 70
     0
102
RTVSPost2010Prop53
 90
        2
102
RTVSPost2010PropOp53
 70
     1
102
RTVSPost2010Prop54
  1
strokes_ogs.tif
102
RTVSPost2010PropOp54
 70
     1
102
RTVSPost2010Prop55
280
     0
102
RTVSPost2010PropOp55
 70
     1
102
RTVSPost2010Prop56
140
1.0
102
RTVSPost2010PropOp56
 70
     1
102
RTVSPost2010Prop57
140
1.0
102
RTVSPost2010PropOp57
 70
     1
  0
XRECORD
  5
7F9
102
{ACAD_REACTORS
330
7F8
102
}
330
7F8
100
AcDbXrecord
280
     1
102
RTVSPost2010Prop28
280
     0
102
RTVSPost2010PropOp28
 70
     1
102
RTVSPost2010Prop29
280
     1
102
RTVSPost2010PropOp29
 70
     1
102
RTVSPost2010Prop30
280
     1
102
RTVSPost2010PropOp30
 70
     1
102
RTVSPost2010Prop31
280
     0
102
RTVSPost2010PropOp31
 70
     1
102
RTVSPost2010Prop32
280
     0
102
RTVSPost2010PropOp32
 70
     1
102
RTVSPost2010Prop33
280
     0
102
RTVSPost2010PropOp33
 70
     1
102
RTVSPost2010Prop34
280
     0
102
RTVSPost2010PropOp34
 70
     1
102
RTVSPost2010Prop35
280
     0
102
RTVSPost2010PropOp35
 70
     1
102
RTVSPost2010Prop36
280
     0
102
RTVSPost2010PropOp36
 70
     1
102
RTVSPost2010Prop37
 90
       50
102
RTVSPost2010PropOp37
 70
     1
102
RTVSPost2010Prop38
140
0.0
102
RTVSPost2010PropOp38
 70
     1
102
RTVSPost2010Prop39
140
1.0
102
RTVSPost2010PropOp39
 70
     1
102
RTVSPost2010Prop40
 90
        0
102
RTVSPost2010PropOp40
 70
     1
102
RTVSPost2010Prop41ColorIndex
 90
       18
102
RTVSPost2010Prop41ColorRGB
 90
        0
102
RTVSPost2010PropOp41
 70
     1
102
RTVSPost2010Prop42
 90
       50
102
RTVSPost2010PropOp42
 70
     1
102
RTVSPost2010Prop43
 90
        3
102
RTVSPost2010PropOp43
 70
     1
102
RTVSPost2010Prop44ColorIndex
 90
        5
102
RTVSPost2010Prop44ColorRGB
 90
      255
102
RTVSPost2010PropOp44
 70
     1
102
RTVSPost2010Prop45
280
     0
102
RTVSPost2010PropOp45
 70
     1
102
RTVSPost2010Prop46
 90
       50
102
RTVSPost2010PropOp46
 70
     1
102
RTVSPost2010Prop47
 90
       50
102
RTVSPost2010PropOp47
 70
     1
102
RTVSPost2010Prop48
 90
       50
102
RTVSPost2010PropOp48
 70
     1
102
RTVSPost2010Prop49
280
     0
102
RTVSPost2010PropOp49
 70
     1
102
RTVSPost2010Prop50
 90
       50
102
RTVSPost2010PropOp50
 70
     1
102
RTVSPost2010Prop51ColorIndex
 90
      256
102
RTVSPost2010Prop51ColorRGB
 90
-16777216
102
RTVSPost2010PropOp51
 70
     0
102
RTVSPost2010Prop52
140
1.0
102
RTVSPost2010PropOp52
 70
     0
102
RTVSPost2010Prop53
 90
        2
102
RTVSPost2010PropOp53
 70
     1
102
RTVSPost2010Prop54
  1
strokes_ogs.tif
102
RTVSPost2010PropOp54
 70
     1
102
RTVSPost2010Prop55
280
     0
102
RTVSPost2010PropOp55
 70
     1
102
RTVSPost2010Prop56
140
1.0
102
RTVSPost2010PropOp56
 70
     1
102
RTVSPost2010Prop57
140
1.0
102
RTVSPost2010PropOp57
 70
     1
  0
XRECORD
  5
809
102
{ACAD_REACTORS
330
808
102
}
330
808
100
AcDbXrecord
280
     1
102
RTVSPost2010Prop28
280
     0
102
RTVSPost2010PropOp28
 70
     0
102
RTVSPost2010Prop29
280
     1
102
RTVSPost2010PropOp29
 70
     0
102
RTVSPost2010Prop30
280
     1
102
RTVSPost2010PropOp30
 70
     0
102
RTVSPost2010Prop31
280
     0
102
RTVSPost2010PropOp31
 70
     0
102
RTVSPost2010Prop32
280
     0
102
RTVSPost2010PropOp32
 70
     0
102
RTVSPost2010Prop33
280
     0
102
RTVSPost2010PropOp33
 70
     0
102
RTVSPost2010Prop34
280
     0
102
RTVSPost2010PropOp34
 70
     0
102
RTVSPost2010Prop35
280
     0
102
RTVSPost2010PropOp35
 70
     0
102
RTVSPost2010Prop36
280
     0
102
RTVSPost2010PropOp36
 70
     0
102
RTVSPost2010Prop37
 90
       50
102
RTVSPost2010PropOp37
 70
     0
102
RTVSPost2010Prop38
140
0.0
102
RTVSPost2010PropOp38
 70
     0
102
RTVSPost2010Prop39
140
1.0
102
RTVSPost2010PropOp39
 70
     0
102
RTVSPost2010Prop40
 90
        0
102
RTVSPost2010PropOp40
 70
     0
102
RTVSPost2010Prop41ColorIndex
 90
       18
102
RTVSPost2010Prop41ColorRGB
 90
        0
102
RTVSPost2010PropOp41
 70
     0
102
RTVSPost2010Prop42
 90
       50
102
RTVSPost2010PropOp42
 70
     0
102
RTVSPost2010Prop43
 90
        3
102
RTVSPost2010PropOp43
 70
     0
102
RTVSPost2010Prop44ColorIndex
 90
        5
102
RTVSPost2010Prop44ColorRGB
 90
      255
102
RTVSPost2010PropOp44
 70
     0
102
RTVSPost2010Prop45
280
     0
102
RTVSPost2010PropOp45
 70
     0
102
RTVSPost2010Prop46
 90
       50
102
RTVSPost2010PropOp46
 70
     0
102
RTVSPost2010Prop47
 90
       50
102
RTVSPost2010PropOp47
 70
     0
102
RTVSPost2010Prop48
 90
       50
102
RTVSPost2010PropOp48
 70
     0
102
RTVSPost2010Prop49
280
     0
102
RTVSPost2010PropOp49
 70
     0
102
RTVSPost2010Prop50
 90
       50
102
RTVSPost2010PropOp50
 70
     0
102
RTVSPost2010Prop51ColorIndex
 90
      256
102
RTVSPost2010Prop51ColorRGB
 90
-16777216
102
RTVSPost2010PropOp51
 70
     0
102
RTVSPost2010Prop52
140
1.0
102
RTVSPost2010PropOp52
 70
     0
102
RTVSPost2010Prop53
 90
        2
102
RTVSPost2010PropOp53
 70
     0
102
RTVSPost2010Prop54
  1
strokes_ogs.tif
102
RTVSPost2010PropOp54
 70
     0
102
RTVSPost2010Prop55
280
     0
102
RTVSPost2010PropOp55
 70
     0
102
RTVSPost2010Prop56
140
1.0
102
RTVSPost2010PropOp56
 70
     0
102
RTVSPost2010Prop57
140
1.0
102
RTVSPost2010PropOp57
 70
     0
  0
XRECORD
  5
801
102
{ACAD_REACTORS
330
800
102
}
330
800
100
AcDbXrecord
280
     1
102
RTVSPost2010Prop28
280
     0
102
RTVSPost2010PropOp28
 70
     1
102
RTVSPost2010Prop29
280
     1
102
RTVSPost2010PropOp29
 70
     1
102
RTVSPost2010Prop30
280
     1
102
RTVSPost2010PropOp30
 70
     1
102
RTVSPost2010Prop31
280
     0
102
RTVSPost2010PropOp31
 70
     1
102
RTVSPost2010Prop32
280
     0
102
RTVSPost2010PropOp32
 70
     1
102
RTVSPost2010Prop33
280
     0
102
RTVSPost2010PropOp33
 70
     1
102
RTVSPost2010Prop34
280
     0
102
RTVSPost2010PropOp34
 70
     1
102
RTVSPost2010Prop35
280
     0
102
RTVSPost2010PropOp35
 70
     1
102
RTVSPost2010Prop36
280
     0
102
RTVSPost2010PropOp36
 70
     1
102
RTVSPost2010Prop37
 90
       50
102
RTVSPost2010PropOp37
 70
     1
102
RTVSPost2010Prop38
140
0.0
102
RTVSPost2010PropOp38
 70
     1
102
RTVSPost2010Prop39
140
1.0
102
RTVSPost2010PropOp39
 70
     1
102
RTVSPost2010Prop40
 90
        0
102
RTVSPost2010PropOp40
 70
     1
102
RTVSPost2010Prop41ColorIndex
 90
       18
102
RTVSPost2010Prop41ColorRGB
 90
        0
102
RTVSPost2010PropOp41
 70
     1
102
RTVSPost2010Prop42
 90
       50
102
RTVSPost2010PropOp42
 70
     1
102
RTVSPost2010Prop43
 90
        3
102
RTVSPost2010PropOp43
 70
     1
102
RTVSPost2010Prop44ColorIndex
 90
        5
102
RTVSPost2010Prop44ColorRGB
 90
      255
102
RTVSPost2010PropOp44
 70
     1
102
RTVSPost2010Prop45
280
     0
102
RTVSPost2010PropOp45
 70
     1
102
RTVSPost2010Prop46
 90
       50
102
RTVSPost2010PropOp46
 70
     1
102
RTVSPost2010Prop47
 90
       50
102
RTVSPost2010PropOp47
 70
     1
102
RTVSPost2010Prop48
 90
       50
102
RTVSPost2010PropOp48
 70
     1
102
RTVSPost2010Prop49
280
     0
102
RTVSPost2010PropOp49
 70
     1
102
RTVSPost2010Prop50
 90
       50
102
RTVSPost2010PropOp50
 70
     1
102
RTVSPost2010Prop51ColorIndex
 90
      256
102
RTVSPost2010Prop51ColorRGB
 90
-16777216
102
RTVSPost2010PropOp51
 70
     0
102
RTVSPost2010Prop52
140
1.0
102
RTVSPost2010PropOp52
 70
     0
102
RTVSPost2010Prop53
 90
        2
102
RTVSPost2010PropOp53
 70
     1
102
RTVSPost2010Prop54
  1
strokes_ogs.tif
102
RTVSPost2010PropOp54
 70
     1
102
RTVSPost2010Prop55
280
     0
102
RTVSPost2010PropOp55
 70
     1
102
RTVSPost2010Prop56
140
1.0
102
RTVSPost2010PropOp56
 70
     1
102
RTVSPost2010Prop57
140
1.0
102
RTVSPost2010PropOp57
 70
     1
  0
XRECORD
  5
7E5
102
{ACAD_REACTORS
330
7E4
102
}
330
7E4
100
AcDbXrecord
280
     1
102
RTVSPost2010Prop28
280
     0
102
RTVSPost2010PropOp28
 70
     1
102
RTVSPost2010Prop29
280
     1
102
RTVSPost2010PropOp29
 70
     1
102
RTVSPost2010Prop30
280
     1
102
RTVSPost2010PropOp30
 70
     1
102
RTVSPost2010Prop31
280
     0
102
RTVSPost2010PropOp31
 70
     1
102
RTVSPost2010Prop32
280
     0
102
RTVSPost2010PropOp32
 70
     1
102
RTVSPost2010Prop33
280
     0
102
RTVSPost2010PropOp33
 70
     1
102
RTVSPost2010Prop34
280
     0
102
RTVSPost2010PropOp34
 70
     1
102
RTVSPost2010Prop35
280
     0
102
RTVSPost2010PropOp35
 70
     1
102
RTVSPost2010Prop36
280
     0
102
RTVSPost2010PropOp36
 70
     1
102
RTVSPost2010Prop37
 90
       50
102
RTVSPost2010PropOp37
 70
     1
102
RTVSPost2010Prop38
140
0.0
102
RTVSPost2010PropOp38
 70
     1
102
RTVSPost2010Prop39
140
1.0
102
RTVSPost2010PropOp39
 70
     1
102
RTVSPost2010Prop40
 90
        0
102
RTVSPost2010PropOp40
 70
     1
102
RTVSPost2010Prop41ColorIndex
 90
       18
102
RTVSPost2010Prop41ColorRGB
 90
        0
102
RTVSPost2010PropOp41
 70
     1
102
RTVSPost2010Prop42
 90
       50
102
RTVSPost2010PropOp42
 70
     1
102
RTVSPost2010Prop43
 90
        3
102
RTVSPost2010PropOp43
 70
     1
102
RTVSPost2010Prop44ColorIndex
 90
        5
102
RTVSPost2010Prop44ColorRGB
 90
      255
102
RTVSPost2010PropOp44
 70
     1
102
RTVSPost2010Prop45
280
     0
102
RTVSPost2010PropOp45
 70
     1
102
RTVSPost2010Prop46
 90
       50
102
RTVSPost2010PropOp46
 70
     1
102
RTVSPost2010Prop47
 90
       50
102
RTVSPost2010PropOp47
 70
     1
102
RTVSPost2010Prop48
 90
       50
102
RTVSPost2010PropOp48
 70
     1
102
RTVSPost2010Prop49
280
     0
102
RTVSPost2010PropOp49
 70
     1
102
RTVSPost2010Prop50
 90
       50
102
RTVSPost2010PropOp50
 70
     1
102
RTVSPost2010Prop51ColorIndex
 90
      256
102
RTVSPost2010Prop51ColorRGB
 90
-16777216
102
RTVSPost2010PropOp51
 70
     0
102
RTVSPost2010Prop52
140
1.0
102
RTVSPost2010PropOp52
 70
     0
102
RTVSPost2010Prop53
 90
        2
102
RTVSPost2010PropOp53
 70
     1
102
RTVSPost2010Prop54
  1
strokes_ogs.tif
102
RTVSPost2010PropOp54
 70
     1
102
RTVSPost2010Prop55
280
     0
102
RTVSPost2010PropOp55
 70
     1
102
RTVSPost2010Prop56
140
1.0
102
RTVSPost2010PropOp56
 70
     1
102
RTVSPost2010Prop57
140
1.0
102
RTVSPost2010PropOp57
 70
     1
  0
XRECORD
  5
7E7
102
{ACAD_REACTORS
330
7E6
102
}
330
7E6
100
AcDbXrecord
280
     1
102
RTVSPost2010Prop28
280
     0
102
RTVSPost2010PropOp28
 70
     1
102
RTVSPost2010Prop29
280
     1
102
RTVSPost2010PropOp29
 70
     1
102
RTVSPost2010Prop30
280
     1
102
RTVSPost2010PropOp30
 70
     1
102
RTVSPost2010Prop31
280
     0
102
RTVSPost2010PropOp31
 70
     1
102
RTVSPost2010Prop32
280
     0
102
RTVSPost2010PropOp32
 70
     1
102
RTVSPost2010Prop33
280
     0
102
RTVSPost2010PropOp33
 70
     1
102
RTVSPost2010Prop34
280
     0
102
RTVSPost2010PropOp34
 70
     1
102
RTVSPost2010Prop35
280
     0
102
RTVSPost2010PropOp35
 70
     1
102
RTVSPost2010Prop36
280
     0
102
RTVSPost2010PropOp36
 70
     1
102
RTVSPost2010Prop37
 90
       50
102
RTVSPost2010PropOp37
 70
     1
102
RTVSPost2010Prop38
140
0.0
102
RTVSPost2010PropOp38
 70
     1
102
RTVSPost2010Prop39
140
1.0
102
RTVSPost2010PropOp39
 70
     1
102
RTVSPost2010Prop40
 90
        0
102
RTVSPost2010PropOp40
 70
     1
102
RTVSPost2010Prop41ColorIndex
 90
       18
102
RTVSPost2010Prop41ColorRGB
 90
        0
102
RTVSPost2010PropOp41
 70
     1
102
RTVSPost2010Prop42
 90
       50
102
RTVSPost2010PropOp42
 70
     1
102
RTVSPost2010Prop43
 90
        3
102
RTVSPost2010PropOp43
 70
     1
102
RTVSPost2010Prop44ColorIndex
 90
        5
102
RTVSPost2010Prop44ColorRGB
 90
      255
102
RTVSPost2010PropOp44
 70
     1
102
RTVSPost2010Prop45
280
     0
102
RTVSPost2010PropOp45
 70
     1
102
RTVSPost2010Prop46
 90
       50
102
RTVSPost2010PropOp46
 70
     1
102
RTVSPost2010Prop47
 90
       50
102
RTVSPost2010PropOp47
 70
     1
102
RTVSPost2010Prop48
 90
       50
102
RTVSPost2010PropOp48
 70
     1
102
RTVSPost2010Prop49
280
     0
102
RTVSPost2010PropOp49
 70
     1
102
RTVSPost2010Prop50
 90
       50
102
RTVSPost2010PropOp50
 70
     1
102
RTVSPost2010Prop51ColorIndex
 90
      256
102
RTVSPost2010Prop51ColorRGB
 90
-16777216
102
RTVSPost2010PropOp51
 70
     0
102
RTVSPost2010Prop52
140
1.0
102
RTVSPost2010PropOp52
 70
     0
102
RTVSPost2010Prop53
 90
        2
102
RTVSPost2010PropOp53
 70
     1
102
RTVSPost2010Prop54
  1
strokes_ogs.tif
102
RTVSPost2010PropOp54
 70
     1
102
RTVSPost2010Prop55
280
     0
102
RTVSPost2010PropOp55
 70
     1
102
RTVSPost2010Prop56
140
1.0
102
RTVSPost2010PropOp56
 70
     1
102
RTVSPost2010Prop57
140
1.0
102
RTVSPost2010PropOp57
 70
     1
  0
XRECORD
  5
7E9
102
{ACAD_REACTORS
330
7E8
102
}
330
7E8
100
AcDbXrecord
280
     1
102
RTVSPost2010Prop28
280
     0
102
RTVSPost2010PropOp28
 70
     1
102
RTVSPost2010Prop29
280
     1
102
RTVSPost2010PropOp29
 70
     1
102
RTVSPost2010Prop30
280
     1
102
RTVSPost2010PropOp30
 70
     1
102
RTVSPost2010Prop31
280
     0
102
RTVSPost2010PropOp31
 70
     1
102
RTVSPost2010Prop32
280
     0
102
RTVSPost2010PropOp32
 70
     1
102
RTVSPost2010Prop33
280
     0
102
RTVSPost2010PropOp33
 70
     1
102
RTVSPost2010Prop34
280
     0
102
RTVSPost2010PropOp34
 70
     1
102
RTVSPost2010Prop35
280
     0
102
RTVSPost2010PropOp35
 70
     1
102
RTVSPost2010Prop36
280
     0
102
RTVSPost2010PropOp36
 70
     1
102
RTVSPost2010Prop37
 90
       50
102
RTVSPost2010PropOp37
 70
     1
102
RTVSPost2010Prop38
140
0.0
102
RTVSPost2010PropOp38
 70
     1
102
RTVSPost2010Prop39
140
1.0
102
RTVSPost2010PropOp39
 70
     1
102
RTVSPost2010Prop40
 90
        0
102
RTVSPost2010PropOp40
 70
     1
102
RTVSPost2010Prop41ColorIndex
 90
       18
102
RTVSPost2010Prop41ColorRGB
 90
        0
102
RTVSPost2010PropOp41
 70
     1
102
RTVSPost2010Prop42
 90
       50
102
RTVSPost2010PropOp42
 70
     1
102
RTVSPost2010Prop43
 90
        3
102
RTVSPost2010PropOp43
 70
     1
102
RTVSPost2010Prop44ColorIndex
 90
        5
102
RTVSPost2010Prop44ColorRGB
 90
      255
102
RTVSPost2010PropOp44
 70
     1
102
RTVSPost2010Prop45
280
     0
102
RTVSPost2010PropOp45
 70
     1
102
RTVSPost2010Prop46
 90
       50
102
RTVSPost2010PropOp46
 70
     1
102
RTVSPost2010Prop47
 90
       50
102
RTVSPost2010PropOp47
 70
     1
102
RTVSPost2010Prop48
 90
       50
102
RTVSPost2010PropOp48
 70
     1
102
RTVSPost2010Prop49
280
     0
102
RTVSPost2010PropOp49
 70
     1
102
RTVSPost2010Prop50
 90
       50
102
RTVSPost2010PropOp50
 70
     1
102
RTVSPost2010Prop51ColorIndex
 90
      256
102
RTVSPost2010Prop51ColorRGB
 90
-16777216
102
RTVSPost2010PropOp51
 70
     0
102
RTVSPost2010Prop52
140
1.0
102
RTVSPost2010PropOp52
 70
     0
102
RTVSPost2010Prop53
 90
        2
102
RTVSPost2010PropOp53
 70
     1
102
RTVSPost2010Prop54
  1
strokes_ogs.tif
102
RTVSPost2010PropOp54
 70
     1
102
RTVSPost2010Prop55
280
     0
102
RTVSPost2010PropOp55
 70
     1
102
RTVSPost2010Prop56
140
1.0
102
RTVSPost2010PropOp56
 70
     1
102
RTVSPost2010Prop57
140
1.0
102
RTVSPost2010PropOp57
 70
     1
  0
XRECORD
  5
7EB
102
{ACAD_REACTORS
330
7EA
102
}
330
7EA
100
AcDbXrecord
280
     1
102
RTVSPost2010Prop28
280
     0
102
RTVSPost2010PropOp28
 70
     1
102
RTVSPost2010Prop29
280
     1
102
RTVSPost2010PropOp29
 70
     1
102
RTVSPost2010Prop30
280
     1
102
RTVSPost2010PropOp30
 70
     1
102
RTVSPost2010Prop31
280
     0
102
RTVSPost2010PropOp31
 70
     1
102
RTVSPost2010Prop32
280
     0
102
RTVSPost2010PropOp32
 70
     1
102
RTVSPost2010Prop33
280
     0
102
RTVSPost2010PropOp33
 70
     1
102
RTVSPost2010Prop34
280
     0
102
RTVSPost2010PropOp34
 70
     1
102
RTVSPost2010Prop35
280
     0
102
RTVSPost2010PropOp35
 70
     1
102
RTVSPost2010Prop36
280
     0
102
RTVSPost2010PropOp36
 70
     1
102
RTVSPost2010Prop37
 90
       50
102
RTVSPost2010PropOp37
 70
     1
102
RTVSPost2010Prop38
140
0.0
102
RTVSPost2010PropOp38
 70
     1
102
RTVSPost2010Prop39
140
1.0
102
RTVSPost2010PropOp39
 70
     1
102
RTVSPost2010Prop40
 90
        0
102
RTVSPost2010PropOp40
 70
     1
102
RTVSPost2010Prop41ColorIndex
 90
       18
102
RTVSPost2010Prop41ColorRGB
 90
        0
102
RTVSPost2010PropOp41
 70
     1
102
RTVSPost2010Prop42
 90
       50
102
RTVSPost2010PropOp42
 70
     1
102
RTVSPost2010Prop43
 90
        3
102
RTVSPost2010PropOp43
 70
     1
102
RTVSPost2010Prop44ColorIndex
 90
        5
102
RTVSPost2010Prop44ColorRGB
 90
      255
102
RTVSPost2010PropOp44
 70
     1
102
RTVSPost2010Prop45
280
     0
102
RTVSPost2010PropOp45
 70
     1
102
RTVSPost2010Prop46
 90
       50
102
RTVSPost2010PropOp46
 70
     1
102
RTVSPost2010Prop47
 90
       50
102
RTVSPost2010PropOp47
 70
     1
102
RTVSPost2010Prop48
 90
       50
102
RTVSPost2010PropOp48
 70
     1
102
RTVSPost2010Prop49
280
     0
102
RTVSPost2010PropOp49
 70
     1
102
RTVSPost2010Prop50
 90
       50
102
RTVSPost2010PropOp50
 70
     1
102
RTVSPost2010Prop51ColorIndex
 90
      256
102
RTVSPost2010Prop51ColorRGB
 90
-16777216
102
RTVSPost2010PropOp51
 70
     0
102
RTVSPost2010Prop52
140
1.0
102
RTVSPost2010PropOp52
 70
     0
102
RTVSPost2010Prop53
 90
        2
102
RTVSPost2010PropOp53
 70
     1
102
RTVSPost2010Prop54
  1
strokes_ogs.tif
102
RTVSPost2010PropOp54
 70
     1
102
RTVSPost2010Prop55
280
     0
102
RTVSPost2010PropOp55
 70
     1
102
RTVSPost2010Prop56
140
1.0
102
RTVSPost2010PropOp56
 70
     1
102
RTVSPost2010Prop57
140
1.0
102
RTVSPost2010PropOp57
 70
     1
  0
XRECORD
  5
7F1
102
{ACAD_REACTORS
330
7F0
102
}
330
7F0
100
AcDbXrecord
280
     1
102
RTVSPost2010Prop28
280
     0
102
RTVSPost2010PropOp28
 70
     1
102
RTVSPost2010Prop29
280
     1
102
RTVSPost2010PropOp29
 70
     1
102
RTVSPost2010Prop30
280
     1
102
RTVSPost2010PropOp30
 70
     1
102
RTVSPost2010Prop31
280
     0
102
RTVSPost2010PropOp31
 70
     1
102
RTVSPost2010Prop32
280
     0
102
RTVSPost2010PropOp32
 70
     1
102
RTVSPost2010Prop33
280
     0
102
RTVSPost2010PropOp33
 70
     1
102
RTVSPost2010Prop34
280
     0
102
RTVSPost2010PropOp34
 70
     1
102
RTVSPost2010Prop35
280
     0
102
RTVSPost2010PropOp35
 70
     1
102
RTVSPost2010Prop36
280
     0
102
RTVSPost2010PropOp36
 70
     1
102
RTVSPost2010Prop37
 90
       50
102
RTVSPost2010PropOp37
 70
     1
102
RTVSPost2010Prop38
140
0.0
102
RTVSPost2010PropOp38
 70
     1
102
RTVSPost2010Prop39
140
1.0
102
RTVSPost2010PropOp39
 70
     1
102
RTVSPost2010Prop40
 90
        0
102
RTVSPost2010PropOp40
 70
     1
102
RTVSPost2010Prop41ColorIndex
 90
       18
102
RTVSPost2010Prop41ColorRGB
 90
        0
102
RTVSPost2010PropOp41
 70
     1
102
RTVSPost2010Prop42
 90
       50
102
RTVSPost2010PropOp42
 70
     1
102
RTVSPost2010Prop43
 90
        3
102
RTVSPost2010PropOp43
 70
     1
102
RTVSPost2010Prop44ColorIndex
 90
        5
102
RTVSPost2010Prop44ColorRGB
 90
      255
102
RTVSPost2010PropOp44
 70
     1
102
RTVSPost2010Prop45
280
     0
102
RTVSPost2010PropOp45
 70
     1
102
RTVSPost2010Prop46
 90
       50
102
RTVSPost2010PropOp46
 70
     1
102
RTVSPost2010Prop47
 90
       50
102
RTVSPost2010PropOp47
 70
     1
102
RTVSPost2010Prop48
 90
       50
102
RTVSPost2010PropOp48
 70
     1
102
RTVSPost2010Prop49
280
     0
102
RTVSPost2010PropOp49
 70
     1
102
RTVSPost2010Prop50
 90
       50
102
RTVSPost2010PropOp50
 70
     1
102
RTVSPost2010Prop51ColorIndex
 90
      256
102
RTVSPost2010Prop51ColorRGB
 90
-16777216
102
RTVSPost2010PropOp51
 70
     0
102
RTVSPost2010Prop52
140
1.0
102
RTVSPost2010PropOp52
 70
     0
102
RTVSPost2010Prop53
 90
        2
102
RTVSPost2010PropOp53
 70
     1
102
RTVSPost2010Prop54
  1
strokes_ogs.tif
102
RTVSPost2010PropOp54
 70
     1
102
RTVSPost2010Prop55
280
     0
102
RTVSPost2010PropOp55
 70
     1
102
RTVSPost2010Prop56
140
1.0
102
RTVSPost2010PropOp56
 70
     1
102
RTVSPost2010Prop57
140
1.0
102
RTVSPost2010PropOp57
 70
     1
  0
XRECORD
  5
805
102
{ACAD_REACTORS
330
804
102
}
330
804
100
AcDbXrecord
280
     1
102
RTVSPost2010Prop28
280
     0
102
RTVSPost2010PropOp28
 70
     0
102
RTVSPost2010Prop29
280
     1
102
RTVSPost2010PropOp29
 70
     0
102
RTVSPost2010Prop30
280
     1
102
RTVSPost2010PropOp30
 70
     0
102
RTVSPost2010Prop31
280
     0
102
RTVSPost2010PropOp31
 70
     0
102
RTVSPost2010Prop32
280
     0
102
RTVSPost2010PropOp32
 70
     0
102
RTVSPost2010Prop33
280
     0
102
RTVSPost2010PropOp33
 70
     0
102
RTVSPost2010Prop34
280
     0
102
RTVSPost2010PropOp34
 70
     0
102
RTVSPost2010Prop35
280
     0
102
RTVSPost2010PropOp35
 70
     0
102
RTVSPost2010Prop36
280
     0
102
RTVSPost2010PropOp36
 70
     0
102
RTVSPost2010Prop37
 90
       50
102
RTVSPost2010PropOp37
 70
     0
102
RTVSPost2010Prop38
140
0.0
102
RTVSPost2010PropOp38
 70
     0
102
RTVSPost2010Prop39
140
1.0
102
RTVSPost2010PropOp39
 70
     0
102
RTVSPost2010Prop40
 90
        0
102
RTVSPost2010PropOp40
 70
     0
102
RTVSPost2010Prop41ColorIndex
 90
       18
102
RTVSPost2010Prop41ColorRGB
 90
        0
102
RTVSPost2010PropOp41
 70
     0
102
RTVSPost2010Prop42
 90
       50
102
RTVSPost2010PropOp42
 70
     0
102
RTVSPost2010Prop43
 90
        3
102
RTVSPost2010PropOp43
 70
     0
102
RTVSPost2010Prop44ColorIndex
 90
        5
102
RTVSPost2010Prop44ColorRGB
 90
      255
102
RTVSPost2010PropOp44
 70
     0
102
RTVSPost2010Prop45
280
     0
102
RTVSPost2010PropOp45
 70
     0
102
RTVSPost2010Prop46
 90
       50
102
RTVSPost2010PropOp46
 70
     0
102
RTVSPost2010Prop47
 90
       50
102
RTVSPost2010PropOp47
 70
     0
102
RTVSPost2010Prop48
 90
       50
102
RTVSPost2010PropOp48
 70
     0
102
RTVSPost2010Prop49
280
     0
102
RTVSPost2010PropOp49
 70
     0
102
RTVSPost2010Prop50
 90
       50
102
RTVSPost2010PropOp50
 70
     0
102
RTVSPost2010Prop51ColorIndex
 90
      256
102
RTVSPost2010Prop51ColorRGB
 90
-16777216
102
RTVSPost2010PropOp51
 70
     0
102
RTVSPost2010Prop52
140
1.0
102
RTVSPost2010PropOp52
 70
     0
102
RTVSPost2010Prop53
 90
        2
102
RTVSPost2010PropOp53
 70
     0
102
RTVSPost2010Prop54
  1
strokes_ogs.tif
102
RTVSPost2010PropOp54
 70
     0
102
RTVSPost2010Prop55
280
     0
102
RTVSPost2010PropOp55
 70
     0
102
RTVSPost2010Prop56
140
1.0
102
RTVSPost2010PropOp56
 70
     0
102
RTVSPost2010Prop57
140
1.0
102
RTVSPost2010PropOp57
 70
     0
  0
XRECORD
  5
7FF
102
{ACAD_REACTORS
330
7FE
102
}
330
7FE
100
AcDbXrecord
280
     1
102
RTVSPost2010Prop28
280
     0
102
RTVSPost2010PropOp28
 70
     1
102
RTVSPost2010Prop29
280
     1
102
RTVSPost2010PropOp29
 70
     1
102
RTVSPost2010Prop30
280
     1
102
RTVSPost2010PropOp30
 70
     1
102
RTVSPost2010Prop31
280
     0
102
RTVSPost2010PropOp31
 70
     1
102
RTVSPost2010Prop32
280
     0
102
RTVSPost2010PropOp32
 70
     1
102
RTVSPost2010Prop33
280
     0
102
RTVSPost2010PropOp33
 70
     1
102
RTVSPost2010Prop34
280
     0
102
RTVSPost2010PropOp34
 70
     1
102
RTVSPost2010Prop35
280
     0
102
RTVSPost2010PropOp35
 70
     1
102
RTVSPost2010Prop36
280
     0
102
RTVSPost2010PropOp36
 70
     1
102
RTVSPost2010Prop37
 90
       50
102
RTVSPost2010PropOp37
 70
     1
102
RTVSPost2010Prop38
140
0.0
102
RTVSPost2010PropOp38
 70
     1
102
RTVSPost2010Prop39
140
1.0
102
RTVSPost2010PropOp39
 70
     1
102
RTVSPost2010Prop40
 90
        0
102
RTVSPost2010PropOp40
 70
     1
102
RTVSPost2010Prop41ColorIndex
 90
       18
102
RTVSPost2010Prop41ColorRGB
 90
        0
102
RTVSPost2010PropOp41
 70
     1
102
RTVSPost2010Prop42
 90
       50
102
RTVSPost2010PropOp42
 70
     1
102
RTVSPost2010Prop43
 90
        3
102
RTVSPost2010PropOp43
 70
     1
102
RTVSPost2010Prop44ColorIndex
 90
        5
102
RTVSPost2010Prop44ColorRGB
 90
      255
102
RTVSPost2010PropOp44
 70
     1
102
RTVSPost2010Prop45
280
     0
102
RTVSPost2010PropOp45
 70
     1
102
RTVSPost2010Prop46
 90
       50
102
RTVSPost2010PropOp46
 70
     1
102
RTVSPost2010Prop47
 90
       50
102
RTVSPost2010PropOp47
 70
     1
102
RTVSPost2010Prop48
 90
       50
102
RTVSPost2010PropOp48
 70
     1
102
RTVSPost2010Prop49
280
     0
102
RTVSPost2010PropOp49
 70
     1
102
RTVSPost2010Prop50
 90
       50
102
RTVSPost2010PropOp50
 70
     1
102
RTVSPost2010Prop51ColorIndex
 90
      256
102
RTVSPost2010Prop51ColorRGB
 90
-16777216
102
RTVSPost2010PropOp51
 70
     0
102
RTVSPost2010Prop52
140
1.0
102
RTVSPost2010PropOp52
 70
     0
102
RTVSPost2010Prop53
 90
        2
102
RTVSPost2010PropOp53
 70
     1
102
RTVSPost2010Prop54
  1
strokes_ogs.tif
102
RTVSPost2010PropOp54
 70
     1
102
RTVSPost2010Prop55
280
     0
102
RTVSPost2010PropOp55
 70
     1
102
RTVSPost2010Prop56
140
1.0
102
RTVSPost2010PropOp56
 70
     1
102
RTVSPost2010Prop57
140
1.0
102
RTVSPost2010PropOp57
 70
     1
  0
XRECORD
  5
807
102
{ACAD_REACTORS
330
806
102
}
330
806
100
AcDbXrecord
280
     1
102
RTVSPost2010Prop28
280
     0
102
RTVSPost2010PropOp28
 70
     0
102
RTVSPost2010Prop29
280
     1
102
RTVSPost2010PropOp29
 70
     0
102
RTVSPost2010Prop30
280
     1
102
RTVSPost2010PropOp30
 70
     0
102
RTVSPost2010Prop31
280
     0
102
RTVSPost2010PropOp31
 70
     0
102
RTVSPost2010Prop32
280
     0
102
RTVSPost2010PropOp32
 70
     0
102
RTVSPost2010Prop33
280
     0
102
RTVSPost2010PropOp33
 70
     0
102
RTVSPost2010Prop34
280
     0
102
RTVSPost2010PropOp34
 70
     0
102
RTVSPost2010Prop35
280
     0
102
RTVSPost2010PropOp35
 70
     0
102
RTVSPost2010Prop36
280
     0
102
RTVSPost2010PropOp36
 70
     0
102
RTVSPost2010Prop37
 90
       50
102
RTVSPost2010PropOp37
 70
     0
102
RTVSPost2010Prop38
140
0.0
102
RTVSPost2010PropOp38
 70
     0
102
RTVSPost2010Prop39
140
1.0
102
RTVSPost2010PropOp39
 70
     0
102
RTVSPost2010Prop40
 90
        0
102
RTVSPost2010PropOp40
 70
     0
102
RTVSPost2010Prop41ColorIndex
 90
       18
102
RTVSPost2010Prop41ColorRGB
 90
        0
102
RTVSPost2010PropOp41
 70
     0
102
RTVSPost2010Prop42
 90
       50
102
RTVSPost2010PropOp42
 70
     0
102
RTVSPost2010Prop43
 90
        3
102
RTVSPost2010PropOp43
 70
     0
102
RTVSPost2010Prop44ColorIndex
 90
        5
102
RTVSPost2010Prop44ColorRGB
 90
      255
102
RTVSPost2010PropOp44
 70
     0
102
RTVSPost2010Prop45
280
     0
102
RTVSPost2010PropOp45
 70
     0
102
RTVSPost2010Prop46
 90
       50
102
RTVSPost2010PropOp46
 70
     0
102
RTVSPost2010Prop47
 90
       50
102
RTVSPost2010PropOp47
 70
     0
102
RTVSPost2010Prop48
 90
       50
102
RTVSPost2010PropOp48
 70
     0
102
RTVSPost2010Prop49
280
     0
102
RTVSPost2010PropOp49
 70
     0
102
RTVSPost2010Prop50
 90
       50
102
RTVSPost2010PropOp50
 70
     0
102
RTVSPost2010Prop51ColorIndex
 90
      256
102
RTVSPost2010Prop51ColorRGB
 90
-16777216
102
RTVSPost2010PropOp51
 70
     0
102
RTVSPost2010Prop52
140
1.0
102
RTVSPost2010PropOp52
 70
     0
102
RTVSPost2010Prop53
 90
        2
102
RTVSPost2010PropOp53
 70
     0
102
RTVSPost2010Prop54
  1
strokes_ogs.tif
102
RTVSPost2010PropOp54
 70
     0
102
RTVSPost2010Prop55
280
     0
102
RTVSPost2010PropOp55
 70
     0
102
RTVSPost2010Prop56
140
1.0
102
RTVSPost2010PropOp56
 70
     0
102
RTVSPost2010Prop57
140
1.0
102
RTVSPost2010PropOp57
 70
     0
  0
XRECORD
  5
7F5
102
{ACAD_REACTORS
330
7F4
102
}
330
7F4
100
AcDbXrecord
280
     1
102
RTVSPost2010Prop28
280
     0
102
RTVSPost2010PropOp28
 70
     1
102
RTVSPost2010Prop29
280
     1
102
RTVSPost2010PropOp29
 70
     1
102
RTVSPost2010Prop30
280
     1
102
RTVSPost2010PropOp30
 70
     1
102
RTVSPost2010Prop31
280
     0
102
RTVSPost2010PropOp31
 70
     1
102
RTVSPost2010Prop32
280
     0
102
RTVSPost2010PropOp32
 70
     1
102
RTVSPost2010Prop33
280
     0
102
RTVSPost2010PropOp33
 70
     1
102
RTVSPost2010Prop34
280
     0
102
RTVSPost2010PropOp34
 70
     1
102
RTVSPost2010Prop35
280
     0
102
RTVSPost2010PropOp35
 70
     1
102
RTVSPost2010Prop36
280
     0
102
RTVSPost2010PropOp36
 70
     1
102
RTVSPost2010Prop37
 90
       50
102
RTVSPost2010PropOp37
 70
     1
102
RTVSPost2010Prop38
140
0.0
102
RTVSPost2010PropOp38
 70
     1
102
RTVSPost2010Prop39
140
1.0
102
RTVSPost2010PropOp39
 70
     1
102
RTVSPost2010Prop40
 90
        0
102
RTVSPost2010PropOp40
 70
     1
102
RTVSPost2010Prop41ColorIndex
 90
       18
102
RTVSPost2010Prop41ColorRGB
 90
        0
102
RTVSPost2010PropOp41
 70
     1
102
RTVSPost2010Prop42
 90
       50
102
RTVSPost2010PropOp42
 70
     1
102
RTVSPost2010Prop43
 90
        3
102
RTVSPost2010PropOp43
 70
     1
102
RTVSPost2010Prop44ColorIndex
 90
        5
102
RTVSPost2010Prop44ColorRGB
 90
      255
102
RTVSPost2010PropOp44
 70
     1
102
RTVSPost2010Prop45
280
     0
102
RTVSPost2010PropOp45
 70
     1
102
RTVSPost2010Prop46
 90
       50
102
RTVSPost2010PropOp46
 70
     1
102
RTVSPost2010Prop47
 90
       50
102
RTVSPost2010PropOp47
 70
     1
102
RTVSPost2010Prop48
 90
       50
102
RTVSPost2010PropOp48
 70
     1
102
RTVSPost2010Prop49
280
     0
102
RTVSPost2010PropOp49
 70
     1
102
RTVSPost2010Prop50
 90
       50
102
RTVSPost2010PropOp50
 70
     1
102
RTVSPost2010Prop51ColorIndex
 90
      256
102
RTVSPost2010Prop51ColorRGB
 90
-16777216
102
RTVSPost2010PropOp51
 70
     0
102
RTVSPost2010Prop52
140
1.0
102
RTVSPost2010PropOp52
 70
     0
102
RTVSPost2010Prop53
 90
        2
102
RTVSPost2010PropOp53
 70
     1
102
RTVSPost2010Prop54
  1
strokes_ogs.tif
102
RTVSPost2010PropOp54
 70
     1
102
RTVSPost2010Prop55
280
     0
102
RTVSPost2010PropOp55
 70
     1
102
RTVSPost2010Prop56
140
1.0
102
RTVSPost2010PropOp56
 70
     1
102
RTVSPost2010Prop57
140
1.0
102
RTVSPost2010PropOp57
 70
     1
  0
XRECORD
  5
813
102
{ACAD_REACTORS
330
812
102
}
330
812
100
AcDbXrecord
280
     1
102
RTVSPost2010Prop28
280
     0
102
RTVSPost2010PropOp28
 70
     1
102
RTVSPost2010Prop29
280
     1
102
RTVSPost2010PropOp29
 70
     1
102
RTVSPost2010Prop30
280
     1
102
RTVSPost2010PropOp30
 70
     1
102
RTVSPost2010Prop31
280
     0
102
RTVSPost2010PropOp31
 70
     1
102
RTVSPost2010Prop32
280
     0
102
RTVSPost2010PropOp32
 70
     1
102
RTVSPost2010Prop33
280
     0
102
RTVSPost2010PropOp33
 70
     1
102
RTVSPost2010Prop34
280
     0
102
RTVSPost2010PropOp34
 70
     1
102
RTVSPost2010Prop35
280
     0
102
RTVSPost2010PropOp35
 70
     1
102
RTVSPost2010Prop36
280
     0
102
RTVSPost2010PropOp36
 70
     1
102
RTVSPost2010Prop37
 90
       50
102
RTVSPost2010PropOp37
 70
     1
102
RTVSPost2010Prop38
140
0.0
102
RTVSPost2010PropOp38
 70
     1
102
RTVSPost2010Prop39
140
1.0
102
RTVSPost2010PropOp39
 70
     1
102
RTVSPost2010Prop40
 90
        0
102
RTVSPost2010PropOp40
 70
     1
102
RTVSPost2010Prop41ColorIndex
 90
       18
102
RTVSPost2010Prop41ColorRGB
 90
        0
102
RTVSPost2010PropOp41
 70
     1
102
RTVSPost2010Prop42
 90
       50
102
RTVSPost2010PropOp42
 70
     1
102
RTVSPost2010Prop43
 90
        3
102
RTVSPost2010PropOp43
 70
     1
102
RTVSPost2010Prop44ColorIndex
 90
        5
102
RTVSPost2010Prop44ColorRGB
 90
      255
102
RTVSPost2010PropOp44
 70
     1
102
RTVSPost2010Prop45
280
     0
102
RTVSPost2010PropOp45
 70
     1
102
RTVSPost2010Prop46
 90
       50
102
RTVSPost2010PropOp46
 70
     1
102
RTVSPost2010Prop47
 90
       50
102
RTVSPost2010PropOp47
 70
     1
102
RTVSPost2010Prop48
 90
       50
102
RTVSPost2010PropOp48
 70
     1
102
RTVSPost2010Prop49
280
     0
102
RTVSPost2010PropOp49
 70
     1
102
RTVSPost2010Prop50
 90
       50
102
RTVSPost2010PropOp50
 70
     1
102
RTVSPost2010Prop51ColorIndex
 90
      256
102
RTVSPost2010Prop51ColorRGB
 90
-16777216
102
RTVSPost2010PropOp51
 70
     0
102
RTVSPost2010Prop52
140
1.0
102
RTVSPost2010PropOp52
 70
     0
102
RTVSPost2010Prop53
 90
        2
102
RTVSPost2010PropOp53
 70
     1
102
RTVSPost2010Prop54
  1
strokes_ogs.tif
102
RTVSPost2010PropOp54
 70
     1
102
RTVSPost2010Prop55
280
     0
102
RTVSPost2010PropOp55
 70
     1
102
RTVSPost2010Prop56
140
1.0
102
RTVSPost2010PropOp56
 70
     1
102
RTVSPost2010Prop57
140
1.0
102
RTVSPost2010PropOp57
 70
     1
  0
XRECORD
  5
811
102
{ACAD_REACTORS
330
810
102
}
330
810
100
AcDbXrecord
280
     1
102
RTVSPost2010Prop28
280
     0
102
RTVSPost2010PropOp28
 70
     1
102
RTVSPost2010Prop29
280
     1
102
RTVSPost2010PropOp29
 70
     1
102
RTVSPost2010Prop30
280
     1
102
RTVSPost2010PropOp30
 70
     1
102
RTVSPost2010Prop31
280
     0
102
RTVSPost2010PropOp31
 70
     1
102
RTVSPost2010Prop32
280
     0
102
RTVSPost2010PropOp32
 70
     1
102
RTVSPost2010Prop33
280
     0
102
RTVSPost2010PropOp33
 70
     1
102
RTVSPost2010Prop34
280
     0
102
RTVSPost2010PropOp34
 70
     1
102
RTVSPost2010Prop35
280
     0
102
RTVSPost2010PropOp35
 70
     1
102
RTVSPost2010Prop36
280
     0
102
RTVSPost2010PropOp36
 70
     1
102
RTVSPost2010Prop37
 90
       50
102
RTVSPost2010PropOp37
 70
     1
102
RTVSPost2010Prop38
140
0.0
102
RTVSPost2010PropOp38
 70
     1
102
RTVSPost2010Prop39
140
1.0
102
RTVSPost2010PropOp39
 70
     1
102
RTVSPost2010Prop40
 90
        0
102
RTVSPost2010PropOp40
 70
     1
102
RTVSPost2010Prop41ColorIndex
 90
       18
102
RTVSPost2010Prop41ColorRGB
 90
        0
102
RTVSPost2010PropOp41
 70
     1
102
RTVSPost2010Prop42
 90
       50
102
RTVSPost2010PropOp42
 70
     1
102
RTVSPost2010Prop43
 90
        3
102
RTVSPost2010PropOp43
 70
     1
102
RTVSPost2010Prop44ColorIndex
 90
        5
102
RTVSPost2010Prop44ColorRGB
 90
      255
102
RTVSPost2010PropOp44
 70
     1
102
RTVSPost2010Prop45
280
     0
102
RTVSPost2010PropOp45
 70
     1
102
RTVSPost2010Prop46
 90
       50
102
RTVSPost2010PropOp46
 70
     1
102
RTVSPost2010Prop47
 90
       50
102
RTVSPost2010PropOp47
 70
     1
102
RTVSPost2010Prop48
 90
       50
102
RTVSPost2010PropOp48
 70
     1
102
RTVSPost2010Prop49
280
     0
102
RTVSPost2010PropOp49
 70
     1
102
RTVSPost2010Prop50
 90
       50
102
RTVSPost2010PropOp50
 70
     1
102
RTVSPost2010Prop51ColorIndex
 90
      256
102
RTVSPost2010Prop51ColorRGB
 90
-16777216
102
RTVSPost2010PropOp51
 70
     0
102
RTVSPost2010Prop52
140
1.0
102
RTVSPost2010PropOp52
 70
     0
102
RTVSPost2010Prop53
 90
        2
102
RTVSPost2010PropOp53
 70
     1
102
RTVSPost2010Prop54
  1
strokes_ogs.tif
102
RTVSPost2010PropOp54
 70
     1
102
RTVSPost2010Prop55
280
     0
102
RTVSPost2010PropOp55
 70
     1
102
RTVSPost2010Prop56
140
1.0
102
RTVSPost2010PropOp56
 70
     1
102
RTVSPost2010Prop57
140
1.0
102
RTVSPost2010PropOp57
 70
     1
  0
XRECORD
  5
80B
102
{ACAD_REACTORS
330
80A
102
}
330
80A
100
AcDbXrecord
280
     1
102
RTVSPost2010Prop28
280
     0
102
RTVSPost2010PropOp28
 70
     1
102
RTVSPost2010Prop29
280
     1
102
RTVSPost2010PropOp29
 70
     1
102
RTVSPost2010Prop30
280
     1
102
RTVSPost2010PropOp30
 70
     1
102
RTVSPost2010Prop31
280
     0
102
RTVSPost2010PropOp31
 70
     1
102
RTVSPost2010Prop32
280
     0
102
RTVSPost2010PropOp32
 70
     1
102
RTVSPost2010Prop33
280
     0
102
RTVSPost2010PropOp33
 70
     1
102
RTVSPost2010Prop34
280
     0
102
RTVSPost2010PropOp34
 70
     1
102
RTVSPost2010Prop35
280
     0
102
RTVSPost2010PropOp35
 70
     1
102
RTVSPost2010Prop36
280
     0
102
RTVSPost2010PropOp36
 70
     1
102
RTVSPost2010Prop37
 90
       50
102
RTVSPost2010PropOp37
 70
     1
102
RTVSPost2010Prop38
140
0.0
102
RTVSPost2010PropOp38
 70
     1
102
RTVSPost2010Prop39
140
1.0
102
RTVSPost2010PropOp39
 70
     1
102
RTVSPost2010Prop40
 90
        0
102
RTVSPost2010PropOp40
 70
     1
102
RTVSPost2010Prop41ColorIndex
 90
       18
102
RTVSPost2010Prop41ColorRGB
 90
        0
102
RTVSPost2010PropOp41
 70
     1
102
RTVSPost2010Prop42
 90
       50
102
RTVSPost2010PropOp42
 70
     1
102
RTVSPost2010Prop43
 90
        3
102
RTVSPost2010PropOp43
 70
     1
102
RTVSPost2010Prop44ColorIndex
 90
        5
102
RTVSPost2010Prop44ColorRGB
 90
      255
102
RTVSPost2010PropOp44
 70
     1
102
RTVSPost2010Prop45
280
     0
102
RTVSPost2010PropOp45
 70
     1
102
RTVSPost2010Prop46
 90
       50
102
RTVSPost2010PropOp46
 70
     1
102
RTVSPost2010Prop47
 90
       50
102
RTVSPost2010PropOp47
 70
     1
102
RTVSPost2010Prop48
 90
       50
102
RTVSPost2010PropOp48
 70
     1
102
RTVSPost2010Prop49
280
     0
102
RTVSPost2010PropOp49
 70
     1
102
RTVSPost2010Prop50
 90
       50
102
RTVSPost2010PropOp50
 70
     1
102
RTVSPost2010Prop51ColorIndex
 90
      256
102
RTVSPost2010Prop51ColorRGB
 90
-16777216
102
RTVSPost2010PropOp51
 70
     0
102
RTVSPost2010Prop52
140
1.0
102
RTVSPost2010PropOp52
 70
     0
102
RTVSPost2010Prop53
 90
        2
102
RTVSPost2010PropOp53
 70
     1
102
RTVSPost2010Prop54
  1
strokes_ogs.tif
102
RTVSPost2010PropOp54
 70
     1
102
RTVSPost2010Prop55
280
     0
102
RTVSPost2010PropOp55
 70
     1
102
RTVSPost2010Prop56
140
1.0
102
RTVSPost2010PropOp56
 70
     1
102
RTVSPost2010Prop57
140
1.0
102
RTVSPost2010PropOp57
 70
     1
  0
XRECORD
  5
80D
102
{ACAD_REACTORS
330
80C
102
}
330
80C
100
AcDbXrecord
280
     1
102
RTVSPost2010Prop28
280
     0
102
RTVSPost2010PropOp28
 70
     1
102
RTVSPost2010Prop29
280
     1
102
RTVSPost2010PropOp29
 70
     1
102
RTVSPost2010Prop30
280
     1
102
RTVSPost2010PropOp30
 70
     1
102
RTVSPost2010Prop31
280
     0
102
RTVSPost2010PropOp31
 70
     1
102
RTVSPost2010Prop32
280
     0
102
RTVSPost2010PropOp32
 70
     1
102
RTVSPost2010Prop33
280
     0
102
RTVSPost2010PropOp33
 70
     1
102
RTVSPost2010Prop34
280
     0
102
RTVSPost2010PropOp34
 70
     1
102
RTVSPost2010Prop35
280
     0
102
RTVSPost2010PropOp35
 70
     1
102
RTVSPost2010Prop36
280
     0
102
RTVSPost2010PropOp36
 70
     1
102
RTVSPost2010Prop37
 90
       50
102
RTVSPost2010PropOp37
 70
     1
102
RTVSPost2010Prop38
140
0.0
102
RTVSPost2010PropOp38
 70
     1
102
RTVSPost2010Prop39
140
1.0
102
RTVSPost2010PropOp39
 70
     1
102
RTVSPost2010Prop40
 90
        0
102
RTVSPost2010PropOp40
 70
     1
102
RTVSPost2010Prop41ColorIndex
 90
       18
102
RTVSPost2010Prop41ColorRGB
 90
        0
102
RTVSPost2010PropOp41
 70
     1
102
RTVSPost2010Prop42
 90
       50
102
RTVSPost2010PropOp42
 70
     1
102
RTVSPost2010Prop43
 90
        3
102
RTVSPost2010PropOp43
 70
     1
102
RTVSPost2010Prop44ColorIndex
 90
        5
102
RTVSPost2010Prop44ColorRGB
 90
      255
102
RTVSPost2010PropOp44
 70
     1
102
RTVSPost2010Prop45
280
     0
102
RTVSPost2010PropOp45
 70
     1
102
RTVSPost2010Prop46
 90
       50
102
RTVSPost2010PropOp46
 70
     1
102
RTVSPost2010Prop47
 90
       50
102
RTVSPost2010PropOp47
 70
     1
102
RTVSPost2010Prop48
 90
       50
102
RTVSPost2010PropOp48
 70
     1
102
RTVSPost2010Prop49
280
     0
102
RTVSPost2010PropOp49
 70
     1
102
RTVSPost2010Prop50
 90
       50
102
RTVSPost2010PropOp50
 70
     1
102
RTVSPost2010Prop51ColorIndex
 90
      256
102
RTVSPost2010Prop51ColorRGB
 90
-16777216
102
RTVSPost2010PropOp51
 70
     0
102
RTVSPost2010Prop52
140
1.0
102
RTVSPost2010PropOp52
 70
     0
102
RTVSPost2010Prop53
 90
        2
102
RTVSPost2010PropOp53
 70
     1
102
RTVSPost2010Prop54
  1
strokes_ogs.tif
102
RTVSPost2010PropOp54
 70
     1
102
RTVSPost2010Prop55
280
     0
102
RTVSPost2010PropOp55
 70
     1
102
RTVSPost2010Prop56
140
1.0
102
RTVSPost2010PropOp56
 70
     1
102
RTVSPost2010Prop57
140
1.0
102
RTVSPost2010PropOp57
 70
     1
  0
XRECORD
  5
7FD
102
{ACAD_REACTORS
330
7FC
102
}
330
7FC
100
AcDbXrecord
280
     1
102
RTVSPost2010Prop28
280
     0
102
RTVSPost2010PropOp28
 70
     1
102
RTVSPost2010Prop29
280
     1
102
RTVSPost2010PropOp29
 70
     1
102
RTVSPost2010Prop30
280
     1
102
RTVSPost2010PropOp30
 70
     1
102
RTVSPost2010Prop31
280
     0
102
RTVSPost2010PropOp31
 70
     1
102
RTVSPost2010Prop32
280
     0
102
RTVSPost2010PropOp32
 70
     1
102
RTVSPost2010Prop33
280
     0
102
RTVSPost2010PropOp33
 70
     1
102
RTVSPost2010Prop34
280
     0
102
RTVSPost2010PropOp34
 70
     1
102
RTVSPost2010Prop35
280
     0
102
RTVSPost2010PropOp35
 70
     1
102
RTVSPost2010Prop36
280
     0
102
RTVSPost2010PropOp36
 70
     1
102
RTVSPost2010Prop37
 90
       50
102
RTVSPost2010PropOp37
 70
     1
102
RTVSPost2010Prop38
140
0.0
102
RTVSPost2010PropOp38
 70
     1
102
RTVSPost2010Prop39
140
1.0
102
RTVSPost2010PropOp39
 70
     1
102
RTVSPost2010Prop40
 90
        0
102
RTVSPost2010PropOp40
 70
     1
102
RTVSPost2010Prop41ColorIndex
 90
       18
102
RTVSPost2010Prop41ColorRGB
 90
        0
102
RTVSPost2010PropOp41
 70
     1
102
RTVSPost2010Prop42
 90
       50
102
RTVSPost2010PropOp42
 70
     1
102
RTVSPost2010Prop43
 90
        3
102
RTVSPost2010PropOp43
 70
     1
102
RTVSPost2010Prop44ColorIndex
 90
        5
102
RTVSPost2010Prop44ColorRGB
 90
      255
102
RTVSPost2010PropOp44
 70
     1
102
RTVSPost2010Prop45
280
     0
102
RTVSPost2010PropOp45
 70
     1
102
RTVSPost2010Prop46
 90
       50
102
RTVSPost2010PropOp46
 70
     1
102
RTVSPost2010Prop47
 90
       50
102
RTVSPost2010PropOp47
 70
     1
102
RTVSPost2010Prop48
 90
       50
102
RTVSPost2010PropOp48
 70
     1
102
RTVSPost2010Prop49
280
     0
102
RTVSPost2010PropOp49
 70
     1
102
RTVSPost2010Prop50
 90
       50
102
RTVSPost2010PropOp50
 70
     1
102
RTVSPost2010Prop51ColorIndex
 90
      256
102
RTVSPost2010Prop51ColorRGB
 90
-16777216
102
RTVSPost2010PropOp51
 70
     0
102
RTVSPost2010Prop52
140
1.0
102
RTVSPost2010PropOp52
 70
     0
102
RTVSPost2010Prop53
 90
        2
102
RTVSPost2010PropOp53
 70
     1
102
RTVSPost2010Prop54
  1
strokes_ogs.tif
102
RTVSPost2010PropOp54
 70
     1
102
RTVSPost2010Prop55
280
     0
102
RTVSPost2010PropOp55
 70
     1
102
RTVSPost2010Prop56
140
1.0
102
RTVSPost2010PropOp56
 70
     1
102
RTVSPost2010Prop57
140
1.0
102
RTVSPost2010PropOp57
 70
     1
  0
XRECORD
  5
7EF
102
{ACAD_REACTORS
330
7EE
102
}
330
7EE
100
AcDbXrecord
280
     1
102
RTVSPost2010Prop28
280
     0
102
RTVSPost2010PropOp28
 70
     1
102
RTVSPost2010Prop29
280
     1
102
RTVSPost2010PropOp29
 70
     1
102
RTVSPost2010Prop30
280
     1
102
RTVSPost2010PropOp30
 70
     1
102
RTVSPost2010Prop31
280
     0
102
RTVSPost2010PropOp31
 70
     1
102
RTVSPost2010Prop32
280
     0
102
RTVSPost2010PropOp32
 70
     1
102
RTVSPost2010Prop33
280
     0
102
RTVSPost2010PropOp33
 70
     1
102
RTVSPost2010Prop34
280
     0
102
RTVSPost2010PropOp34
 70
     1
102
RTVSPost2010Prop35
280
     0
102
RTVSPost2010PropOp35
 70
     1
102
RTVSPost2010Prop36
280
     0
102
RTVSPost2010PropOp36
 70
     1
102
RTVSPost2010Prop37
 90
       50
102
RTVSPost2010PropOp37
 70
     1
102
RTVSPost2010Prop38
140
0.0
102
RTVSPost2010PropOp38
 70
     1
102
RTVSPost2010Prop39
140
1.0
102
RTVSPost2010PropOp39
 70
     1
102
RTVSPost2010Prop40
 90
        0
102
RTVSPost2010PropOp40
 70
     1
102
RTVSPost2010Prop41ColorIndex
 90
       18
102
RTVSPost2010Prop41ColorRGB
 90
        0
102
RTVSPost2010PropOp41
 70
     1
102
RTVSPost2010Prop42
 90
       50
102
RTVSPost2010PropOp42
 70
     1
102
RTVSPost2010Prop43
 90
        3
102
RTVSPost2010PropOp43
 70
     1
102
RTVSPost2010Prop44ColorIndex
 90
        5
102
RTVSPost2010Prop44ColorRGB
 90
      255
102
RTVSPost2010PropOp44
 70
     1
102
RTVSPost2010Prop45
280
     0
102
RTVSPost2010PropOp45
 70
     1
102
RTVSPost2010Prop46
 90
       50
102
RTVSPost2010PropOp46
 70
     1
102
RTVSPost2010Prop47
 90
       50
102
RTVSPost2010PropOp47
 70
     1
102
RTVSPost2010Prop48
 90
       50
102
RTVSPost2010PropOp48
 70
     1
102
RTVSPost2010Prop49
280
     0
102
RTVSPost2010PropOp49
 70
     1
102
RTVSPost2010Prop50
 90
       50
102
RTVSPost2010PropOp50
 70
     1
102
RTVSPost2010Prop51ColorIndex
 90
      256
102
RTVSPost2010Prop51ColorRGB
 90
-16777216
102
RTVSPost2010PropOp51
 70
     0
102
RTVSPost2010Prop52
140
1.0
102
RTVSPost2010PropOp52
 70
     0
102
RTVSPost2010Prop53
 90
        2
102
RTVSPost2010PropOp53
 70
     1
102
RTVSPost2010Prop54
  1
strokes_ogs.tif
102
RTVSPost2010PropOp54
 70
     1
102
RTVSPost2010Prop55
280
     0
102
RTVSPost2010PropOp55
 70
     1
102
RTVSPost2010Prop56
140
1.0
102
RTVSPost2010PropOp56
 70
     1
102
RTVSPost2010Prop57
140
1.0
102
RTVSPost2010PropOp57
 70
     1
  0
XRECORD
  5
80F
102
{ACAD_REACTORS
330
80E
102
}
330
80E
100
AcDbXrecord
280
     1
102
RTVSPost2010Prop28
280
     0
102
RTVSPost2010PropOp28
 70
     1
102
RTVSPost2010Prop29
280
     1
102
RTVSPost2010PropOp29
 70
     1
102
RTVSPost2010Prop30
280
     1
102
RTVSPost2010PropOp30
 70
     1
102
RTVSPost2010Prop31
280
     0
102
RTVSPost2010PropOp31
 70
     1
102
RTVSPost2010Prop32
280
     0
102
RTVSPost2010PropOp32
 70
     1
102
RTVSPost2010Prop33
280
     0
102
RTVSPost2010PropOp33
 70
     1
102
RTVSPost2010Prop34
280
     0
102
RTVSPost2010PropOp34
 70
     1
102
RTVSPost2010Prop35
280
     0
102
RTVSPost2010PropOp35
 70
     1
102
RTVSPost2010Prop36
280
     0
102
RTVSPost2010PropOp36
 70
     1
102
RTVSPost2010Prop37
 90
       50
102
RTVSPost2010PropOp37
 70
     1
102
RTVSPost2010Prop38
140
0.0
102
RTVSPost2010PropOp38
 70
     1
102
RTVSPost2010Prop39
140
1.0
102
RTVSPost2010PropOp39
 70
     1
102
RTVSPost2010Prop40
 90
        0
102
RTVSPost2010PropOp40
 70
     1
102
RTVSPost2010Prop41ColorIndex
 90
       18
102
RTVSPost2010Prop41ColorRGB
 90
        0
102
RTVSPost2010PropOp41
 70
     1
102
RTVSPost2010Prop42
 90
       50
102
RTVSPost2010PropOp42
 70
     1
102
RTVSPost2010Prop43
 90
        3
102
RTVSPost2010PropOp43
 70
     1
102
RTVSPost2010Prop44ColorIndex
 90
        5
102
RTVSPost2010Prop44ColorRGB
 90
      255
102
RTVSPost2010PropOp44
 70
     1
102
RTVSPost2010Prop45
280
     0
102
RTVSPost2010PropOp45
 70
     1
102
RTVSPost2010Prop46
 90
       50
102
RTVSPost2010PropOp46
 70
     1
102
RTVSPost2010Prop47
 90
       50
102
RTVSPost2010PropOp47
 70
     1
102
RTVSPost2010Prop48
 90
       50
102
RTVSPost2010PropOp48
 70
     1
102
RTVSPost2010Prop49
280
     0
102
RTVSPost2010PropOp49
 70
     1
102
RTVSPost2010Prop50
 90
       50
102
RTVSPost2010PropOp50
 70
     1
102
RTVSPost2010Prop51ColorIndex
 90
      256
102
RTVSPost2010Prop51ColorRGB
 90
-16777216
102
RTVSPost2010PropOp51
 70
     0
102
RTVSPost2010Prop52
140
1.0
102
RTVSPost2010PropOp52
 70
     0
102
RTVSPost2010Prop53
 90
        2
102
RTVSPost2010PropOp53
 70
     1
102
RTVSPost2010Prop54
  1
strokes_ogs.tif
102
RTVSPost2010PropOp54
 70
     1
102
RTVSPost2010Prop55
280
     0
102
RTVSPost2010PropOp55
 70
     1
102
RTVSPost2010Prop56
140
1.0
102
RTVSPost2010PropOp56
 70
     1
102
RTVSPost2010Prop57
140
1.0
102
RTVSPost2010PropOp57
 70
     1
  0
ENDSEC
  0
EOF
