  0
SECTION
  2
HEADER
  9
$ACADVER
  1
AC1024
  9
$ACADMAINTVER
 70
     6
  9
$DWGCODEPAGE
  3
ANSI_1252
  9
$LASTSAVEDBY
  1
Dave
  9
$INSBASE
 10
0.0
 20
0.0
 30
0.0
  9
$EXTMIN
 10
1118.018590853946
 20
912.8403353314629
 30
-0.0000000002107573
  9
$EXTMAX
 10
1148.96362163486
 20
944.8480662857323
 30
0.0000000001229197
  9
$LIMMIN
 10
0.0
 20
0.0
  9
$LIMMAX
 10
420.0
 20
297.0
  9
$ORTHOMODE
 70
     0
  9
$REGENMODE
 70
     1
  9
$FILLMODE
 70
     1
  9
$QTEXTMODE
 70
     0
  9
$MIRRTEXT
 70
     0
  9
$LTSCALE
 40
1.0
  9
$ATTMODE
 70
     1
  9
$TEXTSIZE
 40
2.5
  9
$TRACEWID
 40
1.0
  9
$TEXTSTYLE
  7
Standard
  9
$CLAYER
  8
0
  9
$CELTYPE
  6
ByLayer
  9
$CECOLOR
 62
   256
  9
$CELTSCALE
 40
0.05
  9
$DISPSILH
 70
     0
  9
$DIMSCALE
 40
1.0
  9
$DIMASZ
 40
2.5
  9
$DIMEXO
 40
0.625
  9
$DIMDLI
 40
3.75
  9
$DIMRND
 40
0.0
  9
$DIMDLE
 40
0.0
  9
$DIMEXE
 40
1.25
  9
$DIMTP
 40
0.0
  9
$DIMTM
 40
0.0
  9
$DIMTXT
 40
2.5
  9
$DIMCEN
 40
2.5
  9
$DIMTSZ
 40
0.0
  9
$DIMTOL
 70
     0
  9
$DIMLIM
 70
     0
  9
$DIMTIH
 70
     0
  9
$DIMTOH
 70
     0
  9
$DIMSE1
 70
     0
  9
$DIMSE2
 70
     0
  9
$DIMTAD
 70
     1
  9
$DIMZIN
 70
     8
  9
$DIMBLK
  1

  9
$DIMASO
 70
     1
  9
$DIMSHO
 70
     1
  9
$DIMPOST
  1

  9
$DIMAPOST
  1

  9
$DIMALT
 70
     0
  9
$DIMALTD
 70
     3
  9
$DIMALTF
 40
0.03937007874016
  9
$DIMLFAC
 40
1.0
  9
$DIMTOFL
 70
     1
  9
$DIMTVP
 40
0.0
  9
$DIMTIX
 70
     0
  9
$DIMSOXD
 70
     0
  9
$DIMSAH
 70
     0
  9
$DIMBLK1
  1

  9
$DIMBLK2
  1

  9
$DIMSTYLE
  2
ISO-25
  9
$DIMCLRD
 70
     0
  9
$DIMCLRE
 70
     0
  9
$DIMCLRT
 70
     0
  9
$DIMTFAC
 40
1.0
  9
$DIMGAP
 40
0.625
  9
$DIMJUST
 70
     0
  9
$DIMSD1
 70
     0
  9
$DIMSD2
 70
     0
  9
$DIMTOLJ
 70
     0
  9
$DIMTZIN
 70
     8
  9
$DIMALTZ
 70
     0
  9
$DIMALTTZ
 70
     0
  9
$DIMUPT
 70
     0
  9
$DIMDEC
 70
     2
  9
$DIMTDEC
 70
     2
  9
$DIMALTU
 70
     2
  9
$DIMALTTD
 70
     3
  9
$DIMTXSTY
  7
Standard
  9
$DIMAUNIT
 70
     0
  9
$DIMADEC
 70
     0
  9
$DIMALTRND
 40
0.0
  9
$DIMAZIN
 70
     0
  9
$DIMDSEP
 70
    44
  9
$DIMATFIT
 70
     3
  9
$DIMFRAC
 70
     0
  9
$DIMLDRBLK
  1

  9
$DIMLUNIT
 70
     2
  9
$DIMLWD
 70
    -2
  9
$DIMLWE
 70
    -2
  9
$DIMTMOVE
 70
     0
  9
$DIMFXL
 40
1.0
  9
$DIMFXLON
 70
     0
  9
$DIMJOGANG
 40
0.7853981633974483
  9
$DIMTFILL
 70
     0
  9
$DIMTFILLCLR
 70
     0
  9
$DIMARCSYM
 70
     0
  9
$DIMLTYPE
  6

  9
$DIMLTEX1
  6

  9
$DIMLTEX2
  6

  9
$DIMTXTDIRECTION
 70
     0
  9
$LUNITS
 70
     2
  9
$LUPREC
 70
     4
  9
$SKETCHINC
 40
1.0
  9
$FILLETRAD
 40
0.0
  9
$AUNITS
 70
     0
  9
$AUPREC
 70
     0
  9
$MENU
  1
.
  9
$ELEVATION
 40
0.0
  9
$PELEVATION
 40
0.0
  9
$THICKNESS
 40
0.0
  9
$LIMCHECK
 70
     0
  9
$CHAMFERA
 40
0.0
  9
$CHAMFERB
 40
0.0
  9
$CHAMFERC
 40
0.0
  9
$CHAMFERD
 40
0.0
  9
$SKPOLY
 70
     0
  9
$TDCREATE
 40
2455313.46496985
  9
$TDUCREATE
 40
2455313.423303183
  9
$TDUPDATE
 40
2457213.68012007
  9
$TDUUPDATE
 40
2457213.638453403
  9
$TDINDWG
 40
0.1553424537
  9
$TDUSRTIMER
 40
0.155342419
  9
$USRTIMER
 70
     1
  9
$ANGBASE
 50
0.0
  9
$ANGDIR
 70
     0
  9
$PDMODE
 70
     0
  9
$PDSIZE
 40
0.0
  9
$PLINEWID
 40
0.0
  9
$SPLFRAME
 70
     0
  9
$SPLINETYPE
 70
     6
  9
$SPLINESEGS
 70
     8
  9
$HANDSEED
  5
5C0
  9
$SURFTAB1
 70
     6
  9
$SURFTAB2
 70
     6
  9
$SURFTYPE
 70
     6
  9
$SURFU
 70
     6
  9
$SURFV
 70
     6
  9
$UCSBASE
  2

  9
$UCSNAME
  2

  9
$UCSORG
 10
0.0
 20
0.0
 30
0.0
  9
$UCSXDIR
 10
1.0
 20
0.0
 30
0.0
  9
$UCSYDIR
 10
0.0
 20
1.0
 30
0.0
  9
$UCSORTHOREF
  2

  9
$UCSORTHOVIEW
 70
     0
  9
$UCSORGTOP
 10
0.0
 20
0.0
 30
0.0
  9
$UCSORGBOTTOM
 10
0.0
 20
0.0
 30
0.0
  9
$UCSORGLEFT
 10
0.0
 20
0.0
 30
0.0
  9
$UCSORGRIGHT
 10
0.0
 20
0.0
 30
0.0
  9
$UCSORGFRONT
 10
0.0
 20
0.0
 30
0.0
  9
$UCSORGBACK
 10
0.0
 20
0.0
 30
0.0
  9
$PUCSBASE
  2

  9
$PUCSNAME
  2

  9
$PUCSORG
 10
0.0
 20
0.0
 30
0.0
  9
$PUCSXDIR
 10
1.0
 20
0.0
 30
0.0
  9
$PUCSYDIR
 10
0.0
 20
1.0
 30
0.0
  9
$PUCSORTHOREF
  2

  9
$PUCSORTHOVIEW
 70
     0
  9
$PUCSORGTOP
 10
0.0
 20
0.0
 30
0.0
  9
$PUCSORGBOTTOM
 10
0.0
 20
0.0
 30
0.0
  9
$PUCSORGLEFT
 10
0.0
 20
0.0
 30
0.0
  9
$PUCSORGRIGHT
 10
0.0
 20
0.0
 30
0.0
  9
$PUCSORGFRONT
 10
0.0
 20
0.0
 30
0.0
  9
$PUCSORGBACK
 10
0.0
 20
0.0
 30
0.0
  9
$USERI1
 70
     0
  9
$USERI2
 70
     0
  9
$USERI3
 70
     0
  9
$USERI4
 70
     0
  9
$USERI5
 70
     0
  9
$USERR1
 40
0.0
  9
$USERR2
 40
0.0
  9
$USERR3
 40
0.0
  9
$USERR4
 40
0.0
  9
$USERR5
 40
0.0
  9
$WORLDVIEW
 70
     1
  9
$SHADEDGE
 70
     3
  9
$SHADEDIF
 70
    70
  9
$TILEMODE
 70
     1
  9
$MAXACTVP
 70
    64
  9
$PINSBASE
 10
0.0
 20
0.0
 30
0.0
  9
$PLIMCHECK
 70
     0
  9
$PEXTMIN
 10
0.0
 20
0.0
 30
0.0
  9
$PEXTMAX
 10
0.0
 20
0.0
 30
0.0
  9
$PLIMMIN
 10
0.0
 20
0.0
  9
$PLIMMAX
 10
12.0
 20
9.0
  9
$UNITMODE
 70
     0
  9
$VISRETAIN
 70
     1
  9
$PLINEGEN
 70
     0
  9
$PSLTSCALE
 70
     1
  9
$TREEDEPTH
 70
  3020
  9
$CMLSTYLE
  2
Standard
  9
$CMLJUST
 70
     0
  9
$CMLSCALE
 40
20.0
  9
$PROXYGRAPHICS
 70
     1
  9
$MEASUREMENT
 70
     1
  9
$CELWEIGHT
370
    -1
  9
$ENDCAPS
280
     0
  9
$JOINSTYLE
280
     0
  9
$LWDISPLAY
290
     0
  9
$INSUNITS
 70
     4
  9
$HYPERLINKBASE
  1

  9
$STYLESHEET
  1
acad.ctb
  9
$XEDIT
290
     1
  9
$CEPSNTYPE
380
     0
  9
$PSTYLEMODE
290
     1
  9
$FINGERPRINTGUID
  2
{53C338C3-7C4B-4715-8046-6A8A4715CA2F}
  9
$VERSIONGUID
  2
{3DDFAE77-2363-4075-A149-3CAF57FF587C}
  9
$EXTNAMES
290
     1
  9
$PSVPSCALE
 40
0.0
  9
$OLESTARTUP
290
     0
  9
$SORTENTS
280
   127
  9
$INDEXCTL
280
     0
  9
$HIDETEXT
280
     1
  9
$XCLIPFRAME
280
     0
  9
$HALOGAP
280
     0
  9
$OBSCOLOR
 70
   257
  9
$OBSLTYPE
280
     0
  9
$INTERSECTIONDISPLAY
280
     0
  9
$INTERSECTIONCOLOR
 70
   257
  9
$DIMASSOC
280
     2
  9
$PROJECTNAME
  1

  9
$CAMERADISPLAY
290
     0
  9
$LENSLENGTH
 40
50.0
  9
$CAMERAHEIGHT
 40
0.0
  9
$STEPSPERSEC
 40
2.0
  9
$STEPSIZE
 40
6.0
  9
$3DDWFPREC
 40
2.0
  9
$PSOLWIDTH
 40
5.0
  9
$PSOLHEIGHT
 40
80.0
  9
$LOFTANG1
 40
1.570796326794897
  9
$LOFTANG2
 40
1.570796326794897
  9
$LOFTMAG1
 40
0.0
  9
$LOFTMAG2
 40
0.0
  9
$LOFTPARAM
 70
     7
  9
$LOFTNORMALS
280
     1
  9
$LATITUDE
 40
37.795
  9
$LONGITUDE
 40
-122.394
  9
$NORTHDIRECTION
 40
0.0
  9
$TIMEZONE
 70
 -8000
  9
$LIGHTGLYPHDISPLAY
280
     1
  9
$TILEMODELIGHTSYNCH
280
     1
  9
$CMATERIAL
347
EC
  9
$SOLIDHIST
280
     1
  9
$SHOWHIST
280
     1
  9
$DWFFRAME
280
     2
  9
$DGNFRAME
280
     0
  9
$REALWORLDSCALE
290
     1
  9
$INTERFERECOLOR
 62
     1
  9
$CSHADOW
280
     0
  9
$SHADOWPLANELOCATION
 40
0.0
  0
ENDSEC
  0
SECTION
  2
CLASSES
  0
CLASS
  1
ACDBDICTIONARYWDFLT
  2
AcDbDictionaryWithDefault
  3
ObjectDBX Classes
 90
        0
 91
        4
280
     0
281
     0
  0
CLASS
  1
ACDBPLACEHOLDER
  2
AcDbPlaceHolder
  3
ObjectDBX Classes
 90
        0
 91
        1
280
     0
281
     0
  0
CLASS
  1
LAYOUT
  2
AcDbLayout
  3
ObjectDBX Classes
 90
        0
 91
        1
280
     0
281
     0
  0
CLASS
  1
DICTIONARYVAR
  2
AcDbDictionaryVar
  3
ObjectDBX Classes
 90
        0
 91
        4
280
     0
281
     0
  0
CLASS
  1
TABLESTYLE
  2
AcDbTableStyle
  3
ObjectDBX Classes
 90
     4095
 91
        4
280
     0
281
     0
  0
CLASS
  1
MATERIAL
  2
AcDbMaterial
  3
ObjectDBX Classes
 90
     1153
 91
        4
280
     0
281
     0
  0
CLASS
  1
VISUALSTYLE
  2
AcDbVisualStyle
  3
ObjectDBX Classes
 90
     4095
 91
        4
280
     0
281
     0
  0
CLASS
  1
SORTENTSTABLE
  2
AcDbSortentsTable
  3
ObjectDBX Classes
 90
        0
 91
        4
280
     0
281
     0
  0
CLASS
  1
SCALE
  2
AcDbScale
  3
ObjectDBX Classes
 90
     1153
 91
        4
280
     0
281
     0
  0
CLASS
  1
MLEADERSTYLE
  2
AcDbMLeaderStyle
  3
ACDB_MLEADERSTYLE_CLASS
 90
     4095
 91
        4
280
     0
281
     0
  0
CLASS
  1
CELLSTYLEMAP
  2
AcDbCellStyleMap
  3
ObjectDBX Classes
 90
     1152
 91
        4
280
     0
281
     0
  0
ENDSEC
  0
SECTION
  2
TABLES
  0
TABLE
  2
VPORT
  5
8
330
0
100
AcDbSymbolTable
 70
     1
  0
VPORT
  5
EA
330
8
100
AcDbSymbolTableRecord
100
AcDbViewportTableRecord
  2
*Active
 70
     0
 10
0.0
 20
0.0
 11
1.0
 21
1.0
 12
1133.491106244403
 22
928.8442008085976
 13
0.0
 23
0.0
 14
10.0
 24
10.0
 15
10.0
 25
10.0
 16
0.0
 26
0.0
 36
1.0
 17
0.0
 27
0.0
 37
0.0
 40
32.29443125956568
 41
1.551111111111111
 42
50.0
 43
0.0
 44
0.0
 50
0.0
 51
0.0
 71
     0
 72
  1000
 73
     1
 74
     3
 75
     0
 76
     0
 77
     0
 78
     0
281
     0
 65
     1
110
0.0
120
0.0
130
0.0
111
1.0
121
0.0
131
0.0
112
0.0
122
1.0
132
0.0
 79
     0
146
0.0
348
F5
 60
     2
 61
     5
292
     1
282
     1
141
0.0
142
0.0
 63
   250
421
  3355443
  0
ENDTAB
  0
TABLE
  2
LTYPE
  5
5
330
0
100
AcDbSymbolTable
 70
     4
  0
LTYPE
  5
14
330
5
100
AcDbSymbolTableRecord
100
AcDbLinetypeTableRecord
  2
ByBlock
 70
     0
  3

 72
    65
 73
     0
 40
0.0
  0
LTYPE
  5
15
330
5
100
AcDbSymbolTableRecord
100
AcDbLinetypeTableRecord
  2
ByLayer
 70
     0
  3

 72
    65
 73
     0
 40
0.0
  0
LTYPE
  5
16
330
5
100
AcDbSymbolTableRecord
100
AcDbLinetypeTableRecord
  2
Continuous
 70
     0
  3
Solid line
 72
    65
 73
     0
 40
0.0
  0
LTYPE
  5
110
330
5
100
AcDbSymbolTableRecord
100
AcDbLinetypeTableRecord
  2
B
 70
     0
  3
Solid line
 72
    65
 73
     0
 40
0.0
  0
LTYPE
  5
111
330
5
100
AcDbSymbolTableRecord
100
AcDbLinetypeTableRecord
  2
ACAD_ISO02W100
 70
     0
  3
ISO dash __ __ __ __ __ __ __ __ __ __ __ __ __
 72
    65
 73
     2
 40
15.0
 49
12.0
 74
     0
 49
-3.0
 74
     0
  0
LTYPE
  5
112
330
5
100
AcDbSymbolTableRecord
100
AcDbLinetypeTableRecord
  2
ACAD_ISO04W100
 70
     0
  3
ISO long-dash dot ____ . ____ . ____ . ____ . _
 72
    65
 73
     4
 40
30.0
 49
24.0
 74
     0
 49
-3.0
 74
     0
 49
0.0
 74
     0
 49
-3.0
 74
     0
  0
ENDTAB
  0
TABLE
  2
LAYER
  5
2
102
{ACAD_XDICTIONARY
360
11B
102
}
330
0
100
AcDbSymbolTable
 70
     6
  0
LAYER
  5
10
330
2
100
AcDbSymbolTableRecord
100
AcDbLayerTableRecord
  2
0
 70
     0
 62
     7
  6
Continuous
370
    -3
390
F
347
EE
  0
LAYER
  5
113
330
2
100
AcDbSymbolTableRecord
100
AcDbLayerTableRecord
  2
Features
 70
     0
 62
     1
  6
Continuous
370
    -3
390
F
347
EE
  0
LAYER
  5
114
330
2
100
AcDbSymbolTableRecord
100
AcDbLayerTableRecord
  2
kvadrat
 70
     0
 62
     3
  6
ACAD_ISO02W100
370
    -3
390
F
347
EE
  0
LAYER
  5
115
330
2
100
AcDbSymbolTableRecord
100
AcDbLayerTableRecord
  2
stripped_area
 70
     0
 62
     4
  6
ACAD_ISO04W100
370
    -3
390
F
347
EE
  0
LAYER
  5
116
330
2
100
AcDbSymbolTableRecord
100
AcDbLayerTableRecord
  2
TEXT
 70
     0
 62
     7
  6
Continuous
370
    -3
390
F
347
EE
  0
LAYER
  5
117
330
2
100
AcDbSymbolTableRecord
100
AcDbLayerTableRecord
  2
Skeleton
 70
     0
 62
    56
  6
Continuous
370
    -3
390
F
347
EE
1001
AcAecLayerStandard
1000

1000

  0
ENDTAB
  0
TABLE
  2
STYLE
  5
3
330
0
100
AcDbSymbolTable
 70
     2
  0
STYLE
  5
11
330
3
100
AcDbSymbolTableRecord
100
AcDbTextStyleTableRecord
  2
Standard
 70
     0
 40
0.0
 41
1.0
 50
0.0
 71
     0
 42
2.5
  3
txt
  4

  0
STYLE
  5
118
330
3
100
AcDbSymbolTableRecord
100
AcDbTextStyleTableRecord
  2
CourierNew
 70
     0
 40
0.0
 41
1.0
 50
0.0
 71
     0
 42
0.2
  3
cour.ttf
  4

1001
ACAD
1000
Courier New
1071
       49
  0
ENDTAB
  0
TABLE
  2
VIEW
  5
6
330
0
100
AcDbSymbolTable
 70
     0
  0
ENDTAB
  0
TABLE
  2
UCS
  5
7
330
0
100
AcDbSymbolTable
 70
     0
  0
ENDTAB
  0
TABLE
  2
APPID
  5
9
330
0
100
AcDbSymbolTable
 70
     4
  0
APPID
  5
12
330
9
100
AcDbSymbolTableRecord
100
AcDbRegAppTableRecord
  2
ACAD
 70
     0
  0
APPID
  5
9E
330
9
100
AcDbSymbolTableRecord
100
AcDbRegAppTableRecord
  2
ACAD_PSEXT
 70
     0
  0
APPID
  5
11A
330
9
100
AcDbSymbolTableRecord
100
AcDbRegAppTableRecord
  2
AcAecLayerStandard
 70
     0
  0
APPID
  5
257
330
9
100
AcDbSymbolTableRecord
100
AcDbRegAppTableRecord
  2
ACAD_EXEMPT_FROM_CAD_STANDARDS
 70
     0
  0
ENDTAB
  0
TABLE
  2
DIMSTYLE
  5
A
330
0
100
AcDbSymbolTable
 70
     2
100
AcDbDimStyleTable
  0
DIMSTYLE
105
27
330
A
100
AcDbSymbolTableRecord
100
AcDbDimStyleTableRecord
  2
ISO-25
 70
     0
 41
2.5
 42
0.625
 43
3.75
 44
1.25
 73
     0
 74
     0
 77
     1
 78
     8
140
2.5
141
2.5
143
0.03937007874016
147
0.625
171
     3
172
     1
178
     0
271
     2
272
     2
274
     3
278
    44
283
     0
284
     8
340
11
  0
DIMSTYLE
105
119
330
A
100
AcDbSymbolTableRecord
100
AcDbDimStyleTableRecord
  2
STANDARD
 70
     0
178
     0
340
118
  0
ENDTAB
  0
TABLE
  2
BLOCK_RECORD
  5
1
330
0
100
AcDbSymbolTable
 70
     2
  0
BLOCK_RECORD
  5
1F
102
{ACAD_XDICTIONARY
360
320
102
}
330
1
100
AcDbSymbolTableRecord
100
AcDbBlockTableRecord
  2
*Model_Space
340
22
 70
     0
280
     1
281
     0
  0
BLOCK_RECORD
  5
D2
330
1
100
AcDbSymbolTableRecord
100
AcDbBlockTableRecord
  2
*Paper_Space
340
D3
 70
     0
280
     1
281
     0
  0
BLOCK_RECORD
  5
D6
330
1
100
AcDbSymbolTableRecord
100
AcDbBlockTableRecord
  2
*Paper_Space0
340
D7
 70
     0
280
     1
281
     0
  0
BLOCK_RECORD
  5
1DD
102
{ACAD_XDICTIONARY
360
23A
102
}
330
1
100
AcDbSymbolTableRecord
100
AcDbBlockTableRecord
  2
A$C00294823
340
0
 70
     0
280
     1
281
     0
  0
ENDTAB
  0
ENDSEC
  0
SECTION
  2
BLOCKS
  0
BLOCK
  5
20
330
1F
100
AcDbEntity
  8
0
100
AcDbBlockBegin
  2
*Model_Space
 70
     0
 10
0.0
 20
0.0
 30
0.0
  3
*Model_Space
  1

  0
ENDBLK
  5
21
330
1F
100
AcDbEntity
  8
0
100
AcDbBlockEnd
  0
BLOCK
  5
D4
330
D2
100
AcDbEntity
 67
     1
  8
0
100
AcDbBlockBegin
  2
*Paper_Space
 70
     0
 10
0.0
 20
0.0
 30
0.0
  3
*Paper_Space
  1

  0
ENDBLK
  5
D5
330
D2
100
AcDbEntity
 67
     1
  8
0
100
AcDbBlockEnd
  0
BLOCK
  5
D8
330
D6
100
AcDbEntity
  8
0
100
AcDbBlockBegin
  2
*Paper_Space0
 70
     0
 10
0.0
 20
0.0
 30
0.0
  3
*Paper_Space0
  1

  0
ENDBLK
  5
D9
330
D6
100
AcDbEntity
  8
0
100
AcDbBlockEnd
  0
BLOCK
  5
23C
330
1DD
100
AcDbEntity
  8
0
100
AcDbBlockBegin
  2
A$C00294823
 70
     0
 10
0.0
 20
0.0
 30
0.0
  3
A$C00294823
  1

  0
POLYLINE
  5
1DE
330
1DD
100
AcDbEntity
  8
Features
  6
Continuous
100
AcDb3dPolyline
 66
     1
 10
0.0
 20
0.0
 30
0.0
 70
     8
  0
VERTEX
  5
1DF
330
1DE
100
AcDbEntity
  8
Features
  6
Continuous
100
AcDbVertex
100
AcDb3dPolylineVertex
 10
17.57234100811183
 20
14.71113626100123
 30
-1.560000000000002
 70
    32
  0
VERTEX
  5
1E0
330
1DE
100
AcDbEntity
  8
Features
  6
Continuous
100
AcDbVertex
100
AcDb3dPolylineVertex
 10
19.14557346329093
 20
13.563287996687
 30
-1.505000000000024
 70
    32
  0
SEQEND
  5
1E1
330
1DE
100
AcDbEntity
  8
Features
  6
Continuous
  0
LWPOLYLINE
  5
1E2
330
1DD
100
AcDbEntity
  8
TEXT
  6
Continuous
100
AcDbPolyline
 90
        2
 70
   128
 43
0.09
 38
187.1565999999864
 10
12.09319137781858
 20
46.01270674914122
 10
12.09319137968123
 20
40.22785297594965
  0
LWPOLYLINE
  5
1E3
330
1DD
100
AcDbEntity
  8
TEXT
  6
Continuous
100
AcDbPolyline
 90
        2
 70
   128
 38
187.1565999999864
 10
12.09319137968123
 20
48.55509622115642
 40
0.0
 41
0.8999999999999999
 10
12.09319137781858
 20
46.01270674914122
 40
0.8999999999999999
 41
0.8999999999999999
  0
MTEXT
  5
1E4
330
1DD
100
AcDbEntity
  8
TEXT
  6
Continuous
100
AcDbMText
 10
11.68206831999123
 20
39.7773833470419
 30
-968.3051000000132
 40
1.05
 41
0.9939370878040776
 46
0.0
 71
     1
 72
     5
  1
{\fTahoma|b0|i0|c0|p34;N}
 11
1.0
 21
1.253522841082599E-10
 31
0.0
 73
     1
 44
1.0
  0
MTEXT
  5
1E5
330
1DD
100
AcDbEntity
  8
TEXT
  6
Continuous
100
AcDbMText
 10
2.736808827146888
 20
30.81700308062136
 30
-1155.328272532151
 40
0.6
 41
425.8195
 46
0.0
 71
     1
 72
     5
  1
{\fTahoma|b0|i0|c0|p34;Kv8}
 73
     1
 44
1.0
  0
MTEXT
  5
1E6
330
1DD
100
AcDbEntity
  8
TEXT
  6
Continuous
100
AcDbMText
 10
6.77181782387197
 20
30.81700308062136
 30
-1155.328272532151
 40
0.6
 41
425.8195
 46
0.0
 71
     1
 72
     5
  1
{\fTahoma|b0|i0|c0|p34;Kv7}
 73
     1
 44
1.0
  0
MTEXT
  5
1E7
330
1DD
100
AcDbEntity
  8
TEXT
  6
Continuous
100
AcDbMText
 10
10.78274522535503
 20
30.78413343802094
 30
-1155.213910699691
 40
0.6
 41
425.8195
 46
0.0
 71
     1
 72
     5
  1
{\fTahoma|b0|i0|c0|p34;Kv6}
 73
     1
 44
1.0
  0
MTEXT
  5
1E8
330
1DD
100
AcDbEntity
  8
TEXT
  6
Continuous
100
AcDbMText
 10
14.8085761051625
 20
30.73429306410253
 30
-1155.224438699406
 40
0.6
 41
425.8195
 46
0.0
 71
     1
 72
     5
  1
{\fTahoma|b0|i0|c0|p34;Kv5}
 73
     1
 44
1.0
  0
MTEXT
  5
1E9
330
1DD
100
AcDbEntity
  8
TEXT
  6
Continuous
100
AcDbMText
 10
33.26288326829672
 20
17.32365775946528
 30
0.0
 40
1.2
 41
851.639
 46
0.0
 71
     1
 72
     5
  1
{\fTahoma|b0|i0|c0|p34;Phased Sequence of Site Through Time}
 73
     1
 44
1.0
  0
MTEXT
  5
1EA
330
1DD
100
AcDbEntity
  8
TEXT
  6
Continuous
100
AcDbMText
 10
34.11762792803347
 20
11.18980598449707
 30
-2310.923399999999
 40
1.2
 41
851.639
 46
0.0
 71
     1
 72
     5
  1
{\fTahoma|b0|i0|c0|p34;Eneolithic Early Phase}
 73
     1
 44
1.0
  0
LINE
  5
1EB
330
1DD
100
AcDbEntity
  8
kvadrat
  6
B
100
AcDbLine
 10
7.920496104285121
 20
12.37072568759322
 30
0.0
 11
12.2555744741112
 21
3.852622509934008
 31
0.0
  0
LINE
  5
1EC
330
1DD
100
AcDbEntity
  8
stripped_area
 48
0.1
100
AcDbLine
 10
0.0000001266598701
 20
15.91883349977434
 30
0.0
 11
3.643482534214854
 21
3.288332900032401
 31
0.0
  0
LINE
  5
1ED
330
1DD
100
AcDbEntity
  8
Features
  6
ACAD_ISO02W100
 48
0.2
100
AcDbLine
 10
11.50587744638324
 20
15.70846728701144
 30
0.0
 11
14.57121692039073
 21
6.341058808378875
 31
0.0
  0
TEXT
  5
1EE
330
1DD
100
AcDbEntity
  8
TEXT
  6
Continuous
100
AcDbText
 10
33.51608664728701
 20
26.07009344734251
 30
0.0
 40
0.6
  1
kv9
100
AcDbText
  0
TEXT
  5
1EF
330
1DD
100
AcDbEntity
  8
TEXT
  6
Continuous
100
AcDbText
 10
37.05067349411547
 20
26.31221211887896
 30
0.0
 40
0.6
  1
kv8
100
AcDbText
  0
TEXT
  5
1F0
330
1DD
100
AcDbEntity
  8
TEXT
  6
Continuous
100
AcDbText
 10
41.51435174234211
 20
26.3672390896827
 30
0.0
 40
0.6
  1
kv7
100
AcDbText
  0
TEXT
  5
1F1
330
1DD
100
AcDbEntity
  8
TEXT
  6
Continuous
100
AcDbText
 10
45.25091497786343
 20
26.60935776121914
 30
0.0
 40
0.6
  1
kv6
100
AcDbText
  0
TEXT
  5
1F2
330
1DD
100
AcDbEntity
  8
TEXT
  6
Continuous
100
AcDbText
 10
49.31064044125378
 20
26.85147643275559
 30
0.0
 40
0.6
  1
kv5
100
AcDbText
  0
TEXT
  5
1F3
330
1DD
100
AcDbEntity
  8
TEXT
  6
Continuous
100
AcDbText
 10
52.94621548242867
 20
26.95052498020232
 30
0.0
 40
0.6
  1
kv4
100
AcDbText
  0
TEXT
  5
1F4
330
1DD
100
AcDbEntity
  8
TEXT
  6
Continuous
100
AcDbText
 10
57.47048664651811
 20
27.19264365173876
 30
0.0
 40
0.6
  1
kv3
100
AcDbText
  0
TEXT
  5
1F5
330
1DD
100
AcDbEntity
  8
TEXT
  6
Continuous
100
AcDbText
 10
61.14645696617663
 20
27.54481626674533
 30
0.0
 40
0.6
  1
kv2
100
AcDbText
  0
TEXT
  5
1F6
330
1DD
100
AcDbEntity
  8
TEXT
  6
Continuous
100
AcDbText
 10
64.58005561865866
 20
27.63285942003131
 30
0.0
 40
0.6
  1
kv1
100
AcDbText
  0
POLYLINE
  5
1F7
330
1DD
100
AcDbEntity
  8
kvadrat
  6
B
100
AcDb3dPolyline
 66
     1
 10
0.0
 20
0.0
 30
0.0
 70
     8
  0
VERTEX
  5
1F8
330
1F7
100
AcDbEntity
  8
kvadrat
  6
B
100
AcDbVertex
100
AcDb3dPolylineVertex
 10
31.51831878349185
 20
25.46924827713519
 30
207.692
 70
    32
  0
VERTEX
  5
1F9
330
1F7
100
AcDbEntity
  8
kvadrat
  6
B
100
AcDbVertex
100
AcDb3dPolylineVertex
 10
35.52207125537097
 20
25.73377828206867
 30
207.647
 70
    32
  0
VERTEX
  5
1FA
330
1F7
100
AcDbEntity
  8
kvadrat
  6
B
100
AcDbVertex
100
AcDb3dPolylineVertex
 10
39.37380471639335
 20
25.88007031194866
 30
207.553
 70
    32
  0
VERTEX
  5
1FB
330
1F7
100
AcDbEntity
  8
kvadrat
  6
B
100
AcDbVertex
100
AcDb3dPolylineVertex
 10
43.52603404223919
 20
26.03474302217364
 30
207.642
 70
    32
  0
VERTEX
  5
1FC
330
1F7
100
AcDbEntity
  8
kvadrat
  6
B
100
AcDbVertex
100
AcDb3dPolylineVertex
 10
47.5308341011405
 20
26.26171104703099
 30
207.689
 70
    32
  0
VERTEX
  5
1FD
330
1F7
100
AcDbEntity
  8
kvadrat
  6
B
100
AcDbVertex
100
AcDb3dPolylineVertex
 10
51.55240203626454
 20
26.54420238360763
 30
207.747
 70
    32
  0
VERTEX
  5
1FE
330
1F7
100
AcDbEntity
  8
kvadrat
  6
B
100
AcDbVertex
100
AcDb3dPolylineVertex
 10
55.59938204661012
 20
26.73645943496376
 30
207.732
 70
    32
  0
VERTEX
  5
1FF
330
1F7
100
AcDbEntity
  8
kvadrat
  6
B
100
AcDbVertex
100
AcDb3dPolylineVertex
 10
59.53464164584875
 20
26.90813619457185
 30
207.702
 70
    32
  0
VERTEX
  5
200
330
1F7
100
AcDbEntity
  8
kvadrat
  6
B
100
AcDbVertex
100
AcDb3dPolylineVertex
 10
63.5362492389977
 20
27.15029659029096
 30
207.782
 70
    32
  0
VERTEX
  5
201
330
1F7
100
AcDbEntity
  8
kvadrat
  6
B
100
AcDbVertex
100
AcDb3dPolylineVertex
 10
67.55101372860372
 20
27.34644724335521
 30
207.837
 70
    32
  0
VERTEX
  5
202
330
1F7
100
AcDbEntity
  8
kvadrat
  6
B
100
AcDbVertex
100
AcDb3dPolylineVertex
 10
67.75446014478803
 20
23.29727676790208
 30
207.967
 70
    32
  0
VERTEX
  5
203
330
1F7
100
AcDbEntity
  8
kvadrat
  6
B
100
AcDbVertex
100
AcDb3dPolylineVertex
 10
63.80152184329927
 20
23.07409793697298
 30
207.873
 70
    32
  0
VERTEX
  5
204
330
1F7
100
AcDbEntity
  8
kvadrat
  6
B
100
AcDbVertex
100
AcDb3dPolylineVertex
 10
59.79707235470414
 20
22.87083386350423
 30
207.837
 70
    32
  0
VERTEX
  5
205
330
1F7
100
AcDbEntity
  8
kvadrat
  6
B
100
AcDbVertex
100
AcDb3dPolylineVertex
 10
55.7633768748492
 20
22.60126237943769
 30
207.879
 70
    32
  0
VERTEX
  5
206
330
1F7
100
AcDbEntity
  8
kvadrat
  6
B
100
AcDbVertex
100
AcDb3dPolylineVertex
 10
51.78739929758012
 20
22.43478621076792
 30
207.852
 70
    32
  0
VERTEX
  5
207
330
1F7
100
AcDbEntity
  8
kvadrat
  6
B
100
AcDbVertex
100
AcDb3dPolylineVertex
 10
47.75216891057789
 20
22.21261350531131
 30
207.822
 70
    32
  0
VERTEX
  5
208
330
1F7
100
AcDbEntity
  8
kvadrat
  6
B
100
AcDbVertex
100
AcDb3dPolylineVertex
 10
43.73867081478238
 20
21.92523567937315
 30
207.696
 70
    32
  0
VERTEX
  5
209
330
1F7
100
AcDbEntity
  8
kvadrat
  6
B
100
AcDbVertex
100
AcDb3dPolylineVertex
 10
39.30445810034871
 20
21.71887768898159
 30
207.658
 70
    32
  0
VERTEX
  5
20A
330
1F7
100
AcDbEntity
  8
kvadrat
  6
B
100
AcDbVertex
100
AcDb3dPolylineVertex
 10
35.67576931975782
 20
21.60122254677117
 30
207.66
 70
    32
  0
VERTEX
  5
20B
330
1F7
100
AcDbEntity
  8
kvadrat
  6
B
100
AcDbVertex
100
AcDb3dPolylineVertex
 10
31.77465630695224
 20
21.3907771082595
 30
207.684
 70
    32
  0
VERTEX
  5
20C
330
1F7
100
AcDbEntity
  8
kvadrat
  6
B
100
AcDbVertex
100
AcDb3dPolylineVertex
 10
31.51831878349185
 20
25.46924827713519
 30
207.692
 70
    32
  0
SEQEND
  5
20D
330
1F7
100
AcDbEntity
  8
kvadrat
  6
B
  0
LINE
  5
20E
330
1DD
100
AcDbEntity
  8
stripped_area
 48
0.1
100
AcDbLine
 10
24.79301467724144
 20
32.53474553208798
 30
0.0
 11
74.2949973270297
 21
34.77160058449954
 31
0.0
  0
MTEXT
  5
20F
330
1DD
100
AcDbEntity
  8
TEXT
  6
Continuous
100
AcDbMText
 10
27.43863671459258
 20
45.98977799899876
 30
223.0716078569948
 40
2.0
 41
56.16
 46
0.0
 71
     1
 72
     5
  1
{\fTahoma|b0|i0|c0|p34;300.98 Hajialili II  \H0.75x;Medieval Settlement}
 73
     1
 44
1.0
  0
MTEXT
  5
210
330
1DD
100
AcDbEntity
  8
TEXT
  6
Continuous
100
AcDbMText
 10
27.45275951176882
 20
42.39446802530438
 30
0.0
 40
1.2
 41
851.639
 46
0.0
 71
     1
 72
     5
  1
{\fTahoma|b0|i0|c0|p34;SCP 2005 KP 300.98\PGrid Reference 8621708 4518838}
 73
     1
 44
1.0
  0
LWPOLYLINE
  5
211
330
1DD
100
AcDbEntity
  8
TEXT
  6
Continuous
100
AcDbPolyline
 90
        2
 70
   128
 43
0.063
 38
187.1565999999864
 10
71.09064097888768
 20
42.72457375191152
 10
71.09064098075032
 20
38.67517611104995
  0
LWPOLYLINE
  5
212
330
1DD
100
AcDbEntity
  8
TEXT
  6
Continuous
100
AcDbPolyline
 90
        2
 70
   128
 38
187.1565999999864
 10
71.09064098075032
 20
44.50424638204277
 40
0.0
 41
0.6299999999999999
 10
71.09064097888768
 20
42.72457375191152
 40
0.6299999999999999
 41
0.6299999999999999
  0
MTEXT
  5
213
330
1DD
100
AcDbEntity
  8
TEXT
  6
Continuous
100
AcDbMText
 10
70.80285483971238
 20
38.35984737053514
 30
-621.6665900000133
 40
0.7349999999999999
 41
0.6957559614628543
 46
0.0
 71
     1
 72
     5
  1
{\fTahoma|b0|i0|c0|p34;N}
 11
1.0
 21
1.253522841082599E-10
 31
0.0
 73
     1
 44
1.0
  0
SPLINE
  5
214
330
1DD
100
AcDbEntity
  8
Features
  6
Continuous
100
AcDbSpline
 70
  1059
 71
     3
 72
    13
 73
     9
 74
     7
 42
0.000000001
 43
0.0000000001
 44
0.0000000001
 12
-0.1409473263654996
 22
0.9859847817127277
 32
0.0892628781819286
 13
-0.1409473263654996
 23
0.9859847817127277
 33
0.0892628781819286
 40
0.0
 40
0.0
 40
0.0
 40
0.0
 40
0.4400784029872016
 40
0.7510269527655891
 40
1.124289592083603
 40
1.451038731850655
 40
1.761432032820609
 40
2.127186046094764
 40
2.127186046094764
 40
2.127186046094764
 40
2.127186046094764
 10
32.34092860110104
 20
22.35460317693651
 30
207.336
 10
32.32025264300363
 20
22.49924004630511
 30
207.3490942216254
 10
32.40765328126535
 20
22.82286750974515
 30
207.3659421292525
 10
32.85913742173106
 20
22.81585312390606
 30
207.3439072089693
 10
33.07126934018
 20
22.48961532192248
 30
207.3589439909756
 10
32.95660764193904
 20
22.10414192108485
 30
207.3808978843349
 10
32.57859538533275
 20
22.05661584811781
 30
207.3113979552249
 10
32.35811261786052
 20
22.23439387995695
 30
207.3251172480228
 10
32.34092860110104
 20
22.35460317693651
 30
207.336
 11
32.34092860110104
 21
22.35460317693651
 31
207.336
 11
32.49622538872063
 21
22.76578185893595
 31
207.358
 11
32.80701802112162
 21
22.77152121905237
 31
207.35
 11
33.01667961291969
 21
22.46290168818086
 31
207.361
 11
32.91060738824308
 21
22.15388925559819
 31
207.366
 11
32.60670524276793
 21
22.10345625784248
 31
207.328
 11
32.34092860110104
 21
22.35460317693651
 31
207.336
  0
SPLINE
  5
215
330
1DD
100
AcDbEntity
  8
Features
  6
Continuous
100
AcDbSpline
 70
  1059
 71
     3
 72
    14
 73
    10
 74
     8
 42
0.000000001
 43
0.0000000001
 44
0.0000000001
 40
0.0
 40
0.0
 40
0.0
 40
0.0
 40
0.2341217636464304
 40
0.5683222999911903
 40
0.8704563790930477
 40
1.248321433773854
 40
1.563307149818996
 40
1.887789817363549
 40
2.277252266400663
 40
2.277252266400663
 40
2.277252266400663
 40
2.277252266400663
 10
33.17477032542229
 20
22.29852307680994
 30
207.425
 10
33.18437597295478
 20
22.37863680075175
 30
207.4191210493221
 10
33.20769334257282
 20
22.57311003187018
 30
207.4048501044992
 10
33.50777484088893
 20
22.74631100359347
 30
207.4428914716606
 10
33.86009138418005
 20
22.62405928351922
 30
207.398849148394
 10
33.98589833980714
 20
22.24693868291231
 30
207.3842670716054
 10
33.75254748245216
 20
21.94178693664964
 30
207.3972713818034
 10
33.34156584235468
 20
21.93376085007164
 30
207.4094292878203
 10
33.23364303260412
 20
22.16977537327026
 30
207.4195041090094
 10
33.17477032542229
 20
22.29852307680994
 30
207.425
 11
33.17477032542229
 21
22.29852307680994
 31
207.425
 11
33.23287938907743
 21
22.5250519644469
 31
207.414
 11
33.51929341442883
 21
22.69660954829305
 31
207.429
 11
33.80412369407713
 21
22.59848863538355
 31
207.406
 11
33.9205226469785
 21
22.23940050788224
 31
207.389
 11
33.72834178619087
 21
21.98996410705149
 31
207.397
 11
33.40413285605609
 21
21.98417004477233
 31
207.409
 11
33.17477032542229
 21
22.29852307680994
 31
207.425
  0
SPLINE
  5
216
330
1DD
100
AcDbEntity
  8
Features
  6
Continuous
100
AcDbSpline
 70
  1056
 71
     3
 72
    12
 73
     8
 74
     6
 42
0.000000001
 43
0.0000000001
 44
0.0000000001
 40
0.0
 40
0.0
 40
0.0
 40
0.0
 40
0.3184242449068684
 40
0.6999973060904038
 40
1.240338864137412
 40
1.693841894055938
 40
2.294379153208566
 40
2.294379153208566
 40
2.294379153208566
 40
2.294379153208566
 10
37.29193571768701
 20
21.83947067055851
 30
207.536
 10
37.28489239236033
 20
21.94910133367878
 30
207.5308056180862
 10
37.26940893331646
 20
22.19010424120404
 30
207.5193867220548
 10
37.58414815998231
 20
22.5204581414825
 30
207.5212727593802
 10
38.01145395867811
 20
22.65782064991329
 30
207.4621280409507
 10
38.64914450123188
 20
22.58108990676373
 30
207.5488181281035
 10
38.60567950253972
 20
22.16298977357412
 30
207.5476598987574
 10
38.58091541007161
 20
21.92477809358388
 30
207.547
 11
37.29193571768701
 21
21.83947067055851
 31
207.536
 11
37.31076554954052
 21
22.15707173664123
 31
207.523
 11
37.55284975469112
 21
22.45188055373728
 31
207.514
 11
38.06466303020716
 21
22.62301550153643
 31
207.487
 11
38.5042498037219
 21
22.52015896700323
 31
207.53
 11
38.58091541007161
 21
21.92477809358388
 31
207.547
  0
SPLINE
  5
217
330
1DD
100
AcDbEntity
  8
Features
  6
Continuous
100
AcDbSpline
 70
  1056
 71
     3
 72
    15
 73
    11
 74
     9
 42
0.000000001
 43
0.0000000001
 44
0.0000000001
 40
0.0
 40
0.0
 40
0.0
 40
0.0
 40
1.165061598860925
 40
2.28922039024601
 40
2.999941862219686
 40
3.334570010536161
 40
3.797191884360667
 40
5.012504191979747
 40
5.606043576258097
 40
6.294632709919491
 40
6.294632709919491
 40
6.294632709919491
 40
6.294632709919491
 10
34.63598963618279
 20
22.36888016108423
 30
207.195
 10
34.96737383221069
 20
22.57041701258623
 30
207.1827977370831
 10
35.61850803772742
 20
22.96641519010355
 30
207.1588216064615
 10
36.41640810704408
 20
23.58643207788041
 30
207.1922526693672
 10
37.14547001260573
 20
23.76307555368216
 30
207.0877195948914
 10
37.57389301790477
 20
23.95681129279236
 30
207.3159045089294
 10
38.08516910328679
 20
24.41718032416897
 30
207.2401978804802
 10
38.58164827023118
 20
25.02084420782423
 30
207.2346793045158
 10
39.41623308697849
 20
25.23954364953238
 30
207.2831505172642
 10
39.7146097070849
 20
25.55779522927988
 30
207.2739443371129
 10
39.87485799379647
 20
25.72871770430356
 30
207.269
 11
34.63598963618279
 21
22.36888016108423
 31
207.195
 11
35.61919474601746
 21
22.99346828553826
 31
207.1712110124979
 11
36.57463512197137
 21
23.58561294805259
 31
207.156
 11
37.24675606377423
 21
23.81643419992179
 31
207.166
 11
37.53330684266984
 21
23.95445104222745
 31
207.27
 11
37.88942955993116
 21
24.24972482770681
 31
207.273
 11
38.81194483116269
 21
25.04058864619583
 31
207.251
 11
39.35659271664917
 21
25.27536232769489
 31
207.274
 11
39.87485799379647
 21
25.72871770430356
 31
207.269
  0
SPLINE
  5
218
330
1DD
100
AcDbEntity
  8
Features
  6
Continuous
100
AcDbSpline
 70
  1056
 71
     3
 72
    18
 73
    14
 74
    12
 42
0.000000001
 43
0.0000000001
 44
0.0000000001
 40
0.0
 40
0.0
 40
0.0
 40
0.0
 40
0.6922138408321734
 40
1.392368822016329
 40
2.161728944181824
 40
2.995360161115355
 40
3.72547590314746
 40
4.278086072303081
 40
4.786036858004039
 40
5.828002788673713
 40
6.290311127403166
 40
6.920641594558662
 40
7.948167417046434
 40
7.948167417046434
 40
7.948167417046434
 40
7.948167417046434
 10
42.05533349514008
 20
25.87669268809259
 30
207.259
 10
42.03128875217563
 20
25.61737988288123
 30
207.2538487868079
 10
41.98292342276114
 20
25.09577941229279
 30
207.2434872652357
 10
41.16439273712854
 20
24.99326195626449
 30
207.2365317158555
 10
40.42169235266822
 20
24.66896307238926
 30
207.2515291717126
 10
40.24355432350952
 20
23.83586382849721
 30
207.2281122093653
 10
39.71639067992256
 20
23.33946798068301
 30
207.2684305052801
 10
39.19348308450805
 20
23.04195454495349
 30
207.2775003786514
 10
38.52440199534503
 20
22.8426052414821
 30
207.2536364860383
 10
37.83274949585777
 20
22.70302414246243
 30
207.5003808441936
 10
37.20812971177006
 20
22.63353615096166
 30
207.0568656677514
 10
36.56067144273572
 20
22.26816009902311
 30
207.2040728926957
 10
36.08444465827847
 20
22.00386200736409
 30
207.2003237117853
 10
35.78928317688406
 20
21.84005220327526
 30
207.198
 11
42.05533349514008
 21
25.87669268809259
 31
207.259
 11
41.86484839580953
 21
25.21135110035539
 31
207.245
 11
41.2093362249434
 21
24.96539217792451
 31
207.24
 11
40.53329932875931
 21
24.59815368242562
 31
207.245
 11
40.15888467431068
 21
23.85335191525519
 31
207.24
 11
39.65433655306697
 21
23.32626160979271
 31
207.266
 11
39.17289477959275
 21
23.05507381912321
 31
207.273
 11
38.69009544327855
 21
22.89747368730605
 31
207.282
 11
37.67039396986365
 21
22.68938499037176
 31
207.333
 11
37.25479876063764
 21
22.6116635510698
 31
207.146
 11
36.68631156347692
 21
22.33970478922129
 31
207.1593130140328
 11
35.78928317688406
 21
21.84005220327526
 31
207.198
  0
SPLINE
  5
219
330
1DD
100
AcDbEntity
  8
Features
  6
Continuous
100
AcDbSpline
 70
  1059
 71
     3
 72
    17
 73
    13
 74
    11
 42
0.000000001
 43
0.0000000001
 44
0.0000000001
 12
-0.04210662273835498
 22
0.9874711557697458
 32
-0.152078101133373
 13
-0.04210662273835498
 23
0.9874711557697458
 33
-0.152078101133373
 40
0.0
 40
0.0
 40
0.0
 40
0.0
 40
0.2066809125252385
 40
0.5282722675997868
 40
1.602976414255971
 40
2.203476207115569
 40
2.460390588687488
 40
2.734260993870206
 40
3.027774194695861
 40
3.48882191676712
 40
4.29983424605478
 40
4.652210465073423
 40
4.652210465073423
 40
4.652210465073423
 40
4.652210465073423
 10
43.0796242877841
 20
24.08171375282109
 30
207.591
 10
43.07672340938046
 20
24.1497442326767
 30
207.5805227864276
 10
43.15645125184055
 20
24.33529718095656
 30
207.5704477120532
 10
43.74631000449249
 20
24.4632874353217
 30
207.6263221560498
 10
44.24281895752003
 20
23.91998367871262
 30
207.5861703503185
 10
44.86268462072609
 20
23.63149123942716
 30
207.6772504136679
 10
44.93685443576388
 20
23.2060002140785
 30
207.6164007280225
 10
44.65706649823564
 20
23.01556176143704
 30
207.5965047399156
 10
44.31175525557732
 20
23.1616069313644
 30
207.6574226101565
 10
44.0225064750243
 20
23.63232931790046
 30
207.6061925461106
 10
43.502892405459
 20
23.72996490968945
 30
207.6050990546264
 10
43.08457007862282
 20
23.96572663540105
 30
207.608862902091
 10
43.0796242877841
 20
24.08171375282109
 30
207.591
 11
43.0796242877841
 21
24.08171375282109
 31
207.591
 11
43.15666021592915
 21
24.27298964094371
 31
207.577
 11
43.46034355089068
 21
24.37708782404661
 31
207.596
 11
44.41048893332481
 21
23.87560626398772
 31
207.623
 11
44.86556069366634
 21
23.48480491526425
 31
207.651
 11
44.88538101688027
 21
23.23041907791048
 31
207.621
 11
44.66421769559383
 21
23.06941353715956
 31
207.608
 11
44.38524855673313
 21
23.15593069512397
 31
207.637
 11
44.06458591669798
 21
23.48690572939813
 31
207.623
 11
43.33374247513711
 21
23.83812199067324
 31
207.607
 11
43.0796242877841
 21
24.08171375282109
 31
207.591
  0
SPLINE
  5
21A
330
1DD
100
AcDbEntity
  8
Features
  6
Continuous
100
AcDbSpline
 70
  1059
 71
     3
 72
    11
 73
     7
 74
     5
 42
0.000000001
 43
0.0000000001
 44
0.0000000001
 12
-0.692023255890979
 22
0.6656067589952149
 32
0.2794126977893715
 13
-0.692023255890979
 23
0.6656067589952149
 33
0.2794126977893715
 40
0.0
 40
0.0
 40
0.0
 40
0.0
 40
0.1398785173937256
 40
0.3334476222428635
 40
0.5407035057877765
 40
0.8146451051935799
 40
0.8146451051935799
 40
0.8146451051935799
 40
0.8146451051935799
 10
45.69208516739309
 20
23.13934537768364
 30
207.542
 10
45.65981877171442
 20
23.17038007322214
 30
207.555027944636
 10
45.66427387352572
 20
23.3152121766492
 30
207.5750512186158
 10
45.87973994353118
 20
23.41755259700006
 30
207.5261799339312
 10
46.06350535181069
 20
23.10708075105069
 30
207.5632378205593
 10
45.75527648657469
 20
23.07856625097215
 30
207.5164857462244
 10
45.69208516739309
 20
23.13934537768364
 30
207.542
 11
45.69208516739309
 21
23.13934537768364
 31
207.542
 11
45.68615522049367
 21
23.27751134801656
 31
207.563
 11
45.86249313876033
 21
23.35425727255642
 31
207.541
 11
45.96385384164751
 21
23.1735475352034
 31
207.546
 11
45.69208516739309
 21
23.13934537768364
 31
207.542
  0
SPLINE
  5
21B
330
1DD
100
AcDbEntity
  8
Features
  6
Continuous
100
AcDbSpline
 70
  1059
 71
     3
 72
    15
 73
    11
 74
     9
 42
0.000000001
 43
0.0000000001
 44
0.0000000001
 12
0.6979420665186292
 22
-0.680387844076311
 32
-0.2234932961341234
 13
0.6979420665186292
 23
-0.680387844076311
 33
-0.2234932961341234
 40
0.0
 40
0.0
 40
0.0
 40
0.0
 40
0.226651716736751
 40
0.5453914235909382
 40
0.8601580045370151
 40
1.07425377733402
 40
1.454153765647887
 40
1.696426336813437
 40
1.995193805345255
 40
2.2539774977283
 40
2.2539774977283
 40
2.2539774977283
 40
2.2539774977283
 10
46.9936810284853
 20
25.17591337673366
 30
207.099
 10
47.04641095100504
 20
25.12450968576476
 30
207.082114953584
 10
47.25134982995809
 20
25.09356965931293
 30
207.09106175
 10
47.53678542933726
 20
25.21401088708669
 30
207.164063747943
 10
47.57224414065253
 20
25.49840612045356
 30
207.3237312742737
 10
47.412124813412
 20
25.78879149187334
 30
207.3411720081434
 10
47.19243747632548
 20
25.86245500276742
 30
207.0213806263521
 10
46.88230372903308
 20
25.7075714445306
 30
207.1466114853752
 10
46.83312739573521
 20
25.40612838059669
 30
207.1084444378869
 10
46.93347568680425
 20
25.2346044695812
 30
207.1182788067988
 10
46.9936810284853
 20
25.17591337673366
 30
207.099
 11
46.9936810284853
 21
25.17591337673366
 31
207.099
 11
47.21260917186737
 21
25.11732610221952
 31
207.096
 11
47.49159567803144
 21
25.24592054262757
 31
207.181
 11
47.5356096662581
 21
25.5291885593906
 31
207.311
 11
47.43466335535049
 21
25.71794989611953
 31
207.307
 11
47.13910368643701
 21
25.81513262726367
 31
207.089
 11
46.93119255639613
 21
25.69443067722023
 31
207.119
 11
46.86932664178312
 21
25.40214552730322
 31
207.117
 11
46.9936810284853
 21
25.17591337673366
 31
207.099
  0
SPLINE
  5
21C
330
1DD
100
AcDbEntity
  8
Features
  6
Continuous
100
AcDbSpline
 70
  1056
 71
     3
 72
    17
 73
    13
 74
    11
 42
0.000000001
 43
0.0000000001
 44
0.0000000001
 40
0.0
 40
0.0
 40
0.0
 40
0.0
 40
0.3190783628093233
 40
0.6337623301190103
 40
1.031284656448519
 40
1.648649215497017
 40
2.521524919877453
 40
3.224806517009844
 40
3.877543827296458
 40
4.430114187658762
 40
4.675228445155821
 40
5.114661035047153
 40
5.114661035047153
 40
5.114661035047153
 40
5.114661035047153
 10
48.4274508357048
 20
22.32627670653164
 30
207.659
 10
48.37033529169948
 20
22.41241972028295
 30
207.6321592893659
 10
48.25689080760432
 20
22.58351937316391
 30
207.5788475224264
 10
48.15747234031033
 20
22.94146212552328
 30
207.6302605878598
 10
48.44225580588916
 20
23.31616902962393
 30
207.8004800343609
 10
49.05244169974109
 20
23.53344913554541
 30
207.6865136851576
 10
49.75964193375156
 20
23.69159016565614
 30
207.7776013860512
 10
50.51024824398321
 20
23.75837328038102
 30
207.7011971016507
 10
51.13442041047539
 20
23.56630515953575
 30
207.7955534558557
 10
51.52056766619422
 20
23.27640176588826
 30
207.7913286194176
 10
51.80615846956604
 20
22.95354994709922
 30
207.8154131981377
 10
51.77318219755963
 20
22.7126897811307
 30
207.792627116839
 10
51.75201367028058
 20
22.55807391088456
 30
207.778
 11
48.4274508357048
 21
22.32627670653164
 31
207.659
 11
48.26937336474657
 21
22.59709309227765
 31
207.6
 11
48.2086436022073
 21
22.90363655611873
 31
207.637
 11
48.41214558668435
 21
23.2282516239211
 31
207.743
 11
48.96964038908482
 21
23.49304124619812
 31
207.728
 11
49.82126023434103
 21
23.68345037009567
 31
207.748
 11
50.52372119948268
 21
23.71225310117006
 31
207.73
 11
51.14568524807692
 21
23.52114392165095
 31
207.782
 11
51.58887974917889
 21
23.19156291894615
 31
207.799
 11
51.73681044578552
 21
22.99628489091992
 31
207.807
 11
51.75201367028058
 21
22.55807391088456
 31
207.778
  0
SPLINE
  5
21D
330
1DD
100
AcDbEntity
  8
Features
  6
Continuous
100
AcDbSpline
 70
  1056
 71
     3
 72
    12
 73
     8
 74
     6
 42
0.000000001
 43
0.0000000001
 44
0.0000000001
 40
0.0
 40
0.0
 40
0.0
 40
0.0
 40
0.713150752344782
 40
1.280904221716479
 40
1.877998853635096
 40
2.431368532768632
 40
2.796013564675223
 40
2.796013564675223
 40
2.796013564675223
 40
2.796013564675223
 10
51.33608872815967
 20
26.40021087415516
 30
207.451
 10
51.31106082903838
 20
26.16171706830801
 30
207.4737429572434
 10
51.26610772264434
 20
25.73335360972869
 30
207.5145920341766
 10
51.03162127459994
 20
25.16208716759876
 30
207.4315042824508
 10
50.6276513922318
 20
24.66588147165258
 30
207.4436397527485
 10
50.0813561245162
 20
24.7364187122282
 30
207.4692594930542
 10
49.78347021895004
 20
24.77389592609989
 30
207.4340038927044
 10
49.66514682583511
 20
24.78878226689994
 30
207.42
 11
51.33608872815967
 21
26.40021087415516
 31
207.451
 11
51.22536380216479
 21
25.69673380535096
 31
207.489
 11
51.00477571599185
 21
25.17527345381677
 31
207.447
 11
50.57849344611168
 21
24.75717606581748
 31
207.447
 11
50.02534223347902
 21
24.7432930637151
 31
207.454
 11
49.66514682583511
 21
24.78878226689994
 31
207.42
  0
SPLINE
  5
21E
330
1DD
100
AcDbEntity
  8
Features
  6
Continuous
100
AcDbSpline
 70
  1056
 71
     3
 72
    12
 73
     8
 74
     6
 42
0.000000001
 43
0.0000000001
 44
0.0000000001
 40
0.0
 40
0.0
 40
0.0
 40
0.0
 40
0.4277884944919295
 40
0.79713521764558
 40
1.275239805966424
 40
1.747020476825111
 40
2.359938904106214
 40
2.359938904106214
 40
2.359938904106214
 40
2.359938904106214
 10
49.70233913883567
 20
24.99018170125782
 30
207.381
 10
49.83887517357856
 20
24.95814854206668
 30
207.4050984684852
 10
50.09329454944442
 20
24.89845839225553
 30
207.4500032243826
 10
50.54437112254438
 20
24.94627984452666
 30
207.4590975705819
 10
50.82872072893537
 20
25.32711116933519
 30
207.4330856274259
 10
51.02669509644267
 20
25.80327304484963
 30
207.4220075393803
 10
51.10876669724255
 20
26.15707095061254
 30
207.4354207509907
 10
51.15514195151627
 20
26.35698745865375
 30
207.443
 11
49.70233913883567
 21
24.99018170125782
 31
207.381
 11
50.11987951770425
 21
24.919882141985
 31
207.442
 11
50.48365855589509
 21
24.98263414017856
 31
207.454
 11
50.80869951471686
 21
25.33278892375529
 31
207.436
 11
50.99834758788347
 21
25.76467966195196
 31
207.427
 11
51.15514195151627
 21
26.35698745865375
 31
207.443
  0
SPLINE
  5
21F
330
1DD
100
AcDbEntity
  8
Features
  6
Continuous
100
AcDbSpline
 70
  1059
 71
     3
 72
    13
 73
     9
 74
     7
 42
0.000000001
 43
0.0000000001
 44
0.0000000001
 40
0.0
 40
0.0
 40
0.0
 40
0.0
 40
0.1874139793524156
 40
0.4323731584040134
 40
0.6917107781598492
 40
0.9594195743611494
 40
1.154831956204254
 40
1.361251433796821
 40
1.361251433796821
 40
1.361251433796821
 40
1.361251433796821
 10
49.39517072588205
 20
25.19241317082196
 30
207.163
 10
49.37846327872847
 20
25.2513582338973
 30
207.1735655689885
 10
49.33991838618835
 20
25.38734735905365
 30
207.1979408501159
 10
49.47019833306219
 20
25.65949569900067
 30
207.2054593639386
 10
49.79467255638562
 20
25.51389592578407
 30
207.1859317275937
 10
49.78653644996505
 20
25.22756503627819
 30
207.2177985148295
 10
49.57668381542787
 20
25.06011993534921
 30
207.1868132245113
 10
49.4567699938809
 20
25.14751741985044
 30
207.1710813852172
 10
49.39517072588205
 20
25.19241317082196
 30
207.163
 11
49.39517072588205
 21
25.19241317082196
 31
207.163
 11
49.36759053915739
 21
25.37565981596708
 31
207.191
 11
49.49509006738663
 21
25.58458293508738
 31
207.201
 11
49.73608283698559
 21
25.4889665869996
 31
207.195
 11
49.73896207101643
 21
25.22154237423092
 31
207.207
 11
49.58156012929976
 21
25.10730740707368
 31
207.188
 11
49.39517072588205
 21
25.19241317082196
 31
207.163
  0
SPLINE
  5
220
330
1DD
100
AcDbEntity
  8
Features
  6
Continuous
100
AcDbSpline
 70
  1059
 71
     3
 72
    12
 73
     8
 74
     6
 42
0.000000001
 43
0.0000000001
 44
0.0000000001
 40
0.0
 40
0.0
 40
0.0
 40
0.0
 40
0.2924123798885874
 40
0.4644908484182649
 40
0.621570447723151
 40
0.7586762481554005
 40
0.9185074052079218
 40
0.9185074052079218
 40
0.9185074052079218
 40
0.9185074052079218
 10
48.97643688693643
 20
25.33605150226504
 30
207.272
 10
48.96191345892399
 20
25.45672267948395
 30
207.2181648679925
 10
48.93884330231158
 20
25.64840627888351
 30
207.1326489053973
 10
49.22349651105552
 20
25.59984184302406
 30
207.2393971903203
 10
49.22624901542036
 20
25.41672451845427
 30
207.1796710083016
 10
49.13311576994734
 20
25.27296006101698
 30
207.2399950531984
 10
49.03126157009693
 20
25.31397470282599
 30
207.2608009090041
 10
48.97643688693643
 20
25.33605150226504
 30
207.272
 11
48.97643688693643
 21
25.33605150226504
 31
207.272
 11
49.0263120085001
 21
25.60771576594561
 31
207.176
 11
49.18969860114157
 21
25.57036846783012
 31
207.215
 11
49.20866692811251
 21
25.41526139806956
 31
207.199
 11
49.12904850207269
 21
25.30894626863301
 31
207.233
 11
48.97643688693643
 21
25.33605150226504
 31
207.272
  0
SPLINE
  5
221
330
1DD
100
AcDbEntity
  8
Features
  6
Continuous
100
AcDbSpline
 70
  1059
 71
     3
 72
    13
 73
     9
 74
     7
 42
0.000000001
 43
0.0000000001
 44
0.0000000001
 40
0.0
 40
0.0
 40
0.0
 40
0.0
 40
0.2793581928548092
 40
0.5121349108011191
 40
0.8211688892103755
 40
1.12090377337753
 40
1.277941986137989
 40
1.518881810207956
 40
1.518881810207956
 40
1.518881810207956
 40
1.518881810207956
 10
48.35993368923664
 20
25.39435940608382
 30
207.322
 10
48.46051431847989
 20
25.38041952108861
 30
207.296463683282
 10
48.64490429845295
 20
25.35486415188448
 30
207.2496490931997
 10
48.78642606705309
 20
25.68502678648359
 30
207.3071988178714
 10
48.60249985908474
 20
25.81272762384454
 30
206.8709250491349
 10
48.3576374790627
 20
25.83375341592363
 30
207.2691024501424
 10
48.28977506677824
 20
25.5684542895563
 30
207.1909516091928
 10
48.33347644459444
 20
25.46001164898126
 30
207.2725808521596
 10
48.35993368923664
 20
25.39435940608382
 30
207.322
 11
48.35993368923664
 21
25.39435940608382
 31
207.322
 11
48.63307316787541
 21
25.42141167260706
 31
207.27
 11
48.73419096507132
 21
25.62933279108256
 31
207.243
 11
48.58459359593689
 21
25.79464046470821
 31
207.029
 11
48.35576983168721
 21
25.75748288538307
 31
207.219
 11
48.31076708622277
 21
25.60703437868506
 31
207.22
 11
48.35993368923664
 21
25.39435940608382
 31
207.322
  0
SPLINE
  5
222
330
1DD
100
AcDbEntity
  8
Features
  6
Continuous
100
AcDbSpline
 70
  1059
 71
     3
 72
    14
 73
    10
 74
     8
 42
0.000000001
 43
0.0000000001
 44
0.0000000001
 40
0.0
 40
0.0
 40
0.0
 40
0.0
 40
0.2622479738770216
 40
0.5169261993430463
 40
0.8000533811028032
 40
1.120521787358246
 40
1.431406011197771
 40
1.590873874901228
 40
1.851029599717905
 40
1.851029599717905
 40
1.851029599717905
 40
1.851029599717905
 10
54.00398197211325
 20
24.25684281159192
 30
207.331
 10
54.07963086130695
 20
24.30776945660201
 30
207.3327955375016
 10
54.22874504586024
 20
24.40815275665641
 30
207.3363347845843
 10
54.26572433226148
 20
24.70108054192955
 30
207.3214473206488
 10
54.05321960470376
 20
24.97714863045893
 30
207.3412248682752
 10
53.69862001695628
 20
24.81424496102569
 30
207.3942176056438
 10
53.64270953390991
 20
24.52572296782215
 30
207.3244696143641
 10
53.76392510478381
 20
24.29314615540191
 30
207.3591741785164
 10
53.91211073229756
 20
24.27073632458483
 30
207.3417824314292
 10
54.00398197211325
 20
24.25684281159192
 30
207.331
 11
54.00398197211325
 21
24.25684281159192
 31
207.331
 11
54.19869973883033
 21
24.43249869998544
 31
207.333
 11
54.22897421009839
 21
24.68529991619289
 31
207.327
 11
54.04385033249855
 21
24.89876221027225
 31
207.345
 11
53.74647899158299
 21
24.78216767776757
 31
207.371
 11
53.68062830157578
 21
24.4800274996087
 31
207.339
 11
53.75856268778443
 21
24.34126067720354
 31
207.349
 11
54.00398197211325
 21
24.25684281159192
 31
207.331
  0
SPLINE
  5
223
330
1DD
100
AcDbEntity
  8
Features
  6
Continuous
100
AcDbSpline
 70
  1056
 71
     3
 72
    16
 73
    12
 74
    10
 42
0.000000001
 43
0.0000000001
 44
0.0000000001
 40
0.0
 40
0.0
 40
0.0
 40
0.0
 40
0.456055920267979
 40
0.8916486169788199
 40
1.329042033103502
 40
1.748776472687158
 40
2.209051391167231
 40
2.649596508872659
 40
3.096602102074105
 40
3.519499253466661
 40
4.008704730314871
 40
4.008704730314871
 40
4.008704730314871
 40
4.008704730314871
 10
54.75005447119474
 20
22.69328250735998
 30
207.565
 10
54.71768131705001
 20
22.84104312635233
 30
207.5560983834882
 10
54.65438759179055
 20
23.12993434717246
 30
207.5386945658885
 10
54.60105458699726
 20
23.57832542725754
 30
207.5224670464991
 10
54.64491085057399
 20
23.98559620962324
 30
207.515669823825
 10
54.34584732847257
 20
24.5072789522614
 30
207.5466533228465
 10
55.1153567858215
 20
24.58060376267503
 30
207.4213816741191
 10
55.00951488999051
 20
24.00808075447157
 30
207.5427677774168
 10
55.14631618237602
 20
23.61396865414847
 30
207.4738954839214
 10
55.15077035555939
 20
23.15213135888901
 30
207.5230035802315
 10
55.17260574883279
 20
22.85112891581038
 30
207.5438298485297
 10
55.18431714363396
 20
22.68968650884926
 30
207.555
 11
54.75005447119474
 21
22.69328250735998
 31
207.565
 11
54.66013254970312
 21
23.13968596886843
 31
207.54
 11
54.61722237057984
 21
23.57286458555609
 31
207.524
 11
54.58726851083338
 21
24.00922655314207
 31
207.522
 11
54.51715693622828
 21
24.42306392081082
 31
207.522
 11
54.97134348005056
 21
24.46874306257814
 31
207.463
 11
55.05002133175731
 21
24.03794636297971
 31
207.511
 11
55.12560700811446
 21
23.59774549305439
 31
207.493
 11
55.15460444800556
 21
23.17658501397818
 31
207.518
 11
55.18431714363396
 21
22.68968650884926
 31
207.555
  0
SPLINE
  5
224
330
1DD
100
AcDbEntity
  8
Features
  6
Continuous
100
AcDbSpline
 70
  1059
 71
     3
 72
    16
 73
    12
 74
    10
 42
0.000000001
 43
0.0000000001
 44
0.0000000001
 40
0.0
 40
0.0
 40
0.0
 40
0.0
 40
0.2853506617325824
 40
0.5978086609990869
 40
0.8517121876578178
 40
1.074508056898475
 40
1.315103153865207
 40
1.563534230122115
 40
1.87807198734072
 40
2.173077071461673
 40
2.485522263982153
 40
2.485522263982153
 40
2.485522263982153
 40
2.485522263982153
 10
56.07279588282108
 20
24.47949502803385
 30
207.474
 10
56.0021759474124
 20
24.40886796820977
 30
207.4737404491378
 10
55.85422742411067
 20
24.26090451928211
 30
207.4731966909685
 10
55.90580654690008
 20
23.94167071909204
 30
207.5023035105727
 10
56.1017873070158
 20
23.74104717357657
 30
207.4683644293365
 10
56.36391323942421
 20
23.73035429514127
 30
207.5063270769353
 10
56.55629024573395
 20
23.87732176903327
 30
207.4882801437276
 10
56.73407665442537
 20
24.11440188978809
 30
207.4850225629988
 10
56.59673602597326
 20
24.39375758370935
 30
207.479270498298
 10
56.36833096144932
 20
24.67645492978381
 30
207.4950184413058
 10
56.17317523855667
 20
24.54639303599681
 30
207.4811389751993
 10
56.07279588282108
 20
24.47949502803385
 30
207.474
 11
56.07279588282108
 21
24.47949502803385
 31
207.474
 11
55.90289346314967
 21
24.25027424376458
 31
207.478
 11
55.94172270596027
 21
23.94051096122712
 31
207.491
 11
56.12534814327955
 21
23.76550324819982
 31
207.48
 11
56.347213473171
 21
23.7543329866603
 31
207.497
 11
56.54837087541819
 21
23.88618783187121
 31
207.491
 11
56.6776464805007
 21
24.09824871364981
 31
207.485
 11
56.57938208431005
 21
24.39703644625843
 31
207.483
 11
56.36211562156677
 21
24.59650394693017
 31
207.489
 11
56.07279588282108
 21
24.47949502803385
 31
207.474
  0
SPLINE
  5
225
330
1DD
100
AcDbEntity
  8
Features
  6
Continuous
100
AcDbSpline
 70
  1059
 71
     3
 72
    13
 73
     9
 74
     7
 42
0.000000001
 43
0.0000000001
 44
0.0000000001
 40
0.0
 40
0.0
 40
0.0
 40
0.0
 40
0.19655788172692
 40
0.3679229864335142
 40
0.5252633832582646
 40
0.7296576075823559
 40
0.9204899946163727
 40
1.083078429278377
 40
1.083078429278377
 40
1.083078429278377
 40
1.083078429278377
 10
58.53085582144558
 20
23.4546563513577
 30
207.502
 10
58.59440624328678
 20
23.50752702091431
 30
207.5039951491624
 10
58.71336184449441
 20
23.60649193886672
 30
207.5077297296928
 10
58.52811589576308
 20
23.73307407406584
 30
207.5281405038697
 10
58.35797376796832
 20
23.81042449190748
 30
207.4970277907439
 10
58.20376164050512
 20
23.60655609531422
 30
207.4504559347412
 10
58.35840503793927
 20
23.41975557370909
 30
207.4598391218222
 10
58.4765186121784
 20
23.44365952768359
 30
207.4887156042213
 10
58.53085582144558
 20
23.4546563513577
 30
207.502
 11
58.53085582144558
 21
23.4546563513577
 31
207.502
 11
58.65052256174386
 21
23.61032867431641
 31
207.511
 11
58.52616404928267
 21
23.72788699809462
 31
207.52
 11
58.37573377601802
 21
23.76841764524579
 31
207.498
 11
58.25878129713237
 21
23.60515369754285
 31
207.46
 11
58.37210543453693
 21
23.45177299529314
 31
207.467
 11
58.53085582144558
 21
23.4546563513577
 31
207.502
  0
SPLINE
  5
226
330
1DD
100
AcDbEntity
  8
Features
  6
Continuous
100
AcDbSpline
 70
  1059
 71
     3
 72
    13
 73
     9
 74
     7
 42
0.000000001
 43
0.0000000001
 44
0.0000000001
 40
0.0
 40
0.0
 40
0.0
 40
0.0
 40
0.2895047489240002
 40
0.556974373578989
 40
0.823742064634689
 40
1.116851259493083
 40
1.334536811238751
 40
1.727548264402234
 40
1.727548264402234
 40
1.727548264402234
 40
1.727548264402234
 10
57.73390185646713
 20
25.87085261195898
 30
207.245
 10
57.69162619922744
 20
25.96318569961386
 30
207.2481242509475
 10
57.61029261904878
 20
26.14082411089495
 30
207.254134956198
 10
57.80588363568239
 20
26.4255422775546
 30
207.255509913749
 10
58.124357754385
 20
26.33844216925663
 30
207.2166631033305
 10
58.25014718764586
 20
26.07726559999376
 30
207.2113526063691
 10
58.11942694300843
 20
25.74592066454662
 30
207.2705360090724
 10
57.88485781710885
 20
25.82193433713109
 30
207.2549988636669
 10
57.73390185646713
 20
25.87085261195898
 30
207.245
 11
57.73390185646713
 21
25.87085261195898
 31
207.245
 11
57.66477903909981
 21
26.15187046863139
 31
207.253
 11
57.82580107823014
 21
26.36540244054049
 31
207.249
 11
58.08585247397423
 21
26.31190222967416
 31
207.223
 11
58.21081270650029
 21
26.0467646420002
 31
207.223
 11
58.12620338611305
 21
25.84830239787698
 31
207.252
 11
57.73390185646713
 21
25.87085261195898
 31
207.245
  0
SPLINE
  5
227
330
1DD
100
AcDbEntity
  8
Features
  6
Continuous
100
AcDbSpline
 70
  1059
 71
     3
 72
    12
 73
     8
 74
     6
 42
0.000000001
 43
0.0000000001
 44
0.0000000001
 40
0.0
 40
0.0
 40
0.0
 40
0.0
 40
0.1797053133689863
 40
0.3281977393541066
 40
0.509440669964849
 40
0.6590568469879987
 40
0.9297485510997856
 40
0.9297485510997856
 40
0.9297485510997856
 40
0.9297485510997856
 10
59.6658982411027
 20
25.9762232657522
 30
207.321
 10
59.65919613125365
 20
26.04439615232526
 30
207.3111168563144
 10
59.64695599622297
 20
26.16890102554834
 30
207.2930671651029
 10
59.85566977812415
 20
26.21838469820762
 30
207.3046535337945
 10
59.99023952706042
 20
26.08272290516112
 30
207.2875373250378
 10
59.93454523618806
 20
25.84087737509091
 30
207.3726456140993
 10
59.77113783090389
 20
25.92320295927176
 30
207.3412316174841
 10
59.6658982411027
 20
25.9762232657522
 30
207.321
 11
59.6658982411027
 21
25.9762232657522
 31
207.321
 11
59.68977453932166
 21
26.15297145396471
 31
207.299
 11
59.83362842723727
 21
26.18978258688003
 31
207.3
 11
59.96205376833677
 21
26.06195484474301
 31
207.304
 11
59.92997999116778
 21
25.92139783408493
 31
207.344
 11
59.6658982411027
 21
25.9762232657522
 31
207.321
  0
SPLINE
  5
228
330
1DD
100
AcDbEntity
  8
Features
  6
Continuous
100
AcDbSpline
 70
  1059
 71
     3
 72
    13
 73
     9
 74
     7
 42
0.000000001
 43
0.0000000001
 44
0.0000000001
 40
0.0
 40
0.0
 40
0.0
 40
0.0
 40
0.115762685817233
 40
0.2531781157453467
 40
0.3492666169421737
 40
0.4593438619445885
 40
0.5531255236735665
 40
0.6991974245600322
 40
0.6991974245600322
 40
0.6991974245600322
 40
0.6991974245600322
 10
59.74010052159429
 20
26.42374312225729
 30
207.212
 10
59.69786416564972
 20
26.44154739266587
 30
207.2082749461526
 10
59.60549138647218
 20
26.4804861197906
 30
207.2001280885751
 10
59.69265387098111
 20
26.62186946027892
 30
207.2032420911329
 10
59.80178379303682
 20
26.65128672793664
 30
207.2079600244455
 10
59.9211756595254
 20
26.59739575963989
 30
207.2270282515903
 10
59.86341181191221
 20
26.46252930207292
 30
207.2430087875293
 10
59.78677356154883
 20
26.43842360216754
 30
207.2237367548062
 10
59.74010052159429
 20
26.42374312225729
 30
207.212
 11
59.74010052159429
 21
26.42374312225729
 31
207.212
 11
59.6459129396826
 21
26.49044168926775
 31
207.203
 11
59.70847174525261
 21
26.61278708651662
 31
207.204
 11
59.80094208009541
 21
26.63820828311145
 31
207.21
 11
59.89419148117304
 21
26.58223910350353
 31
207.227
 11
59.86638011597097
 21
26.49312946293503
 31
207.236
 11
59.74010052159429
 21
26.42374312225729
 31
207.212
  0
LWPOLYLINE
  5
229
330
1DD
100
AcDbEntity
  8
TEXT
  6
Continuous
 62
     8
100
AcDbPolyline
 90
        4
 70
     1
 43
0.0
 10
24.79301467724144
 20
48.81698306184262
 10
74.2949973270297
 20
48.81698306184262
 10
74.2949973270297
 20
6.292711869813502
 10
24.79301467724144
 20
6.292711869813502
  0
LWPOLYLINE
  5
22A
330
1DD
100
AcDbEntity
  8
Skeleton
  6
Continuous
100
AcDbPolyline
 90
       85
 70
     0
 43
0.0
 10
17.92378233000636
 20
22.8534140130505
 10
17.91790412552655
 20
22.85427765268832
 10
17.92378233000636
 20
22.8534140130505
 10
17.99511250294745
 20
22.83840877562761
 10
18.02514626272023
 20
22.85528966877609
 10
18.0420402456075
 20
22.87217056751251
 10
18.055180022493
 20
22.86279229354113
 10
18.05330291204154
 20
22.82527919299901
 10
18.04579446837306
 20
22.81027395557612
 10
18.0439173579216
 20
22.79902002029121
 10
18.04954869113863
 20
22.7858904376626
 10
18.055180022493
 20
22.75587995629758
 10
18.055180022493
 20
22.72962079010904
 10
18.04954869113863
 20
22.68835637997836
 10
18.0420402456075
 20
22.67710245214403
 10
18.03265470638871
 20
22.6789781069383
 10
18.02514626272023
 20
22.7108642430976
 10
18.0195149295032
 20
22.74462602753192
 10
18.01388359628618
 20
22.77463650982827
 10
18.01012937538326
 20
22.80089567508548
 10
18.00449805706739
 20
22.80277132987976
 10
17.98760405741632
 20
22.81777657475322
 10
17.87685457244515
 20
22.83653312083334
 10
17.73231711797416
 20
22.86841925792396
 10
17.67975802719593
 20
22.90218104142696
 10
17.67975802719593
 20
22.94344545248896
 10
17.70416046865284
 20
22.96782897040248
 10
17.79848215915263
 20
23.06536626536399
 10
17.79848215915263
 20
23.06536626536399
 10
17.79848215915263
 20
23.06536626536399
 10
17.79848215915263
 20
23.06536626536399
 10
17.7548424359411
 20
23.04285516496748
 10
17.64033872820437
 20
22.94344545248896
 10
17.61781341023743
 20
22.90218104142696
 10
17.63846161589026
 20
22.87592187616974
 10
17.70603758096695
 20
22.83653312083334
 10
17.81866416335106
 20
22.77463650982827
 10
17.87685457244515
 20
22.75775561016053
 10
17.91439677588642
 20
22.75400430057198
 10
17.93879920430481
 20
22.75963127240539
 10
17.93504498153925
 20
22.69210768956691
 10
17.92565944232047
 20
22.62833542283624
 10
17.90876544453204
 20
22.60395190585405
 10
17.88248590566218
 20
22.605827559717
 10
17.88999434933066
 20
22.6320867324248
 10
17.87873168289661
 20
22.68272941652685
 10
17.87685457244515
 20
22.69773465301841
 10
17.85808347724378
 20
22.71649120748043
 10
17.828049717471
 20
22.74087471794337
 10
17.64221583865583
 20
22.80839830171317
 10
17.57276276312768
 20
22.86091663967818
 10
17.58027120679617
 20
22.91718628723174
 10
17.63470739498734
 20
22.97533158864826
 10
17.75108821317554
 20
23.06911433767527
 10
17.82241838425398
 20
23.12350832950324
 10
17.7886304166168
 20
23.19665886927396
 10
17.77549064159393
 20
23.23604762461036
 10
17.80364728905261
 20
23.26793376170099
 10
17.83368105068803
 20
23.28106334526092
 10
17.87310034967959
 20
23.27731203567237
 10
17.87685457244515
 20
23.2941929269582
 10
17.87122325412929
 20
23.35233823675662
 10
17.8524521458894
 20
23.38047305680811
 10
17.828049717471
 20
23.3936026468873
 10
17.80552440136671
 20
23.41611050348729
 10
17.7905075121671
 20
23.43674270436168
 10
17.78675330616534
 20
23.44612098392099
 10
17.78299908526242
 20
23.46300187706947
 10
17.77736775018275
 20
23.48175842408091
 10
17.8862401265651
 20
23.61868123617023
 10
17.93129075877368
 20
23.65244302805513
 10
17.91251966543496
 20
23.68620481994003
 10
17.84118949435651
 20
23.59429772570729
 10
17.77173641882837
 20
23.51739586982876
 10
17.7548424359411
 20
23.51739586982876
 10
17.73607132583857
 20
23.62618385534734
 10
17.72668578661978
 20
23.69745874684304
 10
17.71166889928281
 20
23.76873363275081
 10
17.68278940580785
 20
23.78973225038499
 10
17.66286404244602
 20
23.76873363275081
 10
17.68914358131588
 20
23.70496136602014
 10
17.70603758096695
 20
23.54740635212511
 10
17.71917734108865
 20
23.47050449531525
 10
17.752965323627
 20
23.4667531857267
 10
17.77549064159393
 20
23.4686288414523
  0
LWPOLYLINE
  5
22B
330
1DD
100
AcDbEntity
  8
Skeleton
  6
Continuous
100
AcDbPolyline
 90
        2
 70
     0
 43
0.0
 10
17.7923846244812
 20
23.70173521433026
 10
17.73794843629003
 20
23.67547604162246
  0
LWPOLYLINE
  5
22C
330
1DD
100
AcDbEntity
  8
Skeleton
  6
Continuous
100
AcDbPolyline
 90
       12
 70
     0
 43
0.0
 10
17.68914358131588
 20
23.64921686891466
 10
17.61593629978597
 20
23.61357943061739
 10
17.55399166792631
 20
23.61545508448035
 10
17.56713144481182
 20
23.68860562425107
 10
17.61030496656895
 20
23.76550748106092
 10
17.64033872820437
 20
23.84240932948887
 10
17.6835122499615
 20
23.87241981178522
 10
17.63846161589026
 20
23.78051271755248
 10
17.60842785611749
 20
23.69235693383962
 10
17.600919412449
 20
23.63796294108033
 10
17.63846161589026
 20
23.65671949554235
 10
17.68726647086442
 20
23.67360038775951
  0
LWPOLYLINE
  5
22D
330
1DD
100
AcDbEntity
  8
Skeleton
  6
Continuous
100
AcDbPolyline
 90
        2
 70
     0
 43
0.0
 10
17.73607132583857
 20
23.70736217778176
 10
17.76985930837691
 20
23.71674045175314
  0
LWPOLYLINE
  5
22E
330
1DD
100
AcDbEntity
  8
Skeleton
  6
Continuous
100
AcDbPolyline
 90
       22
 70
     1
 43
0.0
 10
17.77361352927983
 20
23.72799437958747
 10
17.76985930837691
 20
23.75988051667809
 10
17.80552440136671
 20
23.75425355229527
 10
17.82241838425398
 20
23.76363182533532
 10
17.77924486249685
 20
23.7730100993067
 10
17.77361352927983
 20
23.78051271755248
 10
17.77924486249685
 20
23.79176664631814
 10
17.78112197481096
 20
23.80677189026028
 10
17.77549064159393
 20
23.81802581902593
 10
17.77924486249685
 20
23.84428498428315
 10
17.80927862226963
 20
23.89680332969874
 10
17.85996058769524
 20
23.9061816027388
 10
17.92190522141755
 20
23.89492767490447
 10
17.95569318719208
 20
23.85366326477379
 10
17.95944740995765
 20
23.82552843820304
 10
17.94067631475627
 20
23.78989099059254
 10
17.90688833221793
 20
23.78238837327808
 10
17.87497746199369
 20
23.75237789750099
 10
17.86559192091227
 20
23.74299961794168
 10
17.8524521458894
 20
23.72799437958747
 10
17.81490995548666
 20
23.72236741613597
 10
17.78112197481096
 20
23.71861610654742
  0
LWPOLYLINE
  5
22F
330
1DD
100
AcDbEntity
  8
Skeleton
  6
Continuous
100
AcDbPolyline
 90
       23
 70
     0
 43
0.0
 10
17.89187145978212
 20
23.76175617147237
 10
17.89562568254769
 20
23.70923783350736
 10
17.92941364832222
 20
23.71861610654742
 10
17.94255342520773
 20
23.69235693383962
 10
17.93692209199071
 20
23.63796294108033
 10
17.93316787108779
 20
23.57794198393822
 10
17.9463076479733
 20
23.49166185501963
 10
17.95381609164178
 20
23.41288435086608
 10
17.95193898119032
 20
23.35473904106766
 10
17.95193898119032
 20
23.29659373965114
 10
17.99511250294745
 20
23.3003450492397
 10
18.00262094661593
 20
23.24970236513764
 10
17.97821852006018
 20
23.21594058070332
 10
17.98009563051164
 20
23.17842748109251
 10
17.99135828018188
 20
23.15029265265912
 10
17.98760405741632
 20
23.12215783260763
 10
17.96507874317467
 20
23.10655243694782
 10
17.8476666752249
 20
23.04357021395117
 10
17.76711621694267
 20
22.98704697471112
 10
17.72668578661978
 20
22.94524611253291
 10
17.74170265905559
 20
22.91335997637361
 10
17.84118949435651
 20
22.87959819193929
 10
17.91790412552655
 20
22.85427765268832
  0
LINE
  5
230
330
1DD
100
AcDbEntity
  8
Skeleton
  6
Continuous
100
AcDbLine
 10
17.79756645672023
 20
23.06557900179178
 30
0.0
 11
17.84046031348407
 21
23.11059088725597
 31
0.0
  0
MTEXT
  5
231
330
1DD
100
AcDbEntity
  8
TEXT
  6
Continuous
100
AcDbMText
 10
72.40071512386203
 20
2.251059412024915
 30
372.3034892264313
 40
1.0
 41
5.266
 46
0.0
 71
     1
 72
     5
  1
{\fTahoma|b0|i0|c0|p34;50m}
 73
     1
 44
1.0
  0
LINE
  5
232
330
1DD
100
AcDbEntity
  8
TEXT
  6
Continuous
100
AcDbLine
 10
22.71447430737317
 20
0.0000000828877091
 30
372.3034892264313
 11
72.71447430737317
 21
0.0000000828877091
 31
372.3034892264313
  0
LINE
  5
233
330
1DD
100
AcDbEntity
  8
TEXT
  6
Continuous
100
AcDbLine
 10
22.71447430737317
 20
0.0000000828877091
 30
372.3034892264313
 11
22.71447430737317
 21
1.000000082887709
 31
372.3034892264313
  0
LINE
  5
234
330
1DD
100
AcDbEntity
  8
TEXT
  6
Continuous
100
AcDbLine
 10
72.71447430737317
 20
0.0000000828877091
 30
372.3034892264313
 11
72.71447430737317
 21
1.000000082887709
 31
372.3034892264313
  0
LINE
  5
235
330
1DD
100
AcDbEntity
  8
TEXT
  6
Continuous
100
AcDbLine
 10
62.71447430737317
 20
0.0000000828877091
 30
372.3034892264313
 11
62.71447430737317
 21
1.000000082887709
 31
372.3034892264313
  0
LINE
  5
236
330
1DD
100
AcDbEntity
  8
TEXT
  6
Continuous
100
AcDbLine
 10
52.71447430737317
 20
0.0000000828877091
 30
372.3034892264313
 11
52.71447430737317
 21
1.000000082887709
 31
372.3034892264313
  0
LINE
  5
237
330
1DD
100
AcDbEntity
  8
TEXT
  6
Continuous
100
AcDbLine
 10
42.71447430737317
 20
0.0000000828877091
 30
372.3034892264313
 11
42.71447430737317
 21
1.000000082887709
 31
372.3034892264313
  0
LINE
  5
238
330
1DD
100
AcDbEntity
  8
TEXT
  6
Continuous
100
AcDbLine
 10
32.71447430737317
 20
0.0000000828877091
 30
372.3034892264313
 11
32.71447430737317
 21
1.000000082887709
 31
372.3034892264313
  0
MTEXT
  5
239
330
1DD
100
AcDbEntity
  8
TEXT
  6
Continuous
100
AcDbMText
 10
22.40071512386203
 20
2.251059412024915
 30
372.3034892264313
 40
1.0
 41
5.266
 46
0.0
 71
     1
 72
     5
  1
{\fTahoma|b0|i0|c0|p34;0}
 73
     1
 44
1.0
  0
ENDBLK
  5
23D
330
1DD
100
AcDbEntity
  8
0
100
AcDbBlockEnd
  0
ENDSEC
  0
SECTION
  2
ENTITIES
  0
LWPOLYLINE
  5
50A
330
1F
100
AcDbEntity
  8
Skeleton
  6
Continuous
100
AcDbPolyline
 90
       82
 70
     0
 43
0.0
 10
1137.781623825179
 20
924.3520452314347
 10
1137.781970907369
 20
924.3294446215341
 10
1137.775941784913
 20
924.2959879365512
 10
1137.698327043136
 20
924.2880821958622
 10
1137.539989970336
 20
924.2818885697338
 10
1137.474585562405
 20
924.2599846981489
 10
1137.454983414644
 20
924.2812853519133
 10
1137.4778881565
 20
924.3086776845339
 10
1137.550015849535
 20
924.3188370232858
 10
1137.621762478346
 20
924.3233779217126
 10
1137.7315713294
 20
924.3347443898479
 10
1137.732714534641
 20
924.351599648362
 10
1137.660688799253
 20
924.4260974240315
 10
1137.573819242386
 20
924.5034833876557
 10
1137.608773873649
 20
924.5199268145989
 10
1137.639409728718
 20
924.4726948081002
 10
1137.768651360931
 20
924.3548065079499
 10
1137.787745983119
 20
924.3591556910994
 10
1137.804842227676
 20
924.3617589871135
 10
1137.814453055119
 20
924.3648699654236
 10
1137.836054146367
 20
924.3784562648116
 10
1137.86003468451
 20
924.3994068558461
 10
1137.874785476002
 20
924.4228648779012
 10
1137.90412603458
 20
924.4396890933713
 10
1137.962519131532
 20
924.4413728468871
 10
1137.97910728255
 20
924.4364849102074
 10
1137.972697092436
 20
924.3974098168701
 10
1137.983764214537
 20
924.3665564279013
 10
1138.013671919552
 20
924.3363066061602
 10
1138.053859548363
 20
924.3467508497979
 10
1138.129128823136
 20
924.3755113174734
 10
1138.1785712651
 20
924.3006638419936
 10
1138.264263628314
 20
924.1782035719295
 10
1138.318591986359
 20
924.1199575061935
 10
1138.374224560993
 20
924.108658541566
 10
1138.43132236259
 20
924.174398533776
 10
1138.511266431046
 20
924.3552371657083
 10
1138.53762641536
 20
924.383552065241
 10
1138.55761020432
 20
924.4010108890609
 10
1138.57270806871
 20
924.401868301846
 10
1138.623996807277
 20
924.4096781932908
 10
1138.649687697051
 20
924.4004100186999
 10
1138.653337371478
 20
924.4265023953108
 10
1138.630152952622
 20
924.4450076860142
 10
1138.567161978188
 20
924.4586871410559
 10
1138.500047218753
 20
924.4670020369547
 10
1138.504009995399
 20
924.4422747701026
 10
1138.497726827165
 20
924.4050724696388
 10
1138.476946913343
 20
924.3481577644588
 10
1138.407570811408
 20
924.2399778495317
 10
1138.36369951971
 20
924.1752221944289
 10
1138.336103294545
 20
924.1563982598423
 10
1138.29645774389
 20
924.1816642821461
 10
1138.205024292458
 20
924.3026325175622
 10
1138.185517864724
 20
924.3476955219019
 10
1138.185517864724
 20
924.3476955219019
 10
1138.27644889506
 20
924.2469897478406
 10
1138.299125223164
 20
924.2209932242538
 10
1138.340295047978
 20
924.218200887402
 10
1138.377536083503
 20
924.2683548635325
 10
1138.419129890236
 20
924.4104032944463
 10
1138.445337790861
 20
924.5196296758156
 10
1138.4614518471
 20
924.5354695555325
 10
1138.463704270303
 20
924.5409610413601
 10
1138.490157290101
 20
924.5429297155745
 10
1138.520480051187
 20
924.5465173501134
 10
1138.554545515679
 20
924.549851136386
 10
1138.586866654145
 20
924.5551846543433
 10
1138.589373123125
 20
924.5644217556517
 10
1138.578653083341
 20
924.5726745365785
 10
1138.537864328122
 20
924.5810852965888
 10
1138.511665353172
 20
924.5828622379181
 10
1138.481342593142
 20
924.579274605175
 10
1138.467862037339
 20
924.5745446507283
 10
1138.456760921204
 20
924.5771790052208
 10
1138.442298170454
 20
924.5856856330595
 10
1138.404998080298
 20
924.5900969288186
 10
1138.394752142726
 20
924.5776218928445
 10
1138.41045114184
 20
924.5596243144857
 10
1138.425260974906
 20
924.5285170786053
 10
1138.405463264348
 20
924.4583658036449
 10
1138.404203829929
 20
924.4525595151338
  0
LWPOLYLINE
  5
50B
330
1F
100
AcDbEntity
  8
Skeleton
  6
Continuous
100
AcDbPolyline
 90
        2
 70
     0
 43
0.0
 10
1137.550194983773
 20
924.3846746522031
 10
1137.572710302467
 20
924.3285863008257
  0
LWPOLYLINE
  5
50C
330
1F
100
AcDbEntity
  8
Skeleton
  6
Continuous
100
AcDbPolyline
 90
       12
 70
     0
 43
0.0
 10
1137.595606689952
 20
924.2781163745283
 10
1137.626208549253
 20
924.2026653355381
 10
1137.620145440321
 20
924.1409896174337
 10
1137.548051736628
 20
924.1590493265446
 10
1137.474247679367
 20
924.207327786477
 10
1137.39955447113
 20
924.2424966046676
 10
1137.372534304013
 20
924.2876019546554
 10
1137.46118218069
 20
924.2364352901059
 10
1137.547103528077
 20
924.2005049270215
 10
1137.600864747292
 20
924.1893328867789
 10
1137.584691643982
 20
924.2280582803062
 10
1137.5711520401
 20
924.2778935842364
  0
LWPOLYLINE
  5
50D
330
1F
100
AcDbEntity
  8
Skeleton
  6
Continuous
100
AcDbPolyline
 90
        2
 70
     0
 43
0.0
 10
1137.540770232793
 20
924.3288712079484
 10
1137.53369986731
 20
924.3632163636278
  0
LWPOLYLINE
  5
50E
330
1F
100
AcDbEntity
  8
Skeleton
  6
Continuous
100
AcDbPolyline
 90
       22
 70
     1
 43
0.0
 10
1137.522725781497
 20
924.3677235253565
 10
1137.490658688006
 20
924.3661356248019
 10
1137.49868618877
 20
924.4013381931402
 10
1137.490472617841
 20
924.4188280735168
 10
1137.478194315564
 20
924.3763881359955
 10
1137.470327826022
 20
924.3712774083936
 10
1137.459480762294
 20
924.3776573797843
 10
1137.444636936374
 20
924.380545584843
 10
1137.433027735062
 20
924.3756887060742
 10
1137.407082806819
 20
924.3812112628214
 10
1137.356717209623
 20
924.4147300627767
 10
1137.35079005031
 20
924.4659304769068
 10
1137.366209936468
 20
924.5269715749439
 10
1137.409666170834
 20
924.5578897551827
 10
1137.437990552683
 20
924.5597315064294
 10
1137.47227608391
 20
924.5385918745571
 10
1137.477475092115
 20
924.504373643389
 10
1137.505257389303
 20
924.4705051291348
 10
1137.513979058292
 20
924.4605064792788
 10
1137.528060741305
 20
924.4463814281557
 10
1137.531134350124
 20
924.4085445188377
 10
1137.532590649474
 20
924.3745801381724
  0
LWPOLYLINE
  5
50F
330
1F
100
AcDbEntity
  8
Skeleton
  6
Continuous
100
AcDbPolyline
 90
       23
 70
     0
 43
0.0
 10
1137.497043818453
 20
924.4879950244417
 10
1137.549695819831
 20
924.488186758744
 10
1137.542625454143
 20
924.5225318976347
 10
1137.569713596069
 20
924.5338646137643
 10
1137.623601838172
 20
924.5245653812622
 10
1137.68323116955
 20
924.5167581852036
 10
1137.770202687702
 20
924.5240293208183
 10
1137.849307709808
 20
924.5261897292721
 10
1137.907192716088
 20
924.5203822648348
 10
1137.965204736893
 20
924.5164476087052
 10
1137.96438355123
 20
924.5597760169226
 10
1138.015418243895
 20
924.5638402910279
 10
1138.047451342674
 20
924.5372091608867
 10
1138.085005477678
 20
924.5365434806715
 10
1138.113837951931
 20
924.5458764478869
 10
1138.141654235468
 20
924.540226964896
 10
1138.155699586547
 20
924.5166972758102
 10
1138.210592240644
 20
924.3952923721201
 10
1138.261535118301
 20
924.3111016593323
 10
1138.30050426268
 20
924.2679352654445
 10
1138.333333491817
 20
924.2807600013552
 10
1138.373750099352
 20
924.3777341542091
 10
1138.404203829929
 20
924.4525595151338
  0
LWPOLYLINE
  5
510
330
1F
100
AcDbEntity
  8
Features
  6
ACAD_ISO02W100
 62
   250
 48
0.05
100
AcDbPolyline
 90
       40
 70
     1
 43
0.0
 10
1126.665209213711
 20
919.2285952661188
 42
0.0138339690730029
 10
1127.508887247331
 20
918.5919242933946
 42
0.0245494900630223
 10
1128.39732682782
 20
918.0227452488358
 42
0.1138934978287133
 10
1131.656497807812
 20
917.0323109620527
 42
0.0209130027822515
 10
1132.971162040927
 20
917.0170077754135
 42
0.0183685630170529
 10
1134.319719703166
 20
917.0650513310229
 42
0.0410879779040481
 10
1135.105962670144
 20
917.184190862806
 42
0.0694161332159476
 10
1135.828624778571
 20
917.4603984749248
 42
0.0346313734613583
 10
1136.265105805012
 20
917.7485543550512
 42
0.0151200136409231
 10
1136.885134589818
 20
918.2556696807694
 42
0.0060118108386392
 10
1138.101740900837
 20
919.2776937600224
 42
0.0382012861967834
 10
1139.582085017581
 20
920.7531087676246
 42
0.0016253286531518
 10
1140.614590448012
 20
921.9595125428547
 42
0.0076787557943351
 10
1142.419374986136
 20
923.9607187513113
 42
0.0172576636559086
 10
1143.088337492308
 20
924.78857967744
 42
0.0276828425377021
 10
1143.669794709675
 20
925.6569536708108
 42
0.0502277557714317
 10
1144.215434491653
 20
926.8246416639688
 42
0.0561245071742732
 10
1144.596016007902
 20
928.6231348065769
 42
0.015052976804818
 10
1144.680302356175
 20
929.6925472741274
 42
0.0214688845905595
 10
1144.69146803566
 20
930.7611193513255
 42
0.0244035568774699
 10
1144.626370471892
 20
931.5521373959278
 42
0.1078832402122775
 10
1143.849839985822
 20
933.7953634856898
 42
0.1971401442915924
 10
1140.752951763537
 20
936.1458748910172
 42
0.0279050709161385
 10
1139.451863547093
 20
936.4360879020453
 42
0.0070522014496378
 10
1137.331012092302
 20
936.7539607006728
 42
0.0203899189292737
 10
1135.757172674137
 20
936.9086642578155
 42
0.0620025738638893
 10
1133.144526066348
 20
936.7477768112966
 42
0.0259717562965076
 10
1131.604497222732
 20
936.3762595314311
 42
0.031600479380737
 10
1129.134233924782
 20
935.4573059611954
 42
0.0340404420732032
 10
1126.788892403349
 20
934.2471324697833
 42
0.1121982156418139
 10
1122.633345726329
 20
930.2360240880008
 42
0.0431440161047844
 10
1121.405714993514
 20
927.906768520984
 42
0.0303834934712477
 10
1121.130186327458
 20
927.1608326930746
 42
0.0833802680419103
 10
1120.997177050947
 20
926.1270337496536
 42
0.0238787853509692
 10
1121.061398282668
 20
925.3306069131339
 42
0.0262390704060348
 10
1121.139793225025
 20
924.800738904674
 42
0.1500631496345869
 10
1121.633483903699
 20
923.9066535933864
 42
0.0224588767409047
 10
1122.026727223126
 20
923.5358849478132
 42
-0.0239475918776726
 10
1123.18452340409
 20
922.4261939917549
 42
0.0393347412242003
 10
1126.254032907172
 20
919.5593616696067
 42
0.004283423968241
  0
LWPOLYLINE
  5
511
330
1F
100
AcDbEntity
  8
Features
  6
ACAD_ISO02W100
 62
   250
 48
0.2
100
AcDbPolyline
 90
       68
 70
     1
 43
0.0
 10
1134.907906498033
 20
932.5465866943372
 42
-0.0391116082048967
 10
1134.798543721282
 20
932.857901145024
 42
0.0735983436502225
 10
1134.677918990029
 20
933.0865434186501
 42
0.0818588977228791
 10
1134.293485677656
 20
933.442243852712
 42
0.0443767840335719
 10
1134.065853185156
 20
933.5728501450019
 42
0.1870018264241524
 10
1133.480393558917
 20
933.6166055806904
 42
0.0503128411060062
 10
1133.24966066828
 20
933.523689966532
 42
0.0470378043382768
 10
1132.911352207556
 20
933.2993191443317
 42
0.0329142383890827
 10
1132.481339884595
 20
932.8988177524301
 42
0.0348832309177367
 10
1130.941166570452
 20
931.0055523005227
 42
0.0077437249615526
 10
1130.392288352383
 20
930.2034660376574
 42
-0.004216901379127
 10
1129.856670247253
 20
929.4009507018303
 42
-0.0101786765252347
 10
1129.568231759721
 20
928.9995548031902
 42
-0.0642043593135548
 10
1128.238949099145
 20
927.6149905464475
 42
0.0048268465242345
 10
1127.762044800314
 20
927.2262322454613
 42
0.0142024221841524
 10
1127.542093642782
 20
927.0299484632726
 42
0.044870320512603
 10
1127.270263415171
 20
926.7300395371452
 42
0.0506231705519385
 10
1127.145907001207
 20
926.524836066529
 42
0.217001881282949
 10
1127.123483183253
 20
925.9853523386416
 42
0.0327676857014147
 10
1127.232928184229
 20
925.7559038271245
 42
-0.0261727994832707
 10
1127.420692411165
 20
925.3928671638598
 42
-0.0264497749584733
 10
1127.558486853332
 20
925.0110196756466
 42
0.0108815717331754
 10
1127.714343313565
 20
924.5120493081865
 42
0.0294073475556991
 10
1127.810190357119
 20
924.2838058546582
 42
0.0999654331382786
 10
1128.099329070223
 20
923.9042498326785
 42
0.0479367586063473
 10
1128.405661252095
 20
923.6853229723017
 42
0.0254456724767948
 10
1128.764504147426
 20
923.5029765048785
 42
0.012263136778449
 10
1129.550983363192
 20
923.1802249376482
 42
0.0182358010814068
 10
1130.083641114977
 20
922.9961174855869
 42
0.0461406677525026
 10
1130.732686986143
 20
922.8564134051044
 42
0.0445599213961599
 10
1131.102736825353
 20
922.845883970458
 42
0.1044579912621771
 10
1131.668655833538
 20
922.9953125408001
 42
0.0423100622578553
 10
1131.97939584658
 20
923.1918574679136
 42
0.0210884978016134
 10
1132.394584051808
 20
923.5403676424498
 42
0.0117926331838986
 10
1132.83317939462
 20
923.9419034132917
 42
0.0247114645297085
 10
1133.028991185063
 20
924.15320439355
 42
0.045461897935532
 10
1133.179618860437
 20
924.3684705771831
 42
0.0345861500012147
 10
1133.23104821837
 20
924.476877315244
 42
0.1328562069143913
 10
1133.267691400231
 20
924.7478621150866
 42
0.0700587500210761
 10
1133.21735743972
 20
924.909361047365
 42
0.0482466909082228
 10
1133.086138734101
 20
925.1245004236717
 42
0.0108786769687034
 10
1132.829345157108
 20
925.4516616300881
 42
-0.0913351197903907
 10
1132.459871949007
 20
926.1467946948264
 42
-0.0341532204691937
 10
1132.337665739284
 20
926.6490705943306
 42
-0.0253487464837618
 10
1132.286944653866
 20
927.0429494097491
 42
-0.0599068120298363
 10
1132.308654479619
 20
927.6967124123162
 42
-0.1422113132352849
 10
1132.729605594279
 20
928.6094447364857
 42
-0.0988151692987519
 10
1133.483590926996
 20
929.1855655657602
 42
-0.0369057328913782
 10
1133.674676499519
 20
929.264160697797
 42
-0.0640515522017732
 10
1133.8578701775
 20
929.3015154587598
 42
-0.1996089213790437
 10
1134.163244574969
 20
929.2000489521306
 42
-0.0591694956159198
 10
1134.332331867649
 20
929.0195198448232
 42
-0.0156265784983693
 10
1134.584014891873
 20
928.6560383300122
 42
0.038718864134149
 10
1134.886418426664
 20
928.2749309140085
 42
0.0415585407480344
 10
1135.113713786028
 20
928.0664311162388
 42
0.0536483808323922
 10
1135.287305701596
 20
927.9585774558362
 42
0.0886228837541301
 10
1135.456634865644
 20
927.9085411550733
 42
0.1274557526291664
 10
1135.615457639145
 20
927.9309272069411
 42
0.1038470938386212
 10
1135.756977231748
 20
928.0358673267132
 42
0.1369180793948222
 10
1135.957790988066
 20
928.4640570299151
 42
0.1058536853915703
 10
1135.928406522083
 20
928.9139019017288
 42
0.0214468749411919
 10
1135.851718137366
 20
929.1648314065085
 42
-0.0643373209977764
 10
1135.608775072185
 20
930.1649271339205
 42
-0.0072685276521336
 10
1135.531151545659
 20
930.9339042589988
 42
0.0201889853565312
 10
1135.457023511616
 20
931.4624751862647
 42
0.0223283446205385
 10
1135.39567995435
 20
931.7248509726084
 42
0.0566984378854821
 10
1135.250680053973
 20
932.0902808292246
 42
0.0865924223355776
 10
1135.017281806014
 20
932.3923621276538
 42
-0.0894386279775426
  0
LWPOLYLINE
  5
512
330
1F
100
AcDbEntity
  8
Features
100
AcDbPolyline
 90
       45
 70
     1
 43
0.0
 10
1132.552439209554
 20
928.9600383918646
 42
0.0550455169014542
 10
1133.090650342394
 20
928.3712577982794
 42
0.0195006936879207
 10
1133.40204292097
 20
928.1158814893281
 42
0.0145777736551038
 10
1133.731192743859
 20
927.881466363297
 42
0.0098995670750991
 10
1134.07026552756
 20
927.6641822054944
 42
-0.010069175684857
 10
1134.57748442844
 20
927.3475242795295
 42
-0.0310322092705702
 10
1134.975407150359
 20
927.0502169235392
 42
-0.0632048264631397
 10
1135.390678129446
 20
926.5943051716736
 42
-0.0531001833584678
 10
1135.544973599537
 20
926.3190231950559
 42
-0.061249835369433
 10
1135.598463336218
 20
926.1326777251887
 42
-0.1275202602530499
 10
1135.570425023569
 20
925.8687171412242
 42
-0.0525741188215409
 10
1135.487669135513
 20
925.7019768520116
 42
-0.0265972644366667
 10
1135.370665132765
 20
925.5369649313706
 42
-0.0059912770739629
 10
1135.163141867655
 20
925.2819347648108
 42
0.0242547381993193
 10
1134.960081725302
 20
925.0057247708202
 42
-0.0307151486735309
 10
1134.863914617694
 20
924.8784888889137
 42
-0.0504788329497175
 10
1134.79697642105
 20
924.8145905525427
 42
-0.1982620143391189
 10
1134.64632905395
 20
924.769566430898
 42
-0.063150140588047
 10
1134.561862072699
 20
924.7886893545179
 42
-0.0378862963417322
 10
1134.472620237221
 20
924.8286814064643
 42
-0.0291505714140386
 10
1134.332153106054
 20
924.9157972049678
 42
-0.003226197018925
 10
1134.138171762595
 20
925.0537854666624
 42
0.0519839207423376
 10
1133.562081587595
 20
925.3752615817177
 42
0.0186652450409512
 10
1132.751192079652
 20
925.6875959801704
 42
-0.0494978461817221
 10
1132.256556294313
 20
925.9504537348021
 42
-0.0048669579356921
 10
1131.744400658243
 20
926.2981891788464
 42
-0.0140262802932015
 10
1131.464447939421
 20
926.4886214045937
 42
-0.0465453372298755
 10
1131.263917150164
 20
926.6609392276766
 42
-0.0510757788234509
 10
1131.177087755797
 20
926.7732749183267
 42
-0.0774141756068725
 10
1131.126684998547
 20
926.8940871235592
 42
-0.0877009393018239
 10
1131.120357608627
 20
927.0245718770545
 42
-0.0362437434084916
 10
1131.137744608679
 20
927.1164873967444
 42
-0.0222481529623275
 10
1131.167447092111
 20
927.2115694270387
 42
-0.0131079565552653
 10
1131.246636159535
 20
927.4085594126861
 42
0.0214030012364852
 10
1131.3236890844
 20
927.6101929549266
 42
0.0153994403862291
 10
1131.380377759081
 20
927.8108215133936
 42
-0.0108148793310618
 10
1131.432879799678
 20
928.0041524754308
 42
-0.040318307707635
 10
1131.501831745413
 20
928.18380975771
 42
-0.0704539114536168
 10
1131.637818309915
 20
928.3815372790542
 42
-0.0184407652370312
 10
1131.741527140474
 20
928.4898278751118
 42
0.0170577261299319
 10
1131.958434698697
 20
928.706127529635
 42
-0.0128247361255483
 10
1132.094530790954
 20
928.8550829533363
 42
-0.0571364992219786
 10
1132.210883878761
 20
928.9481957915036
 42
-0.1249481596381217
 10
1132.414852099465
 20
929.011660359815
 42
-0.0864052858876653
 10
1132.493648439138
 20
929.001783383846
 42
-0.1475921339414639
  0
LWPOLYLINE
  5
513
330
1F
100
AcDbEntity
  8
Features
100
AcDbPolyline
 90
       61
 70
     0
 43
0.0
 10
1137.773502458022
 20
925.098851210097
 42
0.1139451090102754
 10
1137.861955902389
 20
925.1060427879225
 42
0.1299192786378726
 10
1137.908835350119
 20
925.1339610908599
 42
0.0832258574331582
 10
1137.922478196017
 20
925.1549759205947
 42
0.0600375998526474
 10
1137.929835026139
 20
925.1799220713808
 42
0.0367910580103578
 10
1137.932491754686
 20
925.2078329690803
 42
-0.0333830056581051
 10
1137.92828129553
 20
925.3595002771127
 42
-0.0240658946856837
 10
1137.936666536118
 20
925.4443209892117
 42
0.0059143393691855
 10
1137.957841924145
 20
925.578898951818
 42
0.015098342920893
 10
1137.963748414154
 20
925.6325485508131
 42
0.0849795842261985
 10
1137.93897754117
 20
925.8816455027536
 42
0.072299529715494
 10
1137.849028895014
 20
926.0910977403064
 42
0.0804985936085699
 10
1137.768704395827
 20
926.1882056741143
 42
0.0674460761745137
 10
1137.708502973122
 20
926.2266805725924
 42
0.0046000756277653
 10
1137.653251235449
 20
926.2493803339656
 42
-0.0378834178639024
 10
1137.628158505345
 20
926.2623925754825
 42
-0.297765355962598
 10
1137.591764582555
 20
926.3313186069915
 42
-0.0354759831353234
 10
1137.596906339453
 20
926.362112819048
 42
0.0297347584002968
 10
1137.600548040687
 20
926.3819091459369
 42
0.0804560352260438
 10
1137.600319376517
 20
926.3916241059361
 42
0.3337572562332351
 10
1137.590536444807
 20
926.4006213300225
 42
0.0773840366894605
 10
1137.581590537707
 20
926.4004984740327
 42
0.0576359782264089
 10
1137.564144251417
 20
926.395520192964
 42
0.0320053784222894
 10
1137.535307176879
 20
926.3817683211693
 42
0.0226915192921919
 10
1137.486116871463
 20
926.3515744962787
 42
0.0134204484287978
 10
1137.424925390865
 20
926.3080940431871
 42
-0.0219407046584984
 10
1137.36898084692
 20
926.267315718751
 42
-0.08308357605147
 10
1137.300558194607
 20
926.2366919349994
 42
-0.0306767570576373
 10
1137.251707284164
 20
926.2269061036909
 42
0.0057075785576315
 10
1137.191312542643
 20
926.2188405795958
 42
0.0371932456776393
 10
1137.166805253225
 20
926.213594676208
 42
0.0761578146666097
 10
1137.156470308209
 20
926.2089860528016
 42
0.4808920480133033
 10
1137.154224573824
 20
926.1996836114215
 42
0.0710902728783847
 10
1137.163018718197
 20
926.1915032325343
 42
-0.0817304273898721
 10
1137.17973272065
 20
926.1761041161175
 42
-0.1895979383929624
 10
1137.183053859314
 20
926.1638123029393
 42
-0.0872053991271894
 10
1137.176181418062
 20
926.1433044070203
 42
0.1428551291001039
 10
1137.170727464513
 20
926.108290245681
 42
0.0417892356158165
 10
1137.174948036583
 20
926.0875996634085
 42
-0.0331250066462941
 10
1137.185667547792
 20
926.0464845701299
 42
-0.0710038403223279
 10
1137.187734587907
 20
925.9779578904895
 42
-0.0201877103121626
 10
1137.183784719158
 20
925.9505326407702
 42
-0.0267795952659618
 10
1137.170270577273
 20
925.8956659560887
 42
-0.0102632811528726
 10
1137.152390803014
 20
925.8407883642697
 42
0.0154662153590662
 10
1137.125576211306
 20
925.7584795427744
 42
0.051478660595102
 10
1137.110000567729
 20
925.6762182242317
 42
0.0835227187512423
 10
1137.119768158837
 20
925.5807280765318
 42
0.043093841673896
 10
1137.143842003643
 20
925.5142541026113
 42
0.0375519225962984
 10
1137.185912210874
 20
925.4384345426772
 42
0.0570275012175983
 10
1137.313084066634
 20
925.2862620392797
 42
0.0221305851708793
 10
1137.395296936905
 20
925.213870366562
 42
-0.0051640574293003
 10
1137.458774602484
 20
925.1628957404112
 42
-0.0281410418772162
 10
1137.523304337628
 20
925.1032584503666
 42
0.023397480281419
 10
1137.556259933517
 20
925.0714168199659
 42
0.0585660344489575
 10
1137.584674529005
 20
925.0516499648933
 42
0.1789867599728841
 10
1137.6267568044
 20
925.0455866209528
 42
0.0556633104070482
 10
1137.652139722919
 20
925.0542630108625
 42
0.0220109377227759
 10
1137.691627369911
 20
925.0750443252316
 42
-0.0209987226579343
 10
1137.718636805205
 20
925.0886889505981
 42
-0.0696401195015255
 10
1137.752857686874
 20
925.0990152043156
 42
-0.0454465545994413
 10
1137.766617960181
 20
925.0995705388043
  0
LWPOLYLINE
  5
514
330
1F
100
AcDbEntity
  8
Features
100
AcDbPolyline
 90
       51
 70
     1
 43
0.0
 10
1137.369887527525
 20
923.9371563411694
 42
0.0481146522785917
 10
1137.437187489836
 20
923.9338617640234
 42
0.0257450409784652
 10
1137.505603329028
 20
923.9406241872658
 42
0.002601565689025
 10
1137.609160521351
 20
923.9571174294367
 42
-0.0176504367745655
 10
1137.660875001684
 20
923.9629960205167
 42
-0.0228489370517853
 10
1137.746484613766
 20
923.9647962318699
 42
0.0037261891670953
 10
1137.848634086124
 20
923.9621798986974
 42
0.0068633369298534
 10
1138.019117881722
 20
923.9628601151251
 42
-0.0118770022644598
 10
1138.157158642155
 20
923.9604027386135
 42
0.0078413193724087
 10
1138.363413280937
 20
923.9526853885544
 42
0.0097092481818496
 10
1138.430056769392
 20
923.9529367210735
 42
-0.0036376104516248
 10
1138.528357841189
 20
923.9569169454367
 42
-0.0298703397252152
 10
1138.599019203097
 20
923.9546517950258
 42
0.0067582215393522
 10
1138.65700654103
 20
923.947909279193
 42
0.0444290122237067
 10
1138.684245165627
 20
923.947648024813
 42
0.0540237687865307
 10
1138.700266382915
 20
923.9506920690806
 42
0.1334345540303934
 10
1138.719462820289
 20
923.9623471546436
 42
0.0761134462584072
 10
1138.728294763061
 20
923.9757227018084
 42
0.0438439174539767
 10
1138.73432000931
 20
923.9922564032167
 42
0.0593512161132894
 10
1138.741574918672
 20
924.0450977170372
 42
0.0208317718592972
 10
1138.74103059782
 20
924.0791452038835
 42
-0.0194401366741564
 10
1138.736032150991
 20
924.1801324027246
 42
-0.01005376116738
 10
1138.739147734218
 20
924.3530751074285
 42
0.0146298483908965
 10
1138.737923792083
 20
924.4230905350776
 42
0.0181640318190036
 10
1138.733570605332
 20
924.4749721591475
 42
0.0546359011475365
 10
1138.711009136395
 20
924.5750127092991
 42
0.1505254111359276
 10
1138.600459341721
 20
924.7285232159213
 42
0.0829006980773559
 10
1138.540757501855
 20
924.7587599767293
 42
0.0528962005872202
 10
1138.491948863686
 20
924.7678178014705
 42
0.0337332973108166
 10
1138.440751484332
 20
924.7681259235915
 42
0.0201357993565981
 10
1138.370367174665
 20
924.7605600799787
 42
-0.0314917243871541
 10
1138.126806146739
 20
924.7384391242517
 42
-0.00541921458009
 10
1137.92611519904
 20
924.7346138273023
 42
-0.0016584181024152
 10
1137.661607252237
 20
924.7300433945702
 42
-0.0106823113761189
 10
1137.383777430217
 20
924.7323461756386
 42
0.0012046630740425
 10
1137.291345562758
 20
924.7358901097643
 42
0.029257581174562
 10
1137.273404068028
 20
924.7352344796325
 42
0.057723104405822
 10
1137.257062672719
 20
924.7317944946345
 42
0.1362046443347193
 10
1137.237404928609
 20
924.7184338077016
 42
0.0743765241055737
 10
1137.22407504059
 20
924.6960385298188
 42
0.0818115805721523
 10
1137.209251704522
 20
924.6272536953347
 42
0.0192635194390548
 10
1137.208512293701
 20
924.5932430079571
 42
-0.0153590064563716
 10
1137.209274738901
 20
924.4929577298566
 42
-0.0051735058982668
 10
1137.205594423931
 20
924.3937186301995
 42
0.0068284496942962
 10
1137.203691370637
 20
924.326815013562
 42
0.0239358872979708
 10
1137.206748552909
 20
924.2233341574362
 42
0.035156961031125
 10
1137.223012555802
 20
924.1137445567997
 42
0.0303673850331666
 10
1137.2386724287
 20
924.0582014938009
 42
0.0502539263256573
 10
1137.261611033236
 20
924.0079146724619
 42
0.048758578911077
 10
1137.281872745309
 20
923.9799339632019
 42
0.1436116348299873
 10
1137.336821548146
 20
923.9443617575196
 42
0.0317437689796266
  0
LWPOLYLINE
  5
515
330
1F
100
AcDbEntity
  8
TEXT
  6
Continuous
100
AcDbPolyline
 90
        2
 70
   128
 43
0.0441
 10
1146.847074514977
 20
941.7986015302796
 10
1146.847074516281
 20
938.9640231816765
  0
LWPOLYLINE
  5
516
330
1F
100
AcDbEntity
  8
TEXT
  6
Continuous
100
AcDbPolyline
 90
        2
 70
   128
 10
1146.847074516281
 20
943.0443723713714
 40
0.0
 41
0.4409999999999999
 10
1146.847074514977
 20
941.7986015302796
 40
0.0
 41
0.0
  0
LWPOLYLINE
  5
517
330
1F
100
AcDbEntity
  8
Skeleton
  6
Continuous
100
AcDbPolyline
 90
       82
 70
     0
 43
0.0
 10
1137.48380737197
 20
925.8735516238812
 10
1137.462463229198
 20
925.8661128334379
 10
1137.428808383142
 20
925.861311643522
 10
1137.396889199793
 20
925.9324995259963
 10
1137.341202917428
 20
926.08085055425
 10
1137.299837123921
 20
926.1360446417482
 10
1137.313890359788
 20
926.1613521230397
 10
1137.347097155909
 20
926.1482267362894
 10
1137.379429511266
 20
926.0829562600888
 10
1137.406308769507
 20
926.0162801475703
 10
1137.45164009372
 20
925.9156210624722
 10
1137.467999329734
 20
925.9198379398497
 10
1137.51605866326
 20
926.0116416739731
 10
1137.562190245274
 20
926.1184442227125
 10
1137.588794396918
 20
926.0904365157066
 10
1137.553596978261
 20
926.0464983799529
 10
1137.482347812214
 20
925.8867341563382
 10
1137.492482686836
 20
925.869976939774
 10
1137.500331685093
 20
925.8545674636491
 10
1137.506307954727
 20
925.846423116441
 10
1137.525999480281
 20
925.8301923279357
 10
1137.553429946907
 20
925.8140194192606
 10
1137.580337216806
 20
925.8073964686355
 10
1137.605536844329
 20
925.7848376260995
 10
1137.625503462571
 20
925.7299384188784
 10
1137.626081682188
 20
925.7126547751293
 10
1137.586973768283
 20
925.7064479622104
 10
1137.561167920484
 20
925.6862372961696
 10
1137.541861560748
 20
925.6483323227701
 10
1137.564417179197
 20
925.6134701396629
 10
1137.6153946307
 20
925.5510687962162
 10
1137.559899469123
 20
925.4805919440264
 10
1137.470611411382
 20
925.3607280979261
 10
1137.432411843613
 20
925.2908355540901
 10
1137.43918643327
 20
925.2344728456997
 10
1137.519550113927
 20
925.2009529358809
 10
1137.716356218092
 20
925.1819523505237
 10
1137.751525641557
 20
925.1658373276666
 10
1137.774384364063
 20
925.1523598963188
 10
1137.779947488866
 20
925.1382981642687
 10
1137.803494488406
 20
925.0920697323147
 10
1137.80277821618
 20
925.0647675743098
 10
1137.82869410493
 20
925.0695108802115
 10
1137.838967028554
 20
925.0973394644714
 10
1137.832137402973
 20
925.1614358494303
 10
1137.818918350122
 20
925.2277591867232
 10
1137.796692872679
 20
925.2162192787023
 10
1137.759402638437
 20
925.2104810043047
 10
1137.698840524287
 20
925.2123027654789
 10
1137.574329017707
 20
925.2441276337854
 10
1137.499060283189
 20
925.2654020951641
 10
1137.472511153095
 20
925.2856761142018
 10
1137.484023537872
 20
925.331256883903
 10
1137.570089365062
 20
925.4561010403963
 10
1137.606728799691
 20
925.4887924293712
 10
1137.606728799691
 20
925.4887924293712
 10
1137.53973879555
 20
925.3707990204355
 10
1137.522195093984
 20
925.3410962658454
 10
1137.532495031107
 20
925.3011380011742
 10
1137.59181768335
 20
925.2815640649442
 10
1137.739739122448
 20
925.2867649628201
 10
1137.851664831773
 20
925.2962461038087
 10
1137.871769516822
 20
925.285932702963
 10
1137.877690765372
 20
925.2855220419192
 10
1137.887880657647
 20
925.2610311450387
 10
1137.900824605473
 20
925.2333762146259
 10
1137.914704909233
 20
925.2020887224039
 10
1137.929934729815
 20
925.1730860506216
 10
1137.939491366551
 20
925.1736124740592
 10
1137.943953073382
 20
925.1863843501214
 10
1137.93910621877
 20
925.2277482406132
 10
1137.932551714448
 20
925.2531762228771
 10
1137.919607768658
 20
925.2808311528531
 10
1137.91087743253
 20
925.2921395163467
 10
1137.909886051616
 20
925.3035057719715
 10
1137.91341139885
 20
925.3199102165922
 10
1137.905865513845
 20
925.3567044535789
 10
1137.890800757103
 20
925.3625060795227
 10
1137.878655132554
 20
925.3419426361274
 10
1137.853785644353
 20
925.3180994015281
 10
1137.780967861326
 20
925.3148250776148
 10
1137.775060148649
 20
925.3141941320944
  0
LWPOLYLINE
  5
518
330
1F
100
AcDbEntity
  8
Skeleton
  6
Continuous
100
AcDbPolyline
 90
        2
 70
     0
 43
0.0
 10
1137.441981335931
 20
926.1034963355914
 10
1137.395822727614
 20
926.064480625751
  0
LWPOLYLINE
  5
519
330
1F
100
AcDbEntity
  8
Skeleton
  6
Continuous
100
AcDbPolyline
 90
       12
 70
     0
 43
0.0
 10
1137.35511720338
 20
926.0268705430981
 10
1137.293122557347
 20
925.9740879991969
 10
1137.232670486241
 20
925.960442392115
 10
1137.227135370828
 20
926.0345572873973
 10
1137.249746979605
 20
926.1198014291917
 10
1137.259634744449
 20
926.2017657704382
 10
1137.293950826807
 20
926.2416027949275
 10
1137.273266953075
 20
926.1413598352347
 10
1137.266188265043
 20
926.0484977810693
 10
1137.272494675804
 20
925.9939513571906
 10
1137.304166761657
 20
926.0214850520429
 10
1137.347213182002
 20
926.0500137058239
  0
LWPOLYLINE
  5
51A
330
1F
100
AcDbEntity
  8
Skeleton
  6
Continuous
100
AcDbPolyline
 90
        2
 70
     0
 43
0.0
 10
1137.386045991114
 20
926.0948889247206
 10
1137.416423584892
 20
926.1124041062192
  0
LWPOLYLINE
  5
51B
330
1F
100
AcDbEntity
  8
Skeleton
  6
Continuous
100
AcDbPolyline
 90
       22
 70
     1
 43
0.0
 10
1137.41724989993
 20
926.1242388968699
 10
1137.405655469104
 20
926.1541786545006
 10
1137.44159618815
 20
926.1576321021455
 10
1137.455614529913
 20
926.1709304011802
 10
1137.411466689328
 20
926.1692353568503
 10
1137.404140889891
 20
926.1750948668086
 10
1137.406784900593
 20
926.1873982010668
 10
1137.40485716392
 20
926.2023970252783
 10
1137.396595006457
 20
926.2118891051618
 10
1137.393675890553
 20
926.2382541710056
 10
1137.409649976927
 20
926.2966068221517
 10
1137.456386806952
 20
926.3183388801262
 10
1137.519179774346
 20
926.3229030651137
 10
1137.562198183266
 20
926.2913785560995
 10
1137.572856257869
 20
926.2650713688595
 10
1137.563574726624
 20
926.2258765367385
 10
1137.532728953484
 20
926.2101776415552
 10
1137.509319023234
 20
926.1731518740339
 10
1137.50257145947
 20
926.1617277376495
 10
1137.49359303019
 20
926.1439176654042
 10
1137.458643702826
 20
926.1290979726041
 10
1137.426861574161
 20
926.1170316451057
  0
LWPOLYLINE
  5
51C
330
1F
100
AcDbEntity
  8
Skeleton
  6
Continuous
100
AcDbPolyline
 90
       23
 70
     0
 43
0.0
 10
1137.523337379194
 20
926.1864501776902
 10
1137.540081779223
 20
926.136531292698
 10
1137.570459357001
 20
926.1540464691107
 10
1137.589737725209
 20
926.1318982771493
 10
1137.597861830062
 20
926.0778203955115
 10
1137.609208167502
 20
926.0187622030439
 10
1137.643468261104
 20
925.9384929039986
 10
1137.670402553641
 20
925.8640831212244
 10
1137.683098408137
 20
925.8073097482948
 10
1137.697611954634
 20
925.7510049257226
 10
1137.738482542942
 20
925.7654139616352
 10
1137.758394152493
 20
925.7182484447346
 10
1137.743191357979
 20
925.6794642785198
 10
1137.754372630937
 20
925.6436071269165
 10
1137.772301467948
 20
925.6191741031164
 10
1137.775688760945
 20
925.5909927522962
 10
1137.757771678036
 20
925.570258811633
 10
1137.65979694761
 20
925.479963151096
 10
1137.595904827176
 20
925.4051229890836
 10
1137.567187984915
 20
925.3545534849782
 10
1137.589688569243
 20
925.3274249789044
 10
1137.69445355781
 20
925.3195645936082
 10
1137.775060148649
 20
925.3141941320944
  0
LWPOLYLINE
  5
51D
330
1F
100
AcDbEntity
  8
TEXT
  6
Continuous
 62
     8
100
AcDbPolyline
 90
        4
 70
     1
 43
0.0
 10
1118.034256198801
 20
944.835774578817
 10
1148.936027620868
 20
944.835774578817
 10
1148.936027620868
 20
912.8638595566963
 10
1118.034256198801
 20
912.8638595566963
  0
LINE
  5
51E
330
1F
100
AcDbEntity
  8
Skeleton
  6
Continuous
 48
0.05
100
AcDbLine
 10
1138.18524365092
 20
924.3467963141827
 30
0.0
 11
1138.143237542084
 21
924.3926377757821
 31
0.0
  0
MTEXT
  5
51F
330
1F
100
AcDbEntity
  8
TEXT
  6
Continuous
100
AcDbMText
 10
1142.643473164014
 20
916.4047144887443
 30
0.0
 40
0.7
 41
3.6862
 46
0.0
 71
     1
 72
     5
  1
{\fTahoma|b0|i0|c0|p34;20m}
 73
     1
 44
1.0
  0
LINE
  5
520
330
1F
100
AcDbEntity
  8
TEXT
  6
Continuous
 48
0.05
100
AcDbLine
 10
1122.863104592471
 20
914.5289729583482
 30
0.0
 11
1142.863104592471
 21
914.5289729583482
 31
0.0
  0
LINE
  5
521
330
1F
100
AcDbEntity
  8
TEXT
  6
Continuous
 48
0.05
100
AcDbLine
 10
1122.863104592471
 20
914.5289729583482
 30
0.0
 11
1122.863104592471
 21
915.5289729583482
 31
0.0
  0
LINE
  5
522
330
1F
100
AcDbEntity
  8
TEXT
  6
Continuous
 48
0.05
100
AcDbLine
 10
1142.863104592471
 20
914.5289729583482
 30
0.0
 11
1142.863104592471
 21
915.5289729583482
 31
0.0
  0
LINE
  5
523
330
1F
100
AcDbEntity
  8
TEXT
  6
Continuous
 48
0.05
100
AcDbLine
 10
1132.863104592471
 20
914.5289729583482
 30
0.0
 11
1132.863104592471
 21
915.5289729583482
 31
0.0
  0
MTEXT
  5
524
330
1F
100
AcDbEntity
  8
TEXT
  6
Continuous
100
AcDbMText
 10
1122.643473164014
 20
916.4047144887443
 30
0.0
 40
0.7000000000000001
 41
3.6862
 46
0.0
 71
     1
 72
     5
  1
{\fTahoma|b0|i0|c0|p34;0}
 73
     1
 44
1.0
  0
MTEXT
  5
525
330
1F
100
AcDbEntity
  8
TEXT
  6
Continuous
100
AcDbMText
 10
1137.791036994827
 20
935.8471042616708
 30
0.0
 40
0.6
 41
425.8195
 46
0.0
 71
     1
 72
     5
  1
{\fTahoma|b0|i0|c0|p34;Maximum extent \Pof kurgan mound}
 73
     1
 44
1.0
  0
MTEXT
  5
526
330
1F
100
AcDbEntity
  8
TEXT
  6
Continuous
100
AcDbMText
 10
1134.212656182494
 20
931.7184573575756
 30
0.0
 40
0.6
 41
425.8195
 46
0.0
 71
     1
 72
     5
  1
{\fTahoma|b0|i0|c0|p34;Cairn material}
 73
     1
 44
1.0
  0
MTEXT
  5
527
330
1F
100
AcDbEntity
  8
TEXT
  6
Continuous
100
AcDbMText
 10
1138.121404237643
 20
926.9681505700688
 30
0.0
 40
0.6
 41
425.8195
 46
0.0
 71
     1
 72
     5
  1
{\fTahoma|b0|i0|c0|p34;Burial 2 (Jar grave)}
 73
     1
 44
1.0
  0
MTEXT
  5
528
330
1F
100
AcDbEntity
  8
TEXT
  6
Continuous
100
AcDbMText
 10
1138.37413569884
 20
923.7515731441897
 30
0.0
 40
0.6
 41
425.8195
 46
0.0
 71
     1
 72
     5
  1
{\fTahoma|b0|i0|c0|p34;Burial 1}
 73
     1
 44
1.0
  0
MTEXT
  5
529
330
1F
100
AcDbEntity
  8
TEXT
  6
Continuous
100
AcDbMText
 10
1130.540607678724
 20
924.6930034857064
 30
0.0
 40
0.6
 41
425.8195
 46
0.0
 71
     1
 72
     5
  1
{\fTahoma|b0|i0|c0|p34;Chamber under \Ptimber cover}
 73
     1
 44
1.0
  0
MTEXT
  5
52A
330
1F
100
AcDbEntity
  8
TEXT
  6
Continuous
100
AcDbMText
 10
1119.504217815165
 20
943.6398151886667
 30
0.0
 40
1.0
 41
28.08
 46
0.0
 71
     1
 72
     5
  1
{\fTahoma|b0|i0|c0|p34;272 Borsunlu  \H0.75x;Bronze Age Kurgan }
 73
     1
 44
1.0
  0
MTEXT
  5
52B
330
1F
100
AcDbEntity
  8
TEXT
  6
Continuous
100
AcDbMText
 10
1119.642366212205
 20
941.642462534782
 30
0.0
 40
0.6
 41
425.8195
 46
0.0
 71
     1
 72
     5
  1
{\fTahoma|b0|i0|c0|p34;BTC 2002 KP 272\PGrid Reference \fArial|b0|i0|c0|p34;8640072 4500932}
 73
     1
 44
1.0
  0
MTEXT
  5
52C
330
1F
100
AcDbEntity
  8
TEXT
  6
Continuous
100
AcDbMText
 10
1146.645624217555
 20
938.7432930633161
 30
0.0
 40
0.5144999999999998
 41
0.487029173023998
 46
0.0
 71
     1
 72
     5
  1
{\fTahoma|b0|i0|c0|p34;N}
 11
1.0
 21
1.253522841082599E-10
 31
0.0
 73
     1
 44
1.0
  0
LINE
  5
52D
330
1F
100
AcDbEntity
  8
Skeleton
  6
Continuous
 48
0.05
100
AcDbLine
 10
1137.605788981311
 20
925.4887698651576
 30
0.0
 11
1137.636089777058
 21
925.5430636452634
 31
0.0
  0
ENDSEC
  0
SECTION
  2
OBJECTS
  0
DICTIONARY
  5
C
330
0
100
AcDbDictionary
281
     1
  3
ACAD_COLOR
350
6B
  3
ACAD_DETAILVIEWSTYLE
350
5BE
  3
ACAD_GROUP
350
D
  3
ACAD_LAYOUT
350
1A
  3
ACAD_MATERIAL
350
6A
  3
ACAD_MLEADERSTYLE
350
581
  3
ACAD_MLINESTYLE
350
17
  3
ACAD_PLOTSETTINGS
350
19
  3
ACAD_PLOTSTYLENAME
350
E
  3
ACAD_SCALELIST
350
555
  3
ACAD_SECTIONVIEWSTYLE
350
5BF
  3
ACAD_TABLESTYLE
350
7E
  3
ACAD_VISUALSTYLE
350
EF
  3
ACDB_RECOMPOSE_DATA
350
5BA
  3
AcDbVariableDictionary
350
5E
  3
BNS_VARIABLES
350
2C7
  0
DICTIONARY
  5
11B
330
2
100
AcDbDictionary
280
     1
281
     1
  3
ACAD_LAYERFILTERS
360
24E
  3
ACAD_LAYERSTATES
360
11C
  3
ACLYDICTIONARY
360
24D
  0
DICTIONARY
  5
320
330
1F
100
AcDbDictionary
280
     1
281
     1
  3
ACAD_SORTENTS
360
321
  0
DICTIONARY
  5
23A
330
1DD
100
AcDbDictionary
280
     1
281
     1
  3
ACAD_SORTENTS
360
23B
  0
DICTIONARY
  5
6B
102
{ACAD_REACTORS
330
C
102
}
330
C
100
AcDbDictionary
281
     1
  0
DICTIONARY
  5
5BE
102
{ACAD_REACTORS
330
C
102
}
330
C
100
AcDbDictionary
281
     1
  0
DICTIONARY
  5
D
102
{ACAD_REACTORS
330
C
102
}
330
C
100
AcDbDictionary
281
     1
  0
DICTIONARY
  5
1A
102
{ACAD_REACTORS
330
C
102
}
330
C
100
AcDbDictionary
281
     1
  3
Layout1
350
D3
  3
Layout2
350
D7
  3
Model
350
22
  0
DICTIONARY
  5
6A
102
{ACAD_REACTORS
330
C
102
}
330
C
100
AcDbDictionary
281
     1
  3
ByBlock
350
ED
  3
ByLayer
350
EC
  3
Global
350
EE
  0
DICTIONARY
  5
581
102
{ACAD_REACTORS
330
C
102
}
330
C
100
AcDbDictionary
281
     1
  3
Standard
350
582
  0
DICTIONARY
  5
17
102
{ACAD_REACTORS
330
C
102
}
330
C
100
AcDbDictionary
281
     1
  3
Standard
350
18
  0
DICTIONARY
  5
19
102
{ACAD_REACTORS
330
C
102
}
330
C
100
AcDbDictionary
281
     1
  0
ACDBDICTIONARYWDFLT
  5
E
102
{ACAD_REACTORS
330
C
102
}
330
C
100
AcDbDictionary
281
     1
  3
Normal
350
F
100
AcDbDictionaryWithDefault
340
F
  0
DICTIONARY
  5
555
102
{ACAD_REACTORS
330
C
102
}
330
C
100
AcDbDictionary
281
     1
  3
A0
350
556
  3
A1
350
557
  3
A2
350
558
  3
A3
350
559
  3
A4
350
55A
  3
A5
350
55B
  3
A6
350
55C
  3
A7
350
55D
  3
A8
350
55E
  3
A9
350
55F
  3
B0
350
560
  3
B1
350
561
  3
B2
350
562
  3
B3
350
563
  3
B4
350
564
  3
B5
350
565
  3
B6
350
566
  3
B7
350
567
  3
B8
350
568
  3
B9
350
569
  3
C0
350
56A
  3
C1
350
56B
  3
C2
350
56C
  3
C3
350
56D
  3
C4
350
56E
  3
C5
350
56F
  3
C6
350
570
  3
C7
350
571
  3
C8
350
572
  3
C9
350
573
  3
D0
350
574
  3
D1
350
575
  3
D2
350
576
  0
DICTIONARY
  5
5BF
102
{ACAD_REACTORS
330
C
102
}
330
C
100
AcDbDictionary
281
     1
  0
DICTIONARY
  5
7E
102
{ACAD_REACTORS
330
C
102
}
330
C
100
AcDbDictionary
281
     1
  3
Standard
350
7F
  0
DICTIONARY
  5
EF
102
{ACAD_REACTORS
330
C
102
}
330
C
100
AcDbDictionary
281
     1
  3
2dWireframe
350
F5
  3
3D Hidden
350
F7
  3
3dWireframe
350
F6
  3
Basic
350
F4
  3
Brighten
350
FB
  3
ColorChange
350
FF
  3
Conceptual
350
F8
  3
Dim
350
FA
  3
EdgeColorOff
350
57B
  3
Facepattern
350
FE
  3
Flat
350
F0
  3
FlatWithEdges
350
F1
  3
Gouraud
350
F2
  3
GouraudWithEdges
350
F3
  3
Hidden
350
578
  3
JitterOff
350
579
  3
Linepattern
350
FD
  3
OverhangOff
350
57A
  3
Realistic
350
F9
  3
Shaded
350
580
  3
Shaded with edges
350
57F
  3
Shades of Gray
350
57C
  3
Sketchy
350
57D
  3
Thicken
350
FC
  3
Wireframe
350
577
  3
X-Ray
350
57E
  0
XRECORD
  5
5BA
102
{ACAD_REACTORS
330
C
102
}
330
C
100
AcDbXrecord
280
     1
 90
        1
330
7F
  0
DICTIONARY
  5
5E
102
{ACAD_REACTORS
330
C
102
}
330
C
100
AcDbDictionary
281
     1
  3
CANNOSCALE
350
583
  3
CMLEADERSTYLE
350
5BB
  3
CTABLESTYLE
350
84
  3
DIMASSOC
350
5F
  3
HIDETEXT
350
63
  3
MSLTSCALE
350
5BC
  3
XCLIPFRAME
350
5BD
  0
DICTIONARY
  5
2C7
102
{ACAD_REACTORS
330
C
102
}
330
C
100
AcDbDictionary
281
     1
  3
ACET-OVERKILL-FUZZ
350
2C8
  3
ACET-OVERKILL-NO-ENDTOEND
350
2CB
  3
ACET-OVERKILL-NO-PARTIAL
350
2CA
  3
ACET-OVERKILL-NO-PLINES
350
2C9
  0
DICTIONARY
  5
24E
102
{ACAD_REACTORS
330
11B
102
}
330
11B
100
AcDbDictionary
281
     1
  0
DICTIONARY
  5
11C
102
{ACAD_REACTORS
330
11B
102
}
330
11B
100
AcDbDictionary
281
     1
  0
DICTIONARY
  5
24D
102
{ACAD_REACTORS
330
11B
102
}
330
11B
100
AcDbDictionary
281
     1
1001
ACAD
1000
<All
  0
SORTENTSTABLE
  5
321
102
{ACAD_REACTORS
330
320
102
}
330
320
100
AcDbSortentsTable
330
1F
  0
SORTENTSTABLE
  5
23B
102
{ACAD_REACTORS
330
23A
102
}
330
23A
100
AcDbSortentsTable
330
1DD
  0
LAYOUT
  5
D3
102
{ACAD_REACTORS
330
1A
102
}
330
1A
100
AcDbPlotSettings
  1

  2
C:\Documents and Settings\basas\Application Data\Autodesk\AutoCAD 2005\R16.1\enu\plotters\Default Windows System Printer.pc3
  4

  6

 40
0.0
 41
0.0
 42
0.0
 43
0.0
 44
0.0
 45
0.0
 46
0.0
 47
0.0
 48
0.0
 49
0.0
140
0.0
141
0.0
142
1.0
143
1.0
 70
   688
 72
     0
 73
     0
 74
     5
  7
acad.ctb
 75
    16
 76
     0
 77
     2
 78
   300
147
1.0
148
0.0
149
0.0
100
AcDbLayout
  1
Layout1
 70
     1
 71
     1
 10
0.0
 20
0.0
 11
12.0
 21
9.0
 12
0.0
 22
0.0
 32
0.0
 14
0.0
 24
0.0
 34
0.0
 15
0.0
 25
0.0
 35
0.0
146
0.0
 13
0.0
 23
0.0
 33
0.0
 16
1.0
 26
0.0
 36
0.0
 17
0.0
 27
1.0
 37
0.0
 76
     0
330
D2
  0
LAYOUT
  5
D7
102
{ACAD_REACTORS
330
1A
102
}
330
1A
100
AcDbPlotSettings
  1

  2
C:\Documents and Settings\basas\Application Data\Autodesk\AutoCAD 2005\R16.1\enu\plotters\Default Windows System Printer.pc3
  4

  6

 40
0.0
 41
0.0
 42
0.0
 43
0.0
 44
0.0
 45
0.0
 46
0.0
 47
0.0
 48
0.0
 49
0.0
140
0.0
141
0.0
142
1.0
143
1.0
 70
   688
 72
     0
 73
     0
 74
     5
  7
acad.ctb
 75
    16
 76
     0
 77
     2
 78
   300
147
1.0
148
0.0
149
0.0
100
AcDbLayout
  1
Layout2
 70
     1
 71
     2
 10
0.0
 20
0.0
 11
12.0
 21
9.0
 12
0.0
 22
0.0
 32
0.0
 14
0.0
 24
0.0
 34
0.0
 15
0.0
 25
0.0
 35
0.0
146
0.0
 13
0.0
 23
0.0
 33
0.0
 16
1.0
 26
0.0
 36
0.0
 17
0.0
 27
1.0
 37
0.0
 76
     0
330
D6
  0
LAYOUT
  5
22
102
{ACAD_REACTORS
330
1A
102
}
330
1A
100
AcDbPlotSettings
  1

  2
PDF995.pc3
  4
A4
  6

 40
3.174999952316284
 41
3.174999952316284
 42
3.175003051757812
 43
3.17498779296875
 44
209.9733276367188
 45
297.0530090332031
 46
0.0
 47
40.0140601988423
 48
1118.034256198801
 49
912.8638595566963
140
1148.936027620868
141
944.835774578817
142
1.0
143
0.1517594876609379
 70
 11956
 72
     1
 73
     0
 74
     4
  7
acad.ctb
 75
     0
 76
     0
 77
     2
 78
   300
147
6.58937385341078
148
-1118.034256198801
149
-912.8638595566963
100
AcDbLayout
  1
Model
 70
     1
 71
     0
 10
0.0
 20
0.0
 11
12.0
 21
9.0
 12
0.0
 22
0.0
 32
0.0
 14
0.0
 24
0.0
 34
0.0
 15
0.0
 25
0.0
 35
0.0
146
0.0
 13
0.0
 23
0.0
 33
0.0
 16
1.0
 26
0.0
 36
0.0
 17
0.0
 27
1.0
 37
0.0
 76
     0
330
1F
331
EA
1001
ACAD_PSEXT
1000
PDF995.pc3
1000
PDF995 Printer Driver
1000
PDF995PORT
1000

1070
     0
  0
MATERIAL
  5
ED
102
{ACAD_REACTORS
330
6A
102
}
330
6A
100
AcDbMaterial
  1
ByBlock
 72
     1
 94
       63
  0
MATERIAL
  5
EC
102
{ACAD_REACTORS
330
6A
102
}
330
6A
100
AcDbMaterial
  1
ByLayer
 72
     1
 94
       63
  0
MATERIAL
  5
EE
102
{ACAD_REACTORS
330
6A
102
}
330
6A
100
AcDbMaterial
  1
Global
 72
     1
 94
       63
  0
MLEADERSTYLE
  5
582
102
{ACAD_REACTORS
330
581
102
}
330
581
100
AcDbMLeaderStyle
179
     2
170
     2
171
     1
172
     0
 90
        2
 40
0.0
 41
0.0
173
     1
 91
-1056964608
340
14
 92
       -2
290
     1
 42
2.0
291
     1
 43
8.0
  3
Standard
341
0
 44
4.0
300

342
11
174
     1
178
     6
175
     1
176
     0
 93
-1056964608
 45
4.0
292
     0
297
     0
 46
4.0
343
0
 94
-1056964608
 47
1.0
 49
1.0
140
1.0
293
     1
141
0.0
294
     1
177
     0
142
1.0
295
     0
296
     0
143
3.75
271
     0
272
     9
273
     9
  0
MLINESTYLE
  5
18
102
{ACAD_REACTORS
330
17
102
}
330
17
100
AcDbMlineStyle
  2
STANDARD
 70
     0
  3

 62
   256
 51
90.0
 52
90.0
 71
     2
 49
0.5
 62
   256
  6
BYLAYER
 49
-0.5
 62
   256
  6
BYLAYER
  0
ACDBPLACEHOLDER
  5
F
102
{ACAD_REACTORS
330
E
102
}
330
E
  0
SCALE
  5
556
102
{ACAD_REACTORS
330
555
102
}
330
555
100
AcDbScale
 70
     0
300
1:1
140
1.0
141
1.0
290
     1
  0
SCALE
  5
557
102
{ACAD_REACTORS
330
555
102
}
330
555
100
AcDbScale
 70
     0
300
1:2
140
1.0
141
2.0
290
     0
  0
SCALE
  5
558
102
{ACAD_REACTORS
330
555
102
}
330
555
100
AcDbScale
 70
     0
300
1:4
140
1.0
141
4.0
290
     0
  0
SCALE
  5
559
102
{ACAD_REACTORS
330
555
102
}
330
555
100
AcDbScale
 70
     0
300
1:5
140
1.0
141
5.0
290
     0
  0
SCALE
  5
55A
102
{ACAD_REACTORS
330
555
102
}
330
555
100
AcDbScale
 70
     0
300
1:8
140
1.0
141
8.0
290
     0
  0
SCALE
  5
55B
102
{ACAD_REACTORS
330
555
102
}
330
555
100
AcDbScale
 70
     0
300
1:10
140
1.0
141
10.0
290
     0
  0
SCALE
  5
55C
102
{ACAD_REACTORS
330
555
102
}
330
555
100
AcDbScale
 70
     0
300
1:16
140
1.0
141
16.0
290
     0
  0
SCALE
  5
55D
102
{ACAD_REACTORS
330
555
102
}
330
555
100
AcDbScale
 70
     0
300
1:20
140
1.0
141
20.0
290
     0
  0
SCALE
  5
55E
102
{ACAD_REACTORS
330
555
102
}
330
555
100
AcDbScale
 70
     0
300
1:30
140
1.0
141
30.0
290
     0
  0
SCALE
  5
55F
102
{ACAD_REACTORS
330
555
102
}
330
555
100
AcDbScale
 70
     0
300
1:40
140
1.0
141
40.0
290
     0
  0
SCALE
  5
560
102
{ACAD_REACTORS
330
555
102
}
330
555
100
AcDbScale
 70
     0
300
1:50
140
1.0
141
50.0
290
     0
  0
SCALE
  5
561
102
{ACAD_REACTORS
330
555
102
}
330
555
100
AcDbScale
 70
     0
300
1:100
140
1.0
141
100.0
290
     0
  0
SCALE
  5
562
102
{ACAD_REACTORS
330
555
102
}
330
555
100
AcDbScale
 70
     0
300
2:1
140
2.0
141
1.0
290
     0
  0
SCALE
  5
563
102
{ACAD_REACTORS
330
555
102
}
330
555
100
AcDbScale
 70
     0
300
4:1
140
4.0
141
1.0
290
     0
  0
SCALE
  5
564
102
{ACAD_REACTORS
330
555
102
}
330
555
100
AcDbScale
 70
     0
300
8:1
140
8.0
141
1.0
290
     0
  0
SCALE
  5
565
102
{ACAD_REACTORS
330
555
102
}
330
555
100
AcDbScale
 70
     0
300
10:1
140
10.0
141
1.0
290
     0
  0
SCALE
  5
566
102
{ACAD_REACTORS
330
555
102
}
330
555
100
AcDbScale
 70
     0
300
100:1
140
100.0
141
1.0
290
     0
  0
SCALE
  5
567
102
{ACAD_REACTORS
330
555
102
}
330
555
100
AcDbScale
 70
     0
300
1/128" = 1'-0"
140
0.0078125
141
12.0
290
     0
  0
SCALE
  5
568
102
{ACAD_REACTORS
330
555
102
}
330
555
100
AcDbScale
 70
     0
300
1/64" = 1'-0"
140
0.015625
141
12.0
290
     0
  0
SCALE
  5
569
102
{ACAD_REACTORS
330
555
102
}
330
555
100
AcDbScale
 70
     0
300
1/32" = 1'-0"
140
0.03125
141
12.0
290
     0
  0
SCALE
  5
56A
102
{ACAD_REACTORS
330
555
102
}
330
555
100
AcDbScale
 70
     0
300
1/16" = 1'-0"
140
0.0625
141
12.0
290
     0
  0
SCALE
  5
56B
102
{ACAD_REACTORS
330
555
102
}
330
555
100
AcDbScale
 70
     0
300
3/32" = 1'-0"
140
0.09375
141
12.0
290
     0
  0
SCALE
  5
56C
102
{ACAD_REACTORS
330
555
102
}
330
555
100
AcDbScale
 70
     0
300
1/8" = 1'-0"
140
0.125
141
12.0
290
     0
  0
SCALE
  5
56D
102
{ACAD_REACTORS
330
555
102
}
330
555
100
AcDbScale
 70
     0
300
3/16" = 1'-0"
140
0.1875
141
12.0
290
     0
  0
SCALE
  5
56E
102
{ACAD_REACTORS
330
555
102
}
330
555
100
AcDbScale
 70
     0
300
1/4" = 1'-0"
140
0.25
141
12.0
290
     0
  0
SCALE
  5
56F
102
{ACAD_REACTORS
330
555
102
}
330
555
100
AcDbScale
 70
     0
300
3/8" = 1'-0"
140
0.375
141
12.0
290
     0
  0
SCALE
  5
570
102
{ACAD_REACTORS
330
555
102
}
330
555
100
AcDbScale
 70
     0
300
1/2" = 1'-0"
140
0.5
141
12.0
290
     0
  0
SCALE
  5
571
102
{ACAD_REACTORS
330
555
102
}
330
555
100
AcDbScale
 70
     0
300
3/4" = 1'-0"
140
0.75
141
12.0
290
     0
  0
SCALE
  5
572
102
{ACAD_REACTORS
330
555
102
}
330
555
100
AcDbScale
 70
     0
300
1" = 1'-0"
140
1.0
141
12.0
290
     0
  0
SCALE
  5
573
102
{ACAD_REACTORS
330
555
102
}
330
555
100
AcDbScale
 70
     0
300
1-1/2" = 1'-0"
140
1.5
141
12.0
290
     0
  0
SCALE
  5
574
102
{ACAD_REACTORS
330
555
102
}
330
555
100
AcDbScale
 70
     0
300
3" = 1'-0"
140
3.0
141
12.0
290
     0
  0
SCALE
  5
575
102
{ACAD_REACTORS
330
555
102
}
330
555
100
AcDbScale
 70
     0
300
6" = 1'-0"
140
6.0
141
12.0
290
     0
  0
SCALE
  5
576
102
{ACAD_REACTORS
330
555
102
}
330
555
100
AcDbScale
 70
     0
300
1'-0" = 1'-0"
140
12.0
141
12.0
290
     0
  0
TABLESTYLE
  5
7F
102
{ACAD_REACTORS
330
7E
102
}
102
{ACAD_XDICTIONARY
360
584
102
}
330
7E
100
AcDbTableStyle
  3
Standard
 70
     0
 71
     0
 40
1.5
 41
1.5
280
     0
281
     0
  7
Standard
140
4.5
170
     2
 62
     0
 63
   257
283
     0
 90
      512
 91
        0
  1

274
    -2
284
     1
 64
     0
275
    -2
285
     1
 65
     0
276
    -2
286
     1
 66
     0
277
    -2
287
     1
 67
     0
278
    -2
288
     1
 68
     0
279
    -2
289
     1
 69
     0
  7
Standard
140
6.0
170
     5
 62
     0
 63
   257
283
     0
 90
      512
 91
        0
  1

274
    -2
284
     1
 64
     0
275
    -2
285
     1
 65
     0
276
    -2
286
     1
 66
     0
277
    -2
287
     1
 67
     0
278
    -2
288
     1
 68
     0
279
    -2
289
     1
 69
     0
  7
Standard
140
4.5
170
     5
 62
     0
 63
   257
283
     0
 90
      512
 91
        0
  1

274
    -2
284
     1
 64
     0
275
    -2
285
     1
 65
     0
276
    -2
286
     1
 66
     0
277
    -2
287
     1
 67
     0
278
    -2
288
     1
 68
     0
279
    -2
289
     1
 69
     0
  0
VISUALSTYLE
  5
F5
102
{ACAD_REACTORS
330
EF
102
}
102
{ACAD_XDICTIONARY
360
586
102
}
330
EF
100
AcDbVisualStyle
  2
2dWireframe
 70
     4
177
     2
291
     0
 71
     0
176
     1
 72
     2
176
     1
 73
     1
176
     1
 90
        0
176
     1
 40
-0.6
176
     1
 41
-30.0
176
     1
 62
     5
 63
     7
421
 16777215
176
     1
 74
     1
176
     1
 91
        4
176
     1
 64
     7
176
     1
 65
   257
176
     1
 75
     1
176
     1
175
     1
176
     1
 42
1.0
176
     1
 92
        0
176
     1
 66
   257
176
     1
 43
1.0
176
     1
 76
     1
176
     1
 77
     6
176
     1
 78
     2
176
     1
 67
     7
176
     1
 79
     5
176
     1
170
     0
176
     1
171
     0
176
     1
290
     0
176
     1
 93
        1
176
     1
 44
0.0
176
     1
173
     0
176
     1
  0
VISUALSTYLE
  5
F7
102
{ACAD_REACTORS
330
EF
102
}
102
{ACAD_XDICTIONARY
360
588
102
}
330
EF
100
AcDbVisualStyle
  2
3D Hidden
 70
     6
177
     2
291
     0
 71
     1
176
     1
 72
     2
176
     1
 73
     2
176
     1
 90
        0
176
     1
 40
-0.6
176
     1
 41
-30.0
176
     1
 62
     5
 63
     7
421
 16777215
176
     1
 74
     2
176
     1
 91
        2
176
     1
 64
     7
176
     1
 65
   257
176
     1
 75
     2
176
     1
175
     1
176
     1
 42
40.0
176
     1
 92
        0
176
     1
 66
   257
176
     1
 43
1.0
176
     1
 76
     1
176
     1
 77
     6
176
     1
 78
     2
176
     1
 67
     7
176
     1
 79
     3
176
     1
170
     0
176
     1
171
     0
176
     1
290
     0
176
     1
 93
        1
176
     1
 44
0.0
176
     1
173
     0
176
     1
  0
VISUALSTYLE
  5
F6
102
{ACAD_REACTORS
330
EF
102
}
102
{ACAD_XDICTIONARY
360
58A
102
}
330
EF
100
AcDbVisualStyle
  2
3dWireframe
 70
     5
177
     2
291
     0
 71
     0
176
     1
 72
     2
176
     1
 73
     1
176
     1
 90
        0
176
     1
 40
-0.6
176
     1
 41
-30.0
176
     1
 62
     5
 63
     7
421
 16777215
176
     1
 74
     1
176
     1
 91
        4
176
     1
 64
     7
176
     1
 65
   257
176
     1
 75
     1
176
     1
175
     1
176
     1
 42
1.0
176
     1
 92
        0
176
     1
 66
   257
176
     1
 43
1.0
176
     1
 76
     1
176
     1
 77
     6
176
     1
 78
     2
176
     1
 67
     7
176
     1
 79
     5
176
     1
170
     0
176
     1
171
     0
176
     1
290
     0
176
     1
 93
        1
176
     1
 44
0.0
176
     1
173
     0
176
     1
  0
VISUALSTYLE
  5
F4
102
{ACAD_REACTORS
330
EF
102
}
102
{ACAD_XDICTIONARY
360
58C
102
}
330
EF
100
AcDbVisualStyle
  2
Basic
 70
     7
177
     2
291
     1
 71
     1
176
     1
 72
     0
176
     1
 73
     1
176
     1
 90
        0
176
     1
 40
-0.6
176
     1
 41
-30.0
176
     1
 62
     5
 63
     7
421
 16777215
176
     1
 74
     0
176
     1
 91
        4
176
     1
 64
     7
176
     1
 65
   257
176
     1
 75
     1
176
     1
175
     1
176
     1
 42
1.0
176
     1
 92
        8
176
     1
 66
     7
176
     1
 43
1.0
176
     1
 76
     1
176
     1
 77
     6
176
     1
 78
     2
176
     1
 67
     7
176
     1
 79
     5
176
     1
170
     0
176
     1
171
     0
176
     1
290
     0
176
     1
 93
        1
176
     1
 44
0.0
176
     1
173
     0
176
     1
  0
VISUALSTYLE
  5
FB
102
{ACAD_REACTORS
330
EF
102
}
102
{ACAD_XDICTIONARY
360
58E
102
}
330
EF
100
AcDbVisualStyle
  2
Brighten
 70
    12
177
     2
291
     1
 71
     2
176
     1
 72
     2
176
     1
 73
     1
176
     1
 90
        0
176
     1
 40
-0.6
176
     1
 41
-30.0
176
     1
 62
     5
 63
     7
421
 16777215
176
     1
 74
     1
176
     1
 91
        4
176
     1
 64
     7
176
     1
 65
   257
176
     1
 75
     1
176
     1
175
     1
176
     1
 42
1.0
176
     1
 92
        8
176
     1
 66
     7
176
     1
 43
1.0
176
     1
 76
     1
176
     1
 77
     6
176
     1
 78
     2
176
     1
 67
     7
176
     1
 79
     5
176
     1
170
     0
176
     1
171
     0
176
     1
290
     0
176
     1
 93
        1
176
     1
 44
50.0
176
     1
173
     0
176
     1
  0
VISUALSTYLE
  5
FF
102
{ACAD_REACTORS
330
EF
102
}
102
{ACAD_XDICTIONARY
360
590
102
}
330
EF
100
AcDbVisualStyle
  2
ColorChange
 70
    16
177
     2
291
     1
 71
     2
176
     1
 72
     2
176
     1
 73
     3
176
     1
 90
        0
176
     1
 40
-0.6
176
     1
 41
-30.0
176
     1
 62
     5
 63
     8
421
  8421504
176
     1
 74
     1
176
     1
 91
        4
176
     1
 64
     7
176
     1
 65
   257
176
     1
 75
     1
176
     1
175
     1
176
     1
 42
1.0
176
     1
 92
        8
176
     1
 66
     8
424
  8421504
176
     1
 43
1.0
176
     1
 76
     1
176
     1
 77
     6
176
     1
 78
     2
176
     1
 67
     7
176
     1
 79
     5
176
     1
170
     0
176
     1
171
     0
176
     1
290
     0
176
     1
 93
        1
176
     1
 44
0.0
176
     1
173
     0
176
     1
  0
VISUALSTYLE
  5
F8
102
{ACAD_REACTORS
330
EF
102
}
102
{ACAD_XDICTIONARY
360
592
102
}
330
EF
100
AcDbVisualStyle
  2
Conceptual
 70
     9
177
     2
291
     0
 71
     3
176
     1
 72
     2
176
     1
 73
     1
176
     1
 90
        0
176
     1
 40
-0.6
176
     1
 41
-30.0
176
     1
 62
     5
 63
     7
421
 16777215
176
     1
 74
     2
176
     1
 91
        2
176
     1
 64
     7
176
     1
 65
   257
176
     1
 75
     1
176
     1
175
     1
176
     1
 42
40.0
176
     1
 92
        8
176
     1
 66
     7
176
     1
 43
1.0
176
     1
 76
     1
176
     1
 77
     6
176
     1
 78
     2
176
     1
 67
     7
176
     1
 79
     3
176
     1
170
     0
176
     1
171
     0
176
     1
290
     0
176
     1
 93
        1
176
     1
 44
0.0
176
     1
173
     0
176
     1
  0
VISUALSTYLE
  5
FA
102
{ACAD_REACTORS
330
EF
102
}
102
{ACAD_XDICTIONARY
360
594
102
}
330
EF
100
AcDbVisualStyle
  2
Dim
 70
    11
177
     2
291
     1
 71
     2
176
     1
 72
     2
176
     1
 73
     1
176
     1
 90
        0
176
     1
 40
-0.6
176
     1
 41
-30.0
176
     1
 62
     5
 63
     7
421
 16777215
176
     1
 74
     1
176
     1
 91
        4
176
     1
 64
     7
176
     1
 65
   257
176
     1
 75
     1
176
     1
175
     1
176
     1
 42
1.0
176
     1
 92
        8
176
     1
 66
     7
176
     1
 43
1.0
176
     1
 76
     1
176
     1
 77
     6
176
     1
 78
     2
176
     1
 67
     7
176
     1
 79
     5
176
     1
170
     0
176
     1
171
     0
176
     1
290
     0
176
     1
 93
        1
176
     1
 44
-50.0
176
     1
173
     0
176
     1
  0
VISUALSTYLE
  5
57B
102
{ACAD_REACTORS
330
EF
102
}
102
{ACAD_XDICTIONARY
360
5AE
102
}
330
EF
100
AcDbVisualStyle
  2
EdgeColorOff
 70
    22
177
     2
291
     1
 71
     2
176
     0
 72
     2
176
     0
 73
     0
176
     0
 90
        0
176
     0
 40
0.6
176
     0
 41
30.0
176
     0
 62
     5
 63
     7
421
 16777215
176
     0
 74
     1
176
     0
 91
        4
176
     0
 64
     7
176
     0
 65
   257
176
     0
 75
     1
176
     0
175
     1
176
     0
 42
1.0
176
     0
 92
        8
176
     2
 66
     7
176
     0
 43
1.0
176
     0
 76
     1
176
     0
 77
     6
176
     0
 78
     2
176
     0
 67
     7
176
     0
 79
     5
176
     0
170
     0
176
     0
171
     0
176
     0
290
     0
176
     0
 93
        1
176
     0
 44
0.0
176
     0
173
     0
176
     0
  0
VISUALSTYLE
  5
FE
102
{ACAD_REACTORS
330
EF
102
}
102
{ACAD_XDICTIONARY
360
596
102
}
330
EF
100
AcDbVisualStyle
  2
Facepattern
 70
    15
177
     2
291
     1
 71
     2
176
     1
 72
     2
176
     1
 73
     1
176
     1
 90
        0
176
     1
 40
-0.6
176
     1
 41
-30.0
176
     1
 62
     5
 63
     7
421
 16777215
176
     1
 74
     1
176
     1
 91
        4
176
     1
 64
     7
176
     1
 65
   257
176
     1
 75
     1
176
     1
175
     1
176
     1
 42
1.0
176
     1
 92
        8
176
     1
 66
     7
176
     1
 43
1.0
176
     1
 76
     1
176
     1
 77
     6
176
     1
 78
     2
176
     1
 67
     7
176
     1
 79
     5
176
     1
170
     0
176
     1
171
     0
176
     1
290
     0
176
     1
 93
        1
176
     1
 44
0.0
176
     1
173
     0
176
     1
  0
VISUALSTYLE
  5
F0
102
{ACAD_REACTORS
330
EF
102
}
102
{ACAD_XDICTIONARY
360
598
102
}
330
EF
100
AcDbVisualStyle
  2
Flat
 70
     0
177
     2
291
     1
 71
     2
176
     1
 72
     1
176
     1
 73
     1
176
     1
 90
        2
176
     1
 40
-0.6
176
     1
 41
30.0
176
     1
 62
     5
 63
     7
421
 16777215
176
     1
 74
     0
176
     1
 91
        4
176
     1
 64
     7
176
     1
 65
   257
176
     1
 75
     1
176
     1
175
     1
176
     1
 42
1.0
176
     1
 92
        8
176
     1
 66
     7
176
     1
 43
1.0
176
     1
 76
     1
176
     1
 77
     6
176
     1
 78
     2
176
     1
 67
     7
176
     1
 79
     5
176
     1
170
     0
176
     1
171
     0
176
     1
290
     0
176
     1
 93
        1
176
     1
 44
0.0
176
     1
173
     0
176
     1
  0
VISUALSTYLE
  5
F1
102
{ACAD_REACTORS
330
EF
102
}
102
{ACAD_XDICTIONARY
360
59A
102
}
330
EF
100
AcDbVisualStyle
  2
FlatWithEdges
 70
     1
177
     2
291
     1
 71
     2
176
     1
 72
     1
176
     1
 73
     1
176
     1
 90
        2
176
     1
 40
-0.6
176
     1
 41
30.0
176
     1
 62
     5
 63
     7
421
 16777215
176
     1
 74
     1
176
     1
 91
        4
176
     1
 64
     7
176
     1
 65
   257
176
     1
 75
     1
176
     1
175
     1
176
     1
 42
1.0
176
     1
 92
        0
176
     1
 66
   257
176
     1
 43
1.0
176
     1
 76
     1
176
     1
 77
     6
176
     1
 78
     2
176
     1
 67
     7
176
     1
 79
     5
176
     1
170
     0
176
     1
171
     0
176
     1
290
     0
176
     1
 93
        1
176
     1
 44
0.0
176
     1
173
     0
176
     1
  0
VISUALSTYLE
  5
F2
102
{ACAD_REACTORS
330
EF
102
}
102
{ACAD_XDICTIONARY
360
59C
102
}
330
EF
100
AcDbVisualStyle
  2
Gouraud
 70
     2
177
     2
291
     1
 71
     2
176
     1
 72
     2
176
     1
 73
     1
176
     1
 90
        2
176
     1
 40
-0.6
176
     1
 41
30.0
176
     1
 62
     5
 63
     7
421
 16777215
176
     1
 74
     0
176
     1
 91
        4
176
     1
 64
     7
176
     1
 65
   257
176
     1
 75
     1
176
     1
175
     1
176
     1
 42
1.0
176
     1
 92
        0
176
     1
 66
     7
176
     1
 43
1.0
176
     1
 76
     1
176
     1
 77
     6
176
     1
 78
     2
176
     1
 67
     7
176
     1
 79
     5
176
     1
170
     0
176
     1
171
     0
176
     1
290
     0
176
     1
 93
        1
176
     1
 44
0.0
176
     1
173
     0
176
     1
  0
VISUALSTYLE
  5
F3
102
{ACAD_REACTORS
330
EF
102
}
102
{ACAD_XDICTIONARY
360
59E
102
}
330
EF
100
AcDbVisualStyle
  2
GouraudWithEdges
 70
     3
177
     2
291
     1
 71
     2
176
     1
 72
     2
176
     1
 73
     1
176
     1
 90
        2
176
     1
 40
-0.6
176
     1
 41
30.0
176
     1
 62
     5
 63
     7
421
 16777215
176
     1
 74
     1
176
     1
 91
        4
176
     1
 64
     7
176
     1
 65
   257
176
     1
 75
     1
176
     1
175
     1
176
     1
 42
1.0
176
     1
 92
        0
176
     1
 66
   257
176
     1
 43
1.0
176
     1
 76
     1
176
     1
 77
     6
176
     1
 78
     2
176
     1
 67
     7
176
     1
 79
     5
176
     1
170
     0
176
     1
171
     0
176
     1
290
     0
176
     1
 93
        1
176
     1
 44
0.0
176
     1
173
     0
176
     1
  0
VISUALSTYLE
  5
578
102
{ACAD_REACTORS
330
EF
102
}
102
{ACAD_XDICTIONARY
360
5A8
102
}
330
EF
100
AcDbVisualStyle
  2
Hidden
 70
     6
177
     2
291
     0
 71
     1
176
     1
 72
     2
176
     1
 73
     2
176
     1
 90
        0
176
     1
 40
0.6
176
     1
 41
30.0
176
     1
 62
     5
 63
     7
421
 16777215
176
     1
 74
     2
176
     1
 91
        2
176
     1
 64
     7
176
     1
 65
   257
176
     1
 75
     2
176
     1
175
     1
176
     1
 42
40.0
176
     1
 92
        0
176
     1
 66
   257
176
     1
 43
1.0
176
     1
 76
     1
176
     1
 77
     6
176
     1
 78
     2
176
     1
 67
     7
176
     1
 79
     3
176
     1
170
     0
176
     1
171
     0
176
     1
290
     0
176
     1
 93
        1
176
     1
 44
0.0
176
     1
173
     0
176
     1
  0
VISUALSTYLE
  5
579
102
{ACAD_REACTORS
330
EF
102
}
102
{ACAD_XDICTIONARY
360
5AA
102
}
330
EF
100
AcDbVisualStyle
  2
JitterOff
 70
    20
177
     2
291
     1
 71
     2
176
     0
 72
     2
176
     0
 73
     0
176
     0
 90
        0
176
     0
 40
0.6
176
     0
 41
30.0
176
     0
 62
     5
 63
     7
421
 16777215
176
     0
 74
     1
176
     0
 91
        4
176
     0
 64
     7
176
     0
 65
   257
176
     0
 75
     1
176
     0
175
     1
176
     0
 42
1.0
176
     0
 92
       10
176
     2
 66
     7
176
     0
 43
1.0
176
     0
 76
     1
176
     0
 77
     6
176
     0
 78
     2
176
     0
 67
     7
176
     0
 79
     5
176
     0
170
     0
176
     0
171
     0
176
     0
290
     0
176
     0
 93
        1
176
     0
 44
0.0
176
     0
173
     0
176
     0
  0
VISUALSTYLE
  5
FD
102
{ACAD_REACTORS
330
EF
102
}
102
{ACAD_XDICTIONARY
360
5A0
102
}
330
EF
100
AcDbVisualStyle
  2
Linepattern
 70
    14
177
     2
291
     1
 71
     2
176
     1
 72
     2
176
     1
 73
     1
176
     1
 90
        0
176
     1
 40
-0.6
176
     1
 41
-30.0
176
     1
 62
     5
 63
     7
421
 16777215
176
     1
 74
     1
176
     1
 91
        4
176
     1
 64
     7
176
     1
 65
   257
176
     1
 75
     7
176
     1
175
     7
176
     1
 42
1.0
176
     1
 92
        8
176
     1
 66
     7
176
     1
 43
1.0
176
     1
 76
     1
176
     1
 77
     6
176
     1
 78
     2
176
     1
 67
     7
176
     1
 79
     5
176
     1
170
     0
176
     1
171
     0
176
     1
290
     0
176
     1
 93
        1
176
     1
 44
0.0
176
     1
173
     0
176
     1
  0
VISUALSTYLE
  5
57A
102
{ACAD_REACTORS
330
EF
102
}
102
{ACAD_XDICTIONARY
360
5AC
102
}
330
EF
100
AcDbVisualStyle
  2
OverhangOff
 70
    21
177
     2
291
     1
 71
     2
176
     0
 72
     2
176
     0
 73
     0
176
     0
 90
        0
176
     0
 40
0.6
176
     0
 41
30.0
176
     0
 62
     5
 63
     7
421
 16777215
176
     0
 74
     1
176
     0
 91
        4
176
     0
 64
     7
176
     0
 65
   257
176
     0
 75
     1
176
     0
175
     1
176
     0
 42
1.0
176
     0
 92
        9
176
     2
 66
     7
176
     0
 43
1.0
176
     0
 76
     1
176
     0
 77
     6
176
     0
 78
     2
176
     0
 67
     7
176
     0
 79
     5
176
     0
170
     0
176
     0
171
     0
176
     0
290
     0
176
     0
 93
        1
176
     0
 44
0.0
176
     0
173
     0
176
     0
  0
VISUALSTYLE
  5
F9
102
{ACAD_REACTORS
330
EF
102
}
102
{ACAD_XDICTIONARY
360
5A2
102
}
330
EF
100
AcDbVisualStyle
  2
Realistic
 70
     8
177
     2
291
     0
 71
     2
176
     1
 72
     2
176
     1
 73
     1
176
     1
 90
        0
176
     1
 40
-0.6
176
     1
 41
-30.0
176
     1
 62
     5
 63
     7
421
 16777215
176
     1
 74
     1
176
     1
 91
        0
176
     1
 64
     7
176
     1
 65
   257
176
     1
 75
     1
176
     1
175
     1
176
     1
 42
1.0
176
     1
 92
        8
176
     1
 66
     8
424
  7895160
176
     1
 43
1.0
176
     1
 76
     1
176
     1
 77
     6
176
     1
 78
     2
176
     1
 67
     7
176
     1
 79
     5
176
     1
170
     0
176
     1
171
     0
176
     1
290
     0
176
     1
 93
       13
176
     1
 44
0.0
176
     1
173
     0
176
     1
  0
VISUALSTYLE
  5
580
102
{ACAD_REACTORS
330
EF
102
}
102
{ACAD_XDICTIONARY
360
5B8
102
}
330
EF
100
AcDbVisualStyle
  2
Shaded
 70
    27
177
     2
291
     0
 71
     2
176
     1
 72
     2
176
     1
 73
     1
176
     1
 90
        2
176
     1
 40
0.6
176
     1
 41
30.0
176
     1
 62
     5
 63
     7
421
 16777215
176
     1
 74
     0
176
     1
 91
        4
176
     1
 64
     7
176
     1
 65
   257
176
     1
 75
     1
176
     1
175
     1
176
     1
 42
1.0
176
     1
 92
        8
176
     1
 66
   257
176
     1
 43
1.0
176
     1
 76
     1
176
     1
 77
     6
176
     1
 78
     2
176
     1
 67
     8
425
  7895160
176
     1
 79
     3
176
     1
170
     0
176
     1
171
     0
176
     1
290
     0
176
     1
 93
        5
176
     1
 44
0.0
176
     1
173
     0
176
     1
  0
VISUALSTYLE
  5
57F
102
{ACAD_REACTORS
330
EF
102
}
102
{ACAD_XDICTIONARY
360
5B6
102
}
330
EF
100
AcDbVisualStyle
  2
Shaded with edges
 70
    26
177
     2
291
     0
 71
     2
176
     1
 72
     2
176
     1
 73
     1
176
     1
 90
        2
176
     1
 40
0.6
176
     1
 41
30.0
176
     1
 62
     5
 63
     7
421
 16777215
176
     1
 74
     1
176
     1
 91
       10
176
     1
 64
     7
176
     1
 65
   257
176
     1
 75
     2
176
     1
175
     1
176
     1
 42
1.0
176
     1
 92
        8
176
     1
 66
   257
176
     1
 43
1.0
176
     1
 76
     1
176
     1
 77
     6
176
     1
 78
     2
176
     1
 67
     7
176
     1
 79
     3
176
     1
170
     0
176
     1
171
     0
176
     1
290
     0
176
     1
 93
        5
176
     1
 44
0.0
176
     1
173
     0
176
     1
  0
VISUALSTYLE
  5
57C
102
{ACAD_REACTORS
330
EF
102
}
102
{ACAD_XDICTIONARY
360
5B0
102
}
330
EF
100
AcDbVisualStyle
  2
Shades of Gray
 70
    23
177
     2
291
     0
 71
     2
176
     1
 72
     2
176
     1
 73
     3
176
     1
 90
        0
176
     1
 40
0.6
176
     1
 41
30.0
176
     1
 62
     5
 63
     7
421
 16777215
176
     1
 74
     2
176
     1
 91
        2
176
     1
 64
     7
176
     1
 65
     7
176
     1
 75
     1
176
     1
175
     1
176
     1
 42
40.0
176
     1
 92
        8
176
     1
 66
     7
176
     1
 43
1.0
176
     1
 76
     1
176
     1
 77
     6
176
     1
 78
     2
176
     1
 67
     7
176
     1
 79
     3
176
     1
170
     0
176
     1
171
     0
176
     1
290
     0
176
     1
 93
        1
176
     1
 44
0.0
176
     1
173
     0
176
     1
  0
VISUALSTYLE
  5
57D
102
{ACAD_REACTORS
330
EF
102
}
102
{ACAD_XDICTIONARY
360
5B2
102
}
330
EF
100
AcDbVisualStyle
  2
Sketchy
 70
    24
177
     2
291
     0
 71
     1
176
     1
 72
     2
176
     1
 73
     2
176
     1
 90
        0
176
     1
 40
0.6
176
     1
 41
30.0
176
     1
 62
     5
 63
     7
421
 16777215
176
     1
 74
     2
176
     1
 91
        2
176
     1
 64
     7
176
     1
 65
     7
176
     1
 75
     1
176
     1
175
     1
176
     1
 42
40.0
176
     1
 92
       11
176
     1
 66
     7
176
     1
 43
1.0
176
     1
 76
     1
176
     1
 77
     6
176
     1
 78
     2
176
     1
 67
     7
176
     1
 79
     6
176
     1
170
     0
176
     1
171
     0
176
     1
290
     0
176
     1
 93
        1
176
     1
 44
0.0
176
     1
173
     0
176
     1
  0
VISUALSTYLE
  5
FC
102
{ACAD_REACTORS
330
EF
102
}
102
{ACAD_XDICTIONARY
360
5A4
102
}
330
EF
100
AcDbVisualStyle
  2
Thicken
 70
    13
177
     2
291
     1
 71
     2
176
     1
 72
     2
176
     1
 73
     1
176
     1
 90
        0
176
     1
 40
-0.6
176
     1
 41
-30.0
176
     1
 62
     5
 63
     7
421
 16777215
176
     1
 74
     1
176
     1
 91
        4
176
     1
 64
     7
176
     1
 65
   257
176
     1
 75
     1
176
     1
175
     1
176
     1
 42
1.0
176
     1
 92
       12
176
     1
 66
     7
176
     1
 43
1.0
176
     1
 76
     1
176
     1
 77
     6
176
     1
 78
     2
176
     1
 67
     7
176
     1
 79
     5
176
     1
170
     0
176
     1
171
     0
176
     1
290
     0
176
     1
 93
        1
176
     1
 44
0.0
176
     1
173
     0
176
     1
  0
VISUALSTYLE
  5
577
102
{ACAD_REACTORS
330
EF
102
}
102
{ACAD_XDICTIONARY
360
5A6
102
}
330
EF
100
AcDbVisualStyle
  2
Wireframe
 70
     5
177
     2
291
     0
 71
     0
176
     1
 72
     2
176
     1
 73
     0
176
     1
 90
        0
176
     1
 40
0.6
176
     1
 41
30.0
176
     1
 62
     5
 63
     7
421
 16777215
176
     1
 74
     1
176
     1
 91
        4
176
     1
 64
     7
176
     1
 65
   257
176
     1
 75
     1
176
     1
175
     1
176
     1
 42
1.0
176
     1
 92
        0
176
     1
 66
   257
176
     1
 43
1.0
176
     1
 76
     1
176
     1
 77
     6
176
     1
 78
     2
176
     1
 67
     7
176
     1
 79
     3
176
     1
170
     0
176
     1
171
     0
176
     1
290
     0
176
     1
 93
        1
176
     1
 44
0.0
176
     1
173
     0
176
     1
  0
VISUALSTYLE
  5
57E
102
{ACAD_REACTORS
330
EF
102
}
102
{ACAD_XDICTIONARY
360
5B4
102
}
330
EF
100
AcDbVisualStyle
  2
X-Ray
 70
    25
177
     2
291
     0
 71
     2
176
     1
 72
     2
176
     1
 73
     1
176
     1
 90
        1
176
     1
 40
0.5
176
     1
 41
30.0
176
     1
 62
     5
 63
     7
421
 16777215
176
     1
 74
     1
176
     1
 91
        0
176
     1
 64
     7
176
     1
 65
   257
176
     1
 75
     1
176
     1
175
     1
176
     1
 42
1.0
176
     1
 92
        8
176
     1
 66
     7
176
     1
 43
1.0
176
     1
 76
     1
176
     1
 77
     6
176
     1
 78
     2
176
     1
 67
     7
176
     1
 79
     3
176
     1
170
     0
176
     1
171
     0
176
     1
290
     0
176
     1
 93
       13
176
     1
 44
0.0
176
     1
173
     0
176
     1
  0
DICTIONARYVAR
  5
583
102
{ACAD_REACTORS
330
5E
102
}
330
5E
100
DictionaryVariables
280
     0
  1
1:1
  0
DICTIONARYVAR
  5
5BB
102
{ACAD_REACTORS
330
5E
102
}
330
5E
100
DictionaryVariables
280
     0
  1
Standard
  0
DICTIONARYVAR
  5
84
102
{ACAD_REACTORS
330
5E
102
}
330
5E
100
DictionaryVariables
280
     0
  1
Standard
  0
DICTIONARYVAR
  5
5F
102
{ACAD_REACTORS
330
5E
102
}
330
5E
100
DictionaryVariables
280
     0
  1
2
  0
DICTIONARYVAR
  5
63
102
{ACAD_REACTORS
330
5E
102
}
330
5E
100
DictionaryVariables
280
     0
  1
1
  0
DICTIONARYVAR
  5
5BC
102
{ACAD_REACTORS
330
5E
102
}
330
5E
100
DictionaryVariables
280
     0
  1
0
  0
DICTIONARYVAR
  5
5BD
102
{ACAD_REACTORS
330
5E
102
}
330
5E
100
DictionaryVariables
280
     0
  1
0
  0
XRECORD
  5
2C8
102
{ACAD_REACTORS
330
2C7
102
}
330
2C7
100
AcDbXrecord
280
     1
 40
0.000001
  0
XRECORD
  5
2CB
102
{ACAD_REACTORS
330
2C7
102
}
330
2C7
100
AcDbXrecord
280
     1
 70
     0
  0
XRECORD
  5
2CA
102
{ACAD_REACTORS
330
2C7
102
}
330
2C7
100
AcDbXrecord
280
     1
 70
     0
  0
XRECORD
  5
2C9
102
{ACAD_REACTORS
330
2C7
102
}
330
2C7
100
AcDbXrecord
280
     1
 70
     0
  0
DICTIONARY
  5
584
330
7F
100
AcDbDictionary
280
     1
281
     1
  3
ACAD_ROUNDTRIP_2008_TABLESTYLE_CELLSTYLEMAP
360
585
  0
DICTIONARY
  5
586
330
F5
100
AcDbDictionary
280
     1
281
     1
  3
ACAD_XREC_ROUNDTRIP
360
587
  0
DICTIONARY
  5
588
330
F7
100
AcDbDictionary
280
     1
281
     1
  3
ACAD_XREC_ROUNDTRIP
360
589
  0
DICTIONARY
  5
58A
330
F6
100
AcDbDictionary
280
     1
281
     1
  3
ACAD_XREC_ROUNDTRIP
360
58B
  0
DICTIONARY
  5
58C
330
F4
100
AcDbDictionary
280
     1
281
     1
  3
ACAD_XREC_ROUNDTRIP
360
58D
  0
DICTIONARY
  5
58E
330
FB
100
AcDbDictionary
280
     1
281
     1
  3
ACAD_XREC_ROUNDTRIP
360
58F
  0
DICTIONARY
  5
590
330
FF
100
AcDbDictionary
280
     1
281
     1
  3
ACAD_XREC_ROUNDTRIP
360
591
  0
DICTIONARY
  5
592
330
F8
100
AcDbDictionary
280
     1
281
     1
  3
ACAD_XREC_ROUNDTRIP
360
593
  0
DICTIONARY
  5
594
330
FA
100
AcDbDictionary
280
     1
281
     1
  3
ACAD_XREC_ROUNDTRIP
360
595
  0
DICTIONARY
  5
5AE
330
57B
100
AcDbDictionary
280
     1
281
     1
  3
ACAD_XREC_ROUNDTRIP
360
5AF
  0
DICTIONARY
  5
596
330
FE
100
AcDbDictionary
280
     1
281
     1
  3
ACAD_XREC_ROUNDTRIP
360
597
  0
DICTIONARY
  5
598
330
F0
100
AcDbDictionary
280
     1
281
     1
  3
ACAD_XREC_ROUNDTRIP
360
599
  0
DICTIONARY
  5
59A
330
F1
100
AcDbDictionary
280
     1
281
     1
  3
ACAD_XREC_ROUNDTRIP
360
59B
  0
DICTIONARY
  5
59C
330
F2
100
AcDbDictionary
280
     1
281
     1
  3
ACAD_XREC_ROUNDTRIP
360
59D
  0
DICTIONARY
  5
59E
330
F3
100
AcDbDictionary
280
     1
281
     1
  3
ACAD_XREC_ROUNDTRIP
360
59F
  0
DICTIONARY
  5
5A8
330
578
100
AcDbDictionary
280
     1
281
     1
  3
ACAD_XREC_ROUNDTRIP
360
5A9
  0
DICTIONARY
  5
5AA
330
579
100
AcDbDictionary
280
     1
281
     1
  3
ACAD_XREC_ROUNDTRIP
360
5AB
  0
DICTIONARY
  5
5A0
330
FD
100
AcDbDictionary
280
     1
281
     1
  3
ACAD_XREC_ROUNDTRIP
360
5A1
  0
DICTIONARY
  5
5AC
330
57A
100
AcDbDictionary
280
     1
281
     1
  3
ACAD_XREC_ROUNDTRIP
360
5AD
  0
DICTIONARY
  5
5A2
330
F9
100
AcDbDictionary
280
     1
281
     1
  3
ACAD_XREC_ROUNDTRIP
360
5A3
  0
DICTIONARY
  5
5B8
330
580
100
AcDbDictionary
280
     1
281
     1
  3
ACAD_XREC_ROUNDTRIP
360
5B9
  0
DICTIONARY
  5
5B6
330
57F
100
AcDbDictionary
280
     1
281
     1
  3
ACAD_XREC_ROUNDTRIP
360
5B7
  0
DICTIONARY
  5
5B0
330
57C
100
AcDbDictionary
280
     1
281
     1
  3
ACAD_XREC_ROUNDTRIP
360
5B1
  0
DICTIONARY
  5
5B2
330
57D
100
AcDbDictionary
280
     1
281
     1
  3
ACAD_XREC_ROUNDTRIP
360
5B3
  0
DICTIONARY
  5
5A4
330
FC
100
AcDbDictionary
280
     1
281
     1
  3
ACAD_XREC_ROUNDTRIP
360
5A5
  0
DICTIONARY
  5
5A6
330
577
100
AcDbDictionary
280
     1
281
     1
  3
ACAD_XREC_ROUNDTRIP
360
5A7
  0
DICTIONARY
  5
5B4
330
57E
100
AcDbDictionary
280
     1
281
     1
  3
ACAD_XREC_ROUNDTRIP
360
5B5
  0
CELLSTYLEMAP
  5
585
102
{ACAD_REACTORS
330
584
102
}
330
584
100
AcDbCellStyleMap
 90
        3
300
CELLSTYLE
  1
TABLEFORMAT_BEGIN
 90
        5
170
     1
 91
        0
 92
    32768
 62
   257
 93
        1
300
CONTENTFORMAT
  1
CONTENTFORMAT_BEGIN
 90
        0
 91
        0
 92
      512
 93
        0
300

 40
0.0
140
1.0
 94
        5
 62
     0
340
11
144
6.0
309
CONTENTFORMAT_END
171
     1
301
MARGIN
  1
CELLMARGIN_BEGIN
 40
1.5
 40
1.5
 40
1.5
 40
1.5
 40
0.18
 40
0.18
309
CELLMARGIN_END
 94
        6
 95
        1
302
GRIDFORMAT
  1
GRIDFORMAT_BEGIN
 90
        0
 91
        1
 62
     0
 92
       -2
340
0
 93
        0
 40
0.045
309
GRIDFORMAT_END
 95
        2
302
GRIDFORMAT
  1
GRIDFORMAT_BEGIN
 90
        0
 91
        1
 62
     0
 92
       -2
340
0
 93
        0
 40
0.045
309
GRIDFORMAT_END
 95
        4
302
GRIDFORMAT
  1
GRIDFORMAT_BEGIN
 90
        0
 91
        1
 62
     0
 92
       -2
340
0
 93
        0
 40
0.045
309
GRIDFORMAT_END
 95
        8
302
GRIDFORMAT
  1
GRIDFORMAT_BEGIN
 90
        0
 91
        1
 62
     0
 92
       -2
340
0
 93
        0
 40
0.045
309
GRIDFORMAT_END
 95
       16
302
GRIDFORMAT
  1
GRIDFORMAT_BEGIN
 90
        0
 91
        1
 62
     0
 92
       -2
340
0
 93
        0
 40
0.045
309
GRIDFORMAT_END
 95
       32
302
GRIDFORMAT
  1
GRIDFORMAT_BEGIN
 90
        0
 91
        1
 62
     0
 92
       -2
340
0
 93
        0
 40
0.045
309
GRIDFORMAT_END
309
TABLEFORMAT_END
  1
CELLSTYLE_BEGIN
 90
        1
 91
        1
300
_TITLE
309
CELLSTYLE_END
300
CELLSTYLE
  1
TABLEFORMAT_BEGIN
 90
        5
170
     1
 91
        0
 92
        0
 62
   257
 93
        1
300
CONTENTFORMAT
  1
CONTENTFORMAT_BEGIN
 90
        0
 91
        0
 92
      512
 93
        0
300

 40
0.0
140
1.0
 94
        5
 62
     0
340
11
144
4.5
309
CONTENTFORMAT_END
171
     1
301
MARGIN
  1
CELLMARGIN_BEGIN
 40
1.5
 40
1.5
 40
1.5
 40
1.5
 40
0.18
 40
0.18
309
CELLMARGIN_END
 94
        6
 95
        1
302
GRIDFORMAT
  1
GRIDFORMAT_BEGIN
 90
        0
 91
        1
 62
     0
 92
       -2
340
0
 93
        0
 40
0.045
309
GRIDFORMAT_END
 95
        2
302
GRIDFORMAT
  1
GRIDFORMAT_BEGIN
 90
        0
 91
        1
 62
     0
 92
       -2
340
0
 93
        0
 40
0.045
309
GRIDFORMAT_END
 95
        4
302
GRIDFORMAT
  1
GRIDFORMAT_BEGIN
 90
        0
 91
        1
 62
     0
 92
       -2
340
0
 93
        0
 40
0.045
309
GRIDFORMAT_END
 95
        8
302
GRIDFORMAT
  1
GRIDFORMAT_BEGIN
 90
        0
 91
        1
 62
     0
 92
       -2
340
0
 93
        0
 40
0.045
309
GRIDFORMAT_END
 95
       16
302
GRIDFORMAT
  1
GRIDFORMAT_BEGIN
 90
        0
 91
        1
 62
     0
 92
       -2
340
0
 93
        0
 40
0.045
309
GRIDFORMAT_END
 95
       32
302
GRIDFORMAT
  1
GRIDFORMAT_BEGIN
 90
        0
 91
        1
 62
     0
 92
       -2
340
0
 93
        0
 40
0.045
309
GRIDFORMAT_END
309
TABLEFORMAT_END
  1
CELLSTYLE_BEGIN
 90
        2
 91
        1
300
_HEADER
309
CELLSTYLE_END
300
CELLSTYLE
  1
TABLEFORMAT_BEGIN
 90
        5
170
     1
 91
        0
 92
        0
 62
   257
 93
        1
300
CONTENTFORMAT
  1
CONTENTFORMAT_BEGIN
 90
        0
 91
        0
 92
      512
 93
        0
300

 40
0.0
140
1.0
 94
        2
 62
     0
340
11
144
4.5
309
CONTENTFORMAT_END
171
     1
301
MARGIN
  1
CELLMARGIN_BEGIN
 40
1.5
 40
1.5
 40
1.5
 40
1.5
 40
0.18
 40
0.18
309
CELLMARGIN_END
 94
        6
 95
        1
302
GRIDFORMAT
  1
GRIDFORMAT_BEGIN
 90
        0
 91
        1
 62
     0
 92
       -2
340
0
 93
        0
 40
0.045
309
GRIDFORMAT_END
 95
        2
302
GRIDFORMAT
  1
GRIDFORMAT_BEGIN
 90
        0
 91
        1
 62
     0
 92
       -2
340
0
 93
        0
 40
0.045
309
GRIDFORMAT_END
 95
        4
302
GRIDFORMAT
  1
GRIDFORMAT_BEGIN
 90
        0
 91
        1
 62
     0
 92
       -2
340
0
 93
        0
 40
0.045
309
GRIDFORMAT_END
 95
        8
302
GRIDFORMAT
  1
GRIDFORMAT_BEGIN
 90
        0
 91
        1
 62
     0
 92
       -2
340
0
 93
        0
 40
0.045
309
GRIDFORMAT_END
 95
       16
302
GRIDFORMAT
  1
GRIDFORMAT_BEGIN
 90
        0
 91
        1
 62
     0
 92
       -2
340
0
 93
        0
 40
0.045
309
GRIDFORMAT_END
 95
       32
302
GRIDFORMAT
  1
GRIDFORMAT_BEGIN
 90
        0
 91
        1
 62
     0
 92
       -2
340
0
 93
        0
 40
0.045
309
GRIDFORMAT_END
309
TABLEFORMAT_END
  1
CELLSTYLE_BEGIN
 90
        3
 91
        2
300
_DATA
309
CELLSTYLE_END
  0
XRECORD
  5
587
102
{ACAD_REACTORS
330
586
102
}
330
586
100
AcDbXrecord
280
     1
102
RTVSPost2010Prop28
280
     1
102
RTVSPost2010PropOp28
 70
     1
102
RTVSPost2010Prop29
280
     1
102
RTVSPost2010PropOp29
 70
     1
102
RTVSPost2010Prop30
280
     0
102
RTVSPost2010PropOp30
 70
     1
102
RTVSPost2010Prop31
280
     0
102
RTVSPost2010PropOp31
 70
     1
102
RTVSPost2010Prop32
280
     0
102
RTVSPost2010PropOp32
 70
     1
102
RTVSPost2010Prop33
280
     0
102
RTVSPost2010PropOp33
 70
     1
102
RTVSPost2010Prop34
280
     0
102
RTVSPost2010PropOp34
 70
     1
102
RTVSPost2010Prop35
280
     0
102
RTVSPost2010PropOp35
 70
     1
102
RTVSPost2010Prop36
280
     0
102
RTVSPost2010PropOp36
 70
     1
102
RTVSPost2010Prop37
 90
       50
102
RTVSPost2010PropOp37
 70
     1
102
RTVSPost2010Prop38
140
0.0
102
RTVSPost2010PropOp38
 70
     1
102
RTVSPost2010Prop39
140
1.0
102
RTVSPost2010PropOp39
 70
     1
102
RTVSPost2010Prop40
 90
        0
102
RTVSPost2010PropOp40
 70
     1
102
RTVSPost2010Prop41ColorIndex
 90
       18
102
RTVSPost2010Prop41ColorRGB
 90
        0
102
RTVSPost2010PropOp41
 70
     1
102
RTVSPost2010Prop42
 90
       50
102
RTVSPost2010PropOp42
 70
     1
102
RTVSPost2010Prop43
 90
        3
102
RTVSPost2010PropOp43
 70
     1
102
RTVSPost2010Prop44ColorIndex
 90
        5
102
RTVSPost2010Prop44ColorRGB
 90
      255
102
RTVSPost2010PropOp44
 70
     1
102
RTVSPost2010Prop45
280
     0
102
RTVSPost2010PropOp45
 70
     1
102
RTVSPost2010Prop46
 90
       50
102
RTVSPost2010PropOp46
 70
     1
102
RTVSPost2010Prop47
 90
       50
102
RTVSPost2010PropOp47
 70
     1
102
RTVSPost2010Prop48
 90
       50
102
RTVSPost2010PropOp48
 70
     1
102
RTVSPost2010Prop49
280
     0
102
RTVSPost2010PropOp49
 70
     1
102
RTVSPost2010Prop50
 90
       50
102
RTVSPost2010PropOp50
 70
     1
102
RTVSPost2010Prop51ColorIndex
 90
      256
102
RTVSPost2010Prop51ColorRGB
 90
-16777216
102
RTVSPost2010PropOp51
 70
     0
102
RTVSPost2010Prop52
140
1.0
102
RTVSPost2010PropOp52
 70
     0
102
RTVSPost2010Prop53
 90
        2
102
RTVSPost2010PropOp53
 70
     1
102
RTVSPost2010Prop54
  1
strokes_ogs.tif
102
RTVSPost2010PropOp54
 70
     1
102
RTVSPost2010Prop55
280
     0
102
RTVSPost2010PropOp55
 70
     1
102
RTVSPost2010Prop56
140
1.0
102
RTVSPost2010PropOp56
 70
     1
102
RTVSPost2010Prop57
140
1.0
102
RTVSPost2010PropOp57
 70
     1
  0
XRECORD
  5
589
102
{ACAD_REACTORS
330
588
102
}
330
588
100
AcDbXrecord
280
     1
102
RTVSPost2010Prop28
280
     0
102
RTVSPost2010PropOp28
 70
     1
102
RTVSPost2010Prop29
280
     1
102
RTVSPost2010PropOp29
 70
     1
102
RTVSPost2010Prop30
280
     1
102
RTVSPost2010PropOp30
 70
     1
102
RTVSPost2010Prop31
280
     0
102
RTVSPost2010PropOp31
 70
     1
102
RTVSPost2010Prop32
280
     0
102
RTVSPost2010PropOp32
 70
     1
102
RTVSPost2010Prop33
280
     0
102
RTVSPost2010PropOp33
 70
     1
102
RTVSPost2010Prop34
280
     0
102
RTVSPost2010PropOp34
 70
     1
102
RTVSPost2010Prop35
280
     0
102
RTVSPost2010PropOp35
 70
     1
102
RTVSPost2010Prop36
280
     0
102
RTVSPost2010PropOp36
 70
     1
102
RTVSPost2010Prop37
 90
       50
102
RTVSPost2010PropOp37
 70
     1
102
RTVSPost2010Prop38
140
0.0
102
RTVSPost2010PropOp38
 70
     1
102
RTVSPost2010Prop39
140
1.0
102
RTVSPost2010PropOp39
 70
     1
102
RTVSPost2010Prop40
 90
        0
102
RTVSPost2010PropOp40
 70
     1
102
RTVSPost2010Prop41ColorIndex
 90
       18
102
RTVSPost2010Prop41ColorRGB
 90
        0
102
RTVSPost2010PropOp41
 70
     1
102
RTVSPost2010Prop42
 90
       50
102
RTVSPost2010PropOp42
 70
     1
102
RTVSPost2010Prop43
 90
        3
102
RTVSPost2010PropOp43
 70
     1
102
RTVSPost2010Prop44ColorIndex
 90
        5
102
RTVSPost2010Prop44ColorRGB
 90
      255
102
RTVSPost2010PropOp44
 70
     1
102
RTVSPost2010Prop45
280
     0
102
RTVSPost2010PropOp45
 70
     1
102
RTVSPost2010Prop46
 90
       50
102
RTVSPost2010PropOp46
 70
     1
102
RTVSPost2010Prop47
 90
       50
102
RTVSPost2010PropOp47
 70
     1
102
RTVSPost2010Prop48
 90
       50
102
RTVSPost2010PropOp48
 70
     1
102
RTVSPost2010Prop49
280
     0
102
RTVSPost2010PropOp49
 70
     1
102
RTVSPost2010Prop50
 90
       50
102
RTVSPost2010PropOp50
 70
     1
102
RTVSPost2010Prop51ColorIndex
 90
      256
102
RTVSPost2010Prop51ColorRGB
 90
-16777216
102
RTVSPost2010PropOp51
 70
     0
102
RTVSPost2010Prop52
140
1.0
102
RTVSPost2010PropOp52
 70
     0
102
RTVSPost2010Prop53
 90
        2
102
RTVSPost2010PropOp53
 70
     1
102
RTVSPost2010Prop54
  1
strokes_ogs.tif
102
RTVSPost2010PropOp54
 70
     1
102
RTVSPost2010Prop55
280
     0
102
RTVSPost2010PropOp55
 70
     1
102
RTVSPost2010Prop56
140
1.0
102
RTVSPost2010PropOp56
 70
     1
102
RTVSPost2010Prop57
140
1.0
102
RTVSPost2010PropOp57
 70
     1
  0
XRECORD
  5
58B
102
{ACAD_REACTORS
330
58A
102
}
330
58A
100
AcDbXrecord
280
     1
102
RTVSPost2010Prop28
280
     0
102
RTVSPost2010PropOp28
 70
     1
102
RTVSPost2010Prop29
280
     1
102
RTVSPost2010PropOp29
 70
     1
102
RTVSPost2010Prop30
280
     1
102
RTVSPost2010PropOp30
 70
     1
102
RTVSPost2010Prop31
280
     0
102
RTVSPost2010PropOp31
 70
     1
102
RTVSPost2010Prop32
280
     0
102
RTVSPost2010PropOp32
 70
     1
102
RTVSPost2010Prop33
280
     0
102
RTVSPost2010PropOp33
 70
     1
102
RTVSPost2010Prop34
280
     0
102
RTVSPost2010PropOp34
 70
     1
102
RTVSPost2010Prop35
280
     0
102
RTVSPost2010PropOp35
 70
     1
102
RTVSPost2010Prop36
280
     0
102
RTVSPost2010PropOp36
 70
     1
102
RTVSPost2010Prop37
 90
       50
102
RTVSPost2010PropOp37
 70
     1
102
RTVSPost2010Prop38
140
0.0
102
RTVSPost2010PropOp38
 70
     1
102
RTVSPost2010Prop39
140
1.0
102
RTVSPost2010PropOp39
 70
     1
102
RTVSPost2010Prop40
 90
        0
102
RTVSPost2010PropOp40
 70
     1
102
RTVSPost2010Prop41ColorIndex
 90
       18
102
RTVSPost2010Prop41ColorRGB
 90
        0
102
RTVSPost2010PropOp41
 70
     1
102
RTVSPost2010Prop42
 90
       50
102
RTVSPost2010PropOp42
 70
     1
102
RTVSPost2010Prop43
 90
        3
102
RTVSPost2010PropOp43
 70
     1
102
RTVSPost2010Prop44ColorIndex
 90
        5
102
RTVSPost2010Prop44ColorRGB
 90
      255
102
RTVSPost2010PropOp44
 70
     1
102
RTVSPost2010Prop45
280
     0
102
RTVSPost2010PropOp45
 70
     1
102
RTVSPost2010Prop46
 90
       50
102
RTVSPost2010PropOp46
 70
     1
102
RTVSPost2010Prop47
 90
       50
102
RTVSPost2010PropOp47
 70
     1
102
RTVSPost2010Prop48
 90
       50
102
RTVSPost2010PropOp48
 70
     1
102
RTVSPost2010Prop49
280
     0
102
RTVSPost2010PropOp49
 70
     1
102
RTVSPost2010Prop50
 90
       50
102
RTVSPost2010PropOp50
 70
     1
102
RTVSPost2010Prop51ColorIndex
 90
      256
102
RTVSPost2010Prop51ColorRGB
 90
-16777216
102
RTVSPost2010PropOp51
 70
     0
102
RTVSPost2010Prop52
140
1.0
102
RTVSPost2010PropOp52
 70
     0
102
RTVSPost2010Prop53
 90
        2
102
RTVSPost2010PropOp53
 70
     1
102
RTVSPost2010Prop54
  1
strokes_ogs.tif
102
RTVSPost2010PropOp54
 70
     1
102
RTVSPost2010Prop55
280
     0
102
RTVSPost2010PropOp55
 70
     1
102
RTVSPost2010Prop56
140
1.0
102
RTVSPost2010PropOp56
 70
     1
102
RTVSPost2010Prop57
140
1.0
102
RTVSPost2010PropOp57
 70
     1
  0
XRECORD
  5
58D
102
{ACAD_REACTORS
330
58C
102
}
330
58C
100
AcDbXrecord
280
     1
102
RTVSPost2010Prop28
280
     0
102
RTVSPost2010PropOp28
 70
     1
102
RTVSPost2010Prop29
280
     1
102
RTVSPost2010PropOp29
 70
     1
102
RTVSPost2010Prop30
280
     1
102
RTVSPost2010PropOp30
 70
     1
102
RTVSPost2010Prop31
280
     0
102
RTVSPost2010PropOp31
 70
     1
102
RTVSPost2010Prop32
280
     0
102
RTVSPost2010PropOp32
 70
     1
102
RTVSPost2010Prop33
280
     0
102
RTVSPost2010PropOp33
 70
     1
102
RTVSPost2010Prop34
280
     0
102
RTVSPost2010PropOp34
 70
     1
102
RTVSPost2010Prop35
280
     0
102
RTVSPost2010PropOp35
 70
     1
102
RTVSPost2010Prop36
280
     0
102
RTVSPost2010PropOp36
 70
     1
102
RTVSPost2010Prop37
 90
       50
102
RTVSPost2010PropOp37
 70
     1
102
RTVSPost2010Prop38
140
0.0
102
RTVSPost2010PropOp38
 70
     1
102
RTVSPost2010Prop39
140
1.0
102
RTVSPost2010PropOp39
 70
     1
102
RTVSPost2010Prop40
 90
        0
102
RTVSPost2010PropOp40
 70
     1
102
RTVSPost2010Prop41ColorIndex
 90
       18
102
RTVSPost2010Prop41ColorRGB
 90
        0
102
RTVSPost2010PropOp41
 70
     1
102
RTVSPost2010Prop42
 90
       50
102
RTVSPost2010PropOp42
 70
     1
102
RTVSPost2010Prop43
 90
        3
102
RTVSPost2010PropOp43
 70
     1
102
RTVSPost2010Prop44ColorIndex
 90
        5
102
RTVSPost2010Prop44ColorRGB
 90
      255
102
RTVSPost2010PropOp44
 70
     1
102
RTVSPost2010Prop45
280
     0
102
RTVSPost2010PropOp45
 70
     1
102
RTVSPost2010Prop46
 90
       50
102
RTVSPost2010PropOp46
 70
     1
102
RTVSPost2010Prop47
 90
       50
102
RTVSPost2010PropOp47
 70
     1
102
RTVSPost2010Prop48
 90
       50
102
RTVSPost2010PropOp48
 70
     1
102
RTVSPost2010Prop49
280
     0
102
RTVSPost2010PropOp49
 70
     1
102
RTVSPost2010Prop50
 90
       50
102
RTVSPost2010PropOp50
 70
     1
102
RTVSPost2010Prop51ColorIndex
 90
      256
102
RTVSPost2010Prop51ColorRGB
 90
-16777216
102
RTVSPost2010PropOp51
 70
     0
102
RTVSPost2010Prop52
140
1.0
102
RTVSPost2010PropOp52
 70
     0
102
RTVSPost2010Prop53
 90
        2
102
RTVSPost2010PropOp53
 70
     1
102
RTVSPost2010Prop54
  1
strokes_ogs.tif
102
RTVSPost2010PropOp54
 70
     1
102
RTVSPost2010Prop55
280
     0
102
RTVSPost2010PropOp55
 70
     1
102
RTVSPost2010Prop56
140
1.0
102
RTVSPost2010PropOp56
 70
     1
102
RTVSPost2010Prop57
140
1.0
102
RTVSPost2010PropOp57
 70
     1
  0
XRECORD
  5
58F
102
{ACAD_REACTORS
330
58E
102
}
330
58E
100
AcDbXrecord
280
     1
102
RTVSPost2010Prop28
280
     0
102
RTVSPost2010PropOp28
 70
     1
102
RTVSPost2010Prop29
280
     1
102
RTVSPost2010PropOp29
 70
     1
102
RTVSPost2010Prop30
280
     1
102
RTVSPost2010PropOp30
 70
     1
102
RTVSPost2010Prop31
280
     0
102
RTVSPost2010PropOp31
 70
     1
102
RTVSPost2010Prop32
280
     0
102
RTVSPost2010PropOp32
 70
     1
102
RTVSPost2010Prop33
280
     0
102
RTVSPost2010PropOp33
 70
     1
102
RTVSPost2010Prop34
280
     0
102
RTVSPost2010PropOp34
 70
     1
102
RTVSPost2010Prop35
280
     0
102
RTVSPost2010PropOp35
 70
     1
102
RTVSPost2010Prop36
280
     0
102
RTVSPost2010PropOp36
 70
     1
102
RTVSPost2010Prop37
 90
       50
102
RTVSPost2010PropOp37
 70
     1
102
RTVSPost2010Prop38
140
0.0
102
RTVSPost2010PropOp38
 70
     1
102
RTVSPost2010Prop39
140
1.0
102
RTVSPost2010PropOp39
 70
     1
102
RTVSPost2010Prop40
 90
        0
102
RTVSPost2010PropOp40
 70
     1
102
RTVSPost2010Prop41ColorIndex
 90
       18
102
RTVSPost2010Prop41ColorRGB
 90
        0
102
RTVSPost2010PropOp41
 70
     1
102
RTVSPost2010Prop42
 90
       50
102
RTVSPost2010PropOp42
 70
     1
102
RTVSPost2010Prop43
 90
        3
102
RTVSPost2010PropOp43
 70
     1
102
RTVSPost2010Prop44ColorIndex
 90
        5
102
RTVSPost2010Prop44ColorRGB
 90
      255
102
RTVSPost2010PropOp44
 70
     1
102
RTVSPost2010Prop45
280
     0
102
RTVSPost2010PropOp45
 70
     1
102
RTVSPost2010Prop46
 90
       50
102
RTVSPost2010PropOp46
 70
     1
102
RTVSPost2010Prop47
 90
       50
102
RTVSPost2010PropOp47
 70
     1
102
RTVSPost2010Prop48
 90
       50
102
RTVSPost2010PropOp48
 70
     1
102
RTVSPost2010Prop49
280
     0
102
RTVSPost2010PropOp49
 70
     1
102
RTVSPost2010Prop50
 90
       50
102
RTVSPost2010PropOp50
 70
     1
102
RTVSPost2010Prop51ColorIndex
 90
      256
102
RTVSPost2010Prop51ColorRGB
 90
-16777216
102
RTVSPost2010PropOp51
 70
     0
102
RTVSPost2010Prop52
140
1.0
102
RTVSPost2010PropOp52
 70
     0
102
RTVSPost2010Prop53
 90
        2
102
RTVSPost2010PropOp53
 70
     1
102
RTVSPost2010Prop54
  1
strokes_ogs.tif
102
RTVSPost2010PropOp54
 70
     1
102
RTVSPost2010Prop55
280
     0
102
RTVSPost2010PropOp55
 70
     1
102
RTVSPost2010Prop56
140
1.0
102
RTVSPost2010PropOp56
 70
     1
102
RTVSPost2010Prop57
140
1.0
102
RTVSPost2010PropOp57
 70
     1
  0
XRECORD
  5
591
102
{ACAD_REACTORS
330
590
102
}
330
590
100
AcDbXrecord
280
     1
102
RTVSPost2010Prop28
280
     0
102
RTVSPost2010PropOp28
 70
     1
102
RTVSPost2010Prop29
280
     1
102
RTVSPost2010PropOp29
 70
     1
102
RTVSPost2010Prop30
280
     1
102
RTVSPost2010PropOp30
 70
     1
102
RTVSPost2010Prop31
280
     0
102
RTVSPost2010PropOp31
 70
     1
102
RTVSPost2010Prop32
280
     0
102
RTVSPost2010PropOp32
 70
     1
102
RTVSPost2010Prop33
280
     0
102
RTVSPost2010PropOp33
 70
     1
102
RTVSPost2010Prop34
280
     0
102
RTVSPost2010PropOp34
 70
     1
102
RTVSPost2010Prop35
280
     0
102
RTVSPost2010PropOp35
 70
     1
102
RTVSPost2010Prop36
280
     0
102
RTVSPost2010PropOp36
 70
     1
102
RTVSPost2010Prop37
 90
       50
102
RTVSPost2010PropOp37
 70
     1
102
RTVSPost2010Prop38
140
0.0
102
RTVSPost2010PropOp38
 70
     1
102
RTVSPost2010Prop39
140
1.0
102
RTVSPost2010PropOp39
 70
     1
102
RTVSPost2010Prop40
 90
        0
102
RTVSPost2010PropOp40
 70
     1
102
RTVSPost2010Prop41ColorIndex
 90
       18
102
RTVSPost2010Prop41ColorRGB
 90
        0
102
RTVSPost2010PropOp41
 70
     1
102
RTVSPost2010Prop42
 90
       50
102
RTVSPost2010PropOp42
 70
     1
102
RTVSPost2010Prop43
 90
        3
102
RTVSPost2010PropOp43
 70
     1
102
RTVSPost2010Prop44ColorIndex
 90
        5
102
RTVSPost2010Prop44ColorRGB
 90
      255
102
RTVSPost2010PropOp44
 70
     1
102
RTVSPost2010Prop45
280
     0
102
RTVSPost2010PropOp45
 70
     1
102
RTVSPost2010Prop46
 90
       50
102
RTVSPost2010PropOp46
 70
     1
102
RTVSPost2010Prop47
 90
       50
102
RTVSPost2010PropOp47
 70
     1
102
RTVSPost2010Prop48
 90
       50
102
RTVSPost2010PropOp48
 70
     1
102
RTVSPost2010Prop49
280
     0
102
RTVSPost2010PropOp49
 70
     1
102
RTVSPost2010Prop50
 90
       50
102
RTVSPost2010PropOp50
 70
     1
102
RTVSPost2010Prop51ColorIndex
 90
      256
102
RTVSPost2010Prop51ColorRGB
 90
-16777216
102
RTVSPost2010PropOp51
 70
     0
102
RTVSPost2010Prop52
140
1.0
102
RTVSPost2010PropOp52
 70
     0
102
RTVSPost2010Prop53
 90
        2
102
RTVSPost2010PropOp53
 70
     1
102
RTVSPost2010Prop54
  1
strokes_ogs.tif
102
RTVSPost2010PropOp54
 70
     1
102
RTVSPost2010Prop55
280
     0
102
RTVSPost2010PropOp55
 70
     1
102
RTVSPost2010Prop56
140
1.0
102
RTVSPost2010PropOp56
 70
     1
102
RTVSPost2010Prop57
140
1.0
102
RTVSPost2010PropOp57
 70
     1
  0
XRECORD
  5
593
102
{ACAD_REACTORS
330
592
102
}
330
592
100
AcDbXrecord
280
     1
102
RTVSPost2010Prop28
280
     0
102
RTVSPost2010PropOp28
 70
     1
102
RTVSPost2010Prop29
280
     1
102
RTVSPost2010PropOp29
 70
     1
102
RTVSPost2010Prop30
280
     1
102
RTVSPost2010PropOp30
 70
     1
102
RTVSPost2010Prop31
280
     0
102
RTVSPost2010PropOp31
 70
     1
102
RTVSPost2010Prop32
280
     0
102
RTVSPost2010PropOp32
 70
     1
102
RTVSPost2010Prop33
280
     0
102
RTVSPost2010PropOp33
 70
     1
102
RTVSPost2010Prop34
280
     0
102
RTVSPost2010PropOp34
 70
     1
102
RTVSPost2010Prop35
280
     0
102
RTVSPost2010PropOp35
 70
     1
102
RTVSPost2010Prop36
280
     0
102
RTVSPost2010PropOp36
 70
     1
102
RTVSPost2010Prop37
 90
       50
102
RTVSPost2010PropOp37
 70
     1
102
RTVSPost2010Prop38
140
0.0
102
RTVSPost2010PropOp38
 70
     1
102
RTVSPost2010Prop39
140
1.0
102
RTVSPost2010PropOp39
 70
     1
102
RTVSPost2010Prop40
 90
        0
102
RTVSPost2010PropOp40
 70
     1
102
RTVSPost2010Prop41ColorIndex
 90
       18
102
RTVSPost2010Prop41ColorRGB
 90
        0
102
RTVSPost2010PropOp41
 70
     1
102
RTVSPost2010Prop42
 90
       50
102
RTVSPost2010PropOp42
 70
     1
102
RTVSPost2010Prop43
 90
        3
102
RTVSPost2010PropOp43
 70
     1
102
RTVSPost2010Prop44ColorIndex
 90
        5
102
RTVSPost2010Prop44ColorRGB
 90
      255
102
RTVSPost2010PropOp44
 70
     1
102
RTVSPost2010Prop45
280
     0
102
RTVSPost2010PropOp45
 70
     1
102
RTVSPost2010Prop46
 90
       50
102
RTVSPost2010PropOp46
 70
     1
102
RTVSPost2010Prop47
 90
       50
102
RTVSPost2010PropOp47
 70
     1
102
RTVSPost2010Prop48
 90
       50
102
RTVSPost2010PropOp48
 70
     1
102
RTVSPost2010Prop49
280
     0
102
RTVSPost2010PropOp49
 70
     1
102
RTVSPost2010Prop50
 90
       50
102
RTVSPost2010PropOp50
 70
     1
102
RTVSPost2010Prop51ColorIndex
 90
      256
102
RTVSPost2010Prop51ColorRGB
 90
-16777216
102
RTVSPost2010PropOp51
 70
     0
102
RTVSPost2010Prop52
140
1.0
102
RTVSPost2010PropOp52
 70
     0
102
RTVSPost2010Prop53
 90
        2
102
RTVSPost2010PropOp53
 70
     1
102
RTVSPost2010Prop54
  1
strokes_ogs.tif
102
RTVSPost2010PropOp54
 70
     1
102
RTVSPost2010Prop55
280
     0
102
RTVSPost2010PropOp55
 70
     1
102
RTVSPost2010Prop56
140
1.0
102
RTVSPost2010PropOp56
 70
     1
102
RTVSPost2010Prop57
140
1.0
102
RTVSPost2010PropOp57
 70
     1
  0
XRECORD
  5
595
102
{ACAD_REACTORS
330
594
102
}
330
594
100
AcDbXrecord
280
     1
102
RTVSPost2010Prop28
280
     0
102
RTVSPost2010PropOp28
 70
     1
102
RTVSPost2010Prop29
280
     1
102
RTVSPost2010PropOp29
 70
     1
102
RTVSPost2010Prop30
280
     1
102
RTVSPost2010PropOp30
 70
     1
102
RTVSPost2010Prop31
280
     0
102
RTVSPost2010PropOp31
 70
     1
102
RTVSPost2010Prop32
280
     0
102
RTVSPost2010PropOp32
 70
     1
102
RTVSPost2010Prop33
280
     0
102
RTVSPost2010PropOp33
 70
     1
102
RTVSPost2010Prop34
280
     0
102
RTVSPost2010PropOp34
 70
     1
102
RTVSPost2010Prop35
280
     0
102
RTVSPost2010PropOp35
 70
     1
102
RTVSPost2010Prop36
280
     0
102
RTVSPost2010PropOp36
 70
     1
102
RTVSPost2010Prop37
 90
       50
102
RTVSPost2010PropOp37
 70
     1
102
RTVSPost2010Prop38
140
0.0
102
RTVSPost2010PropOp38
 70
     1
102
RTVSPost2010Prop39
140
1.0
102
RTVSPost2010PropOp39
 70
     1
102
RTVSPost2010Prop40
 90
        0
102
RTVSPost2010PropOp40
 70
     1
102
RTVSPost2010Prop41ColorIndex
 90
       18
102
RTVSPost2010Prop41ColorRGB
 90
        0
102
RTVSPost2010PropOp41
 70
     1
102
RTVSPost2010Prop42
 90
       50
102
RTVSPost2010PropOp42
 70
     1
102
RTVSPost2010Prop43
 90
        3
102
RTVSPost2010PropOp43
 70
     1
102
RTVSPost2010Prop44ColorIndex
 90
        5
102
RTVSPost2010Prop44ColorRGB
 90
      255
102
RTVSPost2010PropOp44
 70
     1
102
RTVSPost2010Prop45
280
     0
102
RTVSPost2010PropOp45
 70
     1
102
RTVSPost2010Prop46
 90
       50
102
RTVSPost2010PropOp46
 70
     1
102
RTVSPost2010Prop47
 90
       50
102
RTVSPost2010PropOp47
 70
     1
102
RTVSPost2010Prop48
 90
       50
102
RTVSPost2010PropOp48
 70
     1
102
RTVSPost2010Prop49
280
     0
102
RTVSPost2010PropOp49
 70
     1
102
RTVSPost2010Prop50
 90
       50
102
RTVSPost2010PropOp50
 70
     1
102
RTVSPost2010Prop51ColorIndex
 90
      256
102
RTVSPost2010Prop51ColorRGB
 90
-16777216
102
RTVSPost2010PropOp51
 70
     0
102
RTVSPost2010Prop52
140
1.0
102
RTVSPost2010PropOp52
 70
     0
102
RTVSPost2010Prop53
 90
        2
102
RTVSPost2010PropOp53
 70
     1
102
RTVSPost2010Prop54
  1
strokes_ogs.tif
102
RTVSPost2010PropOp54
 70
     1
102
RTVSPost2010Prop55
280
     0
102
RTVSPost2010PropOp55
 70
     1
102
RTVSPost2010Prop56
140
1.0
102
RTVSPost2010PropOp56
 70
     1
102
RTVSPost2010Prop57
140
1.0
102
RTVSPost2010PropOp57
 70
     1
  0
XRECORD
  5
5AF
102
{ACAD_REACTORS
330
5AE
102
}
330
5AE
100
AcDbXrecord
280
     1
102
RTVSPost2010Prop28
280
     0
102
RTVSPost2010PropOp28
 70
     0
102
RTVSPost2010Prop29
280
     1
102
RTVSPost2010PropOp29
 70
     0
102
RTVSPost2010Prop30
280
     1
102
RTVSPost2010PropOp30
 70
     0
102
RTVSPost2010Prop31
280
     0
102
RTVSPost2010PropOp31
 70
     0
102
RTVSPost2010Prop32
280
     0
102
RTVSPost2010PropOp32
 70
     0
102
RTVSPost2010Prop33
280
     0
102
RTVSPost2010PropOp33
 70
     0
102
RTVSPost2010Prop34
280
     0
102
RTVSPost2010PropOp34
 70
     0
102
RTVSPost2010Prop35
280
     0
102
RTVSPost2010PropOp35
 70
     0
102
RTVSPost2010Prop36
280
     0
102
RTVSPost2010PropOp36
 70
     0
102
RTVSPost2010Prop37
 90
       50
102
RTVSPost2010PropOp37
 70
     0
102
RTVSPost2010Prop38
140
0.0
102
RTVSPost2010PropOp38
 70
     0
102
RTVSPost2010Prop39
140
1.0
102
RTVSPost2010PropOp39
 70
     0
102
RTVSPost2010Prop40
 90
        0
102
RTVSPost2010PropOp40
 70
     0
102
RTVSPost2010Prop41ColorIndex
 90
       18
102
RTVSPost2010Prop41ColorRGB
 90
        0
102
RTVSPost2010PropOp41
 70
     0
102
RTVSPost2010Prop42
 90
       50
102
RTVSPost2010PropOp42
 70
     0
102
RTVSPost2010Prop43
 90
        3
102
RTVSPost2010PropOp43
 70
     0
102
RTVSPost2010Prop44ColorIndex
 90
        5
102
RTVSPost2010Prop44ColorRGB
 90
      255
102
RTVSPost2010PropOp44
 70
     0
102
RTVSPost2010Prop45
280
     0
102
RTVSPost2010PropOp45
 70
     0
102
RTVSPost2010Prop46
 90
       50
102
RTVSPost2010PropOp46
 70
     0
102
RTVSPost2010Prop47
 90
       50
102
RTVSPost2010PropOp47
 70
     0
102
RTVSPost2010Prop48
 90
       50
102
RTVSPost2010PropOp48
 70
     0
102
RTVSPost2010Prop49
280
     0
102
RTVSPost2010PropOp49
 70
     0
102
RTVSPost2010Prop50
 90
       50
102
RTVSPost2010PropOp50
 70
     0
102
RTVSPost2010Prop51ColorIndex
 90
      256
102
RTVSPost2010Prop51ColorRGB
 90
-16777216
102
RTVSPost2010PropOp51
 70
     0
102
RTVSPost2010Prop52
140
1.0
102
RTVSPost2010PropOp52
 70
     0
102
RTVSPost2010Prop53
 90
        2
102
RTVSPost2010PropOp53
 70
     0
102
RTVSPost2010Prop54
  1
strokes_ogs.tif
102
RTVSPost2010PropOp54
 70
     0
102
RTVSPost2010Prop55
280
     0
102
RTVSPost2010PropOp55
 70
     0
102
RTVSPost2010Prop56
140
1.0
102
RTVSPost2010PropOp56
 70
     0
102
RTVSPost2010Prop57
140
1.0
102
RTVSPost2010PropOp57
 70
     0
  0
XRECORD
  5
597
102
{ACAD_REACTORS
330
596
102
}
330
596
100
AcDbXrecord
280
     1
102
RTVSPost2010Prop28
280
     0
102
RTVSPost2010PropOp28
 70
     1
102
RTVSPost2010Prop29
280
     1
102
RTVSPost2010PropOp29
 70
     1
102
RTVSPost2010Prop30
280
     1
102
RTVSPost2010PropOp30
 70
     1
102
RTVSPost2010Prop31
280
     0
102
RTVSPost2010PropOp31
 70
     1
102
RTVSPost2010Prop32
280
     0
102
RTVSPost2010PropOp32
 70
     1
102
RTVSPost2010Prop33
280
     0
102
RTVSPost2010PropOp33
 70
     1
102
RTVSPost2010Prop34
280
     0
102
RTVSPost2010PropOp34
 70
     1
102
RTVSPost2010Prop35
280
     0
102
RTVSPost2010PropOp35
 70
     1
102
RTVSPost2010Prop36
280
     0
102
RTVSPost2010PropOp36
 70
     1
102
RTVSPost2010Prop37
 90
       50
102
RTVSPost2010PropOp37
 70
     1
102
RTVSPost2010Prop38
140
0.0
102
RTVSPost2010PropOp38
 70
     1
102
RTVSPost2010Prop39
140
1.0
102
RTVSPost2010PropOp39
 70
     1
102
RTVSPost2010Prop40
 90
        0
102
RTVSPost2010PropOp40
 70
     1
102
RTVSPost2010Prop41ColorIndex
 90
       18
102
RTVSPost2010Prop41ColorRGB
 90
        0
102
RTVSPost2010PropOp41
 70
     1
102
RTVSPost2010Prop42
 90
       50
102
RTVSPost2010PropOp42
 70
     1
102
RTVSPost2010Prop43
 90
        3
102
RTVSPost2010PropOp43
 70
     1
102
RTVSPost2010Prop44ColorIndex
 90
        5
102
RTVSPost2010Prop44ColorRGB
 90
      255
102
RTVSPost2010PropOp44
 70
     1
102
RTVSPost2010Prop45
280
     0
102
RTVSPost2010PropOp45
 70
     1
102
RTVSPost2010Prop46
 90
       50
102
RTVSPost2010PropOp46
 70
     1
102
RTVSPost2010Prop47
 90
       50
102
RTVSPost2010PropOp47
 70
     1
102
RTVSPost2010Prop48
 90
       50
102
RTVSPost2010PropOp48
 70
     1
102
RTVSPost2010Prop49
280
     0
102
RTVSPost2010PropOp49
 70
     1
102
RTVSPost2010Prop50
 90
       50
102
RTVSPost2010PropOp50
 70
     1
102
RTVSPost2010Prop51ColorIndex
 90
      256
102
RTVSPost2010Prop51ColorRGB
 90
-16777216
102
RTVSPost2010PropOp51
 70
     0
102
RTVSPost2010Prop52
140
1.0
102
RTVSPost2010PropOp52
 70
     0
102
RTVSPost2010Prop53
 90
        2
102
RTVSPost2010PropOp53
 70
     1
102
RTVSPost2010Prop54
  1
strokes_ogs.tif
102
RTVSPost2010PropOp54
 70
     1
102
RTVSPost2010Prop55
280
     0
102
RTVSPost2010PropOp55
 70
     1
102
RTVSPost2010Prop56
140
1.0
102
RTVSPost2010PropOp56
 70
     1
102
RTVSPost2010Prop57
140
1.0
102
RTVSPost2010PropOp57
 70
     1
  0
XRECORD
  5
599
102
{ACAD_REACTORS
330
598
102
}
330
598
100
AcDbXrecord
280
     1
102
RTVSPost2010Prop28
280
     0
102
RTVSPost2010PropOp28
 70
     1
102
RTVSPost2010Prop29
280
     1
102
RTVSPost2010PropOp29
 70
     1
102
RTVSPost2010Prop30
280
     1
102
RTVSPost2010PropOp30
 70
     1
102
RTVSPost2010Prop31
280
     0
102
RTVSPost2010PropOp31
 70
     1
102
RTVSPost2010Prop32
280
     0
102
RTVSPost2010PropOp32
 70
     1
102
RTVSPost2010Prop33
280
     0
102
RTVSPost2010PropOp33
 70
     1
102
RTVSPost2010Prop34
280
     0
102
RTVSPost2010PropOp34
 70
     1
102
RTVSPost2010Prop35
280
     0
102
RTVSPost2010PropOp35
 70
     1
102
RTVSPost2010Prop36
280
     0
102
RTVSPost2010PropOp36
 70
     1
102
RTVSPost2010Prop37
 90
       50
102
RTVSPost2010PropOp37
 70
     1
102
RTVSPost2010Prop38
140
0.0
102
RTVSPost2010PropOp38
 70
     1
102
RTVSPost2010Prop39
140
1.0
102
RTVSPost2010PropOp39
 70
     1
102
RTVSPost2010Prop40
 90
        0
102
RTVSPost2010PropOp40
 70
     1
102
RTVSPost2010Prop41ColorIndex
 90
       18
102
RTVSPost2010Prop41ColorRGB
 90
        0
102
RTVSPost2010PropOp41
 70
     1
102
RTVSPost2010Prop42
 90
       50
102
RTVSPost2010PropOp42
 70
     1
102
RTVSPost2010Prop43
 90
        3
102
RTVSPost2010PropOp43
 70
     1
102
RTVSPost2010Prop44ColorIndex
 90
        5
102
RTVSPost2010Prop44ColorRGB
 90
      255
102
RTVSPost2010PropOp44
 70
     1
102
RTVSPost2010Prop45
280
     0
102
RTVSPost2010PropOp45
 70
     1
102
RTVSPost2010Prop46
 90
       50
102
RTVSPost2010PropOp46
 70
     1
102
RTVSPost2010Prop47
 90
       50
102
RTVSPost2010PropOp47
 70
     1
102
RTVSPost2010Prop48
 90
       50
102
RTVSPost2010PropOp48
 70
     1
102
RTVSPost2010Prop49
280
     0
102
RTVSPost2010PropOp49
 70
     1
102
RTVSPost2010Prop50
 90
       50
102
RTVSPost2010PropOp50
 70
     1
102
RTVSPost2010Prop51ColorIndex
 90
      256
102
RTVSPost2010Prop51ColorRGB
 90
-16777216
102
RTVSPost2010PropOp51
 70
     0
102
RTVSPost2010Prop52
140
1.0
102
RTVSPost2010PropOp52
 70
     0
102
RTVSPost2010Prop53
 90
        2
102
RTVSPost2010PropOp53
 70
     1
102
RTVSPost2010Prop54
  1
strokes_ogs.tif
102
RTVSPost2010PropOp54
 70
     1
102
RTVSPost2010Prop55
280
     0
102
RTVSPost2010PropOp55
 70
     1
102
RTVSPost2010Prop56
140
1.0
102
RTVSPost2010PropOp56
 70
     1
102
RTVSPost2010Prop57
140
1.0
102
RTVSPost2010PropOp57
 70
     1
  0
XRECORD
  5
59B
102
{ACAD_REACTORS
330
59A
102
}
330
59A
100
AcDbXrecord
280
     1
102
RTVSPost2010Prop28
280
     0
102
RTVSPost2010PropOp28
 70
     1
102
RTVSPost2010Prop29
280
     1
102
RTVSPost2010PropOp29
 70
     1
102
RTVSPost2010Prop30
280
     1
102
RTVSPost2010PropOp30
 70
     1
102
RTVSPost2010Prop31
280
     0
102
RTVSPost2010PropOp31
 70
     1
102
RTVSPost2010Prop32
280
     0
102
RTVSPost2010PropOp32
 70
     1
102
RTVSPost2010Prop33
280
     0
102
RTVSPost2010PropOp33
 70
     1
102
RTVSPost2010Prop34
280
     0
102
RTVSPost2010PropOp34
 70
     1
102
RTVSPost2010Prop35
280
     0
102
RTVSPost2010PropOp35
 70
     1
102
RTVSPost2010Prop36
280
     0
102
RTVSPost2010PropOp36
 70
     1
102
RTVSPost2010Prop37
 90
       50
102
RTVSPost2010PropOp37
 70
     1
102
RTVSPost2010Prop38
140
0.0
102
RTVSPost2010PropOp38
 70
     1
102
RTVSPost2010Prop39
140
1.0
102
RTVSPost2010PropOp39
 70
     1
102
RTVSPost2010Prop40
 90
        0
102
RTVSPost2010PropOp40
 70
     1
102
RTVSPost2010Prop41ColorIndex
 90
       18
102
RTVSPost2010Prop41ColorRGB
 90
        0
102
RTVSPost2010PropOp41
 70
     1
102
RTVSPost2010Prop42
 90
       50
102
RTVSPost2010PropOp42
 70
     1
102
RTVSPost2010Prop43
 90
        3
102
RTVSPost2010PropOp43
 70
     1
102
RTVSPost2010Prop44ColorIndex
 90
        5
102
RTVSPost2010Prop44ColorRGB
 90
      255
102
RTVSPost2010PropOp44
 70
     1
102
RTVSPost2010Prop45
280
     0
102
RTVSPost2010PropOp45
 70
     1
102
RTVSPost2010Prop46
 90
       50
102
RTVSPost2010PropOp46
 70
     1
102
RTVSPost2010Prop47
 90
       50
102
RTVSPost2010PropOp47
 70
     1
102
RTVSPost2010Prop48
 90
       50
102
RTVSPost2010PropOp48
 70
     1
102
RTVSPost2010Prop49
280
     0
102
RTVSPost2010PropOp49
 70
     1
102
RTVSPost2010Prop50
 90
       50
102
RTVSPost2010PropOp50
 70
     1
102
RTVSPost2010Prop51ColorIndex
 90
      256
102
RTVSPost2010Prop51ColorRGB
 90
-16777216
102
RTVSPost2010PropOp51
 70
     0
102
RTVSPost2010Prop52
140
1.0
102
RTVSPost2010PropOp52
 70
     0
102
RTVSPost2010Prop53
 90
        2
102
RTVSPost2010PropOp53
 70
     1
102
RTVSPost2010Prop54
  1
strokes_ogs.tif
102
RTVSPost2010PropOp54
 70
     1
102
RTVSPost2010Prop55
280
     0
102
RTVSPost2010PropOp55
 70
     1
102
RTVSPost2010Prop56
140
1.0
102
RTVSPost2010PropOp56
 70
     1
102
RTVSPost2010Prop57
140
1.0
102
RTVSPost2010PropOp57
 70
     1
  0
XRECORD
  5
59D
102
{ACAD_REACTORS
330
59C
102
}
330
59C
100
AcDbXrecord
280
     1
102
RTVSPost2010Prop28
280
     0
102
RTVSPost2010PropOp28
 70
     1
102
RTVSPost2010Prop29
280
     1
102
RTVSPost2010PropOp29
 70
     1
102
RTVSPost2010Prop30
280
     1
102
RTVSPost2010PropOp30
 70
     1
102
RTVSPost2010Prop31
280
     0
102
RTVSPost2010PropOp31
 70
     1
102
RTVSPost2010Prop32
280
     0
102
RTVSPost2010PropOp32
 70
     1
102
RTVSPost2010Prop33
280
     0
102
RTVSPost2010PropOp33
 70
     1
102
RTVSPost2010Prop34
280
     0
102
RTVSPost2010PropOp34
 70
     1
102
RTVSPost2010Prop35
280
     0
102
RTVSPost2010PropOp35
 70
     1
102
RTVSPost2010Prop36
280
     0
102
RTVSPost2010PropOp36
 70
     1
102
RTVSPost2010Prop37
 90
       50
102
RTVSPost2010PropOp37
 70
     1
102
RTVSPost2010Prop38
140
0.0
102
RTVSPost2010PropOp38
 70
     1
102
RTVSPost2010Prop39
140
1.0
102
RTVSPost2010PropOp39
 70
     1
102
RTVSPost2010Prop40
 90
        0
102
RTVSPost2010PropOp40
 70
     1
102
RTVSPost2010Prop41ColorIndex
 90
       18
102
RTVSPost2010Prop41ColorRGB
 90
        0
102
RTVSPost2010PropOp41
 70
     1
102
RTVSPost2010Prop42
 90
       50
102
RTVSPost2010PropOp42
 70
     1
102
RTVSPost2010Prop43
 90
        3
102
RTVSPost2010PropOp43
 70
     1
102
RTVSPost2010Prop44ColorIndex
 90
        5
102
RTVSPost2010Prop44ColorRGB
 90
      255
102
RTVSPost2010PropOp44
 70
     1
102
RTVSPost2010Prop45
280
     0
102
RTVSPost2010PropOp45
 70
     1
102
RTVSPost2010Prop46
 90
       50
102
RTVSPost2010PropOp46
 70
     1
102
RTVSPost2010Prop47
 90
       50
102
RTVSPost2010PropOp47
 70
     1
102
RTVSPost2010Prop48
 90
       50
102
RTVSPost2010PropOp48
 70
     1
102
RTVSPost2010Prop49
280
     0
102
RTVSPost2010PropOp49
 70
     1
102
RTVSPost2010Prop50
 90
       50
102
RTVSPost2010PropOp50
 70
     1
102
RTVSPost2010Prop51ColorIndex
 90
      256
102
RTVSPost2010Prop51ColorRGB
 90
-16777216
102
RTVSPost2010PropOp51
 70
     0
102
RTVSPost2010Prop52
140
1.0
102
RTVSPost2010PropOp52
 70
     0
102
RTVSPost2010Prop53
 90
        2
102
RTVSPost2010PropOp53
 70
     1
102
RTVSPost2010Prop54
  1
strokes_ogs.tif
102
RTVSPost2010PropOp54
 70
     1
102
RTVSPost2010Prop55
280
     0
102
RTVSPost2010PropOp55
 70
     1
102
RTVSPost2010Prop56
140
1.0
102
RTVSPost2010PropOp56
 70
     1
102
RTVSPost2010Prop57
140
1.0
102
RTVSPost2010PropOp57
 70
     1
  0
XRECORD
  5
59F
102
{ACAD_REACTORS
330
59E
102
}
330
59E
100
AcDbXrecord
280
     1
102
RTVSPost2010Prop28
280
     0
102
RTVSPost2010PropOp28
 70
     1
102
RTVSPost2010Prop29
280
     1
102
RTVSPost2010PropOp29
 70
     1
102
RTVSPost2010Prop30
280
     1
102
RTVSPost2010PropOp30
 70
     1
102
RTVSPost2010Prop31
280
     0
102
RTVSPost2010PropOp31
 70
     1
102
RTVSPost2010Prop32
280
     0
102
RTVSPost2010PropOp32
 70
     1
102
RTVSPost2010Prop33
280
     0
102
RTVSPost2010PropOp33
 70
     1
102
RTVSPost2010Prop34
280
     0
102
RTVSPost2010PropOp34
 70
     1
102
RTVSPost2010Prop35
280
     0
102
RTVSPost2010PropOp35
 70
     1
102
RTVSPost2010Prop36
280
     0
102
RTVSPost2010PropOp36
 70
     1
102
RTVSPost2010Prop37
 90
       50
102
RTVSPost2010PropOp37
 70
     1
102
RTVSPost2010Prop38
140
0.0
102
RTVSPost2010PropOp38
 70
     1
102
RTVSPost2010Prop39
140
1.0
102
RTVSPost2010PropOp39
 70
     1
102
RTVSPost2010Prop40
 90
        0
102
RTVSPost2010PropOp40
 70
     1
102
RTVSPost2010Prop41ColorIndex
 90
       18
102
RTVSPost2010Prop41ColorRGB
 90
        0
102
RTVSPost2010PropOp41
 70
     1
102
RTVSPost2010Prop42
 90
       50
102
RTVSPost2010PropOp42
 70
     1
102
RTVSPost2010Prop43
 90
        3
102
RTVSPost2010PropOp43
 70
     1
102
RTVSPost2010Prop44ColorIndex
 90
        5
102
RTVSPost2010Prop44ColorRGB
 90
      255
102
RTVSPost2010PropOp44
 70
     1
102
RTVSPost2010Prop45
280
     0
102
RTVSPost2010PropOp45
 70
     1
102
RTVSPost2010Prop46
 90
       50
102
RTVSPost2010PropOp46
 70
     1
102
RTVSPost2010Prop47
 90
       50
102
RTVSPost2010PropOp47
 70
     1
102
RTVSPost2010Prop48
 90
       50
102
RTVSPost2010PropOp48
 70
     1
102
RTVSPost2010Prop49
280
     0
102
RTVSPost2010PropOp49
 70
     1
102
RTVSPost2010Prop50
 90
       50
102
RTVSPost2010PropOp50
 70
     1
102
RTVSPost2010Prop51ColorIndex
 90
      256
102
RTVSPost2010Prop51ColorRGB
 90
-16777216
102
RTVSPost2010PropOp51
 70
     0
102
RTVSPost2010Prop52
140
1.0
102
RTVSPost2010PropOp52
 70
     0
102
RTVSPost2010Prop53
 90
        2
102
RTVSPost2010PropOp53
 70
     1
102
RTVSPost2010Prop54
  1
strokes_ogs.tif
102
RTVSPost2010PropOp54
 70
     1
102
RTVSPost2010Prop55
280
     0
102
RTVSPost2010PropOp55
 70
     1
102
RTVSPost2010Prop56
140
1.0
102
RTVSPost2010PropOp56
 70
     1
102
RTVSPost2010Prop57
140
1.0
102
RTVSPost2010PropOp57
 70
     1
  0
XRECORD
  5
5A9
102
{ACAD_REACTORS
330
5A8
102
}
330
5A8
100
AcDbXrecord
280
     1
102
RTVSPost2010Prop28
280
     0
102
RTVSPost2010PropOp28
 70
     1
102
RTVSPost2010Prop29
280
     1
102
RTVSPost2010PropOp29
 70
     1
102
RTVSPost2010Prop30
280
     1
102
RTVSPost2010PropOp30
 70
     1
102
RTVSPost2010Prop31
280
     0
102
RTVSPost2010PropOp31
 70
     1
102
RTVSPost2010Prop32
280
     0
102
RTVSPost2010PropOp32
 70
     1
102
RTVSPost2010Prop33
280
     0
102
RTVSPost2010PropOp33
 70
     1
102
RTVSPost2010Prop34
280
     0
102
RTVSPost2010PropOp34
 70
     1
102
RTVSPost2010Prop35
280
     0
102
RTVSPost2010PropOp35
 70
     1
102
RTVSPost2010Prop36
280
     0
102
RTVSPost2010PropOp36
 70
     1
102
RTVSPost2010Prop37
 90
       50
102
RTVSPost2010PropOp37
 70
     1
102
RTVSPost2010Prop38
140
0.0
102
RTVSPost2010PropOp38
 70
     1
102
RTVSPost2010Prop39
140
1.0
102
RTVSPost2010PropOp39
 70
     1
102
RTVSPost2010Prop40
 90
        0
102
RTVSPost2010PropOp40
 70
     1
102
RTVSPost2010Prop41ColorIndex
 90
       18
102
RTVSPost2010Prop41ColorRGB
 90
        0
102
RTVSPost2010PropOp41
 70
     1
102
RTVSPost2010Prop42
 90
       50
102
RTVSPost2010PropOp42
 70
     1
102
RTVSPost2010Prop43
 90
        3
102
RTVSPost2010PropOp43
 70
     1
102
RTVSPost2010Prop44ColorIndex
 90
        5
102
RTVSPost2010Prop44ColorRGB
 90
      255
102
RTVSPost2010PropOp44
 70
     1
102
RTVSPost2010Prop45
280
     0
102
RTVSPost2010PropOp45
 70
     1
102
RTVSPost2010Prop46
 90
       50
102
RTVSPost2010PropOp46
 70
     1
102
RTVSPost2010Prop47
 90
       50
102
RTVSPost2010PropOp47
 70
     1
102
RTVSPost2010Prop48
 90
       50
102
RTVSPost2010PropOp48
 70
     1
102
RTVSPost2010Prop49
280
     0
102
RTVSPost2010PropOp49
 70
     1
102
RTVSPost2010Prop50
 90
       50
102
RTVSPost2010PropOp50
 70
     1
102
RTVSPost2010Prop51ColorIndex
 90
      256
102
RTVSPost2010Prop51ColorRGB
 90
-16777216
102
RTVSPost2010PropOp51
 70
     0
102
RTVSPost2010Prop52
140
1.0
102
RTVSPost2010PropOp52
 70
     0
102
RTVSPost2010Prop53
 90
        2
102
RTVSPost2010PropOp53
 70
     1
102
RTVSPost2010Prop54
  1
strokes_ogs.tif
102
RTVSPost2010PropOp54
 70
     1
102
RTVSPost2010Prop55
280
     0
102
RTVSPost2010PropOp55
 70
     1
102
RTVSPost2010Prop56
140
1.0
102
RTVSPost2010PropOp56
 70
     1
102
RTVSPost2010Prop57
140
1.0
102
RTVSPost2010PropOp57
 70
     1
  0
XRECORD
  5
5AB
102
{ACAD_REACTORS
330
5AA
102
}
330
5AA
100
AcDbXrecord
280
     1
102
RTVSPost2010Prop28
280
     0
102
RTVSPost2010PropOp28
 70
     0
102
RTVSPost2010Prop29
280
     1
102
RTVSPost2010PropOp29
 70
     0
102
RTVSPost2010Prop30
280
     1
102
RTVSPost2010PropOp30
 70
     0
102
RTVSPost2010Prop31
280
     0
102
RTVSPost2010PropOp31
 70
     0
102
RTVSPost2010Prop32
280
     0
102
RTVSPost2010PropOp32
 70
     0
102
RTVSPost2010Prop33
280
     0
102
RTVSPost2010PropOp33
 70
     0
102
RTVSPost2010Prop34
280
     0
102
RTVSPost2010PropOp34
 70
     0
102
RTVSPost2010Prop35
280
     0
102
RTVSPost2010PropOp35
 70
     0
102
RTVSPost2010Prop36
280
     0
102
RTVSPost2010PropOp36
 70
     0
102
RTVSPost2010Prop37
 90
       50
102
RTVSPost2010PropOp37
 70
     0
102
RTVSPost2010Prop38
140
0.0
102
RTVSPost2010PropOp38
 70
     0
102
RTVSPost2010Prop39
140
1.0
102
RTVSPost2010PropOp39
 70
     0
102
RTVSPost2010Prop40
 90
        0
102
RTVSPost2010PropOp40
 70
     0
102
RTVSPost2010Prop41ColorIndex
 90
       18
102
RTVSPost2010Prop41ColorRGB
 90
        0
102
RTVSPost2010PropOp41
 70
     0
102
RTVSPost2010Prop42
 90
       50
102
RTVSPost2010PropOp42
 70
     0
102
RTVSPost2010Prop43
 90
        3
102
RTVSPost2010PropOp43
 70
     0
102
RTVSPost2010Prop44ColorIndex
 90
        5
102
RTVSPost2010Prop44ColorRGB
 90
      255
102
RTVSPost2010PropOp44
 70
     0
102
RTVSPost2010Prop45
280
     0
102
RTVSPost2010PropOp45
 70
     0
102
RTVSPost2010Prop46
 90
       50
102
RTVSPost2010PropOp46
 70
     0
102
RTVSPost2010Prop47
 90
       50
102
RTVSPost2010PropOp47
 70
     0
102
RTVSPost2010Prop48
 90
       50
102
RTVSPost2010PropOp48
 70
     0
102
RTVSPost2010Prop49
280
     0
102
RTVSPost2010PropOp49
 70
     0
102
RTVSPost2010Prop50
 90
       50
102
RTVSPost2010PropOp50
 70
     0
102
RTVSPost2010Prop51ColorIndex
 90
      256
102
RTVSPost2010Prop51ColorRGB
 90
-16777216
102
RTVSPost2010PropOp51
 70
     0
102
RTVSPost2010Prop52
140
1.0
102
RTVSPost2010PropOp52
 70
     0
102
RTVSPost2010Prop53
 90
        2
102
RTVSPost2010PropOp53
 70
     0
102
RTVSPost2010Prop54
  1
strokes_ogs.tif
102
RTVSPost2010PropOp54
 70
     0
102
RTVSPost2010Prop55
280
     0
102
RTVSPost2010PropOp55
 70
     0
102
RTVSPost2010Prop56
140
1.0
102
RTVSPost2010PropOp56
 70
     0
102
RTVSPost2010Prop57
140
1.0
102
RTVSPost2010PropOp57
 70
     0
  0
XRECORD
  5
5A1
102
{ACAD_REACTORS
330
5A0
102
}
330
5A0
100
AcDbXrecord
280
     1
102
RTVSPost2010Prop28
280
     0
102
RTVSPost2010PropOp28
 70
     1
102
RTVSPost2010Prop29
280
     1
102
RTVSPost2010PropOp29
 70
     1
102
RTVSPost2010Prop30
280
     1
102
RTVSPost2010PropOp30
 70
     1
102
RTVSPost2010Prop31
280
     0
102
RTVSPost2010PropOp31
 70
     1
102
RTVSPost2010Prop32
280
     0
102
RTVSPost2010PropOp32
 70
     1
102
RTVSPost2010Prop33
280
     0
102
RTVSPost2010PropOp33
 70
     1
102
RTVSPost2010Prop34
280
     0
102
RTVSPost2010PropOp34
 70
     1
102
RTVSPost2010Prop35
280
     0
102
RTVSPost2010PropOp35
 70
     1
102
RTVSPost2010Prop36
280
     0
102
RTVSPost2010PropOp36
 70
     1
102
RTVSPost2010Prop37
 90
       50
102
RTVSPost2010PropOp37
 70
     1
102
RTVSPost2010Prop38
140
0.0
102
RTVSPost2010PropOp38
 70
     1
102
RTVSPost2010Prop39
140
1.0
102
RTVSPost2010PropOp39
 70
     1
102
RTVSPost2010Prop40
 90
        0
102
RTVSPost2010PropOp40
 70
     1
102
RTVSPost2010Prop41ColorIndex
 90
       18
102
RTVSPost2010Prop41ColorRGB
 90
        0
102
RTVSPost2010PropOp41
 70
     1
102
RTVSPost2010Prop42
 90
       50
102
RTVSPost2010PropOp42
 70
     1
102
RTVSPost2010Prop43
 90
        3
102
RTVSPost2010PropOp43
 70
     1
102
RTVSPost2010Prop44ColorIndex
 90
        5
102
RTVSPost2010Prop44ColorRGB
 90
      255
102
RTVSPost2010PropOp44
 70
     1
102
RTVSPost2010Prop45
280
     0
102
RTVSPost2010PropOp45
 70
     1
102
RTVSPost2010Prop46
 90
       50
102
RTVSPost2010PropOp46
 70
     1
102
RTVSPost2010Prop47
 90
       50
102
RTVSPost2010PropOp47
 70
     1
102
RTVSPost2010Prop48
 90
       50
102
RTVSPost2010PropOp48
 70
     1
102
RTVSPost2010Prop49
280
     0
102
RTVSPost2010PropOp49
 70
     1
102
RTVSPost2010Prop50
 90
       50
102
RTVSPost2010PropOp50
 70
     1
102
RTVSPost2010Prop51ColorIndex
 90
      256
102
RTVSPost2010Prop51ColorRGB
 90
-16777216
102
RTVSPost2010PropOp51
 70
     0
102
RTVSPost2010Prop52
140
1.0
102
RTVSPost2010PropOp52
 70
     0
102
RTVSPost2010Prop53
 90
        2
102
RTVSPost2010PropOp53
 70
     1
102
RTVSPost2010Prop54
  1
strokes_ogs.tif
102
RTVSPost2010PropOp54
 70
     1
102
RTVSPost2010Prop55
280
     0
102
RTVSPost2010PropOp55
 70
     1
102
RTVSPost2010Prop56
140
1.0
102
RTVSPost2010PropOp56
 70
     1
102
RTVSPost2010Prop57
140
1.0
102
RTVSPost2010PropOp57
 70
     1
  0
XRECORD
  5
5AD
102
{ACAD_REACTORS
330
5AC
102
}
330
5AC
100
AcDbXrecord
280
     1
102
RTVSPost2010Prop28
280
     0
102
RTVSPost2010PropOp28
 70
     0
102
RTVSPost2010Prop29
280
     1
102
RTVSPost2010PropOp29
 70
     0
102
RTVSPost2010Prop30
280
     1
102
RTVSPost2010PropOp30
 70
     0
102
RTVSPost2010Prop31
280
     0
102
RTVSPost2010PropOp31
 70
     0
102
RTVSPost2010Prop32
280
     0
102
RTVSPost2010PropOp32
 70
     0
102
RTVSPost2010Prop33
280
     0
102
RTVSPost2010PropOp33
 70
     0
102
RTVSPost2010Prop34
280
     0
102
RTVSPost2010PropOp34
 70
     0
102
RTVSPost2010Prop35
280
     0
102
RTVSPost2010PropOp35
 70
     0
102
RTVSPost2010Prop36
280
     0
102
RTVSPost2010PropOp36
 70
     0
102
RTVSPost2010Prop37
 90
       50
102
RTVSPost2010PropOp37
 70
     0
102
RTVSPost2010Prop38
140
0.0
102
RTVSPost2010PropOp38
 70
     0
102
RTVSPost2010Prop39
140
1.0
102
RTVSPost2010PropOp39
 70
     0
102
RTVSPost2010Prop40
 90
        0
102
RTVSPost2010PropOp40
 70
     0
102
RTVSPost2010Prop41ColorIndex
 90
       18
102
RTVSPost2010Prop41ColorRGB
 90
        0
102
RTVSPost2010PropOp41
 70
     0
102
RTVSPost2010Prop42
 90
       50
102
RTVSPost2010PropOp42
 70
     0
102
RTVSPost2010Prop43
 90
        3
102
RTVSPost2010PropOp43
 70
     0
102
RTVSPost2010Prop44ColorIndex
 90
        5
102
RTVSPost2010Prop44ColorRGB
 90
      255
102
RTVSPost2010PropOp44
 70
     0
102
RTVSPost2010Prop45
280
     0
102
RTVSPost2010PropOp45
 70
     0
102
RTVSPost2010Prop46
 90
       50
102
RTVSPost2010PropOp46
 70
     0
102
RTVSPost2010Prop47
 90
       50
102
RTVSPost2010PropOp47
 70
     0
102
RTVSPost2010Prop48
 90
       50
102
RTVSPost2010PropOp48
 70
     0
102
RTVSPost2010Prop49
280
     0
102
RTVSPost2010PropOp49
 70
     0
102
RTVSPost2010Prop50
 90
       50
102
RTVSPost2010PropOp50
 70
     0
102
RTVSPost2010Prop51ColorIndex
 90
      256
102
RTVSPost2010Prop51ColorRGB
 90
-16777216
102
RTVSPost2010PropOp51
 70
     0
102
RTVSPost2010Prop52
140
1.0
102
RTVSPost2010PropOp52
 70
     0
102
RTVSPost2010Prop53
 90
        2
102
RTVSPost2010PropOp53
 70
     0
102
RTVSPost2010Prop54
  1
strokes_ogs.tif
102
RTVSPost2010PropOp54
 70
     0
102
RTVSPost2010Prop55
280
     0
102
RTVSPost2010PropOp55
 70
     0
102
RTVSPost2010Prop56
140
1.0
102
RTVSPost2010PropOp56
 70
     0
102
RTVSPost2010Prop57
140
1.0
102
RTVSPost2010PropOp57
 70
     0
  0
XRECORD
  5
5A3
102
{ACAD_REACTORS
330
5A2
102
}
330
5A2
100
AcDbXrecord
280
     1
102
RTVSPost2010Prop28
280
     0
102
RTVSPost2010PropOp28
 70
     1
102
RTVSPost2010Prop29
280
     1
102
RTVSPost2010PropOp29
 70
     1
102
RTVSPost2010Prop30
280
     1
102
RTVSPost2010PropOp30
 70
     1
102
RTVSPost2010Prop31
280
     0
102
RTVSPost2010PropOp31
 70
     1
102
RTVSPost2010Prop32
280
     0
102
RTVSPost2010PropOp32
 70
     1
102
RTVSPost2010Prop33
280
     0
102
RTVSPost2010PropOp33
 70
     1
102
RTVSPost2010Prop34
280
     0
102
RTVSPost2010PropOp34
 70
     1
102
RTVSPost2010Prop35
280
     0
102
RTVSPost2010PropOp35
 70
     1
102
RTVSPost2010Prop36
280
     0
102
RTVSPost2010PropOp36
 70
     1
102
RTVSPost2010Prop37
 90
       50
102
RTVSPost2010PropOp37
 70
     1
102
RTVSPost2010Prop38
140
0.0
102
RTVSPost2010PropOp38
 70
     1
102
RTVSPost2010Prop39
140
1.0
102
RTVSPost2010PropOp39
 70
     1
102
RTVSPost2010Prop40
 90
        0
102
RTVSPost2010PropOp40
 70
     1
102
RTVSPost2010Prop41ColorIndex
 90
       18
102
RTVSPost2010Prop41ColorRGB
 90
        0
102
RTVSPost2010PropOp41
 70
     1
102
RTVSPost2010Prop42
 90
       50
102
RTVSPost2010PropOp42
 70
     1
102
RTVSPost2010Prop43
 90
        3
102
RTVSPost2010PropOp43
 70
     1
102
RTVSPost2010Prop44ColorIndex
 90
        5
102
RTVSPost2010Prop44ColorRGB
 90
      255
102
RTVSPost2010PropOp44
 70
     1
102
RTVSPost2010Prop45
280
     0
102
RTVSPost2010PropOp45
 70
     1
102
RTVSPost2010Prop46
 90
       50
102
RTVSPost2010PropOp46
 70
     1
102
RTVSPost2010Prop47
 90
       50
102
RTVSPost2010PropOp47
 70
     1
102
RTVSPost2010Prop48
 90
       50
102
RTVSPost2010PropOp48
 70
     1
102
RTVSPost2010Prop49
280
     0
102
RTVSPost2010PropOp49
 70
     1
102
RTVSPost2010Prop50
 90
       50
102
RTVSPost2010PropOp50
 70
     1
102
RTVSPost2010Prop51ColorIndex
 90
      256
102
RTVSPost2010Prop51ColorRGB
 90
-16777216
102
RTVSPost2010PropOp51
 70
     0
102
RTVSPost2010Prop52
140
1.0
102
RTVSPost2010PropOp52
 70
     0
102
RTVSPost2010Prop53
 90
        2
102
RTVSPost2010PropOp53
 70
     1
102
RTVSPost2010Prop54
  1
strokes_ogs.tif
102
RTVSPost2010PropOp54
 70
     1
102
RTVSPost2010Prop55
280
     0
102
RTVSPost2010PropOp55
 70
     1
102
RTVSPost2010Prop56
140
1.0
102
RTVSPost2010PropOp56
 70
     1
102
RTVSPost2010Prop57
140
1.0
102
RTVSPost2010PropOp57
 70
     1
  0
XRECORD
  5
5B9
102
{ACAD_REACTORS
330
5B8
102
}
330
5B8
100
AcDbXrecord
280
     1
102
RTVSPost2010Prop28
280
     0
102
RTVSPost2010PropOp28
 70
     1
102
RTVSPost2010Prop29
280
     1
102
RTVSPost2010PropOp29
 70
     1
102
RTVSPost2010Prop30
280
     1
102
RTVSPost2010PropOp30
 70
     1
102
RTVSPost2010Prop31
280
     0
102
RTVSPost2010PropOp31
 70
     1
102
RTVSPost2010Prop32
280
     0
102
RTVSPost2010PropOp32
 70
     1
102
RTVSPost2010Prop33
280
     0
102
RTVSPost2010PropOp33
 70
     1
102
RTVSPost2010Prop34
280
     0
102
RTVSPost2010PropOp34
 70
     1
102
RTVSPost2010Prop35
280
     0
102
RTVSPost2010PropOp35
 70
     1
102
RTVSPost2010Prop36
280
     0
102
RTVSPost2010PropOp36
 70
     1
102
RTVSPost2010Prop37
 90
       50
102
RTVSPost2010PropOp37
 70
     1
102
RTVSPost2010Prop38
140
0.0
102
RTVSPost2010PropOp38
 70
     1
102
RTVSPost2010Prop39
140
1.0
102
RTVSPost2010PropOp39
 70
     1
102
RTVSPost2010Prop40
 90
        0
102
RTVSPost2010PropOp40
 70
     1
102
RTVSPost2010Prop41ColorIndex
 90
       18
102
RTVSPost2010Prop41ColorRGB
 90
        0
102
RTVSPost2010PropOp41
 70
     1
102
RTVSPost2010Prop42
 90
       50
102
RTVSPost2010PropOp42
 70
     1
102
RTVSPost2010Prop43
 90
        3
102
RTVSPost2010PropOp43
 70
     1
102
RTVSPost2010Prop44ColorIndex
 90
        5
102
RTVSPost2010Prop44ColorRGB
 90
      255
102
RTVSPost2010PropOp44
 70
     1
102
RTVSPost2010Prop45
280
     0
102
RTVSPost2010PropOp45
 70
     1
102
RTVSPost2010Prop46
 90
       50
102
RTVSPost2010PropOp46
 70
     1
102
RTVSPost2010Prop47
 90
       50
102
RTVSPost2010PropOp47
 70
     1
102
RTVSPost2010Prop48
 90
       50
102
RTVSPost2010PropOp48
 70
     1
102
RTVSPost2010Prop49
280
     0
102
RTVSPost2010PropOp49
 70
     1
102
RTVSPost2010Prop50
 90
       50
102
RTVSPost2010PropOp50
 70
     1
102
RTVSPost2010Prop51ColorIndex
 90
      256
102
RTVSPost2010Prop51ColorRGB
 90
-16777216
102
RTVSPost2010PropOp51
 70
     0
102
RTVSPost2010Prop52
140
1.0
102
RTVSPost2010PropOp52
 70
     0
102
RTVSPost2010Prop53
 90
        2
102
RTVSPost2010PropOp53
 70
     1
102
RTVSPost2010Prop54
  1
strokes_ogs.tif
102
RTVSPost2010PropOp54
 70
     1
102
RTVSPost2010Prop55
280
     0
102
RTVSPost2010PropOp55
 70
     1
102
RTVSPost2010Prop56
140
1.0
102
RTVSPost2010PropOp56
 70
     1
102
RTVSPost2010Prop57
140
1.0
102
RTVSPost2010PropOp57
 70
     1
  0
XRECORD
  5
5B7
102
{ACAD_REACTORS
330
5B6
102
}
330
5B6
100
AcDbXrecord
280
     1
102
RTVSPost2010Prop28
280
     0
102
RTVSPost2010PropOp28
 70
     1
102
RTVSPost2010Prop29
280
     1
102
RTVSPost2010PropOp29
 70
     1
102
RTVSPost2010Prop30
280
     1
102
RTVSPost2010PropOp30
 70
     1
102
RTVSPost2010Prop31
280
     0
102
RTVSPost2010PropOp31
 70
     1
102
RTVSPost2010Prop32
280
     0
102
RTVSPost2010PropOp32
 70
     1
102
RTVSPost2010Prop33
280
     0
102
RTVSPost2010PropOp33
 70
     1
102
RTVSPost2010Prop34
280
     0
102
RTVSPost2010PropOp34
 70
     1
102
RTVSPost2010Prop35
280
     0
102
RTVSPost2010PropOp35
 70
     1
102
RTVSPost2010Prop36
280
     0
102
RTVSPost2010PropOp36
 70
     1
102
RTVSPost2010Prop37
 90
       50
102
RTVSPost2010PropOp37
 70
     1
102
RTVSPost2010Prop38
140
0.0
102
RTVSPost2010PropOp38
 70
     1
102
RTVSPost2010Prop39
140
1.0
102
RTVSPost2010PropOp39
 70
     1
102
RTVSPost2010Prop40
 90
        0
102
RTVSPost2010PropOp40
 70
     1
102
RTVSPost2010Prop41ColorIndex
 90
       18
102
RTVSPost2010Prop41ColorRGB
 90
        0
102
RTVSPost2010PropOp41
 70
     1
102
RTVSPost2010Prop42
 90
       50
102
RTVSPost2010PropOp42
 70
     1
102
RTVSPost2010Prop43
 90
        3
102
RTVSPost2010PropOp43
 70
     1
102
RTVSPost2010Prop44ColorIndex
 90
        5
102
RTVSPost2010Prop44ColorRGB
 90
      255
102
RTVSPost2010PropOp44
 70
     1
102
RTVSPost2010Prop45
280
     0
102
RTVSPost2010PropOp45
 70
     1
102
RTVSPost2010Prop46
 90
       50
102
RTVSPost2010PropOp46
 70
     1
102
RTVSPost2010Prop47
 90
       50
102
RTVSPost2010PropOp47
 70
     1
102
RTVSPost2010Prop48
 90
       50
102
RTVSPost2010PropOp48
 70
     1
102
RTVSPost2010Prop49
280
     0
102
RTVSPost2010PropOp49
 70
     1
102
RTVSPost2010Prop50
 90
       50
102
RTVSPost2010PropOp50
 70
     1
102
RTVSPost2010Prop51ColorIndex
 90
      256
102
RTVSPost2010Prop51ColorRGB
 90
-16777216
102
RTVSPost2010PropOp51
 70
     0
102
RTVSPost2010Prop52
140
1.0
102
RTVSPost2010PropOp52
 70
     0
102
RTVSPost2010Prop53
 90
        2
102
RTVSPost2010PropOp53
 70
     1
102
RTVSPost2010Prop54
  1
strokes_ogs.tif
102
RTVSPost2010PropOp54
 70
     1
102
RTVSPost2010Prop55
280
     0
102
RTVSPost2010PropOp55
 70
     1
102
RTVSPost2010Prop56
140
1.0
102
RTVSPost2010PropOp56
 70
     1
102
RTVSPost2010Prop57
140
1.0
102
RTVSPost2010PropOp57
 70
     1
  0
XRECORD
  5
5B1
102
{ACAD_REACTORS
330
5B0
102
}
330
5B0
100
AcDbXrecord
280
     1
102
RTVSPost2010Prop28
280
     0
102
RTVSPost2010PropOp28
 70
     1
102
RTVSPost2010Prop29
280
     1
102
RTVSPost2010PropOp29
 70
     1
102
RTVSPost2010Prop30
280
     1
102
RTVSPost2010PropOp30
 70
     1
102
RTVSPost2010Prop31
280
     0
102
RTVSPost2010PropOp31
 70
     1
102
RTVSPost2010Prop32
280
     0
102
RTVSPost2010PropOp32
 70
     1
102
RTVSPost2010Prop33
280
     0
102
RTVSPost2010PropOp33
 70
     1
102
RTVSPost2010Prop34
280
     0
102
RTVSPost2010PropOp34
 70
     1
102
RTVSPost2010Prop35
280
     0
102
RTVSPost2010PropOp35
 70
     1
102
RTVSPost2010Prop36
280
     0
102
RTVSPost2010PropOp36
 70
     1
102
RTVSPost2010Prop37
 90
       50
102
RTVSPost2010PropOp37
 70
     1
102
RTVSPost2010Prop38
140
0.0
102
RTVSPost2010PropOp38
 70
     1
102
RTVSPost2010Prop39
140
1.0
102
RTVSPost2010PropOp39
 70
     1
102
RTVSPost2010Prop40
 90
        0
102
RTVSPost2010PropOp40
 70
     1
102
RTVSPost2010Prop41ColorIndex
 90
       18
102
RTVSPost2010Prop41ColorRGB
 90
        0
102
RTVSPost2010PropOp41
 70
     1
102
RTVSPost2010Prop42
 90
       50
102
RTVSPost2010PropOp42
 70
     1
102
RTVSPost2010Prop43
 90
        3
102
RTVSPost2010PropOp43
 70
     1
102
RTVSPost2010Prop44ColorIndex
 90
        5
102
RTVSPost2010Prop44ColorRGB
 90
      255
102
RTVSPost2010PropOp44
 70
     1
102
RTVSPost2010Prop45
280
     0
102
RTVSPost2010PropOp45
 70
     1
102
RTVSPost2010Prop46
 90
       50
102
RTVSPost2010PropOp46
 70
     1
102
RTVSPost2010Prop47
 90
       50
102
RTVSPost2010PropOp47
 70
     1
102
RTVSPost2010Prop48
 90
       50
102
RTVSPost2010PropOp48
 70
     1
102
RTVSPost2010Prop49
280
     0
102
RTVSPost2010PropOp49
 70
     1
102
RTVSPost2010Prop50
 90
       50
102
RTVSPost2010PropOp50
 70
     1
102
RTVSPost2010Prop51ColorIndex
 90
      256
102
RTVSPost2010Prop51ColorRGB
 90
-16777216
102
RTVSPost2010PropOp51
 70
     0
102
RTVSPost2010Prop52
140
1.0
102
RTVSPost2010PropOp52
 70
     0
102
RTVSPost2010Prop53
 90
        2
102
RTVSPost2010PropOp53
 70
     1
102
RTVSPost2010Prop54
  1
strokes_ogs.tif
102
RTVSPost2010PropOp54
 70
     1
102
RTVSPost2010Prop55
280
     0
102
RTVSPost2010PropOp55
 70
     1
102
RTVSPost2010Prop56
140
1.0
102
RTVSPost2010PropOp56
 70
     1
102
RTVSPost2010Prop57
140
1.0
102
RTVSPost2010PropOp57
 70
     1
  0
XRECORD
  5
5B3
102
{ACAD_REACTORS
330
5B2
102
}
330
5B2
100
AcDbXrecord
280
     1
102
RTVSPost2010Prop28
280
     0
102
RTVSPost2010PropOp28
 70
     1
102
RTVSPost2010Prop29
280
     1
102
RTVSPost2010PropOp29
 70
     1
102
RTVSPost2010Prop30
280
     1
102
RTVSPost2010PropOp30
 70
     1
102
RTVSPost2010Prop31
280
     0
102
RTVSPost2010PropOp31
 70
     1
102
RTVSPost2010Prop32
280
     0
102
RTVSPost2010PropOp32
 70
     1
102
RTVSPost2010Prop33
280
     0
102
RTVSPost2010PropOp33
 70
     1
102
RTVSPost2010Prop34
280
     0
102
RTVSPost2010PropOp34
 70
     1
102
RTVSPost2010Prop35
280
     0
102
RTVSPost2010PropOp35
 70
     1
102
RTVSPost2010Prop36
280
     0
102
RTVSPost2010PropOp36
 70
     1
102
RTVSPost2010Prop37
 90
       50
102
RTVSPost2010PropOp37
 70
     1
102
RTVSPost2010Prop38
140
0.0
102
RTVSPost2010PropOp38
 70
     1
102
RTVSPost2010Prop39
140
1.0
102
RTVSPost2010PropOp39
 70
     1
102
RTVSPost2010Prop40
 90
        0
102
RTVSPost2010PropOp40
 70
     1
102
RTVSPost2010Prop41ColorIndex
 90
       18
102
RTVSPost2010Prop41ColorRGB
 90
        0
102
RTVSPost2010PropOp41
 70
     1
102
RTVSPost2010Prop42
 90
       50
102
RTVSPost2010PropOp42
 70
     1
102
RTVSPost2010Prop43
 90
        3
102
RTVSPost2010PropOp43
 70
     1
102
RTVSPost2010Prop44ColorIndex
 90
        5
102
RTVSPost2010Prop44ColorRGB
 90
      255
102
RTVSPost2010PropOp44
 70
     1
102
RTVSPost2010Prop45
280
     0
102
RTVSPost2010PropOp45
 70
     1
102
RTVSPost2010Prop46
 90
       50
102
RTVSPost2010PropOp46
 70
     1
102
RTVSPost2010Prop47
 90
       50
102
RTVSPost2010PropOp47
 70
     1
102
RTVSPost2010Prop48
 90
       50
102
RTVSPost2010PropOp48
 70
     1
102
RTVSPost2010Prop49
280
     0
102
RTVSPost2010PropOp49
 70
     1
102
RTVSPost2010Prop50
 90
       50
102
RTVSPost2010PropOp50
 70
     1
102
RTVSPost2010Prop51ColorIndex
 90
      256
102
RTVSPost2010Prop51ColorRGB
 90
-16777216
102
RTVSPost2010PropOp51
 70
     0
102
RTVSPost2010Prop52
140
1.0
102
RTVSPost2010PropOp52
 70
     0
102
RTVSPost2010Prop53
 90
        2
102
RTVSPost2010PropOp53
 70
     1
102
RTVSPost2010Prop54
  1
strokes_ogs.tif
102
RTVSPost2010PropOp54
 70
     1
102
RTVSPost2010Prop55
280
     0
102
RTVSPost2010PropOp55
 70
     1
102
RTVSPost2010Prop56
140
1.0
102
RTVSPost2010PropOp56
 70
     1
102
RTVSPost2010Prop57
140
1.0
102
RTVSPost2010PropOp57
 70
     1
  0
XRECORD
  5
5A5
102
{ACAD_REACTORS
330
5A4
102
}
330
5A4
100
AcDbXrecord
280
     1
102
RTVSPost2010Prop28
280
     0
102
RTVSPost2010PropOp28
 70
     1
102
RTVSPost2010Prop29
280
     1
102
RTVSPost2010PropOp29
 70
     1
102
RTVSPost2010Prop30
280
     1
102
RTVSPost2010PropOp30
 70
     1
102
RTVSPost2010Prop31
280
     0
102
RTVSPost2010PropOp31
 70
     1
102
RTVSPost2010Prop32
280
     0
102
RTVSPost2010PropOp32
 70
     1
102
RTVSPost2010Prop33
280
     0
102
RTVSPost2010PropOp33
 70
     1
102
RTVSPost2010Prop34
280
     0
102
RTVSPost2010PropOp34
 70
     1
102
RTVSPost2010Prop35
280
     0
102
RTVSPost2010PropOp35
 70
     1
102
RTVSPost2010Prop36
280
     0
102
RTVSPost2010PropOp36
 70
     1
102
RTVSPost2010Prop37
 90
       50
102
RTVSPost2010PropOp37
 70
     1
102
RTVSPost2010Prop38
140
0.0
102
RTVSPost2010PropOp38
 70
     1
102
RTVSPost2010Prop39
140
1.0
102
RTVSPost2010PropOp39
 70
     1
102
RTVSPost2010Prop40
 90
        0
102
RTVSPost2010PropOp40
 70
     1
102
RTVSPost2010Prop41ColorIndex
 90
       18
102
RTVSPost2010Prop41ColorRGB
 90
        0
102
RTVSPost2010PropOp41
 70
     1
102
RTVSPost2010Prop42
 90
       50
102
RTVSPost2010PropOp42
 70
     1
102
RTVSPost2010Prop43
 90
        3
102
RTVSPost2010PropOp43
 70
     1
102
RTVSPost2010Prop44ColorIndex
 90
        5
102
RTVSPost2010Prop44ColorRGB
 90
      255
102
RTVSPost2010PropOp44
 70
     1
102
RTVSPost2010Prop45
280
     0
102
RTVSPost2010PropOp45
 70
     1
102
RTVSPost2010Prop46
 90
       50
102
RTVSPost2010PropOp46
 70
     1
102
RTVSPost2010Prop47
 90
       50
102
RTVSPost2010PropOp47
 70
     1
102
RTVSPost2010Prop48
 90
       50
102
RTVSPost2010PropOp48
 70
     1
102
RTVSPost2010Prop49
280
     0
102
RTVSPost2010PropOp49
 70
     1
102
RTVSPost2010Prop50
 90
       50
102
RTVSPost2010PropOp50
 70
     1
102
RTVSPost2010Prop51ColorIndex
 90
      256
102
RTVSPost2010Prop51ColorRGB
 90
-16777216
102
RTVSPost2010PropOp51
 70
     0
102
RTVSPost2010Prop52
140
1.0
102
RTVSPost2010PropOp52
 70
     0
102
RTVSPost2010Prop53
 90
        2
102
RTVSPost2010PropOp53
 70
     1
102
RTVSPost2010Prop54
  1
strokes_ogs.tif
102
RTVSPost2010PropOp54
 70
     1
102
RTVSPost2010Prop55
280
     0
102
RTVSPost2010PropOp55
 70
     1
102
RTVSPost2010Prop56
140
1.0
102
RTVSPost2010PropOp56
 70
     1
102
RTVSPost2010Prop57
140
1.0
102
RTVSPost2010PropOp57
 70
     1
  0
XRECORD
  5
5A7
102
{ACAD_REACTORS
330
5A6
102
}
330
5A6
100
AcDbXrecord
280
     1
102
RTVSPost2010Prop28
280
     0
102
RTVSPost2010PropOp28
 70
     1
102
RTVSPost2010Prop29
280
     1
102
RTVSPost2010PropOp29
 70
     1
102
RTVSPost2010Prop30
280
     1
102
RTVSPost2010PropOp30
 70
     1
102
RTVSPost2010Prop31
280
     0
102
RTVSPost2010PropOp31
 70
     1
102
RTVSPost2010Prop32
280
     0
102
RTVSPost2010PropOp32
 70
     1
102
RTVSPost2010Prop33
280
     0
102
RTVSPost2010PropOp33
 70
     1
102
RTVSPost2010Prop34
280
     0
102
RTVSPost2010PropOp34
 70
     1
102
RTVSPost2010Prop35
280
     0
102
RTVSPost2010PropOp35
 70
     1
102
RTVSPost2010Prop36
280
     0
102
RTVSPost2010PropOp36
 70
     1
102
RTVSPost2010Prop37
 90
       50
102
RTVSPost2010PropOp37
 70
     1
102
RTVSPost2010Prop38
140
0.0
102
RTVSPost2010PropOp38
 70
     1
102
RTVSPost2010Prop39
140
1.0
102
RTVSPost2010PropOp39
 70
     1
102
RTVSPost2010Prop40
 90
        0
102
RTVSPost2010PropOp40
 70
     1
102
RTVSPost2010Prop41ColorIndex
 90
       18
102
RTVSPost2010Prop41ColorRGB
 90
        0
102
RTVSPost2010PropOp41
 70
     1
102
RTVSPost2010Prop42
 90
       50
102
RTVSPost2010PropOp42
 70
     1
102
RTVSPost2010Prop43
 90
        3
102
RTVSPost2010PropOp43
 70
     1
102
RTVSPost2010Prop44ColorIndex
 90
        5
102
RTVSPost2010Prop44ColorRGB
 90
      255
102
RTVSPost2010PropOp44
 70
     1
102
RTVSPost2010Prop45
280
     0
102
RTVSPost2010PropOp45
 70
     1
102
RTVSPost2010Prop46
 90
       50
102
RTVSPost2010PropOp46
 70
     1
102
RTVSPost2010Prop47
 90
       50
102
RTVSPost2010PropOp47
 70
     1
102
RTVSPost2010Prop48
 90
       50
102
RTVSPost2010PropOp48
 70
     1
102
RTVSPost2010Prop49
280
     0
102
RTVSPost2010PropOp49
 70
     1
102
RTVSPost2010Prop50
 90
       50
102
RTVSPost2010PropOp50
 70
     1
102
RTVSPost2010Prop51ColorIndex
 90
      256
102
RTVSPost2010Prop51ColorRGB
 90
-16777216
102
RTVSPost2010PropOp51
 70
     0
102
RTVSPost2010Prop52
140
1.0
102
RTVSPost2010PropOp52
 70
     0
102
RTVSPost2010Prop53
 90
        2
102
RTVSPost2010PropOp53
 70
     1
102
RTVSPost2010Prop54
  1
strokes_ogs.tif
102
RTVSPost2010PropOp54
 70
     1
102
RTVSPost2010Prop55
280
     0
102
RTVSPost2010PropOp55
 70
     1
102
RTVSPost2010Prop56
140
1.0
102
RTVSPost2010PropOp56
 70
     1
102
RTVSPost2010Prop57
140
1.0
102
RTVSPost2010PropOp57
 70
     1
  0
XRECORD
  5
5B5
102
{ACAD_REACTORS
330
5B4
102
}
330
5B4
100
AcDbXrecord
280
     1
102
RTVSPost2010Prop28
280
     0
102
RTVSPost2010PropOp28
 70
     1
102
RTVSPost2010Prop29
280
     1
102
RTVSPost2010PropOp29
 70
     1
102
RTVSPost2010Prop30
280
     1
102
RTVSPost2010PropOp30
 70
     1
102
RTVSPost2010Prop31
280
     0
102
RTVSPost2010PropOp31
 70
     1
102
RTVSPost2010Prop32
280
     0
102
RTVSPost2010PropOp32
 70
     1
102
RTVSPost2010Prop33
280
     0
102
RTVSPost2010PropOp33
 70
     1
102
RTVSPost2010Prop34
280
     0
102
RTVSPost2010PropOp34
 70
     1
102
RTVSPost2010Prop35
280
     0
102
RTVSPost2010PropOp35
 70
     1
102
RTVSPost2010Prop36
280
     0
102
RTVSPost2010PropOp36
 70
     1
102
RTVSPost2010Prop37
 90
       50
102
RTVSPost2010PropOp37
 70
     1
102
RTVSPost2010Prop38
140
0.0
102
RTVSPost2010PropOp38
 70
     1
102
RTVSPost2010Prop39
140
1.0
102
RTVSPost2010PropOp39
 70
     1
102
RTVSPost2010Prop40
 90
        0
102
RTVSPost2010PropOp40
 70
     1
102
RTVSPost2010Prop41ColorIndex
 90
       18
102
RTVSPost2010Prop41ColorRGB
 90
        0
102
RTVSPost2010PropOp41
 70
     1
102
RTVSPost2010Prop42
 90
       50
102
RTVSPost2010PropOp42
 70
     1
102
RTVSPost2010Prop43
 90
        3
102
RTVSPost2010PropOp43
 70
     1
102
RTVSPost2010Prop44ColorIndex
 90
        5
102
RTVSPost2010Prop44ColorRGB
 90
      255
102
RTVSPost2010PropOp44
 70
     1
102
RTVSPost2010Prop45
280
     0
102
RTVSPost2010PropOp45
 70
     1
102
RTVSPost2010Prop46
 90
       50
102
RTVSPost2010PropOp46
 70
     1
102
RTVSPost2010Prop47
 90
       50
102
RTVSPost2010PropOp47
 70
     1
102
RTVSPost2010Prop48
 90
       50
102
RTVSPost2010PropOp48
 70
     1
102
RTVSPost2010Prop49
280
     0
102
RTVSPost2010PropOp49
 70
     1
102
RTVSPost2010Prop50
 90
       50
102
RTVSPost2010PropOp50
 70
     1
102
RTVSPost2010Prop51ColorIndex
 90
      256
102
RTVSPost2010Prop51ColorRGB
 90
-16777216
102
RTVSPost2010PropOp51
 70
     0
102
RTVSPost2010Prop52
140
1.0
102
RTVSPost2010PropOp52
 70
     0
102
RTVSPost2010Prop53
 90
        2
102
RTVSPost2010PropOp53
 70
     1
102
RTVSPost2010Prop54
  1
strokes_ogs.tif
102
RTVSPost2010PropOp54
 70
     1
102
RTVSPost2010Prop55
280
     0
102
RTVSPost2010PropOp55
 70
     1
102
RTVSPost2010Prop56
140
1.0
102
RTVSPost2010PropOp56
 70
     1
102
RTVSPost2010Prop57
140
1.0
102
RTVSPost2010PropOp57
 70
     1
  0
ENDSEC
  0
EOF
