  0
SECTION
  2
HEADER
  9
$ACADVER
  1
AC1024
  9
$ACADMAINTVER
 70
     6
  9
$DWGCODEPAGE
  3
ANSI_1252
  9
$LASTSAVEDBY
  1
Dave
  9
$INSBASE
 10
0.0
 20
0.0
 30
0.0
  9
$EXTMIN
 10
8632634.647657108
 20
4514302.44023986
 30
0.0
  9
$EXTMAX
 10
8632684.149639757
 20
4514373.484602126
 30
0.0
  9
$LIMMIN
 10
0.0
 20
0.0
  9
$LIMMAX
 10
2542.46474
 20
2545.9474
  9
$ORTHOMODE
 70
     0
  9
$REGENMODE
 70
     1
  9
$FILLMODE
 70
     1
  9
$QTEXTMODE
 70
     0
  9
$MIRRTEXT
 70
     1
  9
$LTSCALE
 40
1.0
  9
$ATTMODE
 70
     1
  9
$TEXTSIZE
 40
0.2
  9
$TRACEWID
 40
0.05
  9
$TEXTSTYLE
  7
Standard
  9
$CLAYER
  8
kvadrat
  9
$CELTYPE
  6
BYLAYER
  9
$CECOLOR
 62
   256
  9
$CELTSCALE
 40
1.0
  9
$DISPSILH
 70
     0
  9
$DIMSCALE
 40
1.0
  9
$DIMASZ
 40
0.18
  9
$DIMEXO
 40
0.0625
  9
$DIMDLI
 40
0.38
  9
$DIMRND
 40
0.0
  9
$DIMDLE
 40
0.0
  9
$DIMEXE
 40
0.18
  9
$DIMTP
 40
0.0
  9
$DIMTM
 40
0.0
  9
$DIMTXT
 40
0.18
  9
$DIMCEN
 40
0.09
  9
$DIMTSZ
 40
0.0
  9
$DIMTOL
 70
     0
  9
$DIMLIM
 70
     0
  9
$DIMTIH
 70
     1
  9
$DIMTOH
 70
     1
  9
$DIMSE1
 70
     0
  9
$DIMSE2
 70
     0
  9
$DIMTAD
 70
     0
  9
$DIMZIN
 70
     0
  9
$DIMBLK
  1

  9
$DIMASO
 70
     1
  9
$DIMSHO
 70
     1
  9
$DIMPOST
  1

  9
$DIMAPOST
  1

  9
$DIMALT
 70
     0
  9
$DIMALTD
 70
     2
  9
$DIMALTF
 40
25.4
  9
$DIMLFAC
 40
1.0
  9
$DIMTOFL
 70
     0
  9
$DIMTVP
 40
0.0
  9
$DIMTIX
 70
     0
  9
$DIMSOXD
 70
     0
  9
$DIMSAH
 70
     0
  9
$DIMBLK1
  1

  9
$DIMBLK2
  1

  9
$DIMSTYLE
  2
STANDARD
  9
$DIMCLRD
 70
     0
  9
$DIMCLRE
 70
     0
  9
$DIMCLRT
 70
     0
  9
$DIMTFAC
 40
1.0
  9
$DIMGAP
 40
0.09
  9
$DIMJUST
 70
     0
  9
$DIMSD1
 70
     0
  9
$DIMSD2
 70
     0
  9
$DIMTOLJ
 70
     1
  9
$DIMTZIN
 70
     0
  9
$DIMALTZ
 70
     0
  9
$DIMALTTZ
 70
     0
  9
$DIMUPT
 70
     0
  9
$DIMDEC
 70
     4
  9
$DIMTDEC
 70
     4
  9
$DIMALTU
 70
     2
  9
$DIMALTTD
 70
     2
  9
$DIMTXSTY
  7
Standard
  9
$DIMAUNIT
 70
     0
  9
$DIMADEC
 70
     0
  9
$DIMALTRND
 40
0.0
  9
$DIMAZIN
 70
     0
  9
$DIMDSEP
 70
    46
  9
$DIMATFIT
 70
     3
  9
$DIMFRAC
 70
     0
  9
$DIMLDRBLK
  1

  9
$DIMLUNIT
 70
     2
  9
$DIMLWD
 70
    -2
  9
$DIMLWE
 70
    -2
  9
$DIMTMOVE
 70
     0
  9
$DIMFXL
 40
1.0
  9
$DIMFXLON
 70
     0
  9
$DIMJOGANG
 40
0.7853981633974483
  9
$DIMTFILL
 70
     0
  9
$DIMTFILLCLR
 70
     0
  9
$DIMARCSYM
 70
     0
  9
$DIMLTYPE
  6

  9
$DIMLTEX1
  6

  9
$DIMLTEX2
  6

  9
$DIMTXTDIRECTION
 70
     0
  9
$LUNITS
 70
     2
  9
$LUPREC
 70
     3
  9
$SKETCHINC
 40
0.1
  9
$FILLETRAD
 40
0.0
  9
$AUNITS
 70
     0
  9
$AUPREC
 70
     0
  9
$MENU
  1
.
  9
$ELEVATION
 40
0.0
  9
$PELEVATION
 40
0.0
  9
$THICKNESS
 40
0.0
  9
$LIMCHECK
 70
     0
  9
$CHAMFERA
 40
0.0
  9
$CHAMFERB
 40
0.0
  9
$CHAMFERC
 40
0.0
  9
$CHAMFERD
 40
0.0
  9
$SKPOLY
 70
     0
  9
$TDCREATE
 40
2453452.580676806
  9
$TDUCREATE
 40
2453452.539010139
  9
$TDUPDATE
 40
2457213.680100428
  9
$TDUUPDATE
 40
2457213.638433761
  9
$TDINDWG
 40
0.6414749884
  9
$TDUSRTIMER
 40
0.6414749884
  9
$USRTIMER
 70
     1
  9
$ANGBASE
 50
0.0
  9
$ANGDIR
 70
     0
  9
$PDMODE
 70
     0
  9
$PDSIZE
 40
0.0
  9
$PLINEWID
 40
0.02
  9
$SPLFRAME
 70
     0
  9
$SPLINETYPE
 70
     6
  9
$SPLINESEGS
 70
    20
  9
$HANDSEED
  5
20B9
  9
$SURFTAB1
 70
     6
  9
$SURFTAB2
 70
     6
  9
$SURFTYPE
 70
     6
  9
$SURFU
 70
     6
  9
$SURFV
 70
     6
  9
$UCSBASE
  2

  9
$UCSNAME
  2

  9
$UCSORG
 10
0.0
 20
0.0
 30
0.0
  9
$UCSXDIR
 10
1.0
 20
0.0
 30
0.0
  9
$UCSYDIR
 10
0.0
 20
1.0
 30
0.0
  9
$UCSORTHOREF
  2

  9
$UCSORTHOVIEW
 70
     0
  9
$UCSORGTOP
 10
0.0
 20
0.0
 30
0.0
  9
$UCSORGBOTTOM
 10
0.0
 20
0.0
 30
0.0
  9
$UCSORGLEFT
 10
0.0
 20
0.0
 30
0.0
  9
$UCSORGRIGHT
 10
0.0
 20
0.0
 30
0.0
  9
$UCSORGFRONT
 10
0.0
 20
0.0
 30
0.0
  9
$UCSORGBACK
 10
0.0
 20
0.0
 30
0.0
  9
$PUCSBASE
  2

  9
$PUCSNAME
  2

  9
$PUCSORG
 10
0.0
 20
0.0
 30
0.0
  9
$PUCSXDIR
 10
1.0
 20
0.0
 30
0.0
  9
$PUCSYDIR
 10
0.0
 20
1.0
 30
0.0
  9
$PUCSORTHOREF
  2

  9
$PUCSORTHOVIEW
 70
     0
  9
$PUCSORGTOP
 10
0.0
 20
0.0
 30
0.0
  9
$PUCSORGBOTTOM
 10
0.0
 20
0.0
 30
0.0
  9
$PUCSORGLEFT
 10
0.0
 20
0.0
 30
0.0
  9
$PUCSORGRIGHT
 10
0.0
 20
0.0
 30
0.0
  9
$PUCSORGFRONT
 10
0.0
 20
0.0
 30
0.0
  9
$PUCSORGBACK
 10
0.0
 20
0.0
 30
0.0
  9
$USERI1
 70
     0
  9
$USERI2
 70
     0
  9
$USERI3
 70
     0
  9
$USERI4
 70
     0
  9
$USERI5
 70
     0
  9
$USERR1
 40
0.0
  9
$USERR2
 40
0.0
  9
$USERR3
 40
0.0
  9
$USERR4
 40
0.0
  9
$USERR5
 40
0.0
  9
$WORLDVIEW
 70
     1
  9
$SHADEDGE
 70
     3
  9
$SHADEDIF
 70
    70
  9
$TILEMODE
 70
     1
  9
$MAXACTVP
 70
    64
  9
$PINSBASE
 10
0.0
 20
0.0
 30
0.0
  9
$PLIMCHECK
 70
     0
  9
$PEXTMIN
 10
1.000000000000000E+20
 20
1.000000000000000E+20
 30
1.000000000000000E+20
  9
$PEXTMAX
 10
-1.000000000000000E+20
 20
-1.000000000000000E+20
 30
-1.000000000000000E+20
  9
$PLIMMIN
 10
0.0
 20
0.0
  9
$PLIMMAX
 10
12.0
 20
9.0
  9
$UNITMODE
 70
     0
  9
$VISRETAIN
 70
     1
  9
$PLINEGEN
 70
     1
  9
$PSLTSCALE
 70
     0
  9
$TREEDEPTH
 70
  3020
  9
$CMLSTYLE
  2
STANDARD
  9
$CMLJUST
 70
     0
  9
$CMLSCALE
 40
1.0
  9
$PROXYGRAPHICS
 70
     1
  9
$MEASUREMENT
 70
     0
  9
$CELWEIGHT
370
    -1
  9
$ENDCAPS
280
     0
  9
$JOINSTYLE
280
     0
  9
$LWDISPLAY
290
     0
  9
$INSUNITS
 70
     0
  9
$HYPERLINKBASE
  1

  9
$STYLESHEET
  1
acad.stb
  9
$XEDIT
290
     1
  9
$CEPSNTYPE
380
     0
  9
$PSTYLEMODE
290
     0
  9
$FINGERPRINTGUID
  2
{EC105A1C-E142-44C7-BC86-CD58E02763F3}
  9
$VERSIONGUID
  2
{10D2CFC5-B8F6-4D75-AB96-4637FBC2607A}
  9
$EXTNAMES
290
     0
  9
$PSVPSCALE
 40
0.0
  9
$OLESTARTUP
290
     0
  9
$SORTENTS
280
   127
  9
$INDEXCTL
280
     0
  9
$HIDETEXT
280
     0
  9
$XCLIPFRAME
280
     0
  9
$HALOGAP
280
     0
  9
$OBSCOLOR
 70
   257
  9
$OBSLTYPE
280
     0
  9
$INTERSECTIONDISPLAY
280
     0
  9
$INTERSECTIONCOLOR
 70
   257
  9
$DIMASSOC
280
     1
  9
$PROJECTNAME
  1

  9
$CAMERADISPLAY
290
     0
  9
$LENSLENGTH
 40
50.0
  9
$CAMERAHEIGHT
 40
0.0
  9
$STEPSPERSEC
 40
2.0
  9
$STEPSIZE
 40
6.0
  9
$3DDWFPREC
 40
2.0
  9
$PSOLWIDTH
 40
0.25
  9
$PSOLHEIGHT
 40
4.0
  9
$LOFTANG1
 40
1.570796326794897
  9
$LOFTANG2
 40
1.570796326794897
  9
$LOFTMAG1
 40
0.0
  9
$LOFTMAG2
 40
0.0
  9
$LOFTPARAM
 70
     7
  9
$LOFTNORMALS
280
     1
  9
$LATITUDE
 40
37.795
  9
$LONGITUDE
 40
-122.394
  9
$NORTHDIRECTION
 40
0.0
  9
$TIMEZONE
 70
 -8000
  9
$LIGHTGLYPHDISPLAY
280
     1
  9
$TILEMODELIGHTSYNCH
280
     1
  9
$CMATERIAL
347
2D2
  9
$SOLIDHIST
280
     1
  9
$SHOWHIST
280
     1
  9
$DWFFRAME
280
     2
  9
$DGNFRAME
280
     0
  9
$REALWORLDSCALE
290
     1
  9
$INTERFERECOLOR
 62
     1
  9
$INTERFEREOBJVS
345
2DF
  9
$INTERFEREVPVS
346
2DC
  9
$CSHADOW
280
     0
  9
$SHADOWPLANELOCATION
 40
0.0
  0
ENDSEC
  0
SECTION
  2
CLASSES
  0
CLASS
  1
LWPOLYLINE
  2
AcDbPolyline
  3
ObjectDBX Classes
 90
        0
 91
        1
280
     0
281
     1
  0
CLASS
  1
POLYLINE
  2
AcDb2dPolyline
  3
ObjectDBX Classes
 90
        0
 91
        1
280
     0
281
     1
  0
CLASS
  1
ACDBDICTIONARYWDFLT
  2
AcDbDictionaryWithDefault
  3
ObjectDBX Classes
 90
        0
 91
        4
280
     0
281
     0
  0
CLASS
  1
ACDBPLACEHOLDER
  2
AcDbPlaceHolder
  3
ObjectDBX Classes
 90
        0
 91
        1
280
     0
281
     0
  0
CLASS
  1
LAYOUT
  2
AcDbLayout
  3
ObjectDBX Classes
 90
        0
 91
        1
280
     0
281
     0
  0
CLASS
  1
MATERIAL
  2
AcDbMaterial
  3
ObjectDBX Classes
 90
     1153
 91
        4
280
     0
281
     0
  0
CLASS
  1
VISUALSTYLE
  2
AcDbVisualStyle
  3
ObjectDBX Classes
 90
     4095
 91
        4
280
     0
281
     0
  0
CLASS
  1
TABLESTYLE
  2
AcDbTableStyle
  3
ObjectDBX Classes
 90
     4095
 91
        4
280
     0
281
     0
  0
CLASS
  1
DICTIONARYVAR
  2
AcDbDictionaryVar
  3
ObjectDBX Classes
 90
        0
 91
        4
280
     0
281
     0
  0
CLASS
  1
SORTENTSTABLE
  2
AcDbSortentsTable
  3
ObjectDBX Classes
 90
        0
 91
        4
280
     0
281
     0
  0
CLASS
  1
EXACXREFPANELOBJECT
  2
ExAcXREFPanelObject
  3
EXAC_ESW
 90
     1025
 91
        1
280
     1
281
     0
  0
CLASS
  1
NPOCOLLECTION
  2
AcDbImpNonPersistentObjectsCollection
  3
ObjectDBX Classes
 90
     1153
 91
        1
280
     1
281
     0
  0
CLASS
  1
SOLID_BACKGROUND
  2
AcDbSolidBackground
  3
SCENEOE
 90
     4095
 91
        4
280
     0
281
     0
  0
CLASS
  1
EXACTERMXREFMAP
  2
ExAcTermXrefMap
  3
EXAC_SERVICE
 90
     1025
 91
        1
280
     1
281
     0
  0
CLASS
  1
SCALE
  2
AcDbScale
  3
ObjectDBX Classes
 90
     1153
 91
        4
280
     0
281
     0
  0
CLASS
  1
MLEADERSTYLE
  2
AcDbMLeaderStyle
  3
ACDB_MLEADERSTYLE_CLASS
 90
     4095
 91
        4
280
     0
281
     0
  0
CLASS
  1
CELLSTYLEMAP
  2
AcDbCellStyleMap
  3
ObjectDBX Classes
 90
     1152
 91
        4
280
     0
281
     0
  0
ENDSEC
  0
SECTION
  2
TABLES
  0
TABLE
  2
VPORT
  5
21
330
0
100
AcDbSymbolTable
 70
     1
  0
VPORT
  5
2CF
330
21
100
AcDbSymbolTableRecord
100
AcDbViewportTableRecord
  2
*Active
 70
     0
 10
0.0
 20
0.0
 11
1.0
 21
1.0
 12
8632628.023441961
 22
4514323.096870996
 13
0.0
 23
0.0
 14
1.0
 24
1.0
 15
0.0
 25
0.0
 16
0.0
 26
0.0
 36
1.0
 17
0.0
 27
0.0
 37
0.0
 40
44.42559879086912
 41
2.037356321839081
 42
50.0
 43
0.0
 44
0.0
 50
0.0
 51
0.0
 71
     0
 72
   100
 73
     1
 74
     1
 75
     0
 76
     0
 77
     0
 78
     0
281
     0
 65
     1
110
0.0
120
0.0
130
0.0
111
1.0
121
0.0
131
0.0
112
0.0
122
1.0
132
0.0
 79
     0
146
0.0
348
2DB
 60
     3
 61
     5
292
     1
282
     1
141
0.0
142
0.0
 63
   250
421
  3355443
  0
ENDTAB
  0
TABLE
  2
LTYPE
  5
22
330
0
100
AcDbSymbolTable
 70
     5
  0
LTYPE
  5
23
330
22
100
AcDbSymbolTableRecord
100
AcDbLinetypeTableRecord
  2
BYBLOCK
 70
     0
  3

 72
    65
 73
     0
 40
0.0
  0
LTYPE
  5
24
330
22
100
AcDbSymbolTableRecord
100
AcDbLinetypeTableRecord
  2
BYLAYER
 70
     0
  3

 72
    65
 73
     0
 40
0.0
  0
LTYPE
  5
25
330
22
100
AcDbSymbolTableRecord
100
AcDbLinetypeTableRecord
  2
CONTINUOUS
 70
     0
  3
Solid line
 72
    65
 73
     0
 40
0.0
  0
LTYPE
  5
26
330
22
100
AcDbSymbolTableRecord
100
AcDbLinetypeTableRecord
  2
B
 70
     0
  3
Solid line
 72
    65
 73
     0
 40
0.0
  0
LTYPE
  5
E2A
330
22
100
AcDbSymbolTableRecord
100
AcDbLinetypeTableRecord
  2
ACAD_ISO02W100
 70
     0
  3
ISO dash __ __ __ __ __ __ __ __ __ __ __ __ __
 72
    65
 73
     2
 40
15.0
 49
12.0
 74
     0
 49
-3.0
 74
     0
  0
LTYPE
  5
E37
330
22
100
AcDbSymbolTableRecord
100
AcDbLinetypeTableRecord
  2
ACAD_ISO04W100
 70
     0
  3
ISO long-dash dot ____ . ____ . ____ . ____ . _
 72
    65
 73
     4
 40
30.0
 49
24.0
 74
     0
 49
-3.0
 74
     0
 49
0.0
 74
     0
 49
-3.0
 74
     0
  0
LTYPE
  5
1DAD
330
22
100
AcDbSymbolTableRecord
100
AcDbLinetypeTableRecord
  2
ACAD_ISO03W100
 70
     0
  3
ISO dash space __    __    __    __    __    __
 72
    65
 73
     2
 40
30.0
 49
12.0
 74
     0
 49
-18.0
 74
     0
  0
ENDTAB
  0
TABLE
  2
LAYER
  5
2B
102
{ACAD_XDICTIONARY
360
929
102
}
330
0
100
AcDbSymbolTable
 70
    10
  0
LAYER
  5
2C
330
2B
100
AcDbSymbolTableRecord
100
AcDbLayerTableRecord
  2
0
 70
     0
 62
     7
  6
CONTINUOUS
370
    -3
390
14D
347
2D4
  0
LAYER
  5
2FC
330
2B
100
AcDbSymbolTableRecord
100
AcDbLayerTableRecord
  2
Features
 70
     0
 62
     1
  6
CONTINUOUS
370
    -3
390
14D
347
2D4
  0
LAYER
  5
2FD
330
2B
100
AcDbSymbolTableRecord
100
AcDbLayerTableRecord
  2
Defpoints
 70
     0
 62
     7
  6
CONTINUOUS
290
     0
370
    -3
390
14D
347
2D4
  0
LAYER
  5
92D
330
2B
100
AcDbSymbolTableRecord
100
AcDbLayerTableRecord
  2
kvadrat
 70
     0
 62
    94
  6
ACAD_ISO02W100
370
    -3
390
14D
347
2D4
  0
LAYER
  5
92E
330
2B
100
AcDbSymbolTableRecord
100
AcDbLayerTableRecord
  2
stripped_area
 70
     0
 62
     4
  6
ACAD_ISO04W100
370
    -3
390
14D
347
2D4
  0
LAYER
  5
930
330
2B
100
AcDbSymbolTableRecord
100
AcDbLayerTableRecord
  2
TEXT
 70
     0
 62
     7
  6
CONTINUOUS
370
    -3
390
14D
347
2D4
  0
LAYER
  5
1887
330
2B
100
AcDbSymbolTableRecord
100
AcDbLayerTableRecord
  2
Points
 70
     0
 62
     7
  6
CONTINUOUS
370
    -3
390
14D
347
2D4
  0
LAYER
  5
1888
330
2B
100
AcDbSymbolTableRecord
100
AcDbLayerTableRecord
  2
Lines
 70
     0
 62
     7
  6
CONTINUOUS
370
    -3
390
14D
347
2D4
  0
LAYER
  5
1CF6
330
2B
100
AcDbSymbolTableRecord
100
AcDbLayerTableRecord
  2
Body
 70
     0
 62
   150
  6
CONTINUOUS
370
    -3
390
14D
347
2D4
1001
AcAecLayerStandard
1000

1000

  0
LAYER
  5
1CFA
330
2B
100
AcDbSymbolTableRecord
100
AcDbLayerTableRecord
  2
Metalwork
 70
     0
 62
    78
  6
CONTINUOUS
370
    35
390
14D
347
2D4
1001
AcAecLayerStandard
1000

1000

  0
ENDTAB
  0
TABLE
  2
STYLE
  5
2D
330
0
100
AcDbSymbolTable
 70
     2
  0
STYLE
  5
2E
330
2D
100
AcDbSymbolTableRecord
100
AcDbTextStyleTableRecord
  2
CourierNew
 70
     0
 40
0.0
 41
1.0
 50
0.0
 71
     0
 42
0.2
  3
cour.ttf
  4

1001
ACAD
1000
Courier New
1071
       49
  0
STYLE
  5
153
330
2D
100
AcDbSymbolTableRecord
100
AcDbTextStyleTableRecord
  2
Standard
 70
     0
 40
0.0
 41
1.0
 50
0.0
 71
     0
 42
0.2
  3

  4

  0
ENDTAB
  0
TABLE
  2
VIEW
  5
2F
330
0
100
AcDbSymbolTable
 70
     0
  0
ENDTAB
  0
TABLE
  2
UCS
  5
30
330
0
100
AcDbSymbolTable
 70
     0
  0
ENDTAB
  0
TABLE
  2
APPID
  5
31
330
0
100
AcDbSymbolTable
 70
     7
  0
APPID
  5
32
330
31
100
AcDbSymbolTableRecord
100
AcDbRegAppTableRecord
  2
ACAD
 70
     0
  0
APPID
  5
7FA
330
31
100
AcDbSymbolTableRecord
100
AcDbRegAppTableRecord
  2
ACAD_EXEMPT_FROM_CAD_STANDARDS
 70
     0
  0
APPID
  5
E69
330
31
100
AcDbSymbolTableRecord
100
AcDbRegAppTableRecord
  2
FDT_SPEED
 70
     0
  0
APPID
  5
E6A
330
31
100
AcDbSymbolTableRecord
100
AcDbRegAppTableRecord
  2
FDT_PATH
 70
     0
  0
APPID
  5
E6B
330
31
100
AcDbSymbolTableRecord
100
AcDbRegAppTableRecord
  2
ACAD_PSEXT
 70
     0
  0
APPID
  5
1CF7
330
31
100
AcDbSymbolTableRecord
100
AcDbRegAppTableRecord
  2
AcAecLayerStandard
 70
     0
  0
APPID
  5
1EC7
330
31
100
AcDbSymbolTableRecord
100
AcDbRegAppTableRecord
  2
DCO15
 70
     0
  0
ENDTAB
  0
TABLE
  2
DIMSTYLE
  5
33
330
0
100
AcDbSymbolTable
 70
     1
100
AcDbDimStyleTable
  0
DIMSTYLE
105
34
330
33
100
AcDbSymbolTableRecord
100
AcDbDimStyleTableRecord
  2
STANDARD
 70
     0
178
     0
340
2E
  0
ENDTAB
  0
TABLE
  2
BLOCK_RECORD
  5
35
330
0
100
AcDbSymbolTable
 70
     2
  0
BLOCK_RECORD
  5
36
102
{ACAD_XDICTIONARY
360
802
102
}
330
35
100
AcDbSymbolTableRecord
100
AcDbBlockTableRecord
  2
*MODEL_SPACE
340
14E
 70
     0
280
     1
281
     0
  0
BLOCK_RECORD
  5
37
330
35
100
AcDbSymbolTableRecord
100
AcDbBlockTableRecord
  2
*PAPER_SPACE
340
14F
 70
     0
280
     1
281
     0
  0
BLOCK_RECORD
  5
1ABF
330
35
100
AcDbSymbolTableRecord
100
AcDbBlockTableRecord
  2
A$C45966884
340
0
 70
     0
280
     1
281
     0
  0
BLOCK_RECORD
  5
1DCE
102
{ACAD_XDICTIONARY
360
1DDC
102
}
330
35
100
AcDbSymbolTableRecord
100
AcDbBlockTableRecord
  2
A$C1F166DD2
340
0
 70
     0
280
     1
281
     0
  0
ENDTAB
  0
ENDSEC
  0
SECTION
  2
BLOCKS
  0
BLOCK
  5
38
330
36
100
AcDbEntity
  8
0
100
AcDbBlockBegin
  2
*MODEL_SPACE
 70
     0
 10
0.0
 20
0.0
 30
0.0
  3
*MODEL_SPACE
  1

  0
ENDBLK
  5
39
330
36
100
AcDbEntity
  8
0
100
AcDbBlockEnd
  0
BLOCK
  5
3A
330
37
100
AcDbEntity
 67
     1
  8
0
100
AcDbBlockBegin
  2
*PAPER_SPACE
 70
     0
 10
0.0
 20
0.0
 30
0.0
  3
*PAPER_SPACE
  1

  0
ENDBLK
  5
3B
330
37
100
AcDbEntity
 67
     1
  8
0
100
AcDbBlockEnd
  0
BLOCK
  5
1BD9
330
1ABF
100
AcDbEntity
  8
0
100
AcDbBlockBegin
  2
A$C45966884
 70
     0
 10
0.0
 20
0.0
 30
0.0
  3
A$C45966884
  1

  0
POINT
  5
1AC0
330
1ABF
100
AcDbEntity
  8
Points
 62
     0
100
AcDbPoint
 10
53.82299975871729
 20
8.00099996527922
 30
-0.398
  0
POINT
  5
1AC1
330
1ABF
100
AcDbEntity
  8
Points
 62
     0
100
AcDbPoint
 10
52.99699975871727
 20
12.08799996527921
 30
-0.232
  0
POINT
  5
1AC2
330
1ABF
100
AcDbEntity
  8
Points
 62
     0
100
AcDbPoint
 10
46.66499975871739
 20
11.47099996527913
 30
-0.118
  0
POINT
  5
1AC3
330
1ABF
100
AcDbEntity
  8
Points
 62
     0
100
AcDbPoint
 10
45.68499975871737
 20
19.26999996527923
 30
-0.581
  0
POINT
  5
1AC4
330
1ABF
100
AcDbEntity
  8
Points
 62
     0
100
AcDbPoint
 10
43.02999975871739
 20
19.01299996527928
 30
-0.459
  0
POINT
  5
1AC5
330
1ABF
100
AcDbEntity
  8
Points
 62
     0
100
AcDbPoint
 10
43.13299975871723
 20
17.96999996527916
 30
-0.358
  0
POINT
  5
1AC6
330
1ABF
100
AcDbEntity
  8
Points
 62
     0
100
AcDbPoint
 10
44.43099975871746
 20
17.92799996527924
 30
-0.492
  0
POINT
  5
1AC7
330
1ABF
100
AcDbEntity
  8
Points
 62
     0
100
AcDbPoint
 10
45.09499975871722
 20
13.36399996527916
 30
-0.157
  0
POINT
  5
1AC8
330
1ABF
100
AcDbEntity
  8
Points
 62
     0
100
AcDbPoint
 10
44.71599975871732
 20
13.20999996527917
 30
-0.042
  0
POINT
  5
1AC9
330
1ABF
100
AcDbEntity
  8
Points
 62
     0
100
AcDbPoint
 10
44.66499975871739
 20
11.32099996527916
 30
0.058
  0
POINT
  5
1ACA
330
1ABF
100
AcDbEntity
  8
Points
 62
     0
100
AcDbPoint
 10
38.12499975871719
 20
10.53299996527926
 30
0.624
  0
POINT
  5
1ACB
330
1ABF
100
AcDbEntity
  8
Points
 62
     0
100
AcDbPoint
 10
37.89199975871725
 20
11.30399996527922
 30
0.631
  0
POINT
  5
1ACC
330
1ABF
100
AcDbEntity
  8
Points
 62
     0
100
AcDbPoint
 10
35.27799975871721
 20
11.04699996527916
 30
0.752
  0
POINT
  5
1ACD
330
1ABF
100
AcDbEntity
  8
Points
 62
     0
100
AcDbPoint
 10
35.19299975871741
 20
10.19199996527914
 30
0.8490000000000001
  0
POINT
  5
1ACE
330
1ABF
100
AcDbEntity
  8
Points
 62
     0
100
AcDbPoint
 10
18.94299975871741
 20
8.397999965279269
 30
1.108
  0
POINT
  5
1ACF
330
1ABF
100
AcDbEntity
  8
Points
 62
     0
100
AcDbPoint
 10
18.77499975871729
 20
8.631999965279192
 30
1.079
  0
POINT
  5
1AD0
330
1ABF
100
AcDbEntity
  8
Points
 62
     0
100
AcDbPoint
 10
17.11399975871723
 20
8.356999965279215
 30
1.099
  0
POINT
  5
1AD1
330
1ABF
100
AcDbEntity
  8
Points
 62
     0
100
AcDbPoint
 10
17.10999975871732
 20
7.960999965279143
 30
1.087
  0
POINT
  5
1AD2
330
1ABF
100
AcDbEntity
  8
Points
 62
     0
100
AcDbPoint
 10
2.810999758717344
 20
6.269999965279226
 30
1.193
  0
POINT
  5
1AD3
330
1ABF
100
AcDbEntity
  8
Points
 62
     0
100
AcDbPoint
 10
3.17199975871722
 20
2.308999965279213
 30
1.175
  0
POINT
  5
1AD4
330
1ABF
100
AcDbEntity
  8
Points
 62
     0
100
AcDbPoint
 10
18.9569997587173
 20
4.181999965279147
 30
1.23
  0
POINT
  5
1AD5
330
1ABF
100
AcDbEntity
  8
Points
 62
     0
100
AcDbPoint
 10
19.14599975871738
 20
3.550999965279175
 30
1.26
  0
POINT
  5
1AD6
330
1ABF
100
AcDbEntity
  8
Points
 62
     0
100
AcDbPoint
 10
21.95799975871728
 20
3.901999965279174
 30
1.335
  0
POINT
  5
1AD7
330
1ABF
100
AcDbEntity
  8
Points
 62
     0
100
AcDbPoint
 10
21.94699975871731
 20
4.256999965279192
 30
1.327
  0
POINT
  5
1AD8
330
1ABF
100
AcDbEntity
  8
Points
 62
     0
100
AcDbPoint
 10
31.34099975871732
 20
5.424999965279198
 30
1.18
  0
POINT
  5
1AD9
330
1ABF
100
AcDbEntity
  8
Points
 62
     0
100
AcDbPoint
 10
31.57999975871735
 20
4.072999965279223
 30
1.239
  0
POINT
  5
1ADA
330
1ABF
100
AcDbEntity
  8
Points
 62
     0
100
AcDbPoint
 10
35.22599975871731
 20
4.395999965279202
 30
1.199
  0
POINT
  5
1ADB
330
1ABF
100
AcDbEntity
  8
Points
 62
     0
100
AcDbPoint
 10
35.09399975871725
 20
5.79199996527916
 30
1.13
  0
POINT
  5
1ADC
330
1ABF
100
AcDbEntity
  8
Points
 62
     0
100
AcDbPoint
 10
53.91299975871743
 20
7.934999965279189
 30
-0.386
  0
POINT
  5
1ADD
330
1ABF
100
AcDbEntity
  8
Points
 62
     0
100
AcDbPoint
 10
7.994999758717313
 20
6.502999965279173
 30
0.852
  0
POINT
  5
1ADE
330
1ABF
100
AcDbEntity
  8
Points
 62
     0
100
AcDbPoint
 10
8.163999758717182
 20
5.150999965279198
 30
0.81
  0
POINT
  5
1ADF
330
1ABF
100
AcDbEntity
  8
Points
 62
     0
100
AcDbPoint
 10
9.104999758717213
 20
5.25099996527922
 30
0.868
  0
POINT
  5
1AE0
330
1ABF
100
AcDbEntity
  8
Points
 62
     0
100
AcDbPoint
 10
8.994999758717313
 20
6.549999965279198
 30
0.879
  0
POINT
  5
1AE1
330
1ABF
100
AcDbEntity
  8
Points
 62
     0
100
AcDbPoint
 10
8.597999758717378
 20
6.474999965279153
 30
0.8440000000000001
  0
POINT
  5
1AE2
330
1ABF
100
AcDbEntity
  8
Points
 62
     0
100
AcDbPoint
 10
10.71899975871725
 20
5.04299996527925
 30
0.9229999999999999
  0
POINT
  5
1AE3
330
1ABF
100
AcDbEntity
  8
Points
 62
     0
100
AcDbPoint
 10
9.58999975871734
 20
5.133999965279259
 30
0.846
  0
POINT
  5
1AE4
330
1ABF
100
AcDbEntity
  8
Points
 62
     0
100
AcDbPoint
 10
9.675999758717353
 20
4.185999965279166
 30
0.955
  0
POINT
  5
1AE5
330
1ABF
100
AcDbEntity
  8
Points
 62
     0
100
AcDbPoint
 10
10.73699975871727
 20
4.704999965279171
 30
0.87
  0
POINT
  5
1AE6
330
1ABF
100
AcDbEntity
  8
Points
 62
     0
100
AcDbPoint
 10
12.08599975871743
 20
6.737999965279187
 30
0.9520000000000001
  0
POINT
  5
1AE7
330
1ABF
100
AcDbEntity
  8
Points
 62
     0
100
AcDbPoint
 10
12.06099975871734
 20
5.86199996527921
 30
0.925
  0
POINT
  5
1AE8
330
1ABF
100
AcDbEntity
  8
Points
 62
     0
100
AcDbPoint
 10
11.31399975871727
 20
5.765999965279207
 30
0.97
  0
POINT
  5
1AE9
330
1ABF
100
AcDbEntity
  8
Points
 62
     0
100
AcDbPoint
 10
11.44499975871736
 20
6.552999965279241
 30
0.941
  0
POINT
  5
1AEA
330
1ABF
100
AcDbEntity
  8
Points
 62
     0
100
AcDbPoint
 10
13.79099975871736
 20
7.379999965279239
 30
0.7390000000000001
  0
POINT
  5
1AEB
330
1ABF
100
AcDbEntity
  8
Points
 62
     0
100
AcDbPoint
 10
14.00799975871723
 20
6.398999965279245
 30
0.747
  0
POINT
  5
1AEC
330
1ABF
100
AcDbEntity
  8
Points
 62
     0
100
AcDbPoint
 10
15.15599975871737
 20
6.636999965279188
 30
0.79
  0
POINT
  5
1AED
330
1ABF
100
AcDbEntity
  8
Points
 62
     0
100
AcDbPoint
 10
15.02399975871731
 20
7.493999965279158
 30
1.045
  0
POINT
  5
1AEE
330
1ABF
100
AcDbEntity
  8
Points
 62
     0
100
AcDbPoint
 10
14.89799975871733
 20
4.198999965279199
 30
1.031
  0
POINT
  5
1AEF
330
1ABF
100
AcDbEntity
  8
Points
 62
     0
100
AcDbPoint
 10
14.23799975871725
 20
4.110999965279234
 30
1.004
  0
POINT
  5
1AF0
330
1ABF
100
AcDbEntity
  8
Points
 62
     0
100
AcDbPoint
 10
14.4859997587173
 20
4.229999965279148
 30
1.042
  0
POINT
  5
1AF1
330
1ABF
100
AcDbEntity
  8
Points
 62
     0
100
AcDbPoint
 10
17.93999975871725
 20
8.065999965279161
 30
0.948
  0
POINT
  5
1AF2
330
1ABF
100
AcDbEntity
  8
Points
 62
     0
100
AcDbPoint
 10
17.87799975871735
 20
7.228999965279172
 30
0.992
  0
POINT
  5
1AF3
330
1ABF
100
AcDbEntity
  8
Points
 62
     0
100
AcDbPoint
 10
17.87699975871737
 20
7.225999965279129
 30
0.993
  0
POINT
  5
1AF4
330
1ABF
100
AcDbEntity
  8
Points
 62
     0
100
AcDbPoint
 10
18.42199975871722
 20
7.280999965279193
 30
0.9670000000000001
  0
POINT
  5
1AF5
330
1ABF
100
AcDbEntity
  8
Points
 62
     0
100
AcDbPoint
 10
19.36799975871736
 20
5.661999965279165
 30
0.715
  0
POINT
  5
1AF6
330
1ABF
100
AcDbEntity
  8
Points
 62
     0
100
AcDbPoint
 10
19.1589997587173
 20
3.636999965279188
 30
0.9890000000000001
  0
POINT
  5
1AF7
330
1ABF
100
AcDbEntity
  8
Points
 62
     0
100
AcDbPoint
 10
21.77399975871731
 20
3.835999965279143
 30
1.086
  0
POINT
  5
1AF8
330
1ABF
100
AcDbEntity
  8
Points
 62
     0
100
AcDbPoint
 10
21.7699997587174
 20
6.136999965279188
 30
0.519
  0
POINT
  5
1AF9
330
1ABF
100
AcDbEntity
  8
Points
 62
     0
100
AcDbPoint
 10
23.68099975871746
 20
7.655999965279193
 30
0.244
  0
POINT
  5
1AFA
330
1ABF
100
AcDbEntity
  8
Points
 62
     0
100
AcDbPoint
 10
25.12299975871724
 20
8.062999965279232
 30
0.128
  0
POINT
  5
1AFB
330
1ABF
100
AcDbEntity
  8
Points
 62
     0
100
AcDbPoint
 10
24.97099975871743
 20
6.713999965279186
 30
0.5379999999999999
  0
POINT
  5
1AFC
330
1ABF
100
AcDbEntity
  8
Points
 62
     0
100
AcDbPoint
 10
23.97099975871743
 20
6.631999965279192
 30
0.422
  0
POINT
  5
1AFD
330
1ABF
100
AcDbEntity
  8
Points
 62
     0
100
AcDbPoint
 10
32.16399975871718
 20
5.979999965279148
 30
0.258
  0
POINT
  5
1AFE
330
1ABF
100
AcDbEntity
  8
Points
 62
     0
100
AcDbPoint
 10
32.10499975871721
 20
4.863999965279163
 30
0.358
  0
POINT
  5
1AFF
330
1ABF
100
AcDbEntity
  8
Points
 62
     0
100
AcDbPoint
 10
34.36199975871727
 20
4.709999965279167
 30
0.329
  0
POINT
  5
1B00
330
1ABF
100
AcDbEntity
  8
Points
 62
     0
100
AcDbPoint
 10
33.98199975871717
 20
6.16799996527925
 30
0.28
  0
POINT
  5
1B01
330
1ABF
100
AcDbEntity
  8
Points
 62
     0
100
AcDbPoint
 10
35.7549997587173
 20
10.66499996527921
 30
0.017
  0
POINT
  5
1B02
330
1ABF
100
AcDbEntity
  8
Points
 62
     0
100
AcDbPoint
 10
36.30999975871737
 20
9.832999965279214
 30
0.019
  0
POINT
  5
1B03
330
1ABF
100
AcDbEntity
  8
Points
 62
     0
100
AcDbPoint
 10
37.43099975871746
 20
10.0739999652792
 30
-0.004
  0
POINT
  5
1B04
330
1ABF
100
AcDbEntity
  8
Points
 62
     0
100
AcDbPoint
 10
37.14799975871733
 20
10.86299996527919
 30
0.002
  0
POINT
  5
1B05
330
1ABF
100
AcDbEntity
  8
Points
 62
     0
100
AcDbPoint
 10
43.60999975871732
 20
9.383999965279259
 30
-0.31
  0
POINT
  5
1B06
330
1ABF
100
AcDbEntity
  8
Points
 62
     0
100
AcDbPoint
 10
42.86899975871734
 20
10.18499996527919
 30
-0.262
  0
POINT
  5
1B07
330
1ABF
100
AcDbEntity
  8
Points
 62
     0
100
AcDbPoint
 10
41.38699975871737
 20
9.748999965279154
 30
-0.21
  0
POINT
  5
1B08
330
1ABF
100
AcDbEntity
  8
Points
 62
     0
100
AcDbPoint
 10
42.38099975871728
 20
8.844999965279158
 30
-0.141
  0
POINT
  5
1B09
330
1ABF
100
AcDbEntity
  8
Points
 62
     0
100
AcDbPoint
 10
61.21099975871743
 20
6.106999965279215
 30
-0.343
  0
POINT
  5
1B0A
330
1ABF
100
AcDbEntity
  8
Points
 62
     0
100
AcDbPoint
 10
43.13799975871734
 20
3.088999965279186
 30
1.215
  0
POINT
  5
1B0B
330
1ABF
100
AcDbEntity
  8
Points
 62
     0
100
AcDbPoint
 10
-0.0000002412828053
 20
-0.000000034720756
 30
1.157
  0
POINT
  5
1B0C
330
1ABF
100
AcDbEntity
  8
Points
 62
     0
100
AcDbPoint
 10
6.272999758717333
 20
14.9679999652792
 30
0.8909999999999999
  0
POINT
  5
1B0D
330
1ABF
100
AcDbEntity
  8
Points
 62
     0
100
AcDbPoint
 10
22.03899975871718
 20
18.62299996527918
 30
0.226
  0
POINT
  5
1B0E
330
1ABF
100
AcDbEntity
  8
Points
 62
     0
100
AcDbPoint
 10
49.49799975871724
 20
20.89299996527927
 30
-0.561
  0
POINT
  5
1B0F
330
1ABF
100
AcDbEntity
  8
Points
 62
     0
100
AcDbPoint
 10
45.84799975871738
 20
42.35599996527912
 30
-2.253
  0
POINT
  5
1B10
330
1ABF
100
AcDbEntity
  8
Points
 62
     0
100
AcDbPoint
 10
26.96999975871722
 20
39.0019999652792
 30
-0.34
  0
POINT
  5
1B11
330
1ABF
100
AcDbEntity
  8
Points
 62
     0
100
AcDbPoint
 10
3.653999758717191
 20
36.56499996527918
 30
1.274
  0
POINT
  5
1B12
330
1ABF
100
AcDbEntity
  8
Points
 62
     0
100
AcDbPoint
 10
40.50899975871721
 20
13.79599996527918
 30
0.252
  0
POINT
  5
1B13
330
1ABF
100
AcDbEntity
  8
Points
 62
     0
100
AcDbPoint
 10
39.55299975871731
 20
14.43299996527924
 30
0.235
  0
POINT
  5
1B14
330
1ABF
100
AcDbEntity
  8
Points
 62
     0
100
AcDbPoint
 10
38.68599975871734
 20
13.45799996527921
 30
0.236
  0
POINT
  5
1B15
330
1ABF
100
AcDbEntity
  8
Points
 62
     0
100
AcDbPoint
 10
40.0629997587173
 20
13.09899996527918
 30
0.329
  0
POINT
  5
1B16
330
1ABF
100
AcDbEntity
  8
Points
 62
     0
100
AcDbPoint
 10
33.25799975871723
 20
16.35499996527915
 30
0.336
  0
POINT
  5
1B17
330
1ABF
100
AcDbEntity
  8
Points
 62
     0
100
AcDbPoint
 10
33.02099975871738
 20
15.30599996527917
 30
0.282
  0
POINT
  5
1B18
330
1ABF
100
AcDbEntity
  8
Points
 62
     0
100
AcDbPoint
 10
34.35199975871728
 20
15.43799996527923
 30
0.4
  0
POINT
  5
1B19
330
1ABF
100
AcDbEntity
  8
Points
 62
     0
100
AcDbPoint
 10
29.40199975871724
 20
12.44499996527918
 30
0.7559999999999999
  0
POINT
  5
1B1A
330
1ABF
100
AcDbEntity
  8
Points
 62
     0
100
AcDbPoint
 10
27.99199975871716
 20
11.72599996527913
 30
0.9129999999999999
  0
POINT
  5
1B1B
330
1ABF
100
AcDbEntity
  8
Points
 62
     0
100
AcDbPoint
 10
27.80699975871721
 20
10.64499996527923
 30
1.016
  0
POINT
  5
1B1C
330
1ABF
100
AcDbEntity
  8
Points
 62
     0
100
AcDbPoint
 10
28.87299975871724
 20
10.7179999652792
 30
0.9359999999999999
  0
POINT
  5
1B1D
330
1ABF
100
AcDbEntity
  8
Points
 62
     0
100
AcDbPoint
 10
29.59499975871722
 20
11.41599996527918
 30
0.826
  0
POINT
  5
1B1E
330
1ABF
100
AcDbEntity
  8
Points
 62
     0
100
AcDbPoint
 10
25.28599975871725
 20
16.61099996527923
 30
0.626
  0
POINT
  5
1B1F
330
1ABF
100
AcDbEntity
  8
Points
 62
     0
100
AcDbPoint
 10
24.28699975871723
 20
15.86899996527916
 30
0.51
  0
POINT
  5
1B20
330
1ABF
100
AcDbEntity
  8
Points
 62
     0
100
AcDbPoint
 10
25.42099975871724
 20
15.32999996527917
 30
0.53
  0
POINT
  5
1B21
330
1ABF
100
AcDbEntity
  8
Points
 62
     0
100
AcDbPoint
 10
26.3649997587172
 20
16.1219999652792
 30
0.6629999999999999
  0
POINT
  5
1B22
330
1ABF
100
AcDbEntity
  8
Points
 62
     0
100
AcDbPoint
 10
26.48699975871727
 20
16.39299996527927
 30
0.624
  0
POINT
  5
1B23
330
1ABF
100
AcDbEntity
  8
Points
 62
     0
100
AcDbPoint
 10
17.92399975871717
 20
11.34099996527914
 30
0.9520000000000001
  0
POINT
  5
1B24
330
1ABF
100
AcDbEntity
  8
Points
 62
     0
100
AcDbPoint
 10
16.82299975871729
 20
11.28599996527919
 30
0.9470000000000001
  0
POINT
  5
1B25
330
1ABF
100
AcDbEntity
  8
Points
 62
     0
100
AcDbPoint
 10
16.75699975871726
 20
10.03299996527926
 30
1.014
  0
POINT
  5
1B26
330
1ABF
100
AcDbEntity
  8
Points
 62
     0
100
AcDbPoint
 10
18.32599975871744
 20
10.35099996527913
 30
1.013
  0
POINT
  5
1B27
330
1ABF
100
AcDbEntity
  8
Points
 62
     0
100
AcDbPoint
 10
18.53999975871739
 20
11.23499996527914
 30
0.978
  0
POINT
  5
1B28
330
1ABF
100
AcDbEntity
  8
Points
 62
     0
100
AcDbPoint
 10
14.02099975871738
 20
10.57299996527922
 30
0.917
  0
POINT
  5
1B29
330
1ABF
100
AcDbEntity
  8
Points
 62
     0
100
AcDbPoint
 10
14.49299975871736
 20
9.517999965279273
 30
1.031
  0
POINT
  5
1B2A
330
1ABF
100
AcDbEntity
  8
Points
 62
     0
100
AcDbPoint
 10
15.27499975871729
 20
10.57899996527919
 30
0.95
  0
POINT
  5
1B2B
330
1ABF
100
AcDbEntity
  8
Points
 62
     0
100
AcDbPoint
 10
14.63399975871721
 20
10.8719999652792
 30
0.9390000000000001
  0
POLYLINE
  5
1B2C
330
1ABF
100
AcDbEntity
  8
Lines
  6
B
 62
     0
100
AcDb3dPolyline
 66
     1
 10
0.0
 20
0.0
 30
0.0
 70
     8
  0
VERTEX
  5
1B2D
330
1B2C
100
AcDbEntity
  8
Lines
  6
B
 62
     0
100
AcDbVertex
100
AcDb3dPolylineVertex
 10
53.82299975871729
 20
8.00099996527922
 30
-0.398
 70
    32
  0
VERTEX
  5
1B2E
330
1B2C
100
AcDbEntity
  8
Lines
  6
B
 62
     0
100
AcDbVertex
100
AcDb3dPolylineVertex
 10
52.99699975871727
 20
12.08799996527921
 30
-0.232
 70
    32
  0
VERTEX
  5
1B2F
330
1B2C
100
AcDbEntity
  8
Lines
  6
B
 62
     0
100
AcDbVertex
100
AcDb3dPolylineVertex
 10
46.66499975871739
 20
11.47099996527913
 30
-0.118
 70
    32
  0
VERTEX
  5
1B30
330
1B2C
100
AcDbEntity
  8
Lines
  6
B
 62
     0
100
AcDbVertex
100
AcDb3dPolylineVertex
 10
45.68499975871737
 20
19.26999996527923
 30
-0.581
 70
    32
  0
VERTEX
  5
1B31
330
1B2C
100
AcDbEntity
  8
Lines
  6
B
 62
     0
100
AcDbVertex
100
AcDb3dPolylineVertex
 10
43.02999975871739
 20
19.01299996527928
 30
-0.459
 70
    32
  0
VERTEX
  5
1B32
330
1B2C
100
AcDbEntity
  8
Lines
  6
B
 62
     0
100
AcDbVertex
100
AcDb3dPolylineVertex
 10
43.13299975871723
 20
17.96999996527916
 30
-0.358
 70
    32
  0
VERTEX
  5
1B33
330
1B2C
100
AcDbEntity
  8
Lines
  6
B
 62
     0
100
AcDbVertex
100
AcDb3dPolylineVertex
 10
44.43099975871746
 20
17.92799996527924
 30
-0.492
 70
    32
  0
VERTEX
  5
1B34
330
1B2C
100
AcDbEntity
  8
Lines
  6
B
 62
     0
100
AcDbVertex
100
AcDb3dPolylineVertex
 10
45.09499975871722
 20
13.36399996527916
 30
-0.157
 70
    32
  0
VERTEX
  5
1B35
330
1B2C
100
AcDbEntity
  8
Lines
  6
B
 62
     0
100
AcDbVertex
100
AcDb3dPolylineVertex
 10
44.71599975871732
 20
13.20999996527917
 30
-0.042
 70
    32
  0
VERTEX
  5
1B36
330
1B2C
100
AcDbEntity
  8
Lines
  6
B
 62
     0
100
AcDbVertex
100
AcDb3dPolylineVertex
 10
44.66499975871739
 20
11.32099996527916
 30
0.058
 70
    32
  0
VERTEX
  5
1B37
330
1B2C
100
AcDbEntity
  8
Lines
  6
B
 62
     0
100
AcDbVertex
100
AcDb3dPolylineVertex
 10
38.12499975871719
 20
10.53299996527926
 30
0.624
 70
    32
  0
VERTEX
  5
1B38
330
1B2C
100
AcDbEntity
  8
Lines
  6
B
 62
     0
100
AcDbVertex
100
AcDb3dPolylineVertex
 10
37.89199975871725
 20
11.30399996527922
 30
0.631
 70
    32
  0
VERTEX
  5
1B39
330
1B2C
100
AcDbEntity
  8
Lines
  6
B
 62
     0
100
AcDbVertex
100
AcDb3dPolylineVertex
 10
35.27799975871721
 20
11.04699996527916
 30
0.752
 70
    32
  0
VERTEX
  5
1B3A
330
1B2C
100
AcDbEntity
  8
Lines
  6
B
 62
     0
100
AcDbVertex
100
AcDb3dPolylineVertex
 10
35.19299975871741
 20
10.19199996527914
 30
0.8490000000000001
 70
    32
  0
VERTEX
  5
1B3B
330
1B2C
100
AcDbEntity
  8
Lines
  6
B
 62
     0
100
AcDbVertex
100
AcDb3dPolylineVertex
 10
18.94299975871741
 20
8.397999965279269
 30
1.108
 70
    32
  0
VERTEX
  5
1B3C
330
1B2C
100
AcDbEntity
  8
Lines
  6
B
 62
     0
100
AcDbVertex
100
AcDb3dPolylineVertex
 10
18.77499975871729
 20
8.631999965279192
 30
1.079
 70
    32
  0
VERTEX
  5
1B3D
330
1B2C
100
AcDbEntity
  8
Lines
  6
B
 62
     0
100
AcDbVertex
100
AcDb3dPolylineVertex
 10
17.11399975871723
 20
8.356999965279215
 30
1.099
 70
    32
  0
VERTEX
  5
1B3E
330
1B2C
100
AcDbEntity
  8
Lines
  6
B
 62
     0
100
AcDbVertex
100
AcDb3dPolylineVertex
 10
17.10999975871732
 20
7.960999965279143
 30
1.087
 70
    32
  0
VERTEX
  5
1B3F
330
1B2C
100
AcDbEntity
  8
Lines
  6
B
 62
     0
100
AcDbVertex
100
AcDb3dPolylineVertex
 10
2.810999758717344
 20
6.269999965279226
 30
1.193
 70
    32
  0
VERTEX
  5
1B40
330
1B2C
100
AcDbEntity
  8
Lines
  6
B
 62
     0
100
AcDbVertex
100
AcDb3dPolylineVertex
 10
3.17199975871722
 20
2.308999965279213
 30
1.175
 70
    32
  0
VERTEX
  5
1B41
330
1B2C
100
AcDbEntity
  8
Lines
  6
B
 62
     0
100
AcDbVertex
100
AcDb3dPolylineVertex
 10
18.9569997587173
 20
4.181999965279147
 30
1.23
 70
    32
  0
VERTEX
  5
1B42
330
1B2C
100
AcDbEntity
  8
Lines
  6
B
 62
     0
100
AcDbVertex
100
AcDb3dPolylineVertex
 10
19.14599975871738
 20
3.550999965279175
 30
1.26
 70
    32
  0
VERTEX
  5
1B43
330
1B2C
100
AcDbEntity
  8
Lines
  6
B
 62
     0
100
AcDbVertex
100
AcDb3dPolylineVertex
 10
21.95799975871728
 20
3.901999965279174
 30
1.335
 70
    32
  0
VERTEX
  5
1B44
330
1B2C
100
AcDbEntity
  8
Lines
  6
B
 62
     0
100
AcDbVertex
100
AcDb3dPolylineVertex
 10
21.94699975871731
 20
4.256999965279192
 30
1.327
 70
    32
  0
VERTEX
  5
1B45
330
1B2C
100
AcDbEntity
  8
Lines
  6
B
 62
     0
100
AcDbVertex
100
AcDb3dPolylineVertex
 10
31.34099975871732
 20
5.424999965279198
 30
1.18
 70
    32
  0
VERTEX
  5
1B46
330
1B2C
100
AcDbEntity
  8
Lines
  6
B
 62
     0
100
AcDbVertex
100
AcDb3dPolylineVertex
 10
31.57999975871735
 20
4.072999965279223
 30
1.239
 70
    32
  0
VERTEX
  5
1B47
330
1B2C
100
AcDbEntity
  8
Lines
  6
B
 62
     0
100
AcDbVertex
100
AcDb3dPolylineVertex
 10
35.22599975871731
 20
4.395999965279202
 30
1.199
 70
    32
  0
VERTEX
  5
1B48
330
1B2C
100
AcDbEntity
  8
Lines
  6
B
 62
     0
100
AcDbVertex
100
AcDb3dPolylineVertex
 10
35.09399975871725
 20
5.79199996527916
 30
1.13
 70
    32
  0
VERTEX
  5
1B49
330
1B2C
100
AcDbEntity
  8
Lines
  6
B
 62
     0
100
AcDbVertex
100
AcDb3dPolylineVertex
 10
53.91299975871743
 20
7.934999965279189
 30
-0.386
 70
    32
  0
VERTEX
  5
1B4A
330
1B2C
100
AcDbEntity
  8
Lines
  6
B
 62
     0
100
AcDbVertex
100
AcDb3dPolylineVertex
 10
53.82299975871729
 20
8.00099996527922
 30
-0.398
 70
    32
  0
SEQEND
  5
1B4B
330
1B2C
100
AcDbEntity
  8
Lines
 62
     0
  0
POLYLINE
  5
1B4C
330
1ABF
100
AcDbEntity
  8
Lines
  6
B
 62
     0
100
AcDb3dPolyline
 66
     1
 10
0.0
 20
0.0
 30
0.0
 70
     8
  0
VERTEX
  5
1B4D
330
1B4C
100
AcDbEntity
  8
Lines
  6
B
 62
     0
100
AcDbVertex
100
AcDb3dPolylineVertex
 10
7.994999758717313
 20
6.502999965279173
 30
0.852
 70
    32
  0
VERTEX
  5
1B4E
330
1B4C
100
AcDbEntity
  8
Lines
  6
B
 62
     0
100
AcDbVertex
100
AcDb3dPolylineVertex
 10
8.163999758717182
 20
5.150999965279198
 30
0.81
 70
    32
  0
VERTEX
  5
1B4F
330
1B4C
100
AcDbEntity
  8
Lines
  6
B
 62
     0
100
AcDbVertex
100
AcDb3dPolylineVertex
 10
9.104999758717213
 20
5.25099996527922
 30
0.868
 70
    32
  0
VERTEX
  5
1B50
330
1B4C
100
AcDbEntity
  8
Lines
  6
B
 62
     0
100
AcDbVertex
100
AcDb3dPolylineVertex
 10
8.994999758717313
 20
6.549999965279198
 30
0.879
 70
    32
  0
VERTEX
  5
1B51
330
1B4C
100
AcDbEntity
  8
Lines
  6
B
 62
     0
100
AcDbVertex
100
AcDb3dPolylineVertex
 10
8.597999758717378
 20
6.474999965279153
 30
0.8440000000000001
 70
    32
  0
VERTEX
  5
1B52
330
1B4C
100
AcDbEntity
  8
Lines
  6
B
 62
     0
100
AcDbVertex
100
AcDb3dPolylineVertex
 10
7.994999758717313
 20
6.502999965279173
 30
0.852
 70
    32
  0
SEQEND
  5
1B53
330
1B4C
100
AcDbEntity
  8
Lines
 62
     0
  0
POLYLINE
  5
1B54
330
1ABF
100
AcDbEntity
  8
Lines
  6
B
 62
     0
100
AcDb3dPolyline
 66
     1
 10
0.0
 20
0.0
 30
0.0
 70
     8
  0
VERTEX
  5
1B55
330
1B54
100
AcDbEntity
  8
Lines
  6
B
 62
     0
100
AcDbVertex
100
AcDb3dPolylineVertex
 10
10.71899975871725
 20
5.04299996527925
 30
0.9229999999999999
 70
    32
  0
VERTEX
  5
1B56
330
1B54
100
AcDbEntity
  8
Lines
  6
B
 62
     0
100
AcDbVertex
100
AcDb3dPolylineVertex
 10
9.58999975871734
 20
5.133999965279259
 30
0.846
 70
    32
  0
VERTEX
  5
1B57
330
1B54
100
AcDbEntity
  8
Lines
  6
B
 62
     0
100
AcDbVertex
100
AcDb3dPolylineVertex
 10
9.675999758717353
 20
4.185999965279166
 30
0.955
 70
    32
  0
VERTEX
  5
1B58
330
1B54
100
AcDbEntity
  8
Lines
  6
B
 62
     0
100
AcDbVertex
100
AcDb3dPolylineVertex
 10
10.73699975871727
 20
4.704999965279171
 30
0.87
 70
    32
  0
VERTEX
  5
1B59
330
1B54
100
AcDbEntity
  8
Lines
  6
B
 62
     0
100
AcDbVertex
100
AcDb3dPolylineVertex
 10
10.71899975871725
 20
5.04299996527925
 30
0.9229999999999999
 70
    32
  0
SEQEND
  5
1B5A
330
1B54
100
AcDbEntity
  8
Lines
 62
     0
  0
POLYLINE
  5
1B5B
330
1ABF
100
AcDbEntity
  8
Lines
  6
B
 62
     0
100
AcDb3dPolyline
 66
     1
 10
0.0
 20
0.0
 30
0.0
 70
     8
  0
VERTEX
  5
1B5C
330
1B5B
100
AcDbEntity
  8
Lines
  6
B
 62
     0
100
AcDbVertex
100
AcDb3dPolylineVertex
 10
12.08599975871743
 20
6.737999965279187
 30
0.9520000000000001
 70
    32
  0
VERTEX
  5
1B5D
330
1B5B
100
AcDbEntity
  8
Lines
  6
B
 62
     0
100
AcDbVertex
100
AcDb3dPolylineVertex
 10
12.06099975871734
 20
5.86199996527921
 30
0.925
 70
    32
  0
VERTEX
  5
1B5E
330
1B5B
100
AcDbEntity
  8
Lines
  6
B
 62
     0
100
AcDbVertex
100
AcDb3dPolylineVertex
 10
11.31399975871727
 20
5.765999965279207
 30
0.97
 70
    32
  0
VERTEX
  5
1B5F
330
1B5B
100
AcDbEntity
  8
Lines
  6
B
 62
     0
100
AcDbVertex
100
AcDb3dPolylineVertex
 10
11.44499975871736
 20
6.552999965279241
 30
0.941
 70
    32
  0
VERTEX
  5
1B60
330
1B5B
100
AcDbEntity
  8
Lines
  6
B
 62
     0
100
AcDbVertex
100
AcDb3dPolylineVertex
 10
12.08599975871743
 20
6.737999965279187
 30
0.9520000000000001
 70
    32
  0
SEQEND
  5
1B61
330
1B5B
100
AcDbEntity
  8
Lines
 62
     0
  0
POLYLINE
  5
1B62
330
1ABF
100
AcDbEntity
  8
Lines
  6
B
 62
     0
100
AcDb3dPolyline
 66
     1
 10
0.0
 20
0.0
 30
0.0
 70
     8
  0
VERTEX
  5
1B63
330
1B62
100
AcDbEntity
  8
Lines
  6
B
 62
     0
100
AcDbVertex
100
AcDb3dPolylineVertex
 10
13.79099975871736
 20
7.379999965279239
 30
0.7390000000000001
 70
    32
  0
VERTEX
  5
1B64
330
1B62
100
AcDbEntity
  8
Lines
  6
B
 62
     0
100
AcDbVertex
100
AcDb3dPolylineVertex
 10
14.00799975871723
 20
6.398999965279245
 30
0.747
 70
    32
  0
VERTEX
  5
1B65
330
1B62
100
AcDbEntity
  8
Lines
  6
B
 62
     0
100
AcDbVertex
100
AcDb3dPolylineVertex
 10
15.15599975871737
 20
6.636999965279188
 30
0.79
 70
    32
  0
VERTEX
  5
1B66
330
1B62
100
AcDbEntity
  8
Lines
  6
B
 62
     0
100
AcDbVertex
100
AcDb3dPolylineVertex
 10
15.02399975871731
 20
7.493999965279158
 30
1.045
 70
    32
  0
VERTEX
  5
1B67
330
1B62
100
AcDbEntity
  8
Lines
  6
B
 62
     0
100
AcDbVertex
100
AcDb3dPolylineVertex
 10
13.79099975871736
 20
7.379999965279239
 30
0.7390000000000001
 70
    32
  0
SEQEND
  5
1B68
330
1B62
100
AcDbEntity
  8
Lines
 62
     0
  0
POLYLINE
  5
1B69
330
1ABF
100
AcDbEntity
  8
Lines
  6
B
 62
     0
100
AcDb3dPolyline
 66
     1
 10
0.0
 20
0.0
 30
0.0
 70
     8
  0
VERTEX
  5
1B6A
330
1B69
100
AcDbEntity
  8
Lines
  6
B
 62
     0
100
AcDbVertex
100
AcDb3dPolylineVertex
 10
14.89799975871733
 20
4.198999965279199
 30
1.031
 70
    32
  0
VERTEX
  5
1B6B
330
1B69
100
AcDbEntity
  8
Lines
  6
B
 62
     0
100
AcDbVertex
100
AcDb3dPolylineVertex
 10
14.23799975871725
 20
4.110999965279234
 30
1.004
 70
    32
  0
VERTEX
  5
1B6C
330
1B69
100
AcDbEntity
  8
Lines
  6
B
 62
     0
100
AcDbVertex
100
AcDb3dPolylineVertex
 10
14.4859997587173
 20
4.229999965279148
 30
1.042
 70
    32
  0
VERTEX
  5
1B6D
330
1B69
100
AcDbEntity
  8
Lines
  6
B
 62
     0
100
AcDbVertex
100
AcDb3dPolylineVertex
 10
14.89799975871733
 20
4.198999965279199
 30
1.031
 70
    32
  0
SEQEND
  5
1B6E
330
1B69
100
AcDbEntity
  8
Lines
 62
     0
  0
POLYLINE
  5
1B6F
330
1ABF
100
AcDbEntity
  8
Lines
  6
B
 62
     0
100
AcDb3dPolyline
 66
     1
 10
0.0
 20
0.0
 30
0.0
 70
     8
  0
VERTEX
  5
1B70
330
1B6F
100
AcDbEntity
  8
Lines
  6
B
 62
     0
100
AcDbVertex
100
AcDb3dPolylineVertex
 10
17.93999975871725
 20
8.065999965279161
 30
0.948
 70
    32
  0
VERTEX
  5
1B71
330
1B6F
100
AcDbEntity
  8
Lines
  6
B
 62
     0
100
AcDbVertex
100
AcDb3dPolylineVertex
 10
17.87799975871735
 20
7.228999965279172
 30
0.992
 70
    32
  0
VERTEX
  5
1B72
330
1B6F
100
AcDbEntity
  8
Lines
  6
B
 62
     0
100
AcDbVertex
100
AcDb3dPolylineVertex
 10
17.87699975871737
 20
7.225999965279129
 30
0.993
 70
    32
  0
VERTEX
  5
1B73
330
1B6F
100
AcDbEntity
  8
Lines
  6
B
 62
     0
100
AcDbVertex
100
AcDb3dPolylineVertex
 10
18.42199975871722
 20
7.280999965279193
 30
0.9670000000000001
 70
    32
  0
VERTEX
  5
1B74
330
1B6F
100
AcDbEntity
  8
Lines
  6
B
 62
     0
100
AcDbVertex
100
AcDb3dPolylineVertex
 10
17.93999975871725
 20
8.065999965279161
 30
0.948
 70
    32
  0
SEQEND
  5
1B75
330
1B6F
100
AcDbEntity
  8
Lines
 62
     0
  0
POLYLINE
  5
1B76
330
1ABF
100
AcDbEntity
  8
Lines
  6
B
 62
     0
100
AcDb3dPolyline
 66
     1
 10
0.0
 20
0.0
 30
0.0
 70
     8
  0
VERTEX
  5
1B77
330
1B76
100
AcDbEntity
  8
Lines
  6
B
 62
     0
100
AcDbVertex
100
AcDb3dPolylineVertex
 10
19.1589997587173
 20
3.636999965279188
 30
0.9890000000000001
 70
    32
  0
VERTEX
  5
1B78
330
1B76
100
AcDbEntity
  8
Lines
  6
B
 62
     0
100
AcDbVertex
100
AcDb3dPolylineVertex
 10
21.77399975871731
 20
3.835999965279143
 30
1.086
 70
    32
  0
VERTEX
  5
1B79
330
1B76
100
AcDbEntity
  8
Lines
  6
B
 62
     0
100
AcDbVertex
100
AcDb3dPolylineVertex
 10
21.7699997587174
 20
6.136999965279188
 30
0.519
 70
    32
  0
VERTEX
  5
1B7A
330
1B76
100
AcDbEntity
  8
Lines
  6
B
 62
     0
100
AcDbVertex
100
AcDb3dPolylineVertex
 10
19.1589997587173
 20
3.636999965279188
 30
0.9890000000000001
 70
    32
  0
SEQEND
  5
1B7B
330
1B76
100
AcDbEntity
  8
Lines
 62
     0
  0
POLYLINE
  5
1B7C
330
1ABF
100
AcDbEntity
  8
Lines
  6
B
 62
     0
100
AcDb3dPolyline
 66
     1
 10
0.0
 20
0.0
 30
0.0
 70
     8
  0
VERTEX
  5
1B7D
330
1B7C
100
AcDbEntity
  8
Lines
  6
B
 62
     0
100
AcDbVertex
100
AcDb3dPolylineVertex
 10
23.68099975871746
 20
7.655999965279193
 30
0.244
 70
    32
  0
VERTEX
  5
1B7E
330
1B7C
100
AcDbEntity
  8
Lines
  6
B
 62
     0
100
AcDbVertex
100
AcDb3dPolylineVertex
 10
25.12299975871724
 20
8.062999965279232
 30
0.128
 70
    32
  0
VERTEX
  5
1B7F
330
1B7C
100
AcDbEntity
  8
Lines
  6
B
 62
     0
100
AcDbVertex
100
AcDb3dPolylineVertex
 10
24.97099975871743
 20
6.713999965279186
 30
0.5379999999999999
 70
    32
  0
VERTEX
  5
1B80
330
1B7C
100
AcDbEntity
  8
Lines
  6
B
 62
     0
100
AcDbVertex
100
AcDb3dPolylineVertex
 10
23.97099975871743
 20
6.631999965279192
 30
0.422
 70
    32
  0
VERTEX
  5
1B81
330
1B7C
100
AcDbEntity
  8
Lines
  6
B
 62
     0
100
AcDbVertex
100
AcDb3dPolylineVertex
 10
23.68099975871746
 20
7.655999965279193
 30
0.244
 70
    32
  0
SEQEND
  5
1B82
330
1B7C
100
AcDbEntity
  8
Lines
 62
     0
  0
POLYLINE
  5
1B83
330
1ABF
100
AcDbEntity
  8
Lines
  6
B
 62
     0
100
AcDb3dPolyline
 66
     1
 10
0.0
 20
0.0
 30
0.0
 70
     8
  0
VERTEX
  5
1B84
330
1B83
100
AcDbEntity
  8
Lines
  6
B
 62
     0
100
AcDbVertex
100
AcDb3dPolylineVertex
 10
32.16399975871718
 20
5.979999965279148
 30
0.258
 70
    32
  0
VERTEX
  5
1B85
330
1B83
100
AcDbEntity
  8
Lines
  6
B
 62
     0
100
AcDbVertex
100
AcDb3dPolylineVertex
 10
32.10499975871721
 20
4.863999965279163
 30
0.358
 70
    32
  0
VERTEX
  5
1B86
330
1B83
100
AcDbEntity
  8
Lines
  6
B
 62
     0
100
AcDbVertex
100
AcDb3dPolylineVertex
 10
34.36199975871727
 20
4.709999965279167
 30
0.329
 70
    32
  0
VERTEX
  5
1B87
330
1B83
100
AcDbEntity
  8
Lines
  6
B
 62
     0
100
AcDbVertex
100
AcDb3dPolylineVertex
 10
33.98199975871717
 20
6.16799996527925
 30
0.28
 70
    32
  0
VERTEX
  5
1B88
330
1B83
100
AcDbEntity
  8
Lines
  6
B
 62
     0
100
AcDbVertex
100
AcDb3dPolylineVertex
 10
32.16399975871718
 20
5.979999965279148
 30
0.258
 70
    32
  0
SEQEND
  5
1B89
330
1B83
100
AcDbEntity
  8
Lines
 62
     0
  0
POLYLINE
  5
1B8A
330
1ABF
100
AcDbEntity
  8
Lines
  6
B
 62
     0
100
AcDb3dPolyline
 66
     1
 10
0.0
 20
0.0
 30
0.0
 70
     8
  0
VERTEX
  5
1B8B
330
1B8A
100
AcDbEntity
  8
Lines
  6
B
 62
     0
100
AcDbVertex
100
AcDb3dPolylineVertex
 10
35.7549997587173
 20
10.66499996527921
 30
0.017
 70
    32
  0
VERTEX
  5
1B8C
330
1B8A
100
AcDbEntity
  8
Lines
  6
B
 62
     0
100
AcDbVertex
100
AcDb3dPolylineVertex
 10
36.30999975871737
 20
9.832999965279214
 30
0.019
 70
    32
  0
VERTEX
  5
1B8D
330
1B8A
100
AcDbEntity
  8
Lines
  6
B
 62
     0
100
AcDbVertex
100
AcDb3dPolylineVertex
 10
37.43099975871746
 20
10.0739999652792
 30
-0.004
 70
    32
  0
VERTEX
  5
1B8E
330
1B8A
100
AcDbEntity
  8
Lines
  6
B
 62
     0
100
AcDbVertex
100
AcDb3dPolylineVertex
 10
37.14799975871733
 20
10.86299996527919
 30
0.002
 70
    32
  0
VERTEX
  5
1B8F
330
1B8A
100
AcDbEntity
  8
Lines
  6
B
 62
     0
100
AcDbVertex
100
AcDb3dPolylineVertex
 10
35.7549997587173
 20
10.66499996527921
 30
0.017
 70
    32
  0
SEQEND
  5
1B90
330
1B8A
100
AcDbEntity
  8
Lines
 62
     0
  0
POLYLINE
  5
1B91
330
1ABF
100
AcDbEntity
  8
Lines
  6
B
 62
     0
100
AcDb3dPolyline
 66
     1
 10
0.0
 20
0.0
 30
0.0
 70
     8
  0
VERTEX
  5
1B92
330
1B91
100
AcDbEntity
  8
Lines
  6
B
 62
     0
100
AcDbVertex
100
AcDb3dPolylineVertex
 10
43.60999975871732
 20
9.383999965279259
 30
-0.31
 70
    32
  0
VERTEX
  5
1B93
330
1B91
100
AcDbEntity
  8
Lines
  6
B
 62
     0
100
AcDbVertex
100
AcDb3dPolylineVertex
 10
42.86899975871734
 20
10.18499996527919
 30
-0.262
 70
    32
  0
VERTEX
  5
1B94
330
1B91
100
AcDbEntity
  8
Lines
  6
B
 62
     0
100
AcDbVertex
100
AcDb3dPolylineVertex
 10
41.38699975871737
 20
9.748999965279154
 30
-0.21
 70
    32
  0
VERTEX
  5
1B95
330
1B91
100
AcDbEntity
  8
Lines
  6
B
 62
     0
100
AcDbVertex
100
AcDb3dPolylineVertex
 10
42.38099975871728
 20
8.844999965279158
 30
-0.141
 70
    32
  0
VERTEX
  5
1B96
330
1B91
100
AcDbEntity
  8
Lines
  6
B
 62
     0
100
AcDbVertex
100
AcDb3dPolylineVertex
 10
43.60999975871732
 20
9.383999965279259
 30
-0.31
 70
    32
  0
SEQEND
  5
1B97
330
1B91
100
AcDbEntity
  8
Lines
 62
     0
  0
POLYLINE
  5
1B98
330
1ABF
100
AcDbEntity
  8
Lines
  6
B
 62
     0
100
AcDb3dPolyline
 66
     1
 10
0.0
 20
0.0
 30
0.0
 70
     8
  0
VERTEX
  5
1B99
330
1B98
100
AcDbEntity
  8
Lines
  6
B
 62
     0
100
AcDbVertex
100
AcDb3dPolylineVertex
 10
61.21099975871743
 20
6.106999965279215
 30
-0.343
 70
    32
  0
VERTEX
  5
1B9A
330
1B98
100
AcDbEntity
  8
Lines
  6
B
 62
     0
100
AcDbVertex
100
AcDb3dPolylineVertex
 10
43.13799975871734
 20
3.088999965279186
 30
1.215
 70
    32
  0
VERTEX
  5
1B9B
330
1B98
100
AcDbEntity
  8
Lines
  6
B
 62
     0
100
AcDbVertex
100
AcDb3dPolylineVertex
 10
-0.0000002412828053
 20
-0.000000034720756
 30
1.157
 70
    32
  0
SEQEND
  5
1B9C
330
1B98
100
AcDbEntity
  8
Lines
 62
     0
  0
POLYLINE
  5
1B9D
330
1ABF
100
AcDbEntity
  8
Lines
  6
B
 62
     0
100
AcDb3dPolyline
 66
     1
 10
0.0
 20
0.0
 30
0.0
 70
     8
  0
VERTEX
  5
1B9E
330
1B9D
100
AcDbEntity
  8
Lines
  6
B
 62
     0
100
AcDbVertex
100
AcDb3dPolylineVertex
 10
6.272999758717333
 20
14.9679999652792
 30
0.8909999999999999
 70
    32
  0
VERTEX
  5
1B9F
330
1B9D
100
AcDbEntity
  8
Lines
  6
B
 62
     0
100
AcDbVertex
100
AcDb3dPolylineVertex
 10
22.03899975871718
 20
18.62299996527918
 30
0.226
 70
    32
  0
VERTEX
  5
1BA0
330
1B9D
100
AcDbEntity
  8
Lines
  6
B
 62
     0
100
AcDbVertex
100
AcDb3dPolylineVertex
 10
49.49799975871724
 20
20.89299996527927
 30
-0.561
 70
    32
  0
SEQEND
  5
1BA1
330
1B9D
100
AcDbEntity
  8
Lines
 62
     0
  0
POLYLINE
  5
1BA2
330
1ABF
100
AcDbEntity
  8
Lines
  6
B
 62
     0
100
AcDb3dPolyline
 66
     1
 10
0.0
 20
0.0
 30
0.0
 70
     8
  0
VERTEX
  5
1BA3
330
1BA2
100
AcDbEntity
  8
Lines
  6
B
 62
     0
100
AcDbVertex
100
AcDb3dPolylineVertex
 10
45.84799975871738
 20
42.35599996527912
 30
-2.253
 70
    32
  0
VERTEX
  5
1BA4
330
1BA2
100
AcDbEntity
  8
Lines
  6
B
 62
     0
100
AcDbVertex
100
AcDb3dPolylineVertex
 10
26.96999975871722
 20
39.0019999652792
 30
-0.34
 70
    32
  0
VERTEX
  5
1BA5
330
1BA2
100
AcDbEntity
  8
Lines
  6
B
 62
     0
100
AcDbVertex
100
AcDb3dPolylineVertex
 10
3.653999758717191
 20
36.56499996527918
 30
1.274
 70
    32
  0
SEQEND
  5
1BA6
330
1BA2
100
AcDbEntity
  8
Lines
 62
     0
  0
POLYLINE
  5
1BA7
330
1ABF
100
AcDbEntity
  8
Lines
  6
B
 62
     0
100
AcDb3dPolyline
 66
     1
 10
0.0
 20
0.0
 30
0.0
 70
     8
  0
VERTEX
  5
1BA8
330
1BA7
100
AcDbEntity
  8
Lines
  6
B
 62
     0
100
AcDbVertex
100
AcDb3dPolylineVertex
 10
40.50899975871721
 20
13.79599996527918
 30
0.252
 70
    32
  0
VERTEX
  5
1BA9
330
1BA7
100
AcDbEntity
  8
Lines
  6
B
 62
     0
100
AcDbVertex
100
AcDb3dPolylineVertex
 10
39.55299975871731
 20
14.43299996527924
 30
0.235
 70
    32
  0
VERTEX
  5
1BAA
330
1BA7
100
AcDbEntity
  8
Lines
  6
B
 62
     0
100
AcDbVertex
100
AcDb3dPolylineVertex
 10
38.68599975871734
 20
13.45799996527921
 30
0.236
 70
    32
  0
VERTEX
  5
1BAB
330
1BA7
100
AcDbEntity
  8
Lines
  6
B
 62
     0
100
AcDbVertex
100
AcDb3dPolylineVertex
 10
40.0629997587173
 20
13.09899996527918
 30
0.329
 70
    32
  0
VERTEX
  5
1BAC
330
1BA7
100
AcDbEntity
  8
Lines
  6
B
 62
     0
100
AcDbVertex
100
AcDb3dPolylineVertex
 10
40.50899975871721
 20
13.79599996527918
 30
0.252
 70
    32
  0
SEQEND
  5
1BAD
330
1BA7
100
AcDbEntity
  8
Lines
 62
     0
  0
POLYLINE
  5
1BAE
330
1ABF
100
AcDbEntity
  8
Lines
  6
B
 62
     0
100
AcDb3dPolyline
 66
     1
 10
0.0
 20
0.0
 30
0.0
 70
     8
  0
VERTEX
  5
1BAF
330
1BAE
100
AcDbEntity
  8
Lines
  6
B
 62
     0
100
AcDbVertex
100
AcDb3dPolylineVertex
 10
33.25799975871723
 20
16.35499996527915
 30
0.336
 70
    32
  0
VERTEX
  5
1BB0
330
1BAE
100
AcDbEntity
  8
Lines
  6
B
 62
     0
100
AcDbVertex
100
AcDb3dPolylineVertex
 10
33.02099975871738
 20
15.30599996527917
 30
0.282
 70
    32
  0
VERTEX
  5
1BB1
330
1BAE
100
AcDbEntity
  8
Lines
  6
B
 62
     0
100
AcDbVertex
100
AcDb3dPolylineVertex
 10
34.35199975871728
 20
15.43799996527923
 30
0.4
 70
    32
  0
VERTEX
  5
1BB2
330
1BAE
100
AcDbEntity
  8
Lines
  6
B
 62
     0
100
AcDbVertex
100
AcDb3dPolylineVertex
 10
33.25799975871723
 20
16.35499996527915
 30
0.336
 70
    32
  0
SEQEND
  5
1BB3
330
1BAE
100
AcDbEntity
  8
Lines
 62
     0
  0
POLYLINE
  5
1BB4
330
1ABF
100
AcDbEntity
  8
Lines
  6
B
 62
     0
100
AcDb3dPolyline
 66
     1
 10
0.0
 20
0.0
 30
0.0
 70
     8
  0
VERTEX
  5
1BB5
330
1BB4
100
AcDbEntity
  8
Lines
  6
B
 62
     0
100
AcDbVertex
100
AcDb3dPolylineVertex
 10
29.40199975871724
 20
12.44499996527918
 30
0.7559999999999999
 70
    32
  0
VERTEX
  5
1BB6
330
1BB4
100
AcDbEntity
  8
Lines
  6
B
 62
     0
100
AcDbVertex
100
AcDb3dPolylineVertex
 10
27.99199975871716
 20
11.72599996527913
 30
0.9129999999999999
 70
    32
  0
VERTEX
  5
1BB7
330
1BB4
100
AcDbEntity
  8
Lines
  6
B
 62
     0
100
AcDbVertex
100
AcDb3dPolylineVertex
 10
27.80699975871721
 20
10.64499996527923
 30
1.016
 70
    32
  0
VERTEX
  5
1BB8
330
1BB4
100
AcDbEntity
  8
Lines
  6
B
 62
     0
100
AcDbVertex
100
AcDb3dPolylineVertex
 10
29.40199975871724
 20
12.44499996527918
 30
0.7559999999999999
 70
    32
  0
SEQEND
  5
1BB9
330
1BB4
100
AcDbEntity
  8
Lines
 62
     0
  0
POLYLINE
  5
1BBA
330
1ABF
100
AcDbEntity
  8
Lines
  6
B
 62
     0
100
AcDb3dPolyline
 66
     1
 10
0.0
 20
0.0
 30
0.0
 70
     8
  0
VERTEX
  5
1BBB
330
1BBA
100
AcDbEntity
  8
Lines
  6
B
 62
     0
100
AcDbVertex
100
AcDb3dPolylineVertex
 10
28.87299975871724
 20
10.7179999652792
 30
0.9359999999999999
 70
    32
  0
VERTEX
  5
1BBC
330
1BBA
100
AcDbEntity
  8
Lines
  6
B
 62
     0
100
AcDbVertex
100
AcDb3dPolylineVertex
 10
29.59499975871722
 20
11.41599996527918
 30
0.826
 70
    32
  0
VERTEX
  5
1BBD
330
1BBA
100
AcDbEntity
  8
Lines
  6
B
 62
     0
100
AcDbVertex
100
AcDb3dPolylineVertex
 10
29.40199975871724
 20
12.44499996527918
 30
0.7559999999999999
 70
    32
  0
SEQEND
  5
1BBE
330
1BBA
100
AcDbEntity
  8
Lines
 62
     0
  0
POLYLINE
  5
1BBF
330
1ABF
100
AcDbEntity
  8
Lines
  6
B
 62
     0
100
AcDb3dPolyline
 66
     1
 10
0.0
 20
0.0
 30
0.0
 70
     8
  0
VERTEX
  5
1BC0
330
1BBF
100
AcDbEntity
  8
Lines
  6
B
 62
     0
100
AcDbVertex
100
AcDb3dPolylineVertex
 10
25.28599975871725
 20
16.61099996527923
 30
0.626
 70
    32
  0
VERTEX
  5
1BC1
330
1BBF
100
AcDbEntity
  8
Lines
  6
B
 62
     0
100
AcDbVertex
100
AcDb3dPolylineVertex
 10
24.28699975871723
 20
15.86899996527916
 30
0.51
 70
    32
  0
VERTEX
  5
1BC2
330
1BBF
100
AcDbEntity
  8
Lines
  6
B
 62
     0
100
AcDbVertex
100
AcDb3dPolylineVertex
 10
25.42099975871724
 20
15.32999996527917
 30
0.53
 70
    32
  0
VERTEX
  5
1BC3
330
1BBF
100
AcDbEntity
  8
Lines
  6
B
 62
     0
100
AcDbVertex
100
AcDb3dPolylineVertex
 10
26.3649997587172
 20
16.1219999652792
 30
0.6629999999999999
 70
    32
  0
VERTEX
  5
1BC4
330
1BBF
100
AcDbEntity
  8
Lines
  6
B
 62
     0
100
AcDbVertex
100
AcDb3dPolylineVertex
 10
26.48699975871727
 20
16.39299996527927
 30
0.624
 70
    32
  0
VERTEX
  5
1BC5
330
1BBF
100
AcDbEntity
  8
Lines
  6
B
 62
     0
100
AcDbVertex
100
AcDb3dPolylineVertex
 10
25.28599975871725
 20
16.61099996527923
 30
0.626
 70
    32
  0
SEQEND
  5
1BC6
330
1BBF
100
AcDbEntity
  8
Lines
 62
     0
  0
POLYLINE
  5
1BC7
330
1ABF
100
AcDbEntity
  8
Lines
  6
B
 62
     0
100
AcDb3dPolyline
 66
     1
 10
0.0
 20
0.0
 30
0.0
 70
     8
  0
VERTEX
  5
1BC8
330
1BC7
100
AcDbEntity
  8
Lines
  6
B
 62
     0
100
AcDbVertex
100
AcDb3dPolylineVertex
 10
17.92399975871717
 20
11.34099996527914
 30
0.9520000000000001
 70
    32
  0
VERTEX
  5
1BC9
330
1BC7
100
AcDbEntity
  8
Lines
  6
B
 62
     0
100
AcDbVertex
100
AcDb3dPolylineVertex
 10
25.28599975871725
 20
16.61099996527923
 30
0.626
 70
    32
  0
SEQEND
  5
1BCA
330
1BC7
100
AcDbEntity
  8
Lines
 62
     0
  0
POLYLINE
  5
1BCB
330
1ABF
100
AcDbEntity
  8
Lines
  6
B
 62
     0
100
AcDb3dPolyline
 66
     1
 10
0.0
 20
0.0
 30
0.0
 70
     8
  0
VERTEX
  5
1BCC
330
1BCB
100
AcDbEntity
  8
Lines
  6
B
 62
     0
100
AcDbVertex
100
AcDb3dPolylineVertex
 10
16.82299975871729
 20
11.28599996527919
 30
0.9470000000000001
 70
    32
  0
VERTEX
  5
1BCD
330
1BCB
100
AcDbEntity
  8
Lines
  6
B
 62
     0
100
AcDbVertex
100
AcDb3dPolylineVertex
 10
16.75699975871726
 20
10.03299996527926
 30
1.014
 70
    32
  0
VERTEX
  5
1BCE
330
1BCB
100
AcDbEntity
  8
Lines
  6
B
 62
     0
100
AcDbVertex
100
AcDb3dPolylineVertex
 10
18.32599975871744
 20
10.35099996527913
 30
1.013
 70
    32
  0
VERTEX
  5
1BCF
330
1BCB
100
AcDbEntity
  8
Lines
  6
B
 62
     0
100
AcDbVertex
100
AcDb3dPolylineVertex
 10
18.53999975871739
 20
11.23499996527914
 30
0.978
 70
    32
  0
VERTEX
  5
1BD0
330
1BCB
100
AcDbEntity
  8
Lines
  6
B
 62
     0
100
AcDbVertex
100
AcDb3dPolylineVertex
 10
16.82299975871729
 20
11.28599996527919
 30
0.9470000000000001
 70
    32
  0
SEQEND
  5
1BD1
330
1BCB
100
AcDbEntity
  8
Lines
 62
     0
  0
POLYLINE
  5
1BD2
330
1ABF
100
AcDbEntity
  8
Lines
  6
B
 62
     0
100
AcDb3dPolyline
 66
     1
 10
0.0
 20
0.0
 30
0.0
 70
     8
  0
VERTEX
  5
1BD3
330
1BD2
100
AcDbEntity
  8
Lines
  6
B
 62
     0
100
AcDbVertex
100
AcDb3dPolylineVertex
 10
14.02099975871738
 20
10.57299996527922
 30
0.917
 70
    32
  0
VERTEX
  5
1BD4
330
1BD2
100
AcDbEntity
  8
Lines
  6
B
 62
     0
100
AcDbVertex
100
AcDb3dPolylineVertex
 10
14.49299975871736
 20
9.517999965279273
 30
1.031
 70
    32
  0
VERTEX
  5
1BD5
330
1BD2
100
AcDbEntity
  8
Lines
  6
B
 62
     0
100
AcDbVertex
100
AcDb3dPolylineVertex
 10
15.27499975871729
 20
10.57899996527919
 30
0.95
 70
    32
  0
VERTEX
  5
1BD6
330
1BD2
100
AcDbEntity
  8
Lines
  6
B
 62
     0
100
AcDbVertex
100
AcDb3dPolylineVertex
 10
14.63399975871721
 20
10.8719999652792
 30
0.9390000000000001
 70
    32
  0
VERTEX
  5
1BD7
330
1BD2
100
AcDbEntity
  8
Lines
  6
B
 62
     0
100
AcDbVertex
100
AcDb3dPolylineVertex
 10
14.02099975871738
 20
10.57299996527922
 30
0.917
 70
    32
  0
SEQEND
  5
1BD8
330
1BD2
100
AcDbEntity
  8
Lines
 62
     0
  0
ENDBLK
  5
1BDA
330
1ABF
100
AcDbEntity
  8
0
100
AcDbBlockEnd
  0
BLOCK
  5
1DDE
330
1DCE
100
AcDbEntity
  8
0
100
AcDbBlockBegin
  2
A$C1F166DD2
 70
     0
 10
0.0
 20
0.0
 30
0.0
  3
A$C1F166DD2
  1

  0
LWPOLYLINE
  5
1DCF
330
1DCE
100
AcDbEntity
  8
Body
 48
0.001
370
     5
100
AcDbPolyline
 90
        2
 70
     1
 43
0.25
 39
0.0001
 10
83.13117794643978
 20
9.57797954059518
 42
1.0
 10
83.88117794643978
 20
9.57797954059518
 42
1.0
  0
CIRCLE
  5
1DD0
330
1DCE
100
AcDbEntity
  8
Metalwork
 48
0.001
370
     5
100
AcDbCircle
 39
0.0001
 10
83.55307488250753
 20
4.686932295463407
 30
0.0
 40
0.8
  0
MTEXT
  5
1DD1
330
1DCE
100
AcDbEntity
  8
TEXT
  6
Continuous
100
AcDbMText
 10
50.07075872552298
 20
2.251059190403907
 30
0.0
 40
1.0
 41
5.266
 46
0.0
 71
     1
 72
     5
  1
{\fTahoma|b0|i0|c0|p34;50m}
  7
Standard
 73
     1
 44
1.0
  0
LINE
  5
1DD2
330
1DCE
100
AcDbEntity
  8
TEXT
  6
Continuous
100
AcDbLine
 10
0.3845179090341162
 20
-0.0000001387332986
 30
0.0
 11
50.38451790903412
 21
-0.0000001387332986
 31
0.0
  0
LINE
  5
1DD3
330
1DCE
100
AcDbEntity
  8
TEXT
  6
Continuous
100
AcDbLine
 10
0.3845179090341162
 20
-0.0000001387332986
 30
0.0
 11
0.3845179090341162
 21
0.9999998612667014
 31
0.0
  0
LINE
  5
1DD4
330
1DCE
100
AcDbEntity
  8
TEXT
  6
Continuous
100
AcDbLine
 10
50.38451790903412
 20
-0.0000001387332986
 30
0.0
 11
50.38451790903412
 21
0.9999998612667014
 31
0.0
  0
LINE
  5
1DD5
330
1DCE
100
AcDbEntity
  8
TEXT
  6
Continuous
100
AcDbLine
 10
40.38451790903412
 20
-0.0000001387332986
 30
0.0
 11
40.38451790903412
 21
0.9999998612667014
 31
0.0
  0
LINE
  5
1DD6
330
1DCE
100
AcDbEntity
  8
TEXT
  6
Continuous
100
AcDbLine
 10
30.38451790903412
 20
-0.0000001387332986
 30
0.0
 11
30.38451790903412
 21
0.9999998612667014
 31
0.0
  0
LINE
  5
1DD7
330
1DCE
100
AcDbEntity
  8
TEXT
  6
Continuous
100
AcDbLine
 10
20.38451790903412
 20
-0.0000001387332986
 30
0.0
 11
20.38451790903412
 21
0.9999998612667014
 31
0.0
  0
LINE
  5
1DD8
330
1DCE
100
AcDbEntity
  8
TEXT
  6
Continuous
100
AcDbLine
 10
10.38451790903412
 20
-0.0000001387332986
 30
0.0
 11
10.38451790903412
 21
0.9999998612667014
 31
0.0
  0
MTEXT
  5
1DD9
330
1DCE
100
AcDbEntity
  8
TEXT
  6
Continuous
100
AcDbMText
 10
0.0707587255229782
 20
2.251059190403907
 30
0.0
 40
1.0
 41
5.266
 46
0.0
 71
     1
 72
     5
  1
{\fTahoma|b0|i0|c0|p34;0}
  7
Standard
 73
     1
 44
1.0
  0
MTEXT
  5
1DDA
330
1DCE
100
AcDbEntity
  8
TEXT
  6
Continuous
100
AcDbMText
 10
86.77169621313203
 20
10.25744997680522
 30
0.0
 40
1.2
 41
851.639
 46
0.0
 71
     1
 72
     5
  1
{\fTahoma|b0|i0|c0|p34;Human Remains}
  7
Standard
 73
     1
 44
1.0
  0
MTEXT
  5
1DDB
330
1DCE
100
AcDbEntity
  8
TEXT
  6
Continuous
100
AcDbMText
 10
86.77169621313203
 20
5.6488393895321
 30
0.0
 40
1.2
 41
851.639
 46
0.0
 71
     1
 72
     5
  1
{\fTahoma|b0|i0|c0|p34;Bronzework}
  7
Standard
 73
     1
 44
1.0
  0
ENDBLK
  5
1DDF
330
1DCE
100
AcDbEntity
  8
0
100
AcDbBlockEnd
  0
ENDSEC
  0
SECTION
  2
ENTITIES
  0
MTEXT
  5
1F9D
330
36
100
AcDbEntity
  8
TEXT
  6
Continuous
100
AcDbMText
 10
8632637.293279145
 20
4514370.657397063
 30
0.0
 40
2.0
 41
56.16
 46
0.0
 71
     1
 72
     5
  1
{\fTahoma|b0|i0|c0|p34;398.8 Hasansu \H0.75x;Early Iron Age Cemetery}
  7
Standard
 73
     1
 44
1.0
  0
MTEXT
  5
1F9E
330
36
100
AcDbEntity
  8
TEXT
  6
Continuous
100
AcDbMText
 10
8632637.307401942
 20
4514367.06208709
 30
0.0
 40
1.2
 41
851.639
 46
0.0
 71
     1
 72
     5
  1
{\fTahoma|b0|i0|c0|p34;BTC 2004 KP 398.8\PGrid Reference 8543626 4557544\P\fArial|b0|i0|c0|p34;\H0.75x;Compiled from survey data and Museyibli, N., Huseynov, M., Jalilov, B. 2007}
  7
Standard
 73
     1
 44
1.0
  0
MTEXT
  5
1F9F
330
36
100
AcDbEntity
  8
TEXT
  6
Continuous
100
AcDbMText
 10
8632681.856414322
 20
4514365.205759317
 30
0.0
 40
0.7349999999999999
 41
0.6957559614628543
 46
0.0
 71
     1
 72
     5
  1
{\fTahoma|b0|i0|c0|p34;N}
  7
Standard
 11
1.0
 21
1.253522841082599E-10
 31
0.0
 73
     1
 44
1.0
  0
POINT
  5
1FA0
330
36
100
AcDbEntity
  8
Points
 62
     0
100
AcDbPoint
 10
8632637.134443674
 20
4514345.846510485
 30
0.0
  0
POINT
  5
1FA1
330
36
100
AcDbEntity
  8
kvadrat
 48
0.1
100
AcDbPoint
 10
8632637.495443674
 20
4514341.885510485
 30
0.0
  0
POINT
  5
1FA2
330
36
100
AcDbEntity
  8
Points
 62
     0
100
AcDbPoint
 10
8632653.280443674
 20
4514343.758510485
 30
0.0
  0
POINT
  5
1FA3
330
36
100
AcDbEntity
  8
kvadrat
 48
0.1
100
AcDbPoint
 10
8632656.281443674
 20
4514343.478510485
 30
0.0
  0
POINT
  5
1FA4
330
36
100
AcDbEntity
  8
Points
 62
     0
100
AcDbPoint
 10
8632656.270443674
 20
4514343.833510485
 30
0.0
  0
POINT
  5
1FA5
330
36
100
AcDbEntity
  8
Points
 62
     0
100
AcDbPoint
 10
8632665.664443674
 20
4514345.001510485
 30
0.0
  0
POINT
  5
1FA6
330
36
100
AcDbEntity
  8
kvadrat
 48
0.1
100
AcDbPoint
 10
8632665.903443674
 20
4514343.649510485
 30
0.0
  0
POINT
  5
1FA7
330
36
100
AcDbEntity
  8
kvadrat
 48
0.1
100
AcDbPoint
 10
8632669.549443675
 20
4514343.972510485
 30
0.0
  0
POINT
  5
1FA8
330
36
100
AcDbEntity
  8
Points
 62
     0
100
AcDbPoint
 10
8632669.417443674
 20
4514345.368510485
 30
0.0
  0
POINT
  5
1FA9
330
36
100
AcDbEntity
  8
Points
 62
     0
100
AcDbPoint
 10
8632666.428443674
 20
4514344.440510485
 30
0.0
  0
POINT
  5
1FAA
330
36
100
AcDbEntity
  8
Points
 62
     0
100
AcDbPoint
 10
8632677.933443675
 20
4514348.960510485
 30
0.0
  0
POINT
  5
1FAB
330
36
100
AcDbEntity
  8
Points
 62
     0
100
AcDbPoint
 10
8632677.461443674
 20
4514342.665510485
 30
0.0
  0
POINT
  5
1FAC
330
36
100
AcDbEntity
  8
kvadrat
 48
0.1
100
AcDbPoint
 10
8632640.596443674
 20
4514354.544510485
 30
0.0
  0
POINT
  5
1FAD
330
36
100
AcDbEntity
  8
Points
 62
     0
100
AcDbPoint
 10
8632656.362443674
 20
4514358.199510485
 30
0.0
  0
POINT
  5
1FAE
330
36
100
AcDbEntity
  8
Points
 62
     0
100
AcDbPoint
 10
8632683.821443675
 20
4514360.469510485
 30
0.0
  0
LWPOLYLINE
  5
1FAF
330
36
100
AcDbEntity
  8
Features
100
AcDbPolyline
 90
       20
 70
     1
 43
0.0
 10
8632643.999443674
 20
4514343.762510485
 42
0.0165502127312724
 10
8632644.234844334
 20
4514343.795275067
 42
0.0181152256161697
 10
8632644.420841683
 20
4514343.834637017
 42
0.0368670442284284
 10
8632644.660828823
 20
4514343.912938177
 42
0.0424988687965633
 10
8632644.820763234
 20
4514343.995187424
 42
0.0616753763504712
 10
8632644.951464878
 20
4514344.10116482
 42
0.0985017305389885
 10
8632645.052544447
 20
4514344.259075631
 42
0.1637019047737812
 10
8632645.062929405
 20
4514344.566151896
 42
0.1044745493849705
 10
8632644.979076495
 20
4514344.717200285
 42
0.0696562959628328
 10
8632644.865512267
 20
4514344.816849235
 42
0.0778071770565075
 10
8632644.660376227
 20
4514344.910108901
 42
0.1135432679418649
 10
8632644.291788844
 20
4514344.929576694
 42
0.08873671168359
 10
8632644.071074123
 20
4514344.84859664
 42
0.1229800447708618
 10
8632643.874771563
 20
4514344.654951233
 42
0.0376494335572802
 10
8632643.823310012
 20
4514344.555425011
 42
0.1136704960779877
 10
8632643.746583598
 20
4514344.107633451
 42
0.0343478971522417
 10
8632643.760088125
 20
4514344.005102199
 42
0.0633336099250822
 10
8632643.79869898
 20
4514343.888596286
 42
0.0835627246158552
 10
8632643.851938708
 20
4514343.813024472
 42
0.2146753399495688
 10
8632643.985838331
 20
4514343.761481623
 42
0.016560298379877
  0
LWPOLYLINE
  5
1FB0
330
36
100
AcDbEntity
  8
Features
100
AcDbPolyline
 90
       19
 70
     0
 43
0.0
 10
8632643.428443674
 20
4514344.827510485
 42
0.0468025942032936
 10
8632643.50911112
 20
4514344.996314962
 42
0.1152227678326859
 10
8632643.581764698
 20
4514345.591838122
 42
0.0579533354877715
 10
8632643.529319147
 20
4514345.82137852
 42
0.0611683803817333
 10
8632643.445504902
 20
4514345.988757341
 42
0.1414139045738882
 10
8632643.196124416
 20
4514346.200625326
 42
0.0631716072093823
 10
8632643.012243534
 20
4514346.258036552
 42
0.1222808309567792
 10
8632642.579750896
 20
4514346.230306071
 42
0.0658212282592782
 10
8632642.40503374
 20
4514346.147781232
 42
0.1116268158458903
 10
8632642.22167339
 20
4514345.960041258
 42
0.066061118472085
 10
8632642.14271629
 20
4514345.783861535
 42
0.0756525149756619
 10
8632642.103623979
 20
4514345.503770266
 42
0.1094835251499096
 10
8632642.205147931
 20
4514345.058628657
 42
0.0838257890055594
 10
8632642.369677568
 20
4514344.823239997
 42
0.1003226340883103
 10
8632642.608084247
 20
4514344.664277392
 42
0.1209680905151165
 10
8632643.015931077
 20
4514344.60293531
 42
0.0555777281714897
 10
8632643.170471936
 20
4514344.634784025
 42
0.1333081761106042
 10
8632643.385963276
 20
4514344.770009112
 42
0.0341606897726256
 10
8632643.418788983
 20
4514344.812341347
  0
LWPOLYLINE
  5
1FB1
330
36
100
AcDbEntity
  8
Features
100
AcDbPolyline
 90
       19
 70
     1
 43
0.0
 10
8632645.637443675
 20
4514345.342510485
 42
-0.0859747194465079
 10
8632645.57363752
 20
4514345.498942315
 42
-0.0922265021754618
 10
8632645.566650458
 20
4514345.724598196
 42
-0.2064061054831319
 10
8632645.876502128
 20
4514346.220928425
 42
-0.0707281639435879
 10
8632646.074031645
 20
4514346.322191672
 42
-0.0532940472787027
 10
8632646.199691584
 20
4514346.350951426
 42
-0.0399702453756465
 10
8632646.271556206
 20
4514346.353341613
 42
-0.0487767576168383
 10
8632646.338531872
 20
4514346.34349138
 42
-0.1484376919353078
 10
8632646.465923492
 20
4514346.268578297
 42
-0.0530943540482243
 10
8632646.505744455
 20
4514346.215332335
 42
-0.0443125871773976
 10
8632646.536404949
 20
4514346.151920361
 42
-0.048040721803557
 10
8632646.562831793
 20
4514346.054811711
 42
-0.0690634571530911
 10
8632646.568544611
 20
4514345.862862979
 42
-0.1048196327482831
 10
8632646.47011446
 20
4514345.555265616
 42
-0.1171319416277874
 10
8632646.264605226
 20
4514345.336652414
 42
-0.092840741522016
 10
8632646.020116724
 20
4514345.231493352
 42
-0.048531524161863
 10
8632645.910693914
 20
4514345.218167356
 42
-0.0433429557140308
 10
8632645.833325416
 20
4514345.223166059
 42
-0.1691680379103916
 10
8632645.666365413
 20
4514345.305218013
 42
-0.0490619416837901
  0
LWPOLYLINE
  5
1FB2
330
36
100
AcDbEntity
  8
Features
100
AcDbPolyline
 90
       18
 70
     0
 43
0.0
 10
8632648.331443675
 20
4514345.975510485
 42
-0.0634135317263355
 10
8632648.215466399
 20
4514346.104722207
 42
-0.1334382627268142
 10
8632648.043349853
 20
4514346.597280188
 42
-0.0588583938715939
 10
8632648.052106386
 20
4514346.778704066
 42
-0.0605779000300681
 10
8632648.09143256
 20
4514346.910972259
 42
-0.1043812053348627
 10
8632648.208461663
 20
4514347.073244362
 42
-0.0697396652770112
 10
8632648.351231357
 20
4514347.171057037
 42
-0.0557817810862591
 10
8632648.522669366
 20
4514347.234383522
 42
-0.1303746247753998
 10
8632649.055274712
 20
4514347.224822436
 42
-0.0682317920891738
 10
8632649.260291314
 20
4514347.13481837
 42
-0.1519934649160385
 10
8632649.515435193
 20
4514346.841121933
 42
-0.139708521804198
 10
8632649.571125915
 20
4514346.460529487
 42
-0.1666652752808683
 10
8632649.39983166
 20
4514346.11628396
 42
-0.0595108099756243
 10
8632649.250859149
 20
4514345.999638686
 42
-0.1242148864826455
 10
8632648.766315851
 20
4514345.851080347
 42
-0.0570669680067053
 10
8632648.580116803
 20
4514345.863230012
 42
-0.0581079132147981
 10
8632648.445591575
 20
4514345.904406666
 42
-0.0620245595057388
 10
8632648.34435966
 20
4514345.964923855
  0
LWPOLYLINE
  5
1FB3
330
36
100
AcDbEntity
  8
Features
100
AcDbPolyline
 90
       37
 70
     0
 43
0.0
 10
8632656.093443675
 20
4514345.713510485
 42
0.0325967553763225
 10
8632655.744666595
 20
4514345.762686715
 42
0.069819982041514
 10
8632654.619332423
 20
4514345.691068429
 42
0.0342322417294744
 10
8632654.244736155
 20
4514345.585693653
 42
0.0710530392226542
 10
8632653.84649545
 20
4514345.381703206
 42
0.1832857331946808
 10
8632653.542824347
 20
4514344.941885686
 42
0.0411448009984918
 10
8632653.513989704
 20
4514344.769437182
 42
0.0443833457349494
 10
8632653.520984856
 20
4514344.38146178
 42
0.0132575150986918
 10
8632653.556745004
 20
4514344.094121478
 42
0.0200507519583934
 10
8632653.578424614
 20
4514343.984994037
 42
0.0357896304168071
 10
8632653.61155868
 20
4514343.881709798
 42
0.1342617993439735
 10
8632653.758164251
 20
4514343.687764868
 42
0.0630365364022438
 10
8632653.915795382
 20
4514343.593471121
 42
0.0334411703013697
 10
8632654.059320288
 20
4514343.540453491
 42
0.0537115628538221
 10
8632654.425821168
 20
4514343.475130139
 42
0.0223419013609378
 10
8632654.639464969
 20
4514343.469017335
 42
0.0093190807816275
 10
8632654.780950665
 20
4514343.47358695
 42
0.0052439997635208
 10
8632655.065847734
 20
4514343.492399593
 42
-0.0118898190302081
 10
8632655.359519893
 20
4514343.507703971
 42
-0.0085577079218951
 10
8632655.511734322
 20
4514343.508348171
 42
0.0112168340897393
 10
8632655.664308688
 20
4514343.509594662
 42
0.0229440209776491
 10
8632655.774796272
 20
4514343.518521614
 42
0.0388637485879555
 10
8632655.878591098
 20
4514343.540326176
 42
0.1246397533523078
 10
8632656.05469239
 20
4514343.642861214
 42
0.0570715462132076
 10
8632656.145570021
 20
4514343.754938032
 42
0.0448477240789495
 10
8632656.232954254
 20
4514343.923145491
 42
0.0627183876960473
 10
8632656.356023245
 20
4514344.373696125
 42
0.0189966349531286
 10
8632656.378688598
 20
4514344.583970373
 42
0.0093387101017994
 10
8632656.390591998
 20
4514344.808759721
 42
0.0056791149885344
 10
8632656.400175534
 20
4514345.138368308
 42
0.0222207513289574
 10
8632656.393680144
 20
4514345.442303581
 42
0.0647403091491783
 10
8632656.367018562
 20
4514345.597253862
 42
0.0840642289904185
 10
8632656.34338164
 20
4514345.64082811
 42
0.1065257816506876
 10
8632656.309885608
 20
4514345.667041464
 42
0.0456393425608601
 10
8632656.280785954
 20
4514345.678121145
 42
0.030347697569068
 10
8632656.225045493
 20
4514345.690020419
 42
-0.0068750718642605
 10
8632656.109053256
 20
4514345.710270372
  0
LWPOLYLINE
  5
1FB4
330
36
100
AcDbEntity
  8
Features
100
AcDbPolyline
 90
       29
 70
     1
 43
0.0
 10
8632652.200443674
 20
4514346.802510485
 42
0.0377699831974771
 10
8632652.248039572
 20
4514346.788572084
 42
0.0353072763711585
 10
8632652.321201976
 20
4514346.778275798
 42
0.054575429319955
 10
8632652.507481242
 20
4514346.786510955
 42
0.0462608444275338
 10
8632652.669450799
 20
4514346.825402621
 42
0.0400957031766069
 10
8632652.754540874
 20
4514346.862330937
 42
0.0776651075653763
 10
8632652.841269288
 20
4514346.927441958
 42
0.1525815686422663
 10
8632652.91045732
 20
4514347.066029319
 42
0.0416909352955495
 10
8632652.9145621
 20
4514347.117257634
 42
0.0354351560483361
 10
8632652.910646573
 20
4514347.169898923
 42
0.0434622342790186
 10
8632652.891649667
 20
4514347.250062116
 42
0.0337614111819853
 10
8632652.859529981
 20
4514347.329680898
 42
0.1043070063136669
 10
8632652.631707387
 20
4514347.621412656
 42
0.0470942321117445
 10
8632652.552628549
 20
4514347.674903371
 42
0.0533385341309906
 10
8632652.486054588
 20
4514347.702459521
 42
0.0807305086087428
 10
8632652.408792047
 20
4514347.712212703
 42
0.2058203894456054
 10
8632652.25764524
 20
4514347.636143752
 42
0.0446414107611981
 10
8632652.219826601
 20
4514347.583894518
 42
0.0351641530939688
 10
8632652.179987399
 20
4514347.504977041
 42
0.0156930952391429
 10
8632652.152490392
 20
4514347.434331913
 42
0.0088742904502302
 10
8632652.109586198
 20
4514347.303518373
 42
-0.0243793260314833
 10
8632652.038887827
 20
4514347.102598836
 42
0.0106310192702023
 10
8632652.025015261
 20
4514347.064697735
 42
0.0290066379289051
 10
8632652.01304377
 20
4514347.021724608
 42
0.0332193014458995
 10
8632652.009180794
 20
4514346.994436941
 42
0.0691044028054458
 10
8632652.011618268
 20
4514346.955292617
 42
0.1107555183742493
 10
8632652.034549851
 20
4514346.905901897
 42
0.073449542775218
 10
8632652.07778639
 20
4514346.864727179
 42
0.0419679217847325
 10
8632652.13556553
 20
4514346.830517438
 42
0.0251398651570939
  0
LWPOLYLINE
  5
1FB5
330
36
100
AcDbEntity
  8
Features
100
AcDbPolyline
 90
       20
 70
     1
 43
0.0
 10
8632658.004443675
 20
4514347.232510485
 42
0.0629646296943533
 10
8632657.960290404
 20
4514347.037708922
 42
0.145512203848406
 10
8632658.07138304
 20
4514346.469359434
 42
0.0773328638586174
 10
8632658.216119438
 20
4514346.27377787
 42
0.1088681469981059
 10
8632658.450148944
 20
4514346.127916691
 42
0.0906216984442633
 10
8632658.730249176
 20
4514346.082714002
 42
0.1659092080602374
 10
8632659.281923298
 20
4514346.280185235
 42
0.0712638841965098
 10
8632659.459395893
 20
4514346.473443194
 42
0.1432918490706519
 10
8632659.66188885
 20
4514347.096345647
 42
0.0567959618046017
 10
8632659.643830745
 20
4514347.30123967
 42
0.0567040892429462
 10
8632659.595597614
 20
4514347.448513998
 42
0.0876564626354308
 10
8632659.490895184
 20
4514347.600391096
 42
0.0776664550154327
 10
8632659.370334506
 20
4514347.687957193
 42
0.0473275410283625
 10
8632659.26074013
 20
4514347.732149103
 42
0.0387192762330316
 10
8632659.138577012
 20
4514347.758750935
 42
0.0515915253480281
 10
8632658.91665583
 20
4514347.766161171
 42
0.1034883621111512
 10
8632658.379786564
 20
4514347.615678404
 42
0.0539314799868817
 10
8632658.19517854
 20
4514347.492058215
 42
0.0564780120716947
 10
8632658.080566378
 20
4514347.371077324
 42
0.0517676853123134
 10
8632658.019407086
 20
4514347.268697648
 42
0.0188196765830342
  0
LWPOLYLINE
  5
1FB6
330
36
100
AcDbEntity
  8
Features
100
AcDbPolyline
 90
       26
 70
     0
 43
0.0
 10
8632648.816443674
 20
4514349.094510485
 42
0.019607817477946
 10
8632648.92612109
 20
4514349.159641503
 42
0.068490801397611
 10
8632649.391324757
 20
4514349.560599218
 42
0.036627224342648
 10
8632649.516187793
 20
4514349.726113807
 42
0.0347218064526378
 10
8632649.57673553
 20
4514349.836459506
 42
0.0341560030871633
 10
8632649.60737663
 20
4514349.917462372
 42
0.0443040337330814
 10
8632649.623475434
 20
4514349.995800759
 42
0.0564073370174671
 10
8632649.623337647
 20
4514350.07043158
 42
0.1380789264118254
 10
8632649.567913223
 20
4514350.204442523
 42
0.0527529502090047
 10
8632649.512655927
 20
4514350.262184775
 42
0.0405700482795811
 10
8632649.44221341
 20
4514350.313073922
 42
0.0408167189507384
 10
8632649.32937869
 20
4514350.369464745
 42
0.1050647004772461
 10
8632648.853166211
 20
4514350.44847076
 42
0.0486137373489685
 10
8632648.687310599
 20
4514350.424591525
 42
0.0509281332410146
 10
8632648.567518944
 20
4514350.381670684
 42
0.0803015894065194
 10
8632648.441930069
 20
4514350.294784806
 42
0.1113159685419956
 10
8632648.339268826
 20
4514350.136337806
 42
0.0313164589812783
 10
8632648.319067026
 20
4514350.069686006
 42
0.0380306334298524
 10
8632648.301795755
 20
4514349.959314422
 42
0.0301212866691233
 10
8632648.29911768
 20
4514349.840210145
 42
0.0865959154792343
 10
8632648.395160997
 20
4514349.39677605
 42
0.0397759372802358
 10
8632648.463497221
 20
4514349.260959461
 42
0.0394326690359008
 10
8632648.523701506
 20
4514349.177815688
 42
0.08241137976623
 10
8632648.613675922
 20
4514349.099914917
 42
0.1057397325598394
 10
8632648.699499918
 20
4514349.069808012
 42
0.1429605232687758
 10
8632648.803192137
 20
4514349.087853333
  0
LWPOLYLINE
  5
1FB7
330
36
100
AcDbEntity
  8
Features
100
AcDbPolyline
 90
       20
 70
     0
 43
0.0
 10
8632651.080443675
 20
4514349.609510485
 42
-0.0747962456362096
 10
8632650.965888267
 20
4514349.793888479
 42
-0.0846918265861335
 10
8632650.890590725
 20
4514350.104213115
 42
-0.1246038555064049
 10
8632650.978546059
 20
4514350.61488109
 42
-0.1433611083160549
 10
8632651.283547303
 20
4514350.975557093
 42
-0.0571195461790126
 10
8632651.505994651
 20
4514351.089163474
 42
-0.1364505192712095
 10
8632652.318346981
 20
4514351.154500507
 42
-0.0516174347908639
 10
8632652.544436911
 20
4514351.085379101
 42
-0.0540434760314899
 10
8632652.696276799
 20
4514351.000585889
 42
-0.0703016971541375
 10
8632652.813292062
 20
4514350.890130023
 42
-0.1067029195197916
 10
8632652.898460696
 20
4514350.717094213
 42
-0.0544255648671328
 10
8632652.915107021
 20
4514350.597696872
 42
-0.0454607982332179
 10
8632652.907709137
 20
4514350.470622705
 42
-0.061189831679891
 10
8632652.846383827
 20
4514350.250945009
 42
-0.1094815607688179
 10
8632652.529848242
 20
4514349.802146407
 42
-0.1158788796557803
 10
8632651.904687027
 20
4514349.44975155
 42
-0.0486735180257055
 10
8632651.667379089
 20
4514349.406157047
 42
-0.0480292835216875
 10
8632651.485958027
 20
4514349.408490728
 42
-0.0590775799907802
 10
8632651.318931414
 20
4514349.446932293
 42
-0.1192294219690518
 10
8632651.09464091
 20
4514349.593626326
  0
LWPOLYLINE
  5
1FB8
330
36
100
AcDbEntity
  8
Features
100
AcDbPolyline
 90
       26
 70
     0
 43
0.0
 10
8632662.130443674
 20
4514350.221510485
 42
-0.1671239346189008
 10
8632662.00646697
 20
4514350.488507206
 42
-0.0549523321021815
 10
8632662.006100176
 20
4514350.620848244
 42
-0.0426574940934809
 10
8632662.032682534
 20
4514350.760325409
 42
-0.0328795586527279
 10
8632662.082952935
 20
4514350.904437951
 42
-0.0401519811695562
 10
8632662.21051969
 20
4514351.148134192
 42
-0.0884065410757069
 10
8632662.83733182
 20
4514351.83505757
 42
-0.0359453540525172
 10
8632663.060598005
 20
4514351.980790815
 42
-0.0390975728243317
 10
8632663.236124525
 20
4514352.060753519
 42
-0.0382740204374514
 10
8632663.362481875
 20
4514352.09572523
 42
-0.0498400901281523
 10
8632663.481816245
 20
4514352.106670686
 42
-0.2256080621343852
 10
8632663.775328603
 20
4514351.972291038
 42
-0.0376307147481871
 10
8632663.823655495
 20
4514351.906399229
 42
-0.0450004194088882
 10
8632663.883350456
 20
4514351.788035691
 42
-0.0352194935823172
 10
8632663.927224092
 20
4514351.651708224
 42
-0.0948872989451692
 10
8632663.95246072
 20
4514351.146512504
 42
-0.0481064711582522
 10
8632663.907347228
 20
4514350.958685799
 42
-0.1149314307536817
 10
8632663.692934975
 20
4514350.623070966
 42
-0.0451251016744539
 10
8632663.516798291
 20
4514350.477650314
 42
-0.0295059620546805
 10
8632663.308290703
 20
4514350.351558485
 42
-0.0270709456244448
 10
8632662.975807969
 20
4514350.196249209
 42
-0.0263124124692818
 10
8632662.776423614
 20
4514350.128213992
 42
-0.0280509449333332
 10
8632662.628827088
 20
4514350.095501269
 42
-0.0388708512894176
 10
8632662.486861184
 20
4514350.083743132
 42
-0.113372690243387
 10
8632662.253060827
 20
4514350.132312315
 42
-0.0776664784259545
 10
8632662.14643352
 20
4514350.20561977
  0
LWPOLYLINE
  5
1FB9
330
36
100
AcDbEntity
  8
Features
100
AcDbPolyline
 90
       26
 70
     0
 43
0.0
 10
8632648.959202059
 20
4514343.358752453
 42
0.2019404531618891
 10
8632649.233760709
 20
4514343.426387426
 42
0.1028954154705563
 10
8632649.319327142
 20
4514343.528243254
 42
0.039847708949415
 10
8632649.350372845
 20
4514343.596768915
 42
0.0290970229965501
 10
8632649.372708064
 20
4514343.671397602
 42
0.0423347824584641
 10
8632649.39314094
 20
4514343.802163772
 42
0.0340565865936185
 10
8632649.393041274
 20
4514343.879030545
 42
0.0773212436247377
 10
8632649.370523471
 20
4514343.983031853
 42
0.149472529889205
 10
8632649.282613674
 20
4514344.091992992
 42
0.0517930344815151
 10
8632649.222514307
 20
4514344.125157691
 42
0.0402053069313944
 10
8632649.152855301
 20
4514344.148572599
 42
0.0312325610646326
 10
8632649.07563921
 20
4514344.163012301
 42
0.0387716548137399
 10
8632648.935591273
 20
4514344.169237384
 42
0.0650405241630043
 10
8632648.591874233
 20
4514344.112334693
 42
0.0318721879510156
 10
8632648.490409777
 20
4514344.074116561
 42
0.0438259623894
 10
8632648.401650898
 20
4514344.024407604
 42
0.2209198744765022
 10
8632648.244210767
 20
4514343.777436331
 42
0.1314428722207044
 10
8632648.269499106
 20
4514343.560861447
 42
0.166513093967634
 10
8632648.397541313
 20
4514343.411670794
 42
0.04789088103773
 10
8632648.465892876
 20
4514343.378757385
 42
0.090111446696926
 10
8632648.640958734
 20
4514343.348517114
 42
0.0161769556382583
 10
8632648.690872507
 20
4514343.350315146
 42
0.0100135942834352
 10
8632648.764873775
 20
4514343.356980402
 42
-0.0109262604487138
 10
8632648.838095102
 20
4514343.363462905
 42
-0.0173579528883105
 10
8632648.886622313
 20
4514343.364936044
 42
-0.0324152241114552
 10
8632648.947112737
 20
4514343.360675641
  0
LWPOLYLINE
  5
1FBA
330
36
100
AcDbEntity
  8
Features
100
AcDbPolyline
 90
       21
 70
     0
 43
0.0
 10
8632666.428443674
 20
4514344.440510485
 42
-0.1058071608095409
 10
8632666.30611637
 20
4514344.669923509
 42
-0.0513965085585253
 10
8632666.27639802
 20
4514344.829713213
 42
-0.0707716864861766
 10
8632666.293558626
 20
4514345.112100803
 42
-0.117125666932611
 10
8632666.509372799
 20
4514345.585222225
 42
-0.0928459379816764
 10
8632666.810258249
 20
4514345.84477437
 42
-0.1001387089851775
 10
8632667.300501652
 20
4514346.010864716
 42
-0.1280479238441859
 10
8632667.992814144
 20
4514345.927987987
 42
-0.1265716036637536
 10
8632668.466605742
 20
4514345.58429132
 42
-0.1337475820056518
 10
8632668.78384651
 20
4514344.886112084
 42
-0.0487729929327345
 10
8632668.79689292
 20
4514344.664911208
 42
-0.0433919716229398
 10
8632668.776940975
 20
4514344.509147674
 42
-0.05192699404351
 10
8632668.729948642
 20
4514344.367261533
 42
-0.1213339410587659
 10
8632668.551485978
 20
4514344.141534981
 42
-0.0486302975237345
 10
8632668.42435803
 20
4514344.059785142
 42
-0.0398940166661641
 10
8632668.277039895
 20
4514343.997957472
 42
-0.041997772917876
 10
8632668.055883352
 20
4514343.945349055
 42
-0.0491814580387047
 10
8632667.689744152
 20
4514343.927118807
 42
-0.0853051540752636
 10
8632666.946887491
 20
4514344.089401448
 42
-0.04394761312494
 10
8632666.679804163
 20
4514344.227118107
 42
-0.0563287344938418
 10
8632666.463907354
 20
4514344.401506118
  0
LWPOLYLINE
  5
1FBB
330
36
100
AcDbEntity
  8
Features
100
AcDbPolyline
 90
       23
 70
     1
 43
0.0
 10
8632670.633443674
 20
4514349.409510485
 42
-0.0531284158723509
 10
8632670.478230188
 20
4514349.503125622
 42
-0.0987897846162251
 10
8632670.167420484
 20
4514349.851435273
 42
-0.043258639670263
 10
8632670.10470177
 20
4514349.984281201
 42
-0.0413674486566676
 10
8632670.077468744
 20
4514350.082864974
 42
-0.0534677427245012
 10
8632670.070095355
 20
4514350.177595817
 42
-0.139998689244603
 10
8632670.123431608
 20
4514350.345643501
 42
-0.0574143816219037
 10
8632670.182536183
 20
4514350.416448327
 42
-0.0464788752544761
 10
8632670.25976002
 20
4514350.477770039
 42
-0.037681651291771
 10
8632670.352393484
 20
4514350.529139156
 42
-0.0499221340297333
 10
8632670.533666702
 20
4514350.591362346
 42
-0.1225985467177329
 10
8632671.163706735
 20
4514350.582595516
 42
-0.0514643170351821
 10
8632671.36064483
 20
4514350.507282716
 42
-0.1975455012155361
 10
8632671.764974512
 20
4514350.036448997
 42
-0.054926443682836
 10
8632671.794451147
 20
4514349.895372422
 42
-0.0477993390097245
 10
8632671.794303697
 20
4514349.793015956
 42
-0.0559922908958705
 10
8632671.7737991
 20
4514349.697207018
 42
-0.1044661909654554
 10
8632671.692317478
 20
4514349.560054927
 42
-0.0503410645993706
 10
8632671.617855618
 20
4514349.493038613
 42
-0.0409619066784233
 10
8632671.528014947
 20
4514349.437531171
 42
-0.053181374977521
 10
8632671.352656193
 20
4514349.370632956
 42
-0.1063751722309376
 10
8632670.8423185
 20
4514349.346975244
 42
-0.0511141139178286
 10
8632670.665337566
 20
4514349.395858309
 42
-0.0119304666403862
  0
LWPOLYLINE
  5
1FBC
330
36
100
AcDbEntity
  8
Features
100
AcDbPolyline
 90
       17
 70
     1
 43
0.0
 10
8632675.710443674
 20
4514349.325510485
 42
-0.1083937807614213
 10
8632676.04465444
 20
4514349.646129501
 42
-0.2885099664035526
 10
8632677.452038096
 20
4514349.632178985
 42
-0.0693322470231469
 10
8632677.743012635
 20
4514349.388481637
 42
-0.0446155440308535
 10
8632677.84658537
 20
4514349.250133485
 42
-0.0423128277610144
 10
8632677.900007786
 20
4514349.143996515
 42
-0.054384217639561
 10
8632677.929255791
 20
4514349.038590336
 42
-0.1675752312364508
 10
8632677.89007955
 20
4514348.808641937
 42
-0.057289232465457
 10
8632677.829216948
 20
4514348.720848748
 42
-0.0465955279507977
 10
8632677.745618526
 20
4514348.641278369
 42
-0.0487201300949811
 10
8632677.603351824
 20
4514348.550063617
 42
-0.049252084912882
 10
8632677.38481835
 20
4514348.463984949
 42
-0.1251533937380446
 10
8632676.57538295
 20
4514348.445473763
 42
-0.0695195374736696
 10
8632676.095574167
 20
4514348.62580144
 42
-0.0475547534666877
 10
8632675.880806692
 20
4514348.770842515
 42
-0.0379853777650228
 10
8632675.780563017
 20
4514348.868196504
 42
-0.0975325086532108
 10
8632675.675025096
 20
4514349.041231311
 42
-0.2459255387756547
  0
LWPOLYLINE
  5
1FBD
330
36
100
AcDbEntity
  8
Features
100
AcDbPolyline
 90
       19
 70
     0
 43
0.0
 10
8632674.832443675
 20
4514353.372510485
 42
0.0701278138032626
 10
8632674.766164934
 20
4514353.54651073
 42
0.1018029077173555
 10
8632674.536778621
 20
4514353.813172581
 42
0.1181008073974986
 10
8632674.131688783
 20
4514354.000431915
 42
0.1315226039536894
 10
8632673.721659038
 20
4514353.973917902
 42
0.0715531192516876
 10
8632673.45174961
 20
4514353.83753117
 42
0.0972556185558648
 10
8632673.123619504
 20
4514353.501690929
 42
0.0546708635789528
 10
8632673.03567084
 20
4514353.327011039
 42
0.041276320166637
 10
8632673.006815378
 20
4514353.222304941
 42
0.0504913070074825
 10
8632672.99830653
 20
4514353.120588516
 42
0.1472198145282558
 10
8632673.066376943
 20
4514352.907387012
 42
0.0645632295349575
 10
8632673.156808576
 20
4514352.805468276
 42
0.0501556429775924
 10
8632673.277286854
 20
4514352.719981126
 42
0.0499235236261976
 10
8632673.460807927
 20
4514352.638502619
 42
0.1312016169669383
 10
8632674.159934817
 20
4514352.599923907
 42
0.0743886962012357
 10
8632674.447506938
 20
4514352.706941644
 42
0.0945108638354987
 10
8632674.703321168
 20
4514352.920286364
 42
0.0712700544340104
 10
8632674.803190848
 20
4514353.086175895
 42
0.1448087285274369
 10
8632674.83606311
 20
4514353.354529496
  0
LWPOLYLINE
  5
1FBE
330
36
100
AcDbEntity
  8
Features
100
AcDbPolyline
 90
       22
 70
     0
 43
0.0
 10
8632667.344443675
 20
4514354.882510485
 42
-0.0494396635161872
 10
8632667.301755605
 20
4514355.030663528
 42
-0.0916157786842385
 10
8632667.296521945
 20
4514355.493542418
 42
-0.0875752822672209
 10
8632667.385682486
 20
4514355.74003246
 42
-0.1839944656276541
 10
8632667.668463863
 20
4514355.969610567
 42
-0.16947098623299
 10
8632668.15592919
 20
4514355.960650098
 42
-0.165375692717957
 10
8632668.43931708
 20
4514355.73434769
 42
-0.0422258953127125
 10
8632668.524576101
 20
4514355.575619136
 42
-0.0159943290293951
 10
8632668.601939166
 20
4514355.379934512
 42
-0.0041221521244219
 10
8632668.64212242
 20
4514355.27113177
 42
-0.0174704387364192
 10
8632668.668344747
 20
4514355.188759902
 42
-0.0229810834104355
 10
8632668.679692194
 20
4514355.138575141
 42
-0.0785297454971853
 10
8632668.682790022
 20
4514355.047388088
 42
-0.1258779394849469
 10
8632668.640088182
 20
4514354.945865792
 42
-0.0516606974970642
 10
8632668.58906832
 20
4514354.889658735
 42
-0.0349683124578575
 10
8632668.520998333
 20
4514354.836029831
 42
-0.0702428360401666
 10
8632668.077821815
 20
4514354.629742185
 42
-0.0484530151057784
 10
8632667.903159603
 20
4514354.595642925
 42
-0.1425150294317719
 10
8632667.646422254
 20
4514354.64107986
 42
-0.040652616177833
 10
8632667.558281114
 20
4514354.693474852
 42
-0.0266495662790438
 10
8632667.475618932
 20
4514354.758611687
 42
-0.013948136357358
 10
8632667.3963811
 20
4514354.831712174
  0
LWPOLYLINE
  5
1FBF
330
36
100
AcDbEntity
  8
Features
100
AcDbPolyline
 90
       27
 70
     0
 43
0.0
 10
8632658.610443674
 20
4514355.445510485
 42
-0.1651266535439234
 10
8632658.717135897
 20
4514355.762383605
 42
-0.057421736028966
 10
8632658.824877571
 20
4514355.874704827
 42
-0.0439511387325168
 10
8632658.964209102
 20
4514355.970852888
 42
-0.0329766557867325
 10
8632659.131225592
 20
4514356.051796428
 42
-0.0306576385014728
 10
8632659.372979317
 20
4514356.133070156
 42
-0.052916532885004
 10
8632660.10596536
 20
4514356.247167074
 42
-0.0229768112797538
 10
8632660.323928593
 20
4514356.247487896
 42
-0.023603604282785
 10
8632660.47130355
 20
4514356.233736924
 42
-0.0219626846404178
 10
8632660.558900138
 20
4514356.217192832
 42
-0.0293376551818278
 10
8632660.636114867
 20
4514356.19430298
 42
-0.0820978385056281
 10
8632660.741466166
 20
4514356.137830693
 42
-0.1336613942235304
 10
8632660.801602267
 20
4514356.058716945
 42
-0.1066475742827833
 10
8632660.812142972
 20
4514355.987214323
 42
-0.0514356764169001
 10
8632660.804129152
 20
4514355.938014189
 42
-0.0228396990476615
 10
8632660.793204006
 20
4514355.902860728
 42
-0.0288019703013397
 10
8632660.760914514
 20
4514355.828460924
 42
-0.0146987313296179
 10
8632660.719148783
 20
4514355.750934999
 42
-0.0178555320140977
 10
8632660.554002086
 20
4514355.48615884
 42
-0.0362052835975221
 10
8632660.370569654
 20
4514355.252610811
 42
-0.0576314445368718
 10
8632660.155418376
 20
4514355.065716231
 42
-0.1185085521569757
 10
8632659.720247746
 20
4514354.903087741
 42
-0.0605667440797814
 10
8632659.37663061
 20
4514354.902419408
 42
-0.0598998133352385
 10
8632659.03582077
 20
4514354.982267712
 42
-0.0456598243152761
 10
8632658.866944617
 20
4514355.062494941
 42
-0.1060067164079989
 10
8632658.680608004
 20
4514355.228019979
 42
-0.1433174139440442
 10
8632658.610870799
 20
4514355.425463405
  0
LWPOLYLINE
  5
1FC0
330
36
100
AcDbEntity
  8
Features
100
AcDbPolyline
 90
       16
 70
     1
 43
0.0
 10
8632653.204120602
 20
4514357.328738009
 42
0.0662646792455941
 10
8632653.086731408
 20
4514357.302352121
 42
0.1083736172225812
 10
8632652.89688892
 20
4514357.18309382
 42
0.1118819431443326
 10
8632652.812745385
 20
4514357.054669213
 42
0.0883304628522426
 10
8632652.795946501
 20
4514356.95258933
 42
0.0631057400848637
 10
8632652.80891718
 20
4514356.858576977
 42
0.2079966306520326
 10
8632653.068797246
 20
4514356.540699935
 42
0.2450294916666703
 10
8632653.646133505
 20
4514356.546018326
 42
0.1007415159711234
 10
8632653.81978328
 20
4514356.69170017
 42
0.067765900256612
 10
8632653.881407814
 20
4514356.79565668
 42
0.195097378927003
 10
8632653.888283957
 20
4514357.020001235
 42
0.0737199602919492
 10
8632653.831062406
 20
4514357.125037755
 42
0.1490785359382624
 10
8632653.601283707
 20
4514357.294782071
 42
0.0468947508549406
 10
8632653.487338208
 20
4514357.3237219
 42
0.0336273422797213
 10
8632653.36918626
 20
4514357.334372219
 42
0.0145313899611832
 10
8632653.29789584
 20
4514357.334208023
 42
0.0132693268921448
  0
LINE
  5
1FC1
330
36
100
AcDbEntity
  8
kvadrat
 48
0.1
100
AcDbLine
 10
8632637.134443674
 20
4514345.846510485
 30
0.0
 11
8632637.495443674
 21
4514341.885510485
 31
0.0
  0
LINE
  5
1FC2
330
36
100
AcDbEntity
  8
kvadrat
 48
0.1
100
AcDbLine
 10
8632637.495443674
 20
4514341.885510485
 30
0.0
 11
8632653.280443674
 21
4514343.758510485
 31
0.0
  0
LINE
  5
1FC3
330
36
100
AcDbEntity
  8
kvadrat
 48
0.1
100
AcDbLine
 10
8632653.280443674
 20
4514343.758510485
 30
0.0
 11
8632653.469443675
 21
4514343.127510485
 31
0.0
  0
LINE
  5
1FC4
330
36
100
AcDbEntity
  8
kvadrat
 48
0.1
100
AcDbLine
 10
8632653.469443675
 20
4514343.127510485
 30
0.0
 11
8632656.281443674
 21
4514343.478510485
 31
0.0
  0
LINE
  5
1FC5
330
36
100
AcDbEntity
  8
kvadrat
 48
0.1
100
AcDbLine
 10
8632656.281443674
 20
4514343.478510485
 30
0.0
 11
8632656.270443674
 21
4514343.833510485
 31
0.0
  0
LINE
  5
1FC6
330
36
100
AcDbEntity
  8
kvadrat
 48
0.1
100
AcDbLine
 10
8632656.270443674
 20
4514343.833510485
 30
0.0
 11
8632665.664443674
 21
4514345.001510485
 31
0.0
  0
LINE
  5
1FC7
330
36
100
AcDbEntity
  8
kvadrat
 48
0.1
100
AcDbLine
 10
8632665.664443674
 20
4514345.001510485
 30
0.0
 11
8632665.903443674
 21
4514343.649510485
 31
0.0
  0
LINE
  5
1FC8
330
36
100
AcDbEntity
  8
kvadrat
 48
0.1
100
AcDbLine
 10
8632665.903443674
 20
4514343.649510485
 30
0.0
 11
8632669.549443675
 21
4514343.972510485
 31
0.0
  0
LINE
  5
1FC9
330
36
100
AcDbEntity
  8
kvadrat
 48
0.1
100
AcDbLine
 10
8632669.549443675
 20
4514343.972510485
 30
0.0
 11
8632669.417443674
 21
4514345.368510485
 31
0.0
  0
LINE
  5
1FCA
330
36
100
AcDbEntity
  8
kvadrat
 48
0.1
100
AcDbLine
 10
8632669.417443674
 20
4514345.368510485
 30
0.0
 11
8632684.149639757
 21
4514347.046128647
 31
0.0
  0
POLYLINE
  5
1FCB
330
36
100
AcDbEntity
  8
stripped_area
 48
0.1
100
AcDb3dPolyline
 66
     1
 10
0.0
 20
0.0
 30
0.0
 70
     8
  0
VERTEX
  5
1FCC
330
1FCB
100
AcDbEntity
  8
stripped_area
 48
0.1
100
AcDbVertex
100
AcDb3dPolylineVertex
 10
8632684.149639757
 20
4514343.782368548
 30
0.0
 70
    32
  0
VERTEX
  5
1FCD
330
1FCB
100
AcDbEntity
  8
stripped_area
 48
0.1
100
AcDbVertex
100
AcDb3dPolylineVertex
 10
8632677.461443674
 20
4514342.665510485
 30
0.0
 70
    32
  0
VERTEX
  5
1FCE
330
1FCB
100
AcDbEntity
  8
stripped_area
 48
0.1
100
AcDbVertex
100
AcDb3dPolylineVertex
 10
8632634.647657108
 20
4514339.599726566
 30
0.0
 70
    32
  0
SEQEND
  5
1FCF
330
1FCB
100
AcDbEntity
  8
stripped_area
 48
0.1
  0
MTEXT
  5
1FD0
330
36
100
AcDbEntity
  8
TEXT
  6
Continuous
100
AcDbMText
 10
8632676.694723854
 20
4514349.459374457
 30
0.0
 40
0.6
 41
425.8195
 46
0.0
 71
     1
 72
     5
  1
{\fTahoma|b0|i0|c0|p34;1}
  7
Standard
 73
     1
 44
1.0
  0
MTEXT
  5
1FD1
330
36
100
AcDbEntity
  8
TEXT
  6
Continuous
100
AcDbMText
 10
8632673.804969577
 20
4514353.669901853
 30
0.0
 40
0.6
 41
425.8195
 46
0.0
 71
     1
 72
     5
  1
{\fTahoma|b0|i0|c0|p34;6}
  7
Standard
 73
     1
 44
1.0
  0
MTEXT
  5
1FD2
330
36
100
AcDbEntity
  8
TEXT
  6
Continuous
100
AcDbMText
 10
8632667.748870729
 20
4514355.614742178
 30
0.0
 40
0.6
 41
425.8195
 46
0.0
 71
     1
 72
     5
  1
{\fTahoma|b0|i0|c0|p34;7}
  7
Standard
 73
     1
 44
1.0
  0
MTEXT
  5
1FD3
330
36
100
AcDbEntity
  8
TEXT
  6
Continuous
100
AcDbMText
 10
8632670.739255873
 20
4514350.393484551
 30
0.0
 40
0.6
 41
425.8195
 46
0.0
 71
     1
 72
     5
  1
{\fTahoma|b0|i0|c0|p34;2}
  7
Standard
 73
     1
 44
1.0
  0
MTEXT
  5
1FD4
330
36
100
AcDbEntity
  8
TEXT
  6
Continuous
100
AcDbMText
 10
8632667.413588075
 20
4514345.41073573
 30
0.0
 40
0.6
 41
425.8195
 46
0.0
 71
     1
 72
     5
  1
{\fTahoma|b0|i0|c0|p34;3}
  7
Standard
 73
     1
 44
1.0
  0
MTEXT
  5
1FD5
330
36
100
AcDbEntity
  8
TEXT
  6
Continuous
100
AcDbMText
 10
8632662.885419946
 20
4514351.434917907
 30
0.0
 40
0.6
 41
425.8195
 46
0.0
 71
     1
 72
     5
  1
{\fTahoma|b0|i0|c0|p34;8}
  7
Standard
 73
     1
 44
1.0
  0
MTEXT
  5
1FD6
330
36
100
AcDbEntity
  8
TEXT
  6
Continuous
100
AcDbMText
 10
8632659.544895915
 20
4514355.941216923
 30
0.0
 40
0.6
 41
425.8195
 46
0.0
 71
     1
 72
     5
  1
{\fTahoma|b0|i0|c0|p34;9}
  7
Standard
 73
     1
 44
1.0
  0
MTEXT
  5
1FD7
330
36
100
AcDbEntity
  8
TEXT
  6
Continuous
100
AcDbMText
 10
8632652.991015466
 20
4514357.210137392
 30
0.0
 40
0.6
 41
425.8195
 46
0.0
 71
     1
 72
     5
  1
{\fTahoma|b0|i0|c0|p34;10}
  7
Standard
 73
     1
 44
1.0
  0
MTEXT
  5
1FD8
330
36
100
AcDbEntity
  8
TEXT
  6
Continuous
100
AcDbMText
 10
8632651.551168345
 20
4514350.656668265
 30
0.0
 40
0.6
 41
425.8195
 46
0.0
 71
     1
 72
     5
  1
{\fTahoma|b0|i0|c0|p34;11}
  7
Standard
 73
     1
 44
1.0
  0
MTEXT
  5
1FD9
330
36
100
AcDbEntity
  8
TEXT
  6
Continuous
100
AcDbMText
 10
8632652.049246518
 20
4514347.534367556
 30
0.0
 40
0.6
 41
425.8195
 46
0.0
 71
     1
 72
     5
  1
{\fTahoma|b0|i0|c0|p34;12}
  7
Standard
 73
     1
 44
1.0
  0
MTEXT
  5
1FDA
330
36
100
AcDbEntity
  8
TEXT
  6
Continuous
100
AcDbMText
 10
8632658.500694899
 20
4514347.213864679
 30
0.0
 40
0.6
 41
425.8195
 46
0.0
 71
     1
 72
     5
  1
{\fTahoma|b0|i0|c0|p34;4}
  7
Standard
 73
     1
 44
1.0
  0
MTEXT
  5
1FDB
330
36
100
AcDbEntity
  8
TEXT
  6
Continuous
100
AcDbMText
 10
8632654.87087274
 20
4514345.062129328
 30
0.0
 40
0.6
 41
425.8195
 46
0.0
 71
     1
 72
     5
  1
{\fTahoma|b0|i0|c0|p34;5}
  7
Standard
 73
     1
 44
1.0
  0
MTEXT
  5
1FDC
330
36
100
AcDbEntity
  8
TEXT
  6
Continuous
100
AcDbMText
 10
8632648.532756623
 20
4514350.221867993
 30
0.0
 40
0.6
 41
425.8195
 46
0.0
 71
     1
 72
     5
  1
{\fTahoma|b0|i0|c0|p34;13}
  7
Standard
 73
     1
 44
1.0
  0
MTEXT
  5
1FDD
330
36
100
AcDbEntity
  8
TEXT
  6
Continuous
100
AcDbMText
 10
8632648.44150037
 20
4514346.882218629
 30
0.0
 40
0.6
 41
425.8195
 46
0.0
 71
     1
 72
     5
  1
{\fTahoma|b0|i0|c0|p34;14}
  7
Standard
 73
     1
 44
1.0
  0
MTEXT
  5
1FDE
330
36
100
AcDbEntity
  8
TEXT
  6
Continuous
100
AcDbMText
 10
8632648.395683512
 20
4514344.099580217
 30
0.0
 40
0.6
 41
425.8195
 46
0.0
 71
     1
 72
     5
  1
{\fTahoma|b0|i0|c0|p34;15}
  7
Standard
 73
     1
 44
1.0
  0
MTEXT
  5
1FDF
330
36
100
AcDbEntity
  8
TEXT
  6
Continuous
100
AcDbMText
 10
8632645.695232505
 20
4514346.123196032
 30
0.0
 40
0.6
 41
425.8195
 46
0.0
 71
     1
 72
     5
  1
{\fTahoma|b0|i0|c0|p34;16}
  7
Standard
 73
     1
 44
1.0
  0
MTEXT
  5
1FE0
330
36
100
AcDbEntity
  8
TEXT
  6
Continuous
100
AcDbMText
 10
8632643.923680263
 20
4514344.674392883
 30
0.0
 40
0.6
 41
425.8195
 46
0.0
 71
     1
 72
     5
  1
{\fTahoma|b0|i0|c0|p34;17}
  7
Standard
 73
     1
 44
1.0
  0
MTEXT
  5
1FE1
330
36
100
AcDbEntity
  8
TEXT
  6
Continuous
100
AcDbMText
 10
8632642.500069961
 20
4514345.753013332
 30
0.0
 40
0.6
 41
425.8195
 46
0.0
 71
     1
 72
     5
  1
{\fTahoma|b0|i0|c0|p34;18}
  7
Standard
 73
     1
 44
1.0
  0
LINE
  5
1FE2
330
36
100
AcDbEntity
  8
kvadrat
 48
0.1
100
AcDbLine
 10
8632640.596443674
 20
4514354.544510485
 30
0.0
 11
8632637.134443674
 21
4514345.846510485
 31
0.0
  0
MTEXT
  5
1FE3
330
36
100
AcDbEntity
  8
TEXT
  6
Continuous
100
AcDbMText
 10
8632674.579662494
 20
4514338.323639946
 30
0.0
 40
1.0
 41
5.266
 46
0.0
 71
     1
 72
     5
  1
{\fTahoma|b0|i0|c0|p34;30m}
  7
Standard
 73
     1
 44
1.0
  0
LINE
  5
1FE4
330
36
100
AcDbEntity
  8
TEXT
  6
Continuous
100
AcDbLine
 10
8632644.893421678
 20
4514336.072580617
 30
0.0
 11
8632674.893421678
 21
4514336.072580617
 31
0.0
  0
LINE
  5
1FE5
330
36
100
AcDbEntity
  8
TEXT
  6
Continuous
100
AcDbLine
 10
8632644.893421678
 20
4514336.072580617
 30
0.0
 11
8632644.893421678
 21
4514337.072580617
 31
0.0
  0
LINE
  5
1FE6
330
36
100
AcDbEntity
  8
TEXT
  6
Continuous
100
AcDbLine
 10
8632674.893421678
 20
4514336.072580617
 30
0.0
 11
8632674.893421678
 21
4514337.072580617
 31
0.0
  0
LINE
  5
1FE7
330
36
100
AcDbEntity
  8
TEXT
  6
Continuous
100
AcDbLine
 10
8632664.893421678
 20
4514336.072580617
 30
0.0
 11
8632664.893421678
 21
4514337.072580617
 31
0.0
  0
LINE
  5
1FE8
330
36
100
AcDbEntity
  8
TEXT
  6
Continuous
100
AcDbLine
 10
8632654.893421678
 20
4514336.072580617
 30
0.0
 11
8632654.893421678
 21
4514337.072580617
 31
0.0
  0
MTEXT
  5
1FE9
330
36
100
AcDbEntity
  8
TEXT
  6
Continuous
100
AcDbMText
 10
8632644.579662494
 20
4514338.323639946
 30
0.0
 40
1.0
 41
5.266
 46
0.0
 71
     1
 72
     5
  1
{\fTahoma|b0|i0|c0|p34;0}
  7
Standard
 73
     1
 44
1.0
  0
POINT
  5
1FEA
330
36
100
AcDbEntity
  8
Points
 62
     0
100
AcDbPoint
 10
8632637.134443674
 20
4514307.822239293
 30
0.0
  0
POINT
  5
1FEB
330
36
100
AcDbEntity
  8
kvadrat
 48
0.1
100
AcDbPoint
 10
8632637.495443674
 20
4514303.861239293
 30
0.0
  0
POINT
  5
1FEC
330
36
100
AcDbEntity
  8
Points
 62
     0
100
AcDbPoint
 10
8632653.280443674
 20
4514305.734239293
 30
0.0
  0
POINT
  5
1FED
330
36
100
AcDbEntity
  8
kvadrat
 48
0.1
100
AcDbPoint
 10
8632656.281443674
 20
4514305.454239293
 30
0.0
  0
POINT
  5
1FEE
330
36
100
AcDbEntity
  8
Points
 62
     0
100
AcDbPoint
 10
8632656.270443674
 20
4514305.809239293
 30
0.0
  0
POINT
  5
1FEF
330
36
100
AcDbEntity
  8
Points
 62
     0
100
AcDbPoint
 10
8632665.664443674
 20
4514306.977239293
 30
0.0
  0
POINT
  5
1FF0
330
36
100
AcDbEntity
  8
kvadrat
 48
0.1
100
AcDbPoint
 10
8632665.903443674
 20
4514305.625239293
 30
0.0
  0
POINT
  5
1FF1
330
36
100
AcDbEntity
  8
kvadrat
 48
0.1
100
AcDbPoint
 10
8632669.549443675
 20
4514305.948239293
 30
0.0
  0
POINT
  5
1FF2
330
36
100
AcDbEntity
  8
Points
 62
     0
100
AcDbPoint
 10
8632669.417443674
 20
4514307.344239293
 30
0.0
  0
POINT
  5
1FF3
330
36
100
AcDbEntity
  8
Points
 62
     0
100
AcDbPoint
 10
8632666.428443674
 20
4514306.416239293
 30
0.0
  0
POINT
  5
1FF4
330
36
100
AcDbEntity
  8
Points
 62
     0
100
AcDbPoint
 10
8632677.933443675
 20
4514310.936239293
 30
0.0
  0
POINT
  5
1FF5
330
36
100
AcDbEntity
  8
kvadrat
 48
0.1
100
AcDbPoint
 10
8632640.596443674
 20
4514316.520239293
 30
0.0
  0
POINT
  5
1FF6
330
36
100
AcDbEntity
  8
Points
 62
     0
100
AcDbPoint
 10
8632656.362443674
 20
4514320.175239293
 30
0.0
  0
POINT
  5
1FF7
330
36
100
AcDbEntity
  8
Points
 62
     0
100
AcDbPoint
 10
8632683.821443675
 20
4514322.445239293
 30
0.0
  0
LINE
  5
1FF8
330
36
100
AcDbEntity
  8
kvadrat
 48
0.1
100
AcDbLine
 10
8632637.134443674
 20
4514307.822239293
 30
0.0
 11
8632637.495443674
 21
4514303.861239293
 31
0.0
  0
LINE
  5
1FF9
330
36
100
AcDbEntity
  8
kvadrat
 48
0.1
100
AcDbLine
 10
8632637.495443674
 20
4514303.861239293
 30
0.0
 11
8632653.280443674
 21
4514305.734239293
 31
0.0
  0
LINE
  5
1FFA
330
36
100
AcDbEntity
  8
kvadrat
 48
0.1
100
AcDbLine
 10
8632653.280443674
 20
4514305.734239293
 30
0.0
 11
8632653.469443675
 21
4514305.103239293
 31
0.0
  0
LINE
  5
1FFB
330
36
100
AcDbEntity
  8
kvadrat
 48
0.1
100
AcDbLine
 10
8632653.469443675
 20
4514305.103239293
 30
0.0
 11
8632656.281443674
 21
4514305.454239293
 31
0.0
  0
LINE
  5
1FFC
330
36
100
AcDbEntity
  8
kvadrat
 48
0.1
100
AcDbLine
 10
8632656.281443674
 20
4514305.454239293
 30
0.0
 11
8632656.270443674
 21
4514305.809239293
 31
0.0
  0
LINE
  5
1FFD
330
36
100
AcDbEntity
  8
kvadrat
 48
0.1
100
AcDbLine
 10
8632656.270443674
 20
4514305.809239293
 30
0.0
 11
8632665.664443674
 21
4514306.977239293
 31
0.0
  0
LINE
  5
1FFE
330
36
100
AcDbEntity
  8
kvadrat
 48
0.1
100
AcDbLine
 10
8632665.664443674
 20
4514306.977239293
 30
0.0
 11
8632665.903443674
 21
4514305.625239293
 31
0.0
  0
LINE
  5
1FFF
330
36
100
AcDbEntity
  8
kvadrat
 48
0.1
100
AcDbLine
 10
8632665.903443674
 20
4514305.625239293
 30
0.0
 11
8632669.549443675
 21
4514305.948239293
 31
0.0
  0
LINE
  5
2000
330
36
100
AcDbEntity
  8
kvadrat
 48
0.1
100
AcDbLine
 10
8632669.549443675
 20
4514305.948239293
 30
0.0
 11
8632669.417443674
 21
4514307.344239293
 31
0.0
  0
LINE
  5
2001
330
36
100
AcDbEntity
  8
kvadrat
 48
0.1
100
AcDbLine
 10
8632669.417443674
 20
4514307.344239293
 30
0.0
 11
8632684.149639757
 21
4514309.021857455
 31
0.0
  0
LWPOLYLINE
  5
2002
330
36
100
AcDbEntity
  8
Features
100
AcDbPolyline
 90
       20
 70
     1
 43
0.0
 10
8632643.999443674
 20
4514305.738239293
 42
0.0165502126586695
 10
8632644.234844334
 20
4514305.771003875
 42
0.0181152256285639
 10
8632644.420841683
 20
4514305.810365825
 42
0.0368670444624444
 10
8632644.660828823
 20
4514305.888666985
 42
0.0424988685539078
 10
8632644.820763234
 20
4514305.970916232
 42
0.0616753760312454
 10
8632644.951464878
 20
4514306.076893628
 42
0.0985017291528757
 10
8632645.052544447
 20
4514306.234804439
 42
0.1637019055161889
 10
8632645.062929405
 20
4514306.541880704
 42
0.1044745476435602
 10
8632644.979076495
 20
4514306.692929091
 42
0.069656301442322
 10
8632644.865512267
 20
4514306.792578042
 42
0.0778071737821535
 10
8632644.660376227
 20
4514306.885837709
 42
0.1135432676884166
 10
8632644.291788844
 20
4514306.905305502
 42
0.0887367127973724
 10
8632644.071074123
 20
4514306.824325448
 42
0.1229800432119151
 10
8632643.874771563
 20
4514306.630680041
 42
0.0376494320697909
 10
8632643.823310012
 20
4514306.531153819
 42
0.1136704960779877
 10
8632643.746583598
 20
4514306.083362259
 42
0.0343478968947976
 10
8632643.760088125
 20
4514305.980831007
 42
0.0633336099250822
 10
8632643.79869898
 20
4514305.864325094
 42
0.0835627291088627
 10
8632643.851938708
 20
4514305.788753281
 42
0.2146753457938346
 10
8632643.985838331
 20
4514305.737210431
 42
0.016560314974498
  0
LWPOLYLINE
  5
2003
330
36
100
AcDbEntity
  8
Features
100
AcDbPolyline
 90
       19
 70
     0
 43
0.0
 10
8632643.428443674
 20
4514306.803239293
 42
0.0468025934391647
 10
8632643.50911112
 20
4514306.97204377
 42
0.1152227678326859
 10
8632643.581764698
 20
4514307.56756693
 42
0.0579533352757624
 10
8632643.529319147
 20
4514307.797107328
 42
0.0611683802158419
 10
8632643.445504902
 20
4514307.964486149
 42
0.1414139052054746
 10
8632643.196124416
 20
4514308.176354133
 42
0.0631716181696429
 10
8632643.012243534
 20
4514308.23376536
 42
0.1222808323051933
 10
8632642.579750896
 20
4514308.206034879
 42
0.0658212296511682
 10
8632642.40503374
 20
4514308.12351004
 42
0.1116268119782118
 10
8632642.22167339
 20
4514307.935770065
 42
0.0660611196522075
 10
8632642.14271629
 20
4514307.759590341
 42
0.0756525140820186
 10
8632642.103623979
 20
4514307.479499072
 42
0.1094835243317556
 10
8632642.205147931
 20
4514307.034357464
 42
0.0838257885164813
 10
8632642.369677568
 20
4514306.798968804
 42
0.1003226285737991
 10
8632642.608084247
 20
4514306.640006199
 42
0.1209680906391782
 10
8632643.015931077
 20
4514306.578664117
 42
0.0555777273432875
 10
8632643.170471936
 20
4514306.610512832
 42
0.1333081792163664
 10
8632643.385963276
 20
4514306.74573792
 42
0.0341607112415305
 10
8632643.418788983
 20
4514306.788070155
  0
LWPOLYLINE
  5
2004
330
36
100
AcDbEntity
  8
Features
100
AcDbPolyline
 90
       19
 70
     1
 43
0.0
 10
8632645.637443675
 20
4514307.318239293
 42
-0.0859747217194224
 10
8632645.57363752
 20
4514307.474671124
 42
-0.092226503895428
 10
8632645.566650458
 20
4514307.700327005
 42
-0.2064061051042
 10
8632645.876502128
 20
4514308.196657233
 42
-0.0707281645627628
 10
8632646.074031645
 20
4514308.29792048
 42
-0.0532940403399358
 10
8632646.199691584
 20
4514308.326680235
 42
-0.0399702288837051
 10
8632646.271556206
 20
4514308.329070421
 42
-0.0487767765602031
 10
8632646.338531872
 20
4514308.319220189
 42
-0.1484376824649137
 10
8632646.465923492
 20
4514308.244307104
 42
-0.0530943681984804
 10
8632646.505744455
 20
4514308.191061144
 42
-0.0443125915261359
 10
8632646.536404949
 20
4514308.127649169
 42
-0.048040725580364
 10
8632646.562831793
 20
4514308.03054052
 42
-0.0690634558255369
 10
8632646.568544611
 20
4514307.838591787
 42
-0.1048196341005833
 10
8632646.47011446
 20
4514307.530994424
 42
-0.1171319386897284
 10
8632646.264605226
 20
4514307.312381222
 42
-0.0928407411331584
 10
8632646.020116724
 20
4514307.20722216
 42
-0.0485315253021935
 10
8632645.910693914
 20
4514307.193896164
 42
-0.0433429256419592
 10
8632645.833325416
 20
4514307.198894867
 42
-0.1691680384959868
 10
8632645.666365413
 20
4514307.280946821
 42
-0.0490619426149177
  0
LWPOLYLINE
  5
2005
330
36
100
AcDbEntity
  8
Features
100
AcDbPolyline
 90
       18
 70
     0
 43
0.0
 10
8632648.331443675
 20
4514307.951239293
 42
-0.0634135314997678
 10
8632648.215466399
 20
4514308.080451015
 42
-0.1334382630134933
 10
8632648.043349853
 20
4514308.573008996
 42
-0.0588583933025715
 10
8632648.052106386
 20
4514308.754432874
 42
-0.0605778991959172
 10
8632648.09143256
 20
4514308.886701067
 42
-0.1043812049874498
 10
8632648.208461663
 20
4514309.04897317
 42
-0.0697396668708336
 10
8632648.351231357
 20
4514309.146785845
 42
-0.0557817788406199
 10
8632648.522669366
 20
4514309.21011233
 42
-0.1303746254799227
 10
8632649.055274712
 20
4514309.200551243
 42
-0.0682317925037114
 10
8632649.260291314
 20
4514309.110547177
 42
-0.1519934644852436
 10
8632649.515435193
 20
4514308.816850741
 42
-0.139708521804198
 10
8632649.571125915
 20
4514308.436258295
 42
-0.1666652741831846
 10
8632649.39983166
 20
4514308.092012768
 42
-0.059510810618552
 10
8632649.250859149
 20
4514307.975367494
 42
-0.1242148862855983
 10
8632648.766315851
 20
4514307.826809155
 42
-0.0570669685930734
 10
8632648.580116803
 20
4514307.83895882
 42
-0.0581079132147981
 10
8632648.445591575
 20
4514307.880135474
 42
-0.0620245595057388
 10
8632648.34435966
 20
4514307.940652663
  0
LWPOLYLINE
  5
2006
330
36
100
AcDbEntity
  8
Features
100
AcDbPolyline
 90
       37
 70
     0
 43
0.0
 10
8632656.093443675
 20
4514307.689239293
 42
0.0325967552349864
 10
8632655.744666595
 20
4514307.738415523
 42
0.0698199818801406
 10
8632654.619332423
 20
4514307.666797237
 42
0.034232241872654
 10
8632654.244736155
 20
4514307.561422461
 42
0.0710530395022717
 10
8632653.84649545
 20
4514307.357432014
 42
0.1832857315879689
 10
8632653.542824347
 20
4514306.917614494
 42
0.0411448009807605
 10
8632653.513989704
 20
4514306.74516599
 42
0.0443833457336127
 10
8632653.520984856
 20
4514306.357190588
 42
0.0132575151398681
 10
8632653.556745004
 20
4514306.069850286
 42
0.0200507523147343
 10
8632653.578424614
 20
4514305.960722845
 42
0.0357896302456179
 10
8632653.61155868
 20
4514305.857438606
 42
0.134261799866335
 10
8632653.758164251
 20
4514305.663493676
 42
0.0630365376930466
 10
8632653.915795382
 20
4514305.569199929
 42
0.0334411700067411
 10
8632654.059320288
 20
4514305.516182299
 42
0.0537115676744246
 10
8632654.425821168
 20
4514305.450858947
 42
0.0223418974492767
 10
8632654.639464969
 20
4514305.444746142
 42
0.0093190731551075
 10
8632654.780950665
 20
4514305.449315758
 42
0.0052439961154801
 10
8632655.065847734
 20
4514305.468128402
 42
-0.0118898099650911
 10
8632655.359519893
 20
4514305.483432779
 42
-0.0085577196733068
 10
8632655.511734322
 20
4514305.484076977
 42
0.0112168153822819
 10
8632655.664308688
 20
4514305.485323469
 42
0.0229440009662526
 10
8632655.774796272
 20
4514305.494250421
 42
0.0388637723347279
 10
8632655.878591098
 20
4514305.516054984
 42
0.124639758998326
 10
8632656.05469239
 20
4514305.618590022
 42
0.0570715466237523
 10
8632656.145570021
 20
4514305.73066684
 42
0.0448477189304851
 10
8632656.232954254
 20
4514305.898874299
 42
0.0627183876960473
 10
8632656.356023245
 20
4514306.349424933
 42
0.0189966347886227
 10
8632656.378688598
 20
4514306.559699181
 42
0.0093387095610744
 10
8632656.390591998
 20
4514306.784488529
 42
0.0056791150045757
 10
8632656.400175534
 20
4514307.114097117
 42
0.0222207512685797
 10
8632656.393680144
 20
4514307.41803239
 42
0.0647403109765618
 10
8632656.367018562
 20
4514307.57298267
 42
0.0840642289904185
 10
8632656.34338164
 20
4514307.616556918
 42
0.1065257944128311
 10
8632656.309885608
 20
4514307.642770271
 42
0.0456393710012741
 10
8632656.280785954
 20
4514307.653849953
 42
0.0303476597380792
 10
8632656.225045493
 20
4514307.665749227
 42
-0.0068750911321868
 10
8632656.109053256
 20
4514307.685999179
  0
LWPOLYLINE
  5
2007
330
36
100
AcDbEntity
  8
Features
100
AcDbPolyline
 90
       29
 70
     1
 43
0.0
 10
8632652.200443674
 20
4514308.778239293
 42
0.0377699844534154
 10
8632652.248039572
 20
4514308.764300892
 42
0.0353072759313661
 10
8632652.321201976
 20
4514308.754004606
 42
0.0545754296100127
 10
8632652.507481242
 20
4514308.762239763
 42
0.0462608452477454
 10
8632652.669450799
 20
4514308.801131429
 42
0.0400957052987294
 10
8632652.754540874
 20
4514308.838059745
 42
0.0776651094428968
 10
8632652.841269288
 20
4514308.903170766
 42
0.1525815686422663
 10
8632652.91045732
 20
4514309.041758127
 42
0.0416909337601204
 10
8632652.9145621
 20
4514309.092986442
 42
0.0354351572907928
 10
8632652.910646573
 20
4514309.145627731
 42
0.0434622327300796
 10
8632652.891649667
 20
4514309.225790924
 42
0.0337614109783437
 10
8632652.859529981
 20
4514309.305409706
 42
0.1043070058797952
 10
8632652.631707387
 20
4514309.597141464
 42
0.0470942328442767
 10
8632652.552628549
 20
4514309.650632179
 42
0.0533385326828775
 10
8632652.486054588
 20
4514309.678188329
 42
0.0807305098127718
 10
8632652.408792047
 20
4514309.687941511
 42
0.2058203879383128
 10
8632652.25764524
 20
4514309.61187256
 42
0.0446414138109925
 10
8632652.219826601
 20
4514309.559623326
 42
0.0351641465442953
 10
8632652.179987399
 20
4514309.480705848
 42
0.0156930948258366
 10
8632652.152490392
 20
4514309.410060721
 42
0.0088742922464545
 10
8632652.109586198
 20
4514309.279247181
 42
-0.0243793238597486
 10
8632652.038887827
 20
4514309.078327643
 42
0.0106310198618863
 10
8632652.025015261
 20
4514309.040426542
 42
0.0290066402821595
 10
8632652.01304377
 20
4514308.997453415
 42
0.0332192979323114
 10
8632652.009180794
 20
4514308.970165749
 42
0.069104402675633
 10
8632652.011618268
 20
4514308.931021424
 42
0.1107555271175073
 10
8632652.034549851
 20
4514308.881630705
 42
0.0734495510579535
 10
8632652.07778639
 20
4514308.840455986
 42
0.0419679367824172
 10
8632652.13556553
 20
4514308.806246246
 42
0.0251398464050354
  0
LWPOLYLINE
  5
2008
330
36
100
AcDbEntity
  8
Features
100
AcDbPolyline
 90
       20
 70
     1
 43
0.0
 10
8632658.004443675
 20
4514309.208239293
 42
0.0629646302271396
 10
8632657.960290404
 20
4514309.01343773
 42
0.1455122032943503
 10
8632658.07138304
 20
4514308.445088242
 42
0.0773328636954387
 10
8632658.216119438
 20
4514308.249506678
 42
0.1088681472246813
 10
8632658.450148944
 20
4514308.103645499
 42
0.0906216975518438
 10
8632658.730249176
 20
4514308.05844281
 42
0.1659092073351336
 10
8632659.281923298
 20
4514308.255914043
 42
0.0712638847319
 10
8632659.459395893
 20
4514308.449172002
 42
0.1432918485423201
 10
8632659.66188885
 20
4514309.072074455
 42
0.0567959615687309
 10
8632659.643830745
 20
4514309.276968478
 42
0.056704089881813
 10
8632659.595597614
 20
4514309.424242806
 42
0.0876564626354308
 10
8632659.490895184
 20
4514309.576119904
 42
0.0776664537270779
 10
8632659.370334506
 20
4514309.663686001
 42
0.0473275409049279
 10
8632659.26074013
 20
4514309.707877911
 42
0.0387192760429423
 10
8632659.138577012
 20
4514309.734479743
 42
0.0515915260255893
 10
8632658.91665583
 20
4514309.741889979
 42
0.103488361596277
 10
8632658.379786564
 20
4514309.591407212
 42
0.0539314809070601
 10
8632658.19517854
 20
4514309.467787023
 42
0.0564780125212101
 10
8632658.080566378
 20
4514309.346806132
 42
0.0517676842882119
 10
8632658.019407086
 20
4514309.244426456
 42
0.0188196766953754
  0
LWPOLYLINE
  5
2009
330
36
100
AcDbEntity
  8
Features
100
AcDbPolyline
 90
       26
 70
     0
 43
0.0
 10
8632648.816443674
 20
4514311.070239293
 42
0.0196078178177357
 10
8632648.92612109
 20
4514311.135370311
 42
0.0684908011533208
 10
8632649.391324757
 20
4514311.536328026
 42
0.0366272252963621
 10
8632649.516187793
 20
4514311.701842615
 42
0.0347218066071727
 10
8632649.57673553
 20
4514311.812188314
 42
0.0341560003354981
 10
8632649.60737663
 20
4514311.893191179
 42
0.0443040326011394
 10
8632649.623475434
 20
4514311.971529566
 42
0.0564073370174671
 10
8632649.623337647
 20
4514312.046160387
 42
0.13807892837206
 10
8632649.567913223
 20
4514312.180171331
 42
0.0527529504943866
 10
8632649.512655927
 20
4514312.237913583
 42
0.0405700281565755
 10
8632649.44221341
 20
4514312.28880273
 42
0.0408167257787643
 10
8632649.32937869
 20
4514312.345193552
 42
0.1050646988500227
 10
8632648.853166211
 20
4514312.424199568
 42
0.0486137249611302
 10
8632648.687310599
 20
4514312.400320332
 42
0.0509281331671101
 10
8632648.567518944
 20
4514312.357399492
 42
0.0803015896345451
 10
8632648.441930069
 20
4514312.270513614
 42
0.1113159677989124
 10
8632648.339268826
 20
4514312.112066614
 42
0.0313164598418621
 10
8632648.319067026
 20
4514312.045414814
 42
0.0380306334519923
 10
8632648.301795755
 20
4514311.93504323
 42
0.030121285647998
 10
8632648.29911768
 20
4514311.815938953
 42
0.0865959154767198
 10
8632648.395160997
 20
4514311.372504858
 42
0.0397759401342138
 10
8632648.463497221
 20
4514311.23668827
 42
0.0394326817694192
 10
8632648.523701506
 20
4514311.153544497
 42
0.0824113853146824
 10
8632648.613675922
 20
4514311.075643725
 42
0.1057397334665558
 10
8632648.699499918
 20
4514311.04553682
 42
0.142960519367166
 10
8632648.803192137
 20
4514311.063582141
  0
LWPOLYLINE
  5
200A
330
36
100
AcDbEntity
  8
Features
100
AcDbPolyline
 90
       20
 70
     0
 43
0.0
 10
8632651.080443675
 20
4514311.585239293
 42
-0.0747962474199697
 10
8632650.965888267
 20
4514311.769617288
 42
-0.0846918267742896
 10
8632650.890590725
 20
4514312.079941924
 42
-0.1246038559410378
 10
8632650.978546059
 20
4514312.590609899
 42
-0.1433611074426393
 10
8632651.283547303
 20
4514312.951285901
 42
-0.0571195454448031
 10
8632651.505994651
 20
4514313.064892283
 42
-0.1364505198878878
 10
8632652.318346981
 20
4514313.130229315
 42
-0.0516174434535268
 10
8632652.544436911
 20
4514313.061107909
 42
-0.0540434793257727
 10
8632652.696276799
 20
4514312.976314698
 42
-0.0703016870606707
 10
8632652.813292062
 20
4514312.865858831
 42
-0.1067029239016511
 10
8632652.898460696
 20
4514312.69282302
 42
-0.0544255681211902
 10
8632652.915107021
 20
4514312.57342568
 42
-0.0454607976274476
 10
8632652.907709137
 20
4514312.446351513
 42
-0.061189830672057
 10
8632652.846383827
 20
4514312.226673817
 42
-0.1094815614960447
 10
8632652.529848242
 20
4514311.777875216
 42
-0.1158788796879187
 10
8632651.904687027
 20
4514311.425480359
 42
-0.0486735227822636
 10
8632651.667379089
 20
4514311.381885855
 42
-0.0480292851775245
 10
8632651.485958027
 20
4514311.384219536
 42
-0.0590775797801793
 10
8632651.318931414
 20
4514311.422661101
 42
-0.1192294225799306
 10
8632651.09464091
 20
4514311.569355135
  0
LWPOLYLINE
  5
200B
330
36
100
AcDbEntity
  8
Features
100
AcDbPolyline
 90
       26
 70
     0
 43
0.0
 10
8632662.130443674
 20
4514312.197239293
 42
-0.1671239338426992
 10
8632662.00646697
 20
4514312.464236014
 42
-0.0549523324506435
 10
8632662.006100176
 20
4514312.596577052
 42
-0.0426574945643126
 10
8632662.032682534
 20
4514312.736054217
 42
-0.0328795595221262
 10
8632662.082952935
 20
4514312.880166759
 42
-0.040151981126774
 10
8632662.21051969
 20
4514313.123863
 42
-0.0884065412432464
 10
8632662.83733182
 20
4514313.810786378
 42
-0.0359453535683888
 10
8632663.060598005
 20
4514313.956519623
 42
-0.0390975730681641
 10
8632663.236124525
 20
4514314.036482327
 42
-0.0382740203590358
 10
8632663.362481875
 20
4514314.071454038
 42
-0.0498400905547768
 10
8632663.481816245
 20
4514314.082399494
 42
-0.2256080605967391
 10
8632663.775328603
 20
4514313.948019846
 42
-0.0376307148884529
 10
8632663.823655495
 20
4514313.882128037
 42
-0.0450004195056909
 10
8632663.883350456
 20
4514313.763764499
 42
-0.0352194937142756
 10
8632663.927224092
 20
4514313.627437032
 42
-0.0948872994652337
 10
8632663.95246072
 20
4514313.122241312
 42
-0.0481064711520289
 10
8632663.907347228
 20
4514312.934414607
 42
-0.1149314302743154
 10
8632663.692934975
 20
4514312.598799774
 42
-0.0451251020973033
 10
8632663.516798291
 20
4514312.453379122
 42
-0.0295059614144953
 10
8632663.308290703
 20
4514312.327287293
 42
-0.027070945669827
 10
8632662.975807969
 20
4514312.171978017
 42
-0.0263124125488742
 10
8632662.776423614
 20
4514312.1039428
 42
-0.0280509449683543
 10
8632662.628827088
 20
4514312.071230077
 42
-0.0388708518110585
 10
8632662.486861184
 20
4514312.05947194
 42
-0.1133726906495592
 10
8632662.253060827
 20
4514312.108041123
 42
-0.0776664787163749
 10
8632662.14643352
 20
4514312.181348578
  0
LWPOLYLINE
  5
200C
330
36
100
AcDbEntity
  8
Features
100
AcDbPolyline
 90
       26
 70
     0
 43
0.0
 10
8632648.959202059
 20
4514305.334481261
 42
0.2019404550269602
 10
8632649.233760709
 20
4514305.402116234
 42
0.1028954139750543
 10
8632649.319327142
 20
4514305.503972062
 42
0.0398477077794342
 10
8632649.350372845
 20
4514305.572497723
 42
0.0290970259892595
 10
8632649.372708064
 20
4514305.647126411
 42
0.0423347842985683
 10
8632649.39314094
 20
4514305.777892582
 42
0.0340565862491998
 10
8632649.393041274
 20
4514305.854759355
 42
0.0773212412490405
 10
8632649.370523471
 20
4514305.958760662
 42
0.1494725321879102
 10
8632649.282613674
 20
4514306.067721802
 42
0.0517930334029958
 10
8632649.222514307
 20
4514306.1008865
 42
0.0402053141399902
 10
8632649.152855301
 20
4514306.124301407
 42
0.0312325793455467
 10
8632649.07563921
 20
4514306.13874111
 42
0.0387716552902624
 10
8632648.935591273
 20
4514306.144966193
 42
0.0650405230666938
 10
8632648.591874233
 20
4514306.088063501
 42
0.0318721901306586
 10
8632648.490409777
 20
4514306.049845369
 42
0.0438259604718847
 10
8632648.401650898
 20
4514306.000136412
 42
0.2209198760118503
 10
8632648.244210767
 20
4514305.753165139
 42
0.131442875209985
 10
8632648.269499106
 20
4514305.536590256
 42
0.1665130927636639
 10
8632648.397541313
 20
4514305.387399603
 42
0.0478908715941814
 10
8632648.465892876
 20
4514305.354486193
 42
0.0901114358329122
 10
8632648.640958734
 20
4514305.324245922
 42
0.016176956790014
 10
8632648.690872507
 20
4514305.326043954
 42
0.0100135938850923
 10
8632648.764873775
 20
4514305.33270921
 42
-0.0109262607394197
 10
8632648.838095102
 20
4514305.339191713
 42
-0.0173579514374522
 10
8632648.886622313
 20
4514305.340664851
 42
-0.0324152475395397
 10
8632648.947112737
 20
4514305.336404449
  0
LWPOLYLINE
  5
200D
330
36
100
AcDbEntity
  8
Features
100
AcDbPolyline
 90
       21
 70
     0
 43
0.0
 10
8632666.428443674
 20
4514306.416239293
 42
-0.1058071578346766
 10
8632666.30611637
 20
4514306.645652318
 42
-0.0513965110079144
 10
8632666.27639802
 20
4514306.805442022
 42
-0.0707716862566247
 10
8632666.293558626
 20
4514307.087829611
 42
-0.1171256681629269
 10
8632666.509372799
 20
4514307.560951032
 42
-0.0928459393695927
 10
8632666.810258249
 20
4514307.820503178
 42
-0.1001387074416911
 10
8632667.300501652
 20
4514307.986593524
 42
-0.1280479234912063
 10
8632667.992814144
 20
4514307.903716795
 42
-0.1265716050539963
 10
8632668.466605742
 20
4514307.560020127
 42
-0.1337475823739822
 10
8632668.78384651
 20
4514306.861840892
 42
-0.0487729923658659
 10
8632668.79689292
 20
4514306.640640016
 42
-0.0433919720700742
 10
8632668.776940975
 20
4514306.484876482
 42
-0.0519269964714043
 10
8632668.729948642
 20
4514306.34299034
 42
-0.1213339392255124
 10
8632668.551485978
 20
4514306.117263789
 42
-0.0486302964280125
 10
8632668.42435803
 20
4514306.03551395
 42
-0.0398940064174697
 10
8632668.277039895
 20
4514305.97368628
 42
-0.0419977742242548
 10
8632668.055883352
 20
4514305.921077863
 42
-0.049181460781137
 10
8632667.689744152
 20
4514305.902847616
 42
-0.0853051565536416
 10
8632666.946887491
 20
4514306.065130257
 42
-0.0439476131027354
 10
8632666.679804163
 20
4514306.202846916
 42
-0.0563287420163163
 10
8632666.463907354
 20
4514306.377234926
  0
LWPOLYLINE
  5
200E
330
36
100
AcDbEntity
  8
Features
100
AcDbPolyline
 90
       23
 70
     1
 43
0.0
 10
8632670.633443674
 20
4514311.385239293
 42
-0.053128422477156
 10
8632670.478230188
 20
4514311.478854429
 42
-0.0987897846790588
 10
8632670.167420484
 20
4514311.82716408
 42
-0.043258640518983
 10
8632670.10470177
 20
4514311.960010008
 42
-0.0413674477804128
 10
8632670.077468744
 20
4514312.05859378
 42
-0.0534677398732189
 10
8632670.070095355
 20
4514312.153324625
 42
-0.1399986916788724
 10
8632670.123431608
 20
4514312.321372309
 42
-0.0574143811794499
 10
8632670.182536183
 20
4514312.392177135
 42
-0.0464788736896322
 10
8632670.25976002
 20
4514312.453498847
 42
-0.0376816492131044
 10
8632670.352393484
 20
4514312.504867964
 42
-0.0499221321610211
 10
8632670.533666702
 20
4514312.567091154
 42
-0.1225985468934161
 10
8632671.163706735
 20
4514312.558324324
 42
-0.051464320708223
 10
8632671.36064483
 20
4514312.483011523
 42
-0.1975454998822874
 10
8632671.764974512
 20
4514312.012177805
 42
-0.0549264392520248
 10
8632671.794451147
 20
4514311.87110123
 42
-0.0477993376133136
 10
8632671.794303697
 20
4514311.768744763
 42
-0.0559922888969864
 10
8632671.7737991
 20
4514311.672935826
 42
-0.104466193854532
 10
8632671.692317478
 20
4514311.535783736
 42
-0.0503410625655285
 10
8632671.617855618
 20
4514311.468767422
 42
-0.040961906439825
 10
8632671.528014947
 20
4514311.41325998
 42
-0.0531813752710304
 10
8632671.352656193
 20
4514311.346361765
 42
-0.1063751698955896
 10
8632670.8423185
 20
4514311.322704052
 42
-0.0511141160686001
 10
8632670.665337566
 20
4514311.371587118
 42
-0.0119304601985748
  0
LWPOLYLINE
  5
200F
330
36
100
AcDbEntity
  8
Features
100
AcDbPolyline
 90
       17
 70
     1
 43
0.0
 10
8632675.710443674
 20
4514311.301239293
 42
-0.108393780777418
 10
8632676.04465444
 20
4514311.621858309
 42
-0.2885099670174913
 10
8632677.452038096
 20
4514311.607907793
 42
-0.0693322470734136
 10
8632677.743012635
 20
4514311.364210445
 42
-0.0446155440948244
 10
8632677.84658537
 20
4514311.225862293
 42
-0.0423128280704009
 10
8632677.900007786
 20
4514311.119725323
 42
-0.0543842167779766
 10
8632677.929255791
 20
4514311.014319145
 42
-0.1675752320720076
 10
8632677.89007955
 20
4514310.784370746
 42
-0.0572892359647686
 10
8632677.829216948
 20
4514310.696577557
 42
-0.0465955285803498
 10
8632677.745618526
 20
4514310.617007178
 42
-0.0487201310375187
 10
8632677.603351824
 20
4514310.525792425
 42
-0.04925208491357
 10
8632677.38481835
 20
4514310.439713757
 42
-0.1251533927147445
 10
8632676.57538295
 20
4514310.421202571
 42
-0.0695195377147459
 10
8632676.095574167
 20
4514310.601530248
 42
-0.0475547540256572
 10
8632675.880806692
 20
4514310.746571323
 42
-0.0379853777354306
 10
8632675.780563017
 20
4514310.843925312
 42
-0.0975325086532108
 10
8632675.675025096
 20
4514311.016960119
 42
-0.2459255354111331
  0
LWPOLYLINE
  5
2010
330
36
100
AcDbEntity
  8
Features
100
AcDbPolyline
 90
       19
 70
     0
 43
0.0
 10
8632674.832443675
 20
4514315.348239293
 42
0.0701278138252195
 10
8632674.766164934
 20
4514315.522239538
 42
0.1018029080190216
 10
8632674.536778621
 20
4514315.788901389
 42
0.1181008073974986
 10
8632674.131688783
 20
4514315.976160723
 42
0.1315226036406727
 10
8632673.721659038
 20
4514315.94964671
 42
0.0715531193752158
 10
8632673.45174961
 20
4514315.813259978
 42
0.0972556164190064
 10
8632673.123619504
 20
4514315.477419736
 42
0.0546708677377239
 10
8632673.03567084
 20
4514315.302739847
 42
0.0412763237227442
 10
8632673.006815378
 20
4514315.198033749
 42
0.0504913050504927
 10
8632672.99830653
 20
4514315.096317323
 42
0.1472198108227202
 10
8632673.066376943
 20
4514314.883115819
 42
0.0645632292170003
 10
8632673.156808576
 20
4514314.781197083
 42
0.0501556431692878
 10
8632673.277286854
 20
4514314.695709934
 42
0.0499235239220438
 10
8632673.460807927
 20
4514314.614231426
 42
0.1312016179412466
 10
8632674.159934817
 20
4514314.575652715
 42
0.0743886951539267
 10
8632674.447506938
 20
4514314.682670452
 42
0.0945108639471429
 10
8632674.703321168
 20
4514314.896015172
 42
0.0712700551050069
 10
8632674.803190848
 20
4514315.061904703
 42
0.144808727986246
 10
8632674.83606311
 20
4514315.330258304
  0
LWPOLYLINE
  5
2011
330
36
100
AcDbEntity
  8
Features
100
AcDbPolyline
 90
       22
 70
     0
 43
0.0
 10
8632667.344443675
 20
4514316.858239293
 42
-0.0494396632962098
 10
8632667.301755605
 20
4514317.006392336
 42
-0.091615779072147
 10
8632667.296521945
 20
4514317.469271226
 42
-0.0875752827377558
 10
8632667.385682486
 20
4514317.715761268
 42
-0.1839944669806861
 10
8632667.668463863
 20
4514317.945339375
 42
-0.1694709866622985
 10
8632668.15592919
 20
4514317.936378906
 42
-0.1653756971541732
 10
8632668.43931708
 20
4514317.710076498
 42
-0.0422258955790123
 10
8632668.524576101
 20
4514317.551347944
 42
-0.0159943325879551
 10
8632668.601939166
 20
4514317.35566332
 42
-0.0041221470689806
 10
8632668.64212242
 20
4514317.24686058
 42
-0.0174704308639944
 10
8632668.668344747
 20
4514317.164488711
 42
-0.0229810793474526
 10
8632668.679692194
 20
4514317.11430395
 42
-0.078529744999659
 10
8632668.682790022
 20
4514317.023116897
 42
-0.1258779415593962
 10
8632668.640088182
 20
4514316.921594601
 42
-0.0516606957389261
 10
8632668.58906832
 20
4514316.865387544
 42
-0.0349683248995034
 10
8632668.520998333
 20
4514316.811758639
 42
-0.0702428376658284
 10
8632668.077821815
 20
4514316.605470992
 42
-0.0484530148415965
 10
8632667.903159603
 20
4514316.571371732
 42
-0.1425150417012618
 10
8632667.646422254
 20
4514316.616808669
 42
-0.0406526036693436
 10
8632667.558281114
 20
4514316.669203659
 42
-0.0266495562425104
 10
8632667.475618932
 20
4514316.734340494
 42
-0.0139481263429028
 10
8632667.3963811
 20
4514316.807440983
  0
LWPOLYLINE
  5
2012
330
36
100
AcDbEntity
  8
Features
100
AcDbPolyline
 90
       27
 70
     0
 43
0.0
 10
8632658.610443674
 20
4514317.421239293
 42
-0.165126653707425
 10
8632658.717135897
 20
4514317.738112412
 42
-0.0574217313258507
 10
8632658.824877571
 20
4514317.850433635
 42
-0.0439511392599457
 10
8632658.964209102
 20
4514317.946581696
 42
-0.0329766550754421
 10
8632659.131225592
 20
4514318.027525236
 42
-0.0306576430321267
 10
8632659.372979317
 20
4514318.108798965
 42
-0.0529165306878556
 10
8632660.10596536
 20
4514318.222895882
 42
-0.022976820712294
 10
8632660.323928593
 20
4514318.223216704
 42
-0.023603604100589
 10
8632660.47130355
 20
4514318.209465732
 42
-0.0219626849198877
 10
8632660.558900138
 20
4514318.19292164
 42
-0.0293376561105344
 10
8632660.636114867
 20
4514318.170031788
 42
-0.0820978359972107
 10
8632660.741466166
 20
4514318.113559501
 42
-0.133661389229795
 10
8632660.801602267
 20
4514318.034445752
 42
-0.1066475765036085
 10
8632660.812142972
 20
4514317.96294313
 42
-0.0514356712018202
 10
8632660.804129152
 20
4514317.913742996
 42
-0.022839701380884
 10
8632660.793204006
 20
4514317.878589535
 42
-0.0288019785095772
 10
8632660.760914514
 20
4514317.804189733
 42
-0.0146987361317074
 10
8632660.719148783
 20
4514317.726663807
 42
-0.0178555319702465
 10
8632660.554002086
 20
4514317.461887648
 42
-0.0362052834013501
 10
8632660.370569654
 20
4514317.228339619
 42
-0.0576314389657971
 10
8632660.155418376
 20
4514317.041445039
 42
-0.1185085471055234
 10
8632659.720247746
 20
4514316.878816549
 42
-0.0605667447928501
 10
8632659.37663061
 20
4514316.878148216
 42
-0.0598998134875938
 10
8632659.03582077
 20
4514316.95799652
 42
-0.0456598247140166
 10
8632658.866944617
 20
4514317.038223749
 42
-0.106006716723191
 10
8632658.680608004
 20
4514317.203748787
 42
-0.1433174141688869
 10
8632658.610870799
 20
4514317.401192212
  0
LWPOLYLINE
  5
2013
330
36
100
AcDbEntity
  8
Features
100
AcDbPolyline
 90
       16
 70
     1
 43
0.0
 10
8632653.204120602
 20
4514319.304466817
 42
0.0662646771811367
 10
8632653.086731408
 20
4514319.278080929
 42
0.1083736166057289
 10
8632652.89688892
 20
4514319.158822628
 42
0.1118819433655809
 10
8632652.812745385
 20
4514319.030398021
 42
0.088330464014572
 10
8632652.795946501
 20
4514318.928318138
 42
0.0631057400848637
 10
8632652.80891718
 20
4514318.834305785
 42
0.2079966267129379
 10
8632653.068797246
 20
4514318.516428743
 42
0.2450294986320354
 10
8632653.646133505
 20
4514318.521747135
 42
0.1007415191945629
 10
8632653.81978328
 20
4514318.667428978
 42
0.06776589807069
 10
8632653.881407814
 20
4514318.771385487
 42
0.1950973785987171
 10
8632653.888283957
 20
4514318.995730043
 42
0.0737199646985003
 10
8632653.831062406
 20
4514319.100766562
 42
0.1490785410986085
 10
8632653.601283707
 20
4514319.27051088
 42
0.0468947502179416
 10
8632653.487338208
 20
4514319.299450709
 42
0.0336273429579727
 10
8632653.36918626
 20
4514319.310101028
 42
0.0145313590386107
 10
8632653.29789584
 20
4514319.309936832
 42
0.0132693181402161
  0
LINE
  5
2014
330
36
100
AcDbEntity
  8
kvadrat
 48
0.1
100
AcDbLine
 10
8632640.596443674
 20
4514316.520239293
 30
0.0
 11
8632637.134443674
 21
4514307.822239293
 31
0.0
  0
CIRCLE
  5
2015
330
36
100
AcDbEntity
  8
Metalwork
100
AcDbCircle
 10
8632667.49588357
 20
4514306.938523989
 30
0.0
 40
0.8
  0
CIRCLE
  5
2016
330
36
100
AcDbEntity
  8
Metalwork
100
AcDbCircle
 10
8632658.75986905
 20
4514308.973562047
 30
0.0
 40
0.8
  0
CIRCLE
  5
2017
330
36
100
AcDbEntity
  8
Metalwork
100
AcDbCircle
 10
8632654.922966478
 20
4514306.59188195
 30
0.0
 40
0.8
  0
CIRCLE
  5
2018
330
36
100
AcDbEntity
  8
Metalwork
100
AcDbCircle
 10
8632673.980900764
 20
4514315.239338133
 30
0.0
 40
0.8
  0
CIRCLE
  5
2019
330
36
100
AcDbEntity
  8
Metalwork
100
AcDbCircle
 10
8632667.871050192
 20
4514317.327930066
 30
0.0
 40
0.8
  0
CIRCLE
  5
201A
330
36
100
AcDbEntity
  8
Metalwork
100
AcDbCircle
 10
8632663.047483634
 20
4514313.043638738
 30
0.0
 40
0.8
  0
CIRCLE
  5
201B
330
36
100
AcDbEntity
  8
Metalwork
100
AcDbCircle
 10
8632659.71792942
 20
4514317.542708852
 30
0.0
 40
0.8
  0
MTEXT
  5
201C
330
36
100
AcDbEntity
  8
TEXT
  6
Continuous
100
AcDbMText
 10
8632637.307401942
 20
4514329.037815898
 30
0.0
 40
1.2
 41
851.639
 46
0.0
 71
     1
 72
     5
  1
{\fTahoma|b0|i0|c0|p34;Human Remains and Bronzework in Graves}
  7
Standard
 73
     1
 44
1.0
  0
CIRCLE
  5
201D
330
36
100
AcDbEntity
  8
Metalwork
100
AcDbCircle
 10
8632637.819258356
 20
4514321.39833727
 30
0.0
 40
0.8
  0
MTEXT
  5
201E
330
36
100
AcDbEntity
  8
TEXT
  6
Continuous
100
AcDbMText
 10
8632641.037879687
 20
4514324.556598779
 30
0.0
 40
1.2
 41
851.639
 46
0.0
 71
     1
 72
     5
  1
{\fTahoma|b0|i0|c0|p34;Human Remains}
  7
Standard
 73
     1
 44
1.0
  0
MTEXT
  5
201F
330
36
100
AcDbEntity
  8
TEXT
  6
Continuous
100
AcDbMText
 10
8632641.037879687
 20
4514322.360244364
 30
0.0
 40
1.2
 41
851.639
 46
0.0
 71
     1
 72
     5
  1
{\fTahoma|b0|i0|c0|p34;Bronzework}
  7
Standard
 73
     1
 44
1.0
  0
LINE
  5
2020
330
36
100
AcDbEntity
  8
kvadrat
 48
0.1
100
AcDbLine
 10
8632640.596443674
 20
4514316.520239293
 30
0.0
 11
8632656.362443674
 21
4514320.175239293
 31
0.0
  0
LINE
  5
2021
330
36
100
AcDbEntity
  8
kvadrat
 48
0.1
100
AcDbLine
 10
8632656.362443674
 20
4514320.175239293
 30
0.0
 11
8632683.821443675
 21
4514322.445239293
 31
0.0
  0
LINE
  5
2022
330
36
100
AcDbEntity
  8
kvadrat
 48
0.1
100
AcDbLine
 10
8632640.596443674
 20
4514354.544510485
 30
0.0
 11
8632656.362443674
 21
4514358.199510485
 31
0.0
  0
LINE
  5
2023
330
36
100
AcDbEntity
  8
kvadrat
 48
0.1
100
AcDbLine
 10
8632656.362443674
 20
4514358.199510485
 30
0.0
 11
8632683.821443675
 21
4514360.469510485
 31
0.0
  0
CIRCLE
  5
2024
330
36
100
AcDbEntity
  8
Body
 48
0.001
370
     5
100
AcDbCircle
 10
8632637.77236142
 20
4514323.877128342
 30
0.0
 40
0.375
  0
CIRCLE
  5
2025
330
36
100
AcDbEntity
  8
Body
100
AcDbCircle
 10
8632648.791165233
 20
4514311.81190507
 30
0.0
 40
0.375
  0
CIRCLE
  5
2026
330
36
100
AcDbEntity
  8
Body
100
AcDbCircle
 10
8632652.328447174
 20
4514309.08066951
 30
0.0
 40
0.375
  0
CIRCLE
  5
2027
330
36
100
AcDbEntity
  8
Body
100
AcDbCircle
 10
8632658.75986905
 20
4514308.973562047
 30
0.0
 40
0.375
  0
CIRCLE
  5
2028
330
36
100
AcDbEntity
  8
Body
100
AcDbCircle
 10
8632663.047483634
 20
4514313.043638738
 30
0.0
 40
0.375
  0
CIRCLE
  5
2029
330
36
100
AcDbEntity
  8
Body
100
AcDbCircle
 10
8632667.49588357
 20
4514306.938523989
 30
0.0
 40
0.375
  0
CIRCLE
  5
202A
330
36
100
AcDbEntity
  8
Body
100
AcDbCircle
 10
8632667.871050192
 20
4514317.327930066
 30
0.0
 40
0.375
  0
CIRCLE
  5
202B
330
36
100
AcDbEntity
  8
Body
100
AcDbCircle
 10
8632670.87238016
 20
4514311.97256612
 30
0.0
 40
0.375
  0
CIRCLE
  5
202C
330
36
100
AcDbEntity
  8
Body
100
AcDbCircle
 10
8632673.980900764
 20
4514315.239338133
 30
0.0
 40
0.375
  0
CIRCLE
  5
202D
330
36
100
AcDbEntity
  8
Body
100
AcDbCircle
 10
8632676.821445381
 20
4514311.062154267
 30
0.0
 40
0.375
  0
LWPOLYLINE
  5
202E
330
36
100
AcDbEntity
  8
TEXT
  6
Continuous
100
AcDbPolyline
 90
        2
 70
   128
 43
0.063
 10
8632682.144200461
 20
4514369.570485698
 10
8632682.144200463
 20
4514365.521088057
  0
LWPOLYLINE
  5
202F
330
36
100
AcDbEntity
  8
TEXT
  6
Continuous
100
AcDbPolyline
 90
        2
 70
   128
 10
8632682.144200463
 20
4514371.350158328
 40
0.0
 41
0.6299999999999999
 10
8632682.144200461
 20
4514369.570485698
 40
0.0
 41
0.0
  0
LWPOLYLINE
  5
2030
330
36
100
AcDbEntity
  8
TEXT
  6
Continuous
 62
     8
100
AcDbPolyline
 90
        4
 70
     1
 43
0.0
 10
8632634.647657108
 20
4514373.484602126
 10
8632684.149639757
 20
4514373.484602126
 10
8632684.149639757
 20
4514330.960330934
 10
8632634.647657108
 20
4514330.960330934
  0
LWPOLYLINE
  5
2031
330
36
100
AcDbEntity
  8
TEXT
  6
Continuous
 62
     8
100
AcDbPolyline
 90
        4
 70
     1
 43
0.0
 10
8632634.647657108
 20
4514330.745336486
 10
8632684.149639757
 20
4514330.745336486
 10
8632684.149639757
 20
4514302.44023986
 10
8632634.647657108
 20
4514302.44023986
  0
VIEWPORT
  5
144
330
37
100
AcDbEntity
 67
     1
  8
0
100
AcDbViewport
 10
-40.28151411302075
 20
-22.09476326101795
 30
0.0
 40
61.84776967061856
 41
28.74307490334107
 68
     1
 69
     1
 12
-40.28151411302075
 22
-22.09476326101795
 13
0.0
 23
0.0
 14
10.0
 24
10.0
 15
0.0
 25
0.0
 16
0.0
 26
0.0
 36
1.0
 17
0.0
 27
0.0
 37
0.0
 42
50.0
 43
0.0
 44
0.0
 45
28.74307490334107
 50
0.0
 51
0.0
 72
   100
 90
    32800
  1

281
     0
 71
     1
 74
     0
110
0.0
120
0.0
130
0.0
111
1.0
121
0.0
131
0.0
112
0.0
122
1.0
132
0.0
 79
     0
146
0.0
170
     0
 61
     5
348
2DB
292
     1
282
     1
141
0.0
142
0.0
 63
   250
421
  3355443
  0
ENDSEC
  0
SECTION
  2
OBJECTS
  0
DICTIONARY
  5
146
330
0
100
AcDbDictionary
281
     1
  3
ACAD_COLOR
350
2E6
  3
ACAD_DETAILVIEWSTYLE
350
20B7
  3
ACAD_GROUP
350
147
  3
ACAD_LAYOUT
350
14A
  3
ACAD_MATERIAL
350
2D1
  3
ACAD_MLEADERSTYLE
350
206F
  3
ACAD_MLINESTYLE
350
148
  3
ACAD_PLOTSETTINGS
350
14B
  3
ACAD_PLOTSTYLENAME
350
149
  3
ACAD_SCALELIST
350
2043
  3
ACAD_SECTIONVIEWSTYLE
350
20B8
  3
ACAD_TABLESTYLE
350
2E7
  3
ACAD_VISUALSTYLE
350
2D5
  3
ACDB_RECOMPOSE_DATA
350
20AA
  3
AcDbVariableDictionary
350
2EB
  3
AcDsDecomposeData
350
20AB
  3
ASE_INDEX_DICTIONARY
350
1EC6
  3
BNS_VARIABLES
350
1ED7
  0
DICTIONARY
  5
929
330
2B
100
AcDbDictionary
280
     1
281
     1
  3
ACAD_LAYERFILTERS
360
1ED6
  3
ACAD_LAYERSTATES
360
E75
  3
ACLYDICTIONARY
360
1ED5
  0
DICTIONARY
  5
802
330
36
100
AcDbDictionary
280
     1
281
     1
  3
ACAD_SORTENTS
360
803
  0
DICTIONARY
  5
1DDC
330
1DCE
100
AcDbDictionary
280
     1
281
     1
  3
ACAD_SORTENTS
360
1DDD
  0
DICTIONARY
  5
2E6
102
{ACAD_REACTORS
330
146
102
}
330
146
100
AcDbDictionary
281
     1
  0
DICTIONARY
  5
20B7
102
{ACAD_REACTORS
330
146
102
}
330
146
100
AcDbDictionary
281
     1
  0
DICTIONARY
  5
147
102
{ACAD_REACTORS
330
146
102
}
330
146
100
AcDbDictionary
281
     1
  0
DICTIONARY
  5
14A
102
{ACAD_REACTORS
330
146
102
}
330
146
100
AcDbDictionary
281
     1
  3
Layout1
350
14F
  3
Model
350
14E
  0
DICTIONARY
  5
2D1
102
{ACAD_REACTORS
330
146
102
}
330
146
100
AcDbDictionary
281
     1
  3
ByBlock
350
2D3
  3
ByLayer
350
2D2
  3
Global
350
2D4
  0
DICTIONARY
  5
206F
102
{ACAD_REACTORS
330
146
102
}
330
146
100
AcDbDictionary
281
     1
  3
Standard
350
2070
  0
DICTIONARY
  5
148
102
{ACAD_REACTORS
330
146
102
}
330
146
100
AcDbDictionary
281
     1
  3
STANDARD
350
14C
  0
DICTIONARY
  5
14B
102
{ACAD_REACTORS
330
146
102
}
330
146
100
AcDbDictionary
281
     1
  0
ACDBDICTIONARYWDFLT
  5
149
102
{ACAD_REACTORS
330
146
102
}
330
146
100
AcDbDictionary
281
     1
  3
Normal
350
14D
100
AcDbDictionaryWithDefault
340
14D
  0
DICTIONARY
  5
2043
102
{ACAD_REACTORS
330
146
102
}
330
146
100
AcDbDictionary
281
     1
  3
A0
350
2044
  3
A1
350
2045
  3
A2
350
2046
  3
A3
350
2047
  3
A4
350
2048
  3
A5
350
2049
  3
A6
350
204A
  3
A7
350
204B
  3
A8
350
204C
  3
A9
350
204D
  3
B0
350
204E
  3
B1
350
204F
  3
B2
350
2050
  3
B3
350
2051
  3
B4
350
2052
  3
B5
350
2053
  3
B6
350
2054
  3
B7
350
2055
  3
B8
350
2056
  3
B9
350
2057
  3
C0
350
2058
  3
C1
350
2059
  3
C2
350
205A
  3
C3
350
205B
  3
C4
350
205C
  3
C5
350
205D
  3
C6
350
205E
  3
C7
350
205F
  3
C8
350
2060
  3
C9
350
2061
  3
D0
350
2062
  3
D1
350
2063
  3
D2
350
2064
  0
DICTIONARY
  5
20B8
102
{ACAD_REACTORS
330
146
102
}
330
146
100
AcDbDictionary
281
     1
  0
DICTIONARY
  5
2E7
102
{ACAD_REACTORS
330
146
102
}
330
146
100
AcDbDictionary
281
     1
  3
Standard
350
2E8
  0
DICTIONARY
  5
2D5
102
{ACAD_REACTORS
330
146
102
}
330
146
100
AcDbDictionary
281
     1
  3
2dWireframe
350
2DB
  3
3D Hidden
350
2DD
  3
3dWireframe
350
2DC
  3
Basic
350
2DA
  3
Brighten
350
2E1
  3
ColorChange
350
2E5
  3
Conceptual
350
2DE
  3
Dim
350
2E0
  3
EdgeColorOff
350
2069
  3
Facepattern
350
2E4
  3
Flat
350
2D6
  3
FlatWithEdges
350
2D7
  3
Gouraud
350
2D8
  3
GouraudWithEdges
350
2D9
  3
Hidden
350
2066
  3
JitterOff
350
2067
  3
Linepattern
350
2E3
  3
OverhangOff
350
2068
  3
Realistic
350
2DF
  3
Shaded
350
206E
  3
Shaded with edges
350
206D
  3
Shades of Gray
350
206A
  3
Sketchy
350
206B
  3
Thicken
350
2E2
  3
Wireframe
350
2065
  3
X-Ray
350
206C
  0
XRECORD
  5
20AA
102
{ACAD_REACTORS
330
146
102
}
330
146
100
AcDbXrecord
280
     1
 90
        1
330
2E8
  0
DICTIONARY
  5
2EB
102
{ACAD_REACTORS
330
146
102
}
330
146
100
AcDbDictionary
281
     1
  3
CANNOSCALE
350
2071
  3
CMLEADERSTYLE
350
20B4
  3
CTABLESTYLE
350
2EC
  3
MSLTSCALE
350
20B5
  3
XCLIPFRAME
350
20B6
  0
DICTIONARY
  5
20AB
102
{ACAD_REACTORS
330
146
102
}
330
146
100
AcDbDictionary
281
     1
  3
AcDsRecords
350
20AC
  3
AcDsSchemas
350
20AD
1001
ACAD
1070
     2
  0
DICTIONARY
  5
1EC6
102
{ACAD_REACTORS
330
146
102
}
330
146
100
AcDbDictionary
281
     1
  3
ASEBlockHierarchyIndexRecord
350
1EC8
1001
DCO15
1040
1699430472.893
  0
DICTIONARY
  5
1ED7
102
{ACAD_REACTORS
330
146
102
}
330
146
100
AcDbDictionary
281
     1
  3
ACET-OVERKILL-FUZZ
350
1ED8
  3
ACET-OVERKILL-NO-ENDTOEND
350
1EDB
  3
ACET-OVERKILL-NO-PARTIAL
350
1EDA
  3
ACET-OVERKILL-NO-PLINES
350
1ED9
  0
DICTIONARY
  5
1ED6
102
{ACAD_REACTORS
330
929
102
}
330
929
100
AcDbDictionary
281
     1
  0
DICTIONARY
  5
E75
102
{ACAD_REACTORS
330
929
102
}
330
929
100
AcDbDictionary
281
     1
  0
DICTIONARY
  5
1ED5
102
{ACAD_REACTORS
330
929
102
}
330
929
100
AcDbDictionary
281
     1
1001
ACAD
1000
<All
  0
SORTENTSTABLE
  5
803
102
{ACAD_REACTORS
330
802
102
}
330
802
100
AcDbSortentsTable
330
36
  0
SORTENTSTABLE
  5
1DDD
102
{ACAD_REACTORS
330
1DDC
102
}
330
1DDC
100
AcDbSortentsTable
330
1DCE
  0
LAYOUT
  5
14F
102
{ACAD_REACTORS
330
14A
102
}
102
{ACAD_XDICTIONARY
360
2072
102
}
330
14A
100
AcDbPlotSettings
  1

  2
DWF Classic.pc3
  4
ISO_expand_A0_(841.00_x_1189.00_MM)
  6

 40
5.793749809265137
 41
10.79374980926513
 42
5.79376220703125
 43
10.793701171875
 44
841.0
 45
1189.0
 46
0.0
 47
0.0
 48
0.0
 49
0.0
140
0.0
141
0.0
142
1.0
143
0.0077593469736569
 70
   752
 72
     1
 73
     1
 74
     1
  7
acad.stb
 75
     0
 76
     0
 77
     2
 78
   300
147
128.876824737316
148
-0.9591261408634396
149
-0.8040498741763357
100
AcDbLayout
  1
Layout1
 70
     0
 71
     1
 10
0.0
 20
0.0
 11
12.0
 21
9.0
 12
0.0
 22
0.0
 32
0.0
 14
1.000000000000000E+20
 24
1.000000000000000E+20
 34
1.000000000000000E+20
 15
-1.000000000000000E+20
 25
-1.000000000000000E+20
 35
-1.000000000000000E+20
146
0.0
 13
0.0
 23
0.0
 33
0.0
 16
1.0
 26
0.0
 36
0.0
 17
0.0
 27
1.0
 37
0.0
 76
     0
330
37
331
144
  0
LAYOUT
  5
14E
102
{ACAD_REACTORS
330
14A
102
}
330
14A
100
AcDbPlotSettings
  1

  2
Dave JPG.pc3
  4
Sun_Hi-Res_(1600.00_x_1280.00_Pixels)
  6

 40
0.0
 41
0.0
 42
1.0
 43
1.0
 44
1600.0
 45
1280.0
 46
0.0
 47
78.66908194518737
 48
8632633.661711574
 49
4514301.310386837
140
8632684.971810982
141
4514374.456183826
142
1.0
143
0.0457447135635769
 70
 11956
 72
     2
 73
     1
 74
     4
  7
acad.stb
 75
     0
 76
     0
 77
     2
 78
   300
147
21.86044948363664
148
-8632633.661711574
149
-4514301.310386837
100
AcDbLayout
  1
Model
 70
     1
 71
     0
 10
0.0
 20
0.0
 11
12.0
 21
9.0
 12
0.0
 22
0.0
 32
0.0
 14
0.0
 24
0.0
 34
0.0
 15
0.0
 25
0.0
 35
0.0
146
0.0
 13
0.0
 23
0.0
 33
0.0
 16
1.0
 26
0.0
 36
0.0
 17
0.0
 27
1.0
 37
0.0
 76
     0
330
36
331
2CF
1001
ACAD_PSEXT
1000
Dave JPG.pc3
1000
Independent JPEG Group JFIF (JPEG Compression)
1000
File
1000

1070
     0
  0
MATERIAL
  5
2D3
102
{ACAD_REACTORS
330
2D1
102
}
330
2D1
100
AcDbMaterial
  1
ByBlock
 72
     1
 94
       63
  0
MATERIAL
  5
2D2
102
{ACAD_REACTORS
330
2D1
102
}
330
2D1
100
AcDbMaterial
  1
ByLayer
 72
     1
 94
       63
  0
MATERIAL
  5
2D4
102
{ACAD_REACTORS
330
2D1
102
}
330
2D1
100
AcDbMaterial
  1
Global
 72
     1
 94
       63
  0
MLEADERSTYLE
  5
2070
102
{ACAD_REACTORS
330
206F
102
}
330
206F
100
AcDbMLeaderStyle
179
     2
170
     2
171
     1
172
     0
 90
        2
 40
0.0
 41
0.0
173
     1
 91
-1056964608
340
23
 92
       -2
290
     1
 42
0.09
291
     1
 43
0.36
  3
Standard
341
0
 44
0.18
300

342
2E
174
     1
178
     6
175
     1
176
     0
 93
-1056964608
 45
0.18
292
     0
297
     0
 46
0.18
343
0
 94
-1056964608
 47
1.0
 49
1.0
140
1.0
293
     1
141
0.0
294
     1
177
     0
142
1.0
295
     0
296
     0
143
0.125
271
     0
272
     9
273
     9
  0
MLINESTYLE
  5
14C
102
{ACAD_REACTORS
330
148
102
}
330
148
100
AcDbMlineStyle
  2
STANDARD
 70
     0
  3

 62
   256
 51
90.0
 52
90.0
 71
     2
 49
0.5
 62
   256
  6
BYLAYER
 49
-0.5
 62
   256
  6
BYLAYER
  0
ACDBPLACEHOLDER
  5
14D
102
{ACAD_REACTORS
330
149
102
}
330
149
  0
SCALE
  5
2044
102
{ACAD_REACTORS
330
2043
102
}
330
2043
100
AcDbScale
 70
     0
300
1:1
140
1.0
141
1.0
290
     1
  0
SCALE
  5
2045
102
{ACAD_REACTORS
330
2043
102
}
330
2043
100
AcDbScale
 70
     0
300
1:2
140
1.0
141
2.0
290
     0
  0
SCALE
  5
2046
102
{ACAD_REACTORS
330
2043
102
}
330
2043
100
AcDbScale
 70
     0
300
1:4
140
1.0
141
4.0
290
     0
  0
SCALE
  5
2047
102
{ACAD_REACTORS
330
2043
102
}
330
2043
100
AcDbScale
 70
     0
300
1:5
140
1.0
141
5.0
290
     0
  0
SCALE
  5
2048
102
{ACAD_REACTORS
330
2043
102
}
330
2043
100
AcDbScale
 70
     0
300
1:8
140
1.0
141
8.0
290
     0
  0
SCALE
  5
2049
102
{ACAD_REACTORS
330
2043
102
}
330
2043
100
AcDbScale
 70
     0
300
1:10
140
1.0
141
10.0
290
     0
  0
SCALE
  5
204A
102
{ACAD_REACTORS
330
2043
102
}
330
2043
100
AcDbScale
 70
     0
300
1:16
140
1.0
141
16.0
290
     0
  0
SCALE
  5
204B
102
{ACAD_REACTORS
330
2043
102
}
330
2043
100
AcDbScale
 70
     0
300
1:20
140
1.0
141
20.0
290
     0
  0
SCALE
  5
204C
102
{ACAD_REACTORS
330
2043
102
}
330
2043
100
AcDbScale
 70
     0
300
1:30
140
1.0
141
30.0
290
     0
  0
SCALE
  5
204D
102
{ACAD_REACTORS
330
2043
102
}
330
2043
100
AcDbScale
 70
     0
300
1:40
140
1.0
141
40.0
290
     0
  0
SCALE
  5
204E
102
{ACAD_REACTORS
330
2043
102
}
330
2043
100
AcDbScale
 70
     0
300
1:50
140
1.0
141
50.0
290
     0
  0
SCALE
  5
204F
102
{ACAD_REACTORS
330
2043
102
}
330
2043
100
AcDbScale
 70
     0
300
1:100
140
1.0
141
100.0
290
     0
  0
SCALE
  5
2050
102
{ACAD_REACTORS
330
2043
102
}
330
2043
100
AcDbScale
 70
     0
300
2:1
140
2.0
141
1.0
290
     0
  0
SCALE
  5
2051
102
{ACAD_REACTORS
330
2043
102
}
330
2043
100
AcDbScale
 70
     0
300
4:1
140
4.0
141
1.0
290
     0
  0
SCALE
  5
2052
102
{ACAD_REACTORS
330
2043
102
}
330
2043
100
AcDbScale
 70
     0
300
8:1
140
8.0
141
1.0
290
     0
  0
SCALE
  5
2053
102
{ACAD_REACTORS
330
2043
102
}
330
2043
100
AcDbScale
 70
     0
300
10:1
140
10.0
141
1.0
290
     0
  0
SCALE
  5
2054
102
{ACAD_REACTORS
330
2043
102
}
330
2043
100
AcDbScale
 70
     0
300
100:1
140
100.0
141
1.0
290
     0
  0
SCALE
  5
2055
102
{ACAD_REACTORS
330
2043
102
}
330
2043
100
AcDbScale
 70
     0
300
1/128" = 1'-0"
140
0.0078125
141
12.0
290
     0
  0
SCALE
  5
2056
102
{ACAD_REACTORS
330
2043
102
}
330
2043
100
AcDbScale
 70
     0
300
1/64" = 1'-0"
140
0.015625
141
12.0
290
     0
  0
SCALE
  5
2057
102
{ACAD_REACTORS
330
2043
102
}
330
2043
100
AcDbScale
 70
     0
300
1/32" = 1'-0"
140
0.03125
141
12.0
290
     0
  0
SCALE
  5
2058
102
{ACAD_REACTORS
330
2043
102
}
330
2043
100
AcDbScale
 70
     0
300
1/16" = 1'-0"
140
0.0625
141
12.0
290
     0
  0
SCALE
  5
2059
102
{ACAD_REACTORS
330
2043
102
}
330
2043
100
AcDbScale
 70
     0
300
3/32" = 1'-0"
140
0.09375
141
12.0
290
     0
  0
SCALE
  5
205A
102
{ACAD_REACTORS
330
2043
102
}
330
2043
100
AcDbScale
 70
     0
300
1/8" = 1'-0"
140
0.125
141
12.0
290
     0
  0
SCALE
  5
205B
102
{ACAD_REACTORS
330
2043
102
}
330
2043
100
AcDbScale
 70
     0
300
3/16" = 1'-0"
140
0.1875
141
12.0
290
     0
  0
SCALE
  5
205C
102
{ACAD_REACTORS
330
2043
102
}
330
2043
100
AcDbScale
 70
     0
300
1/4" = 1'-0"
140
0.25
141
12.0
290
     0
  0
SCALE
  5
205D
102
{ACAD_REACTORS
330
2043
102
}
330
2043
100
AcDbScale
 70
     0
300
3/8" = 1'-0"
140
0.375
141
12.0
290
     0
  0
SCALE
  5
205E
102
{ACAD_REACTORS
330
2043
102
}
330
2043
100
AcDbScale
 70
     0
300
1/2" = 1'-0"
140
0.5
141
12.0
290
     0
  0
SCALE
  5
205F
102
{ACAD_REACTORS
330
2043
102
}
330
2043
100
AcDbScale
 70
     0
300
3/4" = 1'-0"
140
0.75
141
12.0
290
     0
  0
SCALE
  5
2060
102
{ACAD_REACTORS
330
2043
102
}
330
2043
100
AcDbScale
 70
     0
300
1" = 1'-0"
140
1.0
141
12.0
290
     0
  0
SCALE
  5
2061
102
{ACAD_REACTORS
330
2043
102
}
330
2043
100
AcDbScale
 70
     0
300
1-1/2" = 1'-0"
140
1.5
141
12.0
290
     0
  0
SCALE
  5
2062
102
{ACAD_REACTORS
330
2043
102
}
330
2043
100
AcDbScale
 70
     0
300
3" = 1'-0"
140
3.0
141
12.0
290
     0
  0
SCALE
  5
2063
102
{ACAD_REACTORS
330
2043
102
}
330
2043
100
AcDbScale
 70
     0
300
6" = 1'-0"
140
6.0
141
12.0
290
     0
  0
SCALE
  5
2064
102
{ACAD_REACTORS
330
2043
102
}
330
2043
100
AcDbScale
 70
     0
300
1'-0" = 1'-0"
140
12.0
141
12.0
290
     0
  0
TABLESTYLE
  5
2E8
102
{ACAD_REACTORS
330
2E7
102
}
102
{ACAD_XDICTIONARY
360
2074
102
}
330
2E7
100
AcDbTableStyle
  3
Standard
 70
     0
 71
     0
 40
0.06
 41
0.06
280
     0
281
     0
  7
CourierNew
140
0.18
170
     2
 62
     0
 63
   257
283
     0
 90
      512
 91
        0
  1

274
    -2
284
     1
 64
     0
275
    -2
285
     1
 65
     0
276
    -2
286
     1
 66
     0
277
    -2
287
     1
 67
     0
278
    -2
288
     1
 68
     0
279
    -2
289
     1
 69
     0
  7
CourierNew
140
0.25
170
     5
 62
     0
 63
   257
283
     0
 90
      512
 91
        0
  1

274
    -2
284
     1
 64
     0
275
    -2
285
     1
 65
     0
276
    -2
286
     1
 66
     0
277
    -2
287
     1
 67
     0
278
    -2
288
     1
 68
     0
279
    -2
289
     1
 69
     0
  7
CourierNew
140
0.18
170
     5
 62
     0
 63
   257
283
     0
 90
      512
 91
        0
  1

274
    -2
284
     1
 64
     0
275
    -2
285
     1
 65
     0
276
    -2
286
     1
 66
     0
277
    -2
287
     1
 67
     0
278
    -2
288
     1
 68
     0
279
    -2
289
     1
 69
     0
  0
VISUALSTYLE
  5
2DB
102
{ACAD_REACTORS
330
2D5
102
}
102
{ACAD_XDICTIONARY
360
2076
102
}
330
2D5
100
AcDbVisualStyle
  2
2dWireframe
 70
     4
177
     2
291
     0
 71
     0
176
     1
 72
     2
176
     1
 73
     0
176
     1
 90
        0
176
     1
 40
-0.6
176
     1
 41
-30.0
176
     1
 62
     5
 63
     7
421
 16777215
176
     1
 74
     1
176
     1
 91
        4
176
     1
 64
     7
176
     1
 65
   257
176
     1
 75
     1
176
     1
175
     1
176
     1
 42
1.0
176
     1
 92
        0
176
     1
 66
   257
176
     1
 43
1.0
176
     1
 76
     1
176
     1
 77
     6
176
     1
 78
     2
176
     1
 67
     7
176
     1
 79
     5
176
     1
170
     0
176
     1
171
     0
176
     1
290
     0
176
     1
 93
        1
176
     1
 44
0.0
176
     1
173
     0
176
     1
  0
VISUALSTYLE
  5
2DD
102
{ACAD_REACTORS
330
2D5
102
}
102
{ACAD_XDICTIONARY
360
2078
102
}
330
2D5
100
AcDbVisualStyle
  2
3D Hidden
 70
     6
177
     2
291
     0
 71
     1
176
     1
 72
     2
176
     1
 73
     2
176
     1
 90
        0
176
     1
 40
-0.6
176
     1
 41
-30.0
176
     1
 62
     5
 63
     7
421
 16777215
176
     1
 74
     2
176
     1
 91
        2
176
     1
 64
     7
176
     1
 65
   257
176
     1
 75
     2
176
     1
175
     1
176
     1
 42
40.0
176
     1
 92
        0
176
     1
 66
   257
176
     1
 43
1.0
176
     1
 76
     1
176
     1
 77
     6
176
     1
 78
     2
176
     1
 67
     7
176
     1
 79
     3
176
     1
170
     0
176
     1
171
     0
176
     1
290
     0
176
     1
 93
        1
176
     1
 44
0.0
176
     1
173
     0
176
     1
  0
VISUALSTYLE
  5
2DC
102
{ACAD_REACTORS
330
2D5
102
}
102
{ACAD_XDICTIONARY
360
207A
102
}
330
2D5
100
AcDbVisualStyle
  2
3dWireframe
 70
     5
177
     2
291
     0
 71
     0
176
     1
 72
     2
176
     1
 73
     0
176
     1
 90
        0
176
     1
 40
-0.6
176
     1
 41
-30.0
176
     1
 62
     5
 63
     7
421
 16777215
176
     1
 74
     1
176
     1
 91
        4
176
     1
 64
     7
176
     1
 65
   257
176
     1
 75
     1
176
     1
175
     1
176
     1
 42
1.0
176
     1
 92
        0
176
     1
 66
   257
176
     1
 43
1.0
176
     1
 76
     1
176
     1
 77
     6
176
     1
 78
     2
176
     1
 67
     7
176
     1
 79
     5
176
     1
170
     0
176
     1
171
     0
176
     1
290
     0
176
     1
 93
        1
176
     1
 44
0.0
176
     1
173
     0
176
     1
  0
VISUALSTYLE
  5
2DA
102
{ACAD_REACTORS
330
2D5
102
}
102
{ACAD_XDICTIONARY
360
207C
102
}
330
2D5
100
AcDbVisualStyle
  2
Basic
 70
     7
177
     2
291
     1
 71
     1
176
     1
 72
     0
176
     1
 73
     1
176
     1
 90
        0
176
     1
 40
-0.6
176
     1
 41
-30.0
176
     1
 62
     5
 63
     7
421
 16777215
176
     1
 74
     0
176
     1
 91
        4
176
     1
 64
     7
176
     1
 65
   257
176
     1
 75
     1
176
     1
175
     1
176
     1
 42
1.0
176
     1
 92
        8
176
     1
 66
     7
176
     1
 43
1.0
176
     1
 76
     1
176
     1
 77
     6
176
     1
 78
     2
176
     1
 67
     7
176
     1
 79
     5
176
     1
170
     0
176
     1
171
     0
176
     1
290
     0
176
     1
 93
        1
176
     1
 44
0.0
176
     1
173
     0
176
     1
  0
VISUALSTYLE
  5
2E1
102
{ACAD_REACTORS
330
2D5
102
}
102
{ACAD_XDICTIONARY
360
207E
102
}
330
2D5
100
AcDbVisualStyle
  2
Brighten
 70
    12
177
     2
291
     1
 71
     2
176
     1
 72
     2
176
     1
 73
     0
176
     1
 90
        0
176
     1
 40
-0.6
176
     1
 41
-30.0
176
     1
 62
     5
 63
     7
421
 16777215
176
     1
 74
     1
176
     1
 91
        4
176
     1
 64
     7
176
     1
 65
   257
176
     1
 75
     1
176
     1
175
     1
176
     1
 42
1.0
176
     1
 92
        8
176
     1
 66
     7
176
     1
 43
1.0
176
     1
 76
     1
176
     1
 77
     6
176
     1
 78
     2
176
     1
 67
     7
176
     1
 79
     5
176
     1
170
     0
176
     1
171
     0
176
     1
290
     0
176
     1
 93
        1
176
     1
 44
50.0
176
     1
173
     0
176
     1
  0
VISUALSTYLE
  5
2E5
102
{ACAD_REACTORS
330
2D5
102
}
102
{ACAD_XDICTIONARY
360
2080
102
}
330
2D5
100
AcDbVisualStyle
  2
ColorChange
 70
    16
177
     2
291
     1
 71
     2
176
     1
 72
     2
176
     1
 73
     3
176
     1
 90
        0
176
     1
 40
-0.6
176
     1
 41
-30.0
176
     1
 62
     5
 63
     8
421
  8421504
176
     1
 74
     1
176
     1
 91
        4
176
     1
 64
     7
176
     1
 65
   257
176
     1
 75
     1
176
     1
175
     1
176
     1
 42
1.0
176
     1
 92
        8
176
     1
 66
     8
424
  8421504
176
     1
 43
1.0
176
     1
 76
     1
176
     1
 77
     6
176
     1
 78
     2
176
     1
 67
     7
176
     1
 79
     5
176
     1
170
     0
176
     1
171
     0
176
     1
290
     0
176
     1
 93
        1
176
     1
 44
0.0
176
     1
173
     0
176
     1
  0
VISUALSTYLE
  5
2DE
102
{ACAD_REACTORS
330
2D5
102
}
102
{ACAD_XDICTIONARY
360
2082
102
}
330
2D5
100
AcDbVisualStyle
  2
Conceptual
 70
     9
177
     2
291
     0
 71
     3
176
     1
 72
     2
176
     1
 73
     0
176
     1
 90
        0
176
     1
 40
-0.6
176
     1
 41
-30.0
176
     1
 62
     5
 63
     7
421
 16777215
176
     1
 74
     2
176
     1
 91
        2
176
     1
 64
     7
176
     1
 65
   257
176
     1
 75
     1
176
     1
175
     1
176
     1
 42
40.0
176
     1
 92
        8
176
     1
 66
     7
176
     1
 43
1.0
176
     1
 76
     1
176
     1
 77
     6
176
     1
 78
     2
176
     1
 67
     7
176
     1
 79
     3
176
     1
170
     0
176
     1
171
     0
176
     1
290
     0
176
     1
 93
        1
176
     1
 44
0.0
176
     1
173
     0
176
     1
  0
VISUALSTYLE
  5
2E0
102
{ACAD_REACTORS
330
2D5
102
}
102
{ACAD_XDICTIONARY
360
2084
102
}
330
2D5
100
AcDbVisualStyle
  2
Dim
 70
    11
177
     2
291
     1
 71
     2
176
     1
 72
     2
176
     1
 73
     0
176
     1
 90
        0
176
     1
 40
-0.6
176
     1
 41
-30.0
176
     1
 62
     5
 63
     7
421
 16777215
176
     1
 74
     1
176
     1
 91
        4
176
     1
 64
     7
176
     1
 65
   257
176
     1
 75
     1
176
     1
175
     1
176
     1
 42
1.0
176
     1
 92
        8
176
     1
 66
     7
176
     1
 43
1.0
176
     1
 76
     1
176
     1
 77
     6
176
     1
 78
     2
176
     1
 67
     7
176
     1
 79
     5
176
     1
170
     0
176
     1
171
     0
176
     1
290
     0
176
     1
 93
        1
176
     1
 44
-50.0
176
     1
173
     0
176
     1
  0
VISUALSTYLE
  5
2069
102
{ACAD_REACTORS
330
2D5
102
}
102
{ACAD_XDICTIONARY
360
209E
102
}
330
2D5
100
AcDbVisualStyle
  2
EdgeColorOff
 70
    22
177
     2
291
     1
 71
     2
176
     0
 72
     2
176
     0
 73
     0
176
     0
 90
        0
176
     0
 40
0.6
176
     0
 41
30.0
176
     0
 62
     5
 63
     7
421
 16777215
176
     0
 74
     1
176
     0
 91
        4
176
     0
 64
     7
176
     0
 65
   257
176
     0
 75
     1
176
     0
175
     1
176
     0
 42
1.0
176
     0
 92
        8
176
     2
 66
     7
176
     0
 43
1.0
176
     0
 76
     1
176
     0
 77
     6
176
     0
 78
     2
176
     0
 67
     7
176
     0
 79
     5
176
     0
170
     0
176
     0
171
     0
176
     0
290
     0
176
     0
 93
        1
176
     0
 44
0.0
176
     0
173
     0
176
     0
  0
VISUALSTYLE
  5
2E4
102
{ACAD_REACTORS
330
2D5
102
}
102
{ACAD_XDICTIONARY
360
2086
102
}
330
2D5
100
AcDbVisualStyle
  2
Facepattern
 70
    15
177
     2
291
     1
 71
     2
176
     1
 72
     2
176
     1
 73
     0
176
     1
 90
        0
176
     1
 40
-0.6
176
     1
 41
-30.0
176
     1
 62
     5
 63
     7
421
 16777215
176
     1
 74
     1
176
     1
 91
        4
176
     1
 64
     7
176
     1
 65
   257
176
     1
 75
     1
176
     1
175
     1
176
     1
 42
1.0
176
     1
 92
        8
176
     1
 66
     7
176
     1
 43
1.0
176
     1
 76
     1
176
     1
 77
     6
176
     1
 78
     2
176
     1
 67
     7
176
     1
 79
     5
176
     1
170
     0
176
     1
171
     0
176
     1
290
     0
176
     1
 93
        1
176
     1
 44
0.0
176
     1
173
     0
176
     1
  0
VISUALSTYLE
  5
2D6
102
{ACAD_REACTORS
330
2D5
102
}
102
{ACAD_XDICTIONARY
360
2088
102
}
330
2D5
100
AcDbVisualStyle
  2
Flat
 70
     0
177
     2
291
     1
 71
     2
176
     1
 72
     1
176
     1
 73
     1
176
     1
 90
        2
176
     1
 40
-0.6
176
     1
 41
30.0
176
     1
 62
     5
 63
     7
421
 16777215
176
     1
 74
     0
176
     1
 91
        4
176
     1
 64
     7
176
     1
 65
   257
176
     1
 75
     1
176
     1
175
     1
176
     1
 42
1.0
176
     1
 92
        8
176
     1
 66
     7
176
     1
 43
1.0
176
     1
 76
     1
176
     1
 77
     6
176
     1
 78
     2
176
     1
 67
     7
176
     1
 79
     5
176
     1
170
     0
176
     1
171
     0
176
     1
290
     0
176
     1
 93
       13
176
     1
 44
0.0
176
     1
173
     0
176
     1
  0
VISUALSTYLE
  5
2D7
102
{ACAD_REACTORS
330
2D5
102
}
102
{ACAD_XDICTIONARY
360
208A
102
}
330
2D5
100
AcDbVisualStyle
  2
FlatWithEdges
 70
     1
177
     2
291
     1
 71
     2
176
     1
 72
     1
176
     1
 73
     1
176
     1
 90
        2
176
     1
 40
-0.6
176
     1
 41
30.0
176
     1
 62
     5
 63
     7
421
 16777215
176
     1
 74
     1
176
     1
 91
        4
176
     1
 64
     7
176
     1
 65
   257
176
     1
 75
     1
176
     1
175
     1
176
     1
 42
1.0
176
     1
 92
        0
176
     1
 66
   257
176
     1
 43
1.0
176
     1
 76
     1
176
     1
 77
     6
176
     1
 78
     2
176
     1
 67
     7
176
     1
 79
     5
176
     1
170
     0
176
     1
171
     0
176
     1
290
     0
176
     1
 93
       13
176
     1
 44
0.0
176
     1
173
     0
176
     1
  0
VISUALSTYLE
  5
2D8
102
{ACAD_REACTORS
330
2D5
102
}
102
{ACAD_XDICTIONARY
360
208C
102
}
330
2D5
100
AcDbVisualStyle
  2
Gouraud
 70
     2
177
     2
291
     1
 71
     2
176
     1
 72
     2
176
     1
 73
     1
176
     1
 90
        2
176
     1
 40
-0.6
176
     1
 41
30.0
176
     1
 62
     5
 63
     7
421
 16777215
176
     1
 74
     0
176
     1
 91
        4
176
     1
 64
     7
176
     1
 65
   257
176
     1
 75
     1
176
     1
175
     1
176
     1
 42
1.0
176
     1
 92
        0
176
     1
 66
     7
176
     1
 43
1.0
176
     1
 76
     1
176
     1
 77
     6
176
     1
 78
     2
176
     1
 67
     7
176
     1
 79
     5
176
     1
170
     0
176
     1
171
     0
176
     1
290
     0
176
     1
 93
       13
176
     1
 44
0.0
176
     1
173
     0
176
     1
  0
VISUALSTYLE
  5
2D9
102
{ACAD_REACTORS
330
2D5
102
}
102
{ACAD_XDICTIONARY
360
208E
102
}
330
2D5
100
AcDbVisualStyle
  2
GouraudWithEdges
 70
     3
177
     2
291
     1
 71
     2
176
     1
 72
     2
176
     1
 73
     1
176
     1
 90
        2
176
     1
 40
-0.6
176
     1
 41
30.0
176
     1
 62
     5
 63
     7
421
 16777215
176
     1
 74
     1
176
     1
 91
        4
176
     1
 64
     7
176
     1
 65
   257
176
     1
 75
     1
176
     1
175
     1
176
     1
 42
1.0
176
     1
 92
        0
176
     1
 66
   257
176
     1
 43
1.0
176
     1
 76
     1
176
     1
 77
     6
176
     1
 78
     2
176
     1
 67
     7
176
     1
 79
     5
176
     1
170
     0
176
     1
171
     0
176
     1
290
     0
176
     1
 93
       13
176
     1
 44
0.0
176
     1
173
     0
176
     1
  0
VISUALSTYLE
  5
2066
102
{ACAD_REACTORS
330
2D5
102
}
102
{ACAD_XDICTIONARY
360
2098
102
}
330
2D5
100
AcDbVisualStyle
  2
Hidden
 70
     6
177
     2
291
     0
 71
     1
176
     1
 72
     2
176
     1
 73
     2
176
     1
 90
        0
176
     1
 40
0.6
176
     1
 41
30.0
176
     1
 62
     5
 63
     7
421
 16777215
176
     1
 74
     2
176
     1
 91
        2
176
     1
 64
     7
176
     1
 65
   257
176
     1
 75
     2
176
     1
175
     1
176
     1
 42
40.0
176
     1
 92
        0
176
     1
 66
   257
176
     1
 43
1.0
176
     1
 76
     1
176
     1
 77
     6
176
     1
 78
     2
176
     1
 67
     7
176
     1
 79
     3
176
     1
170
     0
176
     1
171
     0
176
     1
290
     0
176
     1
 93
        1
176
     1
 44
0.0
176
     1
173
     0
176
     1
  0
VISUALSTYLE
  5
2067
102
{ACAD_REACTORS
330
2D5
102
}
102
{ACAD_XDICTIONARY
360
209A
102
}
330
2D5
100
AcDbVisualStyle
  2
JitterOff
 70
    20
177
     2
291
     1
 71
     2
176
     0
 72
     2
176
     0
 73
     0
176
     0
 90
        0
176
     0
 40
0.6
176
     0
 41
30.0
176
     0
 62
     5
 63
     7
421
 16777215
176
     0
 74
     1
176
     0
 91
        4
176
     0
 64
     7
176
     0
 65
   257
176
     0
 75
     1
176
     0
175
     1
176
     0
 42
1.0
176
     0
 92
       10
176
     2
 66
     7
176
     0
 43
1.0
176
     0
 76
     1
176
     0
 77
     6
176
     0
 78
     2
176
     0
 67
     7
176
     0
 79
     5
176
     0
170
     0
176
     0
171
     0
176
     0
290
     0
176
     0
 93
        1
176
     0
 44
0.0
176
     0
173
     0
176
     0
  0
VISUALSTYLE
  5
2E3
102
{ACAD_REACTORS
330
2D5
102
}
102
{ACAD_XDICTIONARY
360
2090
102
}
330
2D5
100
AcDbVisualStyle
  2
Linepattern
 70
    14
177
     2
291
     1
 71
     2
176
     1
 72
     2
176
     1
 73
     0
176
     1
 90
        0
176
     1
 40
-0.6
176
     1
 41
-30.0
176
     1
 62
     5
 63
     7
421
 16777215
176
     1
 74
     1
176
     1
 91
        4
176
     1
 64
     7
176
     1
 65
   257
176
     1
 75
     7
176
     1
175
     7
176
     1
 42
1.0
176
     1
 92
        8
176
     1
 66
     7
176
     1
 43
1.0
176
     1
 76
     1
176
     1
 77
     6
176
     1
 78
     2
176
     1
 67
     7
176
     1
 79
     5
176
     1
170
     0
176
     1
171
     0
176
     1
290
     0
176
     1
 93
        1
176
     1
 44
0.0
176
     1
173
     0
176
     1
  0
VISUALSTYLE
  5
2068
102
{ACAD_REACTORS
330
2D5
102
}
102
{ACAD_XDICTIONARY
360
209C
102
}
330
2D5
100
AcDbVisualStyle
  2
OverhangOff
 70
    21
177
     2
291
     1
 71
     2
176
     0
 72
     2
176
     0
 73
     0
176
     0
 90
        0
176
     0
 40
0.6
176
     0
 41
30.0
176
     0
 62
     5
 63
     7
421
 16777215
176
     0
 74
     1
176
     0
 91
        4
176
     0
 64
     7
176
     0
 65
   257
176
     0
 75
     1
176
     0
175
     1
176
     0
 42
1.0
176
     0
 92
        9
176
     2
 66
     7
176
     0
 43
1.0
176
     0
 76
     1
176
     0
 77
     6
176
     0
 78
     2
176
     0
 67
     7
176
     0
 79
     5
176
     0
170
     0
176
     0
171
     0
176
     0
290
     0
176
     0
 93
        1
176
     0
 44
0.0
176
     0
173
     0
176
     0
  0
VISUALSTYLE
  5
2DF
102
{ACAD_REACTORS
330
2D5
102
}
102
{ACAD_XDICTIONARY
360
2092
102
}
330
2D5
100
AcDbVisualStyle
  2
Realistic
 70
     8
177
     2
291
     0
 71
     2
176
     1
 72
     2
176
     1
 73
     0
176
     1
 90
        0
176
     1
 40
-0.6
176
     1
 41
-30.0
176
     1
 62
     5
 63
     7
421
 16777215
176
     1
 74
     1
176
     1
 91
        0
176
     1
 64
     7
176
     1
 65
   257
176
     1
 75
     1
176
     1
175
     1
176
     1
 42
1.0
176
     1
 92
        8
176
     1
 66
     8
424
  7895160
176
     1
 43
1.0
176
     1
 76
     1
176
     1
 77
     6
176
     1
 78
     2
176
     1
 67
     7
176
     1
 79
     5
176
     1
170
     0
176
     1
171
     0
176
     1
290
     0
176
     1
 93
       13
176
     1
 44
0.0
176
     1
173
     0
176
     1
  0
VISUALSTYLE
  5
206E
102
{ACAD_REACTORS
330
2D5
102
}
102
{ACAD_XDICTIONARY
360
20A8
102
}
330
2D5
100
AcDbVisualStyle
  2
Shaded
 70
    27
177
     2
291
     0
 71
     2
176
     1
 72
     2
176
     1
 73
     1
176
     1
 90
        2
176
     1
 40
0.6
176
     1
 41
30.0
176
     1
 62
     5
 63
     7
421
 16777215
176
     1
 74
     0
176
     1
 91
        4
176
     1
 64
     7
176
     1
 65
   257
176
     1
 75
     1
176
     1
175
     1
176
     1
 42
1.0
176
     1
 92
        8
176
     1
 66
   257
176
     1
 43
1.0
176
     1
 76
     1
176
     1
 77
     6
176
     1
 78
     2
176
     1
 67
     8
425
  7895160
176
     1
 79
     3
176
     1
170
     0
176
     1
171
     0
176
     1
290
     0
176
     1
 93
        5
176
     1
 44
0.0
176
     1
173
     0
176
     1
  0
VISUALSTYLE
  5
206D
102
{ACAD_REACTORS
330
2D5
102
}
102
{ACAD_XDICTIONARY
360
20A6
102
}
330
2D5
100
AcDbVisualStyle
  2
Shaded with edges
 70
    26
177
     2
291
     0
 71
     2
176
     1
 72
     2
176
     1
 73
     1
176
     1
 90
        2
176
     1
 40
0.6
176
     1
 41
30.0
176
     1
 62
     5
 63
     7
421
 16777215
176
     1
 74
     1
176
     1
 91
       10
176
     1
 64
     7
176
     1
 65
   257
176
     1
 75
     2
176
     1
175
     1
176
     1
 42
1.0
176
     1
 92
        8
176
     1
 66
   257
176
     1
 43
1.0
176
     1
 76
     1
176
     1
 77
     6
176
     1
 78
     2
176
     1
 67
     7
176
     1
 79
     3
176
     1
170
     0
176
     1
171
     0
176
     1
290
     0
176
     1
 93
        5
176
     1
 44
0.0
176
     1
173
     0
176
     1
  0
VISUALSTYLE
  5
206A
102
{ACAD_REACTORS
330
2D5
102
}
102
{ACAD_XDICTIONARY
360
20A0
102
}
330
2D5
100
AcDbVisualStyle
  2
Shades of Gray
 70
    23
177
     2
291
     0
 71
     2
176
     1
 72
     2
176
     1
 73
     3
176
     1
 90
        0
176
     1
 40
0.6
176
     1
 41
30.0
176
     1
 62
     5
 63
     7
421
 16777215
176
     1
 74
     2
176
     1
 91
        2
176
     1
 64
     7
176
     1
 65
     7
176
     1
 75
     1
176
     1
175
     1
176
     1
 42
40.0
176
     1
 92
        8
176
     1
 66
     7
176
     1
 43
1.0
176
     1
 76
     1
176
     1
 77
     6
176
     1
 78
     2
176
     1
 67
     7
176
     1
 79
     3
176
     1
170
     0
176
     1
171
     0
176
     1
290
     0
176
     1
 93
        1
176
     1
 44
0.0
176
     1
173
     0
176
     1
  0
VISUALSTYLE
  5
206B
102
{ACAD_REACTORS
330
2D5
102
}
102
{ACAD_XDICTIONARY
360
20A2
102
}
330
2D5
100
AcDbVisualStyle
  2
Sketchy
 70
    24
177
     2
291
     0
 71
     1
176
     1
 72
     2
176
     1
 73
     2
176
     1
 90
        0
176
     1
 40
0.6
176
     1
 41
30.0
176
     1
 62
     5
 63
     7
421
 16777215
176
     1
 74
     2
176
     1
 91
        2
176
     1
 64
     7
176
     1
 65
     7
176
     1
 75
     1
176
     1
175
     1
176
     1
 42
40.0
176
     1
 92
       11
176
     1
 66
     7
176
     1
 43
1.0
176
     1
 76
     1
176
     1
 77
     6
176
     1
 78
     2
176
     1
 67
     7
176
     1
 79
     6
176
     1
170
     0
176
     1
171
     0
176
     1
290
     0
176
     1
 93
        1
176
     1
 44
0.0
176
     1
173
     0
176
     1
  0
VISUALSTYLE
  5
2E2
102
{ACAD_REACTORS
330
2D5
102
}
102
{ACAD_XDICTIONARY
360
2094
102
}
330
2D5
100
AcDbVisualStyle
  2
Thicken
 70
    13
177
     2
291
     1
 71
     2
176
     1
 72
     2
176
     1
 73
     0
176
     1
 90
        0
176
     1
 40
-0.6
176
     1
 41
-30.0
176
     1
 62
     5
 63
     7
421
 16777215
176
     1
 74
     1
176
     1
 91
        4
176
     1
 64
     7
176
     1
 65
   257
176
     1
 75
     1
176
     1
175
     1
176
     1
 42
1.0
176
     1
 92
       12
176
     1
 66
     7
176
     1
 43
1.0
176
     1
 76
     1
176
     1
 77
     6
176
     1
 78
     2
176
     1
 67
     7
176
     1
 79
     5
176
     1
170
     0
176
     1
171
     0
176
     1
290
     0
176
     1
 93
        1
176
     1
 44
0.0
176
     1
173
     0
176
     1
  0
VISUALSTYLE
  5
2065
102
{ACAD_REACTORS
330
2D5
102
}
102
{ACAD_XDICTIONARY
360
2096
102
}
330
2D5
100
AcDbVisualStyle
  2
Wireframe
 70
     5
177
     2
291
     0
 71
     0
176
     1
 72
     2
176
     1
 73
     0
176
     1
 90
        0
176
     1
 40
0.6
176
     1
 41
30.0
176
     1
 62
     5
 63
     7
421
 16777215
176
     1
 74
     1
176
     1
 91
        4
176
     1
 64
     7
176
     1
 65
   257
176
     1
 75
     1
176
     1
175
     1
176
     1
 42
1.0
176
     1
 92
        0
176
     1
 66
   257
176
     1
 43
1.0
176
     1
 76
     1
176
     1
 77
     6
176
     1
 78
     2
176
     1
 67
     7
176
     1
 79
     3
176
     1
170
     0
176
     1
171
     0
176
     1
290
     0
176
     1
 93
        1
176
     1
 44
0.0
176
     1
173
     0
176
     1
  0
VISUALSTYLE
  5
206C
102
{ACAD_REACTORS
330
2D5
102
}
102
{ACAD_XDICTIONARY
360
20A4
102
}
330
2D5
100
AcDbVisualStyle
  2
X-Ray
 70
    25
177
     2
291
     0
 71
     2
176
     1
 72
     2
176
     1
 73
     1
176
     1
 90
        1
176
     1
 40
0.5
176
     1
 41
30.0
176
     1
 62
     5
 63
     7
421
 16777215
176
     1
 74
     1
176
     1
 91
        0
176
     1
 64
     7
176
     1
 65
   257
176
     1
 75
     1
176
     1
175
     1
176
     1
 42
1.0
176
     1
 92
        8
176
     1
 66
     7
176
     1
 43
1.0
176
     1
 76
     1
176
     1
 77
     6
176
     1
 78
     2
176
     1
 67
     7
176
     1
 79
     3
176
     1
170
     0
176
     1
171
     0
176
     1
290
     0
176
     1
 93
       13
176
     1
 44
0.0
176
     1
173
     0
176
     1
  0
DICTIONARYVAR
  5
2071
102
{ACAD_REACTORS
330
2EB
102
}
330
2EB
100
DictionaryVariables
280
     0
  1
1:1
  0
DICTIONARYVAR
  5
20B4
102
{ACAD_REACTORS
330
2EB
102
}
330
2EB
100
DictionaryVariables
280
     0
  1
Standard
  0
DICTIONARYVAR
  5
2EC
102
{ACAD_REACTORS
330
2EB
102
}
330
2EB
100
DictionaryVariables
280
     0
  1
Standard
  0
DICTIONARYVAR
  5
20B5
102
{ACAD_REACTORS
330
2EB
102
}
330
2EB
100
DictionaryVariables
280
     0
  1
0
  0
DICTIONARYVAR
  5
20B6
102
{ACAD_REACTORS
330
2EB
102
}
330
2EB
100
DictionaryVariables
280
     0
  1
0
  0
DICTIONARY
  5
20AC
102
{ACAD_REACTORS
330
20AB
102
}
330
20AB
100
AcDbDictionary
281
     1
  0
DICTIONARY
  5
20AD
102
{ACAD_REACTORS
330
20AB
102
}
330
20AB
100
AcDbDictionary
281
     1
  3
8796086640408
350
20AE
  3
8796086640424
350
20AF
  3
8796086640440
350
20B0
  3
8796086640456
350
20B1
  3
8796086640472
350
20B2
  3
8796086640488
350
20B3
  0
XRECORD
  5
1EC8
102
{ACAD_REACTORS
330
1EC6
102
}
330
1EC6
100
AcDbXrecord
280
     1
  0
XRECORD
  5
1ED8
102
{ACAD_REACTORS
330
1ED7
102
}
330
1ED7
100
AcDbXrecord
280
     1
 40
0.000001
  0
XRECORD
  5
1EDB
102
{ACAD_REACTORS
330
1ED7
102
}
330
1ED7
100
AcDbXrecord
280
     1
 70
     0
  0
XRECORD
  5
1EDA
102
{ACAD_REACTORS
330
1ED7
102
}
330
1ED7
100
AcDbXrecord
280
     1
 70
     0
  0
XRECORD
  5
1ED9
102
{ACAD_REACTORS
330
1ED7
102
}
330
1ED7
100
AcDbXrecord
280
     1
 70
     0
  0
DICTIONARY
  5
2072
330
14F
100
AcDbDictionary
280
     1
281
     1
  3
ADSK_XREC_LAYOUTTHUMBNAIL
360
2073
  0
DICTIONARY
  5
2074
330
2E8
100
AcDbDictionary
280
     1
281
     1
  3
ACAD_ROUNDTRIP_2008_TABLESTYLE_CELLSTYLEMAP
360
2075
  0
DICTIONARY
  5
2076
330
2DB
100
AcDbDictionary
280
     1
281
     1
  3
ACAD_XREC_ROUNDTRIP
360
2077
  0
DICTIONARY
  5
2078
330
2DD
100
AcDbDictionary
280
     1
281
     1
  3
ACAD_XREC_ROUNDTRIP
360
2079
  0
DICTIONARY
  5
207A
330
2DC
100
AcDbDictionary
280
     1
281
     1
  3
ACAD_XREC_ROUNDTRIP
360
207B
  0
DICTIONARY
  5
207C
330
2DA
100
AcDbDictionary
280
     1
281
     1
  3
ACAD_XREC_ROUNDTRIP
360
207D
  0
DICTIONARY
  5
207E
330
2E1
100
AcDbDictionary
280
     1
281
     1
  3
ACAD_XREC_ROUNDTRIP
360
207F
  0
DICTIONARY
  5
2080
330
2E5
100
AcDbDictionary
280
     1
281
     1
  3
ACAD_XREC_ROUNDTRIP
360
2081
  0
DICTIONARY
  5
2082
330
2DE
100
AcDbDictionary
280
     1
281
     1
  3
ACAD_XREC_ROUNDTRIP
360
2083
  0
DICTIONARY
  5
2084
330
2E0
100
AcDbDictionary
280
     1
281
     1
  3
ACAD_XREC_ROUNDTRIP
360
2085
  0
DICTIONARY
  5
209E
330
2069
100
AcDbDictionary
280
     1
281
     1
  3
ACAD_XREC_ROUNDTRIP
360
209F
  0
DICTIONARY
  5
2086
330
2E4
100
AcDbDictionary
280
     1
281
     1
  3
ACAD_XREC_ROUNDTRIP
360
2087
  0
DICTIONARY
  5
2088
330
2D6
100
AcDbDictionary
280
     1
281
     1
  3
ACAD_XREC_ROUNDTRIP
360
2089
  0
DICTIONARY
  5
208A
330
2D7
100
AcDbDictionary
280
     1
281
     1
  3
ACAD_XREC_ROUNDTRIP
360
208B
  0
DICTIONARY
  5
208C
330
2D8
100
AcDbDictionary
280
     1
281
     1
  3
ACAD_XREC_ROUNDTRIP
360
208D
  0
DICTIONARY
  5
208E
330
2D9
100
AcDbDictionary
280
     1
281
     1
  3
ACAD_XREC_ROUNDTRIP
360
208F
  0
DICTIONARY
  5
2098
330
2066
100
AcDbDictionary
280
     1
281
     1
  3
ACAD_XREC_ROUNDTRIP
360
2099
  0
DICTIONARY
  5
209A
330
2067
100
AcDbDictionary
280
     1
281
     1
  3
ACAD_XREC_ROUNDTRIP
360
209B
  0
DICTIONARY
  5
2090
330
2E3
100
AcDbDictionary
280
     1
281
     1
  3
ACAD_XREC_ROUNDTRIP
360
2091
  0
DICTIONARY
  5
209C
330
2068
100
AcDbDictionary
280
     1
281
     1
  3
ACAD_XREC_ROUNDTRIP
360
209D
  0
DICTIONARY
  5
2092
330
2DF
100
AcDbDictionary
280
     1
281
     1
  3
ACAD_XREC_ROUNDTRIP
360
2093
  0
DICTIONARY
  5
20A8
330
206E
100
AcDbDictionary
280
     1
281
     1
  3
ACAD_XREC_ROUNDTRIP
360
20A9
  0
DICTIONARY
  5
20A6
330
206D
100
AcDbDictionary
280
     1
281
     1
  3
ACAD_XREC_ROUNDTRIP
360
20A7
  0
DICTIONARY
  5
20A0
330
206A
100
AcDbDictionary
280
     1
281
     1
  3
ACAD_XREC_ROUNDTRIP
360
20A1
  0
DICTIONARY
  5
20A2
330
206B
100
AcDbDictionary
280
     1
281
     1
  3
ACAD_XREC_ROUNDTRIP
360
20A3
  0
DICTIONARY
  5
2094
330
2E2
100
AcDbDictionary
280
     1
281
     1
  3
ACAD_XREC_ROUNDTRIP
360
2095
  0
DICTIONARY
  5
2096
330
2065
100
AcDbDictionary
280
     1
281
     1
  3
ACAD_XREC_ROUNDTRIP
360
2097
  0
DICTIONARY
  5
20A4
330
206C
100
AcDbDictionary
280
     1
281
     1
  3
ACAD_XREC_ROUNDTRIP
360
20A5
  0
XRECORD
  5
20AE
102
{ACAD_REACTORS
330
20AD
102
}
330
20AD
100
AcDbXrecord
280
     1
  1
AcDb_Thumbnail_Schema
102
{ATTRRECORD
341
20B0
  2
AcDbDs::TreatedAsObjectData
280
     1
291
     1
102
ATTRRECORD}
102
{ATTRRECORD
341
20B1
  2
AcDbDs::Legacy
280
     1
291
     1
102
ATTRRECORD}
  2
AcDbDs::ID
280
    10
 91
        8
102
{ATTRRECORD
341
20B2
  2
AcDs:Indexable
280
     1
291
     1
102
ATTRRECORD}
102
{ATTRRECORD
341
20B3
  2
AcDbDs::HandleAttribute
280
     7
282
     1
102
ATTRRECORD}
  2
Thumbnail_Data
280
    15
 91
        0
  0
XRECORD
  5
20AF
102
{ACAD_REACTORS
330
20AD
102
}
330
20AD
100
AcDbXrecord
280
     1
  1
AcDb3DSolid_ASM_Data
102
{ATTRRECORD
341
20B0
  2
AcDbDs::TreatedAsObjectData
280
     1
291
     1
102
ATTRRECORD}
102
{ATTRRECORD
341
20B1
  2
AcDbDs::Legacy
280
     1
291
     1
102
ATTRRECORD}
  2
AcDbDs::ID
280
    10
 91
        8
102
{ATTRRECORD
341
20B2
  2
AcDs:Indexable
280
     1
291
     1
102
ATTRRECORD}
102
{ATTRRECORD
341
20B3
  2
AcDbDs::HandleAttribute
280
     7
282
     1
102
ATTRRECORD}
  2
ASM_Data
280
    15
 91
        0
  0
XRECORD
  5
20B0
102
{ACAD_REACTORS
330
20AD
102
}
330
20AD
100
AcDbXrecord
280
     1
  1
AcDbDs::TreatedAsObjectDataSchema
  2
AcDbDs::TreatedAsObjectData
280
     1
 91
        0
  0
XRECORD
  5
20B1
102
{ACAD_REACTORS
330
20AD
102
}
330
20AD
100
AcDbXrecord
280
     1
  1
AcDbDs::LegacySchema
  2
AcDbDs::Legacy
280
     1
 91
        0
  0
XRECORD
  5
20B2
102
{ACAD_REACTORS
330
20AD
102
}
330
20AD
100
AcDbXrecord
280
     1
  1
AcDbDs::IndexedPropertySchema
  2
AcDs:Indexable
280
     1
 91
        0
  0
XRECORD
  5
20B3
102
{ACAD_REACTORS
330
20AD
102
}
330
20AD
100
AcDbXrecord
280
     1
  1
AcDbDs::HandleAttributeSchema
  2
AcDbDs::HandleAttribute
280
     7
 91
        1
284
     1
  0
XRECORD
  5
2073
102
{ACAD_REACTORS
330
2072
102
}
330
2072
100
AcDbXrecord
280
     1
310
28000000B4000000870000000100080000000000EC5E000000000000000000000001000000000000FFFFFF0000000000FFFFFF000000000000000000000000000000000000000000000000000000000000000000330000006600000099000000CC000000FF00000000330000333300006633000099330000CC330000FF3300
310
0000660000336600006666000099660000CC660000FF66000000990000339900006699000099990000CC990000FF99000000CC000033CC000066CC000099CC0000CCCC0000FFCC000000FF000033FF000066FF000099FF0000CCFF0000FFFF000000003300330033006600330099003300CC003300FF003300003333003333
310
33006633330099333300CC333300FF33330000663300336633006666330099663300CC663300FF66330000993300339933006699330099993300CC993300FF99330000CC330033CC330066CC330099CC3300CCCC3300FFCC330000FF330033FF330066FF330099FF3300CCFF3300FFFF330000006600330066006600660099
310
006600CC006600FF00660000336600333366006633660099336600CC336600FF33660000666600336666006666660099666600CC666600FF66660000996600339966006699660099996600CC996600FF99660000CC660033CC660066CC660099CC6600CCCC6600FFCC660000FF660033FF660066FF660099FF6600CCFF6600
310
FFFF660000009900330099006600990099009900CC009900FF00990000339900333399006633990099339900CC339900FF33990000669900336699006666990099669900CC669900FF66990000999900339999006699990099999900CC999900FF99990000CC990033CC990066CC990099CC9900CCCC9900FFCC990000FF99
310
0033FF990066FF990099FF9900CCFF9900FFFF99000000CC003300CC006600CC009900CC00CC00CC00FF00CC000033CC003333CC006633CC009933CC00CC33CC00FF33CC000066CC003366CC006666CC009966CC00CC66CC00FF66CC000099CC003399CC006699CC009999CC00CC99CC00FF99CC0000CCCC0033CCCC0066CC
310
CC0099CCCC00CCCCCC00FFCCCC0000FFCC0033FFCC0066FFCC0099FFCC00CCFFCC00FFFFCC000000FF003300FF006600FF009900FF00CC00FF00FF00FF000033FF003333FF006633FF009933FF00CC33FF00FF33FF000066FF003366FF006666FF009966FF00CC66FF00FF66FF000099FF003399FF006699FF009999FF00CC
310
99FF00FF99FF0000CCFF0033CCFF0066CCFF0099CCFF00CCCCFF00FFCCFF0000FFFF0033FFFF0066FFFF0099FFFF00CCFFFF00FFFFFF00000000000D0D0D001A1A1A00282828003535350043434300505050005D5D5D006B6B6B00787878008686860093939300A1A1A100AEAEAE00BBBBBB00C9C9C900D6D6D600E4E4E400
310
F1F1F100FFFFFF0000000000000000000000000000000000000000000000000000000000000000000000000000000000EFEFEFEFEFEFEFEFEFEFEFEFEFEFEFEFEFEFEFEFEFEFEFEFEFEFEFEFEFEFEFEFEFEFEFEFEFEFEFEFEFEFEFEFEFEFEFEFEFEFEFEFEFEFEFEFEFEFEFEFEFEFEFEFEFEFEFEFEFEFEFEFEFEFEFEFEFEFEF
310
EFEFEFEFEFEFEFEFEFEFEFEFEFEFEFEFEFEFEFEFEFEFEFEFEFEFEFEFEFEFEFEFEFEFEFEFEFEFEFEFEFEFEFEFEFEFEFEFEFEFEFEFEFEFEFEFEFEFEFEFEFEFEFEFEFEFEFEFEFEFEFEFEFEFEFEFEFEFEFEFEFEFEFEFEFEFEFEFEFEFEFEFEFEFEFEFEFEFEFEFEFEFEFEFEFEFEFEFEFEFEFEFEFEFEFEFEFEFEFEFEFEFEFEFEFEFEF
310
EFEFEFEFEFEFEFEFEFEFEFEFEFEFEFEFEFEFEFEFEFEFEFEFEFEFEFEFEFEFEFEFEFEFEFEFEFEFEFEFEFEFEFEFEFEFEFEFEFEFEFEFEFEFEFEFEFEFEFEFEFEFEFEFEFEFEFEFEFEFEFEFEFEFEFEFEFEFEFEFEFEFEFEFEFEFEFEFEFEFEFEFEFEFEFEFEFEFEFEFEFEFEFEFEFEFEFEFEFEFEFEFEFEFEFEFEFEFEFEFEFEFEFEFEFEFEF
310
EFEFEFEFEFEFEFEFEFEFEFEFEFEFEFEFEFEFEFEFEFEFEFEFEFEFEFEFEFEFEFEFEFEFEFEFEFEFEFEFEFEFEFEFEFEFEFEFEFEFEFEFEFEFEFEFEFEFEFEFEFEFEFEFEFEFEFEFEFEFEFEFEFEFEFEFEFEFEFEFEFEFEFEFEFEFEFEFEFEFEFEFEFEFEFEFEFEFEFEFEFEFEFEFEFEFEFEFEFEFEFEFEFEFEFEFEFEFEFEFEFEFEFEFEFEFEF
310
EFEFEFEFEFEFEFEFEFEFEFEFEFEFEFEFEFEFEFEFEFEFEFEFEFEFEFEFEFEFEFEFEFEFEFEFEFEFEFEFEFEFEFEFEFEFEFEFEFEFEFEFEFEFEFEFEFEFEFEFEFEFEFEFEFEFEFEFEFEFEFEFEFEFEFEFEFEFEFEFEFEFEFEFEFEFEFEFEFEFEFEFEFEFEFEFEFEFEFEFEFEFEFEFEFEFEFEFEFEFEFEFEFEFEFEFEFEFEFEFEFEFEFEFEFEFEF
310
EFEFEFEFEFEFEFEFEFEFEFEFEFEFEFEFEFEFEFEFEFEFEFEFEFEFEFEFEFEFEFEFEFEFEFEFEFEFEFEFEFEFEFEFEFEFEFEFEFEFEFEFEFEFEFEFEFEFEFEFEFEFEFEFEFEFEFEFEFEFEFEFEFEFEFEFEFEFEFEFEFEFEFEFEFEFEFEFEFEFEFEFEFEFEFEFEFEFEFEFEFEFEFEFEFEFEFEFEFEFEFEFEFEFEFEFEFEFEFEFEFEFEFEFEFEFEF
310
EFEFEFEFEFEFEFEFEFEFEFEFEFEFEFEFEFEFEFEFEFEFEFEFEFEFEFEFEFEFEFEFEFEFEFEFEFEFEFEFEFEFEFEFEFEFEFEFEFEFEFEFEFEFEFEFEFEFEFEFEFEFEFEFEFEFEFEFEFEFEFEFEFEFEFEFEFEFEFEFEFEFEFEFEFEFEFEFEFEFEFEFEFEFEFEFEFEFEFEFEFEFEFEFEFEFEFEFEFEFEFEFEFEFEFEFEFEFEFEFEFEFEFEFEFEFEF
310
EFEFEFEFEFEFEFEFEFEFEFEFEFEFEFEFEFEFEFEFEFEFEFEFEFEFEFEFEFEFEFEFEFEFEFEFEFEFEFEFEFEFEFEFEFEFEFEFEFEFEFEFEFEFEFEFEFEFEFEFEFEFEFEFEFEFEFEFEFEFEFEFEFEFEFEFEFEFEFEFEFEFEFEFEFEFEFEFEFEFEFEFEFEFEFEFEFEFEFEFEFEFEFEFEFEFEFEFEFEFEFEFEFEFEFEFEFEFEFEFEFEFEFEFEFEFEF
310
EFEFEFEFEFEFEFEFEFEFEFEFEFEFEFEFEFEFEFEFEFEFEFEFEFEFEFEFEFEFEFEFEFEFEFEFEFEFEFEFEFEFEFEFEFEFEFEFEFEFEFEFEFEFEFEFEFEFEFEFEFEFEFEFEFEFEFEFEFEFEFEFEFEFEFEFEFEFEFEFEFEFEFEFEFEFEFEFEFEFEFEFEFEFEFEFEFEFEFEFEFEFEFEFEFEFEFEFEFEFEFEFEFEFEFEFEFEFEFEFEFEFEFEFEFEFEF
310
EFEFEFEFEFEFEFEFEFEFEFEFEFEFEFEFEFEFEFEFEFEFEFEFEFEFEFEFEFEFEFEFEFEFEFEFEFEFEFEFEFEFEFEFEFEFEFEFEFEFEFEFEFEFEFEFEFEFEFEFEFEFEFEFEFEFEFEFEFEFEFEFEFEFEFEFEFEFEFEFEFEFEFEFEFEFEFEFEFEFEFEFEFEFEFEFEFEFEFEFEFEFEFEFEFEFEFEFEFEFEFEFEFEFEFEFEFEFEFEFEFEFEFEFEFEFEF
310
EFEFEFEFEFEFEFEFEFEFEFEFEFEFEFEFEFEFEFEFEFEFEFEFEFEFEFEFEFEFEFEFEFEFEFEFEFEFEFEFEFEFEFEFEFEFEFEFEFEFEFEFEFEFEFEFEFEFEFEFEFEFEFEFEFEFEFEFEFEFEFEFEFEFEFEFEFEFEFEFEFEFEFEFEFEFEFEFEFEFEFEFEFEFEFEFEFEFEFEFEFEFEFEFEFEFEFEFEFEFEFEFEFEFEFEFEFEFEFEFEFEFEFEFEFEFEF
310
EFEFEFEFEFEFEFEFEFEFEFEFEFEFEFEFEFEFEFEFEFEFEFEFEFEFEFEFEFEFEFEFEFEFEFEFEFEFEFEFEFEFEFEFEFEFEFEFEFEFEFEFEFEFEFEFEFEFEFEFEFEFEFEFEFEFEFEFEFEFEFEFEFEFEFEFEFEFEFEFEFEFEFEFEFEFEFEFEFEFEFEFEFEFEFEFEFEFEFEFEFEFEFEFEFEFEFEFEFEFEFEFEFEFEFEFEFEFEFEFEFEFEFEFEFEFEF
310
EFEFEFEFEFEFEFEFEFEFEFEFEFEFEFEFEFEFEFEFEFEFEFEFEFEFEFEFEFEFEFEFEFEFEFEFEFEFEFEFEFEFEFEFEFEFEFEFEFEFEFEFEFEFEFEFEFEFEFEFEFEFEFEFEFEFEFEFEFEFEFEFEFEFEFEFEFEFEFEFEFEFEFEFEFEFEFEFEFEFEFEFEFEFEFEFEFEFEFEFEFEFEFEFEFEFEFEFEFEFEFEFEFEFEFEFEFEFEFEFEFEFEFEFEFEFEF
310
EFEFEFEFEFEFEFEFEFEFEFEFEFEFEFEFEFEFEFEFEFEFEFEFEFEFEFEFEFEFEFEFEFEFEFEFEFEFEFEFEFEFEFEFEFEFEFEFEFEFEFEFEFEFEFEFEFEFEFEFEFEFEFEFEFEFEFEFEFEFEFEFEFEFEFEFEFEFEFEFEFEFEFEFEFEFEFEFEFEFEFEFEFEFEFEFEFEFEFEFEFEFEFEFEFEFEFEFEFEFEFEFEFEFEFEFEFEFEFEFEFEFEFEFEFEFEF
310
EFEFEFEFEFEFEFEFEFEFEFEFEFEFEFEFEFEFEFEFEFEFEFEFEFEFEFEFEFEFEFEFEFEFEFEFEFEFEFEFEFEFEFEFEFEFEFEFEFEFEFEFEFEFEFEFEFEFEFEFEFEFEFEFEFEFEFEFEFEFEFEFEFEFEFEFEFEFEFEFEFEFEFEFEFEFEFEFEFEFEFEFEFEFEFEFEFEFEFEFEFEFEFEFEFEFEFEFEFEFEFEFEFEFEFEFEFEFEFEFEFEFEFEFEFEFEF
310
EFEFEFEFEFEFEFEFEFEFEFEFEFEFEFEFEFEFEFEFEFEFEFEFEFEFEFEFEFEFEFEFEFEFEFEFEFEFEFEFEFEFEFEFEFEFEFEFEFEFEFEFEFEFEFEFEFEFEFEFEFEFEFEFEFEFEFEFEFEFEFEFEFEFEFEFEFEFEFEFEFEFEFEFEFEFEFEFEFEFEFEFEFEFEFEFEFEFEFEFEFEFEFEFEFEFEFEFEFEFEFEFEFEFEFEFEFEFEFEFEFEFEFEFEFEFEF
310
EFEFEFEFEFEFEFEFEFEFE2E2E2E2E2E2E2E2E2E2E2E2E2E2E2E2E2E2E2E2E2E2E2E2E2E2E2E2E2E2E2E2E2E2E2E2E2E2E2E2E2E2E2E2E2E2E2E2E2E2E2E2E2E2E2E2E2E2E2E2E2E2E2E2E2E2E2E2E2E2E2E2E2E2E2E2E2E2E2E2E2E2E2E2E2E2E2E2E2E2E2E2E2E2E2E2E2E2E2E2E2E2E2E2E2E2E2E2E2E2E2E2E2E2E2E2E2
310
E2E2E2E2E2E2E2E2E2E2E2E2E2E2E2E2E2E2E2E2E2EFEFEFEFEFEFEFEFEFEFEFEFEFEFEFEFEFEFEFEFEFEFEFEFEFEFEFEFEFEFEFEFEFEFEFEFEFEFEFEFEFE2E2E2E2E2E2E2E2E2E2E2E2E2E2E2E2E2E2E2E2E2E2E2E2E2E2E2E2E2E2E2E2E2E2E2E2E2E2E2E2E2E2E2E2E2E2E2E2E2E2E2E2E2E2E2E2E2E2E2E2E2E2E2E2E2
310
E2E2E2E2E2E2E2E2E2E2E2E2E2E2E2E2E2E2E2E2E2E2E2E2E2E2E2E2E2E2E2E2E2E2E2E2E2E2E2E2E2E2E2E2E2E2E2E2E2E2E2E2E2E2E2E2E2E2E2E2E2E2E2E2E2E2E2E2E2E2E2E2E2E2EFEFEFEFEFEFEFEFEFEFEFEFEFEFEFEFEFEFEFEFEFEFEFEFEFEFEFEFEFEFEFEFEFEFEFEFEFEFEFEFEFE2E2F5F5F5F5F5F5F5F5F5F5
310
F5F5F5F5F5F5F5F5F5F5F5F5F5F5F5F5F5F5F5F5F5F5F5F5F5F5F5F5F5F5F5F5F5F5F5F5F5F5F5F5F5F5F5F5F5F5F5F5F5F5F5F5F5F5F5F5F5F5F5F5F5F5F5F5F5F5F5F5F5F5F5F5F5F5F5F5F5F5F5F5F5F5F5F5F5F5F5F5F5F5F5F5F5F5F5F5F5F5F5F5F5F5F5F5F5F5F5F5F5F5F5F5F5F5F5F5F5F5F5F5F5F5F5F5E2E2E2
310
EFEFEFEFEFEFEFEFEFEFEFEFEFEFEFEFEFEFEFEFEFEFEFEFEFEFEFEFEFEFEFEFEFEFEFEFEFEFEFEFEFE2E2F5F5F5F5F5F5F5F5F5F5F5F5F5F5F5F5F5F5F5F5F5F5F5F5F5F5F5F5F5F5F5F5F5F5F5F5F5F5F5F5F5F5F5F5F5F5F5F5F5F5F5F5F5F5F5F5F5F5F5F5F5F5F5F5F5F5F5F5F5F5F5F5F5F5F5F5F5F5F5F5F5F5F5F5
310
F5F5F5F5F5F5F5F5F5F5F5F5F5F5F5F5F5F5F5F5F5F5F5F5F5F5F5F5F5F5F5F5F5F5F5F5F5F5F5F5F5F5F5F5F5F5F5F5F5F5E2E2E2EFEFEFEFEFEFEFEFEFEFEFEFEFEFEFEFEFEFEFEFEFEFEFEFEFEFEFEFEFEFEFEFEFEFEFEFEFEFEFEFEFE2E2F5F5F5F5F5F5F5F5F5F5F5F5F5F5F5F5F5F5F5F5F5F5F5F5F5F5F5F5F5F5F5
310
F5F5F5F5F5F5F5F5F5F5F5F5F5F5F5F5F5F5F5F5F5F5F5F5F5F5F5F5F5F5F5F5F5F5F5F5F5F5F5F5F5F5F5F5F5F5F5F5F5F5F5F5F5F5F5F5F5F5F5F5F5F5F5F5F5F5F5F5F5F5F5F5F5F5F5F5F5F5F5F5F5F5F5F5F5F5F5F5F5F5F5F5F5F5F5F5F5F5F5F5F5F5F5E2E2E2EFEFEFEFEFEFEFEFEFEFEFEFEFEFEFEFEFEFEFEFEF
310
EFEFEFEFEFEFEFEFEFEFEFEFEFEFEFEFEFEFEFEFE2E2F5F5F5F5F5F5F5F5F5F5F5F5F5F5F5F5F5F5F5F5F5F5F5F5F5F5F5F5F5F5F5F5F5F5F5F5F5F5F5F5F5F5F5F5F5F5F5F5F5F5F5F5F5F5F5F5F5F5F5F5F5F5F5F5F5F5F5F5F5F5F5F5F5F5F5F5F5F5F5F5F5F5F5F5F5F5F5F5F5F5F5F5F5F5F5F5F5F5F5F5F5F5F5F5F5
310
F5F5F5F5F5F5F5F5F5F5F5F5F5F5F5F5F5F5F5F5F5F5F5F5F5F5F5F5F5E2E2E2EFEFEFEFEFEFEFEFEFEFEFEFEFEFEFEFEFEFEFEFEFEFEFEFEFEFEFEFEFEFEFEFEFEFEFEFEFEFEFEFEFE2E2F5F5F5F5F5F5F5F5F5F5F5F5F5F5F5F5F5F5F5F5F5F5F5F5F5F5F5F5F5F5F5F5F5F5F5F5F5F5F5F5F5F5F5F5F5F5F5F5F5F5F5F5
310
F5F5F5F5F5F5F5F5F5F5F5F5F5F5F5F5F5F5F5F5F5F5F5F5F5F5F5F5F5F5F5F5F5F5F5F5F5F5F5F5F5F5F5F5F5F5F5F5F5F5F5F5F5F5F5F5F5F5F5F5F5F5F5F5F5F5F5F5F5F5F5F5F5F5F5F5F5F5F5F5F5F5E2E2E2EFEFEFEFEFEFEFEFEFEFEFEFEFEFEFEFEFEFEFEFEFEFEFEFEFEFEFEFEFEFEFEFEFEFEFEFEFEFEFEFEFE2
310
E2F5F5F5F5F5F5F5F5F5F5F5F5F5F5F5F5F5F5F5F5F5F5F5F5F5F5F5F5F5F5F5F5F5F5F5F5F5F5F5F5F5F5F5F5F5F5F5F5F5F5F5F5F5F5F5F5F5F5F5F5F5F5F5F5F5F5F5F5F5F5F5F5F5F5F5F5F5F5F5F5F5F5F5F5F5F5F5F5F5F5F5F5F5F5F5F5F5F5F5F5F5F5F5F5F5F5F5F5F5F5F5F5F5F5F5F5F5F5F5F5F5F5F5F5F5F5
310
F5F5F5F5F5F5F5F5E2E2E2EFEFEFEFEFEFEFEFEFEFEFEFEFEFEFEFEFEFEFEFEFEFEFEFEFEFEFEFEFEFEFEFEFEFEFEFEFEFEFEFEFE2E2F5F5F5F5F5F5F5F5F5F5F5F5F5F5F5F5F5F5F5F5F5F5F5F5F5F5F5F5F5F5F5F5F5F5F5F5F5F5F5F5F5F5F5F5F5F5F5F5F5F5F5F5F5F5F5F5F5F5F5F5F5F5F5F5F5F5F5F5F5F5F5F5F5
310
F5F5F5F5F5F5F5F5F5F5F5F5F5F5F5F5F5F5F5F5F5F5F5F5F5F5F5F5F5F5F5F5F5F5F5F5F5F5F5F5F5F5F5F5F5F5F5F5F5F5F5F5F5F5F5F5F5F5F5F5F5E2E2E2EFEFEFEFEFEFEFEFEFEFEFEFEFEFEFEFEFEFEFEFEFEFEFEFEFEFEFEFEFEFEFEFEFEFEFEFEFEFEFEFEFE2F5F5F5F5F5F5F5F5F5F5F5F5F5F5F5F5F5F5F5F5F5
310
F5F5F5F5F5F5F5F5F5F5F5F5F5F5F5F5F5F5F5F5F5F5F5F5F5F5F5F5F5F5F5F5F5F5F5F5F5F5F5F5F5F5F5F5F5F5F5F5F5F5F5F5F5F5F5F5F5F5F5F5F5F5F5F5F5F5F5F5F5F5F5F5F5F5F5F5F5F5F5F5F5F5F5F5F5F5F5F5F5F5F5F5F5F5F5F5F5F5F5F5F5F5F5F5F5F5F5F5F5F5F5F5F5F5F5E2E2EFEFEFEFEFEFEFEFEFEF
310
EFEFEFEFEFEFEFEFEFEFEFEFEFEFEFEFEFEFEFEFEFEFEFEFEFEFEFEFEFEFEFE2F5F5F5F5F5F5F5F5F5F5F5F5F5F5F5F5F5F5F5F5F5F5F5F5F5F5F5F5F5F5F5F5F5F5F5F5F5F5F5F5F5F5F5F5F5F5F5F5F5F5F5F5F5F5F5F5F5F5F5F5F5F5F5F5F5F5F5F5F5F5F5F5F5F5F5F5F5F5F5F5F5F5F5F5F5F5F5F5F5F5F5F5F5F5F5
310
F5F5F5F5F5F5F5F5F5F5F5F5F5F5F5F5F5F5F5F5F5F5F5F5F5F5F5F5F5F5F5F5F5F5F5F5F5F5F5F5F5E2E2EFEFEFEFEFEFEFEFEFEFEFEFEFEFEFEFEFEFEFEFEFEFEFEFEFEFEFEFEFEFEFEFEFEFEFEFEFEFEFEFEFE2F5F5F5F5F5F5F5F5F5F5F5F5F5F5F5F5F5F5F5F5F5F5F5F5F5F5F5F5F5F5F5F5F5F5F5F5F5F5F5F5F5F5
310
F5F5F5F5F5F5F5F5F5F5F5F5F5F5F5F5F5F5F5F5F5F5F5F5F5F5F5F5F5F5F5F5F5F5F5F5F5F5F5F5F5F5F5F5F5F5F5F5F5F5F5F5F5F5F5F5F5F5F5F5F5F5F5F5F5F5F5F5F5F5F5F5F5F5F5F5F5F5F5F5F5F5F5F5F5F5F5F5F5F5F5F5F5F5E2E2EFEFEFEFEFEFEFEFEFEFEFEFEFEFEFEFEFEFEFEFEFEFEFEFEFEFEFEFEFEFEF
310
EFEFEFEFEFEFEFEFEFEFE2F5F5F5F5F5F5F5F5F5F5F5F5F5F5F5F5F5F5F5F5F5F5F5F5F5F5F5F5F5F5F5F5F5F5F5F5F5F5F5F5F5F5F5F5F5F5F5F5F5F5F5F5F5F5F5F5F5F5F5F5F5F5F5F5F5F5F5F5F5F5F5F5F5F5F5F5F5F5F5F5F5F5F5F5F5F5F5F5F5F5F5F5F5F5F5F5F5F5F5F5F5F5F5F5F5F5F5F5F5F5F5F5F5F5F5F5
310
F5F5F5F5F5F5F5F5F5F5F5F5F5F5F5F5F5F5F5F5E2E2EFEFEFEFEFEFEFEFEFEFEFEFEFEFEFEFEFEFEFEFEFEFEFEFEFEFEFEFEFEFEFEFEFEFEFEFEFEFEFEFEFE2F5F5F5F5F5F5F5F5F5F5F5F5F5F5F5F5F5F5F5F5F5F5F5F5F5F5F5F5F5F5F5F5F5F5F5F5F5F5F5F5F5F5F5F5F5F5F5F5F5F5F5F5F5F5F5F5F5F5F5F5F5F5F5
310
F5F5F5F5F5F5F5F5F5F5F5F5F5F5F5F5F5F5F5F5F5F5F5F5F5F5F5F5F5F5F5F5F5F5F5F5F5F5F5F5F5F5F5F5F5F5F5F5F5F5F5F5F5F5F5F5F5F5F5F5F5F5F5F5F5F5F5F5F5F5F5F5F5E2E2EFEFEFEFEFEFEFEFEFEFEFEFEFEFEFEFEFEFEFEFEFEFEFEFEFEFEFEFEFEFEFEFEFEFEFEFEFEFEFEFEFE2F5F5F5F5F5F5F5F5F5F5
310
F5F5F5F5F5F5F5F5F5F5F5F5F5F5F5F5F5F5F5F5F5F5F5F5F5F5F5F5F5F5F5F5F5F5F5F5F5F5F5F5F5F5F5F5F5F5F5F5F5F5F5F5F5F5F5F5F5F5F5F5F5F5F5F5F5F5F5F5F5F5F5F5F5F5F5F5F5F5F5F5F5F5F5F5F5F5F5F5F5F5F5F5F5F5F5F5F5F5F5F5F5F5F5F5F5F5F5F5F5F5F5F5F5F5F5F5F5F5F5F5F5F5F5F5F5F5E2
310
E2EFEFEFEFEFEFEFEFEFEFEFEFEFEFEFEFEFEFEFEFEFEFEFEFEFEFEFEFEFEFEFEFEFEFEFEFEFEFEFEFEFE2F5F5F5F5F5F5F5F5F5F5F5F5F5F5F5F5F5F5F5F5F5F5F5F5F5F5F5F5F5F5F5F5F5F5F5F5F5F5F5F5F5F5F5F5F5F5F5F5F5F5F5F5F5F5F5F5F5F5F5F5F5F5F5F5F5F5F5F5F5F5F5F5F5F5F5F5F5F5F5F5F5F5F5F5
310
F5F5F5F5F5F5F5F5F5F5F5F5F5F5F5F5F5F5F5F5F5F5F5F5F5F5F5F5F5F5F5F5F5F5F5F5F5F5F5F5F5F5F5F5F5F5F5F5F5F5F5F5E2E2EFEFEFEFEFEFEFEFEFEFEFEFEFEFEFEFEFEFEFEFEFEFEFEFEFEFEFEFEFEFEFEFEFEFEFEFEFEFEFEFEFE2F5F5F5F5F5F5F5F5F5F5F5F5F5F5F5F5F5F5F5F5F5F5F5F5F5F5F5F5F5F5F5
310
F5F5F5F5F5F5F5F5F5F5F5F5F5F5F5F5F5F5F5F5F5F5F5F5F5F5F5F5F5F5F5F5F5F5F5F5F5F5F5F5F5F5F5F5F5F5F5F5F5F5F5F5F5F5F5F5F5F5F5F5F5F5F5F5F5F5F5F5F5F5F5F5F5F5F5F5F5F5F5F5F5F5F5F5F5F5F5F5F5F5F5F5F5F5F5F5F5F5F5F5F5F5F5F5F5E2E2EFEFEFEFEFEFEFEFEFEFEFEFEFEFEFEFEFEFEFEF
310
EFEFEFEFEFEFEFEFEFEFEFEFEFEFEFEFEFEFEFEFEFE2F5F5F5F5F5F5F5F5F5F5F5F5F5F5F5F5F5F5F5F5F5F5F5F5F5F5F5F5F5F5F5F5F5F5F5F5F5F5F5F5F5F5F5F5F5F5F5F5F5F5F5F5F5F5F5F5F5F5F5F5F5F5F5F5F5F5F5F5F5F5F5F5F5F5F5F5F5F5F5F5F5F5F5F5F5F5F5F5F5F5F5F5F5F5F5F5F5F5F5F5F5F5F5F5F5
310
F5F5F5F5F5F5F5F5F5F5F5F5F5F5F5F5F5F5F5F5F5F5F5F5F5F5F5F5F5F5F5E2E2EFEFEFEFEFEFEFEFEFEFEFEFEFEFEFEFEFEFEFEFEFEFEFEFEFEFEFEFEFEFEFEFEFEFEFEFEFEFEFEFEFE2E2F5F5F5F5F5F5F5F5F5F5F5F5F5F5F5F5F5F5F5F5F5F5F5F5F5F5F5F5F5F5F5F5F5F5F5F5F5F5F5F5F5F5F5F5F5F5F5F5F5F5F5
310
F5F5F5F5F5F5F5F5F5F5F5F5F5F5F5F5F5F5F5F5F5F5F5F5F5F5F5F5F5F5F5F5F5F5F5F5F5F5F5F5F5F5F5F5F5F5F5F5F5F5F5F5F5F5F5F5F5F5F5F5F5F5F5F5F5F5F5F5F5F5F5F5F5F5F5F5F5F5F5F5F5F5F5E2E2E2EFEFEFEFEFEFEFEFEFEFEFEFEFEFEFEFEFEFEFEFEFEFEFEFEFEFEFEFEFEFEFEFEFEFEFEFEFEFEFEFEF
310
E2E2F5F5F5F5F5F5F5F5F5F5F5F5F5F5F5F5F5F5F5F5F5F5F5F5F5F5F5F5F5F5F5F5F5F5F5F5F5F5F5F5F5F5F5F5F5F5F5F5F5F5F5F5F5F5F5F5F5F5F5F5F5F5F5F5F5F5F5F5F5F5F5F5F5F5F5F5F5F5F5F5F5F5F5F5F5F5F5F5F5F5F5F5F5F5F5F5F5F5F5F5F5F5F5F5F5F5F5F5F5F5F5F5F5F5F5F5F5F5F5F5F5F5F5F5F5
310
F5F5F5F5F5F5F5F5F5E2E2E2EFEFEFEFEFEFEFEFEFEFEFEFEFEFEFEFEFEFEFEFEFEFEFEFEFEFEFEFEFEFEFEFEFEFEFEFEFEFEFEFEFE2E2F5F5F5F5F5F5F5F5F5F5F5F5F5F5F5F5F5F5F5F5F5F5F5F5F5F5F5F5F5F5F5F5F5F5F5F5F5F5F5F5F5F5F5F5F5F5F5F5F5F5F5F5F5F5F5F5F5F5F5F5F5F5F5F5F5F5F5F5F5F5F5F5
310
F5F5F5F5F5F5F5F5F5F5F5F5F5F5F5F5F5F5F5F5F5F5F5F5F5F5F5F5F5F5F5F5F5F5F5F5F5F5F5F5F5F5F5F5F5F5F5F5F5F5F5F5F5F5F5F5F5F5F5F5F5F5E2E2E2EFEFEFEFEFEFEFEFEFEFEFEFEFEFEFEFEFEFEFEFEFEFEFEFEFEFEFEFEFEFEFEFEFEFEFEFEFEFEFEFEFE2E2F5F5F5F5F5F5F5F5F5F5F5F5F5F5F5F5F5F5F5
310
F5F5F5F5F5F5F5F5F5F5F5F5F5F5F5F5F5F5F5F5F5F5F5F5F5F5F5F5F5F5F5F5F5F5F5F5F5F5F5F5F5F5F5F5F5F5F5F5F5F5F5F5F5F5F5F5F5F5F5F5F5F5F5F5F5F5F5F5F5F5F5F5F5F5F5F5F5F5F5F5F5F5F5F5F5F5F5F5F5F5F5F5F5F5F5F5F5F5F5F5F5F5F5F5F5F5F5F5F5F5F5F5F5F5F5E2E2E2EFEFEFEFEFEFEFEFEF
310
EFEFEFEFEFEFEFEFEFEFEFEFEFEFEFEFEFEFEFEFEFEFEFEFEFEFEFEFEFEFEFEFE2E2F5F5F5F5F5F5F5F5F5F5F5F5F5F5F5F5F5F5F5F5F5F5F5F5F5F5F5F5F5F5F5F5F5F5F5F5F5F5F5F5F5F5F5F5F5F5F5F5F5F5F5F5F5F5F5F5F5F5F5F5F5F5F5F5F5F5F5F5F5F5F5F5F5F5F5F5F5F5F5F5F5F5F5F5F5F5F5F5F5F5F5F5F5
310
F5F5F5F5F5F5F5F5F5F5F5F5F5F5F5F5F5F5F5F5F5F5F5F5F5F5F5F5F5F5F5F5F5F5F5F5F5F5F5F5F5E2E2E2EFEFEFEFEFEFEFEFEFEFEFEFEFEFEFEFEFEFEFEFEFEFEFEFEFEFEFEFEFEFEFEFEFEFEFEFEFEFEFEFEFE2E2F5F5F5F5F5F5F5F5F5F5F5F5F5F5F5F5F5F5F5F5F5F5F5F5F5F5F5F5F5F5F5F5F5F5F5F5F5F5F5F5
310
F5F5F5F5F5F5F5F5F5F5F5F5F5F5F5F5F5F5F5F5F5F5F5F5F5F5F5F5F5F5F5F5F5F5F5F5F5F5F5F5F5F5F5F5F5F5F5F5F5F5F5F5F5F5F5F5F5F5F5F5F5F5F5F5F5F5F5F5F5F5F5F5F5F5F5F5F5F5F5F5F5F5F5F5F5F5F5F5F5F5F5F5F5F5E2E2E2EFEFEFEFEFEFEFEFEFEFEFEFEFEFEFEFEFEFEFEFEFEFEFEFEFEFEFEFEFEF
310
EFEFEFEFEFEFEFEFEFEFEFE2E2F5F5F5F5F5F5F5F5F5F5F5F5F5F5F5F5F5F5F5F5F5F5F5F5F5F5F5F5F5F5F5F5F5F5F5F5F5F5F5F5F5F5F5F5F5F5F5F5F5F5F5F5F5F5F5F5F5F5F5F5F5F5F5F5F5F5F5F5F5F5F5F5F5F5F5F5F5F5F5F5F5F5F5F5F5F5F5F5F5F5F5F5F5F5F5F5F5F5F5F5F5F5F5F5F5F5F5F5F5F5F5F5F5F5
310
F5F5F5F5F5F5F5F5F5F5F5F5F5F5F5F5F5F5F5F5E2E2E2EFEFEFEFEFEFEFEFEFEFEFEFEFEFEFEFEFEFEFEFEFEFEFEFEFEFEFEFEFEFEFEFEFEFEFEFEFEFEFEFEFE2E2F5F5F5F5F5F5F5F5F5F5F5F5F5F5F5F5F5F5F5F5F5F5F5F5F5F5F5F5F5F5F5F5F5F5F5F5F5F5F5F5F5F5F5F5F5F5F5F5F5F5F5F5F5F5F5F5F5F5F5F5F5
310
F5F5F5F5F5F5F5F5F5F5F5F5F5F5F5F5F5F5F5F5F5F5F5F5F5F5F5F5F5F5F5F5F5F5F5F5F5F5F5F5F5F5F5F5F5F5F5F5F5F5F5F5F5F5F5F5F5F5F5F5F5F5F5F5F5F5F5F5F5F5F5F5F5E2E2E2EFEFEFEFEFEFEFEFEFEFEFEFEFEFEFEFEFEFEFEFEFEFEFEFEFEFEFEFEFEFEFEFEFEFEFEFEFEFEFEFEFE2E2F5F5F5F5F5F5F5F5
310
F5F5F5F5F5F5F5F5F5F5F5F5F5F5F5F5F5F5F5F5F5F5F5F5F5F5F5F5F5F5F5F5F5F5F5F5F5F5F5F5F5F5F5F5F5F5F5F5F5F5F5F5F5F5F5F5F5F5F5F5F5F5F5F5F5F5F5F5F5F5F5F5F5F5F5F5F5F5F5F5F5F5F5F5F5F5F5F5F5F5F5F5F5F5F5F5F5F5F5F5F5F5F5F5F5F5F5F5F5F5F5F5F5F5F5F5F5F5F5F5F5F5F5F5F5F5E2
310
E2E2EFEFEFEFEFEFEFEFEFEFEFEFEFEFEFEFEFEFEFEFEFEFEFEFEFEFEFEFEFEFEFEFEFEFEFEFEFEFEFEFEFE2E2F5F5F5F5F5F5F5F5F5F5F5F5F5F5F5F5F5F5F5F5F5F5F5F5F5F5F5F5F5F5F5F5F5F5F5F5F5F5F5F5F5F5F5F5F5F5F5F5F5F5F5F5F5F5F5F5F5F5F5F5F5F5F5F5F5F5F5F5F5F5F5F5F5F5F5F5F5F5F5F5F5F5
310
F5F5F5F5F5F5F5F5F5F5F5F5F5F5F5F5F5F5F5F5F5F5F5F5F5F5F5F5F5F5F5F5F5F5F5F5F5F5F5F5F5F5F5F5F5F5F5F5F5F5F5F5E2E2E2EFEFEFEFEFEFEFEFEFEFEFEFEFEFEFEFEFEFEFEFEFEFEFEFEFEFEFEFEFEFEFEFEFEFEFEFEFEFEFEFEFE2E2F5F5F5F5F5F5F5F5F5F5F5F5F5F5F5F5F5F5F5F5F5F5F5F5F5F5F5F5F5
310
F5F5F5F5F5F5F5F5F5F5F5F5F5F5F5F5F5F5F5F5F5F5F5F5F5F5F5F5F5F5F5F5F5F5F5F5F5F5F5F5F5F5F5F5F5F5F5F5F5F5F5F5F5F5F5F5F5F5F5F5F5F5F5F5F5F5F5F5F5F5F5F5F5F5F5F5F5F5F5F5F5F5F5F5F5F5F5F5F5F5F5F5F5F5F5F5F5F5F5F5F5F5F5F5F5E2E2E2EFEFEFEFEFEFEFEFEFEFEFEFEFEFEFEFEFEFEF
310
EFEFEFEFEFEFEFEFEFEFEFEFEFEFEFEFEFEFEFEFEFEFE2E2F5F5F5F5F5F5F5F5F5F5F5F5F5F5F5F5F5F5F5F5F5F5F5F5F5F5F5F5F5F5F5F5F5F5F5F5F5F5F5F5F5F5F5F5F5F5F5F5F5F5F5F5F5F5F5F5F5F5F5F5F5F5F5F5F5F5F5F5F5F5F5F5F5F5F5F5F5F5F5F5F5F5F5F5F5F5F5F5F5F5F5F5F5F5F5F5F5F5F5F5F5F5F5
310
F5F5F5F5F5F5F5F5F5F5F5F5F5F5F5F5F5F5F5F5F5F5F5F5F5F5F5F5F5F5F5E2E2E2EFEFEFEFEFEFEFEFEFEFEFEFEFEFEFEFEFEFEFEFEFEFEFEFEFEFEFEFEFEFEFEFEFEFEFEFEFEFEFEFEFE2E2F5F5F5F5F5F5F5F5F5F5F5F5F5F5F5F5F5F5F5F5F5F5F5F5F5F5F5F5F5F5F5F5F5F5F5F5F5F5F5F5F5F5F5F5F5F5F5F5F5F5
310
F5F5F5F5F5F5F5F5F5F5F5F5F5F5F5F5F5F5F5F5F5F5F5F5F5F5F5F5F5F5F5F5F5F5F5F5F5F5F5F5F5F5F5F5F5F5F5F5F5F5F5F5F5F5F5F5F5F5F5F5F5F5F5F5F5F5F5F5F5F5F5F5F5F5F5F5F5F5F5F5F5F5F5F5E2E2E2EFEFEFEFEFEFEFEFEFEFEFEFEFEFEFEFEFEFEFEFEFEFEFEFEFEFEFEFEFEFEFEFEFEFEFEFEFEFEFEF
310
EFE2E2F5F5F5F5F5F5F5F5F5F5F5F5F5F5F5F5F5F5F5F5F5F5F5F5F5F5F5F5F5F5F5F5F5F5F5F5F5F5F5F5F5F5F5F5F5F5F5F5F5F5F5F5F5F5F5F5F5F5F5F5F5F5F5F5F5F5F5F5F5F5F5F5F5F5F5F5F5F5F5F5F5F5F5F5F5F5F5F5F5F5F5F5F5F5F5F5F5F5F5F5F5F5F5F5F5F5F5F5F5F5F5F5F5F5F5F5F5F5F5F5F5F5F5F5
310
F5F5F5F5F5F5F5F5F5F5E2E2E2EFEFEFEFEFEFEFEFEFEFEFEFEFEFEFEFEFEFEFEFEFEFEFEFEFEFEFEFEFEFEFEFEFEFEFEFEFEFEFEFEFE2E2F5F5F5F5F5F5F5F5F5F5F5F5F5F5F5F5F5F5F5F5F5F5F5F5F5F5F5F5F5F5F5F5F5F5F5F5F5F5F5F5F5F5F5F5F5F5F5F5F5F5F5F5F5F5F5F5F5F5F5F5F5F5F5F5F5F5F5F5F5F5F5
310
F5F5F5F5F5F5F5F5F5F5F5F5F5F5F5F5F5F5F5F5F5F5F5F5F5F5F5F5F5F5F5F5F5F5F5F5F5F5F5F5F5F5F5F5F5F5F5F5F5F5F5F5F5F5F5F5F5F5F5F5F5F5F5E2E2E2EFEFEFEFEFEFEFEFEFEFEFEFEFEFEFEFEFEFEFEFEFEFEFEFEFEFEFEFEFEFEFEFEFEFEFEFEFEFEFEFEFE2F5F5F5F5F5F5F5F5F5F5F5F5F5F5F5F5F5F5F5
310
F5F5F5F5F5F5F5F5F5F5F5F5F5F5F5F5F5F5F5F5F5F5F5F5F5F5F5F5F5F5F5F5F5F5F5F5F5F5F5F5F5F5F5F5F5F5F5F5F5F5F5F5F5F5F5F5F5F5F5F5F5F5F5F5F5F5F5F5F5F5F5F5F5F5F5F5F5F5F5F5F5F5F5F5F5F5F5F5F5F5F5F5F5F5F5F5F5F5F5F5F5F5F5F5F5F5F5F5F5F5F5F5F5F5F5F5F5E2E2EFEFEFEFEFEFEFEF
310
EFEFEFEFEFEFEFEFEFEFEFEFEFEFEFEFEFEFEFEFEFEFEFEFEFEFEFEFEFEFEFEFEFE2F5F5F5F5F5F5F5F5F5F5F5F5F5F5F5F5F5F5F5F5F5F5F5F5F5F5F5F5F5F5F5F5F5F5F5F5F5F5F5F5F5F5F5F5F5F5F5F5F5F5F5F5F5F5F5F5F5F5F5F5F5F5F5F5F5F5F5F5F5F5F5F5F5F5F5F5F5F5F5F5F5F5F5F5F5F5F5F5F5F5F5F5F5
310
F5F5F5F5F5F5F5F5F5F5F5F5F5F5F5F5F5F5F5F5F5F5F5F5F5F5F5F5F5F5F5F5F5F5F5F5F5F5F5F5F5F5F5E2E2EFEFEFEFEFEFEFEFEFEFEFEFEFEFEFEFEFEFEFEFEFEFEFEFEFEFEFEFEFEFEFEFEFEFEFEFEFEFEFEFEFE2F5F5F5F5F5F5F5F5F5F5F5F5F5F5F5F5F5F5F5F5F5F5F5F5F5F5F5F5F5F5F5F5F5F5F5F5F5F5F5F5
310
F5F5F5F5F5F5F5F5F5F5F5F5F5F5F5F5F5F5F5F5F5F5F5F5F5F5F5F5F5F5F5F5F5F5F5F5F5F5F5F5F5F5F5F5F5F5F5F5F5F5F5F5F5F5F5F5F5F5F5F5F5F5F5F5F5F5F5F5F5F5F5F5F5F5F5F5F5F5F5F5F5F5F5F5F5F5F5F5F5F5F5F5F5F5F5F5E2E2EFEFEFEFEFEFEFEFEFEFEFEFEFEFEFEFEFEFEFEFEFEFEFEFEFEFEFEFEF
310
EFEFEFEFEFEFEFEFEFEFEFEFE2F5F5F5F5F5F5F5F5F5F5F5F5F5F5F5F5F5F5F5F5F5F5F5F5F5F5F5F5F5F5F5F5F5F5F5F5F5F5F5F5F5F5F5F5F5F5F5F5F5F5F5F5F5F5F5F5F5F5F5F5F5F5F5F5F5F5F5F5F5F5F5F5F5F5F5F5F5F5F5F5F5F5F5F5F5F5F5F5F5F5F5F5F5F5F5F5F5F5F5F5F5F5F5F5F5F5F5F5F5F5F5F5F5F5
310
F5F5F5F5F5F5F5F5F5F5F5F5F5F5F5F5F5F5F5F5F5F5E2E2EFEFEFEFEFEFEFEFEFEFEFEFEFEFEFEFEFEFEFEFEFEFEFEFEFEFEFEFEFEFEFEFEFEFEFEFEFEFEFEFEFE2F5F5F5F5F5F5F5F5F5F5F5F5F5F5F5F5F5F5F5F5F5F5F5F5F5F5F5F5F5F5F5F5F5F5F5F5F5F5F5F5F5F5F5F5F5F5F5F5F5F5F5F5F5F5F5F5F5F5F5F5F5
310
F5F5F5F5F5F5F5F5F5F5F5F5F5F5F5F5F5F5F5F5F5F5F5F5F5F5F5F5F5F5F5F5F5F5F5F5F5F5F5F5F5F5F5F5F5F5F5F5F5F5F5F5F5F5F5F5F5F5F5F5F5F5F5F5F5F5F5F5F5F5F5F5F5F5F5E2E2EFEFEFEFEFEFEFEFEFEFEFEFEFEFEFEFEFEFEFEFEFEFEFEFEFEFEFEFEFEFEFEFEFEFEFEFEFEFEFEFEFE2F5F5F5F5F5F5F5F5
310
F5F5F5F5F5F5F5F5F5F5F5F5F5F5F5F5F5F5F5F5F5F5F5F5F5F5F5F5F5F5F5F5F5F5F5F5F5F5F5F5F5F5F5F5F5F5F5F5F5F5F5F5F5F5F5F5F5F5F5F5F5F5F5F5F5F5F5F5F5F5F5F5F5F5F5F5F5F5F5F5F5F5F5F5F5F5F5F5F5F5F5F5F5F5F5F5F5F5F5F5F5F5F5F5F5F5F5F5F5F5F5F5F5F5F5F5F5F5F5F5F5F5F5F5F5F5F5
310
F5E2E2EFEFEFEFEFEFEFEFEFEFEFEFEFEFEFEFEFEFEFEFEFEFEFEFEFEFEFEFEFEFEFEFEFEFEFEFEFEFEFEFEFE2F5F5F5F5F5F5F5F5F5F5F5F5F5F5F5F5F5F5F5F5F5F5F5F5F5F5F5F5F5F5F5F5F5F5F5F5F5F5F5F5F5F5F5F5F5F5F5F5F5F5F5F5F5F5F5F5F5F5F5F5F5F5F5F5F5F5F5F5F5F5F5F5F5F5F5F5F5F5F5F5F5F5
310
F5F5F5F5F5F5F5F5F5F5F5F5F5F5F5F5F5F5F5F5F5F5F5F5F5F5F5F5F5F5F5F5F5F5F5F5F5F5F5F5F5F5F5F5F5F5F5F5F5F5F5F5F5F5E2E2EFEFEFEFEFEFEFEFEFEFEFEFEFEFEFEFEFEFEFEFEFEFEFEFEFEFEFEFEFEFEFEFEFEFEFEFEFEFEFEFEFE2F5F5F5F5F5F5F5F5F5F5F5F5F5F5F5F5F5F5F5F5F5F5F5F5F5F5F5F5F5
310
F5F5F5F5F5F5F5F5F5F5F5F5F5F5F5F5F5F5F5F5F5F5F5F5F5F5F5F5F5F5F5F5F5F5F5F5F5F5F5F5F5F5F5F5F5F5F5F5F5F5F5F5F5F5F5F5F5F5F5F5F5F5F5F5F5F5F5F5F5F5F5F5F5F5F5F5F5F5F5F5F5F5F5F5F5F5F5F5F5F5F5F5F5F5F5F5F5F5F5F5F5F5F5F5F5F5F5E2E2EFEFEFEFEFEFEFEFEFEFEFEFEFEFEFEFEFEF
310
EFEFEFEFEFEFEFEFEFEFEFEFEFEFEFEFEFEFEFEFEFEFEFE2F5F5F5F5F5F5F5F5F5F5F5F5F5F5F5F5F5F5F5F5F5F5F5F5F5F5F5F5F5F5F5F5F5F5F5F5F5F5F5F5F5F5F5F5F5F5F5F5F5F5F5F5F5F5F5F5F5F5F5F5F5F5F5F5F5F5F5F5F5F5F5F5F5F5F5F5F5F5F5F5F5F5F5F5F5F5F5F5F5F5F5F5F5F5F5F5F5F5F5F5F5F5F5
310
F5F5F5F5F5F5F5F5F5F5F5F5F5F5F5F5F5F5F5F5F5F5F5F5F5F5F5F5F5F5F5F5F5E2E2EFEFEFEFEFEFEFEFEFEFEFEFEFEFEFEFEFEFEFEFEFEFEFEFEFEFEFEFEFEFEFEFEFEFEFEFEFEFEFEFEFE2E2F5F5F5F5F5F5F5F5F5F5F5F5F5F5F5F5F5F5F5F5F5F5F5F5F5F5F5F5F5F5F5F5F5F5F5F5F5F5F5F5F5F5F5F5F5F5F5F5F5
310
F5F5F5F5F5F5F5F5F5F5F5F5F5F5F5F5F5F5F5F5F5F5F5F5F5F5F5F5F5F5F5F5F5F5F5F5F5F5F5F5F5F5F5F5F5F5F5F5F5F5F5F5F5F5F5F5F5F5F5F5F5F5F5F5F5F5F5F5F5F5F5F5F5F5F5F5F5F5F5F5F5F5F5F5F5E2E2E2EFEFEFEFEFEFEFEFEFEFEFEFEFEFEFEFEFEFEFEFEFEFEFEFEFEFEFEFEFEFEFEFEFEFEFEFEFEFEF
310
EFEFE2E2F5F5F5F5F5F5F5F5F5F5F5F5F5F5F5F5F5F5F5F5F5F5F5F5F5F5F5F5F5F5F5F5F5F5F5F5F5F5F5F5F5F5F5F5F5F5F5F5F5F5F5F5F5F5F5F5F5F5F5F5F5F5F5F5F5F5F5F5F5F5F5F5F5F5F5F5F5F5F5F5F5F5F5F5F5F5F5F5F5F5F5F5F5F5F5F5F5F5F5F5F5F5F5F5F5F5F5F5F5F5F5F5F5F5F5F5F5F5F5F5F5F5F5
310
F5F5F5F5F5F5F5F5F5F5F5E2E2E2EFEFEFEFEFEFEFEFEFEFEFEFEFEFEFEFEFEFEFEFEFEFEFEFEFEFEFEFEFEFEFEFEFEFEFEFEFEFEFEFEFE2E2F5F5F5F5F5F5F5F5F5F5F5F5F5F5F5F5F5F5F5F5F5F5F5F5F5F5F5F5F5F5F5F5F5F5F5F5F5F5F5F5F5F5F5F5F5F5F5F5F5F5F5F5F5F5F5F5F5F5F5F5F5F5F5F5F5F5F5F5F5F5
310
F5F5F5F5F5F5F5F5F5F5F5F5F5F5F5F5F5F5F5F5F5F5F5F5F5F5F5F5F5F5F5F5F5F5F5F5F5F5F5F5F5F5F5F5F5F5F5F5F5F5F5F5F5F5F5F5F5F5F5F5F5F5F5F5E2E2E2EFEFEFEFEFEFEFEFEFEFEFEFEFEFEFEFEFEFEFEFEFEFEFEFEFEFEFEFEFEFEFEFEFEFEFEFEFEFEFEFEFE2E2F5F5F5F5F5F5F5F5F5F5F5F5F5F5F5F5F5
310
F5F5F5F5F5F5F5F5F5F5F5F5F5F5F5F5F5F5F5F5F5F5F5F5F5F5F5F5F5F5F5F5F5F5F5F5F5F5F5F5F5F5F5F5F5F5F5F5F5F5F5F5F5F5F5F5F5F5F5F5F5F5F5F5F5F5F5F5F5F5F5F5F5F5F5F5F5F5F5F5F5F5F5F5F5F5F5F5F5F5F5F5F5F5F5F5F5F5F5F5F5F5F5F5F5F5F5F5F5F5F5F5F5F5F5F5F5E2E2E2EFEFEFEFEFEFEF
310
EFEFEFEFEFEFEFEFEFEFEFEFEFEFEFEFEFEFEFEFEFEFEFEFEFEFEFEFEFEFEFEFEFEFE2E2F5F5F5F5F5F5F5F5F5F5F5F5F5F5F5F5F5F5F5F5F5F5F5F5F5F5F5F5F5F5F5F5F5F5F5F5F5F5F5F5F5F5F5F5F5F5F5F5F5F5F5F5F5F5F5F5F5F5F5F5F5F5F5F5F5F5F5F5F5F5F5F5F5F5F5F5F5F5F5F5F5F5F5F5F5F5F5F5F5F5F5
310
F5F5F5F5F5F5F5F5F5F5F5F5F5F5F5F5F5F5F5F5F5F5F5F5F5F5F5F5F5F5F5F5F5F5F5F5F5F5F5F5F5F5F5E2E2E2EFEFEFEFEFEFEFEFEFEFEFEFEFEFEFEFEFEFEFEFEFEFEFEFEFEFEFEFEFEFEFEFEFEFEFEFEFEFEFEFEFE2E2F5F5F5F5F5F5F5F5F5F5F5F5F5F5F5F5F5F5F5F5F5F5F5F5F5F5F5F5F5F5F5F5F5F5F5F5F5F5
310
F5F5F5F5F5F5F5F5F5F5F5F5F5F5F5F5F5F5F5F5F5F5F5F5F5F5F5F5F5F5F5F5F5F5F5F5F5F5F5F5F5F5F5F5F5F5F5F5F5F5F5F5F5F5F5F5F5F5F5F5F5F5F5F5F5F5F5F5F5F5F5F5F5F5F5F5F5F5F5F5F5F5F5F5F5F5F5F5F5F5F5F5F5F5F5F5E2E2E2EFEFEFEFEFEFEFEFEFEFEFEFEFEFEFEFEFEFEFEFEFEFEFEFEFEFEFEF
310
EFEFEFEFEFEFEFEFEFEFEFEFEFE2E2F5F5F5F5F5F5F5F5F5F5F5F5F5F5F5F5F5F5F5F5F5F5F5F5F5F5F5F5F5F5F5F5F5F5F5F5F5F5F5F5F5F5F5F5F5F5F5F5F5F5F5F5F5F5F5F5F5F5F5F5F5F5F5F5F5F5F5F5F5F5F5F5F5F5F5F5F5F5F5F5F5F5F5F5F5F5F5F5F5F5F5F5F5F5F5F5F5F5F5F5F5F5F5F5F5F5F5F5F5F5F5F5
310
F5F5F5F5F5F5F5F5F5F5F5F5F5F5F5F5F5F5F5F5F5F5E2E2E2EFEFEFEFEFEFEFEFEFEFEFEFEFEFEFEFEFEFEFEFEFEFEFEFEFEFEFEFEFEFEFEFEFEFEFEFEFEFEFEFEFE2E2F5F5F5F5F5F5F5F5F5F5F5F5F5F5F5F5F5F5F5F5F5F5F5F5F5F5F5F5F5F5F5F5F5F5F5F5F5F5F5F5F5F5F5F5F5F5F5F5F5F5F5F5F5F5F5F5F5F5F5
310
F5F5F5F5F5F5F5F5F5F5F5F5F5F5F5F5F5F5F5F5F5F5F5F5F5F5F5F5F5F5F5F5F5F5F5F5F5F5F5F5F5F5F5F5F5F5F5F5F5F5F5F5F5F5F5F5F5F5F5F5F5F5F5F5F5F5F5F5F5F5F5F5F5F5F5E2E2E2EFEFEFEFEFEFEFEFEFEFEFEFEFEFEFEFEFEFEFEFEFEFEFEFEFEFEFEFEFEFEFEFEFEFEFEFEFEFEFEFEFE2E2F5F5F5F5F5F5
310
F5F5F5F5F5F5F5F5F5F5F5F5F5F5F5F5F5F5F5F5F5F5F5F5F5F5F5F5F5F5F5F5F5F5F5F5F5F5F5F5F5F5F5F5F5F5F5F5F5F5F5F5F5F5F5F5F5F5F5F5F5F5F5F5F5F5F5F5F5F5F5F5F5F5F5F5F5F5F5F5F5F5F5F5F5F5F5F5F5F5F5F5F5F5F5F5F5F5F5F5F5F5F5F5F5F5F5F5F5F5F5F5F5F5F5F5F5F5F5F5F5F5F5F5F5F5F5
310
F5E2E2E2EFEFEFEFEFEFEFEFEFEFEFEFEFEFEFEFEFEFEFEFEFEFEFEFEFEFEFEFEFEFEFEFEFEFEFEFEFEFEFEFEFE2E2F5F5F5F5F5F5F5F5F5F5F5F5F5F5F5F5F5F5F5F5F5F5F5F5F5F5F5F5F5F5F5F5F5F5F5F5F5F5F5F5F5F5F5F5F5F5F5F5F5F5F5F5F5F5F5F5F5F5F5F5F5F5F5F5F5F5F5F5F5F5F5F5F5F5F5F5F5F5F5F5
310
F5F5F5F5F5F5F5F5F5F5F5F5F5F5F5F5F5F5F5F5F5F5F5F5F5F5F5F5F5F5F5F5F5F5F5F5F5F5F5F5F5F5F5F5F5F5F5F5F5F5F5F5F5F5E2E2E2EFEFEFEFEFEFEFEFEFEFEFEFEFEFEFEFEFEFEFEFEFEFEFEFEFEFEFEFEFEFEFEFEFEFEFEFEFEFEFEFEFE2E2F5F5F5F5F5F5F5F5F5F5F5F5F5F5F5F5F5F5F5F5F5F5F5F5F5F5F5
310
F5F5F5F5F5F5F5F5F5F5F5F5F5F5F5F5F5F5F5F5F5F5F5F5F5F5F5F5F5F5F5F5F5F5F5F5F5F5F5F5F5F5F5F5F5F5F5F5F5F5F5F5F5F5F5F5F5F5F5F5F5F5F5F5F5F5F5F5F5F5F5F5F5F5F5F5F5F5F5F5F5F5F5F5F5F5F5F5F5F5F5F5F5F5F5F5F5F5F5F5F5F5F5F5F5F5F5E2E2E2EFEFEFEFEFEFEFEFEFEFEFEFEFEFEFEFEF
310
EFEFEFEFEFEFEFEFEFEFEFEFEFEFEFEFEFEFEFEFEFEFEFEFE2E2F5F5F5F5F5F5F5F5F5F5F5F5F5F5F5F5F5F5F5F5F5F5F5F5F5F5F5F5F5F5F5F5F5F5F5F5F5F5F5F5F5F5F5F5F5F5F5F5F5F5F5F5F5F5F5F5F5F5F5F5F5F5F5F5F5F5F5F5F5F5F5F5F5F5F5F5F5F5F5F5F5F5F5F5F5F5F5F5F5F5F5F5F5F5F5F5F5F5F5F5F5
310
F5F5F5F5F5F5F5F5F5F5F5F5F5F5F5F5F5F5F5F5F5F5F5F5F5F5F5F5F5F5F5F5F5E2E2E2EFEFEFEFEFEFEFEFEFEFEFEFEFEFEFEFEFEFEFEFEFEFEFEFEFEFEFEFEFEFEFEFEFEFEFEFEFEFEFEFEFE2E2F5F5F5F5F5F5F5F5F5F5F5F5F5F5F5F5F5F5F5F5F5F5F5F5F5F5F5F5F5F5F5F5F5F5F5F5F5F5F5F5F5F5F5F5F5F5F5F5
310
F5F5F5F5F5F5F5F5F5F5F5F5F5F5F5F5F5F5F5F5F5F5F5F5F5F5F5F5F5F5F5F5F5F5F5F5F5F5F5F5F5F5F5F5F5F5F5F5F5F5F5F5F5F5F5F5F5F5F5F5F5F5F5F5F5F5F5F5F5F5F5F5F5F5F5F5F5F5F5F5F5F5F5F5F5F5E2E2E2EFEFEFEFEFEFEFEFEFEFEFEFEFEFEFEFEFEFEFEFEFEFEFEFEFEFEFEFEFEFEFEFEFEFEFEFEFEF
310
EFEFEFE2E2F5F5F5F5F5F5F5F5F5F5F5F5F5F5F5F5F5F5F5F5F5F5F5F5F5F5F5F5F5F5F5F5F5F5F5F5F5F5F5F5F5F5F5F5F5F5F5F5F5F5F5F5F5F5F5F5F5F5F5F5F5F5F5F5F5F5F5F5F5F5F5F5F5F5F5F5F5F5F5F5F5F5F5F5F5F5F5F5F5F5F5F5F5F5F5F5F5F5F5F5F5F5F5F5F5F5F5F5F5F5F5F5F5F5F5F5F5F5F5F5F5F5
310
F5F5F5F5F5F5F5F5F5F5F5F5E2E2E2EFEFEFEFEFEFEFEFEFEFEFEFEFEFEFEFEFEFEFEFEFEFEFEFEFEFEFEFEFEFEFEFEFEFEFEFEFEFEFEFEFE2E2F5F5F5F5F5F5F5F5F5F5F5F5F5F5F5F5F5F5F5F5F5F5F5F5F5F5F5F5F5F5F5F5F5F5F5F5F5F5F5F5F5F5F5F5F5F5F5F5F5F5F5F5F5F5F5F5F5F5F5F5F5F5F5F5F5F5F5F5F5
310
F5F5F5F5F5F5F5F5F5F5F5F5F5F5F5F5F5F5F5F5F5F5F5F5F5F5F5F5F5F5F5F5F5F5F5F5F5F5F5F5F5F5F5F5F5F5F5F5F5F5F5F5F5F5F5F5F5F5F5F5F5F5F5F5F5E2E2E2EFEFEFEFEFEFEFEFEFEFEFEFEFEFEFEFEFEFEFEFEFEFEFEFEFEFEFEFEFEFEFEFEFEFEFEFEFEFEFEFEFE2F5F5F5F5F5F5F5F5F5F5F5F5F5F5F5F5F5
310
F5F5F5F5F5F5F5F5F5F5F5F5F5F5F5F5F5F5F5F5F5F5F5F5F5F5F5F5F5F5F5F5F5F5F5F5F5F5F5F5F5F5F5F5F5F5F5F5F5F5F5F5F5F5F5F5F5F5F5F5F5F5F5F5F5F5F5F5F5F5F5F5F5F5F5F5F5F5F5F5F5F5F5F5F5F5F5F5F5F5F5F5F5F5F5F5F5F5F5F5F5F5F5F5F5F5F5F5F5F5F5F5F5F5F5F5F5F5F5E2E2EFEFEFEFEFEF
310
EFEFEFEFEFEFEFEFEFEFEFEFEFEFEFEFEFEFEFEFEFEFEFEFEFEFEFEFEFEFEFEFEFEFEFE2F5F5F5F5F5F5F5F5F5F5F5F5F5F5F5F5F5F5F5F5F5F5F5F5F5F5F5F5F5F5F5F5F5F5F5F5F5F5F5F5F5F5F5F5F5F5F5F5F5F5F5F5F5F5F5F5F5F5F5F5F5F5F5F5F5F5F5F5F5F5F5F5F5F5F5F5F5F5F5F5F5F5F5F5F5F5F5F5F5F5F5
310
F5F5F5F5F5F5F5F5F5F5F5F5F5F5F5F5F5F5F5F5F5F5F5F5F5F5F5F5F5F5F5F5F5F5F5F5F5F5F5F5F5F5F5F5F5E2E2EFEFEFEFEFEFEFEFEFEFEFEFEFEFEFEFEFEFEFEFEFEFEFEFEFEFEFEFEFEFEFEFEFEFEFEFEFEFEFEFEFE2F5F5F5F5F5F5F5F5F5F5F5F5F5F5F5F5F5F5F5F5F5F5F5F5F5F5F5F5F5F5F5F5F5F5F5F5F5F5
310
F5F5F5F5F5F5F5F5F5F5F5F5F5F5F5F5F5F5F5F5F5F5F5F5F5F5F5F5F5F5F5F5F5F5F5F5F5F5F5F5F5F5F5F5F5F5F5F5F5F5F5F5F5F5F5F5F5F5F5F5F5F5F5F5F5F5F5F5F5F5F5F5F5F5F5F5F5F5F5F5F5F5F5F5F5F5F5F5F5F5F5F5F5F5F5F5F5F5E2E2EFEFEFEFEFEFEFEFEFEFEFEFEFEFEFEFEFEFEFEFEFEFEFEFEFEFEF
310
EFEFEFEFEFEFEFEFEFEFEFEFEFEFE2F5F5F5F5F5F5F5F5F5F5F5F5F5F5F5F5F5F5F5F5F5F5F5F5F5F5F5F5F5F5F5F5F5F5F5F5F5F5F5F5F5F5F5F5F5F5F5F5F5F5F5F5F5F5F5F5F5F5F5F5F5F5F5F5F5F5F5F5F5F5F5F5F5F5F5F5F5F5F5F5F5F5F5F5F5F5F5F5F5F5F5F5F5F5F5F5F5F5F5F5F5F5F5F5F5F5F5F5F5F5F5F5
310
F5F5F5F5F5F5F5F5F5F5F5F5F5F5F5F5F5F5F5F5F5F5F5F5E2E2EFEFEFEFEFEFEFEFEFEFEFEFEFEFEFEFEFEFEFEFEFEFEFEFEFEFEFEFEFEFEFEFEFEFEFEFEFEFEFEFEFE2F5F5F5F5F5F5F5F5F5F5F5F5F5F5F5F5F5F5F5F5F5F5F5F5F5F5F5F5F5F5F5F5F5F5F5F5F5F5F5F5F5F5F5F5F5F5F5F5F5F5F5F5F5F5F5F5F5F5F5
310
F5F5F5F5F5F5F5F5F5F5F5F5F5F5F5F5F5F5F5F5F5F5F5F5F5F5F5F5F5F5F5F5F5F5F5F5F5F5F5F5F5F5F5F5F5F5F5F5F5F5F5F5F5F5F5F5F5F5F5F5F5F5F5F5F5F5F5F5F5F5F5F5F5F5F5F5F5E2E2EFEFEFEFEFEFEFEFEFEFEFEFEFEFEFEFEFEFEFEFEFEFEFEFEFEFEFEFEFEFEFEFEFEFEFEFEFEFEFEFEFE2F5F5F5F5F5F5
310
F5F5F5F5F5F5F5F5F5F5F5F5F5F5F5F5F5F5F5F5F5F5F5F5F5F5F5F5F5F5F5F5F5F5F5F5F5F5F5F5F5F5F5F5F5F5F5F5F5F5F5F5F5F5F5F5F5F5F5F5F5F5F5F5F5F5F5F5F5F5F5F5F5F5F5F5F5F5F5F5F5F5F5F5F5F5F5F5F5F5F5F5F5F5F5F5F5F5F5F5F5F5F5F5F5F5F5F5F5F5F5F5F5F5F5F5F5F5F5F5F5F5F5F5F5F5F5
310
F5F5F5E2E2EFEFEFEFEFEFEFEFEFEFEFEFEFEFEFEFEFEFEFEFEFEFEFEFEFEFEFEFEFEFEFEFEFEFEFEFEFEFEFEFEFE2F5F5F5F5F5F5F5F5F5F5F5F5F5F5F5F5F5F5F5F5F5F5F5F5F5F5F5F5F5F5F5F5F5F5F5F5F5F5F5F5F5F5F5F5F5F5F5F5F5F5F5F5F5F5F5F5F5F5F5F5F5F5F5F5F5F5F5F5F5F5F5F5F5F5F5F5F5F5F5F5
310
F5F5F5F5F5F5F5F5F5F5F5F5F5F5F5F5F5F5F5F5F5F5F5F5F5F5F5F5F5F5F5F5F5F5F5F5F5F5F5F5F5F5F5F5F5F5F5F5F5F5F5F5F5F5F5F5E2E2EFEFEFEFEFEFEFEFEFEFEFEFEFEFEFEFEFEFEFEFEFEFEFEFEFEFEFEFEFEFEFEFEFEFEFEFEFEFEFEFEFE2F5F5F5F5F5F5F5F5F5F5F5F5F5F5F5F5F5F5F5F5F5F5F5F5F5F5F5
310
F5F5F5F5F5F5F5F5F5F5F5F5F5F5F5F5F5F5F5F5F5F5F5F5F5F5F5F5F5F5F5F5F5F5F5F5F5F5F5F5F5F5F5F5F5F5F5F5F5F5F5F5F5F5F5F5F5F5F5F5F5F5F5F5F5F5F5F5F5F5F5F5F5F5F5F5F5F5F5F5F5F5F5F5F5F5F5F5F5F5F5F5F5F5F5F5F5F5F5F5F5F5F5F5F5F5F5F5F5E2E2EFEFEFEFEFEFEFEFEFEFEFEFEFEFEFEF
310
EFEFEFEFEFEFEFEFEFEFEFEFEFEFEFEFEFEFEFEFEFEFEFEFEFE2F5F5F5F5F5F5F5F5F5F5F5F5F5F5F5F5F5F5F5F5F5F5F5F5F5F5F5F5F5F5F5F5F5F5F5F5F5F5F5F5F5F5F5F5F5F5F5F5F5F5F5F5F5F5F5F5F5F5F5F5F5F5F5F5F5F5F5F5F5F5F5F5F5F5F5F5F5F5F5F5F5F5F5F5F5F5F5F5F5F5F5F5F5F5F5F5F5F5F5F5F5
310
F5F5F5F5F5F5F5F5F5F5F5F5F5F5F5F5F5F5F5F5F5F5F5F5F5F5F5F5F5F5F5F5F5F5F5E2E2EFEFEFEFEFEFEFEFEFEFEFEFEFEFEFEFEFEFEFEFEFEFEFEFEFEFEFEFEFEFEFEFEFEFEFEFEFEFEFEFEFE2E2F5F5F5F5F5F5F5F5F5F5F5F5F5F5F5F5F5F5F5F5F5F5F5F5F5F5F5F5F5F5F5F5F5F5F5F5F5F5F5F5F5F5F5F5F5F5F5
310
F5F5F5F5F5F5F5F5F5F5F5F5F5F5F5F5F5F5F5F5F5F5F5F5F5F5F5F5F5F5F5F5F5F5F5F5F5F5F5F5F5F5F5F5F5F5F5F5F5F5F5F5F5F5F5F5F5F5F5F5F5F5F5F5F5F5F5F5F5F5F5F5F5F5F5F5F5F5F5F5F5F5F5F5F5F5F5E2E2E2EFEFEFEFEFEFEFEFEFEFEFEFEFEFEFEFEFEFEFEFEFEFEFEFEFEFEFEFEFEFEFEFEFEFEFEFEF
310
EFEFEFEFE2E2F5F5F5F5F5F5F5F5F5F5F5F5F5F5F5F5F5F5F5F5F5F5F5F5F5F5F5F5F5F5F5F5F5F5F5F5F5F5F5F5F5F5F5F5F5F5F5F5F5F5F5F5F5F5F5F5F5F5F5F5F5F5F5F5F5F5F5F5F5F5F5F5F5F5F5F5F5F5F5F5F5F5F5F5F5F5F5F5F5F5F5F5F5F5F5F5F5F5F5F5F5F5F5F5F5F5F5F5F5F5F5F5F5F5F5F5F5F5F5F5F5
310
F5F5F5F5F5F5F5F5F5F5F5F5F5E2E2E2EFEFEFEFEFEFEFEFEFEFEFEFEFEFEFEFEFEFEFEFEFEFEFEFEFEFEFEFEFEFEFEFEFEFEFEFEFEFEFEFEFE2E2F5F5F5F5F5F5F5F5F5F5F5F5F5F5F5F5F5F5F5F5F5F5F5F5F5F5F5F5F5F5F5F5F5F5F5F5F5F5F5F5F5F5F5F5F5F5F5F5F5F5F5F5F5F5F5F5F5F5F5F5F5F5F5F5F5F5F5F5
310
F5F5F5F5F5F5F5F5F5F5F5F5F5F5F5F5F5F5F5F5F5F5F5F5F5F5F5F5F5F5F5F5F5F5F5F5F5F5F5F5F5F5F5F5F5F5F5F5F5F5F5F5F5F5F5F5F5F5F5F5F5F5F5F5F5F5E2E2E2EFEFEFEFEFEFEFEFEFEFEFEFEFEFEFEFEFEFEFEFEFEFEFEFEFEFEFEFEFEFEFEFEFEFEFEFEFEFEFEFEFE2E2F5F5F5F5F5F5F5F5F5F5F5F5F5F5F5
310
F5F5F5F5F5F5F5F5F5F5F5F5F5F5F5F5F5F5F5F5F5F5F5F5F5F5F5F5F5F5F5F5F5F5F5F5F5F5F5F5F5F5F5F5F5F5F5F5F5F5F5F5F5F5F5F5F5F5F5F5F5F5F5F5F5F5F5F5F5F5F5F5F5F5F5F5F5F5F5F5F5F5F5F5F5F5F5F5F5F5F5F5F5F5F5F5F5F5F5F5F5F5F5F5F5F5F5F5F5F5F5F5F5F5F5F5F5F5F5E2E2E2EFEFEFEFEF
310
EFEFEFEFEFEFEFEFEFEFEFEFEFEFEFEFEFEFEFEFEFEFEFEFEFEFEFEFEFEFEFEFEFEFEFEFE2E2F5F5F5F5F5F5F5F5F5F5F5F5F5F5F5F5F5F5F5F5F5F5F5F5F5F5F5F5F5F5F5F5F5F5F5F5F5F5F5F5F5F5F5F5F5F5F5F5F5F5F5F5F5F5F5F5F5F5F5F5F5F5F5F5F5F5F5F5F5F5F5F5F5F5F5F5F5F5F5F5F5F5F5F5F5F5F5F5F5
310
F5F5F5F5F5F5F5F5F5F5F5F5F5F5F5F5F5F5F5F5F5F5F5F5F5F5F5F5F5F5F5F5F5F5F5F5F5F5F5F5F5F5F5F5F5E2E2E2EFEFEFEFEFEFEFEFEFEFEFEFEFEFEFEFEFEFEFEFEFEFEFEFEFEFEFEFEFEFEFEFEFEFEFEFEFEFEFEFEFE2E2F5F5F5F5F5F5F5F5F5F5F5F5F5F5F5F5F5F5F5F5F5F5F5F5F5F5F5F5F5F5F5F5F5F5F5F5
310
F5F5F5F5F5F5F5F5F5F5F5F5F5F5F5F5F5F5F5F5F5F5F5F5F5F5F5F5F5F5F5F5F5F5F5F5F5F5F5F5F5F5F5F5F5F5F5F5F5F5F5F5F5F5F5F5F5F5F5F5F5F5F5F5F5F5F5F5F5F5F5F5F5F5F5F5F5F5F5F5F5F5F5F5F5F5F5F5F5F5F5F5F5F5F5F5F5F5E2E2E2EFEFEFEFEFEFEFEFEFEFEFEFEFEFEFEFEFEFEFEFEFEFEFEFEFEF
310
EFEFEFEFEFEFEFEFEFEFEFEFEFEFEFE2E2F5F5F5F5F5F5F5F5F5F5F5F5F5F5F5F5F5F5F5F5F5F5F5F5F5F5F5F5F5F5F5F5F5F5F5F5F5F5F5F5F5F5F5F5F5F5F5F5F5F5F5F5F5F5F5F5F5F5F5F5F5F5F5F5F5F5F5F5F5F5F5F5F5F5F5F5F5F5F5F5F5F5F5F5F5F5F5F5F5F5F5F5F5F5F5F5F5F5F5F5F5F5F5F5F5F5F5F5F5F5
310
F5F5F5F5F5F5F5F5F5F5F5F5F5F5F5F5F5F5F5F5F5F5F5F5E2E2E2EFEFEFEFEFEFEFEFEFEFEFEFEFEFEFEFEFEFEFEFEFEFEFEFEFEFEFEFEFEFEFEFEFEFEFEFEFEFEFEFEFE2E2F5F5F5F5F5F5F5F5F5F5F5F5F5F5F5F5F5F5F5F5F5F5F5F5F5F5F5F5F5F5F5F5F5F5F5F5F5F5F5F5F5F5F5F5F5F5F5F5F5F5F5F5F5F5F5F5F5
310
F5F5F5F5F5F5F5F5F5F5F5F5F5F5F5F5F5F5F5F5F5F5F5F5F5F5F5F5F5F5F5F5F5F5F5F5F5F5F5F5F5F5F5F5F5F5F5F5F5F5F5F5F5F5F5F5F5F5F5F5F5F5F5F5F5F5F5F5F5F5F5F5F5F5F5F5F5E2E2E2EFEFEFEFEFEFEFEFEFEFEFEFEFEFEFEFEFEFEFEFEFEFEFEFEFEFEFEFEFEFEFEFEFEFEFEFEFEFEFEFEFE2E2F5F5F5F5
310
F5F5F5F5F5F5F5F5F5F5F5F5F5F5F5F5F5F5F5F5F5F5F5F5F5F5F5F5F5F5F5F5F5F5F5F5F5F5F5F5F5F5F5F5F5F5F5F5F5F5F5F5F5F5F5F5F5F5F5F5F5F5F5F5F5F5F5F5F5F5F5F5F5F5F5F5F5F5F5F5F5F5F5F5F5F5F5F5F5F5F5F5F5F5F5F5F5F5F5F5F5F5F5F5F5F5F5F5F5F5F5F5F5F5F5F5F5F5F5F5F5F5F5F5F5F5F5
310
F5F5F5E2E2E2EFEFEFEFEFEFEFEFEFEFEFEFEFEFEFEFEFEFEFEFEFEFEFEFEFEFEFEFEFEFEFEFEFEFEFEFEFEFEFEFEFE2E2F5F5F5F5F5F5F5F5F5F5F5F5F5F5F5F5F5F5F5F5F5F5F5F5F5F5F5F5F5F5F5F5F5F5F5F5F5F5F5F5F5F5F5F5F5F5F5F5F5F5F5F5F5F5F5F5F5F5F5F5F5F5F5F5F5F5F5F5F5F5F5F5F5F5F5F5F5F5
310
F5F5F5F5F5F5F5F5F5F5F5F5F5F5F5F5F5F5F5F5F5F5F5F5F5F5F5F5F5F5F5F5F5F5F5F5F5F5F5F5F5F5F5F5F5F5F5F5F5F5F5F5F5F5F5F5E2E2E2EFEFEFEFEFEFEFEFEFEFEFEFEFEFEFEFEFEFEFEFEFEFEFEFEFEFEFEFEFEFEFEFEFEFEFEFEFEFEFEFEFE2E2F5F5F5F5F5F5F5F5F5F5F5F5F5F5F5F5F5F5F5F5F5F5F5F5F5
310
F5F5F5F5F5F5F5F5F5F5F5F5F5F5F5F5F5F5F5F5F5F5F5F5F5F5F5F5F5F5F5F5F5F5F5F5F5F5F5F5F5F5F5F5F5F5F5F5F5F5F5F5F5F5F5F5F5F5F5F5F5F5F5F5F5F5F5F5F5F5F5F5F5F5F5F5F5F5F5F5F5F5F5F5F5F5F5F5F5F5F5F5F5F5F5F5F5F5F5F5F5F5F5F5F5F5F5F5F5E2E2E2EFEFEFEFEFEFEFEFEFEFEFEFEFEFEF
310
EFEFEFEFEFEFEFEFEFEFEFEFEFEFEFEFEFEFEFEFEFEFEFEFEFEFE2E2F5F5F5F5F5F5F5F5F5F5F5F5F5F5F5F5F5F5F5F5F5F5F5F5F5F5F5F5F5F5F5F5F5F5F5F5F5F5F5F5F5F5F5F5F5F5F5F5F5F5F5F5F5F5F5F5F5F5F5F5F5F5F5F5F5F5F5F5F5F5F5F5F5F5F5F5F5F5F5F5F5F5F5F5F5F5F5F5F5F5F5F5F5F5F5F5F5F5F5
310
F5F5F5F5F5F5F5F5F5F5F5F5F5F5F5F5F5F5F5F5F5F5F5F5F5F5F5F5F5F5F5F5F5F5F5E2E2E2EFEFEFEFEFEFEFEFEFEFEFEFEFEFEFEFEFEFEFEFEFEFEFEFEFEFEFEFEFEFEFEFEFEFEFEFEFEFEFEFEFE2E2F5F5F5F5F5F5F5F5F5F5F5F5F5F5F5F5F5F5F5F5F5F5F5F5F5F5F5F5F5F5F5F5F5F5F5F5F5F5F5F5F5F5F5F5F5F5
310
F5F5F5F5F5F5F5F5F5F5F5F5F5F5F5F5F5F5F5F5F5F5F5F5F5F5F5F5F5F5F5F5F5F5F5F5F5F5F5F5F5F5F5F5F5F5F5F5F5F5F5F5F5F5F5F5F5F5F5F5F5F5F5F5F5F5F5F5F5F5F5F5F5F5F5F5F5F5F5F5F5F5F5F5F5F5F5F5E2E2E2EFEFEFEFEFEFEFEFEFEFEFEFEFEFEFEFEFEFEFEFEFEFEFEFEFEFEFEFEFEFEFEFEFEFEFEF
310
EFEFEFEFEFE2E2F5F5F5F5F5F5F5F5F5F5F5F5F5F5F5F5F5F5F5F5F5F5F5F5F5F5F5F5F5F5F5F5F5F5F5F5F5F5F5F5F5F5F5F5F5F5F5F5F5F5F5F5F5F5F5F5F5F5F5F5F5F5F5F5F5F5F5F5F5F5F5F5F5F5F5F5F5F5F5F5F5F5F5F5F5F5F5F5F5F5F5F5F5F5F5F5F5F5F5F5F5F5F5F5F5F5F5F5F5F5F5F5F5F5F5F5F5F5F5F5
310
F5F5F5F5F5F5F5F5F5F5F5F5F5F5E2E2E2EFEFEFEFEFEFEFEFEFEFEFEFEFEFEFEFEFEFEFEFEFEFEFEFEFEFEFEFEFEFEFEFEFEFEFEFEFEFEFEFEFE2E2F5F5F5F5F5F5F5F5F5F5F5F5F5F5F5F5F5F5F5F5F5F5F5F5F5F5F5F5F5F5F5F5F5F5F5F5F5F5F5F5F5F5F5F5F5F5F5F5F5F5F5F5F5F5F5F5F5F5F5F5F5F5F5F5F5F5F5
310
F5F5F5F5F5F5F5F5F5F5F5F5F5F5F5F5F5F5F5F5F5F5F5F5F5F5F5F5F5F5F5F5F5F5F5F5F5F5F5F5F5F5F5F5F5F5F5F5F5F5F5F5F5F5F5F5F5F5F5F5F5F5F5F5F5F5F5E2E2E2EFEFEFEFEFEFEFEFEFEFEFEFEFEFEFEFEFEFEFEFEFEFEFEFEFEFEFEFEFEFEFEFEFEFEFEFEFEFEFEFEFE2F5F5F5F5F5F5F5F5F5F5F5F5F5F5F5
310
F5F5F5F5F5F5F5F5F5F5F5F5F5F5F5F5F5F5F5F5F5F5F5F5F5F5F5F5F5F5F5F5F5F5F5F5F5F5F5F5F5F5F5F5F5F5F5F5F5F5F5F5F5F5F5F5F5F5F5F5F5F5F5F5F5F5F5F5F5F5F5F5F5F5F5F5F5F5F5F5F5F5F5F5F5F5F5F5F5F5F5F5F5F5F5F5F5F5F5F5F5F5F5F5F5F5F5F5F5F5F5F5F5F5F5F5F5F5F5F5F5E2E2EFEFEFEF
310
EFEFEFEFEFEFEFEFEFEFEFEFEFEFEFEFEFEFEFEFEFEFEFEFEFEFEFEFEFEFEFEFEFEFEFEFEFE2F5F5F5F5F5F5F5F5F5F5F5F5F5F5F5F5F5F5F5F5F5F5F5F5F5F5F5F5F5F5F5F5F5F5F5F5F5F5F5F5F5F5F5F5F5F5F5F5F5F5F5F5F5F5F5F5F5F5F5F5F5F5F5F5F5F5F5F5F5F5F5F5F5F5F5F5F5F5F5F5F5F5F5F5F5F5F5F5F5
310
F5F5F5F5F5F5F5F5F5F5F5F5F5F5F5F5F5F5F5F5F5F5F5F5F5F5F5F5F5F5F5F5F5F5F5F5F5F5F5F5F5F5F5F5F5F5F5E2E2EFEFEFEFEFEFEFEFEFEFEFEFEFEFEFEFEFEFEFEFEFEFEFEFEFEFEFEFEFEFEFEFEFEFEFEFEFEFEFEFEFE2F5F5F5F5F5F5F5F5F5F5F5F5F5F5F5F5F5F5F5F5F5F5F5F5F5F5F5F5F5F5F5F5F5F5F5F5
310
F5F5F5F5F5F5F5F5F5F5F5F5F5F5F5F5F5F5F5F5F5F5F5F5F5F5F5F5F5F5F5F5F5F5F5F5F5F5F5F5F5F5F5F5F5F5F5F5F5F5F5F5F5F5F5F5F5F5F5F5F5F5F5F5F5F5F5F5F5F5F5F5F5F5F5F5F5F5F5F5F5F5F5F5F5F5F5F5F5F5F5F5F5F5F5F5F5F5F5F5E2E2EFEFEFEFEFEFEFEFEFEFEFEFEFEFEFEFEFEFEFEFEFEFEFEFEF
310
EFEFEFEFEFEFEFEFEFEFEFEFEFEFEFEFE2F5F5F5F5F5F5F5F5F5F5F5F5F5F5F5F5F5F5F5F5F5F5F5F5F5F5F5F5F5F5F5F5F5F5F5F5F5F5F5F5F5F5F5F5F5F5F5F5F5F5F5F5F5F5F5F5F5F5F5F5F5F5F5F5F5F5F5F5F5F5F5F5F5F5F5F5F5F5F5F5F5F5F5F5F5F5F5F5F5F5F5F5F5F5F5F5F5F5F5F5F5F5F5F5F5F5F5F5F5F5
310
F5F5F5F5F5F5F5F5F5F5F5F5F5F5F5F5F5F5F5F5F5F5F5F5F5F5E2E2EFEFEFEFEFEFEFEFEFEFEFEFEFEFEFEFEFEFEFEFEFEFEFEFEFEFEFEFEFEFEFEFEFEFEFEFEFEFEFEFEFE2F5F5F5F5F5F5F5F5F5F5F5F5F5F5F5F5F5F5F5F5F5F5F5F5F5F5F5F5F5F5F5F5F5F5F5F5F5F5F5F5F5F5F5F5F5F5F5F5F5F5F5F5F5F5F5F5F5
310
F5F5F5F5F5F5F5F5F5F5F5F5F5F5F5F5F5F5F5F5F5F5F5F5F5F5F5F5F5F5F5F5F5F5F5F5F5F5F5F5F5F5F5F5F5F5F5F5F5F5F5F5F5F5F5F5F5F5F5F5F5F5F5F5F5F5F5F5F5F5F5F5F5F5F5F5F5F5F5E2E2EFEFEFEFEFEFEFEFEFEFEFEFEFEFEFEFEFEFEFEFEFEFEFEFEFEFEFEFEFEFEFEFEFEFEFEFEFEFEFEFEFE2F5F5F5F5
310
F5F5F5F5F5F5F5F5F5F5F5F5F5F5F5F5F5F5F5F5F5F5F5F5F5F5F5F5F5F5F5F5F5F5F5F5F5F5F5F5F5F5F5F5F5F5F5F5F5F5F5F5F5F5F5F5F5F5F5F5F5F5F5F5F5F5F5F5F5F5F5F5F5F5F5F5F5F5F5F5F5F5F5F5F5F5F5F5F5F5F5F5F5F5F5F5F5F5F5F5F5F5F5F5F5F5F5F5F5F5F5F5F5F5F5F5F5F5F5F5F5F5F5F5F5F5F5
310
F5F5F5F5F5E2E2EFEFEFEFEFEFEFEFEFEFEFEFEFEFEFEFEFEFEFEFEFEFEFEFEFEFEFEFEFEFEFEFEFEFEFEFEFEFEFEFEFE2F5F5F5F5F5F5F5F5F5F5F5F5F5F5F5F5F5F5F5F5F5F5F5F5F5F5F5F5F5F5F5F5F5F5F5F5F5F5F5F5F5F5F5F5F5F5F5F5F5F5F5F5F5F5F5F5F5F5F5F5F5F5F5F5F5F5F5F5F5F5F5F5F5F5F5F5F5F5
310
F5F5F5F5F5F5F5F5F5F5F5F5F5F5F5F5F5F5F5F5F5F5F5F5F5F5F5F5F5F5F5F5F5F5F5F5F5F5F5F5F5F5F5F5F5F5F5F5F5F5F5F5F5F5F5F5F5F5E2E2EFEFEFEFEFEFEFEFEFEFEFEFEFEFEFEFEFEFEFEFEFEFEFEFEFEFEFEFEFEFEFEFEFEFEFEFEFEFEFEFEFE2F5F5F5F5F5F5F5F5F5F5F5F5F5F5F5F5F5F5F5F5F5F5F5F5F5
310
F5F5F5F5F5F5F5F5F5F5F5F5F5F5F5F5F5F5F5F5F5F5F5F5F5F5F5F5F5F5F5F5F5F5F5F5F5F5F5F5F5F5F5F5F5F5F5F5F5F5F5F5F5F5F5F5F5F5F5F5F5F5F5F5F5F5F5F5F5F5F5F5F5F5F5F5F5F5F5F5F5F5F5F5F5F5F5F5F5F5F5F5F5F5F5F5F5F5F5F5F5F5F5F5F5F5F5F5F5F5F5E2E2EFEFEFEFEFEFEFEFEFEFEFEFEFEF
310
EFEFEFEFEFEFEFEFEFEFEFEFEFEFEFEFEFEFEFEFEFEFEFEFEFEFEFE2F5F5F5F5F5F5F5F5F5F5F5F5F5F5F5F5F5F5F5F5F5F5F5F5F5F5F5F5F5F5F5F5F5F5F5F5F5F5F5F5F5F5F5F5F5F5F5F5F5F5F5F5F5F5F5F5F5F5F5F5F5F5F5F5F5F5F5F5F5F5F5F5F5F5F5F5F5F5F5F5F5F5F5F5F5F5F5F5F5F5F5F5F5F5F5F5F5F5F5
310
F5F5F5F5F5F5F5F5F5F5F5F5F5F5F5F5F5F5F5F5F5F5F5F5F5F5F5F5F5F5F5F5F5F5F5F5F5E2E2EFEFEFEFEFEFEFEFEFEFEFEFEFEFEFEFEFEFEFEFEFEFEFEFEFEFEFEFEFEFEFEFEFEFEFEFEFEFEFEFEFE2E2F5F5F5F5F5F5F5F5F5F5F5F5F5F5F5F5F5F5F5F5F5F5F5F5F5F5F5F5F5F5F5F5F5F5F5F5F5F5F5F5F5F5F5F5F5
310
F5F5F5F5F5F5F5F5F5F5F5F5F5F5F5F5F5F5F5F5F5F5F5F5F5F5F5F5F5F5F5F5F5F5F5F5F5F5F5F5F5F5F5F5F5F5F5F5F5F5F5F5F5F5F5F5F5F5F5F5F5F5F5F5F5F5F5F5F5F5F5F5F5F5F5F5F5F5F5F5F5F5F5F5F5F5F5F5F5E2E2E2EFEFEFEFEFEFEFEFEFEFEFEFEFEFEFEFEFEFEFEFEFEFEFEFEFEFEFEFEFEFEFEFEFEFEF
310
EFEFEFEFEFEFE2E2F5F5F5F5F5F5F5F5F5F5F5F5F5F5F5F5F5F5F5F5F5F5F5F5F5F5F5F5F5F5F5F5F5F5F5F5F5F5F5F5F5F5F5F5F5F5F5F5F5F5F5F5F5F5F5F5F5F5F5F5F5F5F5F5F5F5F5F5F5F5F5F5F5F5F5F5F5F5F5F5F5F5F5F5F5F5F5F5F5F5F5F5F5F5F5F5F5F5F5F5F5F5F5F5F5F5F5F5F5F5F5F5F5F5F5F5F5F5F5
310
F5F5F5F5F5F5F5F5F5F5F5F5F5F5F5E2E2E2EFEFEFEFEFEFEFEFEFEFEFEFEFEFEFEFEFEFEFEFEFEFEFEFEFEFEFEFEFEFEFEFEFEFEFEFEFEFEFEFEFE2E2F5F5F5F5F5F5F5F5F5F5F5F5F5F5F5F5F5F5F5F5F5F5F5F5F5F5F5F5F5F5F5F5F5F5F5F5F5F5F5F5F5F5F5F5F5F5F5F5F5F5F5F5F5F5F5F5F5F5F5F5F5F5F5F5F5F5
310
F5F5F5F5F5F5F5F5F5F5F5F5F5F5F5F5F5F5F5F5F5F5F5F5F5F5F5F5F5F5F5F5F5F5F5F5F5F5F5F5F5F5F5F5F5F5F5F5F5F5F5F5F5F5F5F5F5F5F5F5F5F5F5F5F5F5F5F5E2E2E2EFEFEFEFEFEFEFEFEFEFEFEFEFEFEFEFEFEFEFEFEFEFEFEFEFEFEFEFEFEFEFEFEFEFEFEFEFEFEFEFEFE2E2F5F5F5F5F5F5F5F5F5F5F5F5F5
310
F5F5F5F5F5F5F5F5F5F5F5F5F5F5F5F5F5F5F5F5F5F5F5F5F5F5F5F5F5F5F5F5F5F5F5F5F5F5F5F5F5F5F5F5F5F5F5F5F5F5F5F5F5F5F5F5F5F5F5F5F5F5F5F5F5F5F5F5F5F5F5F5F5F5F5F5F5F5F5F5F5F5F5F5F5F5F5F5F5F5F5F5F5F5F5F5F5F5F5F5F5F5F5F5F5F5F5F5F5F5F5F5F5F5F5F5F5F5F5F5F5E2E2E2EFEFEF
310
EFEFEFEFEFEFEFEFEFEFEFEFEFEFEFEFEFEFEFEFEFEFEFEFEFEFEFEFEFEFEFEFEFEFEFEFEFEFE2E2F5F5F5F5F5F5F5F5F5F5F5F5F5F5F5F5F5F5F5F5F5F5F5F5F5F5F5F5F5F5F5F5F5F5F5F5F5F5F5F5F5F5F5F5F5F5F5F5F5F5F5F5F5F5F5F5F5F5F5F5F5F5F5F5F5F5F5F5F5F5F5F5F5F5F5F5F5F5F5F5F5F5F5F5F5F5F5
310
F5F5F5F5F5F5F5F5F5F5F5F5F5F5F5F5F5F5F5F5F5F5F5F5F5F5F5F5F5F5F5F5F5F5F5F5F5F5F5F5F5F5F5F5F5F5F5E2E2E2EFEFEFEFEFEFEFEFEFEFEFEFEFEFEFEFEFEFEFEFEFEFEFEFEFEFEFEFEFEFEFEFEFEFEFEFEFEFEFEFEFE2E2F5F5F5F5F5F5F5F5F5F5F5F5F5F5F5F5F5F5F5F5F5F5F5F5F5F5F5F5F5F5F5F5F5F5
310
F5F5F5F5F5F5F5F5F5F5F5F5F5F5F5F5F5F5F5F5F5F5F5F5F5F5F5F5F5F5F5F5F5F5F5F5F5F5F5F5F5F5F5F5F5F5F5F5F5F5F5F5F5F5F5F5F5F5F5F5F5F5F5F5F5F5F5F5F5F5F5F5F5F5F5F5F5F5F5F5F5F5F5F5F5F5F5F5F5F5F5F5F5F5F5F5F5F5F5F5E2E2E2EFEFEFEFEFEFEFEFEFEFEFEFEFEFEFEFEFEFEFEFEFEFEFEF
310
EFEFEFEFEFEFEFEFEFEFEFEFEFEFEFEFEFE2E2F5F5F5F5F5F5F5F5F5F5F5F5F5F5F5F5F5F5F5F5F5F5F5F5F5F5F5F5F5F5F5F5F5F5F5F5F5F5F5F5F5F5F5F5F5F5F5F5F5F5F5F5F5F5F5F5F5F5F5F5F5F5F5F5F5F5F5F5F5F5F5F5F5F5F5F5F5F5F5F5F5F5F5F5F5F5F5F5F5F5F5F5F5F5F5F5F5F5F5F5F5F5F5F5F5F5F5F5
310
F5F5F5F5F5F5F5F5F5F5F5F5F5F5F5F5F5F5F5F5F5F5F5F5F5F5E2E2E2EFEFEFEFEFEFEFEFEFEFEFEFEFEFEFEFEFEFEFEFEFEFEFEFEFEFEFEFEFEFEFEFEFEFEFEFEFEFEFEFEFE2E2E2E2E2E2E2E2E2E2E2E2E2E2E2E2E2E2E2E2E2E2E2E2E2E2E2E2E2E2E2E2E2E2E2E2E2E2E2E2E2E2E2E2E2E2E2E2E2E2E2E2E2E2E2E2E2
310
E2E2E2E2E2E2E2E2E2E2E2E2E2E2E2E2E2E2E2E2E2E2E2E2E2E2E2E2E2E2E2E2E2E2E2E2E2E2E2E2E2E2E2E2E2E2E2E2E2E2E2E2E2E2E2E2E2E2E2E2E2E2E2E2E2E2E2E2E2E2E2E2E2E2E2E2E2E2E2E2E2EFEFEFEFEFEFEFEFEFEFEFEFEFEFEFEFEFEFEFEFEFEFEFEFEFEFEFEFEFEFEFEFEFEFEFEFEFEFEFEFEFEFEFEFEFEF
310
EFEFEFEFEFEFEFEFEFEFEFEFEFEFEFEFEFEFEFEFEFEFEFEFEFEFEFEFEFEFEFEFEFEFEFEFEFEFEFEFEFEFEFEFEFEFEFEFEFEFEFEFEFEFEFEFEFEFEFEFEFEFEFEFEFEFEFEFEFEFEFEFEFEFEFEFEFEFEFEFEFEFEFEFEFEFEFEFEFEFEFEFEFEFEFEFEFEFEFEFEFEFEFEFEFEFEFEFEFEFEFEFEFEFEFEFEFEFEFEFEFEFEFEFEFEFEF
310
EFEFEFEFEFEFEFEFEFEFEFEFEFEFEFEFEFEFEFEFEFEFEFEFEFEFEFEFEFEFEFEFEFEFEFEFEFEFEFEFEFEFEFEFEFEFEFEFEFEFEFEFEFEFEFEFEFEFEFEFEFEFEFEFEFEFEFEFEFEFEFEFEFEFEFEFEFEFEFEFEFEFEFEFEFEFEFEFEFEFEFEFEFEFEFEFEFEFEFEFEFEFEFEFEFEFEFEFEFEFEFEFEFEFEFEFEFEFEFEFEFEFEFEFEFEFEF
310
EFEFEFEFEFEFEFEFEFEFEFEFEFEFEFEFEFEFEFEFEFEFEFEFEFEFEFEFEFEFEFEFEFEFEFEFEFEFEFEFEFEFEFEFEFEFEFEFEFEFEFEFEFEFEFEFEFEFEFEFEFEFEFEFEFEFEFEFEFEFEFEFEFEFEFEFEFEFEFEFEFEFEFEFEFEFEFEFEFEFEFEFEFEFEFEFEFEFEFEFEFEFEFEFEFEFEFEFEFEFEFEFEFEFEFEFEFEFEFEFEFEFEFEFEFEFEF
310
EFEFEFEFEFEFEFEFEFEFEFEFEFEFEFEFEFEFEFEFEFEFEFEFEFEFEFEFEFEFEFEFEFEFEFEFEFEFEFEFEFEFEFEFEFEFEFEFEFEFEFEFEFEFEFEFEFEFEFEFEFEFEFEFEFEFEFEFEFEFEFEFEFEFEFEFEFEFEFEFEFEFEFEFEFEFEFEFEFEFEFEFEFEFEFEFEFEFEFEFEFEFEFEFEFEFEFEFEFEFEFEFEFEFEFEFEFEFEFEFEFEFEFEFEFEFEF
310
EFEFEFEFEFEFEFEFEFEFEFEFEFEFEFEFEFEFEFEFEFEFEFEFEFEFEFEFEFEFEFEFEFEFEFEFEFEFEFEFEFEFEFEFEFEFEFEFEFEFEFEFEFEFEFEFEFEFEFEFEFEFEFEFEFEFEFEFEFEFEFEFEFEFEFEFEFEFEFEFEFEFEFEFEFEFEFEFEFEFEFEFEFEFEFEFEFEFEFEFEFEFEFEFEFEFEFEFEFEFEFEFEFEFEFEFEFEFEFEFEFEFEFEFEFEFEF
310
EFEFEFEFEFEFEFEFEFEFEFEFEFEFEFEFEFEFEFEFEFEFEFEFEFEFEFEFEFEFEFEFEFEFEFEFEFEFEFEFEFEFEFEFEFEFEFEFEFEFEFEFEFEFEFEFEFEFEFEFEFEFEFEFEFEFEFEFEFEFEFEFEFEFEFEFEFEFEFEFEFEFEFEFEFEFEFEFEFEFEFEFEFEFEFEFEFEFEFEFEFEFEFEFEFEFEFEFEFEFEFEFEFEFEFEFEFEFEFEFEFEFEFEFEFEFEF
310
EFEFEFEFEFEFEFEFEFEFEFEFEFEFEFEFEFEFEFEFEFEFEFEFEFEFEFEFEFEFEFEFEFEFEFEFEFEFEFEFEFEFEFEFEFEFEFEFEFEFEFEFEFEFEFEFEFEFEFEFEFEFEFEFEFEFEFEFEFEFEFEFEFEFEFEFEFEFEFEFEFEFEFEFEFEFEFEFEFEFEFEFEFEFEFEFEFEFEFEFEFEFEFEFEFEFEFEFEFEFEFEFEFEFEFEFEFEFEFEFEFEFEFEFEFEFEF
310
EFEFEFEFEFEFEFEFEFEFEFEFEFEFEFEFEFEFEFEFEFEFEFEFEFEFEFEFEFEFEFEFEFEFEFEFEFEFEFEFEFEFEFEFEFEFEFEFEFEFEFEFEFEFEFEFEFEFEFEFEFEFEFEFEFEFEFEFEFEFEFEFEFEFEFEFEFEFEFEFEFEFEFEFEFEFEFEFEFEFEFEFEFEFEFEFEFEFEFEFEFEFEFEFEFEFEFEFEFEFEFEFEFEFEFEFEFEFEFEFEFEFEFEFEFEFEF
310
EFEFEFEFEFEFEFEFEFEFEFEFEFEFEFEFEFEFEFEFEFEFEFEFEFEFEFEFEFEFEFEFEFEFEFEFEFEFEFEFEFEFEFEFEFEFEFEFEFEFEFEFEFEFEFEFEFEFEFEFEFEFEFEFEFEFEFEFEFEFEFEFEFEFEFEFEFEFEFEFEFEFEFEFEFEFEFEFEFEFEFEFEFEFEFEFEFEFEFEFEFEFEFEFEFEFEFEFEFEFEFEFEFEFEFEFEFEFEFEFEFEFEFEFEFEFEF
310
EFEFEFEFEFEFEFEFEFEFEFEFEFEFEFEFEFEFEFEFEFEFEFEFEFEFEFEFEFEFEFEFEFEFEFEFEFEFEFEFEFEFEFEFEFEFEFEFEFEFEFEFEFEFEFEFEFEFEFEFEFEFEFEFEFEFEFEFEFEFEFEFEFEFEFEFEFEFEFEFEFEFEFEFEFEFEFEFEFEFEFEFEFEFEFEFEFEFEFEFEFEFEFEFEFEFEFEFEFEFEFEFEFEFEFEFEFEFEFEFEFEFEFEFEFEFEF
310
EFEFEFEFEFEFEFEFEFEFEFEFEFEFEFEFEFEFEFEFEFEFEFEFEFEFEFEFEFEFEFEFEFEFEFEFEFEFEFEFEFEFEFEFEFEFEFEFEFEFEFEFEFEFEFEFEFEFEFEFEFEFEFEFEFEFEFEFEFEFEFEFEFEFEFEFEFEFEFEFEFEFEFEFEFEFEFEFEFEFEFEFEFEFEFEFEFEFEFEFEFEFEFEFEFEFEFEFEFEFEFEFEFEFEFEFEFEFEFEFEFEFEFEFEFEFEF
310
EFEFEFEFEFEFEFEFEFEFEFEFEFEFEFEFEFEFEFEFEFEFEFEFEFEFEFEFEFEFEFEFEFEFEFEFEFEFEFEFEFEFEFEFEFEFEFEFEFEFEFEFEFEFEFEFEFEFEFEFEFEFEFEFEFEFEFEFEFEFEFEFEFEFEFEFEFEFEFEFEFEFEFEFEFEFEFEFEFEFEFEFEFEFEFEFEFEFEFEFEFEFEFEFEFEFEFEFEFEFEFEFEFEFEFEFEFEFEFEFEFEFEFEFEFEFEF
310
EFEFEFEFEFEFEFEFEFEFEFEFEFEFEFEFEFEFEFEFEFEFEFEFEFEFEFEFEFEFEFEFEFEFEFEFEFEFEFEFEFEFEFEFEFEFEFEFEFEFEFEFEFEFEFEFEFEFEFEFEFEFEFEFEFEFEFEFEFEFEFEFEFEFEFEFEFEFEFEFEFEFEFEFEFEFEFEFEFEFEFEFEFEFEFEFEFEFEFEFEFEFEFEFEFEFEFEFEFEFEFEFEFEFEFEFEFEFEFEFEFEFEFEFEFEFEF
310
EFEFEFEFEFEFEFEFEFEFEFEFEFEFEFEFEFEFEFEFEFEFEFEFEFEFEFEFEFEFEFEFEFEFEFEFEFEFEFEFEFEFEFEFEFEFEFEFEFEFEFEFEFEFEFEFEFEFEFEFEFEFEFEFEFEFEFEFEFEFEFEFEFEFEFEFEFEFEFEFEFEFEFEFEFEFEFEFEFEFEFEFEFEFEFEFEFEFEFEFEFEFEFEFEFEFEFEFEFEFEFEFEFEFEFEFEFEFEFEFEFEFEFEFEFEFEF
310
EFEFEFEFEFEFEFEFEFEFEFEFEFEFEFEFEFEFEFEFEFEFEFEFEFEFEFEFEFEFEFEFEFEFEFEFEFEFEFEFEFEFEFEFEFEFEFEFEFEFEFEFEFEFEFEFEFEFEFEFEFEFEFEFEFEFEFEFEFEFEFEFEFEFEFEFEFEFEFEFEFEFEFEFEFEFEFEFEFEFEFEFEFEFEFEFEFEFEFEFEFEFEFEFEFEFEFEFEFEFEFEFEFEFEFEFEFEFEFEFEFEFEFEFEFEFEF
310
EFEFEFEFEFEFEFEFEFEFEFEFEFEFEFEFEFEFEFEFEFEFEFEFEFEFEFEFEFEFEFEFEFEFEFEFEFEFEFEFEFEFEFEFEFEFEFEFEFEFEFEFEFEFEFEFEFEFEFEFEFEFEFEFEFEFEFEFEFEFEFEFEFEFEFEFEFEFEFEFEFEFEFEFEFEFEFEFEFEFEFEFEFEFEFEFEFEFEFEFEFEFEFEFEFEFEFEFEFEFEFEFEFEFEFEFEFEFEFEFEFEFEFEFEFEFEF
310
EFEFEFEFEFEFEFEFEFEFEFEFEFEFEFEFEFEFEFEFEFEFEFEFEFEFEFEFEFEFEFEFEFEFEFEFEFEFEFEFEFEFEFEFEFEFEFEFEFEFEFEFEFEFEFEFEFEFEFEFEFEFEFEFEFEFEFEFEFEFEFEFEFEFEFEFEFEFEFEFEFEFEFEFEFEFEFEFEFEFEFEFEFEFEFEFEFEFEFEFEFEFEFEFEFEFEFEFEFEFEFEFEFEFEFEFEFEFEFEFEFEFEFEFEFEFEF
310
EFEFEFEFEFEFEFEFEFEFEFEFEFEFEFEFEFEFEFEFEFEFEFEFEFEFEFEFEFEFEFEFEFEFEFEFEFEFEFEFEFEFEFEFEFEFEFEFEFEFEFEFEFEFEFEFEFEFEFEFEFEFEFEFEFEFEFEFEFEFEFEFEFEFEFEFEFEFEFEFEFEFEFEFEFEFEFEFEFEFEFEFEFEFEFEFEFEFEFEFEFEFEFEFEFEFEFEFEFEFEFEFEFEFEFEFEFEFEFEFEFEFEFEFEFEFEF
310
EFEFEFEFEFEFEFEFEFEFEFEFEFEFEFEFEFEFEFEFEFEFEFEFEFEFEFEFEFEFEFEFEFEFEFEFEFEFEFEFEFEFEFEFEFEFEFEFEFEFEFEFEFEFEFEFEFEFEFEFEFEFEFEFEFEFEFEFEFEFEFEFEFEFEFEFEFEFEFEFEFEFEFEFEFEFEFEFEFEFEFEFEFEFEFEFEFEFEFEFEFEFEFEFEFEFEFEFEFEFEFEFEFEFEFEFEFEFEFEFEFEFEFEFEFEFEF
310
EFEFEFEFEFEFEFEFEFEFEFEFEFEFEFEFEFEFEFEFEFEFEFEFEFEFEFEFEFEFEFEFEFEFEFEFEFEFEFEFEFEFEFEFEFEFEFEFEFEFEFEFEFEFEFEFEFEFEFEFEFEFEFEFEFEFEFEFEFEFEFEFEFEFEFEFEFEFEFEFEFEFEFEFEFEFEFEFEFEFEFEFEFEFEFEFEFEFEFEFEFEFEFEFEFEFEFEFEFEFEFEFEFEFEFEFEFEFEFEFEFEFEFEFEFEFEF
310
EFEFEFEFEFEFEFEFEFEFEFEFEFEFEFEFEFEFEFEFEFEFEFEFEFEFEFEFEFEFEFEFEFEFEFEFEFEFEFEFEFEFEFEFEFEFEFEFEFEFEFEFEFEFEFEFEFEFEFEFEFEFEFEFEFEFEFEFEFEFEFEFEFEFEFEFEFEFEFEFEFEFEFEFEFEFEFEFEFEFEFEFEFEFEFEFEFEFEFEFEFEFEFEFEFEFEFEFEFEFEFEFEFEFEFEFEFEFEFEFEFEFEFEFEFEFEF
310
EFEFEFEFEFEFEFEFEFEFEFEFEFEFEFEFEFEFEFEFEFEFEFEFEFEFEFEFEFEFEFEFEFEFEFEFEFEFEFEFEFEFEFEFEFEFEFEFEFEFEFEFEFEFEFEFEFEFEFEFEFEFEFEFEFEFEFEFEFEFEFEFEFEFEFEFEFEFEFEFEFEFEFEFEFEFEFEFEFEFEFEFEFEFEFEFEFEFEFEFEFEFEFEFEFEFEFEFEFEFEFEFEFEFEFEFEFEFEFEFEFEFEFEFEFEFEF
310
EFEFEFEFEFEFEFEFEFEFEFEFEFEFEFEFEFEFEFEFEFEFEFEFEFEFEFEFEFEFEFEFEFEFEFEFEFEFEFEFEFEFEFEFEFEFEFEFEFEFEFEFEFEFEFEFEFEFEFEFEFEFEFEFEFEFEFEFEFEFEFEFEFEFEFEFEFEFEFEFEFEFEFEFEFEFEFEFEFEFEFEFEFEFEFEFEFEFEFEFEFEFEFEFEFEFEFEFEFEFEFEFEFEFEFEFEFEFEFEFEFEFEFEFEFEFEF
310
EFEFEFEFEFEFEFEFEFEFEFEFEFEFEFEFEFEFEFEFEFEFEFEFEFEFEFEFEFEFEFEFEFEFEFEFEFEFEFEFEFEFEFEFEFEFEFEFEFEFEFEFEFEFEFEFEFEFEFEFEFEFEFEFEFEFEFEFEFEFEFEFEFEFEFEFEFEFEFEFEFEFEFEFEFEFEFEFEFEFEFEFEFEFEFEFEFEFEFEFEFEFEFEFEFEFEFEFEFEFEFEFEFEFEFEFEFEFEFEFEFEFEFEFEFEFEF
310
EFEFEFEFEFEFEFEFEFEFEFEFEFEFEFEFEFEFEFEFEFEFEFEFEFEFEFEFEFEFEFEFEFEFEFEFEFEFEFEFEFEFEFEFEFEFEFEFEFEFEFEFEFEFEFEFEFEFEFEFEFEFEFEFEFEFEFEFEFEFEFEFEFEFEFEFEFEFEFEFEFEFEFEFEFEFEFEFEFEFEFEFEFEFEFEFEFEFEFEFEFEFEFEFEFEFEFEFEFEFEFEFEFEFEFEFEFEFEFEFEFEFEFEFEFEFEF
310
EFEFEFEFEFEFEFEFEFEFEFEFEFEFEFEFEFEFEFEFEFEFEFEFEFEFEFEFEFEFEFEFEFEFEFEFEFEFEFEFEFEFEFEFEFEFEFEFEFEFEFEFEFEFEFEFEFEFEFEFEFEFEFEFEFEFEFEFEFEFEFEFEFEFEFEFEFEFEFEFEFEFEFEFEFEFEFEFEFEFEFEFEFEFEFEFEFEFEFEFEFEFEFEFEFEFEFEFEFEFEFEFEFEFEFEFEFEFEFEFEFEFEFEFEFEFEF
310
EFEFEFEFEFEFEFEFEFEFEFEFEFEFEFEFEFEFEFEFEFEFEFEFEFEFEFEFEFEFEFEFEFEFEFEFEFEFEFEFEFEFEFEFEFEFEFEFEFEFEFEFEFEFEFEFEFEFEFEFEFEFEFEFEFEFEFEFEFEFEFEFEFEFEFEFEFEFEFEFEFEFEFEFEFEFEFEFEFEFEFEFEFEFEFEFEFEFEFEFEFEFEFEFEFEFEFEFEFEFEFEFEFEFEFEFEFEFEFEFEFEFEFEFEFEFEF
310
EFEFEFEFEFEFEFEFEFEFEFEFEFEFEFEFEFEFEFEFEFEFEFEFEFEFEFEFEFEFEFEFEFEFEFEFEFEFEFEFEFEFEFEFEFEFEFEFEFEFEFEFEFEFEFEFEFEFEFEFEFEFEFEFEFEFEFEFEFEFEFEFEFEFEFEFEFEFEFEFEFEFEFEFEFEFEFEFEFEFEFEFEFEFEFEFEFEFEFEFEFEFEFEFEFEFEFEFEFEFEFEFEFEFEFEFEFEFEFEFEFEFEFEFEFEFEF
310
EFEFEFEFEFEFEFEFEFEFEFEFEFEFEFEFEFEFEFEFEFEFEFEFEFEFEFEFEFEFEFEFEFEFEFEFEFEFEFEFEFEFEFEFEFEFEFEFEFEFEFEFEFEFEFEFEFEFEFEFEFEFEFEFEFEFEFEFEFEFEFEFEFEFEFEFEFEFEFEFEFEFEFEFEFEFEFEFEFEFEFEFEFEFEFEFEFEFEFEFEFEFEFEFEFEFEFEFEFEFEFEFEFEFEFEFEFEFEFEFEFEFEFEFEFEFEF
310
EFEFEFEFEFEFEFEFEFEFEFEFEFEFEFEFEFEFEFEFEFEFEFEFEFEFEFEFEFEFEFEFEFEFEFEFEFEFEFEFEFEFEFEFEFEFEFEFEFEFEFEFEFEFEFEFEFEFEFEFEFEFEFEFEFEFEFEFEFEFEFEFEFEFEFEFEFEFEFEFEFEFEFEFEFEFEFEFEFEFEFEFEFEFEFEFEFEFEFEFEFEFEFEFEFEFEFEFEFEFEFEFEFEFEFEFEFEFEFEFEFEFEFEFEFEFEF
310
EFEFEFEFEFEFEFEFEFEFEFEFEFEFEFEFEFEFEFEFEFEFEFEFEFEFEFEFEFEFEFEFEFEFEFEFEFEFEFEFEFEFEFEFEFEFEFEFEFEFEFEFEFEFEFEFEFEFEFEFEFEFEFEFEFEFEFEFEFEFEFEFEFEFEFEFEFEFEFEFEFEFEFEFEFEFEFEFEFEFEFEFEFEFEFEFEFEFEFEFEFEFEFEFEFEFEFEFEFEFEFEFEFEFEFEFEFEFEFEFEFEFEFEFEFEFEF
310
EFEFEFEFEFEFEFEFEFEFEFEFEFEFEFEFEFEFEFEFEFEFEFEFEFEFEFEFEFEFEFEFEFEFEFEFEFEFEFEFEFEFEFEFEFEFEFEFEFEFEFEFEFEFEFEFEFEFEFEFEFEFEFEFEFEFEFEFEFEFEFEFEFEFEFEFEFEFEFEFEFEFEFEFEFEFEFEFEFEFEFEFEFEFEFEFEFEFEFEFEFEFEFEFEFEFEFEFEFEFEFEFEFEFEFEFEFEFEFEFEFEFEFEFEFEFEF
310
EFEFEFEFEFEFEFEFEFEFEFEFEFEFEFEFEFEFEFEFEFEFEFEFEFEFEFEFEFEFEFEFEFEFEFEFEFEFEFEFEFEFEFEFEFEFEFEFEFEFEFEFEFEFEFEFEFEFEFEFEFEFEFEFEFEFEFEFEFEFEFEFEFEFEFEFEFEFEFEFEFEFEFEFEFEFEFEFEFEFEFEFEFEFEFEFEFEFEFEFEFEFEFEFEFEFEFEFEFEFEFEFEFEFEFEFEFEFEFEFEFEFEFEFEFEFEF
310
EFEFEFEFEFEFEFEFEFEFEFEFEFEFEFEFEFEFEFEFEFEFEFEFEFEFEFEFEFEFEFEFEFEFEFEFEFEFEFEFEFEFEFEFEFEFEFEFEFEFEFEFEFEFEFEFEFEFEFEFEFEFEFEFEFEFEFEFEFEFEFEFEFEFEFEFEFEFEFEFEFEFEFEFEFEFEFEFEFEFEFEFEFEFEFEFEFEFEFEFEFEFEFEFEFEFEFEFEFEFEFEFEFEFEFEFEFEFEFEFEFEFEFEFEFEFEF
310
EFEFEFEFEFEFEFEFEFEFEFEFEFEFEFEFEFEFEFEFEFEFEFEFEFEFEFEFEFEFEFEFEFEFEFEFEFEFEFEFEFEFEFEFEFEFEFEFEFEFEFEFEFEFEFEFEFEFEFEFEFEFEFEFEFEFEFEFEFEFEFEFEFEFEFEFEFEFEFEFEFEFEFEFEFEFEFEFEFEFEFEFEFEFEFEFEFEFEFEFEFEFEFEFEFEFEFEFEFEFEFEFEFEFEFEFEFEFEFEFEFEFEFEFEFEFEF
310
EFEFEFEFEFEFEFEFEFEFEFEFEFEFEFEFEFEFEFEFEFEFEFEFEFEFEFEFEFEFEFEFEFEFEFEFEFEFEFEFEFEFEFEFEFEFEFEFEFEFEFEFEFEFEFEFEFEFEFEFEFEFEFEFEFEFEFEFEFEFEFEFEFEFEFEFEFEFEFEFEFEFEFEFEFEFEFEFEFEFEFEFEFEFEFEFEFEFEFEFEFEFEFEFEFEFEFEFEFEFEFEFEFEFEFEFEFEFEFEFEFEFEFEFEFEFEF
310
EFEFEFEFEFEFEFEFEFEFEFEFEFEFEFEFEFEFEFEFEFEFEFEFEFEFEFEFEFEFEFEFEFEFEFEFEFEFEFEFEFEFEFEFEFEFEFEFEFEFEFEFEFEFEFEFEFEFEFEFEFEFEFEFEFEFEFEFEFEFEFEFEFEFEFEFEFEFEFEFEFEFEFEFEFEFEFEFEFEFEF
  0
CELLSTYLEMAP
  5
2075
102
{ACAD_REACTORS
330
2074
102
}
330
2074
100
AcDbCellStyleMap
 90
        3
300
CELLSTYLE
  1
TABLEFORMAT_BEGIN
 90
        5
170
     1
 91
        0
 92
    32768
 62
   257
 93
        1
300
CONTENTFORMAT
  1
CONTENTFORMAT_BEGIN
 90
        0
 91
        0
 92
      512
 93
        0
300

 40
0.0
140
1.0
 94
        5
 62
     0
340
2E
144
0.25
309
CONTENTFORMAT_END
171
     1
301
MARGIN
  1
CELLMARGIN_BEGIN
 40
0.06
 40
0.06
 40
0.06
 40
0.06
 40
0.06
 40
0.06
309
CELLMARGIN_END
 94
        6
 95
        1
302
GRIDFORMAT
  1
GRIDFORMAT_BEGIN
 90
        0
 91
        1
 62
     0
 92
       -2
340
0
 93
        0
 40
0.045
309
GRIDFORMAT_END
 95
        2
302
GRIDFORMAT
  1
GRIDFORMAT_BEGIN
 90
        0
 91
        1
 62
     0
 92
       -2
340
0
 93
        0
 40
0.045
309
GRIDFORMAT_END
 95
        4
302
GRIDFORMAT
  1
GRIDFORMAT_BEGIN
 90
        0
 91
        1
 62
     0
 92
       -2
340
0
 93
        0
 40
0.045
309
GRIDFORMAT_END
 95
        8
302
GRIDFORMAT
  1
GRIDFORMAT_BEGIN
 90
        0
 91
        1
 62
     0
 92
       -2
340
0
 93
        0
 40
0.045
309
GRIDFORMAT_END
 95
       16
302
GRIDFORMAT
  1
GRIDFORMAT_BEGIN
 90
        0
 91
        1
 62
     0
 92
       -2
340
0
 93
        0
 40
0.045
309
GRIDFORMAT_END
 95
       32
302
GRIDFORMAT
  1
GRIDFORMAT_BEGIN
 90
        0
 91
        1
 62
     0
 92
       -2
340
0
 93
        0
 40
0.045
309
GRIDFORMAT_END
309
TABLEFORMAT_END
  1
CELLSTYLE_BEGIN
 90
        1
 91
        1
300
_TITLE
309
CELLSTYLE_END
300
CELLSTYLE
  1
TABLEFORMAT_BEGIN
 90
        5
170
     1
 91
        0
 92
        0
 62
   257
 93
        1
300
CONTENTFORMAT
  1
CONTENTFORMAT_BEGIN
 90
        0
 91
        0
 92
      512
 93
        0
300

 40
0.0
140
1.0
 94
        5
 62
     0
340
2E
144
0.18
309
CONTENTFORMAT_END
171
     1
301
MARGIN
  1
CELLMARGIN_BEGIN
 40
0.06
 40
0.06
 40
0.06
 40
0.06
 40
0.06
 40
0.06
309
CELLMARGIN_END
 94
        6
 95
        1
302
GRIDFORMAT
  1
GRIDFORMAT_BEGIN
 90
        0
 91
        1
 62
     0
 92
       -2
340
0
 93
        0
 40
0.045
309
GRIDFORMAT_END
 95
        2
302
GRIDFORMAT
  1
GRIDFORMAT_BEGIN
 90
        0
 91
        1
 62
     0
 92
       -2
340
0
 93
        0
 40
0.045
309
GRIDFORMAT_END
 95
        4
302
GRIDFORMAT
  1
GRIDFORMAT_BEGIN
 90
        0
 91
        1
 62
     0
 92
       -2
340
0
 93
        0
 40
0.045
309
GRIDFORMAT_END
 95
        8
302
GRIDFORMAT
  1
GRIDFORMAT_BEGIN
 90
        0
 91
        1
 62
     0
 92
       -2
340
0
 93
        0
 40
0.045
309
GRIDFORMAT_END
 95
       16
302
GRIDFORMAT
  1
GRIDFORMAT_BEGIN
 90
        0
 91
        1
 62
     0
 92
       -2
340
0
 93
        0
 40
0.045
309
GRIDFORMAT_END
 95
       32
302
GRIDFORMAT
  1
GRIDFORMAT_BEGIN
 90
        0
 91
        1
 62
     0
 92
       -2
340
0
 93
        0
 40
0.045
309
GRIDFORMAT_END
309
TABLEFORMAT_END
  1
CELLSTYLE_BEGIN
 90
        2
 91
        1
300
_HEADER
309
CELLSTYLE_END
300
CELLSTYLE
  1
TABLEFORMAT_BEGIN
 90
        5
170
     1
 91
        0
 92
        0
 62
   257
 93
        1
300
CONTENTFORMAT
  1
CONTENTFORMAT_BEGIN
 90
        0
 91
        0
 92
      512
 93
        0
300

 40
0.0
140
1.0
 94
        2
 62
     0
340
2E
144
0.18
309
CONTENTFORMAT_END
171
     1
301
MARGIN
  1
CELLMARGIN_BEGIN
 40
0.06
 40
0.06
 40
0.06
 40
0.06
 40
0.06
 40
0.06
309
CELLMARGIN_END
 94
        6
 95
        1
302
GRIDFORMAT
  1
GRIDFORMAT_BEGIN
 90
        0
 91
        1
 62
     0
 92
       -2
340
0
 93
        0
 40
0.045
309
GRIDFORMAT_END
 95
        2
302
GRIDFORMAT
  1
GRIDFORMAT_BEGIN
 90
        0
 91
        1
 62
     0
 92
       -2
340
0
 93
        0
 40
0.045
309
GRIDFORMAT_END
 95
        4
302
GRIDFORMAT
  1
GRIDFORMAT_BEGIN
 90
        0
 91
        1
 62
     0
 92
       -2
340
0
 93
        0
 40
0.045
309
GRIDFORMAT_END
 95
        8
302
GRIDFORMAT
  1
GRIDFORMAT_BEGIN
 90
        0
 91
        1
 62
     0
 92
       -2
340
0
 93
        0
 40
0.045
309
GRIDFORMAT_END
 95
       16
302
GRIDFORMAT
  1
GRIDFORMAT_BEGIN
 90
        0
 91
        1
 62
     0
 92
       -2
340
0
 93
        0
 40
0.045
309
GRIDFORMAT_END
 95
       32
302
GRIDFORMAT
  1
GRIDFORMAT_BEGIN
 90
        0
 91
        1
 62
     0
 92
       -2
340
0
 93
        0
 40
0.045
309
GRIDFORMAT_END
309
TABLEFORMAT_END
  1
CELLSTYLE_BEGIN
 90
        3
 91
        2
300
_DATA
309
CELLSTYLE_END
  0
XRECORD
  5
2077
102
{ACAD_REACTORS
330
2076
102
}
330
2076
100
AcDbXrecord
280
     1
102
RTVSPost2010Prop28
280
     1
102
RTVSPost2010PropOp28
 70
     1
102
RTVSPost2010Prop29
280
     1
102
RTVSPost2010PropOp29
 70
     1
102
RTVSPost2010Prop30
280
     0
102
RTVSPost2010PropOp30
 70
     1
102
RTVSPost2010Prop31
280
     0
102
RTVSPost2010PropOp31
 70
     1
102
RTVSPost2010Prop32
280
     0
102
RTVSPost2010PropOp32
 70
     1
102
RTVSPost2010Prop33
280
     0
102
RTVSPost2010PropOp33
 70
     1
102
RTVSPost2010Prop34
280
     0
102
RTVSPost2010PropOp34
 70
     1
102
RTVSPost2010Prop35
280
     0
102
RTVSPost2010PropOp35
 70
     1
102
RTVSPost2010Prop36
280
     0
102
RTVSPost2010PropOp36
 70
     1
102
RTVSPost2010Prop37
 90
       50
102
RTVSPost2010PropOp37
 70
     1
102
RTVSPost2010Prop38
140
0.0
102
RTVSPost2010PropOp38
 70
     1
102
RTVSPost2010Prop39
140
1.0
102
RTVSPost2010PropOp39
 70
     1
102
RTVSPost2010Prop40
 90
        0
102
RTVSPost2010PropOp40
 70
     1
102
RTVSPost2010Prop41ColorIndex
 90
       18
102
RTVSPost2010Prop41ColorRGB
 90
        0
102
RTVSPost2010PropOp41
 70
     1
102
RTVSPost2010Prop42
 90
       50
102
RTVSPost2010PropOp42
 70
     1
102
RTVSPost2010Prop43
 90
        3
102
RTVSPost2010PropOp43
 70
     1
102
RTVSPost2010Prop44ColorIndex
 90
        5
102
RTVSPost2010Prop44ColorRGB
 90
      255
102
RTVSPost2010PropOp44
 70
     1
102
RTVSPost2010Prop45
280
     0
102
RTVSPost2010PropOp45
 70
     1
102
RTVSPost2010Prop46
 90
       50
102
RTVSPost2010PropOp46
 70
     1
102
RTVSPost2010Prop47
 90
       50
102
RTVSPost2010PropOp47
 70
     1
102
RTVSPost2010Prop48
 90
       50
102
RTVSPost2010PropOp48
 70
     1
102
RTVSPost2010Prop49
280
     0
102
RTVSPost2010PropOp49
 70
     1
102
RTVSPost2010Prop50
 90
       50
102
RTVSPost2010PropOp50
 70
     1
102
RTVSPost2010Prop51ColorIndex
 90
      256
102
RTVSPost2010Prop51ColorRGB
 90
-16777216
102
RTVSPost2010PropOp51
 70
     0
102
RTVSPost2010Prop52
140
1.0
102
RTVSPost2010PropOp52
 70
     0
102
RTVSPost2010Prop53
 90
        2
102
RTVSPost2010PropOp53
 70
     1
102
RTVSPost2010Prop54
  1
strokes_ogs.tif
102
RTVSPost2010PropOp54
 70
     1
102
RTVSPost2010Prop55
280
     0
102
RTVSPost2010PropOp55
 70
     1
102
RTVSPost2010Prop56
140
1.0
102
RTVSPost2010PropOp56
 70
     1
102
RTVSPost2010Prop57
140
1.0
102
RTVSPost2010PropOp57
 70
     1
  0
XRECORD
  5
2079
102
{ACAD_REACTORS
330
2078
102
}
330
2078
100
AcDbXrecord
280
     1
102
RTVSPost2010Prop28
280
     0
102
RTVSPost2010PropOp28
 70
     1
102
RTVSPost2010Prop29
280
     1
102
RTVSPost2010PropOp29
 70
     1
102
RTVSPost2010Prop30
280
     1
102
RTVSPost2010PropOp30
 70
     1
102
RTVSPost2010Prop31
280
     0
102
RTVSPost2010PropOp31
 70
     1
102
RTVSPost2010Prop32
280
     0
102
RTVSPost2010PropOp32
 70
     1
102
RTVSPost2010Prop33
280
     0
102
RTVSPost2010PropOp33
 70
     1
102
RTVSPost2010Prop34
280
     0
102
RTVSPost2010PropOp34
 70
     1
102
RTVSPost2010Prop35
280
     0
102
RTVSPost2010PropOp35
 70
     1
102
RTVSPost2010Prop36
280
     0
102
RTVSPost2010PropOp36
 70
     1
102
RTVSPost2010Prop37
 90
       50
102
RTVSPost2010PropOp37
 70
     1
102
RTVSPost2010Prop38
140
0.0
102
RTVSPost2010PropOp38
 70
     1
102
RTVSPost2010Prop39
140
1.0
102
RTVSPost2010PropOp39
 70
     1
102
RTVSPost2010Prop40
 90
        0
102
RTVSPost2010PropOp40
 70
     1
102
RTVSPost2010Prop41ColorIndex
 90
       18
102
RTVSPost2010Prop41ColorRGB
 90
        0
102
RTVSPost2010PropOp41
 70
     1
102
RTVSPost2010Prop42
 90
       50
102
RTVSPost2010PropOp42
 70
     1
102
RTVSPost2010Prop43
 90
        3
102
RTVSPost2010PropOp43
 70
     1
102
RTVSPost2010Prop44ColorIndex
 90
        5
102
RTVSPost2010Prop44ColorRGB
 90
      255
102
RTVSPost2010PropOp44
 70
     1
102
RTVSPost2010Prop45
280
     0
102
RTVSPost2010PropOp45
 70
     1
102
RTVSPost2010Prop46
 90
       50
102
RTVSPost2010PropOp46
 70
     1
102
RTVSPost2010Prop47
 90
       50
102
RTVSPost2010PropOp47
 70
     1
102
RTVSPost2010Prop48
 90
       50
102
RTVSPost2010PropOp48
 70
     1
102
RTVSPost2010Prop49
280
     0
102
RTVSPost2010PropOp49
 70
     1
102
RTVSPost2010Prop50
 90
       50
102
RTVSPost2010PropOp50
 70
     1
102
RTVSPost2010Prop51ColorIndex
 90
      256
102
RTVSPost2010Prop51ColorRGB
 90
-16777216
102
RTVSPost2010PropOp51
 70
     0
102
RTVSPost2010Prop52
140
1.0
102
RTVSPost2010PropOp52
 70
     0
102
RTVSPost2010Prop53
 90
        2
102
RTVSPost2010PropOp53
 70
     1
102
RTVSPost2010Prop54
  1
strokes_ogs.tif
102
RTVSPost2010PropOp54
 70
     1
102
RTVSPost2010Prop55
280
     0
102
RTVSPost2010PropOp55
 70
     1
102
RTVSPost2010Prop56
140
1.0
102
RTVSPost2010PropOp56
 70
     1
102
RTVSPost2010Prop57
140
1.0
102
RTVSPost2010PropOp57
 70
     1
  0
XRECORD
  5
207B
102
{ACAD_REACTORS
330
207A
102
}
330
207A
100
AcDbXrecord
280
     1
102
RTVSPost2010Prop28
280
     0
102
RTVSPost2010PropOp28
 70
     1
102
RTVSPost2010Prop29
280
     1
102
RTVSPost2010PropOp29
 70
     1
102
RTVSPost2010Prop30
280
     1
102
RTVSPost2010PropOp30
 70
     1
102
RTVSPost2010Prop31
280
     0
102
RTVSPost2010PropOp31
 70
     1
102
RTVSPost2010Prop32
280
     0
102
RTVSPost2010PropOp32
 70
     1
102
RTVSPost2010Prop33
280
     0
102
RTVSPost2010PropOp33
 70
     1
102
RTVSPost2010Prop34
280
     0
102
RTVSPost2010PropOp34
 70
     1
102
RTVSPost2010Prop35
280
     0
102
RTVSPost2010PropOp35
 70
     1
102
RTVSPost2010Prop36
280
     0
102
RTVSPost2010PropOp36
 70
     1
102
RTVSPost2010Prop37
 90
       50
102
RTVSPost2010PropOp37
 70
     1
102
RTVSPost2010Prop38
140
0.0
102
RTVSPost2010PropOp38
 70
     1
102
RTVSPost2010Prop39
140
1.0
102
RTVSPost2010PropOp39
 70
     1
102
RTVSPost2010Prop40
 90
        0
102
RTVSPost2010PropOp40
 70
     1
102
RTVSPost2010Prop41ColorIndex
 90
       18
102
RTVSPost2010Prop41ColorRGB
 90
        0
102
RTVSPost2010PropOp41
 70
     1
102
RTVSPost2010Prop42
 90
       50
102
RTVSPost2010PropOp42
 70
     1
102
RTVSPost2010Prop43
 90
        3
102
RTVSPost2010PropOp43
 70
     1
102
RTVSPost2010Prop44ColorIndex
 90
        5
102
RTVSPost2010Prop44ColorRGB
 90
      255
102
RTVSPost2010PropOp44
 70
     1
102
RTVSPost2010Prop45
280
     0
102
RTVSPost2010PropOp45
 70
     1
102
RTVSPost2010Prop46
 90
       50
102
RTVSPost2010PropOp46
 70
     1
102
RTVSPost2010Prop47
 90
       50
102
RTVSPost2010PropOp47
 70
     1
102
RTVSPost2010Prop48
 90
       50
102
RTVSPost2010PropOp48
 70
     1
102
RTVSPost2010Prop49
280
     0
102
RTVSPost2010PropOp49
 70
     1
102
RTVSPost2010Prop50
 90
       50
102
RTVSPost2010PropOp50
 70
     1
102
RTVSPost2010Prop51ColorIndex
 90
      256
102
RTVSPost2010Prop51ColorRGB
 90
-16777216
102
RTVSPost2010PropOp51
 70
     0
102
RTVSPost2010Prop52
140
1.0
102
RTVSPost2010PropOp52
 70
     0
102
RTVSPost2010Prop53
 90
        2
102
RTVSPost2010PropOp53
 70
     1
102
RTVSPost2010Prop54
  1
strokes_ogs.tif
102
RTVSPost2010PropOp54
 70
     1
102
RTVSPost2010Prop55
280
     0
102
RTVSPost2010PropOp55
 70
     1
102
RTVSPost2010Prop56
140
1.0
102
RTVSPost2010PropOp56
 70
     1
102
RTVSPost2010Prop57
140
1.0
102
RTVSPost2010PropOp57
 70
     1
  0
XRECORD
  5
207D
102
{ACAD_REACTORS
330
207C
102
}
330
207C
100
AcDbXrecord
280
     1
102
RTVSPost2010Prop28
280
     0
102
RTVSPost2010PropOp28
 70
     1
102
RTVSPost2010Prop29
280
     1
102
RTVSPost2010PropOp29
 70
     1
102
RTVSPost2010Prop30
280
     1
102
RTVSPost2010PropOp30
 70
     1
102
RTVSPost2010Prop31
280
     0
102
RTVSPost2010PropOp31
 70
     1
102
RTVSPost2010Prop32
280
     0
102
RTVSPost2010PropOp32
 70
     1
102
RTVSPost2010Prop33
280
     0
102
RTVSPost2010PropOp33
 70
     1
102
RTVSPost2010Prop34
280
     0
102
RTVSPost2010PropOp34
 70
     1
102
RTVSPost2010Prop35
280
     0
102
RTVSPost2010PropOp35
 70
     1
102
RTVSPost2010Prop36
280
     0
102
RTVSPost2010PropOp36
 70
     1
102
RTVSPost2010Prop37
 90
       50
102
RTVSPost2010PropOp37
 70
     1
102
RTVSPost2010Prop38
140
0.0
102
RTVSPost2010PropOp38
 70
     1
102
RTVSPost2010Prop39
140
1.0
102
RTVSPost2010PropOp39
 70
     1
102
RTVSPost2010Prop40
 90
        0
102
RTVSPost2010PropOp40
 70
     1
102
RTVSPost2010Prop41ColorIndex
 90
       18
102
RTVSPost2010Prop41ColorRGB
 90
        0
102
RTVSPost2010PropOp41
 70
     1
102
RTVSPost2010Prop42
 90
       50
102
RTVSPost2010PropOp42
 70
     1
102
RTVSPost2010Prop43
 90
        3
102
RTVSPost2010PropOp43
 70
     1
102
RTVSPost2010Prop44ColorIndex
 90
        5
102
RTVSPost2010Prop44ColorRGB
 90
      255
102
RTVSPost2010PropOp44
 70
     1
102
RTVSPost2010Prop45
280
     0
102
RTVSPost2010PropOp45
 70
     1
102
RTVSPost2010Prop46
 90
       50
102
RTVSPost2010PropOp46
 70
     1
102
RTVSPost2010Prop47
 90
       50
102
RTVSPost2010PropOp47
 70
     1
102
RTVSPost2010Prop48
 90
       50
102
RTVSPost2010PropOp48
 70
     1
102
RTVSPost2010Prop49
280
     0
102
RTVSPost2010PropOp49
 70
     1
102
RTVSPost2010Prop50
 90
       50
102
RTVSPost2010PropOp50
 70
     1
102
RTVSPost2010Prop51ColorIndex
 90
      256
102
RTVSPost2010Prop51ColorRGB
 90
-16777216
102
RTVSPost2010PropOp51
 70
     0
102
RTVSPost2010Prop52
140
1.0
102
RTVSPost2010PropOp52
 70
     0
102
RTVSPost2010Prop53
 90
        2
102
RTVSPost2010PropOp53
 70
     1
102
RTVSPost2010Prop54
  1
strokes_ogs.tif
102
RTVSPost2010PropOp54
 70
     1
102
RTVSPost2010Prop55
280
     0
102
RTVSPost2010PropOp55
 70
     1
102
RTVSPost2010Prop56
140
1.0
102
RTVSPost2010PropOp56
 70
     1
102
RTVSPost2010Prop57
140
1.0
102
RTVSPost2010PropOp57
 70
     1
  0
XRECORD
  5
207F
102
{ACAD_REACTORS
330
207E
102
}
330
207E
100
AcDbXrecord
280
     1
102
RTVSPost2010Prop28
280
     0
102
RTVSPost2010PropOp28
 70
     1
102
RTVSPost2010Prop29
280
     1
102
RTVSPost2010PropOp29
 70
     1
102
RTVSPost2010Prop30
280
     1
102
RTVSPost2010PropOp30
 70
     1
102
RTVSPost2010Prop31
280
     0
102
RTVSPost2010PropOp31
 70
     1
102
RTVSPost2010Prop32
280
     0
102
RTVSPost2010PropOp32
 70
     1
102
RTVSPost2010Prop33
280
     0
102
RTVSPost2010PropOp33
 70
     1
102
RTVSPost2010Prop34
280
     0
102
RTVSPost2010PropOp34
 70
     1
102
RTVSPost2010Prop35
280
     0
102
RTVSPost2010PropOp35
 70
     1
102
RTVSPost2010Prop36
280
     0
102
RTVSPost2010PropOp36
 70
     1
102
RTVSPost2010Prop37
 90
       50
102
RTVSPost2010PropOp37
 70
     1
102
RTVSPost2010Prop38
140
0.0
102
RTVSPost2010PropOp38
 70
     1
102
RTVSPost2010Prop39
140
1.0
102
RTVSPost2010PropOp39
 70
     1
102
RTVSPost2010Prop40
 90
        0
102
RTVSPost2010PropOp40
 70
     1
102
RTVSPost2010Prop41ColorIndex
 90
       18
102
RTVSPost2010Prop41ColorRGB
 90
        0
102
RTVSPost2010PropOp41
 70
     1
102
RTVSPost2010Prop42
 90
       50
102
RTVSPost2010PropOp42
 70
     1
102
RTVSPost2010Prop43
 90
        3
102
RTVSPost2010PropOp43
 70
     1
102
RTVSPost2010Prop44ColorIndex
 90
        5
102
RTVSPost2010Prop44ColorRGB
 90
      255
102
RTVSPost2010PropOp44
 70
     1
102
RTVSPost2010Prop45
280
     0
102
RTVSPost2010PropOp45
 70
     1
102
RTVSPost2010Prop46
 90
       50
102
RTVSPost2010PropOp46
 70
     1
102
RTVSPost2010Prop47
 90
       50
102
RTVSPost2010PropOp47
 70
     1
102
RTVSPost2010Prop48
 90
       50
102
RTVSPost2010PropOp48
 70
     1
102
RTVSPost2010Prop49
280
     0
102
RTVSPost2010PropOp49
 70
     1
102
RTVSPost2010Prop50
 90
       50
102
RTVSPost2010PropOp50
 70
     1
102
RTVSPost2010Prop51ColorIndex
 90
      256
102
RTVSPost2010Prop51ColorRGB
 90
-16777216
102
RTVSPost2010PropOp51
 70
     0
102
RTVSPost2010Prop52
140
1.0
102
RTVSPost2010PropOp52
 70
     0
102
RTVSPost2010Prop53
 90
        2
102
RTVSPost2010PropOp53
 70
     1
102
RTVSPost2010Prop54
  1
strokes_ogs.tif
102
RTVSPost2010PropOp54
 70
     1
102
RTVSPost2010Prop55
280
     0
102
RTVSPost2010PropOp55
 70
     1
102
RTVSPost2010Prop56
140
1.0
102
RTVSPost2010PropOp56
 70
     1
102
RTVSPost2010Prop57
140
1.0
102
RTVSPost2010PropOp57
 70
     1
  0
XRECORD
  5
2081
102
{ACAD_REACTORS
330
2080
102
}
330
2080
100
AcDbXrecord
280
     1
102
RTVSPost2010Prop28
280
     0
102
RTVSPost2010PropOp28
 70
     1
102
RTVSPost2010Prop29
280
     1
102
RTVSPost2010PropOp29
 70
     1
102
RTVSPost2010Prop30
280
     1
102
RTVSPost2010PropOp30
 70
     1
102
RTVSPost2010Prop31
280
     0
102
RTVSPost2010PropOp31
 70
     1
102
RTVSPost2010Prop32
280
     0
102
RTVSPost2010PropOp32
 70
     1
102
RTVSPost2010Prop33
280
     0
102
RTVSPost2010PropOp33
 70
     1
102
RTVSPost2010Prop34
280
     0
102
RTVSPost2010PropOp34
 70
     1
102
RTVSPost2010Prop35
280
     0
102
RTVSPost2010PropOp35
 70
     1
102
RTVSPost2010Prop36
280
     0
102
RTVSPost2010PropOp36
 70
     1
102
RTVSPost2010Prop37
 90
       50
102
RTVSPost2010PropOp37
 70
     1
102
RTVSPost2010Prop38
140
0.0
102
RTVSPost2010PropOp38
 70
     1
102
RTVSPost2010Prop39
140
1.0
102
RTVSPost2010PropOp39
 70
     1
102
RTVSPost2010Prop40
 90
        0
102
RTVSPost2010PropOp40
 70
     1
102
RTVSPost2010Prop41ColorIndex
 90
       18
102
RTVSPost2010Prop41ColorRGB
 90
        0
102
RTVSPost2010PropOp41
 70
     1
102
RTVSPost2010Prop42
 90
       50
102
RTVSPost2010PropOp42
 70
     1
102
RTVSPost2010Prop43
 90
        3
102
RTVSPost2010PropOp43
 70
     1
102
RTVSPost2010Prop44ColorIndex
 90
        5
102
RTVSPost2010Prop44ColorRGB
 90
      255
102
RTVSPost2010PropOp44
 70
     1
102
RTVSPost2010Prop45
280
     0
102
RTVSPost2010PropOp45
 70
     1
102
RTVSPost2010Prop46
 90
       50
102
RTVSPost2010PropOp46
 70
     1
102
RTVSPost2010Prop47
 90
       50
102
RTVSPost2010PropOp47
 70
     1
102
RTVSPost2010Prop48
 90
       50
102
RTVSPost2010PropOp48
 70
     1
102
RTVSPost2010Prop49
280
     0
102
RTVSPost2010PropOp49
 70
     1
102
RTVSPost2010Prop50
 90
       50
102
RTVSPost2010PropOp50
 70
     1
102
RTVSPost2010Prop51ColorIndex
 90
      256
102
RTVSPost2010Prop51ColorRGB
 90
-16777216
102
RTVSPost2010PropOp51
 70
     0
102
RTVSPost2010Prop52
140
1.0
102
RTVSPost2010PropOp52
 70
     0
102
RTVSPost2010Prop53
 90
        2
102
RTVSPost2010PropOp53
 70
     1
102
RTVSPost2010Prop54
  1
strokes_ogs.tif
102
RTVSPost2010PropOp54
 70
     1
102
RTVSPost2010Prop55
280
     0
102
RTVSPost2010PropOp55
 70
     1
102
RTVSPost2010Prop56
140
1.0
102
RTVSPost2010PropOp56
 70
     1
102
RTVSPost2010Prop57
140
1.0
102
RTVSPost2010PropOp57
 70
     1
  0
XRECORD
  5
2083
102
{ACAD_REACTORS
330
2082
102
}
330
2082
100
AcDbXrecord
280
     1
102
RTVSPost2010Prop28
280
     0
102
RTVSPost2010PropOp28
 70
     1
102
RTVSPost2010Prop29
280
     1
102
RTVSPost2010PropOp29
 70
     1
102
RTVSPost2010Prop30
280
     1
102
RTVSPost2010PropOp30
 70
     1
102
RTVSPost2010Prop31
280
     0
102
RTVSPost2010PropOp31
 70
     1
102
RTVSPost2010Prop32
280
     0
102
RTVSPost2010PropOp32
 70
     1
102
RTVSPost2010Prop33
280
     0
102
RTVSPost2010PropOp33
 70
     1
102
RTVSPost2010Prop34
280
     0
102
RTVSPost2010PropOp34
 70
     1
102
RTVSPost2010Prop35
280
     0
102
RTVSPost2010PropOp35
 70
     1
102
RTVSPost2010Prop36
280
     0
102
RTVSPost2010PropOp36
 70
     1
102
RTVSPost2010Prop37
 90
       50
102
RTVSPost2010PropOp37
 70
     1
102
RTVSPost2010Prop38
140
0.0
102
RTVSPost2010PropOp38
 70
     1
102
RTVSPost2010Prop39
140
1.0
102
RTVSPost2010PropOp39
 70
     1
102
RTVSPost2010Prop40
 90
        0
102
RTVSPost2010PropOp40
 70
     1
102
RTVSPost2010Prop41ColorIndex
 90
       18
102
RTVSPost2010Prop41ColorRGB
 90
        0
102
RTVSPost2010PropOp41
 70
     1
102
RTVSPost2010Prop42
 90
       50
102
RTVSPost2010PropOp42
 70
     1
102
RTVSPost2010Prop43
 90
        3
102
RTVSPost2010PropOp43
 70
     1
102
RTVSPost2010Prop44ColorIndex
 90
        5
102
RTVSPost2010Prop44ColorRGB
 90
      255
102
RTVSPost2010PropOp44
 70
     1
102
RTVSPost2010Prop45
280
     0
102
RTVSPost2010PropOp45
 70
     1
102
RTVSPost2010Prop46
 90
       50
102
RTVSPost2010PropOp46
 70
     1
102
RTVSPost2010Prop47
 90
       50
102
RTVSPost2010PropOp47
 70
     1
102
RTVSPost2010Prop48
 90
       50
102
RTVSPost2010PropOp48
 70
     1
102
RTVSPost2010Prop49
280
     0
102
RTVSPost2010PropOp49
 70
     1
102
RTVSPost2010Prop50
 90
       50
102
RTVSPost2010PropOp50
 70
     1
102
RTVSPost2010Prop51ColorIndex
 90
      256
102
RTVSPost2010Prop51ColorRGB
 90
-16777216
102
RTVSPost2010PropOp51
 70
     0
102
RTVSPost2010Prop52
140
1.0
102
RTVSPost2010PropOp52
 70
     0
102
RTVSPost2010Prop53
 90
        2
102
RTVSPost2010PropOp53
 70
     1
102
RTVSPost2010Prop54
  1
strokes_ogs.tif
102
RTVSPost2010PropOp54
 70
     1
102
RTVSPost2010Prop55
280
     0
102
RTVSPost2010PropOp55
 70
     1
102
RTVSPost2010Prop56
140
1.0
102
RTVSPost2010PropOp56
 70
     1
102
RTVSPost2010Prop57
140
1.0
102
RTVSPost2010PropOp57
 70
     1
  0
XRECORD
  5
2085
102
{ACAD_REACTORS
330
2084
102
}
330
2084
100
AcDbXrecord
280
     1
102
RTVSPost2010Prop28
280
     0
102
RTVSPost2010PropOp28
 70
     1
102
RTVSPost2010Prop29
280
     1
102
RTVSPost2010PropOp29
 70
     1
102
RTVSPost2010Prop30
280
     1
102
RTVSPost2010PropOp30
 70
     1
102
RTVSPost2010Prop31
280
     0
102
RTVSPost2010PropOp31
 70
     1
102
RTVSPost2010Prop32
280
     0
102
RTVSPost2010PropOp32
 70
     1
102
RTVSPost2010Prop33
280
     0
102
RTVSPost2010PropOp33
 70
     1
102
RTVSPost2010Prop34
280
     0
102
RTVSPost2010PropOp34
 70
     1
102
RTVSPost2010Prop35
280
     0
102
RTVSPost2010PropOp35
 70
     1
102
RTVSPost2010Prop36
280
     0
102
RTVSPost2010PropOp36
 70
     1
102
RTVSPost2010Prop37
 90
       50
102
RTVSPost2010PropOp37
 70
     1
102
RTVSPost2010Prop38
140
0.0
102
RTVSPost2010PropOp38
 70
     1
102
RTVSPost2010Prop39
140
1.0
102
RTVSPost2010PropOp39
 70
     1
102
RTVSPost2010Prop40
 90
        0
102
RTVSPost2010PropOp40
 70
     1
102
RTVSPost2010Prop41ColorIndex
 90
       18
102
RTVSPost2010Prop41ColorRGB
 90
        0
102
RTVSPost2010PropOp41
 70
     1
102
RTVSPost2010Prop42
 90
       50
102
RTVSPost2010PropOp42
 70
     1
102
RTVSPost2010Prop43
 90
        3
102
RTVSPost2010PropOp43
 70
     1
102
RTVSPost2010Prop44ColorIndex
 90
        5
102
RTVSPost2010Prop44ColorRGB
 90
      255
102
RTVSPost2010PropOp44
 70
     1
102
RTVSPost2010Prop45
280
     0
102
RTVSPost2010PropOp45
 70
     1
102
RTVSPost2010Prop46
 90
       50
102
RTVSPost2010PropOp46
 70
     1
102
RTVSPost2010Prop47
 90
       50
102
RTVSPost2010PropOp47
 70
     1
102
RTVSPost2010Prop48
 90
       50
102
RTVSPost2010PropOp48
 70
     1
102
RTVSPost2010Prop49
280
     0
102
RTVSPost2010PropOp49
 70
     1
102
RTVSPost2010Prop50
 90
       50
102
RTVSPost2010PropOp50
 70
     1
102
RTVSPost2010Prop51ColorIndex
 90
      256
102
RTVSPost2010Prop51ColorRGB
 90
-16777216
102
RTVSPost2010PropOp51
 70
     0
102
RTVSPost2010Prop52
140
1.0
102
RTVSPost2010PropOp52
 70
     0
102
RTVSPost2010Prop53
 90
        2
102
RTVSPost2010PropOp53
 70
     1
102
RTVSPost2010Prop54
  1
strokes_ogs.tif
102
RTVSPost2010PropOp54
 70
     1
102
RTVSPost2010Prop55
280
     0
102
RTVSPost2010PropOp55
 70
     1
102
RTVSPost2010Prop56
140
1.0
102
RTVSPost2010PropOp56
 70
     1
102
RTVSPost2010Prop57
140
1.0
102
RTVSPost2010PropOp57
 70
     1
  0
XRECORD
  5
209F
102
{ACAD_REACTORS
330
209E
102
}
330
209E
100
AcDbXrecord
280
     1
102
RTVSPost2010Prop28
280
     0
102
RTVSPost2010PropOp28
 70
     0
102
RTVSPost2010Prop29
280
     1
102
RTVSPost2010PropOp29
 70
     0
102
RTVSPost2010Prop30
280
     1
102
RTVSPost2010PropOp30
 70
     0
102
RTVSPost2010Prop31
280
     0
102
RTVSPost2010PropOp31
 70
     0
102
RTVSPost2010Prop32
280
     0
102
RTVSPost2010PropOp32
 70
     0
102
RTVSPost2010Prop33
280
     0
102
RTVSPost2010PropOp33
 70
     0
102
RTVSPost2010Prop34
280
     0
102
RTVSPost2010PropOp34
 70
     0
102
RTVSPost2010Prop35
280
     0
102
RTVSPost2010PropOp35
 70
     0
102
RTVSPost2010Prop36
280
     0
102
RTVSPost2010PropOp36
 70
     0
102
RTVSPost2010Prop37
 90
       50
102
RTVSPost2010PropOp37
 70
     0
102
RTVSPost2010Prop38
140
0.0
102
RTVSPost2010PropOp38
 70
     0
102
RTVSPost2010Prop39
140
1.0
102
RTVSPost2010PropOp39
 70
     0
102
RTVSPost2010Prop40
 90
        0
102
RTVSPost2010PropOp40
 70
     0
102
RTVSPost2010Prop41ColorIndex
 90
       18
102
RTVSPost2010Prop41ColorRGB
 90
        0
102
RTVSPost2010PropOp41
 70
     0
102
RTVSPost2010Prop42
 90
       50
102
RTVSPost2010PropOp42
 70
     0
102
RTVSPost2010Prop43
 90
        3
102
RTVSPost2010PropOp43
 70
     0
102
RTVSPost2010Prop44ColorIndex
 90
        5
102
RTVSPost2010Prop44ColorRGB
 90
      255
102
RTVSPost2010PropOp44
 70
     0
102
RTVSPost2010Prop45
280
     0
102
RTVSPost2010PropOp45
 70
     0
102
RTVSPost2010Prop46
 90
       50
102
RTVSPost2010PropOp46
 70
     0
102
RTVSPost2010Prop47
 90
       50
102
RTVSPost2010PropOp47
 70
     0
102
RTVSPost2010Prop48
 90
       50
102
RTVSPost2010PropOp48
 70
     0
102
RTVSPost2010Prop49
280
     0
102
RTVSPost2010PropOp49
 70
     0
102
RTVSPost2010Prop50
 90
       50
102
RTVSPost2010PropOp50
 70
     0
102
RTVSPost2010Prop51ColorIndex
 90
      256
102
RTVSPost2010Prop51ColorRGB
 90
-16777216
102
RTVSPost2010PropOp51
 70
     0
102
RTVSPost2010Prop52
140
1.0
102
RTVSPost2010PropOp52
 70
     0
102
RTVSPost2010Prop53
 90
        2
102
RTVSPost2010PropOp53
 70
     0
102
RTVSPost2010Prop54
  1
strokes_ogs.tif
102
RTVSPost2010PropOp54
 70
     0
102
RTVSPost2010Prop55
280
     0
102
RTVSPost2010PropOp55
 70
     0
102
RTVSPost2010Prop56
140
1.0
102
RTVSPost2010PropOp56
 70
     0
102
RTVSPost2010Prop57
140
1.0
102
RTVSPost2010PropOp57
 70
     0
  0
XRECORD
  5
2087
102
{ACAD_REACTORS
330
2086
102
}
330
2086
100
AcDbXrecord
280
     1
102
RTVSPost2010Prop28
280
     0
102
RTVSPost2010PropOp28
 70
     1
102
RTVSPost2010Prop29
280
     1
102
RTVSPost2010PropOp29
 70
     1
102
RTVSPost2010Prop30
280
     1
102
RTVSPost2010PropOp30
 70
     1
102
RTVSPost2010Prop31
280
     0
102
RTVSPost2010PropOp31
 70
     1
102
RTVSPost2010Prop32
280
     0
102
RTVSPost2010PropOp32
 70
     1
102
RTVSPost2010Prop33
280
     0
102
RTVSPost2010PropOp33
 70
     1
102
RTVSPost2010Prop34
280
     0
102
RTVSPost2010PropOp34
 70
     1
102
RTVSPost2010Prop35
280
     0
102
RTVSPost2010PropOp35
 70
     1
102
RTVSPost2010Prop36
280
     0
102
RTVSPost2010PropOp36
 70
     1
102
RTVSPost2010Prop37
 90
       50
102
RTVSPost2010PropOp37
 70
     1
102
RTVSPost2010Prop38
140
0.0
102
RTVSPost2010PropOp38
 70
     1
102
RTVSPost2010Prop39
140
1.0
102
RTVSPost2010PropOp39
 70
     1
102
RTVSPost2010Prop40
 90
        0
102
RTVSPost2010PropOp40
 70
     1
102
RTVSPost2010Prop41ColorIndex
 90
       18
102
RTVSPost2010Prop41ColorRGB
 90
        0
102
RTVSPost2010PropOp41
 70
     1
102
RTVSPost2010Prop42
 90
       50
102
RTVSPost2010PropOp42
 70
     1
102
RTVSPost2010Prop43
 90
        3
102
RTVSPost2010PropOp43
 70
     1
102
RTVSPost2010Prop44ColorIndex
 90
        5
102
RTVSPost2010Prop44ColorRGB
 90
      255
102
RTVSPost2010PropOp44
 70
     1
102
RTVSPost2010Prop45
280
     0
102
RTVSPost2010PropOp45
 70
     1
102
RTVSPost2010Prop46
 90
       50
102
RTVSPost2010PropOp46
 70
     1
102
RTVSPost2010Prop47
 90
       50
102
RTVSPost2010PropOp47
 70
     1
102
RTVSPost2010Prop48
 90
       50
102
RTVSPost2010PropOp48
 70
     1
102
RTVSPost2010Prop49
280
     0
102
RTVSPost2010PropOp49
 70
     1
102
RTVSPost2010Prop50
 90
       50
102
RTVSPost2010PropOp50
 70
     1
102
RTVSPost2010Prop51ColorIndex
 90
      256
102
RTVSPost2010Prop51ColorRGB
 90
-16777216
102
RTVSPost2010PropOp51
 70
     0
102
RTVSPost2010Prop52
140
1.0
102
RTVSPost2010PropOp52
 70
     0
102
RTVSPost2010Prop53
 90
        2
102
RTVSPost2010PropOp53
 70
     1
102
RTVSPost2010Prop54
  1
strokes_ogs.tif
102
RTVSPost2010PropOp54
 70
     1
102
RTVSPost2010Prop55
280
     0
102
RTVSPost2010PropOp55
 70
     1
102
RTVSPost2010Prop56
140
1.0
102
RTVSPost2010PropOp56
 70
     1
102
RTVSPost2010Prop57
140
1.0
102
RTVSPost2010PropOp57
 70
     1
  0
XRECORD
  5
2089
102
{ACAD_REACTORS
330
2088
102
}
330
2088
100
AcDbXrecord
280
     1
102
RTVSPost2010Prop28
280
     0
102
RTVSPost2010PropOp28
 70
     1
102
RTVSPost2010Prop29
280
     1
102
RTVSPost2010PropOp29
 70
     1
102
RTVSPost2010Prop30
280
     1
102
RTVSPost2010PropOp30
 70
     1
102
RTVSPost2010Prop31
280
     0
102
RTVSPost2010PropOp31
 70
     1
102
RTVSPost2010Prop32
280
     0
102
RTVSPost2010PropOp32
 70
     1
102
RTVSPost2010Prop33
280
     0
102
RTVSPost2010PropOp33
 70
     1
102
RTVSPost2010Prop34
280
     0
102
RTVSPost2010PropOp34
 70
     1
102
RTVSPost2010Prop35
280
     0
102
RTVSPost2010PropOp35
 70
     1
102
RTVSPost2010Prop36
280
     0
102
RTVSPost2010PropOp36
 70
     1
102
RTVSPost2010Prop37
 90
       50
102
RTVSPost2010PropOp37
 70
     1
102
RTVSPost2010Prop38
140
0.0
102
RTVSPost2010PropOp38
 70
     1
102
RTVSPost2010Prop39
140
1.0
102
RTVSPost2010PropOp39
 70
     1
102
RTVSPost2010Prop40
 90
        0
102
RTVSPost2010PropOp40
 70
     1
102
RTVSPost2010Prop41ColorIndex
 90
       18
102
RTVSPost2010Prop41ColorRGB
 90
        0
102
RTVSPost2010PropOp41
 70
     1
102
RTVSPost2010Prop42
 90
       50
102
RTVSPost2010PropOp42
 70
     1
102
RTVSPost2010Prop43
 90
        3
102
RTVSPost2010PropOp43
 70
     1
102
RTVSPost2010Prop44ColorIndex
 90
        5
102
RTVSPost2010Prop44ColorRGB
 90
      255
102
RTVSPost2010PropOp44
 70
     1
102
RTVSPost2010Prop45
280
     0
102
RTVSPost2010PropOp45
 70
     1
102
RTVSPost2010Prop46
 90
       50
102
RTVSPost2010PropOp46
 70
     1
102
RTVSPost2010Prop47
 90
       50
102
RTVSPost2010PropOp47
 70
     1
102
RTVSPost2010Prop48
 90
       50
102
RTVSPost2010PropOp48
 70
     1
102
RTVSPost2010Prop49
280
     0
102
RTVSPost2010PropOp49
 70
     1
102
RTVSPost2010Prop50
 90
       50
102
RTVSPost2010PropOp50
 70
     1
102
RTVSPost2010Prop51ColorIndex
 90
      256
102
RTVSPost2010Prop51ColorRGB
 90
-16777216
102
RTVSPost2010PropOp51
 70
     0
102
RTVSPost2010Prop52
140
1.0
102
RTVSPost2010PropOp52
 70
     0
102
RTVSPost2010Prop53
 90
        2
102
RTVSPost2010PropOp53
 70
     1
102
RTVSPost2010Prop54
  1
strokes_ogs.tif
102
RTVSPost2010PropOp54
 70
     1
102
RTVSPost2010Prop55
280
     0
102
RTVSPost2010PropOp55
 70
     1
102
RTVSPost2010Prop56
140
1.0
102
RTVSPost2010PropOp56
 70
     1
102
RTVSPost2010Prop57
140
1.0
102
RTVSPost2010PropOp57
 70
     1
  0
XRECORD
  5
208B
102
{ACAD_REACTORS
330
208A
102
}
330
208A
100
AcDbXrecord
280
     1
102
RTVSPost2010Prop28
280
     0
102
RTVSPost2010PropOp28
 70
     1
102
RTVSPost2010Prop29
280
     1
102
RTVSPost2010PropOp29
 70
     1
102
RTVSPost2010Prop30
280
     1
102
RTVSPost2010PropOp30
 70
     1
102
RTVSPost2010Prop31
280
     0
102
RTVSPost2010PropOp31
 70
     1
102
RTVSPost2010Prop32
280
     0
102
RTVSPost2010PropOp32
 70
     1
102
RTVSPost2010Prop33
280
     0
102
RTVSPost2010PropOp33
 70
     1
102
RTVSPost2010Prop34
280
     0
102
RTVSPost2010PropOp34
 70
     1
102
RTVSPost2010Prop35
280
     0
102
RTVSPost2010PropOp35
 70
     1
102
RTVSPost2010Prop36
280
     0
102
RTVSPost2010PropOp36
 70
     1
102
RTVSPost2010Prop37
 90
       50
102
RTVSPost2010PropOp37
 70
     1
102
RTVSPost2010Prop38
140
0.0
102
RTVSPost2010PropOp38
 70
     1
102
RTVSPost2010Prop39
140
1.0
102
RTVSPost2010PropOp39
 70
     1
102
RTVSPost2010Prop40
 90
        0
102
RTVSPost2010PropOp40
 70
     1
102
RTVSPost2010Prop41ColorIndex
 90
       18
102
RTVSPost2010Prop41ColorRGB
 90
        0
102
RTVSPost2010PropOp41
 70
     1
102
RTVSPost2010Prop42
 90
       50
102
RTVSPost2010PropOp42
 70
     1
102
RTVSPost2010Prop43
 90
        3
102
RTVSPost2010PropOp43
 70
     1
102
RTVSPost2010Prop44ColorIndex
 90
        5
102
RTVSPost2010Prop44ColorRGB
 90
      255
102
RTVSPost2010PropOp44
 70
     1
102
RTVSPost2010Prop45
280
     0
102
RTVSPost2010PropOp45
 70
     1
102
RTVSPost2010Prop46
 90
       50
102
RTVSPost2010PropOp46
 70
     1
102
RTVSPost2010Prop47
 90
       50
102
RTVSPost2010PropOp47
 70
     1
102
RTVSPost2010Prop48
 90
       50
102
RTVSPost2010PropOp48
 70
     1
102
RTVSPost2010Prop49
280
     0
102
RTVSPost2010PropOp49
 70
     1
102
RTVSPost2010Prop50
 90
       50
102
RTVSPost2010PropOp50
 70
     1
102
RTVSPost2010Prop51ColorIndex
 90
      256
102
RTVSPost2010Prop51ColorRGB
 90
-16777216
102
RTVSPost2010PropOp51
 70
     0
102
RTVSPost2010Prop52
140
1.0
102
RTVSPost2010PropOp52
 70
     0
102
RTVSPost2010Prop53
 90
        2
102
RTVSPost2010PropOp53
 70
     1
102
RTVSPost2010Prop54
  1
strokes_ogs.tif
102
RTVSPost2010PropOp54
 70
     1
102
RTVSPost2010Prop55
280
     0
102
RTVSPost2010PropOp55
 70
     1
102
RTVSPost2010Prop56
140
1.0
102
RTVSPost2010PropOp56
 70
     1
102
RTVSPost2010Prop57
140
1.0
102
RTVSPost2010PropOp57
 70
     1
  0
XRECORD
  5
208D
102
{ACAD_REACTORS
330
208C
102
}
330
208C
100
AcDbXrecord
280
     1
102
RTVSPost2010Prop28
280
     0
102
RTVSPost2010PropOp28
 70
     1
102
RTVSPost2010Prop29
280
     1
102
RTVSPost2010PropOp29
 70
     1
102
RTVSPost2010Prop30
280
     1
102
RTVSPost2010PropOp30
 70
     1
102
RTVSPost2010Prop31
280
     0
102
RTVSPost2010PropOp31
 70
     1
102
RTVSPost2010Prop32
280
     0
102
RTVSPost2010PropOp32
 70
     1
102
RTVSPost2010Prop33
280
     0
102
RTVSPost2010PropOp33
 70
     1
102
RTVSPost2010Prop34
280
     0
102
RTVSPost2010PropOp34
 70
     1
102
RTVSPost2010Prop35
280
     0
102
RTVSPost2010PropOp35
 70
     1
102
RTVSPost2010Prop36
280
     0
102
RTVSPost2010PropOp36
 70
     1
102
RTVSPost2010Prop37
 90
       50
102
RTVSPost2010PropOp37
 70
     1
102
RTVSPost2010Prop38
140
0.0
102
RTVSPost2010PropOp38
 70
     1
102
RTVSPost2010Prop39
140
1.0
102
RTVSPost2010PropOp39
 70
     1
102
RTVSPost2010Prop40
 90
        0
102
RTVSPost2010PropOp40
 70
     1
102
RTVSPost2010Prop41ColorIndex
 90
       18
102
RTVSPost2010Prop41ColorRGB
 90
        0
102
RTVSPost2010PropOp41
 70
     1
102
RTVSPost2010Prop42
 90
       50
102
RTVSPost2010PropOp42
 70
     1
102
RTVSPost2010Prop43
 90
        3
102
RTVSPost2010PropOp43
 70
     1
102
RTVSPost2010Prop44ColorIndex
 90
        5
102
RTVSPost2010Prop44ColorRGB
 90
      255
102
RTVSPost2010PropOp44
 70
     1
102
RTVSPost2010Prop45
280
     0
102
RTVSPost2010PropOp45
 70
     1
102
RTVSPost2010Prop46
 90
       50
102
RTVSPost2010PropOp46
 70
     1
102
RTVSPost2010Prop47
 90
       50
102
RTVSPost2010PropOp47
 70
     1
102
RTVSPost2010Prop48
 90
       50
102
RTVSPost2010PropOp48
 70
     1
102
RTVSPost2010Prop49
280
     0
102
RTVSPost2010PropOp49
 70
     1
102
RTVSPost2010Prop50
 90
       50
102
RTVSPost2010PropOp50
 70
     1
102
RTVSPost2010Prop51ColorIndex
 90
      256
102
RTVSPost2010Prop51ColorRGB
 90
-16777216
102
RTVSPost2010PropOp51
 70
     0
102
RTVSPost2010Prop52
140
1.0
102
RTVSPost2010PropOp52
 70
     0
102
RTVSPost2010Prop53
 90
        2
102
RTVSPost2010PropOp53
 70
     1
102
RTVSPost2010Prop54
  1
strokes_ogs.tif
102
RTVSPost2010PropOp54
 70
     1
102
RTVSPost2010Prop55
280
     0
102
RTVSPost2010PropOp55
 70
     1
102
RTVSPost2010Prop56
140
1.0
102
RTVSPost2010PropOp56
 70
     1
102
RTVSPost2010Prop57
140
1.0
102
RTVSPost2010PropOp57
 70
     1
  0
XRECORD
  5
208F
102
{ACAD_REACTORS
330
208E
102
}
330
208E
100
AcDbXrecord
280
     1
102
RTVSPost2010Prop28
280
     0
102
RTVSPost2010PropOp28
 70
     1
102
RTVSPost2010Prop29
280
     1
102
RTVSPost2010PropOp29
 70
     1
102
RTVSPost2010Prop30
280
     1
102
RTVSPost2010PropOp30
 70
     1
102
RTVSPost2010Prop31
280
     0
102
RTVSPost2010PropOp31
 70
     1
102
RTVSPost2010Prop32
280
     0
102
RTVSPost2010PropOp32
 70
     1
102
RTVSPost2010Prop33
280
     0
102
RTVSPost2010PropOp33
 70
     1
102
RTVSPost2010Prop34
280
     0
102
RTVSPost2010PropOp34
 70
     1
102
RTVSPost2010Prop35
280
     0
102
RTVSPost2010PropOp35
 70
     1
102
RTVSPost2010Prop36
280
     0
102
RTVSPost2010PropOp36
 70
     1
102
RTVSPost2010Prop37
 90
       50
102
RTVSPost2010PropOp37
 70
     1
102
RTVSPost2010Prop38
140
0.0
102
RTVSPost2010PropOp38
 70
     1
102
RTVSPost2010Prop39
140
1.0
102
RTVSPost2010PropOp39
 70
     1
102
RTVSPost2010Prop40
 90
        0
102
RTVSPost2010PropOp40
 70
     1
102
RTVSPost2010Prop41ColorIndex
 90
       18
102
RTVSPost2010Prop41ColorRGB
 90
        0
102
RTVSPost2010PropOp41
 70
     1
102
RTVSPost2010Prop42
 90
       50
102
RTVSPost2010PropOp42
 70
     1
102
RTVSPost2010Prop43
 90
        3
102
RTVSPost2010PropOp43
 70
     1
102
RTVSPost2010Prop44ColorIndex
 90
        5
102
RTVSPost2010Prop44ColorRGB
 90
      255
102
RTVSPost2010PropOp44
 70
     1
102
RTVSPost2010Prop45
280
     0
102
RTVSPost2010PropOp45
 70
     1
102
RTVSPost2010Prop46
 90
       50
102
RTVSPost2010PropOp46
 70
     1
102
RTVSPost2010Prop47
 90
       50
102
RTVSPost2010PropOp47
 70
     1
102
RTVSPost2010Prop48
 90
       50
102
RTVSPost2010PropOp48
 70
     1
102
RTVSPost2010Prop49
280
     0
102
RTVSPost2010PropOp49
 70
     1
102
RTVSPost2010Prop50
 90
       50
102
RTVSPost2010PropOp50
 70
     1
102
RTVSPost2010Prop51ColorIndex
 90
      256
102
RTVSPost2010Prop51ColorRGB
 90
-16777216
102
RTVSPost2010PropOp51
 70
     0
102
RTVSPost2010Prop52
140
1.0
102
RTVSPost2010PropOp52
 70
     0
102
RTVSPost2010Prop53
 90
        2
102
RTVSPost2010PropOp53
 70
     1
102
RTVSPost2010Prop54
  1
strokes_ogs.tif
102
RTVSPost2010PropOp54
 70
     1
102
RTVSPost2010Prop55
280
     0
102
RTVSPost2010PropOp55
 70
     1
102
RTVSPost2010Prop56
140
1.0
102
RTVSPost2010PropOp56
 70
     1
102
RTVSPost2010Prop57
140
1.0
102
RTVSPost2010PropOp57
 70
     1
  0
XRECORD
  5
2099
102
{ACAD_REACTORS
330
2098
102
}
330
2098
100
AcDbXrecord
280
     1
102
RTVSPost2010Prop28
280
     0
102
RTVSPost2010PropOp28
 70
     1
102
RTVSPost2010Prop29
280
     1
102
RTVSPost2010PropOp29
 70
     1
102
RTVSPost2010Prop30
280
     1
102
RTVSPost2010PropOp30
 70
     1
102
RTVSPost2010Prop31
280
     0
102
RTVSPost2010PropOp31
 70
     1
102
RTVSPost2010Prop32
280
     0
102
RTVSPost2010PropOp32
 70
     1
102
RTVSPost2010Prop33
280
     0
102
RTVSPost2010PropOp33
 70
     1
102
RTVSPost2010Prop34
280
     0
102
RTVSPost2010PropOp34
 70
     1
102
RTVSPost2010Prop35
280
     0
102
RTVSPost2010PropOp35
 70
     1
102
RTVSPost2010Prop36
280
     0
102
RTVSPost2010PropOp36
 70
     1
102
RTVSPost2010Prop37
 90
       50
102
RTVSPost2010PropOp37
 70
     1
102
RTVSPost2010Prop38
140
0.0
102
RTVSPost2010PropOp38
 70
     1
102
RTVSPost2010Prop39
140
1.0
102
RTVSPost2010PropOp39
 70
     1
102
RTVSPost2010Prop40
 90
        0
102
RTVSPost2010PropOp40
 70
     1
102
RTVSPost2010Prop41ColorIndex
 90
       18
102
RTVSPost2010Prop41ColorRGB
 90
        0
102
RTVSPost2010PropOp41
 70
     1
102
RTVSPost2010Prop42
 90
       50
102
RTVSPost2010PropOp42
 70
     1
102
RTVSPost2010Prop43
 90
        3
102
RTVSPost2010PropOp43
 70
     1
102
RTVSPost2010Prop44ColorIndex
 90
        5
102
RTVSPost2010Prop44ColorRGB
 90
      255
102
RTVSPost2010PropOp44
 70
     1
102
RTVSPost2010Prop45
280
     0
102
RTVSPost2010PropOp45
 70
     1
102
RTVSPost2010Prop46
 90
       50
102
RTVSPost2010PropOp46
 70
     1
102
RTVSPost2010Prop47
 90
       50
102
RTVSPost2010PropOp47
 70
     1
102
RTVSPost2010Prop48
 90
       50
102
RTVSPost2010PropOp48
 70
     1
102
RTVSPost2010Prop49
280
     0
102
RTVSPost2010PropOp49
 70
     1
102
RTVSPost2010Prop50
 90
       50
102
RTVSPost2010PropOp50
 70
     1
102
RTVSPost2010Prop51ColorIndex
 90
      256
102
RTVSPost2010Prop51ColorRGB
 90
-16777216
102
RTVSPost2010PropOp51
 70
     0
102
RTVSPost2010Prop52
140
1.0
102
RTVSPost2010PropOp52
 70
     0
102
RTVSPost2010Prop53
 90
        2
102
RTVSPost2010PropOp53
 70
     1
102
RTVSPost2010Prop54
  1
strokes_ogs.tif
102
RTVSPost2010PropOp54
 70
     1
102
RTVSPost2010Prop55
280
     0
102
RTVSPost2010PropOp55
 70
     1
102
RTVSPost2010Prop56
140
1.0
102
RTVSPost2010PropOp56
 70
     1
102
RTVSPost2010Prop57
140
1.0
102
RTVSPost2010PropOp57
 70
     1
  0
XRECORD
  5
209B
102
{ACAD_REACTORS
330
209A
102
}
330
209A
100
AcDbXrecord
280
     1
102
RTVSPost2010Prop28
280
     0
102
RTVSPost2010PropOp28
 70
     0
102
RTVSPost2010Prop29
280
     1
102
RTVSPost2010PropOp29
 70
     0
102
RTVSPost2010Prop30
280
     1
102
RTVSPost2010PropOp30
 70
     0
102
RTVSPost2010Prop31
280
     0
102
RTVSPost2010PropOp31
 70
     0
102
RTVSPost2010Prop32
280
     0
102
RTVSPost2010PropOp32
 70
     0
102
RTVSPost2010Prop33
280
     0
102
RTVSPost2010PropOp33
 70
     0
102
RTVSPost2010Prop34
280
     0
102
RTVSPost2010PropOp34
 70
     0
102
RTVSPost2010Prop35
280
     0
102
RTVSPost2010PropOp35
 70
     0
102
RTVSPost2010Prop36
280
     0
102
RTVSPost2010PropOp36
 70
     0
102
RTVSPost2010Prop37
 90
       50
102
RTVSPost2010PropOp37
 70
     0
102
RTVSPost2010Prop38
140
0.0
102
RTVSPost2010PropOp38
 70
     0
102
RTVSPost2010Prop39
140
1.0
102
RTVSPost2010PropOp39
 70
     0
102
RTVSPost2010Prop40
 90
        0
102
RTVSPost2010PropOp40
 70
     0
102
RTVSPost2010Prop41ColorIndex
 90
       18
102
RTVSPost2010Prop41ColorRGB
 90
        0
102
RTVSPost2010PropOp41
 70
     0
102
RTVSPost2010Prop42
 90
       50
102
RTVSPost2010PropOp42
 70
     0
102
RTVSPost2010Prop43
 90
        3
102
RTVSPost2010PropOp43
 70
     0
102
RTVSPost2010Prop44ColorIndex
 90
        5
102
RTVSPost2010Prop44ColorRGB
 90
      255
102
RTVSPost2010PropOp44
 70
     0
102
RTVSPost2010Prop45
280
     0
102
RTVSPost2010PropOp45
 70
     0
102
RTVSPost2010Prop46
 90
       50
102
RTVSPost2010PropOp46
 70
     0
102
RTVSPost2010Prop47
 90
       50
102
RTVSPost2010PropOp47
 70
     0
102
RTVSPost2010Prop48
 90
       50
102
RTVSPost2010PropOp48
 70
     0
102
RTVSPost2010Prop49
280
     0
102
RTVSPost2010PropOp49
 70
     0
102
RTVSPost2010Prop50
 90
       50
102
RTVSPost2010PropOp50
 70
     0
102
RTVSPost2010Prop51ColorIndex
 90
      256
102
RTVSPost2010Prop51ColorRGB
 90
-16777216
102
RTVSPost2010PropOp51
 70
     0
102
RTVSPost2010Prop52
140
1.0
102
RTVSPost2010PropOp52
 70
     0
102
RTVSPost2010Prop53
 90
        2
102
RTVSPost2010PropOp53
 70
     0
102
RTVSPost2010Prop54
  1
strokes_ogs.tif
102
RTVSPost2010PropOp54
 70
     0
102
RTVSPost2010Prop55
280
     0
102
RTVSPost2010PropOp55
 70
     0
102
RTVSPost2010Prop56
140
1.0
102
RTVSPost2010PropOp56
 70
     0
102
RTVSPost2010Prop57
140
1.0
102
RTVSPost2010PropOp57
 70
     0
  0
XRECORD
  5
2091
102
{ACAD_REACTORS
330
2090
102
}
330
2090
100
AcDbXrecord
280
     1
102
RTVSPost2010Prop28
280
     0
102
RTVSPost2010PropOp28
 70
     1
102
RTVSPost2010Prop29
280
     1
102
RTVSPost2010PropOp29
 70
     1
102
RTVSPost2010Prop30
280
     1
102
RTVSPost2010PropOp30
 70
     1
102
RTVSPost2010Prop31
280
     0
102
RTVSPost2010PropOp31
 70
     1
102
RTVSPost2010Prop32
280
     0
102
RTVSPost2010PropOp32
 70
     1
102
RTVSPost2010Prop33
280
     0
102
RTVSPost2010PropOp33
 70
     1
102
RTVSPost2010Prop34
280
     0
102
RTVSPost2010PropOp34
 70
     1
102
RTVSPost2010Prop35
280
     0
102
RTVSPost2010PropOp35
 70
     1
102
RTVSPost2010Prop36
280
     0
102
RTVSPost2010PropOp36
 70
     1
102
RTVSPost2010Prop37
 90
       50
102
RTVSPost2010PropOp37
 70
     1
102
RTVSPost2010Prop38
140
0.0
102
RTVSPost2010PropOp38
 70
     1
102
RTVSPost2010Prop39
140
1.0
102
RTVSPost2010PropOp39
 70
     1
102
RTVSPost2010Prop40
 90
        0
102
RTVSPost2010PropOp40
 70
     1
102
RTVSPost2010Prop41ColorIndex
 90
       18
102
RTVSPost2010Prop41ColorRGB
 90
        0
102
RTVSPost2010PropOp41
 70
     1
102
RTVSPost2010Prop42
 90
       50
102
RTVSPost2010PropOp42
 70
     1
102
RTVSPost2010Prop43
 90
        3
102
RTVSPost2010PropOp43
 70
     1
102
RTVSPost2010Prop44ColorIndex
 90
        5
102
RTVSPost2010Prop44ColorRGB
 90
      255
102
RTVSPost2010PropOp44
 70
     1
102
RTVSPost2010Prop45
280
     0
102
RTVSPost2010PropOp45
 70
     1
102
RTVSPost2010Prop46
 90
       50
102
RTVSPost2010PropOp46
 70
     1
102
RTVSPost2010Prop47
 90
       50
102
RTVSPost2010PropOp47
 70
     1
102
RTVSPost2010Prop48
 90
       50
102
RTVSPost2010PropOp48
 70
     1
102
RTVSPost2010Prop49
280
     0
102
RTVSPost2010PropOp49
 70
     1
102
RTVSPost2010Prop50
 90
       50
102
RTVSPost2010PropOp50
 70
     1
102
RTVSPost2010Prop51ColorIndex
 90
      256
102
RTVSPost2010Prop51ColorRGB
 90
-16777216
102
RTVSPost2010PropOp51
 70
     0
102
RTVSPost2010Prop52
140
1.0
102
RTVSPost2010PropOp52
 70
     0
102
RTVSPost2010Prop53
 90
        2
102
RTVSPost2010PropOp53
 70
     1
102
RTVSPost2010Prop54
  1
strokes_ogs.tif
102
RTVSPost2010PropOp54
 70
     1
102
RTVSPost2010Prop55
280
     0
102
RTVSPost2010PropOp55
 70
     1
102
RTVSPost2010Prop56
140
1.0
102
RTVSPost2010PropOp56
 70
     1
102
RTVSPost2010Prop57
140
1.0
102
RTVSPost2010PropOp57
 70
     1
  0
XRECORD
  5
209D
102
{ACAD_REACTORS
330
209C
102
}
330
209C
100
AcDbXrecord
280
     1
102
RTVSPost2010Prop28
280
     0
102
RTVSPost2010PropOp28
 70
     0
102
RTVSPost2010Prop29
280
     1
102
RTVSPost2010PropOp29
 70
     0
102
RTVSPost2010Prop30
280
     1
102
RTVSPost2010PropOp30
 70
     0
102
RTVSPost2010Prop31
280
     0
102
RTVSPost2010PropOp31
 70
     0
102
RTVSPost2010Prop32
280
     0
102
RTVSPost2010PropOp32
 70
     0
102
RTVSPost2010Prop33
280
     0
102
RTVSPost2010PropOp33
 70
     0
102
RTVSPost2010Prop34
280
     0
102
RTVSPost2010PropOp34
 70
     0
102
RTVSPost2010Prop35
280
     0
102
RTVSPost2010PropOp35
 70
     0
102
RTVSPost2010Prop36
280
     0
102
RTVSPost2010PropOp36
 70
     0
102
RTVSPost2010Prop37
 90
       50
102
RTVSPost2010PropOp37
 70
     0
102
RTVSPost2010Prop38
140
0.0
102
RTVSPost2010PropOp38
 70
     0
102
RTVSPost2010Prop39
140
1.0
102
RTVSPost2010PropOp39
 70
     0
102
RTVSPost2010Prop40
 90
        0
102
RTVSPost2010PropOp40
 70
     0
102
RTVSPost2010Prop41ColorIndex
 90
       18
102
RTVSPost2010Prop41ColorRGB
 90
        0
102
RTVSPost2010PropOp41
 70
     0
102
RTVSPost2010Prop42
 90
       50
102
RTVSPost2010PropOp42
 70
     0
102
RTVSPost2010Prop43
 90
        3
102
RTVSPost2010PropOp43
 70
     0
102
RTVSPost2010Prop44ColorIndex
 90
        5
102
RTVSPost2010Prop44ColorRGB
 90
      255
102
RTVSPost2010PropOp44
 70
     0
102
RTVSPost2010Prop45
280
     0
102
RTVSPost2010PropOp45
 70
     0
102
RTVSPost2010Prop46
 90
       50
102
RTVSPost2010PropOp46
 70
     0
102
RTVSPost2010Prop47
 90
       50
102
RTVSPost2010PropOp47
 70
     0
102
RTVSPost2010Prop48
 90
       50
102
RTVSPost2010PropOp48
 70
     0
102
RTVSPost2010Prop49
280
     0
102
RTVSPost2010PropOp49
 70
     0
102
RTVSPost2010Prop50
 90
       50
102
RTVSPost2010PropOp50
 70
     0
102
RTVSPost2010Prop51ColorIndex
 90
      256
102
RTVSPost2010Prop51ColorRGB
 90
-16777216
102
RTVSPost2010PropOp51
 70
     0
102
RTVSPost2010Prop52
140
1.0
102
RTVSPost2010PropOp52
 70
     0
102
RTVSPost2010Prop53
 90
        2
102
RTVSPost2010PropOp53
 70
     0
102
RTVSPost2010Prop54
  1
strokes_ogs.tif
102
RTVSPost2010PropOp54
 70
     0
102
RTVSPost2010Prop55
280
     0
102
RTVSPost2010PropOp55
 70
     0
102
RTVSPost2010Prop56
140
1.0
102
RTVSPost2010PropOp56
 70
     0
102
RTVSPost2010Prop57
140
1.0
102
RTVSPost2010PropOp57
 70
     0
  0
XRECORD
  5
2093
102
{ACAD_REACTORS
330
2092
102
}
330
2092
100
AcDbXrecord
280
     1
102
RTVSPost2010Prop28
280
     0
102
RTVSPost2010PropOp28
 70
     1
102
RTVSPost2010Prop29
280
     1
102
RTVSPost2010PropOp29
 70
     1
102
RTVSPost2010Prop30
280
     1
102
RTVSPost2010PropOp30
 70
     1
102
RTVSPost2010Prop31
280
     0
102
RTVSPost2010PropOp31
 70
     1
102
RTVSPost2010Prop32
280
     0
102
RTVSPost2010PropOp32
 70
     1
102
RTVSPost2010Prop33
280
     0
102
RTVSPost2010PropOp33
 70
     1
102
RTVSPost2010Prop34
280
     0
102
RTVSPost2010PropOp34
 70
     1
102
RTVSPost2010Prop35
280
     0
102
RTVSPost2010PropOp35
 70
     1
102
RTVSPost2010Prop36
280
     0
102
RTVSPost2010PropOp36
 70
     1
102
RTVSPost2010Prop37
 90
       50
102
RTVSPost2010PropOp37
 70
     1
102
RTVSPost2010Prop38
140
0.0
102
RTVSPost2010PropOp38
 70
     1
102
RTVSPost2010Prop39
140
1.0
102
RTVSPost2010PropOp39
 70
     1
102
RTVSPost2010Prop40
 90
        0
102
RTVSPost2010PropOp40
 70
     1
102
RTVSPost2010Prop41ColorIndex
 90
       18
102
RTVSPost2010Prop41ColorRGB
 90
        0
102
RTVSPost2010PropOp41
 70
     1
102
RTVSPost2010Prop42
 90
       50
102
RTVSPost2010PropOp42
 70
     1
102
RTVSPost2010Prop43
 90
        3
102
RTVSPost2010PropOp43
 70
     1
102
RTVSPost2010Prop44ColorIndex
 90
        5
102
RTVSPost2010Prop44ColorRGB
 90
      255
102
RTVSPost2010PropOp44
 70
     1
102
RTVSPost2010Prop45
280
     0
102
RTVSPost2010PropOp45
 70
     1
102
RTVSPost2010Prop46
 90
       50
102
RTVSPost2010PropOp46
 70
     1
102
RTVSPost2010Prop47
 90
       50
102
RTVSPost2010PropOp47
 70
     1
102
RTVSPost2010Prop48
 90
       50
102
RTVSPost2010PropOp48
 70
     1
102
RTVSPost2010Prop49
280
     0
102
RTVSPost2010PropOp49
 70
     1
102
RTVSPost2010Prop50
 90
       50
102
RTVSPost2010PropOp50
 70
     1
102
RTVSPost2010Prop51ColorIndex
 90
      256
102
RTVSPost2010Prop51ColorRGB
 90
-16777216
102
RTVSPost2010PropOp51
 70
     0
102
RTVSPost2010Prop52
140
1.0
102
RTVSPost2010PropOp52
 70
     0
102
RTVSPost2010Prop53
 90
        2
102
RTVSPost2010PropOp53
 70
     1
102
RTVSPost2010Prop54
  1
strokes_ogs.tif
102
RTVSPost2010PropOp54
 70
     1
102
RTVSPost2010Prop55
280
     0
102
RTVSPost2010PropOp55
 70
     1
102
RTVSPost2010Prop56
140
1.0
102
RTVSPost2010PropOp56
 70
     1
102
RTVSPost2010Prop57
140
1.0
102
RTVSPost2010PropOp57
 70
     1
  0
XRECORD
  5
20A9
102
{ACAD_REACTORS
330
20A8
102
}
330
20A8
100
AcDbXrecord
280
     1
102
RTVSPost2010Prop28
280
     0
102
RTVSPost2010PropOp28
 70
     1
102
RTVSPost2010Prop29
280
     1
102
RTVSPost2010PropOp29
 70
     1
102
RTVSPost2010Prop30
280
     1
102
RTVSPost2010PropOp30
 70
     1
102
RTVSPost2010Prop31
280
     0
102
RTVSPost2010PropOp31
 70
     1
102
RTVSPost2010Prop32
280
     0
102
RTVSPost2010PropOp32
 70
     1
102
RTVSPost2010Prop33
280
     0
102
RTVSPost2010PropOp33
 70
     1
102
RTVSPost2010Prop34
280
     0
102
RTVSPost2010PropOp34
 70
     1
102
RTVSPost2010Prop35
280
     0
102
RTVSPost2010PropOp35
 70
     1
102
RTVSPost2010Prop36
280
     0
102
RTVSPost2010PropOp36
 70
     1
102
RTVSPost2010Prop37
 90
       50
102
RTVSPost2010PropOp37
 70
     1
102
RTVSPost2010Prop38
140
0.0
102
RTVSPost2010PropOp38
 70
     1
102
RTVSPost2010Prop39
140
1.0
102
RTVSPost2010PropOp39
 70
     1
102
RTVSPost2010Prop40
 90
        0
102
RTVSPost2010PropOp40
 70
     1
102
RTVSPost2010Prop41ColorIndex
 90
       18
102
RTVSPost2010Prop41ColorRGB
 90
        0
102
RTVSPost2010PropOp41
 70
     1
102
RTVSPost2010Prop42
 90
       50
102
RTVSPost2010PropOp42
 70
     1
102
RTVSPost2010Prop43
 90
        3
102
RTVSPost2010PropOp43
 70
     1
102
RTVSPost2010Prop44ColorIndex
 90
        5
102
RTVSPost2010Prop44ColorRGB
 90
      255
102
RTVSPost2010PropOp44
 70
     1
102
RTVSPost2010Prop45
280
     0
102
RTVSPost2010PropOp45
 70
     1
102
RTVSPost2010Prop46
 90
       50
102
RTVSPost2010PropOp46
 70
     1
102
RTVSPost2010Prop47
 90
       50
102
RTVSPost2010PropOp47
 70
     1
102
RTVSPost2010Prop48
 90
       50
102
RTVSPost2010PropOp48
 70
     1
102
RTVSPost2010Prop49
280
     0
102
RTVSPost2010PropOp49
 70
     1
102
RTVSPost2010Prop50
 90
       50
102
RTVSPost2010PropOp50
 70
     1
102
RTVSPost2010Prop51ColorIndex
 90
      256
102
RTVSPost2010Prop51ColorRGB
 90
-16777216
102
RTVSPost2010PropOp51
 70
     0
102
RTVSPost2010Prop52
140
1.0
102
RTVSPost2010PropOp52
 70
     0
102
RTVSPost2010Prop53
 90
        2
102
RTVSPost2010PropOp53
 70
     1
102
RTVSPost2010Prop54
  1
strokes_ogs.tif
102
RTVSPost2010PropOp54
 70
     1
102
RTVSPost2010Prop55
280
     0
102
RTVSPost2010PropOp55
 70
     1
102
RTVSPost2010Prop56
140
1.0
102
RTVSPost2010PropOp56
 70
     1
102
RTVSPost2010Prop57
140
1.0
102
RTVSPost2010PropOp57
 70
     1
  0
XRECORD
  5
20A7
102
{ACAD_REACTORS
330
20A6
102
}
330
20A6
100
AcDbXrecord
280
     1
102
RTVSPost2010Prop28
280
     0
102
RTVSPost2010PropOp28
 70
     1
102
RTVSPost2010Prop29
280
     1
102
RTVSPost2010PropOp29
 70
     1
102
RTVSPost2010Prop30
280
     1
102
RTVSPost2010PropOp30
 70
     1
102
RTVSPost2010Prop31
280
     0
102
RTVSPost2010PropOp31
 70
     1
102
RTVSPost2010Prop32
280
     0
102
RTVSPost2010PropOp32
 70
     1
102
RTVSPost2010Prop33
280
     0
102
RTVSPost2010PropOp33
 70
     1
102
RTVSPost2010Prop34
280
     0
102
RTVSPost2010PropOp34
 70
     1
102
RTVSPost2010Prop35
280
     0
102
RTVSPost2010PropOp35
 70
     1
102
RTVSPost2010Prop36
280
     0
102
RTVSPost2010PropOp36
 70
     1
102
RTVSPost2010Prop37
 90
       50
102
RTVSPost2010PropOp37
 70
     1
102
RTVSPost2010Prop38
140
0.0
102
RTVSPost2010PropOp38
 70
     1
102
RTVSPost2010Prop39
140
1.0
102
RTVSPost2010PropOp39
 70
     1
102
RTVSPost2010Prop40
 90
        0
102
RTVSPost2010PropOp40
 70
     1
102
RTVSPost2010Prop41ColorIndex
 90
       18
102
RTVSPost2010Prop41ColorRGB
 90
        0
102
RTVSPost2010PropOp41
 70
     1
102
RTVSPost2010Prop42
 90
       50
102
RTVSPost2010PropOp42
 70
     1
102
RTVSPost2010Prop43
 90
        3
102
RTVSPost2010PropOp43
 70
     1
102
RTVSPost2010Prop44ColorIndex
 90
        5
102
RTVSPost2010Prop44ColorRGB
 90
      255
102
RTVSPost2010PropOp44
 70
     1
102
RTVSPost2010Prop45
280
     0
102
RTVSPost2010PropOp45
 70
     1
102
RTVSPost2010Prop46
 90
       50
102
RTVSPost2010PropOp46
 70
     1
102
RTVSPost2010Prop47
 90
       50
102
RTVSPost2010PropOp47
 70
     1
102
RTVSPost2010Prop48
 90
       50
102
RTVSPost2010PropOp48
 70
     1
102
RTVSPost2010Prop49
280
     0
102
RTVSPost2010PropOp49
 70
     1
102
RTVSPost2010Prop50
 90
       50
102
RTVSPost2010PropOp50
 70
     1
102
RTVSPost2010Prop51ColorIndex
 90
      256
102
RTVSPost2010Prop51ColorRGB
 90
-16777216
102
RTVSPost2010PropOp51
 70
     0
102
RTVSPost2010Prop52
140
1.0
102
RTVSPost2010PropOp52
 70
     0
102
RTVSPost2010Prop53
 90
        2
102
RTVSPost2010PropOp53
 70
     1
102
RTVSPost2010Prop54
  1
strokes_ogs.tif
102
RTVSPost2010PropOp54
 70
     1
102
RTVSPost2010Prop55
280
     0
102
RTVSPost2010PropOp55
 70
     1
102
RTVSPost2010Prop56
140
1.0
102
RTVSPost2010PropOp56
 70
     1
102
RTVSPost2010Prop57
140
1.0
102
RTVSPost2010PropOp57
 70
     1
  0
XRECORD
  5
20A1
102
{ACAD_REACTORS
330
20A0
102
}
330
20A0
100
AcDbXrecord
280
     1
102
RTVSPost2010Prop28
280
     0
102
RTVSPost2010PropOp28
 70
     1
102
RTVSPost2010Prop29
280
     1
102
RTVSPost2010PropOp29
 70
     1
102
RTVSPost2010Prop30
280
     1
102
RTVSPost2010PropOp30
 70
     1
102
RTVSPost2010Prop31
280
     0
102
RTVSPost2010PropOp31
 70
     1
102
RTVSPost2010Prop32
280
     0
102
RTVSPost2010PropOp32
 70
     1
102
RTVSPost2010Prop33
280
     0
102
RTVSPost2010PropOp33
 70
     1
102
RTVSPost2010Prop34
280
     0
102
RTVSPost2010PropOp34
 70
     1
102
RTVSPost2010Prop35
280
     0
102
RTVSPost2010PropOp35
 70
     1
102
RTVSPost2010Prop36
280
     0
102
RTVSPost2010PropOp36
 70
     1
102
RTVSPost2010Prop37
 90
       50
102
RTVSPost2010PropOp37
 70
     1
102
RTVSPost2010Prop38
140
0.0
102
RTVSPost2010PropOp38
 70
     1
102
RTVSPost2010Prop39
140
1.0
102
RTVSPost2010PropOp39
 70
     1
102
RTVSPost2010Prop40
 90
        0
102
RTVSPost2010PropOp40
 70
     1
102
RTVSPost2010Prop41ColorIndex
 90
       18
102
RTVSPost2010Prop41ColorRGB
 90
        0
102
RTVSPost2010PropOp41
 70
     1
102
RTVSPost2010Prop42
 90
       50
102
RTVSPost2010PropOp42
 70
     1
102
RTVSPost2010Prop43
 90
        3
102
RTVSPost2010PropOp43
 70
     1
102
RTVSPost2010Prop44ColorIndex
 90
        5
102
RTVSPost2010Prop44ColorRGB
 90
      255
102
RTVSPost2010PropOp44
 70
     1
102
RTVSPost2010Prop45
280
     0
102
RTVSPost2010PropOp45
 70
     1
102
RTVSPost2010Prop46
 90
       50
102
RTVSPost2010PropOp46
 70
     1
102
RTVSPost2010Prop47
 90
       50
102
RTVSPost2010PropOp47
 70
     1
102
RTVSPost2010Prop48
 90
       50
102
RTVSPost2010PropOp48
 70
     1
102
RTVSPost2010Prop49
280
     0
102
RTVSPost2010PropOp49
 70
     1
102
RTVSPost2010Prop50
 90
       50
102
RTVSPost2010PropOp50
 70
     1
102
RTVSPost2010Prop51ColorIndex
 90
      256
102
RTVSPost2010Prop51ColorRGB
 90
-16777216
102
RTVSPost2010PropOp51
 70
     0
102
RTVSPost2010Prop52
140
1.0
102
RTVSPost2010PropOp52
 70
     0
102
RTVSPost2010Prop53
 90
        2
102
RTVSPost2010PropOp53
 70
     1
102
RTVSPost2010Prop54
  1
strokes_ogs.tif
102
RTVSPost2010PropOp54
 70
     1
102
RTVSPost2010Prop55
280
     0
102
RTVSPost2010PropOp55
 70
     1
102
RTVSPost2010Prop56
140
1.0
102
RTVSPost2010PropOp56
 70
     1
102
RTVSPost2010Prop57
140
1.0
102
RTVSPost2010PropOp57
 70
     1
  0
XRECORD
  5
20A3
102
{ACAD_REACTORS
330
20A2
102
}
330
20A2
100
AcDbXrecord
280
     1
102
RTVSPost2010Prop28
280
     0
102
RTVSPost2010PropOp28
 70
     1
102
RTVSPost2010Prop29
280
     1
102
RTVSPost2010PropOp29
 70
     1
102
RTVSPost2010Prop30
280
     1
102
RTVSPost2010PropOp30
 70
     1
102
RTVSPost2010Prop31
280
     0
102
RTVSPost2010PropOp31
 70
     1
102
RTVSPost2010Prop32
280
     0
102
RTVSPost2010PropOp32
 70
     1
102
RTVSPost2010Prop33
280
     0
102
RTVSPost2010PropOp33
 70
     1
102
RTVSPost2010Prop34
280
     0
102
RTVSPost2010PropOp34
 70
     1
102
RTVSPost2010Prop35
280
     0
102
RTVSPost2010PropOp35
 70
     1
102
RTVSPost2010Prop36
280
     0
102
RTVSPost2010PropOp36
 70
     1
102
RTVSPost2010Prop37
 90
       50
102
RTVSPost2010PropOp37
 70
     1
102
RTVSPost2010Prop38
140
0.0
102
RTVSPost2010PropOp38
 70
     1
102
RTVSPost2010Prop39
140
1.0
102
RTVSPost2010PropOp39
 70
     1
102
RTVSPost2010Prop40
 90
        0
102
RTVSPost2010PropOp40
 70
     1
102
RTVSPost2010Prop41ColorIndex
 90
       18
102
RTVSPost2010Prop41ColorRGB
 90
        0
102
RTVSPost2010PropOp41
 70
     1
102
RTVSPost2010Prop42
 90
       50
102
RTVSPost2010PropOp42
 70
     1
102
RTVSPost2010Prop43
 90
        3
102
RTVSPost2010PropOp43
 70
     1
102
RTVSPost2010Prop44ColorIndex
 90
        5
102
RTVSPost2010Prop44ColorRGB
 90
      255
102
RTVSPost2010PropOp44
 70
     1
102
RTVSPost2010Prop45
280
     0
102
RTVSPost2010PropOp45
 70
     1
102
RTVSPost2010Prop46
 90
       50
102
RTVSPost2010PropOp46
 70
     1
102
RTVSPost2010Prop47
 90
       50
102
RTVSPost2010PropOp47
 70
     1
102
RTVSPost2010Prop48
 90
       50
102
RTVSPost2010PropOp48
 70
     1
102
RTVSPost2010Prop49
280
     0
102
RTVSPost2010PropOp49
 70
     1
102
RTVSPost2010Prop50
 90
       50
102
RTVSPost2010PropOp50
 70
     1
102
RTVSPost2010Prop51ColorIndex
 90
      256
102
RTVSPost2010Prop51ColorRGB
 90
-16777216
102
RTVSPost2010PropOp51
 70
     0
102
RTVSPost2010Prop52
140
1.0
102
RTVSPost2010PropOp52
 70
     0
102
RTVSPost2010Prop53
 90
        2
102
RTVSPost2010PropOp53
 70
     1
102
RTVSPost2010Prop54
  1
strokes_ogs.tif
102
RTVSPost2010PropOp54
 70
     1
102
RTVSPost2010Prop55
280
     0
102
RTVSPost2010PropOp55
 70
     1
102
RTVSPost2010Prop56
140
1.0
102
RTVSPost2010PropOp56
 70
     1
102
RTVSPost2010Prop57
140
1.0
102
RTVSPost2010PropOp57
 70
     1
  0
XRECORD
  5
2095
102
{ACAD_REACTORS
330
2094
102
}
330
2094
100
AcDbXrecord
280
     1
102
RTVSPost2010Prop28
280
     0
102
RTVSPost2010PropOp28
 70
     1
102
RTVSPost2010Prop29
280
     1
102
RTVSPost2010PropOp29
 70
     1
102
RTVSPost2010Prop30
280
     1
102
RTVSPost2010PropOp30
 70
     1
102
RTVSPost2010Prop31
280
     0
102
RTVSPost2010PropOp31
 70
     1
102
RTVSPost2010Prop32
280
     0
102
RTVSPost2010PropOp32
 70
     1
102
RTVSPost2010Prop33
280
     0
102
RTVSPost2010PropOp33
 70
     1
102
RTVSPost2010Prop34
280
     0
102
RTVSPost2010PropOp34
 70
     1
102
RTVSPost2010Prop35
280
     0
102
RTVSPost2010PropOp35
 70
     1
102
RTVSPost2010Prop36
280
     0
102
RTVSPost2010PropOp36
 70
     1
102
RTVSPost2010Prop37
 90
       50
102
RTVSPost2010PropOp37
 70
     1
102
RTVSPost2010Prop38
140
0.0
102
RTVSPost2010PropOp38
 70
     1
102
RTVSPost2010Prop39
140
1.0
102
RTVSPost2010PropOp39
 70
     1
102
RTVSPost2010Prop40
 90
        0
102
RTVSPost2010PropOp40
 70
     1
102
RTVSPost2010Prop41ColorIndex
 90
       18
102
RTVSPost2010Prop41ColorRGB
 90
        0
102
RTVSPost2010PropOp41
 70
     1
102
RTVSPost2010Prop42
 90
       50
102
RTVSPost2010PropOp42
 70
     1
102
RTVSPost2010Prop43
 90
        3
102
RTVSPost2010PropOp43
 70
     1
102
RTVSPost2010Prop44ColorIndex
 90
        5
102
RTVSPost2010Prop44ColorRGB
 90
      255
102
RTVSPost2010PropOp44
 70
     1
102
RTVSPost2010Prop45
280
     0
102
RTVSPost2010PropOp45
 70
     1
102
RTVSPost2010Prop46
 90
       50
102
RTVSPost2010PropOp46
 70
     1
102
RTVSPost2010Prop47
 90
       50
102
RTVSPost2010PropOp47
 70
     1
102
RTVSPost2010Prop48
 90
       50
102
RTVSPost2010PropOp48
 70
     1
102
RTVSPost2010Prop49
280
     0
102
RTVSPost2010PropOp49
 70
     1
102
RTVSPost2010Prop50
 90
       50
102
RTVSPost2010PropOp50
 70
     1
102
RTVSPost2010Prop51ColorIndex
 90
      256
102
RTVSPost2010Prop51ColorRGB
 90
-16777216
102
RTVSPost2010PropOp51
 70
     0
102
RTVSPost2010Prop52
140
1.0
102
RTVSPost2010PropOp52
 70
     0
102
RTVSPost2010Prop53
 90
        2
102
RTVSPost2010PropOp53
 70
     1
102
RTVSPost2010Prop54
  1
strokes_ogs.tif
102
RTVSPost2010PropOp54
 70
     1
102
RTVSPost2010Prop55
280
     0
102
RTVSPost2010PropOp55
 70
     1
102
RTVSPost2010Prop56
140
1.0
102
RTVSPost2010PropOp56
 70
     1
102
RTVSPost2010Prop57
140
1.0
102
RTVSPost2010PropOp57
 70
     1
  0
XRECORD
  5
2097
102
{ACAD_REACTORS
330
2096
102
}
330
2096
100
AcDbXrecord
280
     1
102
RTVSPost2010Prop28
280
     0
102
RTVSPost2010PropOp28
 70
     1
102
RTVSPost2010Prop29
280
     1
102
RTVSPost2010PropOp29
 70
     1
102
RTVSPost2010Prop30
280
     1
102
RTVSPost2010PropOp30
 70
     1
102
RTVSPost2010Prop31
280
     0
102
RTVSPost2010PropOp31
 70
     1
102
RTVSPost2010Prop32
280
     0
102
RTVSPost2010PropOp32
 70
     1
102
RTVSPost2010Prop33
280
     0
102
RTVSPost2010PropOp33
 70
     1
102
RTVSPost2010Prop34
280
     0
102
RTVSPost2010PropOp34
 70
     1
102
RTVSPost2010Prop35
280
     0
102
RTVSPost2010PropOp35
 70
     1
102
RTVSPost2010Prop36
280
     0
102
RTVSPost2010PropOp36
 70
     1
102
RTVSPost2010Prop37
 90
       50
102
RTVSPost2010PropOp37
 70
     1
102
RTVSPost2010Prop38
140
0.0
102
RTVSPost2010PropOp38
 70
     1
102
RTVSPost2010Prop39
140
1.0
102
RTVSPost2010PropOp39
 70
     1
102
RTVSPost2010Prop40
 90
        0
102
RTVSPost2010PropOp40
 70
     1
102
RTVSPost2010Prop41ColorIndex
 90
       18
102
RTVSPost2010Prop41ColorRGB
 90
        0
102
RTVSPost2010PropOp41
 70
     1
102
RTVSPost2010Prop42
 90
       50
102
RTVSPost2010PropOp42
 70
     1
102
RTVSPost2010Prop43
 90
        3
102
RTVSPost2010PropOp43
 70
     1
102
RTVSPost2010Prop44ColorIndex
 90
        5
102
RTVSPost2010Prop44ColorRGB
 90
      255
102
RTVSPost2010PropOp44
 70
     1
102
RTVSPost2010Prop45
280
     0
102
RTVSPost2010PropOp45
 70
     1
102
RTVSPost2010Prop46
 90
       50
102
RTVSPost2010PropOp46
 70
     1
102
RTVSPost2010Prop47
 90
       50
102
RTVSPost2010PropOp47
 70
     1
102
RTVSPost2010Prop48
 90
       50
102
RTVSPost2010PropOp48
 70
     1
102
RTVSPost2010Prop49
280
     0
102
RTVSPost2010PropOp49
 70
     1
102
RTVSPost2010Prop50
 90
       50
102
RTVSPost2010PropOp50
 70
     1
102
RTVSPost2010Prop51ColorIndex
 90
      256
102
RTVSPost2010Prop51ColorRGB
 90
-16777216
102
RTVSPost2010PropOp51
 70
     0
102
RTVSPost2010Prop52
140
1.0
102
RTVSPost2010PropOp52
 70
     0
102
RTVSPost2010Prop53
 90
        2
102
RTVSPost2010PropOp53
 70
     1
102
RTVSPost2010Prop54
  1
strokes_ogs.tif
102
RTVSPost2010PropOp54
 70
     1
102
RTVSPost2010Prop55
280
     0
102
RTVSPost2010PropOp55
 70
     1
102
RTVSPost2010Prop56
140
1.0
102
RTVSPost2010PropOp56
 70
     1
102
RTVSPost2010Prop57
140
1.0
102
RTVSPost2010PropOp57
 70
     1
  0
XRECORD
  5
20A5
102
{ACAD_REACTORS
330
20A4
102
}
330
20A4
100
AcDbXrecord
280
     1
102
RTVSPost2010Prop28
280
     0
102
RTVSPost2010PropOp28
 70
     1
102
RTVSPost2010Prop29
280
     1
102
RTVSPost2010PropOp29
 70
     1
102
RTVSPost2010Prop30
280
     1
102
RTVSPost2010PropOp30
 70
     1
102
RTVSPost2010Prop31
280
     0
102
RTVSPost2010PropOp31
 70
     1
102
RTVSPost2010Prop32
280
     0
102
RTVSPost2010PropOp32
 70
     1
102
RTVSPost2010Prop33
280
     0
102
RTVSPost2010PropOp33
 70
     1
102
RTVSPost2010Prop34
280
     0
102
RTVSPost2010PropOp34
 70
     1
102
RTVSPost2010Prop35
280
     0
102
RTVSPost2010PropOp35
 70
     1
102
RTVSPost2010Prop36
280
     0
102
RTVSPost2010PropOp36
 70
     1
102
RTVSPost2010Prop37
 90
       50
102
RTVSPost2010PropOp37
 70
     1
102
RTVSPost2010Prop38
140
0.0
102
RTVSPost2010PropOp38
 70
     1
102
RTVSPost2010Prop39
140
1.0
102
RTVSPost2010PropOp39
 70
     1
102
RTVSPost2010Prop40
 90
        0
102
RTVSPost2010PropOp40
 70
     1
102
RTVSPost2010Prop41ColorIndex
 90
       18
102
RTVSPost2010Prop41ColorRGB
 90
        0
102
RTVSPost2010PropOp41
 70
     1
102
RTVSPost2010Prop42
 90
       50
102
RTVSPost2010PropOp42
 70
     1
102
RTVSPost2010Prop43
 90
        3
102
RTVSPost2010PropOp43
 70
     1
102
RTVSPost2010Prop44ColorIndex
 90
        5
102
RTVSPost2010Prop44ColorRGB
 90
      255
102
RTVSPost2010PropOp44
 70
     1
102
RTVSPost2010Prop45
280
     0
102
RTVSPost2010PropOp45
 70
     1
102
RTVSPost2010Prop46
 90
       50
102
RTVSPost2010PropOp46
 70
     1
102
RTVSPost2010Prop47
 90
       50
102
RTVSPost2010PropOp47
 70
     1
102
RTVSPost2010Prop48
 90
       50
102
RTVSPost2010PropOp48
 70
     1
102
RTVSPost2010Prop49
280
     0
102
RTVSPost2010PropOp49
 70
     1
102
RTVSPost2010Prop50
 90
       50
102
RTVSPost2010PropOp50
 70
     1
102
RTVSPost2010Prop51ColorIndex
 90
      256
102
RTVSPost2010Prop51ColorRGB
 90
-16777216
102
RTVSPost2010PropOp51
 70
     0
102
RTVSPost2010Prop52
140
1.0
102
RTVSPost2010PropOp52
 70
     0
102
RTVSPost2010Prop53
 90
        2
102
RTVSPost2010PropOp53
 70
     1
102
RTVSPost2010Prop54
  1
strokes_ogs.tif
102
RTVSPost2010PropOp54
 70
     1
102
RTVSPost2010Prop55
280
     0
102
RTVSPost2010PropOp55
 70
     1
102
RTVSPost2010Prop56
140
1.0
102
RTVSPost2010PropOp56
 70
     1
102
RTVSPost2010Prop57
140
1.0
102
RTVSPost2010PropOp57
 70
     1
  0
ENDSEC
  0
EOF
