  0
SECTION
  2
HEADER
  9
$ACADVER
  1
AC1024
  9
$ACADMAINTVER
 70
     6
  9
$DWGCODEPAGE
  3
ANSI_1252
  9
$LASTSAVEDBY
  1
Dave
  9
$INSBASE
 10
0.0
 20
0.0
 30
0.0
  9
$EXTMIN
 10
-73.70912776684085
 20
-1.888222926544941
 30
-621.6692413278015
  9
$EXTMAX
 10
-24.20167034160258
 20
33.77545923458111
 30
372.3762624379915
  9
$LIMMIN
 10
0.0
 20
0.0
  9
$LIMMAX
 10
27.0398162198209
 20
41.5645823649274
  9
$ORTHOMODE
 70
     0
  9
$REGENMODE
 70
     1
  9
$FILLMODE
 70
     1
  9
$QTEXTMODE
 70
     0
  9
$MIRRTEXT
 70
     1
  9
$LTSCALE
 40
1.0
  9
$ATTMODE
 70
     1
  9
$TEXTSIZE
 40
8.0
  9
$TRACEWID
 40
0.05
  9
$TEXTSTYLE
  7
STANDARD
  9
$CLAYER
  8
Features
  9
$CELTYPE
  6
CONTINUOUS
  9
$CECOLOR
 62
   256
  9
$CELTSCALE
 40
1.0
  9
$DISPSILH
 70
     0
  9
$DIMSCALE
 40
1.0
  9
$DIMASZ
 40
0.18
  9
$DIMEXO
 40
0.0625
  9
$DIMDLI
 40
0.38
  9
$DIMRND
 40
0.0
  9
$DIMDLE
 40
0.0
  9
$DIMEXE
 40
0.18
  9
$DIMTP
 40
0.0
  9
$DIMTM
 40
0.0
  9
$DIMTXT
 40
0.18
  9
$DIMCEN
 40
0.09
  9
$DIMTSZ
 40
0.0
  9
$DIMTOL
 70
     0
  9
$DIMLIM
 70
     0
  9
$DIMTIH
 70
     1
  9
$DIMTOH
 70
     1
  9
$DIMSE1
 70
     0
  9
$DIMSE2
 70
     0
  9
$DIMTAD
 70
     0
  9
$DIMZIN
 70
     0
  9
$DIMBLK
  1

  9
$DIMASO
 70
     1
  9
$DIMSHO
 70
     1
  9
$DIMPOST
  1

  9
$DIMAPOST
  1

  9
$DIMALT
 70
     0
  9
$DIMALTD
 70
     2
  9
$DIMALTF
 40
25.4
  9
$DIMLFAC
 40
1.0
  9
$DIMTOFL
 70
     0
  9
$DIMTVP
 40
0.0
  9
$DIMTIX
 70
     0
  9
$DIMSOXD
 70
     0
  9
$DIMSAH
 70
     0
  9
$DIMBLK1
  1

  9
$DIMBLK2
  1

  9
$DIMSTYLE
  2
STANDARD
  9
$DIMCLRD
 70
     0
  9
$DIMCLRE
 70
     0
  9
$DIMCLRT
 70
     0
  9
$DIMTFAC
 40
1.0
  9
$DIMGAP
 40
0.09
  9
$DIMJUST
 70
     0
  9
$DIMSD1
 70
     0
  9
$DIMSD2
 70
     0
  9
$DIMTOLJ
 70
     1
  9
$DIMTZIN
 70
     0
  9
$DIMALTZ
 70
     0
  9
$DIMALTTZ
 70
     0
  9
$DIMUPT
 70
     0
  9
$DIMDEC
 70
     4
  9
$DIMTDEC
 70
     4
  9
$DIMALTU
 70
     2
  9
$DIMALTTD
 70
     2
  9
$DIMTXSTY
  7
STANDARD
  9
$DIMAUNIT
 70
     0
  9
$DIMADEC
 70
     0
  9
$DIMALTRND
 40
0.0
  9
$DIMAZIN
 70
     0
  9
$DIMDSEP
 70
    46
  9
$DIMATFIT
 70
     3
  9
$DIMFRAC
 70
     0
  9
$DIMLDRBLK
  1

  9
$DIMLUNIT
 70
     2
  9
$DIMLWD
 70
    -2
  9
$DIMLWE
 70
    -2
  9
$DIMTMOVE
 70
     0
  9
$DIMFXL
 40
1.0
  9
$DIMFXLON
 70
     0
  9
$DIMJOGANG
 40
0.7853981633974483
  9
$DIMTFILL
 70
     0
  9
$DIMTFILLCLR
 70
     0
  9
$DIMARCSYM
 70
     0
  9
$DIMLTYPE
  6

  9
$DIMLTEX1
  6

  9
$DIMLTEX2
  6

  9
$DIMTXTDIRECTION
 70
     0
  9
$LUNITS
 70
     2
  9
$LUPREC
 70
     4
  9
$SKETCHINC
 40
0.1
  9
$FILLETRAD
 40
0.0
  9
$AUNITS
 70
     0
  9
$AUPREC
 70
     0
  9
$MENU
  1
acad
  9
$ELEVATION
 40
0.0
  9
$PELEVATION
 40
0.0
  9
$THICKNESS
 40
0.0
  9
$LIMCHECK
 70
     0
  9
$CHAMFERA
 40
0.0
  9
$CHAMFERB
 40
0.0
  9
$CHAMFERC
 40
0.0
  9
$CHAMFERD
 40
0.0
  9
$SKPOLY
 70
     0
  9
$TDCREATE
 40
2305814.135233565
  9
$TDUCREATE
 40
2311909.093566898
  9
$TDUPDATE
 40
2457213.68010985
  9
$TDUUPDATE
 40
2457213.638443183
  9
$TDINDWG
 40
0.0263193403
  9
$TDUSRTIMER
 40
0.0263189352
  9
$USRTIMER
 70
     1
  9
$ANGBASE
 50
0.0
  9
$ANGDIR
 70
     0
  9
$PDMODE
 70
     0
  9
$PDSIZE
 40
0.0
  9
$PLINEWID
 40
0.0
  9
$SPLFRAME
 70
     0
  9
$SPLINETYPE
 70
     6
  9
$SPLINESEGS
 70
     8
  9
$HANDSEED
  5
F03
  9
$SURFTAB1
 70
     6
  9
$SURFTAB2
 70
     6
  9
$SURFTYPE
 70
     6
  9
$SURFU
 70
     6
  9
$SURFV
 70
     6
  9
$UCSBASE
  2

  9
$UCSNAME
  2

  9
$UCSORG
 10
0.0
 20
0.0
 30
0.0
  9
$UCSXDIR
 10
1.0
 20
0.0
 30
0.0
  9
$UCSYDIR
 10
0.0
 20
1.0
 30
0.0
  9
$UCSORTHOREF
  2

  9
$UCSORTHOVIEW
 70
     0
  9
$UCSORGTOP
 10
0.0
 20
0.0
 30
0.0
  9
$UCSORGBOTTOM
 10
0.0
 20
0.0
 30
0.0
  9
$UCSORGLEFT
 10
0.0
 20
0.0
 30
0.0
  9
$UCSORGRIGHT
 10
0.0
 20
0.0
 30
0.0
  9
$UCSORGFRONT
 10
0.0
 20
0.0
 30
0.0
  9
$UCSORGBACK
 10
0.0
 20
0.0
 30
0.0
  9
$PUCSBASE
  2

  9
$PUCSNAME
  2

  9
$PUCSORG
 10
0.0
 20
0.0
 30
0.0
  9
$PUCSXDIR
 10
1.0
 20
0.0
 30
0.0
  9
$PUCSYDIR
 10
0.0
 20
1.0
 30
0.0
  9
$PUCSORTHOREF
  2

  9
$PUCSORTHOVIEW
 70
     0
  9
$PUCSORGTOP
 10
0.0
 20
0.0
 30
0.0
  9
$PUCSORGBOTTOM
 10
0.0
 20
0.0
 30
0.0
  9
$PUCSORGLEFT
 10
0.0
 20
0.0
 30
0.0
  9
$PUCSORGRIGHT
 10
0.0
 20
0.0
 30
0.0
  9
$PUCSORGFRONT
 10
0.0
 20
0.0
 30
0.0
  9
$PUCSORGBACK
 10
0.0
 20
0.0
 30
0.0
  9
$USERI1
 70
     0
  9
$USERI2
 70
     0
  9
$USERI3
 70
     0
  9
$USERI4
 70
     0
  9
$USERI5
 70
     0
  9
$USERR1
 40
0.0
  9
$USERR2
 40
0.0
  9
$USERR3
 40
0.0
  9
$USERR4
 40
0.0
  9
$USERR5
 40
0.0
  9
$WORLDVIEW
 70
     1
  9
$SHADEDGE
 70
     3
  9
$SHADEDIF
 70
    70
  9
$TILEMODE
 70
     1
  9
$MAXACTVP
 70
    16
  9
$PINSBASE
 10
0.0
 20
0.0
 30
0.0
  9
$PLIMCHECK
 70
     0
  9
$PEXTMIN
 10
0.0
 20
0.0
 30
0.0
  9
$PEXTMAX
 10
27.0398162198209
 20
41.5645823649274
 30
0.0
  9
$PLIMMIN
 10
0.0
 20
0.0
  9
$PLIMMAX
 10
27.0398162198209
 20
41.5645823649274
  9
$UNITMODE
 70
     0
  9
$VISRETAIN
 70
     0
  9
$PLINEGEN
 70
     1
  9
$PSLTSCALE
 70
     0
  9
$TREEDEPTH
 70
  3020
  9
$CMLSTYLE
  2
STANDARD
  9
$CMLJUST
 70
     0
  9
$CMLSCALE
 40
1.0
  9
$PROXYGRAPHICS
 70
     0
  9
$MEASUREMENT
 70
     0
  9
$CELWEIGHT
370
    -1
  9
$ENDCAPS
280
     0
  9
$JOINSTYLE
280
     0
  9
$LWDISPLAY
290
     0
  9
$INSUNITS
 70
     0
  9
$HYPERLINKBASE
  1

  9
$STYLESHEET
  1

  9
$XEDIT
290
     1
  9
$CEPSNTYPE
380
     0
  9
$PSTYLEMODE
290
     1
  9
$FINGERPRINTGUID
  2
{439EDB69-2F98-4FF8-87AC-14450DFBDA98}
  9
$VERSIONGUID
  2
{9A257560-AC56-469E-8FB3-2C58174180F4}
  9
$EXTNAMES
290
     1
  9
$PSVPSCALE
 40
0.0
  9
$OLESTARTUP
290
     0
  9
$SORTENTS
280
   127
  9
$INDEXCTL
280
     0
  9
$HIDETEXT
280
     0
  9
$XCLIPFRAME
280
     0
  9
$HALOGAP
280
     0
  9
$OBSCOLOR
 70
   257
  9
$OBSLTYPE
280
     0
  9
$INTERSECTIONDISPLAY
280
     0
  9
$INTERSECTIONCOLOR
 70
   257
  9
$DIMASSOC
280
     1
  9
$PROJECTNAME
  1

  9
$CAMERADISPLAY
290
     0
  9
$LENSLENGTH
 40
50.0
  9
$CAMERAHEIGHT
 40
0.0
  9
$STEPSPERSEC
 40
2.0
  9
$STEPSIZE
 40
6.0
  9
$3DDWFPREC
 40
2.0
  9
$PSOLWIDTH
 40
0.25
  9
$PSOLHEIGHT
 40
4.0
  9
$LOFTANG1
 40
1.570796326794897
  9
$LOFTANG2
 40
1.570796326794897
  9
$LOFTMAG1
 40
0.0
  9
$LOFTMAG2
 40
0.0
  9
$LOFTPARAM
 70
     7
  9
$LOFTNORMALS
280
     1
  9
$LATITUDE
 40
37.795
  9
$LONGITUDE
 40
-122.394
  9
$NORTHDIRECTION
 40
0.0
  9
$TIMEZONE
 70
 -8000
  9
$LIGHTGLYPHDISPLAY
280
     1
  9
$TILEMODELIGHTSYNCH
280
     1
  9
$CMATERIAL
347
7F1
  9
$SOLIDHIST
280
     1
  9
$SHOWHIST
280
     1
  9
$DWFFRAME
280
     2
  9
$DGNFRAME
280
     0
  9
$REALWORLDSCALE
290
     1
  9
$INTERFERECOLOR
 62
     1
  9
$CSHADOW
280
     0
  9
$SHADOWPLANELOCATION
 40
0.0
  0
ENDSEC
  0
SECTION
  2
CLASSES
  0
CLASS
  1
LWPOLYLINE
  2
AcDbPolyline
  3
ObjectDBX Classes
 90
        0
 91
        1
280
     0
281
     1
  0
CLASS
  1
IMAGE
  2
AcDbRasterImage
  3
ISM
 90
      127
 91
        5
280
     0
281
     1
  0
CLASS
  1
OLE2FRAME
  2
AcDbOle2Frame
  3
ObjectDBX Classes
 90
        0
 91
        1
280
     0
281
     1
  0
CLASS
  1
HATCH
  2
AcDbHatch
  3
ObjectDBX Classes
 90
        0
 91
        1
280
     0
281
     1
  0
CLASS
  1
DICTIONARYVAR
  2
AcDbDictionaryVar
  3
ObjectDBX Classes
 90
        0
 91
        4
280
     0
281
     0
  0
CLASS
  1
RASTERVARIABLES
  2
AcDbRasterVariables
  3
ISM
 90
        0
 91
        4
280
     0
281
     0
  0
CLASS
  1
IMAGEDEF
  2
AcDbRasterImageDef
  3
ISM
 90
        0
 91
        4
280
     0
281
     0
  0
CLASS
  1
IMAGEDEF_REACTOR
  2
AcDbRasterImageDefReactor
  3
ISM
 90
        1
 91
        4
280
     0
281
     0
  0
CLASS
  1
IDBUFFER
  2
AcDbIdBuffer
  3
ObjectDBX Classes
 90
        0
 91
        4
280
     0
281
     0
  0
CLASS
  1
SPATIAL_FILTER
  2
AcDbSpatialFilter
  3
ObjectDBX Classes
 90
        0
 91
        4
280
     0
281
     0
  0
CLASS
  1
XRECORD
  2
AcDbXrecord
  3
ObjectDBX Classes
 90
        0
 91
        1
280
     0
281
     0
  0
CLASS
  1
SORTENTSTABLE
  2
AcDbSortentsTable
  3
ObjectDBX Classes
 90
        0
 91
        4
280
     0
281
     0
  0
CLASS
  1
LAYER_INDEX
  2
AcDbLayerIndex
  3
ObjectDBX Classes
 90
        0
 91
        4
280
     0
281
     0
  0
CLASS
  1
SPATIAL_INDEX
  2
AcDbSpatialIndex
  3
AutoCAD 2000
 90
        0
 91
        4
280
     0
281
     0
  0
CLASS
  1
OBJECT_PTR
  2
CAseDLPNTableRecord
  3
ASE-LPNTableRecord
 90
        1
 91
        4
280
     0
281
     0
  0
CLASS
  1
ACDBDICTIONARYWDFLT
  2
AcDbDictionaryWithDefault
  3
ObjectDBX Classes
 90
        0
 91
        4
280
     0
281
     0
  0
CLASS
  1
MATERIAL
  2
AcDbMaterial
  3
ObjectDBX Classes
 90
     1153
 91
        4
280
     0
281
     0
  0
CLASS
  1
VISUALSTYLE
  2
AcDbVisualStyle
  3
ObjectDBX Classes
 90
     4095
 91
        4
280
     0
281
     0
  0
CLASS
  1
TABLESTYLE
  2
AcDbTableStyle
  3
ObjectDBX Classes
 90
     4095
 91
        4
280
     0
281
     0
  0
CLASS
  1
SCALE
  2
AcDbScale
  3
ObjectDBX Classes
 90
     1153
 91
        4
280
     0
281
     0
  0
CLASS
  1
MLEADERSTYLE
  2
AcDbMLeaderStyle
  3
ACDB_MLEADERSTYLE_CLASS
 90
     4095
 91
        4
280
     0
281
     0
  0
CLASS
  1
CELLSTYLEMAP
  2
AcDbCellStyleMap
  3
ObjectDBX Classes
 90
     1152
 91
        4
280
     0
281
     0
  0
ENDSEC
  0
SECTION
  2
TABLES
  0
TABLE
  2
VPORT
  5
7
330
0
100
AcDbSymbolTable
 70
     1
  0
VPORT
  5
15
330
7
100
AcDbSymbolTableRecord
100
AcDbViewportTableRecord
  2
*ACTIVE
 70
     0
 10
0.0
 20
0.0
 11
1.0
 21
1.0
 12
-48.38024388699195
 22
15.30448771498774
 13
0.0
 23
0.0
 14
1.0
 24
1.0
 15
0.0
 25
0.0
 16
0.0
 26
0.0
 36
1.0
 17
0.0
 27
0.0
 37
0.0
 40
56.36651579877677
 41
2.037356321839081
 42
50.0
 43
0.0
 44
0.0
 50
0.0
 51
0.0
 71
     0
 72
   100
 73
     1
 74
     1
 75
     0
 76
     0
 77
     0
 78
     0
281
     0
 65
     1
110
0.0
120
0.0
130
0.0
111
1.0
121
0.0
131
0.0
112
0.0
122
1.0
132
0.0
 79
     0
146
0.0
348
7FA
 60
     3
 61
     5
292
     1
282
     1
141
0.0
142
0.0
 63
   250
421
  3355443
  0
ENDTAB
  0
TABLE
  2
LTYPE
  5
4
330
0
100
AcDbSymbolTable
 70
     3
  0
LTYPE
  5
11
330
4
100
AcDbSymbolTableRecord
100
AcDbLinetypeTableRecord
  2
BYBLOCK
 70
     0
  3

 72
    65
 73
     0
 40
0.0
  0
LTYPE
  5
12
330
4
100
AcDbSymbolTableRecord
100
AcDbLinetypeTableRecord
  2
BYLAYER
 70
     0
  3

 72
    65
 73
     0
 40
0.0
  0
LTYPE
  5
80
330
4
100
AcDbSymbolTableRecord
100
AcDbLinetypeTableRecord
  2
CONTINUOUS
 70
     0
  3
Continuous
 72
    65
 73
     0
 40
0.0
  0
LTYPE
  5
810
330
4
100
AcDbSymbolTableRecord
100
AcDbLinetypeTableRecord
  2
ACAD_ISO02W100
 70
     0
  3
ISO dash __ __ __ __ __ __ __ __ __ __ __ __ __
 72
    65
 73
     2
 40
15.0
 49
12.0
 74
     0
 49
-3.0
 74
     0
  0
LTYPE
  5
811
330
4
100
AcDbSymbolTableRecord
100
AcDbLinetypeTableRecord
  2
ACAD_ISO04W100
 70
     0
  3
ISO long-dash dot ____ . ____ . ____ . ____ . _
 72
    65
 73
     4
 40
30.0
 49
24.0
 74
     0
 49
-3.0
 74
     0
 49
0.0
 74
     0
 49
-3.0
 74
     0
  0
ENDTAB
  0
TABLE
  2
LAYER
  5
2
102
{ACAD_XDICTIONARY
360
81A
102
}
330
0
100
AcDbSymbolTable
 70
     6
  0
LAYER
  5
83
330
2
100
AcDbSymbolTableRecord
100
AcDbLayerTableRecord
  2
0
 70
     0
 62
     7
  6
CONTINUOUS
370
    -3
390
7EF
347
7F3
  0
LAYER
  5
812
330
2
100
AcDbSymbolTableRecord
100
AcDbLayerTableRecord
  2
Features
 70
     0
 62
     1
  6
CONTINUOUS
370
    -3
390
7EF
347
7F3
  0
LAYER
  5
813
330
2
100
AcDbSymbolTableRecord
100
AcDbLayerTableRecord
  2
kvadrat
 70
     0
 62
     3
  6
ACAD_ISO02W100
370
    -3
390
7EF
347
7F3
  0
LAYER
  5
814
330
2
100
AcDbSymbolTableRecord
100
AcDbLayerTableRecord
  2
stripped_area
 70
     0
 62
     4
  6
ACAD_ISO04W100
370
    -3
390
7EF
347
7F3
  0
LAYER
  5
815
330
2
100
AcDbSymbolTableRecord
100
AcDbLayerTableRecord
  2
TEXT
 70
     0
 62
     7
  6
CONTINUOUS
370
    -3
390
7EF
347
7F3
  0
ENDTAB
  0
TABLE
  2
STYLE
  5
3
330
0
100
AcDbSymbolTable
 70
     1
  0
STYLE
  5
17
330
3
100
AcDbSymbolTableRecord
100
AcDbTextStyleTableRecord
  2
STANDARD
 70
     0
 40
0.0
 41
1.0
 50
0.0
 71
     0
 42
8.0
  3
 txt
  4

  0
ENDTAB
  0
TABLE
  2
VIEW
  5
5
330
0
100
AcDbSymbolTable
 70
     0
  0
ENDTAB
  0
TABLE
  2
UCS
  5
6
330
0
100
AcDbSymbolTable
 70
     0
  0
ENDTAB
  0
TABLE
  2
APPID
  5
8
330
0
100
AcDbSymbolTable
 70
     5
  0
APPID
  5
16
330
8
100
AcDbSymbolTableRecord
100
AcDbRegAppTableRecord
  2
ACAD
 70
     0
  0
APPID
  5
818
330
8
100
AcDbSymbolTableRecord
100
AcDbRegAppTableRecord
  2
AcAecLayerStandard
 70
     0
  0
APPID
  5
819
330
8
100
AcDbSymbolTableRecord
100
AcDbRegAppTableRecord
  2
DCO15
 70
     0
  0
APPID
  5
E3D
330
8
100
AcDbSymbolTableRecord
100
AcDbRegAppTableRecord
  2
ACAD_EXEMPT_FROM_CAD_STANDARDS
 70
     0
  0
APPID
  5
E46
330
8
100
AcDbSymbolTableRecord
100
AcDbRegAppTableRecord
  2
ACAD_PSEXT
 70
     0
  0
ENDTAB
  0
TABLE
  2
DIMSTYLE
  5
9
330
0
100
AcDbSymbolTable
 70
     1
100
AcDbDimStyleTable
  0
DIMSTYLE
105
18
330
9
100
AcDbSymbolTableRecord
100
AcDbDimStyleTableRecord
  2
STANDARD
 70
     0
178
     0
340
17
  0
ENDTAB
  0
TABLE
  2
BLOCK_RECORD
  5
1
330
0
100
AcDbSymbolTable
 70
     0
  0
BLOCK_RECORD
  5
A
102
{ACAD_XDICTIONARY
360
E3A
102
}
330
1
100
AcDbSymbolTableRecord
100
AcDbBlockTableRecord
  2
*MODEL_SPACE
340
80B
 70
     0
280
     1
281
     0
  0
BLOCK_RECORD
  5
B
330
1
100
AcDbSymbolTableRecord
100
AcDbBlockTableRecord
  2
*PAPER_SPACE
340
80C
 70
     0
280
     1
281
     0
  0
ENDTAB
  0
ENDSEC
  0
SECTION
  2
BLOCKS
  0
BLOCK
  5
D
330
A
100
AcDbEntity
  8
0
100
AcDbBlockBegin
  2
*MODEL_SPACE
 70
     0
 10
0.0
 20
0.0
 30
0.0
  3
*MODEL_SPACE
  1

  0
ENDBLK
  5
E
330
A
100
AcDbEntity
  8
0
100
AcDbBlockEnd
  0
BLOCK
  5
F
330
B
100
AcDbEntity
 67
     1
  8
0
100
AcDbBlockBegin
  2
*PAPER_SPACE
 70
     0
 10
0.0
 20
0.0
 30
0.0
  3
*PAPER_SPACE
  1

  0
ENDBLK
  5
10
330
B
100
AcDbEntity
 67
     1
  8
0
100
AcDbBlockEnd
  0
ENDSEC
  0
SECTION
  2
ENTITIES
  0
MTEXT
  5
8C5
330
A
100
AcDbEntity
  8
TEXT
  6
Continuous
100
AcDbMText
 10
-71.05836883688767
 20
30.94676616062051
 30
223.0716078569948
 40
2.0
 41
56.16
 46
0.0
 71
     1
 72
     5
  1
{\fTahoma|b0|i0|c0|p34;409.2 Poylu 2 \H0.75x;Post Medieval Settlement}
 73
     1
 44
1.0
  0
MTEXT
  5
8C6
330
A
100
AcDbEntity
  8
TEXT
  6
Continuous
100
AcDbMText
 10
-71.04424603971142
 20
27.35145618692612
 30
0.0
 40
1.2
 41
851.639
 46
0.0
 71
     1
 72
     5
  1
{\fTahoma|b0|i0|c0|p34;BTC Kp 409.2 \PGrid Reference \fArial|b0|i0|c0|p34;8538121 4566080\P\H0.75x;Compiled from survey data and Museyibli, N. 2006a}
 73
     1
 44
1.0
  0
LWPOLYLINE
  5
8C7
330
A
100
AcDbEntity
  8
TEXT
  6
Continuous
100
AcDbPolyline
 90
        2
 70
   128
 43
0.063
 38
187.1565999999864
 10
-31.44099169441967
 20
21.51186376682933
 10
-29.51233183633673
 20
17.95126095190673
  0
LWPOLYLINE
  5
8C8
330
A
100
AcDbEntity
  8
TEXT
  6
Continuous
100
AcDbPolyline
 90
        2
 70
   128
 38
187.1565999999864
 10
-32.28861977571272
 20
23.07671561484617
 40
0.0
 41
0.6299999999999999
 10
-31.44099169441967
 20
21.51186376682933
 40
0.6299999999999999
 41
0.6299999999999999
  0
MTEXT
  5
8C9
330
A
100
AcDbEntity
  8
TEXT
  6
Continuous
100
AcDbMText
 10
-29.61519411306482
 20
17.53692723424126
 30
-621.6665900000133
 40
0.7349999999999999
 41
0.6957559614628543
 46
0.0
 71
     1
 72
     5
  1
{\fTahoma|b0|i0|c0|p34;N}
 11
0.8792919666961666
 21
0.4762831482464897
 31
0.0
 73
     1
 44
1.0
  0
LWPOLYLINE
  5
8F1
330
A
100
AcDbEntity
  8
kvadrat
 48
0.05
100
AcDbPolyline
 90
        4
 70
   129
 43
0.0
 10
-66.46049726396024
 20
12.4252167202672
 10
-36.46049726396024
 20
12.4252167202672
 10
-36.46049726396024
 20
16.4252167202672
 10
-66.46049726396024
 20
16.4252167202672
  0
LINE
  5
8F8
330
A
100
AcDbEntity
  8
Features
  6
Continuous
100
AcDbLine
 10
-55.77049115627496
 20
12.62211443063519
 30
0.0
 11
-55.72481579103876
 21
12.80481589157989
 31
0.0
  0
LINE
  5
8FC
330
A
100
AcDbEntity
  8
Features
  6
Continuous
100
AcDbLine
 10
-55.77049115627496
 20
16.73289730189169
 30
0.0
 11
-55.72481579103876
 21
16.77857266712789
 31
0.0
  0
LINE
  5
8FD
330
A
100
AcDbEntity
  8
Features
  6
Continuous
100
AcDbLine
 10
-55.77049115627496
 20
17.69207997185159
 30
0.0
 11
-55.72481579103876
 21
17.69207997185159
 31
0.0
  0
LINE
  5
8FE
330
A
100
AcDbEntity
  8
Features
  6
Continuous
100
AcDbLine
 10
-55.67914042580256
 20
12.07401004780099
 30
0.0
 11
-55.63346506056636
 21
12.11968541303709
 31
0.0
  0
LINE
  5
8FF
330
A
100
AcDbEntity
  8
Features
  6
Continuous
100
AcDbLine
 10
-55.63346506056636
 20
12.80481589157989
 30
0.0
 11
-55.40508823438546
 21
12.80481589157989
 31
0.0
  0
LINE
  5
900
330
A
100
AcDbEntity
  8
Features
  6
Continuous
100
AcDbLine
 10
-55.40508823438546
 20
12.80481589157989
 30
0.0
 11
-55.35941286914926
 21
12.85049125681609
 31
0.0
  0
LINE
  5
901
330
A
100
AcDbEntity
  8
Features
  6
Continuous
100
AcDbLine
 10
-55.40508823438546
 20
12.80481589157989
 30
0.0
 11
-55.22238677344076
 21
12.71346516110749
 31
0.0
  0
LINE
  5
902
330
A
100
AcDbEntity
  8
Features
  6
Continuous
100
AcDbLine
 10
-55.22238677344076
 20
12.71346516110749
 30
0.0
 11
-55.03968531249605
 21
12.85049125681609
 31
0.0
  0
LINE
  5
903
330
A
100
AcDbEntity
  8
Features
  6
Continuous
100
AcDbLine
 10
-55.03968531249605
 20
12.85049125681609
 30
0.0
 11
-54.85698385155126
 21
12.85049125681609
 31
0.0
  0
LINE
  5
904
330
A
100
AcDbEntity
  8
Features
  6
Continuous
100
AcDbLine
 10
-54.85698385155126
 20
12.85049125681609
 30
0.0
 11
-54.81130848631506
 21
12.80481589157989
 31
0.0
  0
LINE
  5
905
330
A
100
AcDbEntity
  8
Features
  6
Continuous
100
AcDbLine
 10
-54.81130848631506
 20
12.62211443063519
 30
0.0
 11
-54.81130848631506
 21
12.80481589157989
 31
0.0
  0
LINE
  5
906
330
A
100
AcDbEntity
  8
Features
  6
Continuous
100
AcDbLine
 10
-55.13103604296836
 20
12.98751735252459
 30
0.0
 11
-55.03968531249605
 21
12.85049125681609
 31
0.0
  0
LINE
  5
907
330
A
100
AcDbEntity
  8
Features
  6
Continuous
100
AcDbLine
 10
-55.13103604296836
 20
12.57643906539899
 30
0.0
 11
-55.03968531249605
 21
12.85049125681609
 31
0.0
  0
LINE
  5
908
330
A
100
AcDbEntity
  8
Features
  6
Continuous
100
AcDbLine
 10
-55.17671140820455
 20
12.98751735252459
 30
0.0
 11
-55.13103604296836
 21
12.98751735252459
 31
0.0
  0
LINE
  5
909
330
A
100
AcDbEntity
  8
Features
  6
Continuous
100
AcDbLine
 10
-55.13103604296836
 20
12.98751735252459
 30
0.0
 11
-55.08536067773216
 21
13.12454344823319
 31
0.0
  0
LINE
  5
90A
330
A
100
AcDbEntity
  8
Features
  6
Continuous
100
AcDbLine
 10
-55.08536067773216
 20
13.12454344823319
 30
0.0
 11
-55.03968531249605
 21
13.17021881346939
 31
0.0
  0
LINE
  5
90B
330
A
100
AcDbEntity
  8
Features
  6
Continuous
100
AcDbLine
 10
-55.03968531249605
 20
13.17021881346939
 30
0.0
 11
-54.90265921678746
 21
13.03319271776079
 31
0.0
  0
LINE
  5
90C
330
A
100
AcDbEntity
  8
Features
  6
Continuous
100
AcDbLine
 10
-55.26806213867696
 20
12.94184198728849
 30
0.0
 11
-55.17671140820455
 21
12.98751735252459
 31
0.0
  0
LINE
  5
90D
330
A
100
AcDbEntity
  8
Features
  6
Continuous
100
AcDbLine
 10
-55.22238677344076
 20
13.03319271776079
 30
0.0
 11
-55.17671140820455
 21
12.98751735252459
 31
0.0
  0
LINE
  5
90E
330
A
100
AcDbEntity
  8
Features
  6
Continuous
100
AcDbLine
 10
-55.49643896485786
 20
16.91559876283649
 30
0.0
 11
-55.35941286914926
 21
16.96127412807259
 31
0.0
  0
LINE
  5
90F
330
A
100
AcDbEntity
  8
Features
  6
Continuous
100
AcDbLine
 10
-55.49643896485786
 20
17.82910606756009
 30
0.0
 11
-55.35941286914926
 21
17.96613216326869
 31
0.0
  0
LINE
  5
910
330
A
100
AcDbEntity
  8
Features
  6
Continuous
100
AcDbLine
 10
-55.22238677344076
 20
17.09830022378119
 30
0.0
 11
-55.08536067773216
 21
17.14397558901739
 31
0.0
  0
LINE
  5
911
330
A
100
AcDbEntity
  8
Features
  6
Continuous
100
AcDbLine
 10
-55.13103604296836
 20
18.05748289374109
 30
0.0
 11
-54.90265921678746
 21
18.24018435468579
 31
0.0
  0
LINE
  5
912
330
A
100
AcDbEntity
  8
Features
  6
Continuous
100
AcDbLine
 10
-54.99400994725986
 20
17.23532631948969
 30
0.0
 11
-54.85698385155126
 21
17.28100168472589
 31
0.0
  0
LINE
  5
913
330
A
100
AcDbEntity
  8
Features
  6
Continuous
100
AcDbLine
 10
-54.94833458202366
 20
12.57643906539899
 30
0.0
 11
-54.90265921678746
 21
12.57643906539899
 31
0.0
  0
LINE
  5
914
330
A
100
AcDbEntity
  8
Features
  6
Continuous
100
AcDbLine
 10
-54.94833458202366
 20
13.21589417870559
 30
0.0
 11
-54.85698385155126
 21
13.21589417870559
 31
0.0
  0
LINE
  5
916
330
A
100
AcDbEntity
  8
Features
  6
Continuous
100
AcDbLine
 10
-54.81130848631506
 20
13.30724490917789
 30
0.0
 11
-54.67428239060656
 21
13.17021881346939
 31
0.0
  0
LINE
  5
917
330
A
100
AcDbEntity
  8
Features
  6
Continuous
100
AcDbLine
 10
-54.67428239060656
 20
13.17021881346939
 30
0.0
 11
-54.62860702537036
 21
13.21589417870559
 31
0.0
  0
LINE
  5
918
330
A
100
AcDbEntity
  8
Features
  6
Continuous
100
AcDbLine
 10
-54.62860702537036
 20
13.21589417870559
 30
0.0
 11
-54.53725629489796
 21
13.12454344823319
 31
0.0
  0
LINE
  5
919
330
A
100
AcDbEntity
  8
Features
  6
Continuous
100
AcDbLine
 10
-54.58293166013416
 20
12.98751735252459
 30
0.0
 11
-54.53725629489796
 21
13.12454344823319
 31
0.0
  0
LINE
  5
91A
330
A
100
AcDbEntity
  8
Features
  6
Continuous
100
AcDbLine
 10
-54.58293166013416
 20
12.98751735252459
 30
0.0
 11
-54.53725629489796
 21
12.94184198728849
 31
0.0
  0
LINE
  5
91B
330
A
100
AcDbEntity
  8
Features
  6
Continuous
100
AcDbLine
 10
-54.53725629489796
 20
12.94184198728849
 30
0.0
 11
-54.40023019918946
 21
12.94184198728849
 31
0.0
  0
LINE
  5
91C
330
A
100
AcDbEntity
  8
Features
  6
Continuous
100
AcDbLine
 10
-54.71995775584276
 20
13.07886808299699
 30
0.0
 11
-54.67428239060656
 21
13.17021881346939
 31
0.0
  0
LINE
  5
91D
330
A
100
AcDbEntity
  8
Features
  6
Continuous
100
AcDbLine
 10
-54.40023019918946
 20
12.94184198728849
 30
0.0
 11
-54.35455483395326
 21
12.89616662205229
 31
0.0
  0
LINE
  5
91E
330
A
100
AcDbEntity
  8
Features
  6
Continuous
100
AcDbLine
 10
-54.40023019918946
 20
12.94184198728849
 30
0.0
 11
-54.35455483395326
 21
12.98751735252459
 31
0.0
  0
LINE
  5
91F
330
A
100
AcDbEntity
  8
Features
  6
Continuous
100
AcDbLine
 10
-54.35455483395326
 20
12.89616662205229
 30
0.0
 11
-54.26320410348086
 21
12.89616662205229
 31
0.0
  0
LINE
  5
920
330
A
100
AcDbEntity
  8
Features
  6
Continuous
100
AcDbLine
 10
-54.40023019918946
 20
12.85049125681609
 30
0.0
 11
-54.35455483395326
 21
12.89616662205229
 31
0.0
  0
LINE
  5
921
330
A
100
AcDbEntity
  8
Features
  6
Continuous
100
AcDbLine
 10
-54.40023019918946
 20
12.85049125681609
 30
0.0
 11
-54.30887946871706
 21
12.75914052634369
 31
0.0
  0
LINE
  5
924
330
A
100
AcDbEntity
  8
Features
  6
Continuous
100
AcDbLine
 10
-54.08050264253616
 20
12.71346516110749
 30
0.0
 11
-54.08050264253616
 21
12.75914052634369
 31
0.0
  0
LINE
  5
925
330
A
100
AcDbEntity
  8
Features
  6
Continuous
100
AcDbLine
 10
-53.85212581635525
 20
12.75914052634369
 30
0.0
 11
-53.80645045111905
 21
12.80481589157989
 31
0.0
  0
LINE
  5
926
330
A
100
AcDbEntity
  8
Features
  6
Continuous
100
AcDbLine
 10
-53.85212581635525
 20
12.75914052634369
 30
0.0
 11
-53.80645045111905
 21
12.62211443063519
 31
0.0
  0
LINE
  5
927
330
A
100
AcDbEntity
  8
Features
  6
Continuous
100
AcDbLine
 10
-53.80645045111905
 20
12.80481589157989
 30
0.0
 11
-53.66942435541046
 21
12.80481589157989
 31
0.0
  0
LINE
  5
928
330
A
100
AcDbEntity
  8
Features
  6
Continuous
100
AcDbLine
 10
-53.89780118159145
 20
12.94184198728849
 30
0.0
 11
-53.80645045111905
 21
12.80481589157989
 31
0.0
  0
LINE
  5
929
330
A
100
AcDbEntity
  8
Features
  6
Continuous
100
AcDbLine
 10
-53.89780118159145
 20
12.94184198728849
 30
0.0
 11
-53.85212581635525
 21
13.03319271776079
 31
0.0
  0
LINE
  5
92A
330
A
100
AcDbEntity
  8
Features
  6
Continuous
100
AcDbLine
 10
-53.66942435541046
 20
12.80481589157989
 30
0.0
 11
-53.53239825970196
 21
12.89616662205229
 31
0.0
  0
LINE
  5
92B
330
A
100
AcDbEntity
  8
Features
  6
Continuous
100
AcDbLine
 10
-53.66942435541046
 20
12.80481589157989
 30
0.0
 11
-53.57807362493816
 21
12.71346516110749
 31
0.0
  0
LINE
  5
92C
330
A
100
AcDbEntity
  8
Features
  6
Continuous
100
AcDbLine
 10
-53.57807362493816
 20
12.71346516110749
 30
0.0
 11
-53.44104752922956
 21
12.80481589157989
 31
0.0
  0
LINE
  5
92D
330
A
100
AcDbEntity
  8
Features
  6
Continuous
100
AcDbLine
 10
-53.44104752922956
 20
12.80481589157989
 30
0.0
 11
-53.30402143352106
 21
12.71346516110749
 31
0.0
  0
LINE
  5
92E
330
A
100
AcDbEntity
  8
Features
  6
Continuous
100
AcDbLine
 10
-53.30402143352106
 20
12.71346516110749
 30
0.0
 11
-53.21267070304866
 21
12.80481589157989
 31
0.0
  0
LINE
  5
92F
330
A
100
AcDbEntity
  8
Features
  6
Continuous
100
AcDbLine
 10
-53.21267070304866
 20
12.80481589157989
 30
0.0
 11
-53.16699533781246
 21
12.75914052634369
 31
0.0
  0
LINE
  5
930
330
A
100
AcDbEntity
  8
Features
  6
Continuous
100
AcDbLine
 10
-53.16699533781246
 20
12.75914052634369
 30
0.0
 11
-52.98429387686776
 21
12.80481589157989
 31
0.0
  0
LINE
  5
931
330
A
100
AcDbEntity
  8
Features
  6
Continuous
100
AcDbLine
 10
-53.16699533781246
 20
12.71346516110749
 30
0.0
 11
-53.16699533781246
 21
12.75914052634369
 31
0.0
  0
LINE
  5
932
330
A
100
AcDbEntity
  8
Features
  6
Continuous
100
AcDbLine
 10
-52.98429387686776
 20
12.80481589157989
 30
0.0
 11
-52.89294314639536
 21
12.71346516110749
 31
0.0
  0
LINE
  5
933
330
A
100
AcDbEntity
  8
Features
  6
Continuous
100
AcDbLine
 10
-53.07564460734006
 20
12.98751735252458
 30
0.0
 11
-52.98429387686776
 21
12.80481589157989
 31
0.0
  0
LINE
  5
936
330
A
100
AcDbEntity
  8
Features
  6
Continuous
100
AcDbLine
 10
-52.89294314639536
 20
12.71346516110749
 30
0.0
 11
-52.75591705068686
 21
12.57643906539899
 31
0.0
  0
LINE
  5
937
330
A
100
AcDbEntity
  8
Features
  6
Continuous
100
AcDbLine
 10
-53.12131997257626
 20
12.94184198728849
 30
0.0
 11
-53.07564460734006
 21
12.98751735252458
 31
0.0
  0
LINE
  5
938
330
A
100
AcDbEntity
  8
Features
  6
Continuous
100
AcDbLine
 10
-53.16699533781246
 20
13.03319271776079
 30
0.0
 11
-53.07564460734006
 21
12.98751735252458
 31
0.0
  0
LINE
  5
939
330
A
100
AcDbEntity
  8
Features
  6
Continuous
100
AcDbLine
 10
-53.30402143352106
 20
12.94184198728849
 30
0.0
 11
-53.16699533781246
 21
13.03319271776079
 31
0.0
  0
LINE
  5
93A
330
A
100
AcDbEntity
  8
Features
  6
Continuous
100
AcDbLine
 10
-53.25834606828486
 20
13.21589417870559
 30
0.0
 11
-53.16699533781246
 21
13.03319271776079
 31
0.0
  0
LINE
  5
93B
330
A
100
AcDbEntity
  8
Features
  6
Continuous
100
AcDbLine
 10
-53.30402143352106
 20
12.94184198728849
 30
0.0
 11
-53.25834606828486
 21
12.89616662205229
 31
0.0
  0
LINE
  5
93C
330
A
100
AcDbEntity
  8
Features
  6
Continuous
100
AcDbLine
 10
-53.34969679875716
 20
12.94184198728849
 30
0.0
 11
-53.30402143352106
 21
12.94184198728849
 31
0.0
  0
LINE
  5
93D
330
A
100
AcDbEntity
  8
Features
  6
Continuous
100
AcDbLine
 10
-54.81130848631506
 20
18.24018435468579
 30
0.0
 11
-54.67428239060656
 21
18.24018435468579
 31
0.0
  0
LINE
  5
93E
330
A
100
AcDbEntity
  8
Features
  6
Continuous
100
AcDbLine
 10
-54.67428239060656
 20
17.28100168472589
 30
0.0
 11
-54.58293166013416
 21
17.23532631948969
 31
0.0
  0
LINE
  5
93F
330
A
100
AcDbEntity
  8
Features
  6
Continuous
100
AcDbLine
 10
-54.58293166013416
 20
12.71346516110749
 30
0.0
 11
-54.58293166013416
 21
12.80481589157989
 31
0.0
  0
LINE
  5
940
330
A
100
AcDbEntity
  8
Features
  6
Continuous
100
AcDbLine
 10
-54.58293166013416
 20
13.48994637012269
 30
0.0
 11
-54.58293166013416
 21
13.53562173535879
 31
0.0
  0
LINE
  5
941
330
A
100
AcDbEntity
  8
Features
  6
Continuous
100
AcDbLine
 10
-54.58293166013416
 20
18.05748289374109
 30
0.0
 11
-54.49158092966176
 21
17.96613216326869
 31
0.0
  0
LINE
  5
942
330
A
100
AcDbEntity
  8
Features
  6
Continuous
100
AcDbLine
 10
-54.49158092966176
 20
13.26156954394169
 30
0.0
 11
-54.40023019918946
 21
13.30724490917789
 31
0.0
  0
LINE
  5
943
330
A
100
AcDbEntity
  8
Features
  6
Continuous
100
AcDbLine
 10
-54.49158092966176
 20
13.58129710059499
 30
0.0
 11
-54.35455483395326
 21
13.62697246583119
 31
0.0
  0
LINE
  5
944
330
A
100
AcDbEntity
  8
Features
  6
Continuous
100
AcDbLine
 10
-54.35455483395326
 20
13.62697246583119
 30
0.0
 11
-54.26320410348086
 21
13.62697246583119
 31
0.0
  0
LINE
  5
945
330
A
100
AcDbEntity
  8
Features
  6
Continuous
100
AcDbLine
 10
-54.40023019918946
 20
13.67264783106739
 30
0.0
 11
-54.35455483395326
 21
13.62697246583119
 31
0.0
  0
LINE
  5
946
330
A
100
AcDbEntity
  8
Features
  6
Continuous
100
AcDbLine
 10
-54.26320410348086
 20
13.62697246583119
 30
0.0
 11
-54.21752873824466
 21
13.71832319630359
 31
0.0
  0
LINE
  5
947
330
A
100
AcDbEntity
  8
Features
  6
Continuous
100
AcDbLine
 10
-54.26320410348086
 20
13.62697246583119
 30
0.0
 11
-54.21752873824466
 21
13.44427100488649
 31
0.0
  0
LINE
  5
948
330
A
100
AcDbEntity
  8
Features
  6
Continuous
100
AcDbLine
 10
-54.44590556442566
 20
17.05262485854499
 30
0.0
 11
-54.26320410348086
 21
16.86992339760029
 31
0.0
  0
LINE
  5
949
330
A
100
AcDbEntity
  8
Features
  6
Continuous
100
AcDbLine
 10
-54.30887946871706
 20
13.35292027441409
 30
0.0
 11
-54.26320410348086
 21
13.35292027441409
 31
0.0
  0
LINE
  5
94A
330
A
100
AcDbEntity
  8
Features
  6
Continuous
100
AcDbLine
 10
-54.26320410348086
 20
13.07886808299699
 30
0.0
 11
-54.17185337300856
 21
13.12454344823319
 31
0.0
  0
LINE
  5
94B
330
A
100
AcDbEntity
  8
Features
  6
Continuous
100
AcDbLine
 10
-54.26320410348086
 20
17.73775533708779
 30
0.0
 11
-54.21752873824466
 21
17.69207997185159
 31
0.0
  0
LINE
  5
94C
330
A
100
AcDbEntity
  8
Features
  6
Continuous
100
AcDbLine
 10
-54.21752873824466
 20
13.99237538772069
 30
0.0
 11
-54.12617800777236
 21
13.94670002248449
 31
0.0
  0
LINE
  5
94D
330
A
100
AcDbEntity
  8
Features
  6
Continuous
100
AcDbLine
 10
-54.12617800777236
 20
13.94670002248449
 30
0.0
 11
-54.03482727729996
 21
14.08372611819309
 31
0.0
  0
LINE
  5
94E
330
A
100
AcDbEntity
  8
Features
  6
Continuous
100
AcDbLine
 10
-54.03482727729996
 20
14.08372611819309
 30
0.0
 11
-53.94347654682756
 21
14.08372611819309
 31
0.0
  0
LINE
  5
94F
330
A
100
AcDbEntity
  8
Features
  6
Continuous
100
AcDbLine
 10
-54.08050264253616
 20
14.12940148342919
 30
0.0
 11
-54.03482727729996
 21
14.08372611819309
 31
0.0
  0
LINE
  5
950
330
A
100
AcDbEntity
  8
Features
  6
Continuous
100
AcDbLine
 10
-54.17185337300856
 20
13.21589417870559
 30
0.0
 11
-54.08050264253616
 21
13.30724490917789
 31
0.0
  0
LINE
  5
951
330
A
100
AcDbEntity
  8
Features
  6
Continuous
100
AcDbLine
 10
-54.17185337300856
 20
13.80967392677599
 30
0.0
 11
-54.08050264253616
 21
13.85534929201209
 31
0.0
  0
LINE
  5
952
330
A
100
AcDbEntity
  8
Features
  6
Continuous
100
AcDbLine
 10
-54.08050264253616
 20
13.85534929201209
 30
0.0
 11
-53.98915191206375
 21
13.90102465724829
 31
0.0
  0
LINE
  5
953
330
A
100
AcDbEntity
  8
Features
  6
Continuous
100
AcDbLine
 10
-54.08050264253616
 20
13.85534929201209
 30
0.0
 11
-54.03482727729996
 21
13.80967392677599
 31
0.0
  0
LINE
  5
954
330
A
100
AcDbEntity
  8
Features
  6
Continuous
100
AcDbLine
 10
-54.12617800777236
 20
16.77857266712789
 30
0.0
 11
-54.03482727729996
 21
16.68722193665549
 31
0.0
  0
LINE
  5
955
330
A
100
AcDbEntity
  8
Features
  6
Continuous
100
AcDbLine
 10
-54.08050264253616
 20
13.07886808299699
 30
0.0
 11
-53.94347654682756
 21
13.07886808299699
 31
0.0
  0
LINE
  5
956
330
A
100
AcDbEntity
  8
Features
  6
Continuous
100
AcDbLine
 10
-54.08050264253616
 20
17.50937851090689
 30
0.0
 11
-54.03482727729996
 21
17.50937851090689
 31
0.0
  0
LINE
  5
957
330
A
100
AcDbEntity
  8
Features
  6
Continuous
100
AcDbLine
 10
-54.03482727729996
 20
13.48994637012269
 30
0.0
 11
-53.98915191206375
 21
13.48994637012269
 31
0.0
  0
LINE
  5
958
330
A
100
AcDbEntity
  8
Features
  6
Continuous
100
AcDbLine
 10
-53.94347654682756
 20
14.22075221390159
 30
0.0
 11
-53.89780118159145
 21
14.17507684866539
 31
0.0
  0
LINE
  5
959
330
A
100
AcDbEntity
  8
Features
  6
Continuous
100
AcDbLine
 10
-53.89780118159145
 20
13.53562173535879
 30
0.0
 11
-53.80645045111905
 21
13.62697246583119
 31
0.0
  0
LINE
  5
95A
330
A
100
AcDbEntity
  8
Features
  6
Continuous
100
AcDbLine
 10
-53.80645045111905
 20
13.62697246583119
 30
0.0
 11
-53.76077508588286
 21
13.67264783106739
 31
0.0
  0
LINE
  5
95B
330
A
100
AcDbEntity
  8
Features
  6
Continuous
100
AcDbLine
 10
-53.85212581635525
 20
13.67264783106739
 30
0.0
 11
-53.80645045111905
 21
13.62697246583119
 31
0.0
  0
LINE
  5
95C
330
A
100
AcDbEntity
  8
Features
  6
Continuous
100
AcDbLine
 10
-53.76077508588286
 20
13.67264783106739
 30
0.0
 11
-53.66942435541046
 21
13.62697246583119
 31
0.0
  0
LINE
  5
95D
330
A
100
AcDbEntity
  8
Features
  6
Continuous
100
AcDbLine
 10
-53.76077508588286
 20
13.67264783106739
 30
0.0
 11
-53.71509972064666
 21
13.76399856153979
 31
0.0
  0
LINE
  5
95E
330
A
100
AcDbEntity
  8
Features
  6
Continuous
100
AcDbLine
 10
-53.66942435541046
 20
13.62697246583119
 30
0.0
 11
-53.48672289446576
 21
13.76399856153979
 31
0.0
  0
LINE
  5
95F
330
A
100
AcDbEntity
  8
Features
  6
Continuous
100
AcDbLine
 10
-53.66942435541046
 20
13.62697246583119
 30
0.0
 11
-53.34969679875716
 21
13.35292027441409
 31
0.0
  0
LINE
  5
960
330
A
100
AcDbEntity
  8
Features
  6
Continuous
100
AcDbLine
 10
-53.34969679875716
 20
13.35292027441409
 30
0.0
 11
-53.25834606828486
 21
13.48994637012269
 31
0.0
  0
LINE
  5
961
330
A
100
AcDbEntity
  8
Features
  6
Continuous
100
AcDbLine
 10
-53.89780118159145
 20
17.23532631948969
 30
0.0
 11
-53.89780118159145
 21
17.32667704996209
 31
0.0
  0
LINE
  5
962
330
A
100
AcDbEntity
  8
Features
  6
Continuous
100
AcDbLine
 10
-53.85212581635525
 20
13.26156954394169
 30
0.0
 11
-53.76077508588286
 21
13.35292027441409
 31
0.0
  0
LINE
  5
963
330
A
100
AcDbEntity
  8
Features
  6
Continuous
100
AcDbLine
 10
-53.85212581635525
 20
14.08372611819309
 30
0.0
 11
-53.76077508588286
 21
14.03805075295689
 31
0.0
  0
LINE
  5
964
330
A
100
AcDbEntity
  8
Features
  6
Continuous
100
AcDbLine
 10
-53.76077508588286
 20
14.03805075295689
 30
0.0
 11
-53.53239825970196
 21
14.03805075295689
 31
0.0
  0
LINE
  5
965
330
A
100
AcDbEntity
  8
Features
  6
Continuous
100
AcDbLine
 10
-53.80645045111905
 20
13.99237538772069
 30
0.0
 11
-53.76077508588286
 21
14.03805075295689
 31
0.0
  0
LINE
  5
966
330
A
100
AcDbEntity
  8
Features
  6
Continuous
100
AcDbLine
 10
-53.53239825970196
 20
14.03805075295689
 30
0.0
 11
-53.48672289446576
 21
14.03805075295689
 31
0.0
  0
LINE
  5
967
330
A
100
AcDbEntity
  8
Features
  6
Continuous
100
AcDbLine
 10
-53.57807362493816
 20
13.94670002248449
 30
0.0
 11
-53.53239825970196
 21
14.03805075295689
 31
0.0
  0
LINE
  5
968
330
A
100
AcDbEntity
  8
Features
  6
Continuous
100
AcDbLine
 10
-53.48672289446576
 20
14.03805075295689
 30
0.0
 11
-53.34969679875716
 21
14.17507684866539
 31
0.0
  0
LINE
  5
969
330
A
100
AcDbEntity
  8
Features
  6
Continuous
100
AcDbLine
 10
-53.48672289446576
 20
14.03805075295689
 30
0.0
 11
-53.39537216399336
 21
13.99237538772069
 31
0.0
  0
LINE
  5
96A
330
A
100
AcDbEntity
  8
Features
  6
Continuous
100
AcDbLine
 10
-53.39537216399336
 20
13.99237538772069
 30
0.0
 11
-53.34969679875716
 21
14.03805075295689
 31
0.0
  0
LINE
  5
96B
330
A
100
AcDbEntity
  8
Features
  6
Continuous
100
AcDbLine
 10
-53.39537216399336
 20
13.99237538772069
 30
0.0
 11
-53.30402143352106
 21
13.90102465724829
 31
0.0
  0
LINE
  5
96C
330
A
100
AcDbEntity
  8
Features
  6
Continuous
100
AcDbLine
 10
-53.30402143352106
 20
13.90102465724829
 30
0.0
 11
-53.25834606828486
 21
13.94670002248449
 31
0.0
  0
LINE
  5
96D
330
A
100
AcDbEntity
  8
Features
  6
Continuous
100
AcDbLine
 10
-53.25834606828486
 20
13.94670002248449
 30
0.0
 11
-53.21267070304866
 21
13.90102465724829
 31
0.0
  0
LINE
  5
96E
330
A
100
AcDbEntity
  8
Features
  6
Continuous
100
AcDbLine
 10
-53.21267070304866
 20
13.76399856153979
 30
0.0
 11
-53.21267070304866
 21
13.90102465724829
 31
0.0
  0
LINE
  5
96F
330
A
100
AcDbEntity
  8
Features
  6
Continuous
100
AcDbLine
 10
-53.80645045111905
 20
16.18479291905749
 30
0.0
 11
-53.66942435541046
 21
16.23046828429369
 31
0.0
  0
LINE
  5
970
330
A
100
AcDbEntity
  8
Features
  6
Continuous
100
AcDbLine
 10
-53.66942435541046
 20
16.23046828429369
 30
0.0
 11
-53.48672289446576
 21
16.13911755382129
 31
0.0
  0
LINE
  5
971
330
A
100
AcDbEntity
  8
Features
  6
Continuous
100
AcDbLine
 10
-53.48672289446576
 20
16.13911755382129
 30
0.0
 11
-53.44104752922956
 21
16.18479291905749
 31
0.0
  0
LINE
  5
972
330
A
100
AcDbEntity
  8
Features
  6
Continuous
100
AcDbLine
 10
-53.48672289446576
 20
16.13911755382129
 30
0.0
 11
-53.39537216399336
 21
16.00209145811279
 31
0.0
  0
LINE
  5
973
330
A
100
AcDbEntity
  8
Features
  6
Continuous
100
AcDbLine
 10
-53.44104752922956
 20
16.18479291905749
 30
0.0
 11
-53.25834606828486
 21
16.18479291905749
 31
0.0
  0
LINE
  5
974
330
A
100
AcDbEntity
  8
Features
  6
Continuous
100
AcDbLine
 10
-53.48672289446576
 20
16.23046828429369
 30
0.0
 11
-53.44104752922956
 21
16.18479291905749
 31
0.0
  0
LINE
  5
975
330
A
100
AcDbEntity
  8
Features
  6
Continuous
100
AcDbLine
 10
-53.76077508588286
 20
13.17021881346939
 30
0.0
 11
-53.57807362493816
 21
13.12454344823319
 31
0.0
  0
LINE
  5
976
330
A
100
AcDbEntity
  8
Features
  6
Continuous
100
AcDbLine
 10
-53.57807362493816
 20
13.12454344823319
 30
0.0
 11
-53.53239825970196
 21
13.03319271776079
 31
0.0
  0
LINE
  5
977
330
A
100
AcDbEntity
  8
Features
  6
Continuous
100
AcDbLine
 10
-53.76077508588286
 20
13.48994637012269
 30
0.0
 11
-53.76077508588286
 21
13.53562173535879
 31
0.0
  0
LINE
  5
978
330
A
100
AcDbEntity
  8
Features
  6
Continuous
100
AcDbLine
 10
-53.66942435541046
 20
12.48508833492659
 30
0.0
 11
-53.62374899017436
 21
12.48508833492659
 31
0.0
  0
LINE
  5
979
330
A
100
AcDbEntity
  8
Features
  6
Continuous
100
AcDbLine
 10
-53.62374899017436
 20
17.00694949330879
 30
0.0
 11
-53.57807362493816
 21
16.91559876283649
 31
0.0
  0
LINE
  5
97A
330
A
100
AcDbEntity
  8
Features
  6
Continuous
100
AcDbLine
 10
-53.57807362493816
 20
12.39373760445419
 30
0.0
 11
-53.53239825970196
 21
12.39373760445419
 31
0.0
  0
LINE
  5
97B
330
A
100
AcDbEntity
  8
Features
  6
Continuous
100
AcDbLine
 10
-53.53239825970196
 20
14.26642757913779
 30
0.0
 11
-53.48672289446576
 21
14.22075221390159
 31
0.0
  0
LINE
  5
97C
330
A
100
AcDbEntity
  8
Features
  6
Continuous
100
AcDbLine
 10
-53.48672289446576
 20
14.22075221390159
 30
0.0
 11
-53.34969679875716
 21
14.31210294437399
 31
0.0
  0
LINE
  5
97D
330
A
100
AcDbEntity
  8
Features
  6
Continuous
100
AcDbLine
 10
-53.48672289446576
 20
14.17507684866539
 30
0.0
 11
-53.48672289446576
 21
14.22075221390159
 31
0.0
  0
LINE
  5
97E
330
A
100
AcDbEntity
  8
Features
  6
Continuous
100
AcDbLine
 10
-53.48672289446576
 20
13.90102465724829
 30
0.0
 11
-53.44104752922956
 21
13.85534929201209
 31
0.0
  0
LINE
  5
97F
330
A
100
AcDbEntity
  8
Features
  6
Continuous
100
AcDbLine
 10
-53.44104752922956
 20
12.21103614350949
 30
0.0
 11
-53.39537216399336
 21
12.11968541303709
 31
0.0
  0
LINE
  5
980
330
A
100
AcDbEntity
  8
Features
  6
Continuous
100
AcDbLine
 10
-53.44104752922956
 20
16.73289730189169
 30
0.0
 11
-53.44104752922956
 21
16.77857266712789
 31
0.0
  0
LINE
  5
981
330
A
100
AcDbEntity
  8
Features
  6
Continuous
100
AcDbLine
 10
-53.39537216399336
 20
13.67264783106739
 30
0.0
 11
-53.30402143352106
 21
13.67264783106739
 31
0.0
  0
LINE
  5
982
330
A
100
AcDbEntity
  8
Features
  6
Continuous
100
AcDbLine
 10
-53.34969679875716
 20
13.58129710059499
 30
0.0
 11
-53.30402143352106
 21
13.67264783106739
 31
0.0
  0
LINE
  5
983
330
A
100
AcDbEntity
  8
Features
  6
Continuous
100
AcDbLine
 10
-53.30402143352106
 20
15.86506536240419
 30
0.0
 11
-53.25834606828486
 21
15.95641609287659
 31
0.0
  0
LINE
  5
984
330
A
100
AcDbEntity
  8
Features
  6
Continuous
100
AcDbLine
 10
-53.25834606828486
 20
11.93698395209239
 30
0.0
 11
-53.12131997257626
 21
11.79995785638388
 31
0.0
  0
LINE
  5
985
330
A
100
AcDbEntity
  8
Features
  6
Continuous
100
AcDbLine
 10
-53.25834606828486
 20
14.35777830961019
 30
0.0
 11
-53.12131997257626
 21
14.22075221390159
 31
0.0
  0
LINE
  5
986
330
A
100
AcDbEntity
  8
Features
  6
Continuous
100
AcDbLine
 10
-53.12131997257626
 20
14.22075221390159
 30
0.0
 11
-53.02996924210396
 21
13.90102465724829
 31
0.0
  0
LINE
  5
987
330
A
100
AcDbEntity
  8
Features
  6
Continuous
100
AcDbLine
 10
-53.21267070304866
 20
14.12940148342919
 30
0.0
 11
-53.12131997257626
 21
14.22075221390159
 31
0.0
  0
LINE
  5
988
330
A
100
AcDbEntity
  8
Features
  6
Continuous
100
AcDbLine
 10
-53.21267070304866
 20
13.62697246583119
 30
0.0
 11
-53.12131997257626
 21
13.58129710059499
 31
0.0
  0
LINE
  5
989
330
A
100
AcDbEntity
  8
Features
  6
Continuous
100
AcDbLine
 10
-53.21267070304866
 20
15.68236390145949
 30
0.0
 11
-53.16699533781246
 21
15.77371463193189
 31
0.0
  0
LINE
  5
98A
330
A
100
AcDbEntity
  8
Features
  6
Continuous
100
AcDbLine
 10
-53.16699533781246
 20
15.77371463193189
 30
0.0
 11
-52.98429387686776
 21
15.81938999716798
 31
0.0
  0
LINE
  5
98B
330
A
100
AcDbEntity
  8
Features
  6
Continuous
100
AcDbLine
 10
-53.21267070304866
 20
15.81938999716799
 30
0.0
 11
-53.16699533781246
 21
15.77371463193189
 31
0.0
  0
LINE
  5
98C
330
A
100
AcDbEntity
  8
Features
  6
Continuous
100
AcDbLine
 10
-53.12131997257626
 20
16.00209145811279
 30
0.0
 11
-52.98429387686776
 21
16.18479291905749
 31
0.0
  0
LINE
  5
98E
330
A
100
AcDbEntity
  8
Features
  6
Continuous
100
AcDbLine
 10
-53.02996924210396
 20
16.27614364952989
 30
0.0
 11
-52.98429387686776
 21
16.18479291905749
 31
0.0
  0
LINE
  5
98F
330
A
100
AcDbEntity
  8
Features
  6
Continuous
100
AcDbLine
 10
-53.02996924210396
 20
13.58129710059499
 30
0.0
 11
-52.98429387686776
 21
13.62697246583119
 31
0.0
  0
LINE
  5
990
330
A
100
AcDbEntity
  8
Features
  6
Continuous
100
AcDbLine
 10
-53.02996924210396
 20
15.49966244051479
 30
0.0
 11
-52.89294314639536
 21
15.40831171004239
 31
0.0
  0
LINE
  5
991
330
A
100
AcDbEntity
  8
Features
  6
Continuous
100
AcDbLine
 10
-53.02996924210396
 20
15.49966244051479
 30
0.0
 11
-52.98429387686776
 21
15.63668853622329
 31
0.0
  0
LINE
  5
992
330
A
100
AcDbEntity
  8
Features
  6
Continuous
100
AcDbLine
 10
-52.89294314639536
 20
15.40831171004239
 30
0.0
 11
-52.84726778115916
 21
15.45398707527859
 31
0.0
  0
LINE
  5
993
330
A
100
AcDbEntity
  8
Features
  6
Continuous
100
AcDbLine
 10
-52.89294314639536
 20
15.40831171004239
 30
0.0
 11
-52.61889095497826
 21
15.22561024909769
 31
0.0
  0
LINE
  5
994
330
A
100
AcDbEntity
  8
Features
  6
Continuous
100
AcDbLine
 10
-52.98429387686776
 20
11.66293176067528
 30
0.0
 11
-52.93861851163155
 21
11.52590566496679
 31
0.0
  0
LINE
  5
995
330
A
100
AcDbEntity
  8
Features
  6
Continuous
100
AcDbLine
 10
-52.93861851163155
 20
11.52590566496679
 30
0.0
 11
-52.89294314639536
 21
11.48023029973059
 31
0.0
  0
LINE
  5
997
330
A
100
AcDbEntity
  8
Features
  6
Continuous
100
AcDbLine
 10
-52.98429387686776
 20
13.76399856153979
 30
0.0
 11
-52.93861851163155
 21
13.71832319630359
 31
0.0
  0
LINE
  5
998
330
A
100
AcDbEntity
  8
Features
  6
Continuous
100
AcDbLine
 10
-52.98429387686776
 20
13.76399856153979
 30
0.0
 11
-52.98429387686776
 21
13.80967392677599
 31
0.0
  0
LINE
  5
999
330
A
100
AcDbEntity
  8
Features
  6
Continuous
100
AcDbLine
 10
-52.98429387686776
 20
14.12940148342918
 30
0.0
 11
-52.93861851163155
 21
14.08372611819308
 31
0.0
  0
LINE
  5
99A
330
A
100
AcDbEntity
  8
Features
  6
Continuous
100
AcDbLine
 10
-52.98429387686776
 20
14.12940148342918
 30
0.0
 11
-52.93861851163155
 21
14.22075221390159
 31
0.0
  0
LINE
  5
99B
330
A
100
AcDbEntity
  8
Features
  6
Continuous
100
AcDbLine
 10
-52.93861851163155
 20
14.22075221390159
 30
0.0
 11
-52.89294314639536
 21
14.17507684866539
 31
0.0
  0
LINE
  5
99C
330
A
100
AcDbEntity
  8
Features
  6
Continuous
100
AcDbLine
 10
-52.98429387686776
 20
14.54047977055489
 30
0.0
 11
-52.89294314639536
 21
14.54047977055489
 31
0.0
  0
LINE
  5
99D
330
A
100
AcDbEntity
  8
Features
  6
Continuous
100
AcDbLine
 10
-52.98429387686776
 20
16.00209145811279
 30
0.0
 11
-52.84726778115916
 21
15.86506536240419
 31
0.0
  0
LINE
  5
99E
330
A
100
AcDbEntity
  8
Features
  6
Continuous
100
AcDbLine
 10
-52.84726778115916
 20
15.86506536240419
 30
0.0
 11
-52.80159241592295
 21
15.91074072764039
 31
0.0
  0
LINE
  5
99F
330
A
100
AcDbEntity
  8
Features
  6
Continuous
100
AcDbLine
 10
-52.93861851163155
 20
13.90102465724829
 30
0.0
 11
-52.84726778115916
 21
13.90102465724829
 31
0.0
  0
LINE
  5
9A0
330
A
100
AcDbEntity
  8
Features
  6
Continuous
100
AcDbLine
 10
-52.84726778115916
 20
14.35777830961019
 30
0.0
 11
-52.80159241592295
 21
14.40345367484629
 31
0.0
  0
LINE
  5
9A1
330
A
100
AcDbEntity
  8
Features
  6
Continuous
100
AcDbLine
 10
-52.80159241592295
 20
14.40345367484629
 30
0.0
 11
-52.71024168545066
 21
14.49480440531869
 31
0.0
  0
LINE
  5
9A2
330
A
100
AcDbEntity
  8
Features
  6
Continuous
100
AcDbLine
 10
-52.80159241592295
 20
14.40345367484629
 30
0.0
 11
-52.75591705068686
 21
14.35777830961019
 31
0.0
  0
LINE
  5
9A3
330
A
100
AcDbEntity
  8
Features
  6
Continuous
100
AcDbLine
 10
-52.71024168545066
 20
14.49480440531869
 30
0.0
 11
-52.61889095497826
 21
14.49480440531869
 31
0.0
  0
LINE
  5
9A4
330
A
100
AcDbEntity
  8
Features
  6
Continuous
100
AcDbLine
 10
-52.80159241592295
 20
14.58615513579109
 30
0.0
 11
-52.71024168545066
 21
14.49480440531869
 31
0.0
  0
LINE
  5
9A5
330
A
100
AcDbEntity
  8
Features
  6
Continuous
100
AcDbLine
 10
-52.61889095497826
 20
14.49480440531869
 30
0.0
 11
-52.57321558974206
 21
14.58615513579109
 31
0.0
  0
LINE
  5
9A6
330
A
100
AcDbEntity
  8
Features
  6
Continuous
100
AcDbLine
 10
-52.61889095497826
 20
14.49480440531869
 30
0.0
 11
-52.39051412879736
 21
14.22075221390159
 31
0.0
  0
LINE
  5
9A7
330
A
100
AcDbEntity
  8
Features
  6
Continuous
100
AcDbLine
 10
-52.39051412879736
 20
14.22075221390159
 30
0.0
 11
-52.29916339832496
 21
14.26642757913779
 31
0.0
  0
LINE
  5
9A8
330
A
100
AcDbEntity
  8
Features
  6
Continuous
100
AcDbLine
 10
-52.57321558974206
 20
14.58615513579109
 30
0.0
 11
-52.20781266785256
 21
14.63183050102729
 31
0.0
  0
LINE
  5
9A9
330
A
100
AcDbEntity
  8
Features
  6
Continuous
100
AcDbLine
 10
-52.61889095497826
 20
14.63183050102729
 30
0.0
 11
-52.57321558974206
 21
14.58615513579109
 31
0.0
  0
LINE
  5
9AA
330
A
100
AcDbEntity
  8
Features
  6
Continuous
100
AcDbLine
 10
-52.20781266785256
 20
14.63183050102729
 30
0.0
 11
-52.11646193738026
 21
14.58615513579109
 31
0.0
  0
LINE
  5
9AB
330
A
100
AcDbEntity
  8
Features
  6
Continuous
100
AcDbLine
 10
-52.29916339832496
 20
14.72318123149959
 30
0.0
 11
-52.20781266785256
 21
14.63183050102729
 31
0.0
  0
LINE
  5
9AC
330
A
100
AcDbEntity
  8
Features
  6
Continuous
100
AcDbLine
 10
-52.11646193738026
 20
14.58615513579109
 30
0.0
 11
-52.02511120690786
 21
14.63183050102729
 31
0.0
  0
LINE
  5
9AD
330
A
100
AcDbEntity
  8
Features
  6
Continuous
100
AcDbLine
 10
-52.11646193738026
 20
14.58615513579109
 30
0.0
 11
-52.07078657214406
 21
14.49480440531869
 31
0.0
  0
LINE
  5
9AE
330
A
100
AcDbEntity
  8
Features
  6
Continuous
100
AcDbLine
 10
-52.16213730261646
 20
14.40345367484629
 30
0.0
 11
-52.07078657214406
 21
14.49480440531869
 31
0.0
  0
LINE
  5
9AF
330
A
100
AcDbEntity
  8
Features
  6
Continuous
100
AcDbLine
 10
-52.02511120690786
 20
14.63183050102729
 30
0.0
 11
-52.02511120690786
 21
14.67750586626339
 31
0.0
  0
LINE
  5
9B0
330
A
100
AcDbEntity
  8
Features
  6
Continuous
100
AcDbLine
 10
-52.02511120690786
 20
14.63183050102729
 30
0.0
 11
-51.88808511119936
 21
14.49480440531869
 31
0.0
  0
LINE
  5
9B1
330
A
100
AcDbEntity
  8
Features
  6
Continuous
100
AcDbLine
 10
-52.02511120690786
 20
14.67750586626339
 30
0.0
 11
-51.97943584167166
 21
14.72318123149959
 31
0.0
  0
LINE
  5
9B2
330
A
100
AcDbEntity
  8
Features
  6
Continuous
100
AcDbLine
 10
-52.02511120690786
 20
14.67750586626339
 30
0.0
 11
-52.02511120690786
 21
14.76885659673579
 31
0.0
  0
LINE
  5
9B3
330
A
100
AcDbEntity
  8
Features
  6
Continuous
100
AcDbLine
 10
-52.02511120690786
 20
14.76885659673579
 30
0.0
 11
-51.97943584167166
 21
14.72318123149959
 31
0.0
  0
LINE
  5
9B4
330
A
100
AcDbEntity
  8
Features
  6
Continuous
100
AcDbLine
 10
-51.97943584167166
 20
14.72318123149959
 30
0.0
 11
-51.79673438072696
 21
14.81453196197199
 31
0.0
  0
LINE
  5
9B5
330
A
100
AcDbEntity
  8
Features
  6
Continuous
100
AcDbLine
 10
-51.79673438072696
 20
14.81453196197199
 30
0.0
 11
-51.75105901549075
 21
14.86020732720819
 31
0.0
  0
LINE
  5
9B6
330
A
100
AcDbEntity
  8
Features
  6
Continuous
100
AcDbLine
 10
-51.75105901549075
 20
14.86020732720819
 30
0.0
 11
-51.65970828501836
 21
14.99723342291669
 31
0.0
  0
LINE
  5
9B7
330
A
100
AcDbEntity
  8
Features
  6
Continuous
100
AcDbLine
 10
-51.65970828501836
 20
14.99723342291669
 30
0.0
 11
-51.61403291978226
 21
15.04290878815289
 31
0.0
  0
LINE
  5
9B8
330
A
100
AcDbEntity
  8
Features
  6
Continuous
100
AcDbLine
 10
-51.65970828501836
 20
14.99723342291669
 30
0.0
 11
-51.56835755454605
 21
14.95155805768059
 31
0.0
  0
LINE
  5
9B9
330
A
100
AcDbEntity
  8
Features
  6
Continuous
100
AcDbLine
 10
-51.61403291978226
 20
15.04290878815289
 30
0.0
 11
-51.56835755454605
 21
15.04290878815289
 31
0.0
  0
LINE
  5
9BA
330
A
100
AcDbEntity
  8
Features
  6
Continuous
100
AcDbLine
 10
-51.61403291978226
 20
15.04290878815289
 30
0.0
 11
-51.61403291978226
 21
15.08858415338909
 31
0.0
  0
LINE
  5
9BB
330
A
100
AcDbEntity
  8
Features
  6
Continuous
100
AcDbLine
 10
-51.56835755454605
 20
14.90588269244439
 30
0.0
 11
-51.56835755454605
 21
14.95155805768059
 31
0.0
  0
LINE
  5
9BC
330
A
100
AcDbEntity
  8
Features
  6
Continuous
100
AcDbLine
 10
-51.56835755454605
 20
14.95155805768059
 30
0.0
 11
-51.52268218930986
 21
14.99723342291669
 31
0.0
  0
LINE
  5
9BD
330
A
100
AcDbEntity
  8
Features
  6
Continuous
100
AcDbLine
 10
-51.56835755454605
 20
15.04290878815289
 30
0.0
 11
-51.52268218930986
 21
14.99723342291669
 31
0.0
  0
LINE
  5
9BE
330
A
100
AcDbEntity
  8
Features
  6
Continuous
100
AcDbLine
 10
-51.56835755454605
 20
15.04290878815289
 30
0.0
 11
-51.56835755454605
 21
15.08858415338909
 31
0.0
  0
LINE
  5
9BF
330
A
100
AcDbEntity
  8
Features
  6
Continuous
100
AcDbLine
 10
-51.56835755454605
 20
15.04290878815289
 30
0.0
 11
-51.52268218930986
 21
15.08858415338909
 31
0.0
  0
LINE
  5
9C0
330
A
100
AcDbEntity
  8
Features
  6
Continuous
100
AcDbLine
 10
-51.88808511119936
 20
15.17993488386148
 30
0.0
 11
-51.61403291978226
 21
15.08858415338909
 31
0.0
  0
LINE
  5
9C1
330
A
100
AcDbEntity
  8
Features
  6
Continuous
100
AcDbLine
 10
-51.56835755454605
 20
14.90588269244439
 30
0.0
 11
-51.52268218930986
 21
14.86020732720819
 31
0.0
  0
LINE
  5
9C2
330
A
100
AcDbEntity
  8
Features
  6
Continuous
100
AcDbLine
 10
-51.56835755454605
 20
14.76885659673579
 30
0.0
 11
-51.56835755454605
 21
14.90588269244439
 31
0.0
  0
LINE
  5
9C3
330
A
100
AcDbEntity
  8
Features
  6
Continuous
100
AcDbLine
 10
-51.52268218930986
 20
14.99723342291669
 30
0.0
 11
-51.43133145883746
 21
15.08858415338909
 31
0.0
  0
LINE
  5
9C4
330
A
100
AcDbEntity
  8
Features
  6
Continuous
100
AcDbLine
 10
-51.56835755454605
 20
15.08858415338909
 30
0.0
 11
-51.52268218930986
 21
15.17993488386148
 31
0.0
  0
LINE
  5
9C5
330
A
100
AcDbEntity
  8
Features
  6
Continuous
100
AcDbLine
 10
-51.52268218930986
 20
15.08858415338909
 30
0.0
 11
-51.43133145883746
 21
15.08858415338909
 31
0.0
  0
LINE
  5
9C6
330
A
100
AcDbEntity
  8
Features
  6
Continuous
100
AcDbLine
 10
-51.93376047643546
 20
15.22561024909769
 30
0.0
 11
-51.88808511119936
 21
15.17993488386148
 31
0.0
  0
LINE
  5
9C7
330
A
100
AcDbEntity
  8
Features
  6
Continuous
100
AcDbLine
 10
-52.11646193738026
 20
14.90588269244439
 30
0.0
 11
-51.88808511119936
 21
15.17993488386148
 31
0.0
  0
LINE
  5
9C8
330
A
100
AcDbEntity
  8
Features
  6
Continuous
100
AcDbLine
 10
-51.52268218930986
 20
14.86020732720819
 30
0.0
 11
-51.47700682407366
 21
14.90588269244439
 31
0.0
  0
LINE
  5
9C9
330
A
100
AcDbEntity
  8
Features
  6
Continuous
100
AcDbLine
 10
-51.47700682407366
 20
14.90588269244439
 30
0.0
 11
-51.38565609360126
 21
14.81453196197199
 31
0.0
  0
LINE
  5
9CA
330
A
100
AcDbEntity
  8
Features
  6
Continuous
100
AcDbLine
 10
-51.56835755454605
 20
14.76885659673579
 30
0.0
 11
-51.52268218930986
 21
14.86020732720819
 31
0.0
  0
LINE
  5
9CB
330
A
100
AcDbEntity
  8
Features
  6
Continuous
100
AcDbLine
 10
-51.61403291978226
 20
14.67750586626339
 30
0.0
 11
-51.56835755454605
 21
14.76885659673579
 31
0.0
  0
LINE
  5
9CC
330
A
100
AcDbEntity
  8
Features
  6
Continuous
100
AcDbLine
 10
-51.43133145883746
 20
15.08858415338909
 30
0.0
 11
-51.38565609360126
 21
15.13425951862529
 31
0.0
  0
LINE
  5
9CD
330
A
100
AcDbEntity
  8
Features
  6
Continuous
100
AcDbLine
 10
-51.52268218930986
 20
15.17993488386148
 30
0.0
 11
-51.38565609360126
 21
15.13425951862529
 31
0.0
  0
LINE
  5
9CE
330
A
100
AcDbEntity
  8
Features
  6
Continuous
100
AcDbLine
 10
-51.52268218930986
 20
15.17993488386148
 30
0.0
 11
-51.52268218930986
 21
15.27128561433378
 31
0.0
  0
LINE
  5
9CF
330
A
100
AcDbEntity
  8
Features
  6
Continuous
100
AcDbLine
 10
-51.93376047643546
 20
15.22561024909769
 30
0.0
 11
-51.84240974596316
 21
15.31696097956998
 31
0.0
  0
LINE
  5
9D0
330
A
100
AcDbEntity
  8
Features
  6
Continuous
100
AcDbLine
 10
-52.07078657214406
 20
15.22561024909769
 30
0.0
 11
-51.93376047643546
 21
15.22561024909769
 31
0.0
  0
LINE
  5
9D1
330
A
100
AcDbEntity
  8
Features
  6
Continuous
100
AcDbLine
 10
-51.38565609360126
 20
15.13425951862529
 30
0.0
 11
-51.33998072836516
 21
15.13425951862529
 31
0.0
  0
LINE
  5
9D2
330
A
100
AcDbEntity
  8
Features
  6
Continuous
100
AcDbLine
 10
-52.25348803308876
 20
15.04290878815289
 30
0.0
 11
-52.07078657214406
 21
15.22561024909769
 31
0.0
  0
LINE
  5
9D3
330
A
100
AcDbEntity
  8
Features
  6
Continuous
100
AcDbLine
 10
-52.11646193738026
 20
15.27128561433378
 30
0.0
 11
-52.07078657214406
 21
15.22561024909769
 31
0.0
  0
LINE
  5
9D4
330
A
100
AcDbEntity
  8
Features
  6
Continuous
100
AcDbLine
 10
-51.33998072836516
 20
15.13425951862529
 30
0.0
 11
-51.11160390218416
 21
15.22561024909769
 31
0.0
  0
LINE
  5
9D5
330
A
100
AcDbEntity
  8
Features
  6
Continuous
100
AcDbLine
 10
-51.33998072836516
 20
15.13425951862529
 30
0.0
 11
-51.20295463265656
 21
14.99723342291669
 31
0.0
  0
LINE
  5
9D6
330
A
100
AcDbEntity
  8
Features
  6
Continuous
100
AcDbLine
 10
-51.11160390218416
 20
15.22561024909769
 30
0.0
 11
-51.02025317171186
 21
15.17993488386148
 31
0.0
  0
LINE
  5
9D7
330
A
100
AcDbEntity
  8
Features
  6
Continuous
100
AcDbLine
 10
-51.11160390218416
 20
15.22561024909769
 30
0.0
 11
-51.06592853694806
 21
15.31696097956998
 31
0.0
  0
LINE
  5
9D8
330
A
100
AcDbEntity
  8
Features
  6
Continuous
100
AcDbLine
 10
-52.75591705068686
 20
11.34320420402199
 30
0.0
 11
-52.66456632021445
 21
11.16050274307729
 31
0.0
  0
LINE
  5
9D9
330
A
100
AcDbEntity
  8
Features
  6
Continuous
100
AcDbLine
 10
-52.75591705068686
 20
14.12940148342918
 30
0.0
 11
-52.66456632021445
 21
14.03805075295688
 31
0.0
  0
LINE
  5
9DA
330
A
100
AcDbEntity
  8
Features
  6
Continuous
100
AcDbLine
 10
-52.75591705068686
 20
14.12940148342918
 30
0.0
 11
-52.75591705068686
 21
14.17507684866539
 31
0.0
  0
LINE
  5
9DB
330
A
100
AcDbEntity
  8
Features
  6
Continuous
100
AcDbLine
 10
-52.66456632021445
 20
14.03805075295688
 30
0.0
 11
-52.52754022450586
 21
14.08372611819308
 31
0.0
  0
LINE
  5
9DC
330
A
100
AcDbEntity
  8
Features
  6
Continuous
100
AcDbLine
 10
-52.71024168545066
 20
13.90102465724829
 30
0.0
 11
-52.66456632021445
 21
14.03805075295688
 31
0.0
  0
LINE
  5
9DE
330
A
100
AcDbEntity
  8
Features
  6
Continuous
100
AcDbLine
 10
-52.66456632021445
 20
15.40831171004239
 30
0.0
 11
-52.57321558974206
 21
15.45398707527859
 31
0.0
  0
LINE
  5
9DF
330
A
100
AcDbEntity
  8
Features
  6
Continuous
100
AcDbLine
 10
-52.57321558974206
 20
15.45398707527859
 30
0.0
 11
-52.52754022450586
 21
15.45398707527859
 31
0.0
  0
LINE
  5
9E0
330
A
100
AcDbEntity
  8
Features
  6
Continuous
100
AcDbLine
 10
-52.66456632021445
 20
15.63668853622329
 30
0.0
 11
-52.57321558974206
 21
15.45398707527859
 31
0.0
  0
LINE
  5
9E1
330
A
100
AcDbEntity
  8
Features
  6
Continuous
100
AcDbLine
 10
-52.66456632021445
 20
15.63668853622329
 30
0.0
 11
-52.57321558974206
 21
15.72803926669569
 31
0.0
  0
LINE
  5
9E2
330
A
100
AcDbEntity
  8
Features
  6
Continuous
100
AcDbLine
 10
-52.57321558974206
 20
15.72803926669569
 30
0.0
 11
-52.52754022450586
 21
15.77371463193189
 31
0.0
  0
LINE
  5
9E3
330
A
100
AcDbEntity
  8
Features
  6
Continuous
100
AcDbLine
 10
-52.57321558974206
 20
15.72803926669569
 30
0.0
 11
-52.43618949403356
 21
15.63668853622329
 31
0.0
  0
LINE
  5
9E4
330
A
100
AcDbEntity
  8
Features
  6
Continuous
100
AcDbLine
 10
-52.61889095497826
 20
12.34806223921809
 30
0.0
 11
-52.52754022450586
 21
12.21103614350949
 31
0.0
  0
LINE
  5
9E5
330
A
100
AcDbEntity
  8
Features
  6
Continuous
100
AcDbLine
 10
-52.57321558974206
 20
14.95155805768059
 30
0.0
 11
-52.52754022450586
 21
14.90588269244439
 31
0.0
  0
LINE
  5
9E6
330
A
100
AcDbEntity
  8
Features
  6
Continuous
100
AcDbLine
 10
-52.52754022450586
 20
14.90588269244439
 30
0.0
 11
-52.48186485926976
 21
14.90588269244439
 31
0.0
  0
LINE
  5
9E7
330
A
100
AcDbEntity
  8
Features
  6
Continuous
100
AcDbLine
 10
-52.52754022450586
 20
14.81453196197199
 30
0.0
 11
-52.52754022450586
 21
14.90588269244439
 31
0.0
  0
LINE
  5
9E8
330
A
100
AcDbEntity
  8
Features
  6
Continuous
100
AcDbLine
 10
-52.48186485926976
 20
14.90588269244439
 30
0.0
 11
-52.43618949403356
 21
14.95155805768059
 31
0.0
  0
LINE
  5
9E9
330
A
100
AcDbEntity
  8
Features
  6
Continuous
100
AcDbLine
 10
-52.48186485926976
 20
14.90588269244439
 30
0.0
 11
-52.43618949403356
 21
14.86020732720819
 31
0.0
  0
LINE
  5
9EA
330
A
100
AcDbEntity
  8
Features
  6
Continuous
100
AcDbLine
 10
-52.52754022450586
 20
15.22561024909769
 30
0.0
 11
-52.48186485926976
 21
15.27128561433378
 31
0.0
  0
LINE
  5
9EB
330
A
100
AcDbEntity
  8
Features
  6
Continuous
100
AcDbLine
 10
-52.48186485926976
 20
15.27128561433378
 30
0.0
 11
-52.43618949403356
 21
15.17993488386148
 31
0.0
  0
LINE
  5
9EC
330
A
100
AcDbEntity
  8
Features
  6
Continuous
100
AcDbLine
 10
-52.48186485926976
 20
15.27128561433378
 30
0.0
 11
-52.48186485926976
 21
15.36263634480619
 31
0.0
  0
LINE
  5
9ED
330
A
100
AcDbEntity
  8
Features
  6
Continuous
100
AcDbLine
 10
-52.48186485926976
 20
10.97780128213254
 30
0.0
 11
-52.43618949403356
 21
10.93212591689635
 31
0.0
  0
LINE
  5
9EF
330
A
100
AcDbEntity
  8
Features
  6
Continuous
100
AcDbLine
 10
-52.43618949403356
 20
15.45398707527859
 30
0.0
 11
-52.29916339832496
 21
15.40831171004239
 31
0.0
  0
LINE
  5
9F0
330
A
100
AcDbEntity
  8
Features
  6
Continuous
100
AcDbLine
 10
-52.34483876356116
 20
11.93698395209239
 30
0.0
 11
-52.25348803308876
 21
11.84563322161998
 31
0.0
  0
LINE
  5
9F1
330
A
100
AcDbEntity
  8
Features
  6
Continuous
100
AcDbLine
 10
-52.34483876356116
 20
11.93698395209239
 30
0.0
 11
-52.34483876356116
 21
11.98265931732859
 31
0.0
  0
LINE
  5
9F2
330
A
100
AcDbEntity
  8
Features
  6
Continuous
100
AcDbLine
 10
-52.34483876356116
 20
14.44912904008249
 30
0.0
 11
-52.34483876356116
 21
14.49480440531869
 31
0.0
  0
LINE
  5
9F3
330
A
100
AcDbEntity
  8
Features
  6
Continuous
100
AcDbLine
 10
-52.34483876356116
 20
15.22561024909769
 30
0.0
 11
-52.20781266785256
 21
15.36263634480619
 31
0.0
  0
LINE
  5
9F8
330
A
100
AcDbEntity
  8
Features
  6
Continuous
100
AcDbLine
 10
-52.11646193738026
 20
11.70860712591148
 30
0.0
 11
-52.02511120690786
 21
11.66293176067528
 31
0.0
  0
LINE
  5
9F9
330
A
100
AcDbEntity
  8
Features
  6
Continuous
100
AcDbLine
 10
-51.88808511119936
 20
11.38887956925819
 30
0.0
 11
-51.79673438072696
 21
11.25185347354959
 31
0.0
  0
LINE
  5
9FA
330
A
100
AcDbEntity
  8
Features
  6
Continuous
100
AcDbLine
 10
-51.65970828501836
 20
11.11482737784109
 30
0.0
 11
-51.56835755454605
 21
10.97780128213254
 31
0.0
  0
LINE
  5
A03
330
A
100
AcDbEntity
  8
Features
  6
Continuous
100
AcDbLine
 10
-51.52268218930986
 20
15.36263634480619
 30
0.0
 11
-51.47700682407366
 21
15.45398707527859
 31
0.0
  0
LINE
  5
A0B
330
A
100
AcDbEntity
  8
Features
  6
Continuous
100
AcDbLine
 10
-51.43133145883746
 20
15.72803926669569
 30
0.0
 11
-51.33998072836516
 21
15.63668853622329
 31
0.0
  0
LINE
  5
A0C
330
A
100
AcDbEntity
  8
Features
  6
Continuous
100
AcDbLine
 10
-51.33998072836516
 20
15.63668853622329
 30
0.0
 11
-51.29430536312896
 21
15.63668853622329
 31
0.0
  0
LINE
  5
A0D
330
A
100
AcDbEntity
  8
Features
  6
Continuous
100
AcDbLine
 10
-51.33998072836516
 20
15.59101317098709
 30
0.0
 11
-51.33998072836516
 21
15.63668853622329
 31
0.0
  0
LINE
  5
A0E
330
A
100
AcDbEntity
  8
Features
  6
Continuous
100
AcDbLine
 10
-51.29430536312896
 20
15.63668853622329
 30
0.0
 11
-51.20295463265656
 21
15.72803926669569
 31
0.0
  0
LINE
  5
A0F
330
A
100
AcDbEntity
  8
Features
  6
Continuous
100
AcDbLine
 10
-51.29430536312896
 20
15.59101317098709
 30
0.0
 11
-51.29430536312896
 21
15.63668853622329
 31
0.0
  0
LINE
  5
A10
330
A
100
AcDbEntity
  8
Features
  6
Continuous
100
AcDbLine
 10
-51.29430536312896
 20
15.59101317098709
 30
0.0
 11
-51.24862999789276
 21
15.54533780575089
 31
0.0
  0
LINE
  5
A11
330
A
100
AcDbEntity
  8
Features
  6
Continuous
100
AcDbLine
 10
-51.24862999789276
 20
15.54533780575089
 30
0.0
 11
-51.02025317171186
 21
15.59101317098709
 31
0.0
  0
LINE
  5
A12
330
A
100
AcDbEntity
  8
Features
  6
Continuous
100
AcDbLine
 10
-51.43133145883746
 20
15.54533780575089
 30
0.0
 11
-51.33998072836516
 21
15.59101317098709
 31
0.0
  0
LINE
  5
A13
330
A
100
AcDbEntity
  8
Features
  6
Continuous
100
AcDbLine
 10
-51.43133145883746
 20
10.7950998211878
 30
0.0
 11
-51.38565609360126
 21
10.70374909071543
 31
0.0
  0
LINE
  5
A14
330
A
100
AcDbEntity
  8
Features
  6
Continuous
100
AcDbLine
 10
-51.43133145883746
 20
10.7950998211878
 30
0.0
 11
-51.43133145883746
 21
10.84077518642398
 31
0.0
  0
LINE
  5
A18
330
A
100
AcDbEntity
  8
Features
  6
Continuous
100
AcDbLine
 10
-51.15727926742036
 20
15.81938999716798
 30
0.0
 11
-51.06592853694806
 21
15.72803926669569
 31
0.0
  0
LINE
  5
A19
330
A
100
AcDbEntity
  8
Features
  6
Continuous
100
AcDbLine
 10
-51.06592853694806
 20
15.86506536240419
 30
0.0
 11
-50.97457780647566
 21
15.91074072764039
 31
0.0
  0
LINE
  5
A1B
330
A
100
AcDbEntity
  8
Features
  6
Continuous
100
AcDbLine
 10
-50.97457780647566
 20
15.27128561433378
 30
0.0
 11
-50.88322707600326
 21
15.22561024909769
 31
0.0
  0
LINE
  5
A1C
330
A
100
AcDbEntity
  8
Features
  6
Continuous
100
AcDbLine
 10
-50.97457780647566
 20
15.45398707527859
 30
0.0
 11
-50.92890244123946
 21
15.49966244051479
 31
0.0
  0
LINE
  5
A1D
330
A
100
AcDbEntity
  8
Features
  6
Continuous
100
AcDbLine
 10
-50.83755171076706
 20
15.31696097956998
 30
0.0
 11
-50.60917488458616
 21
15.27128561433378
 31
0.0
  0
LINE
  5
A1F
330
A
100
AcDbEntity
  8
Features
  6
Continuous
100
AcDbLine
 10
-50.79187634553086
 20
15.49966244051479
 30
0.0
 11
-50.74620098029476
 21
15.54533780575089
 31
0.0
  0
LINE
  5
A20
330
A
100
AcDbEntity
  8
Features
  6
Continuous
100
AcDbLine
 10
-50.79187634553086
 20
15.86506536240419
 30
0.0
 11
-50.74620098029476
 21
15.81938999716798
 31
0.0
  0
LINE
  5
A21
330
A
100
AcDbEntity
  8
Features
  6
Continuous
100
AcDbLine
 10
-50.74620098029476
 20
15.95641609287659
 30
0.0
 11
-50.74620098029476
 21
16.04776682334899
 31
0.0
  0
LINE
  5
A22
330
A
100
AcDbEntity
  8
Features
  6
Continuous
100
AcDbLine
 10
-50.74620098029476
 20
16.04776682334899
 30
0.0
 11
-50.70052561505856
 21
16.09344218858519
 31
0.0
  0
LINE
  5
A23
330
A
100
AcDbEntity
  8
Features
  6
Continuous
100
AcDbLine
 10
-50.70052561505856
 20
16.09344218858519
 30
0.0
 11
-50.60917488458616
 21
16.04776682334899
 31
0.0
  0
LINE
  5
A24
330
A
100
AcDbEntity
  8
Features
  6
Continuous
100
AcDbLine
 10
-50.65485024982236
 20
15.68236390145949
 30
0.0
 11
-50.60917488458616
 21
15.77371463193189
 31
0.0
  0
LINE
  5
A25
330
A
100
AcDbEntity
  8
Features
  6
Continuous
100
AcDbLine
 10
-50.65485024982236
 20
15.68236390145949
 30
0.0
 11
-50.56349951934996
 21
15.59101317098709
 31
0.0
  0
LINE
  5
A26
330
A
100
AcDbEntity
  8
Features
  6
Continuous
100
AcDbLine
 10
-50.56349951934996
 20
15.59101317098709
 30
0.0
 11
-50.33512269316905
 21
15.68236390145949
 31
0.0
  0
LINE
  5
A27
330
A
100
AcDbEntity
  8
Features
  6
Continuous
100
AcDbLine
 10
-50.56349951934996
 20
15.59101317098709
 30
0.0
 11
-50.51782415411375
 21
15.40831171004239
 31
0.0
  0
LINE
  5
A2B
330
A
100
AcDbEntity
  8
Features
  6
Continuous
100
AcDbLine
 10
-50.56349951934996
 20
15.13425951862529
 30
0.0
 11
-50.47214878887766
 21
15.17993488386148
 31
0.0
  0
LINE
  5
A2C
330
A
100
AcDbEntity
  8
Features
  6
Continuous
100
AcDbLine
 10
-50.47214878887766
 20
15.17993488386148
 30
0.0
 11
-50.33512269316905
 21
14.95155805768059
 31
0.0
  0
LINE
  5
A2D
330
A
100
AcDbEntity
  8
Features
  6
Continuous
100
AcDbLine
 10
-50.47214878887766
 20
15.17993488386148
 30
0.0
 11
-50.38079805840525
 21
15.36263634480619
 31
0.0
  0
LINE
  5
A2E
330
A
100
AcDbEntity
  8
Features
  6
Continuous
100
AcDbLine
 10
-50.51782415411376
 20
10.7950998211878
 30
0.0
 11
-50.33512269316905
 21
10.84077518642398
 31
0.0
  0
LINE
  5
A2F
330
A
100
AcDbEntity
  8
Features
  6
Continuous
100
AcDbLine
 10
-50.47214878887766
 20
15.86506536240419
 30
0.0
 11
-50.38079805840525
 21
15.86506536240419
 31
0.0
  0
LINE
  5
A30
330
A
100
AcDbEntity
  8
Features
  6
Continuous
100
AcDbLine
 10
-50.47214878887766
 20
15.86506536240419
 30
0.0
 11
-50.38079805840525
 21
16.04776682334899
 31
0.0
  0
LINE
  5
A31
330
A
100
AcDbEntity
  8
Features
  6
Continuous
100
AcDbLine
 10
-50.38079805840525
 20
15.22561024909769
 30
0.0
 11
-50.33512269316905
 21
15.22561024909769
 31
0.0
  0
LINE
  5
A33
330
A
100
AcDbEntity
  8
Features
  6
Continuous
100
AcDbLine
 10
-50.28944732793286
 20
15.91074072764039
 30
0.0
 11
-50.24377196269666
 21
15.95641609287659
 31
0.0
  0
LINE
  5
A34
330
A
100
AcDbEntity
  8
Features
  6
Continuous
100
AcDbLine
 10
-50.28944732793286
 20
16.04776682334899
 30
0.0
 11
-50.24377196269666
 21
16.04776682334899
 31
0.0
  0
LINE
  5
A36
330
A
100
AcDbEntity
  8
Features
  6
Continuous
100
AcDbLine
 10
-50.24377196269666
 20
14.86020732720819
 30
0.0
 11
-50.19809659746056
 21
14.90588269244439
 31
0.0
  0
LINE
  5
A37
330
A
100
AcDbEntity
  8
Features
  6
Continuous
100
AcDbLine
 10
-50.19809659746056
 20
14.90588269244439
 30
0.0
 11
-50.01539513651576
 21
15.04290878815289
 31
0.0
  0
LINE
  5
A38
330
A
100
AcDbEntity
  8
Features
  6
Continuous
100
AcDbLine
 10
-50.10674586698816
 20
15.22561024909769
 30
0.0
 11
-50.01539513651576
 21
15.04290878815289
 31
0.0
  0
LINE
  5
A39
330
A
100
AcDbEntity
  8
Features
  6
Continuous
100
AcDbLine
 10
-50.24377196269666
 20
14.95155805768059
 30
0.0
 11
-50.19809659746056
 21
14.90588269244439
 31
0.0
  0
LINE
  5
A3A
330
A
100
AcDbEntity
  8
Features
  6
Continuous
100
AcDbLine
 10
-50.10674586698816
 20
15.22561024909769
 30
0.0
 11
-50.06107050175196
 21
15.27128561433378
 31
0.0
  0
LINE
  5
A3B
330
A
100
AcDbEntity
  8
Features
  6
Continuous
100
AcDbLine
 10
-50.19809659746056
 20
15.22561024909769
 30
0.0
 11
-50.10674586698816
 21
15.22561024909769
 31
0.0
  0
LINE
  5
A3C
330
A
100
AcDbEntity
  8
Features
  6
Continuous
100
AcDbLine
 10
-50.06107050175196
 20
15.27128561433378
 30
0.0
 11
-49.87836904080726
 21
15.27128561433378
 31
0.0
  0
LINE
  5
A3D
330
A
100
AcDbEntity
  8
Features
  6
Continuous
100
AcDbLine
 10
-50.15242123222436
 20
15.45398707527859
 30
0.0
 11
-50.06107050175196
 21
15.27128561433378
 31
0.0
  0
LINE
  5
A3E
330
A
100
AcDbEntity
  8
Features
  6
Continuous
100
AcDbLine
 10
-50.15242123222436
 20
15.45398707527859
 30
0.0
 11
-50.10674586698816
 21
15.49966244051479
 31
0.0
  0
LINE
  5
A3F
330
A
100
AcDbEntity
  8
Features
  6
Continuous
100
AcDbLine
 10
-50.19809659746056
 20
15.49966244051479
 30
0.0
 11
-50.15242123222436
 21
15.45398707527859
 31
0.0
  0
LINE
  5
A40
330
A
100
AcDbEntity
  8
Features
  6
Continuous
100
AcDbLine
 10
-50.24377196269666
 20
15.81938999716798
 30
0.0
 11
-50.15242123222436
 21
15.81938999716798
 31
0.0
  0
LINE
  5
A41
330
A
100
AcDbEntity
  8
Features
  6
Continuous
100
AcDbLine
 10
-50.15242123222436
 20
10.97780128213254
 30
0.0
 11
-50.01539513651576
 21
11.02347664736872
 31
0.0
  0
LINE
  5
A42
330
A
100
AcDbEntity
  8
Features
  6
Continuous
100
AcDbLine
 10
-50.15242123222436
 20
14.81453196197199
 30
0.0
 11
-50.06107050175196
 21
14.72318123149959
 31
0.0
  0
LINE
  5
A43
330
A
100
AcDbEntity
  8
Features
  6
Continuous
100
AcDbLine
 10
-50.10674586698816
 20
14.67750586626339
 30
0.0
 11
-50.06107050175196
 21
14.72318123149959
 31
0.0
  0
LINE
  5
A44
330
A
100
AcDbEntity
  8
Features
  6
Continuous
100
AcDbLine
 10
-50.15242123222436
 20
15.59101317098709
 30
0.0
 11
-50.10674586698816
 21
15.59101317098709
 31
0.0
  0
LINE
  5
A47
330
A
100
AcDbEntity
  8
Features
  6
Continuous
100
AcDbLine
 10
-50.06107050175196
 20
15.72803926669569
 30
0.0
 11
-50.01539513651576
 21
15.68236390145949
 31
0.0
  0
LINE
  5
A4A
330
A
100
AcDbEntity
  8
Features
  6
Continuous
100
AcDbLine
 10
-49.96971977127956
 20
14.72318123149959
 30
0.0
 11
-49.92404440604346
 21
14.67750586626339
 31
0.0
  0
LINE
  5
A4B
330
A
100
AcDbEntity
  8
Features
  6
Continuous
100
AcDbLine
 10
-49.92404440604346
 20
14.99723342291669
 30
0.0
 11
-49.64999221462626
 21
14.95155805768059
 31
0.0
  0
LINE
  5
A4C
330
A
100
AcDbEntity
  8
Features
  6
Continuous
100
AcDbLine
 10
-49.64999221462626
 20
14.95155805768059
 30
0.0
 11
-49.60431684939016
 21
14.90588269244439
 31
0.0
  0
LINE
  5
A4D
330
A
100
AcDbEntity
  8
Features
  6
Continuous
100
AcDbLine
 10
-49.60431684939016
 20
14.81453196197199
 30
0.0
 11
-49.60431684939016
 21
14.90588269244439
 31
0.0
  0
LINE
  5
A4E
330
A
100
AcDbEntity
  8
Features
  6
Continuous
100
AcDbLine
 10
-49.60431684939016
 20
14.81453196197199
 30
0.0
 11
-49.46729075368156
 21
14.81453196197199
 31
0.0
  0
LINE
  5
A4F
330
A
100
AcDbEntity
  8
Features
  6
Continuous
100
AcDbLine
 10
-49.64999221462626
 20
14.76885659673579
 30
0.0
 11
-49.60431684939016
 21
14.81453196197199
 31
0.0
  0
LINE
  5
A54
330
A
100
AcDbEntity
  8
Features
  6
Continuous
100
AcDbLine
 10
-49.83269367557106
 20
14.40345367484629
 30
0.0
 11
-49.69566757986246
 21
14.26642757913779
 31
0.0
  0
LINE
  5
A55
330
A
100
AcDbEntity
  8
Features
  6
Continuous
100
AcDbLine
 10
-49.69566757986246
 20
14.26642757913779
 30
0.0
 11
-49.60431684939016
 21
14.31210294437399
 31
0.0
  0
LINE
  5
A56
330
A
100
AcDbEntity
  8
Features
  6
Continuous
100
AcDbLine
 10
-49.83269367557106
 20
14.40345367484629
 30
0.0
 11
-49.74134294509866
 21
14.49480440531869
 31
0.0
  0
LINE
  5
A57
330
A
100
AcDbEntity
  8
Features
  6
Continuous
100
AcDbLine
 10
-49.83269367557106
 20
14.63183050102729
 30
0.0
 11
-49.78701831033486
 21
14.63183050102729
 31
0.0
  0
LINE
  5
A58
330
A
100
AcDbEntity
  8
Features
  6
Continuous
100
AcDbLine
 10
-49.78701831033486
 20
11.16050274307729
 30
0.0
 11
-49.55864148415395
 21
11.29752883878579
 31
0.0
  0
LINE
  5
A59
330
A
100
AcDbEntity
  8
Features
  6
Continuous
100
AcDbLine
 10
-49.78701831033486
 20
14.76885659673579
 30
0.0
 11
-49.78701831033486
 21
14.86020732720819
 31
0.0
  0
LINE
  5
A5C
330
A
100
AcDbEntity
  8
Features
  6
Continuous
100
AcDbLine
 10
-49.64999221462626
 20
15.13425951862529
 30
0.0
 11
-49.60431684939016
 21
15.17993488386148
 31
0.0
  0
LINE
  5
A5E
330
A
100
AcDbEntity
  8
Features
  6
Continuous
100
AcDbLine
 10
-49.60431684939016
 20
14.63183050102729
 30
0.0
 11
-49.51296611891776
 21
14.49480440531869
 31
0.0
  0
LINE
  5
A5F
330
A
100
AcDbEntity
  8
Features
  6
Continuous
100
AcDbLine
 10
-49.51296611891776
 20
14.49480440531869
 30
0.0
 11
-49.33026465797306
 21
14.49480440531869
 31
0.0
  0
LINE
  5
A60
330
A
100
AcDbEntity
  8
Features
  6
Continuous
100
AcDbLine
 10
-49.55864148415395
 20
14.44912904008249
 30
0.0
 11
-49.51296611891776
 21
14.49480440531869
 31
0.0
  0
LINE
  5
A61
330
A
100
AcDbEntity
  8
Features
  6
Continuous
100
AcDbLine
 10
-49.55864148415395
 20
14.08372611819308
 30
0.0
 11
-49.55864148415395
 21
14.12940148342918
 31
0.0
  0
LINE
  5
A62
330
A
100
AcDbEntity
  8
Features
  6
Continuous
100
AcDbLine
 10
-49.55864148415395
 20
15.04290878815289
 30
0.0
 11
-49.51296611891776
 21
15.08858415338909
 31
0.0
  0
LINE
  5
A63
330
A
100
AcDbEntity
  8
Features
  6
Continuous
100
AcDbLine
 10
-49.46729075368156
 20
14.03805075295688
 30
0.0
 11
-49.42161538844536
 21
14.22075221390159
 31
0.0
  0
LINE
  5
A64
330
A
100
AcDbEntity
  8
Features
  6
Continuous
100
AcDbLine
 10
-49.42161538844536
 20
13.94670002248449
 30
0.0
 11
-49.33026465797306
 21
14.03805075295688
 31
0.0
  0
LINE
  5
A65
330
A
100
AcDbEntity
  8
Features
  6
Continuous
100
AcDbLine
 10
-49.37594002320916
 20
14.90588269244439
 30
0.0
 11
-49.33026465797306
 21
14.95155805768059
 31
0.0
  0
LINE
  5
A66
330
A
100
AcDbEntity
  8
Features
  6
Continuous
100
AcDbLine
 10
-49.33026465797306
 20
10.70374909071543
 30
0.0
 11
-49.19323856226446
 21
10.7950998211878
 31
0.0
  0
LINE
  5
A67
330
A
100
AcDbEntity
  8
Features
  6
Continuous
100
AcDbLine
 10
-49.33026465797306
 20
11.43455493449439
 30
0.0
 11
-49.19323856226445
 21
11.52590566496679
 31
0.0
  0
LINE
  5
A68
330
A
100
AcDbEntity
  8
Features
  6
Continuous
100
AcDbLine
 10
-49.33026465797306
 20
13.39859563965029
 30
0.0
 11
-49.33026465797306
 21
13.44427100488649
 31
0.0
  0
LINE
  5
A69
330
A
100
AcDbEntity
  8
Features
  6
Continuous
100
AcDbLine
 10
-49.23891392750066
 20
14.03805075295688
 30
0.0
 11
-49.10188783179206
 21
14.17507684866539
 31
0.0
  0
LINE
  5
A6A
330
A
100
AcDbEntity
  8
Features
  6
Continuous
100
AcDbLine
 10
-49.14756319702826
 20
14.22075221390159
 30
0.0
 11
-49.10188783179206
 21
14.17507684866539
 31
0.0
  0
LINE
  5
A6B
330
A
100
AcDbEntity
  8
Features
  6
Continuous
100
AcDbLine
 10
-49.23891392750066
 20
14.03805075295688
 30
0.0
 11
-49.10188783179206
 21
13.90102465724829
 31
0.0
  0
LINE
  5
A6C
330
A
100
AcDbEntity
  8
Features
  6
Continuous
100
AcDbLine
 10
-49.23891392750066
 20
14.35777830961019
 30
0.0
 11
-49.10188783179206
 21
14.40345367484629
 31
0.0
  0
LINE
  5
A6D
330
A
100
AcDbEntity
  8
Features
  6
Continuous
100
AcDbLine
 10
-49.23891392750066
 20
14.72318123149959
 30
0.0
 11
-49.19323856226445
 21
14.72318123149959
 31
0.0
  0
LINE
  5
A6E
330
A
100
AcDbEntity
  8
Features
  6
Continuous
100
AcDbLine
 10
-49.14756319702826
 20
13.58129710059499
 30
0.0
 11
-49.10188783179206
 21
13.53562173535879
 31
0.0
  0
LINE
  5
A77
330
A
100
AcDbEntity
  8
Features
  6
Continuous
100
AcDbLine
 10
-66.04744833441636
 20
14.2664275791378
 30
0.0
 11
-65.95609760394396
 21
14.17507684866539
 31
0.0
  0
LINE
  5
A78
330
A
100
AcDbEntity
  8
Features
  6
Continuous
100
AcDbLine
 10
-65.95609760394396
 20
14.17507684866539
 30
0.0
 11
-65.86474687347166
 21
14.22075221390159
 31
0.0
  0
LINE
  5
A79
330
A
100
AcDbEntity
  8
Features
  6
Continuous
100
AcDbLine
 10
-66.04744833441636
 20
14.2664275791378
 30
0.0
 11
-65.95609760394396
 21
14.3577783096102
 31
0.0
  0
LINE
  5
A7A
330
A
100
AcDbEntity
  8
Features
  6
Continuous
100
AcDbLine
 10
-64.99691493398416
 20
15.63668853622329
 30
0.0
 11
-64.95123956874795
 21
15.59101317098709
 31
0.0
  0
LINE
  5
A7B
330
A
100
AcDbEntity
  8
Features
  6
Continuous
100
AcDbLine
 10
-64.95123956874795
 20
15.59101317098709
 30
0.0
 11
-64.85988883827557
 21
15.68236390145949
 31
0.0
  0
LINE
  5
A7C
330
A
100
AcDbEntity
  8
Features
  6
Continuous
100
AcDbLine
 10
-64.85988883827557
 20
15.68236390145949
 30
0.0
 11
-64.76853810780315
 21
15.59101317098709
 31
0.0
  0
LINE
  5
A7D
330
A
100
AcDbEntity
  8
Features
  6
Continuous
100
AcDbLine
 10
-64.85988883827557
 20
15.68236390145949
 30
0.0
 11
-64.85988883827557
 21
15.77371463193189
 31
0.0
  0
LINE
  5
A7E
330
A
100
AcDbEntity
  8
Features
  6
Continuous
100
AcDbLine
 10
-64.76853810780315
 20
15.59101317098709
 30
0.0
 11
-64.58583664685845
 21
15.63668853622329
 31
0.0
  0
LINE
  5
A7F
330
A
100
AcDbEntity
  8
Features
  6
Continuous
100
AcDbLine
 10
-64.58583664685845
 20
15.63668853622329
 30
0.0
 11
-64.49448591638605
 21
15.7280392666957
 31
0.0
  0
LINE
  5
A80
330
A
100
AcDbEntity
  8
Features
  6
Continuous
100
AcDbLine
 10
-64.54016128162226
 20
15.77371463193189
 30
0.0
 11
-64.49448591638605
 21
15.7280392666957
 31
0.0
  0
LINE
  5
A81
330
A
100
AcDbEntity
  8
Features
  6
Continuous
100
AcDbLine
 10
-64.85988883827557
 20
15.49966244051479
 30
0.0
 11
-64.76853810780315
 21
15.59101317098709
 31
0.0
  0
LINE
  5
A82
330
A
100
AcDbEntity
  8
Features
  6
Continuous
100
AcDbLine
 10
-64.81421347303936
 20
15.86506536240419
 30
0.0
 11
-64.67718737733085
 21
15.95641609287659
 31
0.0
  0
LINE
  5
A83
330
A
100
AcDbEntity
  8
Features
  6
Continuous
100
AcDbLine
 10
-64.67718737733085
 20
15.95641609287659
 30
0.0
 11
-64.40313518591375
 21
16.09344218858519
 31
0.0
  0
LINE
  5
A84
330
A
100
AcDbEntity
  8
Features
  6
Continuous
100
AcDbLine
 10
-64.67718737733085
 20
15.91074072764039
 30
0.0
 11
-64.67718737733085
 21
15.95641609287659
 31
0.0
  0
LINE
  5
A85
330
A
100
AcDbEntity
  8
Features
  6
Continuous
100
AcDbLine
 10
-64.67718737733085
 20
15.91074072764039
 30
0.0
 11
-64.63151201209466
 21
15.86506536240419
 31
0.0
  0
LINE
  5
A86
330
A
100
AcDbEntity
  8
Features
  6
Continuous
100
AcDbLine
 10
-64.63151201209466
 20
15.86506536240419
 30
0.0
 11
-64.54016128162226
 21
15.86506536240419
 31
0.0
  0
LINE
  5
A87
330
A
100
AcDbEntity
  8
Features
  6
Continuous
100
AcDbLine
 10
-64.40313518591375
 20
16.09344218858519
 30
0.0
 11
-64.35745982067756
 21
16.04776682334899
 31
0.0
  0
LINE
  5
A88
330
A
100
AcDbEntity
  8
Features
  6
Continuous
100
AcDbLine
 10
-64.40313518591375
 20
16.09344218858519
 30
0.0
 11
-64.40313518591375
 21
16.23046828429369
 31
0.0
  0
LINE
  5
A89
330
A
100
AcDbEntity
  8
Features
  6
Continuous
100
AcDbLine
 10
-64.76853810780315
 20
15.40831171004239
 30
0.0
 11
-64.67718737733085
 21
15.45398707527859
 31
0.0
  0
LINE
  5
A8A
330
A
100
AcDbEntity
  8
Features
  6
Continuous
100
AcDbLine
 10
-64.63151201209466
 20
16.23046828429369
 30
0.0
 11
-64.54016128162226
 21
16.23046828429369
 31
0.0
  0
LINE
  5
A8B
330
A
100
AcDbEntity
  8
Features
  6
Continuous
100
AcDbLine
 10
-64.44881055114996
 20
15.86506536240419
 30
0.0
 11
-64.40313518591375
 21
15.95641609287659
 31
0.0
  0
LINE
  5
A8C
330
A
100
AcDbEntity
  8
Features
  6
Continuous
100
AcDbLine
 10
-64.40313518591375
 20
15.68236390145949
 30
0.0
 11
-64.31178445544136
 21
15.81938999716799
 31
0.0
  0
LINE
  5
A8D
330
A
100
AcDbEntity
  8
Features
  6
Continuous
100
AcDbLine
 10
-64.31178445544136
 20
16.23046828429369
 30
0.0
 11
-64.17475835973276
 21
16.18479291905749
 31
0.0
  0
LINE
  5
A8E
330
A
100
AcDbEntity
  8
Features
  6
Continuous
100
AcDbLine
 10
-64.17475835973276
 20
16.18479291905749
 30
0.0
 11
-64.03773226402426
 21
16.13911755382129
 31
0.0
  0
LINE
  5
A8F
330
A
100
AcDbEntity
  8
Features
  6
Continuous
100
AcDbLine
 10
-64.22043372496896
 20
16.13911755382129
 30
0.0
 11
-64.17475835973276
 21
16.18479291905749
 31
0.0
  0
LINE
  5
A91
330
A
100
AcDbEntity
  8
Features
  6
Continuous
100
AcDbLine
 10
-64.12908299449666
 20
15.91074072764039
 30
0.0
 11
-64.03773226402426
 21
16.13911755382129
 31
0.0
  0
LINE
  5
A92
330
A
100
AcDbEntity
  8
Features
  6
Continuous
100
AcDbLine
 10
-64.22043372496896
 20
15.86506536240419
 30
0.0
 11
-64.12908299449666
 21
15.91074072764039
 31
0.0
  0
LINE
  5
A93
330
A
100
AcDbEntity
  8
Features
  6
Continuous
100
AcDbLine
 10
-64.17475835973276
 20
15.95641609287659
 30
0.0
 11
-64.12908299449666
 21
15.91074072764039
 31
0.0
  0
LINE
  5
A94
330
A
100
AcDbEntity
  8
Features
  6
Continuous
100
AcDbLine
 10
-63.90070616831566
 20
12.75914052634369
 30
0.0
 11
-63.90070616831566
 21
12.80481589157989
 31
0.0
  0
LINE
  5
A95
330
A
100
AcDbEntity
  8
Features
  6
Continuous
100
AcDbLine
 10
-63.76368007260717
 20
12.75914052634369
 30
0.0
 11
-63.76368007260717
 21
12.80481589157989
 31
0.0
  0
LINE
  5
A96
330
A
100
AcDbEntity
  8
Features
  6
Continuous
100
AcDbLine
 10
-63.76368007260717
 20
13.12454344823319
 30
0.0
 11
-63.71800470737096
 21
13.17021881346939
 31
0.0
  0
LINE
  5
A99
330
A
100
AcDbEntity
  8
Features
  6
Continuous
100
AcDbLine
 10
-63.53530324642626
 20
12.94184198728849
 30
0.0
 11
-63.48962788119006
 21
12.98751735252459
 31
0.0
  0
LINE
  5
A9A
330
A
100
AcDbEntity
  8
Features
  6
Continuous
100
AcDbLine
 10
-63.39827715071766
 20
13.03319271776079
 30
0.0
 11
-63.39827715071766
 21
13.12454344823319
 31
0.0
  0
LINE
  5
A9B
330
A
100
AcDbEntity
  8
Features
  6
Continuous
100
AcDbLine
 10
-63.35260178548146
 20
12.75914052634369
 30
0.0
 11
-63.12422495930056
 21
12.85049125681609
 31
0.0
  0
LINE
  5
A9C
330
A
100
AcDbEntity
  8
Features
  6
Continuous
100
AcDbLine
 10
-63.12422495930056
 20
12.85049125681609
 30
0.0
 11
-63.12422495930056
 21
12.89616662205229
 31
0.0
  0
LINE
  5
A9D
330
A
100
AcDbEntity
  8
Features
  6
Continuous
100
AcDbLine
 10
-63.12422495930056
 20
12.85049125681609
 30
0.0
 11
-62.94152349835586
 21
12.75914052634369
 31
0.0
  0
LINE
  5
A9E
330
A
100
AcDbEntity
  8
Features
  6
Continuous
100
AcDbLine
 10
-63.12422495930056
 20
12.89616662205229
 30
0.0
 11
-63.03287422882826
 21
12.98751735252459
 31
0.0
  0
LINE
  5
A9F
330
A
100
AcDbEntity
  8
Features
  6
Continuous
100
AcDbLine
 10
-63.26125105500916
 20
12.89616662205229
 30
0.0
 11
-63.12422495930056
 21
12.89616662205229
 31
0.0
  0
LINE
  5
AA0
330
A
100
AcDbEntity
  8
Features
  6
Continuous
100
AcDbLine
 10
-63.30692642024536
 20
12.94184198728849
 30
0.0
 11
-63.26125105500916
 21
12.89616662205229
 31
0.0
  0
LINE
  5
AA1
330
A
100
AcDbEntity
  8
Features
  6
Continuous
100
AcDbLine
 10
-63.30692642024536
 20
12.94184198728849
 30
0.0
 11
-63.26125105500916
 21
13.03319271776079
 31
0.0
  0
LINE
  5
AA2
330
A
100
AcDbEntity
  8
Features
  6
Continuous
100
AcDbLine
 10
-63.07854959406436
 20
13.21589417870559
 30
0.0
 11
-62.98719886359206
 21
13.2615695439417
 31
0.0
  0
LINE
  5
AA3
330
A
100
AcDbEntity
  8
Features
  6
Continuous
100
AcDbLine
 10
-62.98719886359206
 20
13.2615695439417
 30
0.0
 11
-62.89584813311966
 21
13.3529202744141
 31
0.0
  0
LINE
  5
AA4
330
A
100
AcDbEntity
  8
Features
  6
Continuous
100
AcDbLine
 10
-62.89584813311966
 20
13.3529202744141
 30
0.0
 11
-62.71314667217496
 21
13.30724490917789
 31
0.0
  0
LINE
  5
AA5
330
A
100
AcDbEntity
  8
Features
  6
Continuous
100
AcDbLine
 10
-62.98719886359206
 20
13.21589417870559
 30
0.0
 11
-62.98719886359206
 21
13.2615695439417
 31
0.0
  0
LINE
  5
AA6
330
A
100
AcDbEntity
  8
Features
  6
Continuous
100
AcDbLine
 10
-62.98719886359206
 20
13.21589417870559
 30
0.0
 11
-62.94152349835586
 21
13.17021881346939
 31
0.0
  0
LINE
  5
AA7
330
A
100
AcDbEntity
  8
Features
  6
Continuous
100
AcDbLine
 10
-62.94152349835586
 20
13.17021881346939
 30
0.0
 11
-62.71314667217496
 21
13.21589417870559
 31
0.0
  0
LINE
  5
AA8
330
A
100
AcDbEntity
  8
Features
  6
Continuous
100
AcDbLine
 10
-62.85017276788346
 20
12.71346516110749
 30
0.0
 11
-62.62179594170256
 21
12.80481589157989
 31
0.0
  0
LINE
  5
AA9
330
A
100
AcDbEntity
  8
Features
  6
Continuous
100
AcDbLine
 10
-62.85017276788346
 20
12.71346516110749
 30
0.0
 11
-62.71314667217496
 21
12.57643906539899
 31
0.0
  0
LINE
  5
AAA
330
A
100
AcDbEntity
  8
Features
  6
Continuous
100
AcDbLine
 10
-62.62179594170256
 20
12.80481589157989
 30
0.0
 11
-62.57612057646637
 21
12.75914052634369
 31
0.0
  0
LINE
  5
AAB
330
A
100
AcDbEntity
  8
Features
  6
Continuous
100
AcDbLine
 10
-62.62179594170256
 20
12.80481589157989
 30
0.0
 11
-62.62179594170256
 21
12.85049125681609
 31
0.0
  0
LINE
  5
AAC
330
A
100
AcDbEntity
  8
Features
  6
Continuous
100
AcDbLine
 10
-62.57612057646637
 20
12.75914052634369
 30
0.0
 11
-62.39341911552166
 21
12.80481589157989
 31
0.0
  0
LINE
  5
AAD
330
A
100
AcDbEntity
  8
Features
  6
Continuous
100
AcDbLine
 10
-62.62179594170256
 20
12.62211443063519
 30
0.0
 11
-62.57612057646637
 21
12.75914052634369
 31
0.0
  0
LINE
  5
AAE
330
A
100
AcDbEntity
  8
Features
  6
Continuous
100
AcDbLine
 10
-62.39341911552166
 20
12.80481589157989
 30
0.0
 11
-62.30206838504926
 21
12.75914052634369
 31
0.0
  0
LINE
  5
AAF
330
A
100
AcDbEntity
  8
Features
  6
Continuous
100
AcDbLine
 10
-62.43909448075786
 20
12.89616662205229
 30
0.0
 11
-62.39341911552166
 21
12.80481589157989
 31
0.0
  0
LINE
  5
AB1
330
A
100
AcDbEntity
  8
Features
  6
Continuous
100
AcDbLine
 10
-62.80449740264726
 20
12.98751735252459
 30
0.0
 11
-62.71314667217496
 21
13.12454344823319
 31
0.0
  0
LINE
  5
AB5
330
A
100
AcDbEntity
  8
Features
  6
Continuous
100
AcDbLine
 10
-62.62179594170256
 20
12.94184198728849
 30
0.0
 11
-62.62179594170256
 21
13.21589417870559
 31
0.0
  0
LINE
  5
AB6
330
A
100
AcDbEntity
  8
Features
  6
Continuous
100
AcDbLine
 10
-62.62179594170256
 20
13.21589417870559
 30
0.0
 11
-62.53044521123016
 21
13.30724490917789
 31
0.0
  0
LINE
  5
AB7
330
A
100
AcDbEntity
  8
Features
  6
Continuous
100
AcDbLine
 10
-62.62179594170256
 20
13.48994637012269
 30
0.0
 11
-62.57612057646637
 21
13.53562173535879
 31
0.0
  0
LINE
  5
AB8
330
A
100
AcDbEntity
  8
Features
  6
Continuous
100
AcDbLine
 10
-62.57612057646637
 20
13.53562173535879
 30
0.0
 11
-62.39341911552166
 21
13.53562173535879
 31
0.0
  0
LINE
  5
ABA
330
A
100
AcDbEntity
  8
Features
  6
Continuous
100
AcDbLine
 10
-62.53044521123016
 20
12.30238687398189
 30
0.0
 11
-62.43909448075786
 21
12.21103614350949
 31
0.0
  0
LINE
  5
ABB
330
A
100
AcDbEntity
  8
Features
  6
Continuous
100
AcDbLine
 10
-62.53044521123016
 20
12.30238687398189
 30
0.0
 11
-62.61455262912426
 21
12.38580165183959
 31
0.0
  0
LINE
  5
ABC
330
A
100
AcDbEntity
  8
Features
  6
Continuous
100
AcDbLine
 10
-62.34774375028545
 20
12.02833468256479
 30
0.0
 11
-62.30206838504926
 21
11.98265931732859
 31
0.0
  0
LINE
  5
ABD
330
A
100
AcDbEntity
  8
Features
  6
Continuous
100
AcDbLine
 10
-62.25639301981306
 20
12.94184198728849
 30
0.0
 11
-62.16504228934076
 21
12.85049125681609
 31
0.0
  0
LINE
  5
ABE
330
A
100
AcDbEntity
  8
Features
  6
Continuous
100
AcDbLine
 10
-62.25639301981306
 20
12.94184198728849
 30
0.0
 11
-62.11936692410456
 21
13.12454344823319
 31
0.0
  0
LINE
  5
ABF
330
A
100
AcDbEntity
  8
Features
  6
Continuous
100
AcDbLine
 10
-62.16504228934076
 20
12.85049125681609
 30
0.0
 11
-62.11936692410456
 21
12.80481589157989
 31
0.0
  0
LINE
  5
AC0
330
A
100
AcDbEntity
  8
Features
  6
Continuous
100
AcDbLine
 10
-62.16504228934076
 20
12.85049125681609
 30
0.0
 11
-62.07369155886836
 21
12.94184198728849
 31
0.0
  0
LINE
  5
AC1
330
A
100
AcDbEntity
  8
Features
  6
Continuous
100
AcDbLine
 10
-62.11936692410456
 20
12.80481589157989
 30
0.0
 11
-61.98234082839596
 21
12.71346516110749
 31
0.0
  0
LINE
  5
AC2
330
A
100
AcDbEntity
  8
Features
  6
Continuous
100
AcDbLine
 10
-62.21071765457686
 20
12.75914052634369
 30
0.0
 11
-62.11936692410456
 21
12.80481589157989
 31
0.0
  0
LINE
  5
AC3
330
A
100
AcDbEntity
  8
Features
  6
Continuous
100
AcDbLine
 10
-61.98234082839596
 20
12.71346516110749
 30
0.0
 11
-61.84531473268746
 21
12.80481589157989
 31
0.0
  0
LINE
  5
AC5
330
A
100
AcDbEntity
  8
Features
  6
Continuous
100
AcDbLine
 10
-61.98234082839596
 20
12.66778979587139
 30
0.0
 11
-61.98234082839596
 21
12.71346516110749
 31
0.0
  0
LINE
  5
AC6
330
A
100
AcDbEntity
  8
Features
  6
Continuous
100
AcDbLine
 10
-62.21071765457686
 20
13.21589417870559
 30
0.0
 11
-62.07369155886836
 21
13.35292027441409
 31
0.0
  0
LINE
  5
AC7
330
A
100
AcDbEntity
  8
Features
  6
Continuous
100
AcDbLine
 10
-62.07369155886836
 20
13.35292027441409
 30
0.0
 11
-61.93666546315976
 21
13.30724490917789
 31
0.0
  0
LINE
  5
AC8
330
A
100
AcDbEntity
  8
Features
  6
Continuous
100
AcDbLine
 10
-61.93666546315976
 20
13.30724490917789
 30
0.0
 11
-61.75396400221506
 21
13.39859563965029
 31
0.0
  0
LINE
  5
AC9
330
A
100
AcDbEntity
  8
Features
  6
Continuous
100
AcDbLine
 10
-61.93666546315976
 20
13.30724490917789
 30
0.0
 11
-61.89099009792366
 21
13.12454344823319
 31
0.0
  0
LINE
  5
ACA
330
A
100
AcDbEntity
  8
Features
  6
Continuous
100
AcDbLine
 10
-61.89099009792366
 20
13.12454344823319
 30
0.0
 11
-61.61693790650646
 21
13.12454344823319
 31
0.0
  0
LINE
  5
ACB
330
A
100
AcDbEntity
  8
Features
  6
Continuous
100
AcDbLine
 10
-61.98234082839596
 20
12.94184198728849
 30
0.0
 11
-61.89099009792366
 21
13.12454344823319
 31
0.0
  0
LINE
  5
ACC
330
A
100
AcDbEntity
  8
Features
  6
Continuous
100
AcDbLine
 10
-62.21071765457686
 20
13.48994637012269
 30
0.0
 11
-62.21071765457686
 21
13.53562173535879
 31
0.0
  0
LINE
  5
ACE
330
A
100
AcDbEntity
  8
Features
  6
Continuous
100
AcDbLine
 10
-62.11936692410456
 20
13.71832319630359
 30
0.0
 11
-61.93666546315976
 21
13.85534929201209
 31
0.0
  0
LINE
  5
ACF
330
A
100
AcDbEntity
  8
Features
  6
Continuous
100
AcDbLine
 10
-61.93666546315976
 20
13.85534929201209
 30
0.0
 11
-61.79963936745126
 21
13.99237538772069
 31
0.0
  0
LINE
  5
AD0
330
A
100
AcDbEntity
  8
Features
  6
Continuous
100
AcDbLine
 10
-61.93666546315976
 20
13.85534929201209
 30
0.0
 11
-61.89099009792366
 21
13.80967392677599
 31
0.0
  0
LINE
  5
AD1
330
A
100
AcDbEntity
  8
Features
  6
Continuous
100
AcDbLine
 10
-61.79963936745126
 20
13.99237538772069
 30
0.0
 11
-61.52558717603416
 21
14.08372611819309
 31
0.0
  0
LINE
  5
AD2
330
A
100
AcDbEntity
  8
Features
  6
Continuous
100
AcDbLine
 10
-61.79963936745126
 20
13.99237538772069
 30
0.0
 11
-61.79963936745126
 21
14.26642757913779
 31
0.0
  0
LINE
  5
AD3
330
A
100
AcDbEntity
  8
Features
  6
Continuous
100
AcDbLine
 10
-61.79963936745126
 20
14.26642757913779
 30
0.0
 11
-61.70828863697886
 21
14.22075221390159
 31
0.0
  0
LINE
  5
AD4
330
A
100
AcDbEntity
  8
Features
  6
Continuous
100
AcDbLine
 10
-61.84531473268746
 20
14.31210294437399
 30
0.0
 11
-61.79963936745126
 21
14.26642757913779
 31
0.0
  0
LINE
  5
AD5
330
A
100
AcDbEntity
  8
Features
  6
Continuous
100
AcDbLine
 10
-62.07369155886836
 20
11.66293176067529
 30
0.0
 11
-61.98234082839596
 21
11.61725639543909
 31
0.0
  0
LINE
  5
AD6
330
A
100
AcDbEntity
  8
Features
  6
Continuous
100
AcDbLine
 10
-62.07369155886836
 20
11.66293176067529
 30
0.0
 11
-62.07369155886836
 21
11.70860712591149
 31
0.0
  0
LINE
  5
AD7
330
A
100
AcDbEntity
  8
Features
  6
Continuous
100
AcDbLine
 10
-62.07369155886836
 20
13.48994637012269
 30
0.0
 11
-61.98234082839596
 21
13.53562173535879
 31
0.0
  0
LINE
  5
AD8
330
A
100
AcDbEntity
  8
Features
  6
Continuous
100
AcDbLine
 10
-61.94263311286966
 20
12.57830064122658
 30
0.0
 11
-61.84531473268746
 21
12.53076370016279
 31
0.0
  0
LINE
  5
AD9
330
A
100
AcDbEntity
  8
Features
  6
Continuous
100
AcDbLine
 10
-61.84531473268746
 20
12.53076370016279
 30
0.0
 11
-61.70828863697886
 21
12.39373760445419
 31
0.0
  0
LINE
  5
ADA
330
A
100
AcDbEntity
  8
Features
  6
Continuous
100
AcDbLine
 10
-61.84531473268746
 20
13.62697246583119
 30
0.0
 11
-61.79963936745126
 21
13.58129710059499
 31
0.0
  0
LINE
  5
ADB
330
A
100
AcDbEntity
  8
Features
  6
Continuous
100
AcDbLine
 10
-61.79963936745126
 20
13.71832319630359
 30
0.0
 11
-61.66261327174266
 21
13.76399856153979
 31
0.0
  0
LINE
  5
ADC
330
A
100
AcDbEntity
  8
Features
  6
Continuous
100
AcDbLine
 10
-61.71970048158471
 20
11.20968171814559
 30
0.0
 11
-61.82252890558124
 21
11.39416226679677
 31
0.0
  0
LINE
  5
ADD
330
A
100
AcDbEntity
  8
Features
  6
Continuous
100
AcDbLine
 10
-61.75396400221506
 20
14.49480440531869
 30
0.0
 11
-61.70828863697886
 21
14.54047977055489
 31
0.0
  0
LINE
  5
ADE
330
A
100
AcDbEntity
  8
Features
  6
Continuous
100
AcDbLine
 10
-61.70828863697886
 20
14.54047977055489
 30
0.0
 11
-61.66261327174266
 21
14.58615513579109
 31
0.0
  0
LINE
  5
ADF
330
A
100
AcDbEntity
  8
Features
  6
Continuous
100
AcDbLine
 10
-61.75396400221506
 20
14.58615513579109
 30
0.0
 11
-61.70828863697886
 21
14.54047977055489
 31
0.0
  0
LINE
  5
AE0
330
A
100
AcDbEntity
  8
Features
  6
Continuous
100
AcDbLine
 10
-61.66261327174266
 20
14.58615513579109
 30
0.0
 11
-61.43423644556176
 21
14.44912904008249
 31
0.0
  0
LINE
  5
AE1
330
A
100
AcDbEntity
  8
Features
  6
Continuous
100
AcDbLine
 10
-61.66261327174266
 20
14.58615513579109
 30
0.0
 11
-61.66261327174266
 21
14.63183050102729
 31
0.0
  0
LINE
  5
AE2
330
A
100
AcDbEntity
  8
Features
  6
Continuous
100
AcDbLine
 10
-61.66261327174266
 20
13.90102465724829
 30
0.0
 11
-61.61693790650646
 21
13.90102465724829
 31
0.0
  0
LINE
  5
AE3
330
A
100
AcDbEntity
  8
Features
  6
Continuous
100
AcDbLine
 10
-61.66261327174266
 20
14.31210294437399
 30
0.0
 11
-61.61693790650646
 21
14.26642757913779
 31
0.0
  0
LINE
  5
AE4
330
A
100
AcDbEntity
  8
Features
  6
Continuous
100
AcDbLine
 10
-61.66261327174266
 20
14.31210294437399
 30
0.0
 11
-61.66261327174266
 21
14.35777830961019
 31
0.0
  0
LINE
  5
AE5
330
A
100
AcDbEntity
  8
Features
  6
Continuous
100
AcDbLine
 10
-61.60973551961365
 20
12.23292353642344
 30
0.0
 11
-61.55391818137429
 21
12.10376285642022
 31
0.0
  0
LINE
  5
AE6
330
A
100
AcDbEntity
  8
Features
  6
Continuous
100
AcDbLine
 10
-61.57126254127036
 20
11.02347664736872
 30
0.0
 11
-61.47991181079796
 21
10.88645055166017
 31
0.0
  0
LINE
  5
AE7
330
A
100
AcDbEntity
  8
Features
  6
Continuous
100
AcDbLine
 10
-61.57126254127036
 20
13.53562173535879
 30
0.0
 11
-61.57126254127036
 21
13.58129710059499
 31
0.0
  0
LINE
  5
AE8
330
A
100
AcDbEntity
  8
Features
  6
Continuous
100
AcDbLine
 10
-61.47991181079796
 20
14.31210294437399
 30
0.0
 11
-61.34288571508936
 21
14.12940148342919
 31
0.0
  0
LINE
  5
AE9
330
A
100
AcDbEntity
  8
Features
  6
Continuous
100
AcDbLine
 10
-61.47991181079796
 20
14.63183050102729
 30
0.0
 11
-61.34288571508936
 21
14.58615513579109
 31
0.0
  0
LINE
  5
AEA
330
A
100
AcDbEntity
  8
Features
  6
Continuous
100
AcDbLine
 10
-61.43423644556176
 20
13.35292027441409
 30
0.0
 11
-61.06883352367226
 21
13.53562173535879
 31
0.0
  0
LINE
  5
AEB
330
A
100
AcDbEntity
  8
Features
  6
Continuous
100
AcDbLine
 10
-61.43423644556176
 20
13.80967392677599
 30
0.0
 11
-61.43423644556176
 21
13.85534929201209
 31
0.0
  0
LINE
  5
AEC
330
A
100
AcDbEntity
  8
Features
  6
Continuous
100
AcDbLine
 10
-61.38856108032556
 20
10.74942445595162
 30
0.0
 11
-61.29721034985326
 21
10.61239836024306
 31
0.0
  0
LINE
  5
AED
330
A
100
AcDbEntity
  8
Features
  6
Continuous
100
AcDbLine
 10
-61.38856108032556
 20
13.58129710059499
 30
0.0
 11
-61.34288571508936
 21
13.53562173535879
 31
0.0
  0
LINE
  5
AEE
330
A
100
AcDbEntity
  8
Features
  6
Continuous
100
AcDbLine
 10
-61.34288571508936
 20
11.89130858685619
 30
0.0
 11
-61.20585961938086
 21
11.75428249114769
 31
0.0
  0
LINE
  5
AF0
330
A
100
AcDbEntity
  8
Features
  6
Continuous
100
AcDbLine
 10
-61.29721034985326
 20
13.76399856153979
 30
0.0
 11
-61.25153498461706
 21
13.80967392677599
 31
0.0
  0
LINE
  5
AF1
330
A
100
AcDbEntity
  8
Features
  6
Continuous
100
AcDbLine
 10
-61.29721034985326
 20
14.26642757913779
 30
0.0
 11
-61.20585961938086
 21
14.31210294437399
 31
0.0
  0
LINE
  5
AF2
330
A
100
AcDbEntity
  8
Features
  6
Continuous
100
AcDbLine
 10
-61.20585961938086
 20
14.31210294437399
 30
0.0
 11
-61.11450888890846
 21
14.17507684866539
 31
0.0
  0
LINE
  5
AF3
330
A
100
AcDbEntity
  8
Features
  6
Continuous
100
AcDbLine
 10
-61.29721034985326
 20
14.44912904008249
 30
0.0
 11
-61.20585961938086
 21
14.63183050102729
 31
0.0
  0
LINE
  5
AF4
330
A
100
AcDbEntity
  8
Features
  6
Continuous
100
AcDbLine
 10
-61.25153498461706
 20
13.58129710059499
 30
0.0
 11
-61.25153498461706
 21
13.67264783106739
 31
0.0
  0
LINE
  5
AF5
330
A
100
AcDbEntity
  8
Features
  6
Continuous
100
AcDbLine
 10
-61.16018425414466
 20
10.42969689929833
 30
0.0
 11
-61.02315815843616
 21
10.29267080358978
 31
0.0
  0
LINE
  5
AF6
330
A
100
AcDbEntity
  8
Features
  6
Continuous
100
AcDbLine
 10
-61.16018425414466
 20
13.94670002248449
 30
0.0
 11
-60.97748279319995
 21
13.85534929201209
 31
0.0
  0
LINE
  5
AF7
330
A
100
AcDbEntity
  8
Features
  6
Continuous
100
AcDbLine
 10
-60.97748279319995
 20
13.85534929201209
 30
0.0
 11
-60.93180742796376
 21
13.85534929201209
 31
0.0
  0
LINE
  5
AF8
330
A
100
AcDbEntity
  8
Features
  6
Continuous
100
AcDbLine
 10
-61.02315815843616
 20
13.80967392677599
 30
0.0
 11
-60.97748279319995
 21
13.85534929201209
 31
0.0
  0
LINE
  5
AF9
330
A
100
AcDbEntity
  8
Features
  6
Continuous
100
AcDbLine
 10
-60.93180742796376
 20
13.85534929201209
 30
0.0
 11
-60.88613206272755
 21
13.90102465724829
 31
0.0
  0
LINE
  5
AFA
330
A
100
AcDbEntity
  8
Features
  6
Continuous
100
AcDbLine
 10
-60.93180742796376
 20
13.85534929201209
 30
0.0
 11
-60.88613206272755
 21
13.76399856153979
 31
0.0
  0
LINE
  5
AFB
330
A
100
AcDbEntity
  8
Features
  6
Continuous
100
AcDbLine
 10
-61.02315815843616
 20
13.80967392677599
 30
0.0
 11
-60.97748279319995
 21
13.76399856153979
 31
0.0
  0
LINE
  5
AFC
330
A
100
AcDbEntity
  8
Features
  6
Continuous
100
AcDbLine
 10
-61.06883352367226
 20
13.80967392677599
 30
0.0
 11
-61.02315815843616
 21
13.80967392677599
 31
0.0
  0
LINE
  5
AFD
330
A
100
AcDbEntity
  8
Features
  6
Continuous
100
AcDbLine
 10
-60.88613206272755
 20
13.90102465724829
 30
0.0
 11
-60.84045669749136
 21
13.94670002248449
 31
0.0
  0
LINE
  5
AFE
330
A
100
AcDbEntity
  8
Features
  6
Continuous
100
AcDbLine
 10
-60.88613206272755
 20
13.90102465724829
 30
0.0
 11
-60.88613206272755
 21
13.99237538772069
 31
0.0
  0
LINE
  5
AFF
330
A
100
AcDbEntity
  8
Features
  6
Continuous
100
AcDbLine
 10
-60.88613206272755
 20
13.99237538772069
 30
0.0
 11
-60.84045669749136
 21
13.94670002248449
 31
0.0
  0
LINE
  5
B00
330
A
100
AcDbEntity
  8
Features
  6
Continuous
100
AcDbLine
 10
-60.88613206272755
 20
13.76399856153979
 30
0.0
 11
-60.79478133225516
 21
13.67264783106739
 31
0.0
  0
LINE
  5
B01
330
A
100
AcDbEntity
  8
Features
  6
Continuous
100
AcDbLine
 10
-60.97748279319995
 20
13.76399856153979
 30
0.0
 11
-60.88613206272755
 21
13.76399856153979
 31
0.0
  0
LINE
  5
B02
330
A
100
AcDbEntity
  8
Features
  6
Continuous
100
AcDbLine
 10
-60.97748279319995
 20
13.58129710059499
 30
0.0
 11
-60.97748279319995
 21
13.76399856153979
 31
0.0
  0
LINE
  5
B03
330
A
100
AcDbEntity
  8
Features
  6
Continuous
100
AcDbLine
 10
-60.84045669749136
 20
13.94670002248449
 30
0.0
 11
-60.65775523654666
 21
13.80967392677599
 31
0.0
  0
LINE
  5
B04
330
A
100
AcDbEntity
  8
Features
  6
Continuous
100
AcDbLine
 10
-61.11450888890846
 20
11.52590566496679
 30
0.0
 11
-60.97748279319995
 21
11.43455493449439
 31
0.0
  0
LINE
  5
B06
330
A
100
AcDbEntity
  8
Features
  6
Continuous
100
AcDbLine
 10
-61.11450888890846
 20
14.40345367484629
 30
0.0
 11
-61.06883352367226
 21
14.44912904008249
 31
0.0
  0
LINE
  5
B07
330
A
100
AcDbEntity
  8
Features
  6
Continuous
100
AcDbLine
 10
-60.93180742796376
 20
10.10996934264504
 30
0.0
 11
-60.88613206272756
 21
10.06429397740886
 31
0.0
  0
LINE
  5
B08
330
A
100
AcDbEntity
  8
Features
  6
Continuous
100
AcDbLine
 10
-60.93180742796376
 20
10.10996934264504
 30
0.0
 11
-60.93180742796376
 21
10.15564470788122
 31
0.0
  0
LINE
  5
B09
330
A
100
AcDbEntity
  8
Features
  6
Continuous
100
AcDbLine
 10
-60.93180742796376
 20
14.22075221390159
 30
0.0
 11
-60.88613206272755
 21
14.26642757913779
 31
0.0
  0
LINE
  5
B0A
330
A
100
AcDbEntity
  8
Features
  6
Continuous
100
AcDbLine
 10
-60.93180742796376
 20
14.40345367484629
 30
0.0
 11
-60.84045669749136
 21
14.35777830961019
 31
0.0
  0
LINE
  5
B0B
330
A
100
AcDbEntity
  8
Features
  6
Continuous
100
AcDbLine
 10
-60.93180742796376
 20
14.63183050102729
 30
0.0
 11
-60.93180742796376
 21
14.67750586626339
 31
0.0
  0
LINE
  5
B0C
330
A
100
AcDbEntity
  8
Features
  6
Continuous
100
AcDbLine
 10
-60.84045669749136
 20
11.25185347354959
 30
0.0
 11
-60.79478133225516
 21
11.20617810831349
 31
0.0
  0
LINE
  5
B0D
330
A
100
AcDbEntity
  8
Features
  6
Continuous
100
AcDbLine
 10
-60.79478133225516
 20
14.26642757913779
 30
0.0
 11
-60.70343060178286
 21
14.22075221390159
 31
0.0
  0
LINE
  5
B0E
330
A
100
AcDbEntity
  8
Features
  6
Continuous
100
AcDbLine
 10
-60.70343060178286
 20
14.22075221390159
 30
0.0
 11
-60.65775523654666
 21
14.17507684866539
 31
0.0
  0
LINE
  5
B0F
330
A
100
AcDbEntity
  8
Features
  6
Continuous
100
AcDbLine
 10
-60.70343060178286
 20
14.22075221390159
 30
0.0
 11
-60.61207987131046
 21
14.22075221390159
 31
0.0
  0
LINE
  5
B10
330
A
100
AcDbEntity
  8
Features
  6
Continuous
100
AcDbLine
 10
-60.65775523654666
 20
14.17507684866539
 30
0.0
 11
-60.61207987131046
 21
14.22075221390159
 31
0.0
  0
LINE
  5
B11
330
A
100
AcDbEntity
  8
Features
  6
Continuous
100
AcDbLine
 10
-60.65775523654666
 20
14.12940148342919
 30
0.0
 11
-60.65775523654666
 21
14.17507684866539
 31
0.0
  0
LINE
  5
B12
330
A
100
AcDbEntity
  8
Features
  6
Continuous
100
AcDbLine
 10
-60.61207987131046
 20
14.22075221390159
 30
0.0
 11
-60.56640450607426
 21
14.22075221390159
 31
0.0
  0
LINE
  5
B13
330
A
100
AcDbEntity
  8
Features
  6
Continuous
100
AcDbLine
 10
-60.79478133225516
 20
14.72318123149959
 30
0.0
 11
-60.70343060178286
 21
14.67750586626339
 31
0.0
  0
LINE
  5
B14
330
A
100
AcDbEntity
  8
Features
  6
Continuous
100
AcDbLine
 10
-60.70343060178286
 20
14.67750586626339
 30
0.0
 11
-60.52072914083806
 21
14.81453196197199
 31
0.0
  0
LINE
  5
B15
330
A
100
AcDbEntity
  8
Features
  6
Continuous
100
AcDbLine
 10
-60.56640450607426
 20
14.90588269244439
 30
0.0
 11
-60.52072914083806
 21
14.81453196197199
 31
0.0
  0
LINE
  5
B16
330
A
100
AcDbEntity
  8
Features
  6
Continuous
100
AcDbLine
 10
-60.70343060178286
 20
14.67750586626339
 30
0.0
 11
-60.61207987131046
 21
14.58615513579109
 31
0.0
  0
LINE
  5
B17
330
A
100
AcDbEntity
  8
Features
  6
Continuous
100
AcDbLine
 10
-60.74910596701906
 20
9.881592516464124
 30
0.0
 11
-60.70343060178286
 21
9.790241785991753
 31
0.0
  0
LINE
  5
B18
330
A
100
AcDbEntity
  8
Features
  6
Continuous
100
AcDbLine
 10
-60.74910596701906
 20
14.44912904008249
 30
0.0
 11
-60.74910596701906
 21
14.49480440531869
 31
0.0
  0
LINE
  5
B19
330
A
100
AcDbEntity
  8
Features
  6
Continuous
100
AcDbLine
 10
-60.65775523654666
 20
13.99237538772069
 30
0.0
 11
-60.61207987131046
 21
13.94670002248449
 31
0.0
  0
LINE
  5
B1A
330
A
100
AcDbEntity
  8
Features
  6
Continuous
100
AcDbLine
 10
-60.65775523654666
 20
13.99237538772069
 30
0.0
 11
-60.65775523654666
 21
14.03805075295689
 31
0.0
  0
LINE
  5
B1B
330
A
100
AcDbEntity
  8
Features
  6
Continuous
100
AcDbLine
 10
-60.61207987131046
 20
13.94670002248449
 30
0.0
 11
-60.38370304512956
 21
13.90102465724829
 31
0.0
  0
LINE
  5
B1C
330
A
100
AcDbEntity
  8
Features
  6
Continuous
100
AcDbLine
 10
-60.61207987131046
 20
13.94670002248449
 30
0.0
 11
-60.56640450607426
 21
13.85534929201209
 31
0.0
  0
LINE
  5
B1D
330
A
100
AcDbEntity
  8
Features
  6
Continuous
100
AcDbLine
 10
-60.61207987131046
 20
10.93212591689635
 30
0.0
 11
-60.52072914083806
 21
10.74942445595162
 31
0.0
  0
LINE
  5
B1E
330
A
100
AcDbEntity
  8
Features
  6
Continuous
100
AcDbLine
 10
-60.56640450607426
 20
14.03805075295689
 30
0.0
 11
-60.52072914083806
 21
14.08372611819309
 31
0.0
  0
LINE
  5
B1F
330
A
100
AcDbEntity
  8
Features
  6
Continuous
100
AcDbLine
 10
-60.56640450607426
 20
14.35777830961019
 30
0.0
 11
-60.47505377560186
 21
14.44912904008249
 31
0.0
  0
LINE
  5
B20
330
A
100
AcDbEntity
  8
Features
  6
Continuous
100
AcDbLine
 10
-60.56640450607426
 20
14.35777830961019
 30
0.0
 11
-60.47505377560186
 21
14.26642757913779
 31
0.0
  0
LINE
  5
B21
330
A
100
AcDbEntity
  8
Features
  6
Continuous
100
AcDbLine
 10
-60.52072914083806
 20
9.561864959810833
 30
0.0
 11
-60.42937841036576
 21
9.470514229338463
 31
0.0
  0
LINE
  5
B22
330
A
100
AcDbEntity
  8
Features
  6
Continuous
100
AcDbLine
 10
-60.42937841036576
 20
14.54047977055489
 30
0.0
 11
-60.33802767989336
 21
14.49480440531869
 31
0.0
  0
LINE
  5
B23
330
A
100
AcDbEntity
  8
Features
  6
Continuous
100
AcDbLine
 10
-60.38370304512956
 20
10.61239836024306
 30
0.0
 11
-60.27590782722348
 21
10.46987401018478
 31
0.0
  0
LINE
  5
B25
330
A
100
AcDbEntity
  8
Features
  6
Continuous
100
AcDbLine
 10
-60.29235231465716
 20
14.95155805768059
 30
0.0
 11
-60.24667694942096
 21
15.04290878815289
 31
0.0
  0
LINE
  5
B26
330
A
100
AcDbEntity
  8
Features
  6
Continuous
100
AcDbLine
 10
-60.24667694942096
 20
9.196462037921357
 30
0.0
 11
-60.15532621894867
 21
9.150786672685179
 31
0.0
  0
LINE
  5
B27
330
A
100
AcDbEntity
  8
Features
  6
Continuous
100
AcDbLine
 10
-60.24667694942096
 20
14.26642757913779
 30
0.0
 11
-60.20100158418476
 21
14.31210294437399
 31
0.0
  0
LINE
  5
B28
330
A
100
AcDbEntity
  8
Features
  6
Continuous
100
AcDbLine
 10
-60.24667694942096
 20
14.26642757913779
 30
0.0
 11
-60.20100158418476
 21
14.22075221390159
 31
0.0
  0
LINE
  5
B29
330
A
100
AcDbEntity
  8
Features
  6
Continuous
100
AcDbLine
 10
-60.20100158418476
 20
14.31210294437399
 30
0.0
 11
-60.15532621894866
 21
14.35777830961019
 31
0.0
  0
LINE
  5
B2A
330
A
100
AcDbEntity
  8
Features
  6
Continuous
100
AcDbLine
 10
-60.24667694942096
 20
14.40345367484629
 30
0.0
 11
-60.20100158418476
 21
14.31210294437399
 31
0.0
  0
LINE
  5
B2B
330
A
100
AcDbEntity
  8
Features
  6
Continuous
100
AcDbLine
 10
-60.20100158418476
 20
14.22075221390159
 30
0.0
 11
-60.06397548847626
 21
14.22075221390159
 31
0.0
  0
LINE
  5
B2C
330
A
100
AcDbEntity
  8
Features
  6
Continuous
100
AcDbLine
 10
-60.20100158418476
 20
14.22075221390159
 30
0.0
 11
-60.15532621894866
 21
14.03805075295689
 31
0.0
  0
LINE
  5
B2D
330
A
100
AcDbEntity
  8
Features
  6
Continuous
100
AcDbLine
 10
-60.06397548847626
 20
14.22075221390159
 30
0.0
 11
-59.92694939276766
 21
14.31210294437399
 31
0.0
  0
LINE
  5
B2E
330
A
100
AcDbEntity
  8
Features
  6
Continuous
100
AcDbLine
 10
-60.06397548847626
 20
14.22075221390159
 30
0.0
 11
-60.01830012324006
 21
14.17507684866539
 31
0.0
  0
LINE
  5
B2F
330
A
100
AcDbEntity
  8
Features
  6
Continuous
100
AcDbLine
 10
-59.92694939276766
 20
14.31210294437399
 30
0.0
 11
-59.83559866229536
 21
14.26642757913779
 31
0.0
  0
LINE
  5
B30
330
A
100
AcDbEntity
  8
Features
  6
Continuous
100
AcDbLine
 10
-60.01830012324006
 20
14.49480440531869
 30
0.0
 11
-59.92694939276766
 21
14.31210294437399
 31
0.0
  0
LINE
  5
B31
330
A
100
AcDbEntity
  8
Features
  6
Continuous
100
AcDbLine
 10
-60.15532621894866
 20
14.99723342291669
 30
0.0
 11
-60.10965085371245
 21
15.04290878815289
 31
0.0
  0
LINE
  5
B32
330
A
100
AcDbEntity
  8
Features
  6
Continuous
100
AcDbLine
 10
-60.10965085371246
 20
10.29267080358978
 30
0.0
 11
-60.01830012324006
 21
10.15564470788122
 31
0.0
  0
LINE
  5
B33
330
A
100
AcDbEntity
  8
Features
  6
Continuous
100
AcDbLine
 10
-60.10965085371245
 20
14.76885659673579
 30
0.0
 11
-59.92694939276766
 21
14.86020732720819
 31
0.0
  0
LINE
  5
B34
330
A
100
AcDbEntity
  8
Features
  6
Continuous
100
AcDbLine
 10
-60.06397548847626
 20
15.13425951862529
 30
0.0
 11
-59.97262475800386
 21
15.08858415338909
 31
0.0
  0
LINE
  5
B35
330
A
100
AcDbEntity
  8
Features
  6
Continuous
100
AcDbLine
 10
-59.97262475800386
 20
15.08858415338909
 30
0.0
 11
-59.88127402753156
 21
15.17993488386149
 31
0.0
  0
LINE
  5
B36
330
A
100
AcDbEntity
  8
Features
  6
Continuous
100
AcDbLine
 10
-59.97262475800386
 20
15.08858415338909
 30
0.0
 11
-59.92694939276766
 21
14.99723342291669
 31
0.0
  0
LINE
  5
B37
330
A
100
AcDbEntity
  8
Features
  6
Continuous
100
AcDbLine
 10
-59.92694939276766
 20
10.01861861217267
 30
0.0
 11
-59.83559866229537
 21
9.972943246936488
 31
0.0
  0
LINE
  5
B38
330
A
100
AcDbEntity
  8
Features
  6
Continuous
100
AcDbLine
 10
-59.76969501226017
 20
9.985326256143736
 30
0.0
 11
-59.61593866120518
 21
10.08932672217608
 31
0.0
  0
LINE
  5
B3A
330
A
100
AcDbEntity
  8
Features
  6
Continuous
100
AcDbLine
 10
-59.88127402753156
 20
14.67750586626339
 30
0.0
 11
-59.74424793182296
 21
14.76885659673579
 31
0.0
  0
LINE
  5
B3B
330
A
100
AcDbEntity
  8
Features
  6
Continuous
100
AcDbLine
 10
-59.83559866229536
 20
14.86020732720819
 30
0.0
 11
-59.74424793182296
 21
14.76885659673579
 31
0.0
  0
LINE
  5
B3C
330
A
100
AcDbEntity
  8
Features
  6
Continuous
100
AcDbLine
 10
-59.78992329705916
 20
9.287812768393728
 30
0.0
 11
-59.74424793182296
 21
9.287812768393728
 31
0.0
  0
LINE
  5
B3D
330
A
100
AcDbEntity
  8
Features
  6
Continuous
100
AcDbLine
 10
-59.78992329705916
 20
14.49480440531869
 30
0.0
 11
-59.69857256658675
 21
14.40345367484629
 31
0.0
  0
LINE
  5
B3E
330
A
100
AcDbEntity
  8
Features
  6
Continuous
100
AcDbLine
 10
-59.78992329705916
 20
14.49480440531869
 30
0.0
 11
-59.78992329705916
 21
14.58615513579109
 31
0.0
  0
LINE
  5
B3F
330
A
100
AcDbEntity
  8
Features
  6
Continuous
100
AcDbLine
 10
-59.78992329705916
 20
15.08858415338909
 30
0.0
 11
-59.74424793182296
 21
15.08858415338909
 31
0.0
  0
LINE
  5
B40
330
A
100
AcDbEntity
  8
Features
  6
Continuous
100
AcDbLine
 10
-59.78992329705916
 20
15.27128561433379
 30
0.0
 11
-59.65289720135056
 21
15.36263634480619
 31
0.0
  0
LINE
  5
B44
330
A
100
AcDbEntity
  8
Features
  6
Continuous
100
AcDbLine
 10
-59.60722183611446
 20
14.40345367484629
 30
0.0
 11
-59.51587110564206
 21
14.49480440531869
 31
0.0
  0
LINE
  5
B45
330
A
100
AcDbEntity
  8
Features
  6
Continuous
100
AcDbLine
 10
-59.56154647087826
 20
14.58615513579109
 30
0.0
 11
-59.51587110564206
 21
14.49480440531869
 31
0.0
  0
LINE
  5
B46
330
A
100
AcDbEntity
  8
Features
  6
Continuous
100
AcDbLine
 10
-59.60722183611446
 20
14.54047977055489
 30
0.0
 11
-59.56154647087826
 21
14.58615513579109
 31
0.0
  0
LINE
  5
B47
330
A
100
AcDbEntity
  8
Features
  6
Continuous
100
AcDbLine
 10
-59.60722183611446
 20
14.63183050102729
 30
0.0
 11
-59.56154647087826
 21
14.58615513579109
 31
0.0
  0
LINE
  5
B48
330
A
100
AcDbEntity
  8
Features
  6
Continuous
100
AcDbLine
 10
-59.60722183611446
 20
14.90588269244439
 30
0.0
 11
-59.56154647087826
 21
14.95155805768059
 31
0.0
  0
LINE
  5
B49
330
A
100
AcDbEntity
  8
Features
  6
Continuous
100
AcDbLine
 10
-59.56154647087826
 20
14.95155805768059
 30
0.0
 11
-59.51587110564206
 21
14.90588269244439
 31
0.0
  0
LINE
  5
B4A
330
A
100
AcDbEntity
  8
Features
  6
Continuous
100
AcDbLine
 10
-59.56154647087826
 20
14.95155805768059
 30
0.0
 11
-59.56154647087826
 21
15.13425951862529
 31
0.0
  0
LINE
  5
B4B
330
A
100
AcDbEntity
  8
Features
  6
Continuous
100
AcDbLine
 10
-59.51587110564206
 20
15.22561024909769
 30
0.0
 11
-59.42452037516966
 21
15.31696097956999
 31
0.0
  0
LINE
  5
B4C
330
A
100
AcDbEntity
  8
Features
  6
Continuous
100
AcDbLine
 10
-59.42452037516966
 20
15.31696097956999
 30
0.0
 11
-59.33316964469726
 21
15.22561024909769
 31
0.0
  0
LINE
  5
B4D
330
A
100
AcDbEntity
  8
Features
  6
Continuous
100
AcDbLine
 10
-59.33316964469726
 20
15.22561024909769
 30
0.0
 11
-59.28749427946116
 21
15.27128561433379
 31
0.0
  0
LINE
  5
B4E
330
A
100
AcDbEntity
  8
Features
  6
Continuous
100
AcDbLine
 10
-59.51587110564206
 20
15.40831171004239
 30
0.0
 11
-59.42452037516966
 21
15.31696097956999
 31
0.0
  0
LINE
  5
B4F
330
A
100
AcDbEntity
  8
Features
  6
Continuous
100
AcDbLine
 10
-59.51587110564206
 20
15.40831171004239
 30
0.0
 11
-59.47019574040586
 21
15.49966244051479
 31
0.0
  0
LINE
  5
B50
330
A
100
AcDbEntity
  8
Features
  6
Continuous
100
AcDbLine
 10
-59.47019574040586
 20
15.49966244051479
 30
0.0
 11
-59.24181891422496
 21
15.49966244051479
 31
0.0
  0
LINE
  5
B51
330
A
100
AcDbEntity
  8
Features
  6
Continuous
100
AcDbLine
 10
-59.47019574040586
 20
10.20132007311741
 30
0.0
 11
-59.37884500993346
 21
10.24699543835359
 31
0.0
  0
LINE
  5
B52
330
A
100
AcDbEntity
  8
Features
  6
Continuous
100
AcDbLine
 10
-59.42452037516966
 20
14.95155805768059
 30
0.0
 11
-59.37884500993346
 21
14.95155805768059
 31
0.0
  0
LINE
  5
B53
330
A
100
AcDbEntity
  8
Features
  6
Continuous
100
AcDbLine
 10
-59.37884500993346
 20
14.95155805768059
 30
0.0
 11
-59.33316964469726
 21
14.90588269244439
 31
0.0
  0
LINE
  5
B54
330
A
100
AcDbEntity
  8
Features
  6
Continuous
100
AcDbLine
 10
-59.37884500993346
 20
14.95155805768059
 30
0.0
 11
-59.28749427946116
 21
15.04290878815289
 31
0.0
  0
LINE
  5
B55
330
A
100
AcDbEntity
  8
Features
  6
Continuous
100
AcDbLine
 10
-59.33316964469726
 20
14.90588269244439
 30
0.0
 11
-59.19614354898876
 21
14.95155805768059
 31
0.0
  0
LINE
  5
B56
330
A
100
AcDbEntity
  8
Features
  6
Continuous
100
AcDbLine
 10
-59.19614354898876
 20
14.95155805768059
 30
0.0
 11
-59.15046818375256
 21
14.86020732720819
 31
0.0
  0
LINE
  5
B57
330
A
100
AcDbEntity
  8
Features
  6
Continuous
100
AcDbLine
 10
-59.33316964469726
 20
14.81453196197199
 30
0.0
 11
-59.33316964469726
 21
14.90588269244439
 31
0.0
  0
LINE
  5
B58
330
A
100
AcDbEntity
  8
Features
  6
Continuous
100
AcDbLine
 10
-59.15046818375256
 20
14.86020732720819
 30
0.0
 11
-59.05911745328016
 21
14.76885659673579
 31
0.0
  0
LINE
  5
B59
330
A
100
AcDbEntity
  8
Features
  6
Continuous
100
AcDbLine
 10
-59.19614354898876
 20
14.81453196197199
 30
0.0
 11
-59.15046818375256
 21
14.86020732720819
 31
0.0
  0
LINE
  5
B5A
330
A
100
AcDbEntity
  8
Features
  6
Continuous
100
AcDbLine
 10
-59.28749427946116
 20
9.607540325047019
 30
0.0
 11
-59.19614354898876
 21
9.698891055519383
 31
0.0
  0
LINE
  5
B5C
330
A
100
AcDbEntity
  8
Features
  6
Continuous
100
AcDbLine
 10
-59.19614354898876
 20
10.33834616882596
 30
0.0
 11
-59.05911745328016
 21
10.42969689929833
 31
0.0
  0
LINE
  5
B5D
330
A
100
AcDbEntity
  8
Features
  6
Continuous
100
AcDbLine
 10
-59.19614354898876
 20
14.63183050102729
 30
0.0
 11
-59.15046818375256
 21
14.67750586626339
 31
0.0
  0
LINE
  5
B5E
330
A
100
AcDbEntity
  8
Features
  6
Continuous
100
AcDbLine
 10
-59.19614354898876
 20
15.31696097956999
 30
0.0
 11
-59.19614354898876
 21
15.36263634480619
 31
0.0
  0
LINE
  5
B5F
330
A
100
AcDbEntity
  8
Features
  6
Continuous
100
AcDbLine
 10
-59.10479281851636
 20
15.04290878815289
 30
0.0
 11
-59.05911745328016
 21
14.99723342291669
 31
0.0
  0
LINE
  5
B60
330
A
100
AcDbEntity
  8
Features
  6
Continuous
100
AcDbLine
 10
-59.10479281851636
 20
15.40831171004239
 30
0.0
 11
-59.05911745328016
 21
15.45398707527859
 31
0.0
  0
LINE
  5
B61
330
A
100
AcDbEntity
  8
Features
  6
Continuous
100
AcDbLine
 10
-59.01344208804406
 20
15.72803926669569
 30
0.0
 11
-58.83074062709926
 21
15.59101317098709
 31
0.0
  0
LINE
  5
B62
330
A
100
AcDbEntity
  8
Features
  6
Continuous
100
AcDbLine
 10
-59.01344208804406
 20
15.72803926669569
 30
0.0
 11
-58.96776672280786
 21
15.81938999716799
 31
0.0
  0
LINE
  5
B63
330
A
100
AcDbEntity
  8
Features
  6
Continuous
100
AcDbLine
 10
-58.96776672280787
 20
9.835917151227939
 30
0.0
 11
-58.83074062709926
 21
9.927267881700303
 31
0.0
  0
LINE
  5
B64
330
A
100
AcDbEntity
  8
Features
  6
Continuous
100
AcDbLine
 10
-58.92209135757167
 20
10.56672299500688
 30
0.0
 11
-58.69371453139076
 21
10.70374909071543
 31
0.0
  0
LINE
  5
B65
330
A
100
AcDbEntity
  8
Features
  6
Continuous
100
AcDbLine
 10
-58.87641599233546
 20
14.90588269244439
 30
0.0
 11
-58.83074062709926
 21
14.86020732720819
 31
0.0
  0
LINE
  5
B66
330
A
100
AcDbEntity
  8
Features
  6
Continuous
100
AcDbLine
 10
-58.87641599233546
 20
14.90588269244439
 30
0.0
 11
-58.83074062709926
 21
14.99723342291669
 31
0.0
  0
LINE
  5
B67
330
A
100
AcDbEntity
  8
Features
  6
Continuous
100
AcDbLine
 10
-58.83074062709926
 20
14.99723342291669
 30
0.0
 11
-58.78506526186305
 21
15.04290878815289
 31
0.0
  0
LINE
  5
B68
330
A
100
AcDbEntity
  8
Features
  6
Continuous
100
AcDbLine
 10
-58.83074062709926
 20
14.99723342291669
 30
0.0
 11
-58.69371453139076
 21
14.99723342291669
 31
0.0
  0
LINE
  5
B69
330
A
100
AcDbEntity
  8
Features
  6
Continuous
100
AcDbLine
 10
-58.87641599233546
 20
15.08858415338909
 30
0.0
 11
-58.83074062709926
 21
15.17993488386149
 31
0.0
  0
LINE
  5
B6A
330
A
100
AcDbEntity
  8
Features
  6
Continuous
100
AcDbLine
 10
-58.87641599233546
 20
15.36263634480619
 30
0.0
 11
-58.83074062709926
 21
15.31696097956999
 31
0.0
  0
LINE
  5
B6B
330
A
100
AcDbEntity
  8
Features
  6
Continuous
100
AcDbLine
 10
-58.87641599233546
 20
15.81938999716799
 30
0.0
 11
-58.83074062709926
 21
15.81938999716799
 31
0.0
  0
LINE
  5
B6D
330
A
100
AcDbEntity
  8
Features
  6
Continuous
100
AcDbLine
 10
-58.73938989662695
 20
15.27128561433379
 30
0.0
 11
-58.55668843568216
 21
15.17993488386149
 31
0.0
  0
LINE
  5
B6E
330
A
100
AcDbEntity
  8
Features
  6
Continuous
100
AcDbLine
 10
-58.55668843568216
 20
15.17993488386149
 30
0.0
 11
-58.51101307044596
 21
15.13425951862529
 31
0.0
  0
LINE
  5
B6F
330
A
100
AcDbEntity
  8
Features
  6
Continuous
100
AcDbLine
 10
-58.55668843568216
 20
15.04290878815289
 30
0.0
 11
-58.51101307044596
 21
15.13425951862529
 31
0.0
  0
LINE
  5
B70
330
A
100
AcDbEntity
  8
Features
  6
Continuous
100
AcDbLine
 10
-58.73938989662695
 20
15.63668853622329
 30
0.0
 11
-58.64803916615455
 21
15.77371463193189
 31
0.0
  0
LINE
  5
B71
330
A
100
AcDbEntity
  8
Features
  6
Continuous
100
AcDbLine
 10
-58.73938989662695
 20
15.86506536240419
 30
0.0
 11
-58.64803916615455
 21
15.95641609287659
 31
0.0
  0
LINE
  5
B72
330
A
100
AcDbEntity
  8
Features
  6
Continuous
100
AcDbLine
 10
-58.69371453139076
 20
15.36263634480619
 30
0.0
 11
-58.64803916615455
 21
15.40831171004239
 31
0.0
  0
LINE
  5
B7C
330
A
100
AcDbEntity
  8
Features
  6
Continuous
100
AcDbLine
 10
-58.55668843568216
 20
10.06429397740886
 30
0.0
 11
-58.51101307044596
 21
10.10996934264504
 31
0.0
  0
LINE
  5
B7D
330
A
100
AcDbEntity
  8
Features
  6
Continuous
100
AcDbLine
 10
-58.55668843568216
 20
15.59101317098709
 30
0.0
 11
-58.51101307044596
 21
15.59101317098709
 31
0.0
  0
LINE
  5
B7E
330
A
100
AcDbEntity
  8
Features
  6
Continuous
100
AcDbLine
 10
-58.55668843568216
 20
15.72803926669569
 30
0.0
 11
-58.51101307044596
 21
15.77371463193189
 31
0.0
  0
LINE
  5
B7F
330
A
100
AcDbEntity
  8
Features
  6
Continuous
100
AcDbLine
 10
-58.55668843568216
 20
16.00209145811279
 30
0.0
 11
-58.51101307044596
 21
16.04776682334899
 31
0.0
  0
LINE
  5
B80
330
A
100
AcDbEntity
  8
Features
  6
Continuous
100
AcDbLine
 10
-58.55668843568216
 20
16.00209145811279
 30
0.0
 11
-58.32831160950126
 21
15.86506536240419
 31
0.0
  0
LINE
  5
B81
330
A
100
AcDbEntity
  8
Features
  6
Continuous
100
AcDbLine
 10
-58.32831160950126
 20
15.86506536240419
 30
0.0
 11
-58.19128551379276
 21
15.95641609287659
 31
0.0
  0
LINE
  5
B82
330
A
100
AcDbEntity
  8
Features
  6
Continuous
100
AcDbLine
 10
-58.28263624426506
 20
16.09344218858519
 30
0.0
 11
-58.19128551379276
 21
15.95641609287659
 31
0.0
  0
LINE
  5
B83
330
A
100
AcDbEntity
  8
Features
  6
Continuous
100
AcDbLine
 10
-58.41966233997366
 20
16.09344218858519
 30
0.0
 11
-58.37398697473746
 21
16.09344218858519
 31
0.0
  0
LINE
  5
B84
330
A
100
AcDbEntity
  8
Features
  6
Continuous
100
AcDbLine
 10
-58.37398697473746
 20
10.20132007311741
 30
0.0
 11
-58.27471044758744
 21
10.2784186377539
 31
0.0
  0
LINE
  5
B85
330
A
100
AcDbEntity
  8
Features
  6
Continuous
100
AcDbLine
 10
-58.37398697473746
 20
10.88645055166017
 30
0.0
 11
-58.32831160950126
 21
10.93212591689635
 31
0.0
  0
LINE
  5
B86
330
A
100
AcDbEntity
  8
Features
  6
Continuous
100
AcDbLine
 10
-58.37398697473746
 20
15.17993488386149
 30
0.0
 11
-58.28263624426506
 21
15.27128561433379
 31
0.0
  0
LINE
  5
B87
330
A
100
AcDbEntity
  8
Features
  6
Continuous
100
AcDbLine
 10
-58.32831160950126
 20
16.23046828429369
 30
0.0
 11
-58.23696087902886
 21
16.23046828429369
 31
0.0
  0
LINE
  5
B8A
330
A
100
AcDbEntity
  8
Features
  6
Continuous
100
AcDbLine
 10
-58.23696087902886
 20
15.63668853622329
 30
0.0
 11
-58.23696087902886
 21
15.68236390145949
 31
0.0
  0
LINE
  5
B8E
330
A
100
AcDbEntity
  8
Features
  6
Continuous
100
AcDbLine
 10
-58.14561014855656
 20
11.0691520126049
 30
0.0
 11
-57.96290868761176
 21
11.16050274307729
 31
0.0
  0
LINE
  5
B8F
330
A
100
AcDbEntity
  8
Features
  6
Continuous
100
AcDbLine
 10
-58.14561014855656
 20
16.23046828429369
 30
0.0
 11
-58.09993478332036
 21
16.23046828429369
 31
0.0
  0
LINE
  5
B90
330
A
100
AcDbEntity
  8
Features
  6
Continuous
100
AcDbLine
 10
-58.09993478332036
 20
16.23046828429369
 30
0.0
 11
-57.96290868761176
 21
16.36749438000229
 31
0.0
  0
LINE
  5
B91
330
A
100
AcDbEntity
  8
Features
  6
Continuous
100
AcDbLine
 10
-58.09993478332036
 20
16.23046828429369
 30
0.0
 11
-58.00858405284796
 21
16.13911755382129
 31
0.0
  0
LINE
  5
B92
330
A
100
AcDbEntity
  8
Features
  6
Continuous
100
AcDbLine
 10
-58.05425941808416
 20
16.09344218858519
 30
0.0
 11
-58.00858405284796
 21
16.13911755382129
 31
0.0
  0
LINE
  5
B93
330
A
100
AcDbEntity
  8
Features
  6
Continuous
100
AcDbLine
 10
-58.05425941808416
 20
16.09344218858519
 30
0.0
 11
-57.96290868761176
 21
16.00209145811279
 31
0.0
  0
LINE
  5
B94
330
A
100
AcDbEntity
  8
Features
  6
Continuous
100
AcDbLine
 10
-58.09993478332036
 20
16.04776682334899
 30
0.0
 11
-58.05425941808416
 21
16.09344218858519
 31
0.0
  0
LINE
  5
B95
330
A
100
AcDbEntity
  8
Features
  6
Continuous
100
AcDbLine
 10
-58.09993478332036
 20
10.42969689929833
 30
0.0
 11
-57.91723332237557
 21
10.5210476297707
 31
0.0
  0
LINE
  5
B96
330
A
100
AcDbEntity
  8
Features
  6
Continuous
100
AcDbLine
 10
-58.09993478332036
 20
15.59101317098709
 30
0.0
 11
-58.05425941808416
 21
15.59101317098709
 31
0.0
  0
LINE
  5
B97
330
A
100
AcDbEntity
  8
Features
  6
Continuous
100
AcDbLine
 10
-58.00858405284796
 20
15.77371463193189
 30
0.0
 11
-58.00858405284796
 21
15.81938999716799
 31
0.0
  0
LINE
  5
B98
330
A
100
AcDbEntity
  8
Features
  6
Continuous
100
AcDbLine
 10
-57.96290868761176
 20
15.40831171004239
 30
0.0
 11
-57.87155795713945
 21
15.45398707527859
 31
0.0
  0
LINE
  5
B99
330
A
100
AcDbEntity
  8
Features
  6
Continuous
100
AcDbLine
 10
-57.96290868761176
 20
15.68236390145949
 30
0.0
 11
-57.91723332237556
 21
15.68236390145949
 31
0.0
  0
LINE
  5
B9A
330
A
100
AcDbEntity
  8
Features
  6
Continuous
100
AcDbLine
 10
-57.91723332237556
 20
16.09344218858519
 30
0.0
 11
-57.78020722666706
 21
15.95641609287659
 31
0.0
  0
LINE
  5
B9B
330
A
100
AcDbEntity
  8
Features
  6
Continuous
100
AcDbLine
 10
-57.91723332237556
 20
16.18479291905749
 30
0.0
 11
-57.59750576572236
 21
16.23046828429369
 31
0.0
  0
LINE
  5
B9D
330
A
100
AcDbEntity
  8
Features
  6
Continuous
100
AcDbLine
 10
-57.32345357430526
 20
16.13911755382129
 30
0.0
 11
-57.14075211336046
 21
16.23046828429369
 31
0.0
  0
LINE
  5
B9E
330
A
100
AcDbEntity
  8
Features
  6
Continuous
100
AcDbLine
 10
-57.14075211336046
 20
16.23046828429369
 30
0.0
 11
-56.95805065241576
 21
16.13911755382129
 31
0.0
  0
LINE
  5
BA0
330
A
100
AcDbEntity
  8
Features
  6
Continuous
100
AcDbLine
 10
-57.78020722666706
 20
10.61239836024306
 30
0.0
 11
-57.64318113095846
 21
10.74942445595162
 31
0.0
  0
LINE
  5
BA1
330
A
100
AcDbEntity
  8
Features
  6
Continuous
100
AcDbLine
 10
-57.73453186143086
 20
11.34320420402199
 30
0.0
 11
-57.68885649619466
 21
11.34320420402199
 31
0.0
  0
LINE
  5
BA2
330
A
100
AcDbEntity
  8
Features
  6
Continuous
100
AcDbLine
 10
-57.73453186143086
 20
15.54533780575089
 30
0.0
 11
-57.64318113095846
 21
15.49966244051479
 31
0.0
  0
LINE
  5
BA3
330
A
100
AcDbEntity
  8
Features
  6
Continuous
100
AcDbLine
 10
-57.64318113095846
 20
15.49966244051479
 30
0.0
 11
-57.59750576572236
 21
15.54533780575089
 31
0.0
  0
LINE
  5
BA4
330
A
100
AcDbEntity
  8
Features
  6
Continuous
100
AcDbLine
 10
-57.59750576572236
 20
15.54533780575089
 30
0.0
 11
-57.59750576572236
 21
15.68236390145949
 31
0.0
  0
LINE
  5
BA5
330
A
100
AcDbEntity
  8
Features
  6
Continuous
100
AcDbLine
 10
-57.59750576572236
 20
15.68236390145949
 30
0.0
 11
-57.55183040048616
 21
15.72803926669569
 31
0.0
  0
LINE
  5
BA6
330
A
100
AcDbEntity
  8
Features
  6
Continuous
100
AcDbLine
 10
-57.64318113095846
 20
15.72803926669569
 30
0.0
 11
-57.59750576572236
 21
15.68236390145949
 31
0.0
  0
LINE
  5
BA7
330
A
100
AcDbEntity
  8
Features
  6
Continuous
100
AcDbLine
 10
-57.55183040048616
 20
15.72803926669569
 30
0.0
 11
-57.50615503524996
 21
15.68236390145949
 31
0.0
  0
LINE
  5
BA8
330
A
100
AcDbEntity
  8
Features
  6
Continuous
100
AcDbLine
 10
-57.59750576572236
 20
15.95641609287659
 30
0.0
 11
-57.55183040048616
 21
15.72803926669569
 31
0.0
  0
LINE
  5
BA9
330
A
100
AcDbEntity
  8
Features
  6
Continuous
100
AcDbLine
 10
-57.50615503524996
 20
10.7950998211878
 30
0.0
 11
-57.46047967001375
 21
10.84077518642398
 31
0.0
  0
LINE
  5
BAA
330
A
100
AcDbEntity
  8
Features
  6
Continuous
100
AcDbLine
 10
-57.41480430477755
 20
15.95641609287659
 30
0.0
 11
-57.36912893954136
 21
16.04776682334899
 31
0.0
  0
LINE
  5
BAB
330
A
100
AcDbEntity
  8
Features
  6
Continuous
100
AcDbLine
 10
-57.41480430477755
 20
15.95641609287659
 30
0.0
 11
-57.36912893954136
 21
15.86506536240419
 31
0.0
  0
LINE
  5
BAC
330
A
100
AcDbEntity
  8
Features
  6
Continuous
100
AcDbLine
 10
-57.36912893954136
 20
10.93212591689635
 30
0.0
 11
-57.32345357430526
 21
10.93212591689635
 31
0.0
  0
LINE
  5
BAD
330
A
100
AcDbEntity
  8
Features
  6
Continuous
100
AcDbLine
 10
-57.36912893954136
 20
11.57158103020289
 30
0.0
 11
-57.36912893954136
 21
11.61725639543909
 31
0.0
  0
LINE
  5
BAF
330
A
100
AcDbEntity
  8
Features
  6
Continuous
100
AcDbLine
 10
-57.32345357430526
 20
15.72803926669569
 30
0.0
 11
-57.32345357430526
 21
15.77371463193189
 31
0.0
  0
LINE
  5
BB0
330
A
100
AcDbEntity
  8
Features
  6
Continuous
100
AcDbLine
 10
-57.27777820906906
 20
11.61725639543909
 30
0.0
 11
-57.23210284383286
 21
11.66293176067529
 31
0.0
  0
LINE
  5
BB1
330
A
100
AcDbEntity
  8
Features
  6
Continuous
100
AcDbLine
 10
-57.27777820906906
 20
15.86506536240419
 30
0.0
 11
-57.14075211336046
 21
15.86506536240419
 31
0.0
  0
LINE
  5
BB2
330
A
100
AcDbEntity
  8
Features
  6
Continuous
100
AcDbLine
 10
-57.27777820906906
 20
16.04776682334899
 30
0.0
 11
-57.18642747859666
 21
16.00209145811279
 31
0.0
  0
LINE
  5
BB3
330
A
100
AcDbEntity
  8
Features
  6
Continuous
100
AcDbLine
 10
-57.27777820906906
 20
16.73289730189169
 30
0.0
 11
-57.23210284383286
 21
16.82424803236409
 31
0.0
  0
LINE
  5
BB4
330
A
100
AcDbEntity
  8
Features
  6
Continuous
100
AcDbLine
 10
-57.18642747859666
 20
11.0691520126049
 30
0.0
 11
-57.04940138288816
 21
11.16050274307729
 31
0.0
  0
LINE
  5
BB5
330
A
100
AcDbEntity
  8
Features
  6
Continuous
100
AcDbLine
 10
-56.95805065241576
 20
16.96127412807259
 30
0.0
 11
-56.82102455670716
 21
17.00694949330879
 31
0.0
  0
LINE
  5
BB6
330
A
100
AcDbEntity
  8
Features
  6
Continuous
100
AcDbLine
 10
-56.91237528717956
 20
11.89130858685619
 30
0.0
 11
-56.86669992194336
 21
11.93698395209239
 31
0.0
  0
LINE
  5
BB8
330
A
100
AcDbEntity
  8
Features
  6
Continuous
100
AcDbLine
 10
-56.59264773052626
 20
12.11968541303709
 30
0.0
 11
-56.50129700005386
 21
12.16536077827329
 31
0.0
  0
LINE
  5
BB9
330
A
100
AcDbEntity
  8
Features
  6
Continuous
100
AcDbLine
 10
-56.59264773052626
 20
17.18965095425359
 30
0.0
 11
-56.45562163481776
 21
17.28100168472589
 31
0.0
  0
LINE
  5
BBA
330
A
100
AcDbEntity
  8
Features
  6
Continuous
100
AcDbLine
 10
-56.40994626958156
 20
16.36749438000229
 30
0.0
 11
-56.31859553910916
 21
16.45884511047459
 31
0.0
  0
LINE
  5
BBB
330
A
100
AcDbEntity
  8
Features
  6
Continuous
100
AcDbLine
 10
-56.27292017387296
 20
11.66293176067529
 30
0.0
 11
-56.18156944340066
 21
11.75428249114769
 31
0.0
  0
LINE
  5
BBC
330
A
100
AcDbEntity
  8
Features
  6
Continuous
100
AcDbLine
 10
-56.27292017387296
 20
17.41802778043449
 30
0.0
 11
-56.22724480863675
 21
17.37235241519829
 31
0.0
  0
LINE
  5
BBE
330
A
100
AcDbEntity
  8
Features
  6
Continuous
100
AcDbLine
 10
-56.18156944340066
 20
12.34806223921809
 30
0.0
 11
-56.09021871292826
 21
12.43941296969039
 31
0.0
  0
LINE
  5
BBF
330
A
100
AcDbEntity
  8
Features
  6
Continuous
100
AcDbLine
 10
-55.99886798245586
 20
11.84563322161999
 30
0.0
 11
-55.86184188674736
 21
11.93698395209239
 31
0.0
  0
LINE
  5
BC3
330
A
100
AcDbEntity
  8
Features
  6
Continuous
100
AcDbLine
 10
-55.86184188674736
 20
12.75914052634369
 30
0.0
 11
-55.81616652151116
 21
12.80481589157989
 31
0.0
  0
LINE
  5
BC4
330
A
100
AcDbEntity
  8
Features
  6
Continuous
100
AcDbLine
 10
-55.86184188674736
 20
17.60072924137919
 30
0.0
 11
-55.72481579103876
 21
17.69207997185159
 31
0.0
  0
LINE
  5
BC5
330
A
100
AcDbEntity
  8
Features
  6
Continuous
100
AcDbLine
 10
-55.81616652151116
 20
12.57643906539899
 30
0.0
 11
-55.72481579103876
 21
12.80481589157989
 31
0.0
  0
LINE
  5
BC6
330
A
100
AcDbEntity
  8
Features
  6
Continuous
100
AcDbLine
 10
-55.81616652151116
 20
16.73289730189169
 30
0.0
 11
-55.72481579103876
 21
16.77857266712789
 31
0.0
  0
LINE
  5
BC7
330
A
100
AcDbEntity
  8
Features
  6
Continuous
100
AcDbLine
 10
-55.67914042580256
 20
12.07401004780099
 30
0.0
 11
-55.63346506056636
 21
12.11968541303709
 31
0.0
  0
LINE
  5
BC8
330
A
100
AcDbEntity
  8
Features
  6
Continuous
100
AcDbLine
 10
-55.63346506056636
 20
12.80481589157989
 30
0.0
 11
-55.40508823438546
 21
12.80481589157989
 31
0.0
  0
LINE
  5
BC9
330
A
100
AcDbEntity
  8
Features
  6
Continuous
100
AcDbLine
 10
-55.40508823438546
 20
12.80481589157989
 30
0.0
 11
-55.35941286914926
 21
12.85049125681609
 31
0.0
  0
LINE
  5
BCA
330
A
100
AcDbEntity
  8
Features
  6
Continuous
100
AcDbLine
 10
-55.40508823438546
 20
12.80481589157989
 30
0.0
 11
-55.22238677344076
 21
12.71346516110749
 31
0.0
  0
LINE
  5
BCB
330
A
100
AcDbEntity
  8
Features
  6
Continuous
100
AcDbLine
 10
-55.22238677344076
 20
12.71346516110749
 30
0.0
 11
-55.03968531249605
 21
12.85049125681609
 31
0.0
  0
LINE
  5
BCC
330
A
100
AcDbEntity
  8
Features
  6
Continuous
100
AcDbLine
 10
-55.03968531249605
 20
12.85049125681609
 30
0.0
 11
-54.85698385155126
 21
12.85049125681609
 31
0.0
  0
LINE
  5
BCD
330
A
100
AcDbEntity
  8
Features
  6
Continuous
100
AcDbLine
 10
-54.85698385155126
 20
12.85049125681609
 30
0.0
 11
-54.81130848631506
 21
12.80481589157989
 31
0.0
  0
LINE
  5
BCE
330
A
100
AcDbEntity
  8
Features
  6
Continuous
100
AcDbLine
 10
-54.81130848631506
 20
12.62211443063519
 30
0.0
 11
-54.81130848631506
 21
12.80481589157989
 31
0.0
  0
LINE
  5
BCF
330
A
100
AcDbEntity
  8
Features
  6
Continuous
100
AcDbLine
 10
-55.13103604296836
 20
12.98751735252459
 30
0.0
 11
-55.03968531249605
 21
12.85049125681609
 31
0.0
  0
LINE
  5
BD0
330
A
100
AcDbEntity
  8
Features
  6
Continuous
100
AcDbLine
 10
-55.13103604296836
 20
12.57643906539899
 30
0.0
 11
-55.03968531249605
 21
12.85049125681609
 31
0.0
  0
LINE
  5
BD1
330
A
100
AcDbEntity
  8
Features
  6
Continuous
100
AcDbLine
 10
-55.17671140820455
 20
12.98751735252459
 30
0.0
 11
-55.13103604296836
 21
12.98751735252459
 31
0.0
  0
LINE
  5
BD2
330
A
100
AcDbEntity
  8
Features
  6
Continuous
100
AcDbLine
 10
-55.13103604296836
 20
12.98751735252459
 30
0.0
 11
-55.08536067773216
 21
13.12454344823319
 31
0.0
  0
LINE
  5
BD3
330
A
100
AcDbEntity
  8
Features
  6
Continuous
100
AcDbLine
 10
-55.08536067773216
 20
13.12454344823319
 30
0.0
 11
-55.03968531249605
 21
13.17021881346939
 31
0.0
  0
LINE
  5
BD4
330
A
100
AcDbEntity
  8
Features
  6
Continuous
100
AcDbLine
 10
-55.03968531249605
 20
13.17021881346939
 30
0.0
 11
-54.90265921678746
 21
13.03319271776079
 31
0.0
  0
LINE
  5
BD5
330
A
100
AcDbEntity
  8
Features
  6
Continuous
100
AcDbLine
 10
-55.26806213867696
 20
12.94184198728849
 30
0.0
 11
-55.17671140820455
 21
12.98751735252459
 31
0.0
  0
LINE
  5
BD6
330
A
100
AcDbEntity
  8
Features
  6
Continuous
100
AcDbLine
 10
-55.22238677344076
 20
13.03319271776079
 30
0.0
 11
-55.17671140820455
 21
12.98751735252459
 31
0.0
  0
LINE
  5
BD7
330
A
100
AcDbEntity
  8
Features
  6
Continuous
100
AcDbLine
 10
-55.49643896485786
 20
16.91559876283649
 30
0.0
 11
-55.35941286914926
 21
16.96127412807259
 31
0.0
  0
LINE
  5
BD8
330
A
100
AcDbEntity
  8
Features
  6
Continuous
100
AcDbLine
 10
-55.49643896485786
 20
17.82910606756009
 30
0.0
 11
-55.35941286914926
 21
17.96613216326869
 31
0.0
  0
LINE
  5
BD9
330
A
100
AcDbEntity
  8
Features
  6
Continuous
100
AcDbLine
 10
-55.22238677344076
 20
17.09830022378119
 30
0.0
 11
-55.08536067773216
 21
17.14397558901739
 31
0.0
  0
LINE
  5
BDA
330
A
100
AcDbEntity
  8
Features
  6
Continuous
100
AcDbLine
 10
-55.13103604296836
 20
18.05748289374109
 30
0.0
 11
-54.90265921678746
 21
18.24018435468579
 31
0.0
  0
LINE
  5
BDB
330
A
100
AcDbEntity
  8
Features
  6
Continuous
100
AcDbLine
 10
-54.99400994725986
 20
17.23532631948969
 30
0.0
 11
-54.85698385155126
 21
17.28100168472589
 31
0.0
  0
LINE
  5
BDC
330
A
100
AcDbEntity
  8
Features
  6
Continuous
100
AcDbLine
 10
-54.94833458202366
 20
12.57643906539899
 30
0.0
 11
-54.90265921678746
 21
12.57643906539899
 31
0.0
  0
LINE
  5
BDD
330
A
100
AcDbEntity
  8
Features
  6
Continuous
100
AcDbLine
 10
-54.94833458202366
 20
13.21589417870559
 30
0.0
 11
-54.85698385155126
 21
13.21589417870559
 31
0.0
  0
LINE
  5
BDF
330
A
100
AcDbEntity
  8
Features
  6
Continuous
100
AcDbLine
 10
-54.81130848631506
 20
13.30724490917789
 30
0.0
 11
-54.67428239060656
 21
13.17021881346939
 31
0.0
  0
LINE
  5
BE0
330
A
100
AcDbEntity
  8
Features
  6
Continuous
100
AcDbLine
 10
-54.67428239060656
 20
13.17021881346939
 30
0.0
 11
-54.62860702537036
 21
13.21589417870559
 31
0.0
  0
LINE
  5
BE1
330
A
100
AcDbEntity
  8
Features
  6
Continuous
100
AcDbLine
 10
-54.62860702537036
 20
13.21589417870559
 30
0.0
 11
-54.53725629489796
 21
13.12454344823319
 31
0.0
  0
LINE
  5
BE2
330
A
100
AcDbEntity
  8
Features
  6
Continuous
100
AcDbLine
 10
-54.58293166013416
 20
12.98751735252459
 30
0.0
 11
-54.53725629489796
 21
13.12454344823319
 31
0.0
  0
LINE
  5
BE3
330
A
100
AcDbEntity
  8
Features
  6
Continuous
100
AcDbLine
 10
-54.58293166013416
 20
12.98751735252459
 30
0.0
 11
-54.53725629489796
 21
12.94184198728849
 31
0.0
  0
LINE
  5
BE4
330
A
100
AcDbEntity
  8
Features
  6
Continuous
100
AcDbLine
 10
-54.53725629489796
 20
12.94184198728849
 30
0.0
 11
-54.40023019918946
 21
12.94184198728849
 31
0.0
  0
LINE
  5
BE5
330
A
100
AcDbEntity
  8
Features
  6
Continuous
100
AcDbLine
 10
-54.71995775584276
 20
13.07886808299699
 30
0.0
 11
-54.67428239060656
 21
13.17021881346939
 31
0.0
  0
LINE
  5
BE6
330
A
100
AcDbEntity
  8
Features
  6
Continuous
100
AcDbLine
 10
-54.40023019918946
 20
12.94184198728849
 30
0.0
 11
-54.35455483395326
 21
12.89616662205229
 31
0.0
  0
LINE
  5
BE7
330
A
100
AcDbEntity
  8
Features
  6
Continuous
100
AcDbLine
 10
-54.40023019918946
 20
12.94184198728849
 30
0.0
 11
-54.35455483395326
 21
12.98751735252459
 31
0.0
  0
LINE
  5
BE8
330
A
100
AcDbEntity
  8
Features
  6
Continuous
100
AcDbLine
 10
-54.35455483395326
 20
12.89616662205229
 30
0.0
 11
-54.26320410348086
 21
12.89616662205229
 31
0.0
  0
LINE
  5
BE9
330
A
100
AcDbEntity
  8
Features
  6
Continuous
100
AcDbLine
 10
-54.40023019918946
 20
12.85049125681609
 30
0.0
 11
-54.35455483395326
 21
12.89616662205229
 31
0.0
  0
LINE
  5
BEA
330
A
100
AcDbEntity
  8
Features
  6
Continuous
100
AcDbLine
 10
-54.40023019918946
 20
12.85049125681609
 30
0.0
 11
-54.30887946871706
 21
12.75914052634369
 31
0.0
  0
LINE
  5
BED
330
A
100
AcDbEntity
  8
Features
  6
Continuous
100
AcDbLine
 10
-54.08050264253616
 20
12.71346516110749
 30
0.0
 11
-54.08050264253616
 21
12.75914052634369
 31
0.0
  0
LINE
  5
BEE
330
A
100
AcDbEntity
  8
Features
  6
Continuous
100
AcDbLine
 10
-53.85212581635525
 20
12.75914052634369
 30
0.0
 11
-53.80645045111905
 21
12.80481589157989
 31
0.0
  0
LINE
  5
BEF
330
A
100
AcDbEntity
  8
Features
  6
Continuous
100
AcDbLine
 10
-53.85212581635525
 20
12.75914052634369
 30
0.0
 11
-53.80645045111905
 21
12.62211443063519
 31
0.0
  0
LINE
  5
BF0
330
A
100
AcDbEntity
  8
Features
  6
Continuous
100
AcDbLine
 10
-53.80645045111905
 20
12.80481589157989
 30
0.0
 11
-53.66942435541046
 21
12.80481589157989
 31
0.0
  0
LINE
  5
BF1
330
A
100
AcDbEntity
  8
Features
  6
Continuous
100
AcDbLine
 10
-53.89780118159145
 20
12.94184198728849
 30
0.0
 11
-53.80645045111905
 21
12.80481589157989
 31
0.0
  0
LINE
  5
BF2
330
A
100
AcDbEntity
  8
Features
  6
Continuous
100
AcDbLine
 10
-53.89780118159145
 20
12.94184198728849
 30
0.0
 11
-53.85212581635525
 21
13.03319271776079
 31
0.0
  0
LINE
  5
BF3
330
A
100
AcDbEntity
  8
Features
  6
Continuous
100
AcDbLine
 10
-53.66942435541046
 20
12.80481589157989
 30
0.0
 11
-53.53239825970196
 21
12.89616662205229
 31
0.0
  0
LINE
  5
BF4
330
A
100
AcDbEntity
  8
Features
  6
Continuous
100
AcDbLine
 10
-53.66942435541046
 20
12.80481589157989
 30
0.0
 11
-53.57807362493816
 21
12.71346516110749
 31
0.0
  0
LINE
  5
BF5
330
A
100
AcDbEntity
  8
Features
  6
Continuous
100
AcDbLine
 10
-53.57807362493816
 20
12.71346516110749
 30
0.0
 11
-53.44104752922956
 21
12.80481589157989
 31
0.0
  0
LINE
  5
BF6
330
A
100
AcDbEntity
  8
Features
  6
Continuous
100
AcDbLine
 10
-53.44104752922956
 20
12.80481589157989
 30
0.0
 11
-53.30402143352106
 21
12.71346516110749
 31
0.0
  0
LINE
  5
BF7
330
A
100
AcDbEntity
  8
Features
  6
Continuous
100
AcDbLine
 10
-53.30402143352106
 20
12.71346516110749
 30
0.0
 11
-53.21267070304866
 21
12.80481589157989
 31
0.0
  0
LINE
  5
BF8
330
A
100
AcDbEntity
  8
Features
  6
Continuous
100
AcDbLine
 10
-53.21267070304866
 20
12.80481589157989
 30
0.0
 11
-53.16699533781246
 21
12.75914052634369
 31
0.0
  0
LINE
  5
BF9
330
A
100
AcDbEntity
  8
Features
  6
Continuous
100
AcDbLine
 10
-53.16699533781246
 20
12.75914052634369
 30
0.0
 11
-52.98429387686776
 21
12.80481589157989
 31
0.0
  0
LINE
  5
BFA
330
A
100
AcDbEntity
  8
Features
  6
Continuous
100
AcDbLine
 10
-53.16699533781246
 20
12.71346516110749
 30
0.0
 11
-53.16699533781246
 21
12.75914052634369
 31
0.0
  0
LINE
  5
BFB
330
A
100
AcDbEntity
  8
Features
  6
Continuous
100
AcDbLine
 10
-52.98429387686776
 20
12.80481589157989
 30
0.0
 11
-52.89294314639536
 21
12.71346516110749
 31
0.0
  0
LINE
  5
BFC
330
A
100
AcDbEntity
  8
Features
  6
Continuous
100
AcDbLine
 10
-53.07564460734006
 20
12.98751735252458
 30
0.0
 11
-52.98429387686776
 21
12.80481589157989
 31
0.0
  0
LINE
  5
BFF
330
A
100
AcDbEntity
  8
Features
  6
Continuous
100
AcDbLine
 10
-52.89294314639536
 20
12.71346516110749
 30
0.0
 11
-52.75591705068686
 21
12.57643906539899
 31
0.0
  0
LINE
  5
C00
330
A
100
AcDbEntity
  8
Features
  6
Continuous
100
AcDbLine
 10
-53.12131997257626
 20
12.94184198728849
 30
0.0
 11
-53.07564460734006
 21
12.98751735252458
 31
0.0
  0
LINE
  5
C01
330
A
100
AcDbEntity
  8
Features
  6
Continuous
100
AcDbLine
 10
-53.16699533781246
 20
13.03319271776079
 30
0.0
 11
-53.07564460734006
 21
12.98751735252458
 31
0.0
  0
LINE
  5
C02
330
A
100
AcDbEntity
  8
Features
  6
Continuous
100
AcDbLine
 10
-53.30402143352106
 20
12.94184198728849
 30
0.0
 11
-53.16699533781246
 21
13.03319271776079
 31
0.0
  0
LINE
  5
C03
330
A
100
AcDbEntity
  8
Features
  6
Continuous
100
AcDbLine
 10
-53.25834606828486
 20
13.21589417870559
 30
0.0
 11
-53.16699533781246
 21
13.03319271776079
 31
0.0
  0
LINE
  5
C04
330
A
100
AcDbEntity
  8
Features
  6
Continuous
100
AcDbLine
 10
-53.30402143352106
 20
12.94184198728849
 30
0.0
 11
-53.25834606828486
 21
12.89616662205229
 31
0.0
  0
LINE
  5
C05
330
A
100
AcDbEntity
  8
Features
  6
Continuous
100
AcDbLine
 10
-53.34969679875716
 20
12.94184198728849
 30
0.0
 11
-53.30402143352106
 21
12.94184198728849
 31
0.0
  0
LINE
  5
C06
330
A
100
AcDbEntity
  8
Features
  6
Continuous
100
AcDbLine
 10
-54.81130848631506
 20
18.24018435468579
 30
0.0
 11
-54.67428239060656
 21
18.24018435468579
 31
0.0
  0
LINE
  5
C07
330
A
100
AcDbEntity
  8
Features
  6
Continuous
100
AcDbLine
 10
-54.67428239060656
 20
17.28100168472589
 30
0.0
 11
-54.58293166013416
 21
17.23532631948969
 31
0.0
  0
LINE
  5
C08
330
A
100
AcDbEntity
  8
Features
  6
Continuous
100
AcDbLine
 10
-54.58293166013416
 20
12.71346516110749
 30
0.0
 11
-54.58293166013416
 21
12.80481589157989
 31
0.0
  0
LINE
  5
C09
330
A
100
AcDbEntity
  8
Features
  6
Continuous
100
AcDbLine
 10
-54.58293166013416
 20
13.48994637012269
 30
0.0
 11
-54.58293166013416
 21
13.53562173535879
 31
0.0
  0
LINE
  5
C0A
330
A
100
AcDbEntity
  8
Features
  6
Continuous
100
AcDbLine
 10
-54.58293166013416
 20
18.05748289374109
 30
0.0
 11
-54.49158092966176
 21
17.96613216326869
 31
0.0
  0
LINE
  5
C0B
330
A
100
AcDbEntity
  8
Features
  6
Continuous
100
AcDbLine
 10
-54.49158092966176
 20
13.26156954394169
 30
0.0
 11
-54.40023019918946
 21
13.30724490917789
 31
0.0
  0
LINE
  5
C0C
330
A
100
AcDbEntity
  8
Features
  6
Continuous
100
AcDbLine
 10
-54.49158092966176
 20
13.58129710059499
 30
0.0
 11
-54.35455483395326
 21
13.62697246583119
 31
0.0
  0
LINE
  5
C0D
330
A
100
AcDbEntity
  8
Features
  6
Continuous
100
AcDbLine
 10
-54.35455483395326
 20
13.62697246583119
 30
0.0
 11
-54.26320410348086
 21
13.62697246583119
 31
0.0
  0
LINE
  5
C0E
330
A
100
AcDbEntity
  8
Features
  6
Continuous
100
AcDbLine
 10
-54.40023019918946
 20
13.67264783106739
 30
0.0
 11
-54.35455483395326
 21
13.62697246583119
 31
0.0
  0
LINE
  5
C0F
330
A
100
AcDbEntity
  8
Features
  6
Continuous
100
AcDbLine
 10
-54.26320410348086
 20
13.62697246583119
 30
0.0
 11
-54.21752873824466
 21
13.71832319630359
 31
0.0
  0
LINE
  5
C10
330
A
100
AcDbEntity
  8
Features
  6
Continuous
100
AcDbLine
 10
-54.26320410348086
 20
13.62697246583119
 30
0.0
 11
-54.21752873824466
 21
13.44427100488649
 31
0.0
  0
LINE
  5
C11
330
A
100
AcDbEntity
  8
Features
  6
Continuous
100
AcDbLine
 10
-54.44590556442566
 20
17.05262485854499
 30
0.0
 11
-54.26320410348086
 21
16.86992339760029
 31
0.0
  0
LINE
  5
C12
330
A
100
AcDbEntity
  8
Features
  6
Continuous
100
AcDbLine
 10
-54.30887946871706
 20
13.35292027441409
 30
0.0
 11
-54.26320410348086
 21
13.35292027441409
 31
0.0
  0
LINE
  5
C13
330
A
100
AcDbEntity
  8
Features
  6
Continuous
100
AcDbLine
 10
-54.26320410348086
 20
13.07886808299699
 30
0.0
 11
-54.17185337300856
 21
13.12454344823319
 31
0.0
  0
LINE
  5
C14
330
A
100
AcDbEntity
  8
Features
  6
Continuous
100
AcDbLine
 10
-54.26320410348086
 20
17.73775533708779
 30
0.0
 11
-54.21752873824466
 21
17.69207997185159
 31
0.0
  0
LINE
  5
C15
330
A
100
AcDbEntity
  8
Features
  6
Continuous
100
AcDbLine
 10
-54.21752873824466
 20
13.99237538772069
 30
0.0
 11
-54.12617800777236
 21
13.94670002248449
 31
0.0
  0
LINE
  5
C16
330
A
100
AcDbEntity
  8
Features
  6
Continuous
100
AcDbLine
 10
-54.12617800777236
 20
13.94670002248449
 30
0.0
 11
-54.03482727729996
 21
14.08372611819309
 31
0.0
  0
LINE
  5
C17
330
A
100
AcDbEntity
  8
Features
  6
Continuous
100
AcDbLine
 10
-54.03482727729996
 20
14.08372611819309
 30
0.0
 11
-53.94347654682756
 21
14.08372611819309
 31
0.0
  0
LINE
  5
C18
330
A
100
AcDbEntity
  8
Features
  6
Continuous
100
AcDbLine
 10
-54.08050264253616
 20
14.12940148342919
 30
0.0
 11
-54.03482727729996
 21
14.08372611819309
 31
0.0
  0
LINE
  5
C19
330
A
100
AcDbEntity
  8
Features
  6
Continuous
100
AcDbLine
 10
-54.17185337300856
 20
13.21589417870559
 30
0.0
 11
-54.08050264253616
 21
13.30724490917789
 31
0.0
  0
LINE
  5
C1A
330
A
100
AcDbEntity
  8
Features
  6
Continuous
100
AcDbLine
 10
-54.17185337300856
 20
13.80967392677599
 30
0.0
 11
-54.08050264253616
 21
13.85534929201209
 31
0.0
  0
LINE
  5
C1B
330
A
100
AcDbEntity
  8
Features
  6
Continuous
100
AcDbLine
 10
-54.08050264253616
 20
13.85534929201209
 30
0.0
 11
-53.98915191206375
 21
13.90102465724829
 31
0.0
  0
LINE
  5
C1C
330
A
100
AcDbEntity
  8
Features
  6
Continuous
100
AcDbLine
 10
-54.08050264253616
 20
13.85534929201209
 30
0.0
 11
-54.03482727729996
 21
13.80967392677599
 31
0.0
  0
LINE
  5
C1D
330
A
100
AcDbEntity
  8
Features
  6
Continuous
100
AcDbLine
 10
-54.12617800777236
 20
16.77857266712789
 30
0.0
 11
-54.03482727729996
 21
16.68722193665549
 31
0.0
  0
LINE
  5
C1E
330
A
100
AcDbEntity
  8
Features
  6
Continuous
100
AcDbLine
 10
-54.08050264253616
 20
13.07886808299699
 30
0.0
 11
-53.94347654682756
 21
13.07886808299699
 31
0.0
  0
LINE
  5
C1F
330
A
100
AcDbEntity
  8
Features
  6
Continuous
100
AcDbLine
 10
-54.08050264253616
 20
17.50937851090689
 30
0.0
 11
-54.03482727729996
 21
17.50937851090689
 31
0.0
  0
LINE
  5
C20
330
A
100
AcDbEntity
  8
Features
  6
Continuous
100
AcDbLine
 10
-54.03482727729996
 20
13.48994637012269
 30
0.0
 11
-53.98915191206375
 21
13.48994637012269
 31
0.0
  0
LINE
  5
C21
330
A
100
AcDbEntity
  8
Features
  6
Continuous
100
AcDbLine
 10
-53.94347654682756
 20
14.22075221390159
 30
0.0
 11
-53.89780118159145
 21
14.17507684866539
 31
0.0
  0
LINE
  5
C22
330
A
100
AcDbEntity
  8
Features
  6
Continuous
100
AcDbLine
 10
-53.89780118159145
 20
13.53562173535879
 30
0.0
 11
-53.80645045111905
 21
13.62697246583119
 31
0.0
  0
LINE
  5
C23
330
A
100
AcDbEntity
  8
Features
  6
Continuous
100
AcDbLine
 10
-53.80645045111905
 20
13.62697246583119
 30
0.0
 11
-53.76077508588286
 21
13.67264783106739
 31
0.0
  0
LINE
  5
C24
330
A
100
AcDbEntity
  8
Features
  6
Continuous
100
AcDbLine
 10
-53.85212581635525
 20
13.67264783106739
 30
0.0
 11
-53.80645045111905
 21
13.62697246583119
 31
0.0
  0
LINE
  5
C25
330
A
100
AcDbEntity
  8
Features
  6
Continuous
100
AcDbLine
 10
-53.76077508588286
 20
13.67264783106739
 30
0.0
 11
-53.66942435541046
 21
13.62697246583119
 31
0.0
  0
LINE
  5
C26
330
A
100
AcDbEntity
  8
Features
  6
Continuous
100
AcDbLine
 10
-53.76077508588286
 20
13.67264783106739
 30
0.0
 11
-53.71509972064666
 21
13.76399856153979
 31
0.0
  0
LINE
  5
C27
330
A
100
AcDbEntity
  8
Features
  6
Continuous
100
AcDbLine
 10
-53.66942435541046
 20
13.62697246583119
 30
0.0
 11
-53.48672289446576
 21
13.76399856153979
 31
0.0
  0
LINE
  5
C28
330
A
100
AcDbEntity
  8
Features
  6
Continuous
100
AcDbLine
 10
-53.66942435541046
 20
13.62697246583119
 30
0.0
 11
-53.34969679875716
 21
13.35292027441409
 31
0.0
  0
LINE
  5
C29
330
A
100
AcDbEntity
  8
Features
  6
Continuous
100
AcDbLine
 10
-53.34969679875716
 20
13.35292027441409
 30
0.0
 11
-53.25834606828486
 21
13.48994637012269
 31
0.0
  0
LINE
  5
C2A
330
A
100
AcDbEntity
  8
Features
  6
Continuous
100
AcDbLine
 10
-53.89780118159145
 20
17.23532631948969
 30
0.0
 11
-53.89780118159145
 21
17.32667704996209
 31
0.0
  0
LINE
  5
C2B
330
A
100
AcDbEntity
  8
Features
  6
Continuous
100
AcDbLine
 10
-53.85212581635525
 20
13.26156954394169
 30
0.0
 11
-53.76077508588286
 21
13.35292027441409
 31
0.0
  0
LINE
  5
C2C
330
A
100
AcDbEntity
  8
Features
  6
Continuous
100
AcDbLine
 10
-53.85212581635525
 20
14.08372611819309
 30
0.0
 11
-53.76077508588286
 21
14.03805075295689
 31
0.0
  0
LINE
  5
C2D
330
A
100
AcDbEntity
  8
Features
  6
Continuous
100
AcDbLine
 10
-53.76077508588286
 20
14.03805075295689
 30
0.0
 11
-53.53239825970196
 21
14.03805075295689
 31
0.0
  0
LINE
  5
C2E
330
A
100
AcDbEntity
  8
Features
  6
Continuous
100
AcDbLine
 10
-53.80645045111905
 20
13.99237538772069
 30
0.0
 11
-53.76077508588286
 21
14.03805075295689
 31
0.0
  0
LINE
  5
C2F
330
A
100
AcDbEntity
  8
Features
  6
Continuous
100
AcDbLine
 10
-53.53239825970196
 20
14.03805075295689
 30
0.0
 11
-53.48672289446576
 21
14.03805075295689
 31
0.0
  0
LINE
  5
C30
330
A
100
AcDbEntity
  8
Features
  6
Continuous
100
AcDbLine
 10
-53.57807362493816
 20
13.94670002248449
 30
0.0
 11
-53.53239825970196
 21
14.03805075295689
 31
0.0
  0
LINE
  5
C31
330
A
100
AcDbEntity
  8
Features
  6
Continuous
100
AcDbLine
 10
-53.48672289446576
 20
14.03805075295689
 30
0.0
 11
-53.34969679875716
 21
14.17507684866539
 31
0.0
  0
LINE
  5
C32
330
A
100
AcDbEntity
  8
Features
  6
Continuous
100
AcDbLine
 10
-53.48672289446576
 20
14.03805075295689
 30
0.0
 11
-53.39537216399336
 21
13.99237538772069
 31
0.0
  0
LINE
  5
C33
330
A
100
AcDbEntity
  8
Features
  6
Continuous
100
AcDbLine
 10
-53.39537216399336
 20
13.99237538772069
 30
0.0
 11
-53.34969679875716
 21
14.03805075295689
 31
0.0
  0
LINE
  5
C34
330
A
100
AcDbEntity
  8
Features
  6
Continuous
100
AcDbLine
 10
-53.39537216399336
 20
13.99237538772069
 30
0.0
 11
-53.30402143352106
 21
13.90102465724829
 31
0.0
  0
LINE
  5
C35
330
A
100
AcDbEntity
  8
Features
  6
Continuous
100
AcDbLine
 10
-53.30402143352106
 20
13.90102465724829
 30
0.0
 11
-53.25834606828486
 21
13.94670002248449
 31
0.0
  0
LINE
  5
C36
330
A
100
AcDbEntity
  8
Features
  6
Continuous
100
AcDbLine
 10
-53.25834606828486
 20
13.94670002248449
 30
0.0
 11
-53.21267070304866
 21
13.90102465724829
 31
0.0
  0
LINE
  5
C37
330
A
100
AcDbEntity
  8
Features
  6
Continuous
100
AcDbLine
 10
-53.21267070304866
 20
13.76399856153979
 30
0.0
 11
-53.21267070304866
 21
13.90102465724829
 31
0.0
  0
LINE
  5
C38
330
A
100
AcDbEntity
  8
Features
  6
Continuous
100
AcDbLine
 10
-53.80645045111905
 20
16.18479291905749
 30
0.0
 11
-53.66942435541046
 21
16.23046828429369
 31
0.0
  0
LINE
  5
C39
330
A
100
AcDbEntity
  8
Features
  6
Continuous
100
AcDbLine
 10
-53.66942435541046
 20
16.23046828429369
 30
0.0
 11
-53.48672289446576
 21
16.13911755382129
 31
0.0
  0
LINE
  5
C3A
330
A
100
AcDbEntity
  8
Features
  6
Continuous
100
AcDbLine
 10
-53.48672289446576
 20
16.13911755382129
 30
0.0
 11
-53.44104752922956
 21
16.18479291905749
 31
0.0
  0
LINE
  5
C3B
330
A
100
AcDbEntity
  8
Features
  6
Continuous
100
AcDbLine
 10
-53.48672289446576
 20
16.13911755382129
 30
0.0
 11
-53.39537216399336
 21
16.00209145811279
 31
0.0
  0
LINE
  5
C3C
330
A
100
AcDbEntity
  8
Features
  6
Continuous
100
AcDbLine
 10
-53.44104752922956
 20
16.18479291905749
 30
0.0
 11
-53.25834606828486
 21
16.18479291905749
 31
0.0
  0
LINE
  5
C3D
330
A
100
AcDbEntity
  8
Features
  6
Continuous
100
AcDbLine
 10
-53.48672289446576
 20
16.23046828429369
 30
0.0
 11
-53.44104752922956
 21
16.18479291905749
 31
0.0
  0
LINE
  5
C3E
330
A
100
AcDbEntity
  8
Features
  6
Continuous
100
AcDbLine
 10
-53.76077508588286
 20
13.17021881346939
 30
0.0
 11
-53.57807362493816
 21
13.12454344823319
 31
0.0
  0
LINE
  5
C3F
330
A
100
AcDbEntity
  8
Features
  6
Continuous
100
AcDbLine
 10
-53.57807362493816
 20
13.12454344823319
 30
0.0
 11
-53.53239825970196
 21
13.03319271776079
 31
0.0
  0
LINE
  5
C40
330
A
100
AcDbEntity
  8
Features
  6
Continuous
100
AcDbLine
 10
-53.76077508588286
 20
13.48994637012269
 30
0.0
 11
-53.76077508588286
 21
13.53562173535879
 31
0.0
  0
LINE
  5
C41
330
A
100
AcDbEntity
  8
Features
  6
Continuous
100
AcDbLine
 10
-53.66942435541046
 20
12.48508833492659
 30
0.0
 11
-53.62374899017436
 21
12.48508833492659
 31
0.0
  0
LINE
  5
C42
330
A
100
AcDbEntity
  8
Features
  6
Continuous
100
AcDbLine
 10
-53.62374899017436
 20
17.00694949330879
 30
0.0
 11
-53.57807362493816
 21
16.91559876283649
 31
0.0
  0
LINE
  5
C43
330
A
100
AcDbEntity
  8
Features
  6
Continuous
100
AcDbLine
 10
-53.57807362493816
 20
12.39373760445419
 30
0.0
 11
-53.53239825970196
 21
12.39373760445419
 31
0.0
  0
LINE
  5
C44
330
A
100
AcDbEntity
  8
Features
  6
Continuous
100
AcDbLine
 10
-53.53239825970196
 20
14.26642757913779
 30
0.0
 11
-53.48672289446576
 21
14.22075221390159
 31
0.0
  0
LINE
  5
C45
330
A
100
AcDbEntity
  8
Features
  6
Continuous
100
AcDbLine
 10
-53.48672289446576
 20
14.22075221390159
 30
0.0
 11
-53.34969679875716
 21
14.31210294437399
 31
0.0
  0
LINE
  5
C46
330
A
100
AcDbEntity
  8
Features
  6
Continuous
100
AcDbLine
 10
-53.48672289446576
 20
14.17507684866539
 30
0.0
 11
-53.48672289446576
 21
14.22075221390159
 31
0.0
  0
LINE
  5
C47
330
A
100
AcDbEntity
  8
Features
  6
Continuous
100
AcDbLine
 10
-53.48672289446576
 20
13.90102465724829
 30
0.0
 11
-53.44104752922956
 21
13.85534929201209
 31
0.0
  0
LINE
  5
C48
330
A
100
AcDbEntity
  8
Features
  6
Continuous
100
AcDbLine
 10
-53.44104752922956
 20
12.21103614350949
 30
0.0
 11
-53.39537216399336
 21
12.11968541303709
 31
0.0
  0
LINE
  5
C49
330
A
100
AcDbEntity
  8
Features
  6
Continuous
100
AcDbLine
 10
-53.44104752922956
 20
16.73289730189169
 30
0.0
 11
-53.44104752922956
 21
16.77857266712789
 31
0.0
  0
LINE
  5
C4A
330
A
100
AcDbEntity
  8
Features
  6
Continuous
100
AcDbLine
 10
-53.39537216399336
 20
13.67264783106739
 30
0.0
 11
-53.30402143352106
 21
13.67264783106739
 31
0.0
  0
LINE
  5
C4B
330
A
100
AcDbEntity
  8
Features
  6
Continuous
100
AcDbLine
 10
-53.34969679875716
 20
13.58129710059499
 30
0.0
 11
-53.30402143352106
 21
13.67264783106739
 31
0.0
  0
LINE
  5
C4C
330
A
100
AcDbEntity
  8
Features
  6
Continuous
100
AcDbLine
 10
-53.30402143352106
 20
15.86506536240419
 30
0.0
 11
-53.25834606828486
 21
15.95641609287659
 31
0.0
  0
LINE
  5
C4D
330
A
100
AcDbEntity
  8
Features
  6
Continuous
100
AcDbLine
 10
-53.25834606828486
 20
11.93698395209239
 30
0.0
 11
-53.12131997257626
 21
11.79995785638388
 31
0.0
  0
LINE
  5
C4E
330
A
100
AcDbEntity
  8
Features
  6
Continuous
100
AcDbLine
 10
-53.25834606828486
 20
14.35777830961019
 30
0.0
 11
-53.12131997257626
 21
14.22075221390159
 31
0.0
  0
LINE
  5
C4F
330
A
100
AcDbEntity
  8
Features
  6
Continuous
100
AcDbLine
 10
-53.12131997257626
 20
14.22075221390159
 30
0.0
 11
-53.02996924210396
 21
13.90102465724829
 31
0.0
  0
LINE
  5
C50
330
A
100
AcDbEntity
  8
Features
  6
Continuous
100
AcDbLine
 10
-53.21267070304866
 20
14.12940148342919
 30
0.0
 11
-53.12131997257626
 21
14.22075221390159
 31
0.0
  0
LINE
  5
C51
330
A
100
AcDbEntity
  8
Features
  6
Continuous
100
AcDbLine
 10
-53.21267070304866
 20
13.62697246583119
 30
0.0
 11
-53.12131997257626
 21
13.58129710059499
 31
0.0
  0
LINE
  5
C52
330
A
100
AcDbEntity
  8
Features
  6
Continuous
100
AcDbLine
 10
-53.21267070304866
 20
15.68236390145949
 30
0.0
 11
-53.16699533781246
 21
15.77371463193189
 31
0.0
  0
LINE
  5
C53
330
A
100
AcDbEntity
  8
Features
  6
Continuous
100
AcDbLine
 10
-53.16699533781246
 20
15.77371463193189
 30
0.0
 11
-52.98429387686776
 21
15.81938999716798
 31
0.0
  0
LINE
  5
C54
330
A
100
AcDbEntity
  8
Features
  6
Continuous
100
AcDbLine
 10
-53.21267070304866
 20
15.81938999716799
 30
0.0
 11
-53.16699533781246
 21
15.77371463193189
 31
0.0
  0
LINE
  5
C55
330
A
100
AcDbEntity
  8
Features
  6
Continuous
100
AcDbLine
 10
-53.12131997257626
 20
16.00209145811279
 30
0.0
 11
-52.98429387686776
 21
16.18479291905749
 31
0.0
  0
LINE
  5
C57
330
A
100
AcDbEntity
  8
Features
  6
Continuous
100
AcDbLine
 10
-53.02996924210396
 20
16.27614364952989
 30
0.0
 11
-52.98429387686776
 21
16.18479291905749
 31
0.0
  0
LINE
  5
C58
330
A
100
AcDbEntity
  8
Features
  6
Continuous
100
AcDbLine
 10
-53.02996924210396
 20
13.58129710059499
 30
0.0
 11
-52.98429387686776
 21
13.62697246583119
 31
0.0
  0
LINE
  5
C59
330
A
100
AcDbEntity
  8
Features
  6
Continuous
100
AcDbLine
 10
-53.02996924210396
 20
15.49966244051479
 30
0.0
 11
-52.89294314639536
 21
15.40831171004239
 31
0.0
  0
LINE
  5
C5A
330
A
100
AcDbEntity
  8
Features
  6
Continuous
100
AcDbLine
 10
-53.02996924210396
 20
15.49966244051479
 30
0.0
 11
-52.98429387686776
 21
15.63668853622329
 31
0.0
  0
LINE
  5
C5B
330
A
100
AcDbEntity
  8
Features
  6
Continuous
100
AcDbLine
 10
-52.89294314639536
 20
15.40831171004239
 30
0.0
 11
-52.84726778115916
 21
15.45398707527859
 31
0.0
  0
LINE
  5
C5C
330
A
100
AcDbEntity
  8
Features
  6
Continuous
100
AcDbLine
 10
-52.89294314639536
 20
15.40831171004239
 30
0.0
 11
-52.61889095497826
 21
15.22561024909769
 31
0.0
  0
LINE
  5
C5D
330
A
100
AcDbEntity
  8
Features
  6
Continuous
100
AcDbLine
 10
-52.98429387686776
 20
11.66293176067528
 30
0.0
 11
-52.93861851163155
 21
11.52590566496679
 31
0.0
  0
LINE
  5
C5E
330
A
100
AcDbEntity
  8
Features
  6
Continuous
100
AcDbLine
 10
-52.93861851163155
 20
11.52590566496679
 30
0.0
 11
-52.89294314639536
 21
11.48023029973059
 31
0.0
  0
LINE
  5
C60
330
A
100
AcDbEntity
  8
Features
  6
Continuous
100
AcDbLine
 10
-52.98429387686776
 20
13.76399856153979
 30
0.0
 11
-52.93861851163155
 21
13.71832319630359
 31
0.0
  0
LINE
  5
C61
330
A
100
AcDbEntity
  8
Features
  6
Continuous
100
AcDbLine
 10
-52.98429387686776
 20
13.76399856153979
 30
0.0
 11
-52.98429387686776
 21
13.80967392677599
 31
0.0
  0
LINE
  5
C62
330
A
100
AcDbEntity
  8
Features
  6
Continuous
100
AcDbLine
 10
-52.98429387686776
 20
14.12940148342918
 30
0.0
 11
-52.93861851163155
 21
14.08372611819308
 31
0.0
  0
LINE
  5
C63
330
A
100
AcDbEntity
  8
Features
  6
Continuous
100
AcDbLine
 10
-52.98429387686776
 20
14.12940148342918
 30
0.0
 11
-52.93861851163155
 21
14.22075221390159
 31
0.0
  0
LINE
  5
C64
330
A
100
AcDbEntity
  8
Features
  6
Continuous
100
AcDbLine
 10
-52.93861851163155
 20
14.22075221390159
 30
0.0
 11
-52.89294314639536
 21
14.17507684866539
 31
0.0
  0
LINE
  5
C65
330
A
100
AcDbEntity
  8
Features
  6
Continuous
100
AcDbLine
 10
-52.98429387686776
 20
14.54047977055489
 30
0.0
 11
-52.89294314639536
 21
14.54047977055489
 31
0.0
  0
LINE
  5
C66
330
A
100
AcDbEntity
  8
Features
  6
Continuous
100
AcDbLine
 10
-52.98429387686776
 20
16.00209145811279
 30
0.0
 11
-52.84726778115916
 21
15.86506536240419
 31
0.0
  0
LINE
  5
C67
330
A
100
AcDbEntity
  8
Features
  6
Continuous
100
AcDbLine
 10
-52.84726778115916
 20
15.86506536240419
 30
0.0
 11
-52.80159241592295
 21
15.91074072764039
 31
0.0
  0
LINE
  5
C68
330
A
100
AcDbEntity
  8
Features
  6
Continuous
100
AcDbLine
 10
-52.93861851163155
 20
13.90102465724829
 30
0.0
 11
-52.84726778115916
 21
13.90102465724829
 31
0.0
  0
LINE
  5
C69
330
A
100
AcDbEntity
  8
Features
  6
Continuous
100
AcDbLine
 10
-52.84726778115916
 20
14.35777830961019
 30
0.0
 11
-52.80159241592295
 21
14.40345367484629
 31
0.0
  0
LINE
  5
C6A
330
A
100
AcDbEntity
  8
Features
  6
Continuous
100
AcDbLine
 10
-52.80159241592295
 20
14.40345367484629
 30
0.0
 11
-52.71024168545066
 21
14.49480440531869
 31
0.0
  0
LINE
  5
C6B
330
A
100
AcDbEntity
  8
Features
  6
Continuous
100
AcDbLine
 10
-52.80159241592295
 20
14.40345367484629
 30
0.0
 11
-52.75591705068686
 21
14.35777830961019
 31
0.0
  0
LINE
  5
C6C
330
A
100
AcDbEntity
  8
Features
  6
Continuous
100
AcDbLine
 10
-52.71024168545066
 20
14.49480440531869
 30
0.0
 11
-52.61889095497826
 21
14.49480440531869
 31
0.0
  0
LINE
  5
C6D
330
A
100
AcDbEntity
  8
Features
  6
Continuous
100
AcDbLine
 10
-52.80159241592295
 20
14.58615513579109
 30
0.0
 11
-52.71024168545066
 21
14.49480440531869
 31
0.0
  0
LINE
  5
C6E
330
A
100
AcDbEntity
  8
Features
  6
Continuous
100
AcDbLine
 10
-52.61889095497826
 20
14.49480440531869
 30
0.0
 11
-52.57321558974206
 21
14.58615513579109
 31
0.0
  0
LINE
  5
C6F
330
A
100
AcDbEntity
  8
Features
  6
Continuous
100
AcDbLine
 10
-52.61889095497826
 20
14.49480440531869
 30
0.0
 11
-52.39051412879736
 21
14.22075221390159
 31
0.0
  0
LINE
  5
C70
330
A
100
AcDbEntity
  8
Features
  6
Continuous
100
AcDbLine
 10
-52.39051412879736
 20
14.22075221390159
 30
0.0
 11
-52.29916339832496
 21
14.26642757913779
 31
0.0
  0
LINE
  5
C71
330
A
100
AcDbEntity
  8
Features
  6
Continuous
100
AcDbLine
 10
-52.57321558974206
 20
14.58615513579109
 30
0.0
 11
-52.20781266785256
 21
14.63183050102729
 31
0.0
  0
LINE
  5
C72
330
A
100
AcDbEntity
  8
Features
  6
Continuous
100
AcDbLine
 10
-52.61889095497826
 20
14.63183050102729
 30
0.0
 11
-52.57321558974206
 21
14.58615513579109
 31
0.0
  0
LINE
  5
C73
330
A
100
AcDbEntity
  8
Features
  6
Continuous
100
AcDbLine
 10
-52.20781266785256
 20
14.63183050102729
 30
0.0
 11
-52.11646193738026
 21
14.58615513579109
 31
0.0
  0
LINE
  5
C74
330
A
100
AcDbEntity
  8
Features
  6
Continuous
100
AcDbLine
 10
-52.29916339832496
 20
14.72318123149959
 30
0.0
 11
-52.20781266785256
 21
14.63183050102729
 31
0.0
  0
LINE
  5
C75
330
A
100
AcDbEntity
  8
Features
  6
Continuous
100
AcDbLine
 10
-52.11646193738026
 20
14.58615513579109
 30
0.0
 11
-52.02511120690786
 21
14.63183050102729
 31
0.0
  0
LINE
  5
C76
330
A
100
AcDbEntity
  8
Features
  6
Continuous
100
AcDbLine
 10
-52.11646193738026
 20
14.58615513579109
 30
0.0
 11
-52.07078657214406
 21
14.49480440531869
 31
0.0
  0
LINE
  5
C77
330
A
100
AcDbEntity
  8
Features
  6
Continuous
100
AcDbLine
 10
-52.16213730261646
 20
14.40345367484629
 30
0.0
 11
-52.07078657214406
 21
14.49480440531869
 31
0.0
  0
LINE
  5
C78
330
A
100
AcDbEntity
  8
Features
  6
Continuous
100
AcDbLine
 10
-52.02511120690786
 20
14.63183050102729
 30
0.0
 11
-52.02511120690786
 21
14.67750586626339
 31
0.0
  0
LINE
  5
C79
330
A
100
AcDbEntity
  8
Features
  6
Continuous
100
AcDbLine
 10
-52.02511120690786
 20
14.63183050102729
 30
0.0
 11
-51.88808511119936
 21
14.49480440531869
 31
0.0
  0
LINE
  5
C7A
330
A
100
AcDbEntity
  8
Features
  6
Continuous
100
AcDbLine
 10
-52.02511120690786
 20
14.67750586626339
 30
0.0
 11
-51.97943584167166
 21
14.72318123149959
 31
0.0
  0
LINE
  5
C7B
330
A
100
AcDbEntity
  8
Features
  6
Continuous
100
AcDbLine
 10
-52.02511120690786
 20
14.67750586626339
 30
0.0
 11
-52.02511120690786
 21
14.76885659673579
 31
0.0
  0
LINE
  5
C7C
330
A
100
AcDbEntity
  8
Features
  6
Continuous
100
AcDbLine
 10
-52.02511120690786
 20
14.76885659673579
 30
0.0
 11
-51.97943584167166
 21
14.72318123149959
 31
0.0
  0
LINE
  5
C7D
330
A
100
AcDbEntity
  8
Features
  6
Continuous
100
AcDbLine
 10
-51.97943584167166
 20
14.72318123149959
 30
0.0
 11
-51.79673438072696
 21
14.81453196197199
 31
0.0
  0
LINE
  5
C7E
330
A
100
AcDbEntity
  8
Features
  6
Continuous
100
AcDbLine
 10
-51.79673438072696
 20
14.81453196197199
 30
0.0
 11
-51.75105901549075
 21
14.86020732720819
 31
0.0
  0
LINE
  5
C7F
330
A
100
AcDbEntity
  8
Features
  6
Continuous
100
AcDbLine
 10
-51.75105901549075
 20
14.86020732720819
 30
0.0
 11
-51.65970828501836
 21
14.99723342291669
 31
0.0
  0
LINE
  5
C80
330
A
100
AcDbEntity
  8
Features
  6
Continuous
100
AcDbLine
 10
-51.65970828501836
 20
14.99723342291669
 30
0.0
 11
-51.61403291978226
 21
15.04290878815289
 31
0.0
  0
LINE
  5
C81
330
A
100
AcDbEntity
  8
Features
  6
Continuous
100
AcDbLine
 10
-51.65970828501836
 20
14.99723342291669
 30
0.0
 11
-51.56835755454605
 21
14.95155805768059
 31
0.0
  0
LINE
  5
C82
330
A
100
AcDbEntity
  8
Features
  6
Continuous
100
AcDbLine
 10
-51.61403291978226
 20
15.04290878815289
 30
0.0
 11
-51.56835755454605
 21
15.04290878815289
 31
0.0
  0
LINE
  5
C83
330
A
100
AcDbEntity
  8
Features
  6
Continuous
100
AcDbLine
 10
-51.61403291978226
 20
15.04290878815289
 30
0.0
 11
-51.61403291978226
 21
15.08858415338909
 31
0.0
  0
LINE
  5
C84
330
A
100
AcDbEntity
  8
Features
  6
Continuous
100
AcDbLine
 10
-51.56835755454605
 20
14.90588269244439
 30
0.0
 11
-51.56835755454605
 21
14.95155805768059
 31
0.0
  0
LINE
  5
C85
330
A
100
AcDbEntity
  8
Features
  6
Continuous
100
AcDbLine
 10
-51.56835755454605
 20
14.95155805768059
 30
0.0
 11
-51.52268218930986
 21
14.99723342291669
 31
0.0
  0
LINE
  5
C86
330
A
100
AcDbEntity
  8
Features
  6
Continuous
100
AcDbLine
 10
-51.56835755454605
 20
15.04290878815289
 30
0.0
 11
-51.52268218930986
 21
14.99723342291669
 31
0.0
  0
LINE
  5
C87
330
A
100
AcDbEntity
  8
Features
  6
Continuous
100
AcDbLine
 10
-51.56835755454605
 20
15.04290878815289
 30
0.0
 11
-51.56835755454605
 21
15.08858415338909
 31
0.0
  0
LINE
  5
C88
330
A
100
AcDbEntity
  8
Features
  6
Continuous
100
AcDbLine
 10
-51.56835755454605
 20
15.04290878815289
 30
0.0
 11
-51.52268218930986
 21
15.08858415338909
 31
0.0
  0
LINE
  5
C89
330
A
100
AcDbEntity
  8
Features
  6
Continuous
100
AcDbLine
 10
-51.88808511119936
 20
15.17993488386148
 30
0.0
 11
-51.61403291978226
 21
15.08858415338909
 31
0.0
  0
LINE
  5
C8A
330
A
100
AcDbEntity
  8
Features
  6
Continuous
100
AcDbLine
 10
-51.56835755454605
 20
14.90588269244439
 30
0.0
 11
-51.52268218930986
 21
14.86020732720819
 31
0.0
  0
LINE
  5
C8B
330
A
100
AcDbEntity
  8
Features
  6
Continuous
100
AcDbLine
 10
-51.56835755454605
 20
14.76885659673579
 30
0.0
 11
-51.56835755454605
 21
14.90588269244439
 31
0.0
  0
LINE
  5
C8C
330
A
100
AcDbEntity
  8
Features
  6
Continuous
100
AcDbLine
 10
-51.52268218930986
 20
14.99723342291669
 30
0.0
 11
-51.43133145883746
 21
15.08858415338909
 31
0.0
  0
LINE
  5
C8D
330
A
100
AcDbEntity
  8
Features
  6
Continuous
100
AcDbLine
 10
-51.56835755454605
 20
15.08858415338909
 30
0.0
 11
-51.52268218930986
 21
15.17993488386148
 31
0.0
  0
LINE
  5
C8E
330
A
100
AcDbEntity
  8
Features
  6
Continuous
100
AcDbLine
 10
-51.52268218930986
 20
15.08858415338909
 30
0.0
 11
-51.43133145883746
 21
15.08858415338909
 31
0.0
  0
LINE
  5
C8F
330
A
100
AcDbEntity
  8
Features
  6
Continuous
100
AcDbLine
 10
-51.93376047643546
 20
15.22561024909769
 30
0.0
 11
-51.88808511119936
 21
15.17993488386148
 31
0.0
  0
LINE
  5
C90
330
A
100
AcDbEntity
  8
Features
  6
Continuous
100
AcDbLine
 10
-52.11646193738026
 20
14.90588269244439
 30
0.0
 11
-51.88808511119936
 21
15.17993488386148
 31
0.0
  0
LINE
  5
C91
330
A
100
AcDbEntity
  8
Features
  6
Continuous
100
AcDbLine
 10
-51.52268218930986
 20
14.86020732720819
 30
0.0
 11
-51.47700682407366
 21
14.90588269244439
 31
0.0
  0
LINE
  5
C92
330
A
100
AcDbEntity
  8
Features
  6
Continuous
100
AcDbLine
 10
-51.47700682407366
 20
14.90588269244439
 30
0.0
 11
-51.38565609360126
 21
14.81453196197199
 31
0.0
  0
LINE
  5
C93
330
A
100
AcDbEntity
  8
Features
  6
Continuous
100
AcDbLine
 10
-51.56835755454605
 20
14.76885659673579
 30
0.0
 11
-51.52268218930986
 21
14.86020732720819
 31
0.0
  0
LINE
  5
C94
330
A
100
AcDbEntity
  8
Features
  6
Continuous
100
AcDbLine
 10
-51.61403291978226
 20
14.67750586626339
 30
0.0
 11
-51.56835755454605
 21
14.76885659673579
 31
0.0
  0
LINE
  5
C95
330
A
100
AcDbEntity
  8
Features
  6
Continuous
100
AcDbLine
 10
-51.43133145883746
 20
15.08858415338909
 30
0.0
 11
-51.38565609360126
 21
15.13425951862529
 31
0.0
  0
LINE
  5
C96
330
A
100
AcDbEntity
  8
Features
  6
Continuous
100
AcDbLine
 10
-51.52268218930986
 20
15.17993488386148
 30
0.0
 11
-51.38565609360126
 21
15.13425951862529
 31
0.0
  0
LINE
  5
C97
330
A
100
AcDbEntity
  8
Features
  6
Continuous
100
AcDbLine
 10
-51.52268218930986
 20
15.17993488386148
 30
0.0
 11
-51.52268218930986
 21
15.27128561433378
 31
0.0
  0
LINE
  5
C98
330
A
100
AcDbEntity
  8
Features
  6
Continuous
100
AcDbLine
 10
-51.93376047643546
 20
15.22561024909769
 30
0.0
 11
-51.84240974596316
 21
15.31696097956998
 31
0.0
  0
LINE
  5
C99
330
A
100
AcDbEntity
  8
Features
  6
Continuous
100
AcDbLine
 10
-52.07078657214406
 20
15.22561024909769
 30
0.0
 11
-51.93376047643546
 21
15.22561024909769
 31
0.0
  0
LINE
  5
C9A
330
A
100
AcDbEntity
  8
Features
  6
Continuous
100
AcDbLine
 10
-51.38565609360126
 20
15.13425951862529
 30
0.0
 11
-51.33998072836516
 21
15.13425951862529
 31
0.0
  0
LINE
  5
C9B
330
A
100
AcDbEntity
  8
Features
  6
Continuous
100
AcDbLine
 10
-52.25348803308876
 20
15.04290878815289
 30
0.0
 11
-52.07078657214406
 21
15.22561024909769
 31
0.0
  0
LINE
  5
C9C
330
A
100
AcDbEntity
  8
Features
  6
Continuous
100
AcDbLine
 10
-52.11646193738026
 20
15.27128561433378
 30
0.0
 11
-52.07078657214406
 21
15.22561024909769
 31
0.0
  0
LINE
  5
C9D
330
A
100
AcDbEntity
  8
Features
  6
Continuous
100
AcDbLine
 10
-51.33998072836516
 20
15.13425951862529
 30
0.0
 11
-51.11160390218416
 21
15.22561024909769
 31
0.0
  0
LINE
  5
C9E
330
A
100
AcDbEntity
  8
Features
  6
Continuous
100
AcDbLine
 10
-51.33998072836516
 20
15.13425951862529
 30
0.0
 11
-51.20295463265656
 21
14.99723342291669
 31
0.0
  0
LINE
  5
C9F
330
A
100
AcDbEntity
  8
Features
  6
Continuous
100
AcDbLine
 10
-51.11160390218416
 20
15.22561024909769
 30
0.0
 11
-51.02025317171186
 21
15.17993488386148
 31
0.0
  0
LINE
  5
CA0
330
A
100
AcDbEntity
  8
Features
  6
Continuous
100
AcDbLine
 10
-51.11160390218416
 20
15.22561024909769
 30
0.0
 11
-51.06592853694806
 21
15.31696097956998
 31
0.0
  0
LINE
  5
CA1
330
A
100
AcDbEntity
  8
Features
  6
Continuous
100
AcDbLine
 10
-52.75591705068686
 20
11.34320420402199
 30
0.0
 11
-52.66456632021445
 21
11.16050274307729
 31
0.0
  0
LINE
  5
CA2
330
A
100
AcDbEntity
  8
Features
  6
Continuous
100
AcDbLine
 10
-52.75591705068686
 20
14.12940148342918
 30
0.0
 11
-52.66456632021445
 21
14.03805075295688
 31
0.0
  0
LINE
  5
CA3
330
A
100
AcDbEntity
  8
Features
  6
Continuous
100
AcDbLine
 10
-52.75591705068686
 20
14.12940148342918
 30
0.0
 11
-52.75591705068686
 21
14.17507684866539
 31
0.0
  0
LINE
  5
CA4
330
A
100
AcDbEntity
  8
Features
  6
Continuous
100
AcDbLine
 10
-52.66456632021445
 20
14.03805075295688
 30
0.0
 11
-52.52754022450586
 21
14.08372611819308
 31
0.0
  0
LINE
  5
CA5
330
A
100
AcDbEntity
  8
Features
  6
Continuous
100
AcDbLine
 10
-52.71024168545066
 20
13.90102465724829
 30
0.0
 11
-52.66456632021445
 21
14.03805075295688
 31
0.0
  0
LINE
  5
CA7
330
A
100
AcDbEntity
  8
Features
  6
Continuous
100
AcDbLine
 10
-52.66456632021445
 20
15.40831171004239
 30
0.0
 11
-52.57321558974206
 21
15.45398707527859
 31
0.0
  0
LINE
  5
CA8
330
A
100
AcDbEntity
  8
Features
  6
Continuous
100
AcDbLine
 10
-52.57321558974206
 20
15.45398707527859
 30
0.0
 11
-52.52754022450586
 21
15.45398707527859
 31
0.0
  0
LINE
  5
CA9
330
A
100
AcDbEntity
  8
Features
  6
Continuous
100
AcDbLine
 10
-52.66456632021445
 20
15.63668853622329
 30
0.0
 11
-52.57321558974206
 21
15.45398707527859
 31
0.0
  0
LINE
  5
CAA
330
A
100
AcDbEntity
  8
Features
  6
Continuous
100
AcDbLine
 10
-52.66456632021445
 20
15.63668853622329
 30
0.0
 11
-52.57321558974206
 21
15.72803926669569
 31
0.0
  0
LINE
  5
CAB
330
A
100
AcDbEntity
  8
Features
  6
Continuous
100
AcDbLine
 10
-52.57321558974206
 20
15.72803926669569
 30
0.0
 11
-52.52754022450586
 21
15.77371463193189
 31
0.0
  0
LINE
  5
CAC
330
A
100
AcDbEntity
  8
Features
  6
Continuous
100
AcDbLine
 10
-52.57321558974206
 20
15.72803926669569
 30
0.0
 11
-52.43618949403356
 21
15.63668853622329
 31
0.0
  0
LINE
  5
CAD
330
A
100
AcDbEntity
  8
Features
  6
Continuous
100
AcDbLine
 10
-52.61889095497826
 20
12.34806223921809
 30
0.0
 11
-52.52754022450586
 21
12.21103614350949
 31
0.0
  0
LINE
  5
CAE
330
A
100
AcDbEntity
  8
Features
  6
Continuous
100
AcDbLine
 10
-52.57321558974206
 20
14.95155805768059
 30
0.0
 11
-52.52754022450586
 21
14.90588269244439
 31
0.0
  0
LINE
  5
CAF
330
A
100
AcDbEntity
  8
Features
  6
Continuous
100
AcDbLine
 10
-52.52754022450586
 20
14.90588269244439
 30
0.0
 11
-52.48186485926976
 21
14.90588269244439
 31
0.0
  0
LINE
  5
CB0
330
A
100
AcDbEntity
  8
Features
  6
Continuous
100
AcDbLine
 10
-52.52754022450586
 20
14.81453196197199
 30
0.0
 11
-52.52754022450586
 21
14.90588269244439
 31
0.0
  0
LINE
  5
CB1
330
A
100
AcDbEntity
  8
Features
  6
Continuous
100
AcDbLine
 10
-52.48186485926976
 20
14.90588269244439
 30
0.0
 11
-52.43618949403356
 21
14.95155805768059
 31
0.0
  0
LINE
  5
CB2
330
A
100
AcDbEntity
  8
Features
  6
Continuous
100
AcDbLine
 10
-52.48186485926976
 20
14.90588269244439
 30
0.0
 11
-52.43618949403356
 21
14.86020732720819
 31
0.0
  0
LINE
  5
CB3
330
A
100
AcDbEntity
  8
Features
  6
Continuous
100
AcDbLine
 10
-52.52754022450586
 20
15.22561024909769
 30
0.0
 11
-52.48186485926976
 21
15.27128561433378
 31
0.0
  0
LINE
  5
CB4
330
A
100
AcDbEntity
  8
Features
  6
Continuous
100
AcDbLine
 10
-52.48186485926976
 20
15.27128561433378
 30
0.0
 11
-52.43618949403356
 21
15.17993488386148
 31
0.0
  0
LINE
  5
CB5
330
A
100
AcDbEntity
  8
Features
  6
Continuous
100
AcDbLine
 10
-52.48186485926976
 20
15.27128561433378
 30
0.0
 11
-52.48186485926976
 21
15.36263634480619
 31
0.0
  0
LINE
  5
CB6
330
A
100
AcDbEntity
  8
Features
  6
Continuous
100
AcDbLine
 10
-52.48186485926976
 20
10.97780128213254
 30
0.0
 11
-52.43618949403356
 21
10.93212591689635
 31
0.0
  0
LINE
  5
CB8
330
A
100
AcDbEntity
  8
Features
  6
Continuous
100
AcDbLine
 10
-52.43618949403356
 20
15.45398707527859
 30
0.0
 11
-52.29916339832496
 21
15.40831171004239
 31
0.0
  0
LINE
  5
CB9
330
A
100
AcDbEntity
  8
Features
  6
Continuous
100
AcDbLine
 10
-52.34483876356116
 20
11.93698395209239
 30
0.0
 11
-52.25348803308876
 21
11.84563322161998
 31
0.0
  0
LINE
  5
CBA
330
A
100
AcDbEntity
  8
Features
  6
Continuous
100
AcDbLine
 10
-52.34483876356116
 20
11.93698395209239
 30
0.0
 11
-52.34483876356116
 21
11.98265931732859
 31
0.0
  0
LINE
  5
CBB
330
A
100
AcDbEntity
  8
Features
  6
Continuous
100
AcDbLine
 10
-52.34483876356116
 20
14.44912904008249
 30
0.0
 11
-52.34483876356116
 21
14.49480440531869
 31
0.0
  0
LINE
  5
CBC
330
A
100
AcDbEntity
  8
Features
  6
Continuous
100
AcDbLine
 10
-52.34483876356116
 20
15.22561024909769
 30
0.0
 11
-52.20781266785256
 21
15.36263634480619
 31
0.0
  0
LINE
  5
CBE
330
A
100
AcDbEntity
  8
Features
  6
Continuous
100
AcDbLine
 10
-52.29916339832496
 20
10.70374909071543
 30
0.0
 11
-52.16213730261646
 21
10.61239836024306
 31
0.0
  0
LINE
  5
CC2
330
A
100
AcDbEntity
  8
Features
  6
Continuous
100
AcDbLine
 10
-52.11646193738026
 20
11.70860712591148
 30
0.0
 11
-52.02511120690786
 21
11.66293176067528
 31
0.0
  0
LINE
  5
CC3
330
A
100
AcDbEntity
  8
Features
  6
Continuous
100
AcDbLine
 10
-52.02511120690787
 20
10.42969689929833
 30
0.0
 11
-51.97943584167166
 21
10.33834616882596
 31
0.0
  0
LINE
  5
CC4
330
A
100
AcDbEntity
  8
Features
  6
Continuous
100
AcDbLine
 10
-51.88808511119937
 20
10.10996934264504
 30
0.0
 11
-51.75105901549076
 21
10.01861861217267
 31
0.0
  0
LINE
  5
CC6
330
A
100
AcDbEntity
  8
Features
  6
Continuous
100
AcDbLine
 10
-51.88808511119936
 20
11.38887956925819
 30
0.0
 11
-51.79673438072696
 21
11.25185347354959
 31
0.0
  0
LINE
  5
CC7
330
A
100
AcDbEntity
  8
Features
  6
Continuous
100
AcDbLine
 10
-51.65970828501836
 20
11.11482737784109
 30
0.0
 11
-51.56835755454605
 21
10.97780128213254
 31
0.0
  0
LINE
  5
CC9
330
A
100
AcDbEntity
  8
Features
  6
Continuous
100
AcDbLine
 10
-51.61403291978226
 20
9.835917151227939
 30
0.0
 11
-51.52268218930986
 21
9.790241785991746
 31
0.0
  0
LINE
  5
CD3
330
A
100
AcDbEntity
  8
Features
  6
Continuous
100
AcDbLine
 10
-51.52268218930986
 20
15.36263634480619
 30
0.0
 11
-51.47700682407366
 21
15.45398707527859
 31
0.0
  0
LINE
  5
CDC
330
A
100
AcDbEntity
  8
Features
  6
Continuous
100
AcDbLine
 10
-51.33998072836516
 20
15.63668853622329
 30
0.0
 11
-51.29430536312896
 21
15.63668853622329
 31
0.0
  0
LINE
  5
CDD
330
A
100
AcDbEntity
  8
Features
  6
Continuous
100
AcDbLine
 10
-51.33998072836516
 20
15.59101317098709
 30
0.0
 11
-51.33998072836516
 21
15.63668853622329
 31
0.0
  0
LINE
  5
CDE
330
A
100
AcDbEntity
  8
Features
  6
Continuous
100
AcDbLine
 10
-51.29430536312896
 20
15.63668853622329
 30
0.0
 11
-51.20295463265656
 21
15.72803926669569
 31
0.0
  0
LINE
  5
CDF
330
A
100
AcDbEntity
  8
Features
  6
Continuous
100
AcDbLine
 10
-51.29430536312896
 20
15.59101317098709
 30
0.0
 11
-51.29430536312896
 21
15.63668853622329
 31
0.0
  0
LINE
  5
CE0
330
A
100
AcDbEntity
  8
Features
  6
Continuous
100
AcDbLine
 10
-51.29430536312896
 20
15.59101317098709
 30
0.0
 11
-51.24862999789276
 21
15.54533780575089
 31
0.0
  0
LINE
  5
CE1
330
A
100
AcDbEntity
  8
Features
  6
Continuous
100
AcDbLine
 10
-51.24862999789276
 20
15.54533780575089
 30
0.0
 11
-51.02025317171186
 21
15.59101317098709
 31
0.0
  0
LINE
  5
CE2
330
A
100
AcDbEntity
  8
Features
  6
Continuous
100
AcDbLine
 10
-51.43133145883746
 20
15.54533780575089
 30
0.0
 11
-51.33998072836516
 21
15.59101317098709
 31
0.0
  0
LINE
  5
CE3
330
A
100
AcDbEntity
  8
Features
  6
Continuous
100
AcDbLine
 10
-51.43133145883746
 20
9.698891055519375
 30
0.0
 11
-51.29430536312896
 21
9.653215690283197
 31
0.0
  0
LINE
  5
CE5
330
A
100
AcDbEntity
  8
Features
  6
Continuous
100
AcDbLine
 10
-51.43133145883746
 20
10.7950998211878
 30
0.0
 11
-51.33998072836516
 21
10.65807372547925
 31
0.0
  0
LINE
  5
CE6
330
A
100
AcDbEntity
  8
Features
  6
Continuous
100
AcDbLine
 10
-51.43133145883746
 20
10.7950998211878
 30
0.0
 11
-51.43133145883746
 21
10.84077518642398
 31
0.0
  0
LINE
  5
CE9
330
A
100
AcDbEntity
  8
Features
  6
Continuous
100
AcDbLine
 10
-51.24862999789276
 20
10.5210476297707
 30
0.0
 11
-51.02025317171186
 21
10.47537226453451
 31
0.0
  0
LINE
  5
CEB
330
A
100
AcDbEntity
  8
Features
  6
Continuous
100
AcDbLine
 10
-51.15727926742036
 20
15.81938999716798
 30
0.0
 11
-51.06592853694806
 21
15.72803926669569
 31
0.0
  0
LINE
  5
CEC
330
A
100
AcDbEntity
  8
Features
  6
Continuous
100
AcDbLine
 10
-51.06592853694806
 20
15.86506536240419
 30
0.0
 11
-50.97457780647566
 21
15.91074072764039
 31
0.0
  0
LINE
  5
CEE
330
A
100
AcDbEntity
  8
Features
  6
Continuous
100
AcDbLine
 10
-51.02025317171186
 20
9.744566420755568
 30
0.0
 11
-50.97457780647566
 21
9.790241785991746
 31
0.0
  0
LINE
  5
CEF
330
A
100
AcDbEntity
  8
Features
  6
Continuous
100
AcDbLine
 10
-50.97457780647566
 20
15.27128561433378
 30
0.0
 11
-50.88322707600326
 21
15.22561024909769
 31
0.0
  0
LINE
  5
CF0
330
A
100
AcDbEntity
  8
Features
  6
Continuous
100
AcDbLine
 10
-50.97457780647566
 20
15.45398707527859
 30
0.0
 11
-50.92890244123946
 21
15.49966244051479
 31
0.0
  0
LINE
  5
CF1
330
A
100
AcDbEntity
  8
Features
  6
Continuous
100
AcDbLine
 10
-50.83755171076707
 20
10.56672299500688
 30
0.0
 11
-50.70052561505856
 21
10.65807372547925
 31
0.0
  0
LINE
  5
CF2
330
A
100
AcDbEntity
  8
Features
  6
Continuous
100
AcDbLine
 10
-50.83755171076706
 20
15.31696097956998
 30
0.0
 11
-50.60917488458616
 21
15.27128561433378
 31
0.0
  0
LINE
  5
CF4
330
A
100
AcDbEntity
  8
Features
  6
Continuous
100
AcDbLine
 10
-50.79187634553086
 20
9.881592516464117
 30
0.0
 11
-50.65485024982236
 21
9.972943246936488
 31
0.0
  0
LINE
  5
CF6
330
A
100
AcDbEntity
  8
Features
  6
Continuous
100
AcDbLine
 10
-50.79187634553086
 20
15.49966244051479
 30
0.0
 11
-50.74620098029476
 21
15.54533780575089
 31
0.0
  0
LINE
  5
CF7
330
A
100
AcDbEntity
  8
Features
  6
Continuous
100
AcDbLine
 10
-50.79187634553086
 20
15.86506536240419
 30
0.0
 11
-50.74620098029476
 21
15.81938999716798
 31
0.0
  0
LINE
  5
CF8
330
A
100
AcDbEntity
  8
Features
  6
Continuous
100
AcDbLine
 10
-50.74620098029476
 20
15.95641609287659
 30
0.0
 11
-50.74620098029476
 21
16.04776682334899
 31
0.0
  0
LINE
  5
CF9
330
A
100
AcDbEntity
  8
Features
  6
Continuous
100
AcDbLine
 10
-50.74620098029476
 20
16.04776682334899
 30
0.0
 11
-50.70052561505856
 21
16.09344218858519
 31
0.0
  0
LINE
  5
CFA
330
A
100
AcDbEntity
  8
Features
  6
Continuous
100
AcDbLine
 10
-50.70052561505856
 20
16.09344218858519
 30
0.0
 11
-50.60917488458616
 21
16.04776682334899
 31
0.0
  0
LINE
  5
CFB
330
A
100
AcDbEntity
  8
Features
  6
Continuous
100
AcDbLine
 10
-50.65485024982236
 20
15.68236390145949
 30
0.0
 11
-50.60917488458616
 21
15.77371463193189
 31
0.0
  0
LINE
  5
CFC
330
A
100
AcDbEntity
  8
Features
  6
Continuous
100
AcDbLine
 10
-50.65485024982236
 20
15.68236390145949
 30
0.0
 11
-50.56349951934996
 21
15.59101317098709
 31
0.0
  0
LINE
  5
CFD
330
A
100
AcDbEntity
  8
Features
  6
Continuous
100
AcDbLine
 10
-50.56349951934996
 20
15.59101317098709
 30
0.0
 11
-50.33512269316905
 21
15.68236390145949
 31
0.0
  0
LINE
  5
CFE
330
A
100
AcDbEntity
  8
Features
  6
Continuous
100
AcDbLine
 10
-50.56349951934996
 20
15.59101317098709
 30
0.0
 11
-50.51782415411375
 21
15.40831171004239
 31
0.0
  0
LINE
  5
D02
330
A
100
AcDbEntity
  8
Features
  6
Continuous
100
AcDbLine
 10
-50.56349951934996
 20
15.13425951862529
 30
0.0
 11
-50.47214878887766
 21
15.17993488386148
 31
0.0
  0
LINE
  5
D03
330
A
100
AcDbEntity
  8
Features
  6
Continuous
100
AcDbLine
 10
-50.47214878887766
 20
15.17993488386148
 30
0.0
 11
-50.33512269316905
 21
14.95155805768059
 31
0.0
  0
LINE
  5
D04
330
A
100
AcDbEntity
  8
Features
  6
Continuous
100
AcDbLine
 10
-50.47214878887766
 20
15.17993488386148
 30
0.0
 11
-50.38079805840525
 21
15.36263634480619
 31
0.0
  0
LINE
  5
D05
330
A
100
AcDbEntity
  8
Features
  6
Continuous
100
AcDbLine
 10
-50.51782415411376
 20
10.7950998211878
 30
0.0
 11
-50.33512269316905
 21
10.84077518642398
 31
0.0
  0
LINE
  5
D06
330
A
100
AcDbEntity
  8
Features
  6
Continuous
100
AcDbLine
 10
-50.47214878887766
 20
15.86506536240419
 30
0.0
 11
-50.38079805840525
 21
15.86506536240419
 31
0.0
  0
LINE
  5
D07
330
A
100
AcDbEntity
  8
Features
  6
Continuous
100
AcDbLine
 10
-50.47214878887766
 20
15.86506536240419
 30
0.0
 11
-50.38079805840525
 21
16.04776682334899
 31
0.0
  0
LINE
  5
D08
330
A
100
AcDbEntity
  8
Features
  6
Continuous
100
AcDbLine
 10
-50.52708924602263
 20
10.03799749693067
 30
0.0
 11
-50.35358318812462
 21
10.11070170924128
 31
0.0
  0
LINE
  5
D09
330
A
100
AcDbEntity
  8
Features
  6
Continuous
100
AcDbLine
 10
-50.38079805840525
 20
15.22561024909769
 30
0.0
 11
-50.33512269316905
 21
15.22561024909769
 31
0.0
  0
LINE
  5
D0B
330
A
100
AcDbEntity
  8
Features
  6
Continuous
100
AcDbLine
 10
-50.28944732793286
 20
10.15564470788122
 30
0.0
 11
-50.19809659746056
 21
10.24699543835359
 31
0.0
  0
LINE
  5
D0C
330
A
100
AcDbEntity
  8
Features
  6
Continuous
100
AcDbLine
 10
-50.28944732793286
 20
15.91074072764039
 30
0.0
 11
-50.24377196269666
 21
15.95641609287659
 31
0.0
  0
LINE
  5
D0D
330
A
100
AcDbEntity
  8
Features
  6
Continuous
100
AcDbLine
 10
-50.28944732793286
 20
16.04776682334899
 30
0.0
 11
-50.24377196269666
 21
16.04776682334899
 31
0.0
  0
LINE
  5
D0F
330
A
100
AcDbEntity
  8
Features
  6
Continuous
100
AcDbLine
 10
-50.24377196269666
 20
14.86020732720819
 30
0.0
 11
-50.19809659746056
 21
14.90588269244439
 31
0.0
  0
LINE
  5
D10
330
A
100
AcDbEntity
  8
Features
  6
Continuous
100
AcDbLine
 10
-50.19809659746056
 20
14.90588269244439
 30
0.0
 11
-50.01539513651576
 21
15.04290878815289
 31
0.0
  0
LINE
  5
D11
330
A
100
AcDbEntity
  8
Features
  6
Continuous
100
AcDbLine
 10
-50.10674586698816
 20
15.22561024909769
 30
0.0
 11
-50.01539513651576
 21
15.04290878815289
 31
0.0
  0
LINE
  5
D12
330
A
100
AcDbEntity
  8
Features
  6
Continuous
100
AcDbLine
 10
-50.24377196269666
 20
14.95155805768059
 30
0.0
 11
-50.19809659746056
 21
14.90588269244439
 31
0.0
  0
LINE
  5
D13
330
A
100
AcDbEntity
  8
Features
  6
Continuous
100
AcDbLine
 10
-50.10674586698816
 20
15.22561024909769
 30
0.0
 11
-50.06107050175196
 21
15.27128561433378
 31
0.0
  0
LINE
  5
D14
330
A
100
AcDbEntity
  8
Features
  6
Continuous
100
AcDbLine
 10
-50.19809659746056
 20
15.22561024909769
 30
0.0
 11
-50.10674586698816
 21
15.22561024909769
 31
0.0
  0
LINE
  5
D15
330
A
100
AcDbEntity
  8
Features
  6
Continuous
100
AcDbLine
 10
-50.06107050175196
 20
15.27128561433378
 30
0.0
 11
-49.87836904080726
 21
15.27128561433378
 31
0.0
  0
LINE
  5
D16
330
A
100
AcDbEntity
  8
Features
  6
Continuous
100
AcDbLine
 10
-50.15242123222436
 20
15.45398707527859
 30
0.0
 11
-50.06107050175196
 21
15.27128561433378
 31
0.0
  0
LINE
  5
D17
330
A
100
AcDbEntity
  8
Features
  6
Continuous
100
AcDbLine
 10
-50.15242123222436
 20
15.45398707527859
 30
0.0
 11
-50.10674586698816
 21
15.49966244051479
 31
0.0
  0
LINE
  5
D18
330
A
100
AcDbEntity
  8
Features
  6
Continuous
100
AcDbLine
 10
-50.19809659746056
 20
15.49966244051479
 30
0.0
 11
-50.15242123222436
 21
15.45398707527859
 31
0.0
  0
LINE
  5
D19
330
A
100
AcDbEntity
  8
Features
  6
Continuous
100
AcDbLine
 10
-50.24377196269666
 20
15.81938999716798
 30
0.0
 11
-50.15242123222436
 21
15.81938999716798
 31
0.0
  0
LINE
  5
D1A
330
A
100
AcDbEntity
  8
Features
  6
Continuous
100
AcDbLine
 10
-50.15242123222436
 20
10.97780128213254
 30
0.0
 11
-50.01539513651576
 21
11.02347664736872
 31
0.0
  0
LINE
  5
D1B
330
A
100
AcDbEntity
  8
Features
  6
Continuous
100
AcDbLine
 10
-50.15242123222436
 20
14.81453196197199
 30
0.0
 11
-50.06107050175196
 21
14.72318123149959
 31
0.0
  0
LINE
  5
D1C
330
A
100
AcDbEntity
  8
Features
  6
Continuous
100
AcDbLine
 10
-50.10674586698816
 20
14.67750586626339
 30
0.0
 11
-50.06107050175196
 21
14.72318123149959
 31
0.0
  0
LINE
  5
D1D
330
A
100
AcDbEntity
  8
Features
  6
Continuous
100
AcDbLine
 10
-50.15242123222436
 20
15.59101317098709
 30
0.0
 11
-50.10674586698816
 21
15.59101317098709
 31
0.0
  0
LINE
  5
D1E
330
A
100
AcDbEntity
  8
Features
  6
Continuous
100
AcDbLine
 10
-50.10674586698816
 20
10.29267080358978
 30
0.0
 11
-49.92404440604346
 21
10.38402153406214
 31
0.0
  0
LINE
  5
D21
330
A
100
AcDbEntity
  8
Features
  6
Continuous
100
AcDbLine
 10
-50.06107050175196
 20
15.72803926669569
 30
0.0
 11
-50.01539513651576
 21
15.68236390145949
 31
0.0
  0
LINE
  5
D24
330
A
100
AcDbEntity
  8
Features
  6
Continuous
100
AcDbLine
 10
-49.96971977127956
 20
14.72318123149959
 30
0.0
 11
-49.92404440604346
 21
14.67750586626339
 31
0.0
  0
LINE
  5
D25
330
A
100
AcDbEntity
  8
Features
  6
Continuous
100
AcDbLine
 10
-49.92404440604346
 20
14.99723342291669
 30
0.0
 11
-49.64999221462626
 21
14.95155805768059
 31
0.0
  0
LINE
  5
D26
330
A
100
AcDbEntity
  8
Features
  6
Continuous
100
AcDbLine
 10
-49.64999221462626
 20
14.95155805768059
 30
0.0
 11
-49.60431684939016
 21
14.90588269244439
 31
0.0
  0
LINE
  5
D27
330
A
100
AcDbEntity
  8
Features
  6
Continuous
100
AcDbLine
 10
-49.60431684939016
 20
14.81453196197199
 30
0.0
 11
-49.60431684939016
 21
14.90588269244439
 31
0.0
  0
LINE
  5
D28
330
A
100
AcDbEntity
  8
Features
  6
Continuous
100
AcDbLine
 10
-49.60431684939016
 20
14.81453196197199
 30
0.0
 11
-49.46729075368156
 21
14.81453196197199
 31
0.0
  0
LINE
  5
D29
330
A
100
AcDbEntity
  8
Features
  6
Continuous
100
AcDbLine
 10
-49.64999221462626
 20
14.76885659673579
 30
0.0
 11
-49.60431684939016
 21
14.81453196197199
 31
0.0
  0
LINE
  5
D2E
330
A
100
AcDbEntity
  8
Features
  6
Continuous
100
AcDbLine
 10
-49.83269367557106
 20
14.40345367484629
 30
0.0
 11
-49.69566757986246
 21
14.26642757913779
 31
0.0
  0
LINE
  5
D2F
330
A
100
AcDbEntity
  8
Features
  6
Continuous
100
AcDbLine
 10
-49.69566757986246
 20
14.26642757913779
 30
0.0
 11
-49.60431684939016
 21
14.31210294437399
 31
0.0
  0
LINE
  5
D30
330
A
100
AcDbEntity
  8
Features
  6
Continuous
100
AcDbLine
 10
-49.83269367557106
 20
14.40345367484629
 30
0.0
 11
-49.74134294509866
 21
14.49480440531869
 31
0.0
  0
LINE
  5
D31
330
A
100
AcDbEntity
  8
Features
  6
Continuous
100
AcDbLine
 10
-49.83269367557106
 20
14.63183050102729
 30
0.0
 11
-49.78701831033486
 21
14.63183050102729
 31
0.0
  0
LINE
  5
D32
330
A
100
AcDbEntity
  8
Features
  6
Continuous
100
AcDbLine
 10
-49.78701831033486
 20
11.16050274307729
 30
0.0
 11
-49.55864148415395
 21
11.29752883878579
 31
0.0
  0
LINE
  5
D33
330
A
100
AcDbEntity
  8
Features
  6
Continuous
100
AcDbLine
 10
-49.78701831033486
 20
14.76885659673579
 30
0.0
 11
-49.78701831033486
 21
14.86020732720819
 31
0.0
  0
LINE
  5
D36
330
A
100
AcDbEntity
  8
Features
  6
Continuous
100
AcDbLine
 10
-49.64999221462626
 20
10.5210476297707
 30
0.0
 11
-49.51296611891776
 21
10.61239836024306
 31
0.0
  0
LINE
  5
D37
330
A
100
AcDbEntity
  8
Features
  6
Continuous
100
AcDbLine
 10
-49.64999221462626
 20
15.13425951862529
 30
0.0
 11
-49.60431684939016
 21
15.17993488386148
 31
0.0
  0
LINE
  5
D39
330
A
100
AcDbEntity
  8
Features
  6
Continuous
100
AcDbLine
 10
-49.60431684939016
 20
14.63183050102729
 30
0.0
 11
-49.51296611891776
 21
14.49480440531869
 31
0.0
  0
LINE
  5
D3A
330
A
100
AcDbEntity
  8
Features
  6
Continuous
100
AcDbLine
 10
-49.51296611891776
 20
14.49480440531869
 30
0.0
 11
-49.33026465797306
 21
14.49480440531869
 31
0.0
  0
LINE
  5
D3B
330
A
100
AcDbEntity
  8
Features
  6
Continuous
100
AcDbLine
 10
-49.55864148415395
 20
14.44912904008249
 30
0.0
 11
-49.51296611891776
 21
14.49480440531869
 31
0.0
  0
LINE
  5
D3C
330
A
100
AcDbEntity
  8
Features
  6
Continuous
100
AcDbLine
 10
-49.55864148415395
 20
14.08372611819308
 30
0.0
 11
-49.55864148415395
 21
14.12940148342918
 31
0.0
  0
LINE
  5
D3D
330
A
100
AcDbEntity
  8
Features
  6
Continuous
100
AcDbLine
 10
-49.55864148415395
 20
15.04290878815289
 30
0.0
 11
-49.51296611891776
 21
15.08858415338909
 31
0.0
  0
LINE
  5
D3E
330
A
100
AcDbEntity
  8
Features
  6
Continuous
100
AcDbLine
 10
-49.46729075368156
 20
14.03805075295688
 30
0.0
 11
-49.42161538844536
 21
14.22075221390159
 31
0.0
  0
LINE
  5
D3F
330
A
100
AcDbEntity
  8
Features
  6
Continuous
100
AcDbLine
 10
-49.42161538844536
 20
13.94670002248449
 30
0.0
 11
-49.33026465797306
 21
14.03805075295688
 31
0.0
  0
LINE
  5
D40
330
A
100
AcDbEntity
  8
Features
  6
Continuous
100
AcDbLine
 10
-49.37594002320916
 20
14.90588269244439
 30
0.0
 11
-49.33026465797306
 21
14.95155805768059
 31
0.0
  0
LINE
  5
D41
330
A
100
AcDbEntity
  8
Features
  6
Continuous
100
AcDbLine
 10
-49.33026465797306
 20
10.70374909071543
 30
0.0
 11
-49.19323856226446
 21
10.7950998211878
 31
0.0
  0
LINE
  5
D42
330
A
100
AcDbEntity
  8
Features
  6
Continuous
100
AcDbLine
 10
-49.33026465797306
 20
11.43455493449439
 30
0.0
 11
-49.19323856226445
 21
11.52590566496679
 31
0.0
  0
LINE
  5
D43
330
A
100
AcDbEntity
  8
Features
  6
Continuous
100
AcDbLine
 10
-49.33026465797306
 20
13.39859563965029
 30
0.0
 11
-49.33026465797306
 21
13.44427100488649
 31
0.0
  0
LINE
  5
D44
330
A
100
AcDbEntity
  8
Features
  6
Continuous
100
AcDbLine
 10
-49.23891392750066
 20
14.03805075295688
 30
0.0
 11
-49.10188783179206
 21
14.17507684866539
 31
0.0
  0
LINE
  5
D45
330
A
100
AcDbEntity
  8
Features
  6
Continuous
100
AcDbLine
 10
-49.14756319702826
 20
14.22075221390159
 30
0.0
 11
-49.10188783179206
 21
14.17507684866539
 31
0.0
  0
LINE
  5
D46
330
A
100
AcDbEntity
  8
Features
  6
Continuous
100
AcDbLine
 10
-49.23891392750066
 20
14.03805075295688
 30
0.0
 11
-49.10188783179206
 21
13.90102465724829
 31
0.0
  0
LINE
  5
D47
330
A
100
AcDbEntity
  8
Features
  6
Continuous
100
AcDbLine
 10
-49.10188783179206
 20
13.90102465724829
 30
0.0
 11
-49.01053710131976
 21
13.99237538772068
 31
0.0
  0
LINE
  5
D48
330
A
100
AcDbEntity
  8
Features
  6
Continuous
100
AcDbLine
 10
-49.23891392750066
 20
14.35777830961019
 30
0.0
 11
-49.01053710131976
 21
14.44912904008249
 31
0.0
  0
LINE
  5
D49
330
A
100
AcDbEntity
  8
Features
  6
Continuous
100
AcDbLine
 10
-49.23891392750066
 20
14.72318123149959
 30
0.0
 11
-49.19323856226445
 21
14.72318123149959
 31
0.0
  0
LINE
  5
D4A
330
A
100
AcDbEntity
  8
Features
  6
Continuous
100
AcDbLine
 10
-49.14756319702826
 20
13.58129710059499
 30
0.0
 11
-48.96486173608356
 21
13.39859563965029
 31
0.0
  0
LINE
  5
D4B
330
A
100
AcDbEntity
  8
Features
  6
Continuous
100
AcDbLine
 10
-48.96486173608356
 20
13.39859563965029
 30
0.0
 11
-48.87351100561116
 21
13.44427100488649
 31
0.0
  0
LINE
  5
D4C
330
A
100
AcDbEntity
  8
Features
  6
Continuous
100
AcDbLine
 10
-49.10188783179206
 20
13.80967392677599
 30
0.0
 11
-49.05621246655596
 21
13.76399856153979
 31
0.0
  0
LINE
  5
D4D
330
A
100
AcDbEntity
  8
Features
  6
Continuous
100
AcDbLine
 10
-48.96486173608356
 20
10.93212591689635
 30
0.0
 11
-48.87351100561116
 21
10.97780128213254
 31
0.0
  0
LINE
  5
D4E
330
A
100
AcDbEntity
  8
Features
  6
Continuous
100
AcDbLine
 10
-48.96486173608356
 20
13.67264783106739
 30
0.0
 11
-48.82783564037496
 21
13.53562173535879
 31
0.0
  0
LINE
  5
D4F
330
A
100
AcDbEntity
  8
Features
  6
Continuous
100
AcDbLine
 10
-48.91918637084736
 20
14.12940148342918
 30
0.0
 11
-48.78216027513886
 21
13.99237538772068
 31
0.0
  0
LINE
  5
D50
330
A
100
AcDbEntity
  8
Features
  6
Continuous
100
AcDbLine
 10
-48.91918637084736
 20
14.35777830961019
 30
0.0
 11
-48.87351100561116
 21
14.31210294437399
 31
0.0
  0
LINE
  5
D51
330
A
100
AcDbEntity
  8
Features
  6
Continuous
100
AcDbLine
 10
-48.87351100561116
 20
11.70860712591148
 30
0.0
 11
-48.73648490990266
 21
11.75428249114769
 31
0.0
  0
LINE
  5
D57
330
A
100
AcDbEntity
  8
Features
  6
Continuous
100
AcDbLine
 10
-48.23405589230456
 20
12.66778979587139
 30
0.0
 11
-48.23405589230456
 21
12.71346516110749
 31
0.0
  0
LINE
  5
D58
330
A
100
AcDbEntity
  8
Features
  6
Continuous
100
AcDbLine
 10
-48.23405589230456
 20
12.71346516110749
 30
0.0
 11
-48.09702979659606
 21
12.75914052634369
 31
0.0
  0
LINE
  5
D59
330
A
100
AcDbEntity
  8
Features
  6
Continuous
100
AcDbLine
 10
-48.23405589230456
 20
12.66778979587139
 30
0.0
 11
-47.91432833565135
 21
12.39373760445419
 31
0.0
  0
LINE
  5
D5A
330
A
100
AcDbEntity
  8
Features
  6
Continuous
100
AcDbLine
 10
-48.27973125754076
 20
12.62211443063519
 30
0.0
 11
-48.23405589230456
 21
12.66778979587139
 31
0.0
  0
LINE
  5
D5C
330
A
100
AcDbEntity
  8
Features
  6
Continuous
100
AcDbLine
 10
-48.09702979659606
 20
12.75914052634369
 30
0.0
 11
-48.05135443135986
 21
12.71346516110749
 31
0.0
  0
LINE
  5
D5D
330
A
100
AcDbEntity
  8
Features
  6
Continuous
100
AcDbLine
 10
-47.91432833565135
 20
12.39373760445419
 30
0.0
 11
-47.86865297041516
 21
12.43941296969039
 31
0.0
  0
LINE
  5
D5E
330
A
100
AcDbEntity
  8
Features
  6
Continuous
100
AcDbLine
 10
-47.91432833565135
 20
12.39373760445419
 30
0.0
 11
-47.86865297041516
 21
12.30238687398189
 31
0.0
  0
LINE
  5
D5F
330
A
100
AcDbEntity
  8
Features
  6
Continuous
100
AcDbLine
 10
-47.91432833565135
 20
12.80481589157989
 30
0.0
 11
-47.86865297041516
 21
12.75914052634369
 31
0.0
  0
LINE
  5
D61
330
A
100
AcDbEntity
  8
Features
  6
Continuous
100
AcDbLine
 10
-47.86865297041516
 20
12.75914052634369
 30
0.0
 11
-47.64027614423426
 21
12.75914052634369
 31
0.0
  0
LINE
  5
D62
330
A
100
AcDbEntity
  8
Features
  6
Continuous
100
AcDbLine
 10
-47.91432833565135
 20
12.71346516110749
 30
0.0
 11
-47.86865297041516
 21
12.75914052634369
 31
0.0
  0
LINE
  5
D65
330
A
100
AcDbEntity
  8
Features
  6
Continuous
100
AcDbLine
 10
-47.64027614423426
 20
12.75914052634369
 30
0.0
 11
-47.59460077899806
 21
12.71346516110749
 31
0.0
  0
LINE
  5
D67
330
A
100
AcDbEntity
  8
Features
  6
Continuous
100
AcDbLine
 10
-48.73648490990266
 20
13.48994637012269
 30
0.0
 11
-48.64513417943026
 21
13.58129710059499
 31
0.0
  0
LINE
  5
D68
330
A
100
AcDbEntity
  8
Features
  6
Continuous
100
AcDbLine
 10
-48.64513417943026
 20
13.58129710059499
 30
0.0
 11
-48.55378344895786
 21
13.53562173535879
 31
0.0
  0
LINE
  5
D69
330
A
100
AcDbEntity
  8
Features
  6
Continuous
100
AcDbLine
 10
-48.55378344895786
 20
13.53562173535879
 30
0.0
 11
-48.46243271848556
 21
13.62697246583119
 31
0.0
  0
LINE
  5
D6A
330
A
100
AcDbEntity
  8
Features
  6
Continuous
100
AcDbLine
 10
-48.50810808372166
 20
13.67264783106739
 30
0.0
 11
-48.46243271848556
 21
13.62697246583119
 31
0.0
  0
LINE
  5
D6B
330
A
100
AcDbEntity
  8
Features
  6
Continuous
100
AcDbLine
 10
-48.55378344895786
 20
13.67264783106739
 30
0.0
 11
-48.50810808372166
 21
13.67264783106739
 31
0.0
  0
LINE
  5
D6C
330
A
100
AcDbEntity
  8
Features
  6
Continuous
100
AcDbLine
 10
-48.55378344895786
 20
13.53562173535879
 30
0.0
 11
-48.50810808372166
 21
13.48994637012269
 31
0.0
  0
LINE
  5
D6D
330
A
100
AcDbEntity
  8
Features
  6
Continuous
100
AcDbLine
 10
-48.73648490990266
 20
13.80967392677599
 30
0.0
 11
-48.59945881419406
 21
13.85534929201209
 31
0.0
  0
LINE
  5
D6E
330
A
100
AcDbEntity
  8
Features
  6
Continuous
100
AcDbLine
 10
-48.69080954466646
 20
11.0691520126049
 30
0.0
 11
-48.59945881419406
 21
11.20617810831349
 31
0.0
  0
LINE
  5
D6F
330
A
100
AcDbEntity
  8
Features
  6
Continuous
100
AcDbLine
 10
-48.69080954466646
 20
13.99237538772068
 30
0.0
 11
-48.64513417943026
 21
14.03805075295688
 31
0.0
  0
LINE
  5
D70
330
A
100
AcDbEntity
  8
Features
  6
Continuous
100
AcDbLine
 10
-48.55378344895786
 20
11.93698395209239
 30
0.0
 11
-48.46243271848556
 21
11.93698395209239
 31
0.0
  0
LINE
  5
D71
330
A
100
AcDbEntity
  8
Features
  6
Continuous
100
AcDbLine
 10
-48.55378344895786
 20
14.03805075295688
 30
0.0
 11
-48.46243271848556
 21
13.94670002248449
 31
0.0
  0
LINE
  5
D73
330
A
100
AcDbEntity
  8
Features
  6
Continuous
100
AcDbLine
 10
-48.46243271848556
 20
13.30724490917789
 30
0.0
 11
-48.46243271848556
 21
13.35292027441409
 31
0.0
  0
LINE
  5
D74
330
A
100
AcDbEntity
  8
Features
  6
Continuous
100
AcDbLine
 10
-48.37108198801316
 20
11.29752883878579
 30
0.0
 11
-48.27973125754076
 21
11.34320420402199
 31
0.0
  0
LINE
  5
D75
330
A
100
AcDbEntity
  8
Features
  6
Continuous
100
AcDbLine
 10
-48.32540662277696
 20
12.02833468256479
 30
0.0
 11
-48.23405589230456
 21
12.07401004780099
 31
0.0
  0
LINE
  5
D79
330
A
100
AcDbEntity
  8
Features
  6
Continuous
100
AcDbLine
 10
-48.23405589230456
 20
13.39859563965029
 30
0.0
 11
-48.18838052706845
 21
13.39859563965029
 31
0.0
  0
LINE
  5
D7A
330
A
100
AcDbEntity
  8
Features
  6
Continuous
100
AcDbLine
 10
-48.14270516183225
 20
11.43455493449439
 30
0.0
 11
-47.96000370088746
 21
11.52590566496679
 31
0.0
  0
LINE
  5
D7B
330
A
100
AcDbEntity
  8
Features
  6
Continuous
100
AcDbLine
 10
-48.14270516183225
 20
13.30724490917789
 30
0.0
 11
-48.09702979659606
 21
13.35292027441409
 31
0.0
  0
LINE
  5
D7C
330
A
100
AcDbEntity
  8
Features
  6
Continuous
100
AcDbLine
 10
-48.09702979659606
 20
12.16536077827329
 30
0.0
 11
-47.96000370088746
 21
12.21103614350949
 31
0.0
  0
LINE
  5
D7E
330
A
100
AcDbEntity
  8
Features
  6
Continuous
100
AcDbLine
 10
-48.00567906612366
 20
13.30724490917789
 30
0.0
 11
-47.96000370088746
 21
13.35292027441409
 31
0.0
  0
LINE
  5
D7F
330
A
100
AcDbEntity
  8
Features
  6
Continuous
100
AcDbLine
 10
-47.96000370088746
 20
13.35292027441409
 30
0.0
 11
-47.77730223994276
 21
13.35292027441409
 31
0.0
  0
LINE
  5
D81
330
A
100
AcDbEntity
  8
Features
  6
Continuous
100
AcDbLine
 10
-48.00567906612366
 20
13.39859563965029
 30
0.0
 11
-47.96000370088746
 21
13.35292027441409
 31
0.0
  0
LINE
  5
D87
330
A
100
AcDbEntity
  8
Features
  6
Continuous
100
AcDbLine
 10
-47.77730223994276
 20
11.61725639543909
 30
0.0
 11
-47.68595150947036
 21
11.70860712591148
 31
0.0
  0
LINE
  5
D8B
330
A
100
AcDbEntity
  8
Features
  6
Continuous
100
AcDbLine
 10
-47.50325004852566
 20
11.75428249114769
 30
0.0
 11
-47.27487322234476
 21
11.89130858685619
 31
0.0
  0
LINE
  5
D8D
330
A
100
AcDbEntity
  8
Features
  6
Continuous
100
AcDbLine
 10
-47.45757468328946
 20
12.66778979587139
 30
0.0
 11
-47.36622395281706
 21
12.57643906539899
 31
0.0
  0
LINE
  5
D8E
330
A
100
AcDbEntity
  8
Features
  6
Continuous
100
AcDbLine
 10
-47.45757468328946
 20
12.66778979587139
 30
0.0
 11
-47.45757468328946
 21
12.71346516110749
 31
0.0
  0
LINE
  5
D8F
330
A
100
AcDbEntity
  8
Features
  6
Continuous
100
AcDbLine
 10
-47.45757468328946
 20
12.71346516110749
 30
0.0
 11
-47.41189931805326
 21
12.75914052634369
 31
0.0
  0
LINE
  5
D93
330
A
100
AcDbEntity
  8
Features
  6
Continuous
100
AcDbLine
 10
-47.27487322234476
 20
12.43941296969039
 30
0.0
 11
-47.18352249187236
 21
12.34806223921809
 31
0.0
  0
LINE
  5
D95
330
A
100
AcDbEntity
  8
Features
  6
Continuous
100
AcDbLine
 10
-47.13784712663616
 20
12.07401004780099
 30
0.0
 11
-47.13784712663616
 21
12.25671150874569
 31
0.0
  0
LINE
  5
D9A
330
A
100
AcDbEntity
  8
Features
  6
Continuous
100
AcDbLine
 10
-48.40257079696698
 20
12.98103132193059
 30
0.0
 11
-48.31122006649468
 21
13.02670668716679
 31
0.0
  0
LINE
  5
D9B
330
A
100
AcDbEntity
  8
Features
  6
Continuous
100
AcDbLine
 10
-48.40257079696698
 20
13.30075887858388
 30
0.0
 11
-48.35689543173078
 21
13.30075887858388
 31
0.0
  0
LINE
  5
D9D
330
A
100
AcDbEntity
  8
Features
  6
Continuous
100
AcDbLine
 10
-48.03716787507759
 20
12.98103132193059
 30
0.0
 11
-47.85446641413279
 21
12.88968059145819
 31
0.0
  0
LINE
  5
D9E
330
A
100
AcDbEntity
  8
Features
  6
Continuous
100
AcDbLine
 10
-47.85446641413279
 20
12.88968059145819
 30
0.0
 11
-47.71744031842428
 21
12.98103132193059
 31
0.0
  0
LINE
  5
D9F
330
A
100
AcDbEntity
  8
Features
  6
Continuous
100
AcDbLine
 10
-47.76311568366048
 20
13.02670668716679
 30
0.0
 11
-47.71744031842428
 21
12.98103132193059
 31
0.0
  0
LINE
  5
DA6
330
A
100
AcDbEntity
  8
Features
  6
Continuous
100
AcDbLine
 10
-47.83813163301452
 20
12.74746563236972
 30
0.0
 11
-47.79245626777832
 21
12.79314099760592
 31
0.0
  0
LINE
  5
DA7
330
A
100
AcDbEntity
  8
Features
  6
Continuous
100
AcDbLine
 10
-47.83813163301452
 20
12.74746563236972
 30
0.0
 11
-47.79245626777832
 21
12.70179026713352
 31
0.0
  0
LINE
  5
DA8
330
A
100
AcDbEntity
  8
Features
  6
Continuous
100
AcDbLine
 10
-47.83813163301452
 20
12.93016709331452
 30
0.0
 11
-47.79245626777832
 21
12.93016709331452
 31
0.0
  0
LINE
  5
DA9
330
A
100
AcDbEntity
  8
Features
  6
Continuous
100
AcDbLine
 10
-47.83813163301452
 20
13.02151782378682
 30
0.0
 11
-47.79245626777832
 21
13.02151782378682
 31
0.0
  0
LINE
  5
DAA
330
A
100
AcDbEntity
  8
Features
  6
Continuous
100
AcDbLine
 10
-53.26292523697991
 20
12.75005996679811
 30
0.0
 11
-53.21724987174371
 21
12.61303387108951
 31
0.0
  0
LINE
  5
DAB
330
A
100
AcDbEntity
  8
Features
  6
Continuous
100
AcDbLine
 10
-53.21724987174371
 20
12.61303387108951
 30
0.0
 11
-53.17157450650751
 21
12.56735850585341
 31
0.0
  0
LINE
  5
DAC
330
A
100
AcDbEntity
  8
Features
  6
Continuous
100
AcDbLine
 10
-53.17157450650751
 20
12.56735850585341
 30
0.0
 11
-53.12589914127131
 21
12.56735850585341
 31
0.0
  0
LINE
  5
DAD
330
A
100
AcDbEntity
  8
Features
  6
Continuous
100
AcDbLine
 10
-47.79245626777832
 20
12.56476417142502
 30
0.0
 11
-47.79245626777832
 21
12.61043953666122
 31
0.0
  0
LINE
  5
DAE
330
A
100
AcDbEntity
  8
Features
  6
Continuous
100
AcDbLine
 10
-47.56407944159742
 20
12.56476417142502
 30
0.0
 11
-47.56407944159742
 21
12.70179026713352
 31
0.0
  0
LINE
  5
DD2
330
A
100
AcDbEntity
  8
Features
  6
Continuous
100
AcDbLine
 10
-63.83513127537496
 20
12.58662888137093
 30
0.0
 11
-63.69810517966636
 21
12.67797961184323
 31
0.0
  0
LINE
  5
DD3
330
A
100
AcDbEntity
  8
Features
  6
Continuous
100
AcDbLine
 10
-63.69810517966636
 20
12.67797961184323
 30
0.0
 11
-63.65242981443026
 21
12.72365497707943
 31
0.0
  0
LINE
  5
DD4
330
A
100
AcDbEntity
  8
Features
  6
Continuous
100
AcDbLine
 10
-63.69810517966636
 20
12.67797961184323
 30
0.0
 11
-63.60675444919406
 21
12.58662888137093
 31
0.0
  0
LINE
  5
DDD
330
A
100
AcDbEntity
  8
Features
  6
Continuous
100
AcDbLine
 10
-63.51540371872166
 20
12.54095351613473
 30
0.0
 11
-63.42405298824926
 21
12.49527815089854
 31
0.0
  0
LINE
  5
DDE
330
A
100
AcDbEntity
  8
Features
  6
Continuous
100
AcDbLine
 10
-63.42405298824926
 20
12.49527815089854
 30
0.0
 11
-63.37837762301317
 21
12.54095351613473
 31
0.0
  0
LINE
  5
DDF
330
A
100
AcDbEntity
  8
Features
  6
Continuous
100
AcDbLine
 10
-63.37837762301317
 20
12.54095351613473
 30
0.0
 11
-63.37837762301317
 21
12.63230424660703
 31
0.0
  0
LINE
  5
DE0
330
A
100
AcDbEntity
  8
Features
  6
Continuous
100
AcDbLine
 10
-63.46972835348546
 20
12.76933034231563
 30
0.0
 11
-63.46972835348546
 21
12.81500570755183
 31
0.0
  0
LINE
  5
E39
330
A
100
AcDbEntity
  8
stripped_area
 48
0.1
100
AcDbLine
 10
-73.7039908742388
 20
6.280534429135527
 30
0.0
 11
-24.20200822445053
 21
6.66102380550178
 31
0.0
  0
SPLINE
  5
E43
330
A
100
AcDbEntity
  8
Features
  6
Continuous
100
AcDbSpline
210
0.0
220
0.0
230
1.0
 70
  1064
 71
     3
 72
    14
 73
    10
 74
     8
 42
0.000000001
 43
0.0000000001
 44
0.0000000001
 40
0.0
 40
0.0
 40
0.0
 40
0.0
 40
0.4892927320209232
 40
0.7635746812237034
 40
1.162148437254097
 40
1.644109507027927
 40
2.109415103339668
 40
2.448298949740686
 40
2.664333284025125
 40
2.664333284025125
 40
2.664333284025125
 40
2.664333284025125
 10
-37.38394906970069
 20
16.38514121391722
 30
0.0
 10
-37.43391113037087
 20
16.23211342531446
 30
0.0
 10
-37.51188033377993
 20
15.99330312372239
 30
0.0
 10
-37.5964889088701
 20
15.59446179205416
 30
0.0
 10
-38.00079756433361
 20
15.42176018965474
 30
0.0
 10
-38.4614255157436
 20
15.49715032554453
 30
0.0
 10
-38.79603761922726
 20
15.79750185132491
 30
0.0
 10
-38.94706131034209
 20
16.10849063091116
 30
0.0
 10
-38.98095585751196
 20
16.29075332248262
 30
0.0
 10
-38.99415129098048
 20
16.36170972760507
 30
0.0
 11
-37.38394906970069
 21
16.38514121391722
 31
0.0
 11
-37.52464642258508
 21
15.91651382195232
 31
0.0
 11
-37.61844465784134
 21
15.6587688341809
 31
0.0
 11
-37.97018763140937
 21
15.47131772177639
 31
0.0
 11
-38.44699491865248
 21
15.54161198618968
 31
0.0
 11
-38.79873830086336
 21
15.84621975206224
 31
0.0
 11
-38.94725217335241
 21
16.15082751793477
 31
0.0
 11
-38.99415129098048
 21
16.36170972760507
 31
0.0
  0
SPLINE
  5
E44
330
A
100
AcDbEntity
  8
Features
  6
Continuous
100
AcDbSpline
210
0.0
220
0.0
230
1.0
 70
  1064
 71
     3
 72
    13
 73
     9
 74
     7
 42
0.000000001
 43
0.0000000001
 44
0.0000000001
 40
0.0
 40
0.0
 40
0.0
 40
0.0
 40
0.8316991097440066
 40
1.825221359748643
 40
2.839090633154843
 40
3.490739029383931
 40
3.881140576505475
 40
4.053680376493336
 40
4.053680376493336
 40
4.053680376493336
 40
4.053680376493336
 10
-41.76119759646826
 20
16.33827843581611
 30
0.0
 10
-41.78999830931006
 20
16.03903084139957
 30
0.0
 10
-41.85320347045422
 20
15.38231124799929
 30
0.0
 10
-42.88527043425828
 20
15.05948937896157
 30
0.0
 10
-43.85775362507611
 20
15.11325401705407
 30
0.0
 10
-44.24072184090736
 20
15.72477765426012
 30
0.0
 10
-44.43337856024806
 20
16.10000994934455
 30
0.0
 10
-44.40428129226113
 20
16.28836016623028
 30
0.0
 10
-44.39536306867632
 20
16.34608893125349
 30
0.0
 11
-41.76119759646826
 21
16.33827843581611
 31
0.0
 11
-41.97224321715197
 21
15.5338014907523
 31
0.0
 11
-42.87895908265278
 21
15.12765767324009
 31
0.0
 11
-43.87947318340986
 21
15.29167729933246
 31
0.0
 11
-44.27811527460602
 21
15.80716746939848
 31
0.0
 11
-44.41099610788569
 21
16.17425880972374
 31
0.0
 11
-44.39536306867632
 21
16.34608893125349
 31
0.0
  0
MTEXT
  5
E66
330
A
100
AcDbEntity
  8
TEXT
  6
Continuous
100
AcDbMText
 10
-36.37533194447707
 20
2.853894013005743
 30
372.3034892264313
 40
1.0
 41
5.266
 46
0.0
 71
     1
 72
     5
  1
{\fTahoma|b0|i0|c0|p34;30m}
 73
     1
 44
1.0
  0
LINE
  5
E67
330
A
100
AcDbEntity
  8
TEXT
  6
Continuous
100
AcDbLine
 10
-66.06157276096593
 20
0.6028346838685366
 30
372.3034892264313
 11
-36.06157276096592
 21
0.6028346838685366
 31
372.3034892264313
  0
LINE
  5
E68
330
A
100
AcDbEntity
  8
TEXT
  6
Continuous
100
AcDbLine
 10
-66.06157276096593
 20
0.6028346838685366
 30
372.3034892264313
 11
-66.06157276096593
 21
1.602834683868537
 31
372.3034892264313
  0
LINE
  5
E6B
330
A
100
AcDbEntity
  8
TEXT
  6
Continuous
100
AcDbLine
 10
-36.06157276096593
 20
0.6028346838685366
 30
372.3034892264313
 11
-36.06157276096593
 21
1.602834683868537
 31
372.3034892264313
  0
LINE
  5
E6C
330
A
100
AcDbEntity
  8
TEXT
  6
Continuous
100
AcDbLine
 10
-46.06157276096593
 20
0.6028346838685366
 30
372.3034892264313
 11
-46.06157276096593
 21
1.602834683868537
 31
372.3034892264313
  0
LINE
  5
E6D
330
A
100
AcDbEntity
  8
TEXT
  6
Continuous
100
AcDbLine
 10
-56.06157276096593
 20
0.6028346838685366
 30
372.3034892264313
 11
-56.06157276096593
 21
1.602834683868537
 31
372.3034892264313
  0
MTEXT
  5
E6E
330
A
100
AcDbEntity
  8
TEXT
  6
Continuous
100
AcDbMText
 10
-66.37533194447707
 20
2.853894013005743
 30
372.3034892264313
 40
1.0
 41
5.266
 46
0.0
 71
     1
 72
     5
  1
{\fTahoma|b0|i0|c0|p34;0}
 73
     1
 44
1.0
  0
LWPOLYLINE
  5
E7D
330
A
100
AcDbEntity
  8
TEXT
  6
Continuous
 62
     8
100
AcDbPolyline
 90
        4
 70
     1
 43
0.0
 10
-73.7039908742388
 20
33.77397122346436
 10
-24.20200822445054
 20
33.77397122346436
 10
-24.20200822445054
 20
-1.885300813928851
 10
-73.7039908742388
 20
-1.885300813928851
  0
ENDSEC
  0
SECTION
  2
OBJECTS
  0
DICTIONARY
  5
19
330
0
100
AcDbDictionary
281
     1
  3
ACAD_COLOR
350
805
  3
ACAD_DETAILVIEWSTYLE
350
F01
  3
ACAD_GROUP
350
1A
  3
ACAD_LAYOUT
350
80A
  3
ACAD_MATERIAL
350
7F0
  3
ACAD_MLEADERSTYLE
350
EC4
  3
ACAD_MLINESTYLE
350
1B
  3
ACAD_PLOTSETTINGS
350
809
  3
ACAD_PLOTSTYLENAME
350
7EE
  3
ACAD_SCALELIST
350
E98
  3
ACAD_SECTIONVIEWSTYLE
350
F02
  3
ACAD_TABLESTYLE
350
806
  3
ACAD_VISUALSTYLE
350
7F4
  3
ACDB_RECOMPOSE_DATA
350
EFD
  3
AcDbVariableDictionary
350
8EF
  3
ASE_INDEX_DICTIONARY
350
E7E
  0
DICTIONARY
  5
81A
330
2
100
AcDbDictionary
280
     1
281
     1
  3
ACAD_LAYERFILTERS
360
E70
  3
ACAD_LAYERSTATES
360
81B
  3
ACLYDICTIONARY
360
E6F
  0
DICTIONARY
  5
E3A
330
A
100
AcDbDictionary
280
     1
281
     1
  3
ACAD_SORTENTS
360
E3B
  0
DICTIONARY
  5
805
102
{ACAD_REACTORS
330
19
102
}
330
19
100
AcDbDictionary
281
     1
  0
DICTIONARY
  5
F01
102
{ACAD_REACTORS
330
19
102
}
330
19
100
AcDbDictionary
281
     1
  0
DICTIONARY
  5
1A
102
{ACAD_REACTORS
330
19
102
}
330
19
100
AcDbDictionary
281
     1
  0
DICTIONARY
  5
80A
102
{ACAD_REACTORS
330
19
102
}
330
19
100
AcDbDictionary
281
     1
  3
Layout1
350
80C
  3
Model
350
80B
  0
DICTIONARY
  5
7F0
102
{ACAD_REACTORS
330
19
102
}
330
19
100
AcDbDictionary
281
     1
  3
ByBlock
350
7F2
  3
ByLayer
350
7F1
  3
Global
350
7F3
  0
DICTIONARY
  5
EC4
102
{ACAD_REACTORS
330
19
102
}
330
19
100
AcDbDictionary
281
     1
  3
Standard
350
EC5
  0
DICTIONARY
  5
1B
102
{ACAD_REACTORS
330
19
102
}
330
19
100
AcDbDictionary
281
     1
  3
STANDARD
350
1C
  0
DICTIONARY
  5
809
102
{ACAD_REACTORS
330
19
102
}
330
19
100
AcDbDictionary
281
     1
  0
ACDBDICTIONARYWDFLT
  5
7EE
102
{ACAD_REACTORS
330
19
102
}
330
19
100
AcDbDictionary
281
     1
  3
Normal
350
7EF
100
AcDbDictionaryWithDefault
340
7EF
  0
DICTIONARY
  5
E98
102
{ACAD_REACTORS
330
19
102
}
330
19
100
AcDbDictionary
281
     1
  3
A0
350
E99
  3
A1
350
E9A
  3
A2
350
E9B
  3
A3
350
E9C
  3
A4
350
E9D
  3
A5
350
E9E
  3
A6
350
E9F
  3
A7
350
EA0
  3
A8
350
EA1
  3
A9
350
EA2
  3
B0
350
EA3
  3
B1
350
EA4
  3
B2
350
EA5
  3
B3
350
EA6
  3
B4
350
EA7
  3
B5
350
EA8
  3
B6
350
EA9
  3
B7
350
EAA
  3
B8
350
EAB
  3
B9
350
EAC
  3
C0
350
EAD
  3
C1
350
EAE
  3
C2
350
EAF
  3
C3
350
EB0
  3
C4
350
EB1
  3
C5
350
EB2
  3
C6
350
EB3
  3
C7
350
EB4
  3
C8
350
EB5
  3
C9
350
EB6
  3
D0
350
EB7
  3
D1
350
EB8
  3
D2
350
EB9
  0
DICTIONARY
  5
F02
102
{ACAD_REACTORS
330
19
102
}
330
19
100
AcDbDictionary
281
     1
  0
DICTIONARY
  5
806
102
{ACAD_REACTORS
330
19
102
}
330
19
100
AcDbDictionary
281
     1
  3
Standard
350
807
  0
DICTIONARY
  5
7F4
102
{ACAD_REACTORS
330
19
102
}
330
19
100
AcDbDictionary
281
     1
  3
2dWireframe
350
7FA
  3
3D Hidden
350
7FC
  3
3dWireframe
350
7FB
  3
Basic
350
7F9
  3
Brighten
350
800
  3
ColorChange
350
804
  3
Conceptual
350
7FD
  3
Dim
350
7FF
  3
EdgeColorOff
350
EBE
  3
Facepattern
350
803
  3
Flat
350
7F5
  3
FlatWithEdges
350
7F6
  3
Gouraud
350
7F7
  3
GouraudWithEdges
350
7F8
  3
Hidden
350
EBB
  3
JitterOff
350
EBC
  3
Linepattern
350
802
  3
OverhangOff
350
EBD
  3
Realistic
350
7FE
  3
Shaded
350
EC3
  3
Shaded with edges
350
EC2
  3
Shades of Gray
350
EBF
  3
Sketchy
350
EC0
  3
Thicken
350
801
  3
Wireframe
350
EBA
  3
X-Ray
350
EC1
  0
XRECORD
  5
EFD
102
{ACAD_REACTORS
330
19
102
}
330
19
100
AcDbXrecord
280
     1
 90
        1
330
807
  0
DICTIONARY
  5
8EF
102
{ACAD_REACTORS
330
19
102
}
330
19
100
AcDbDictionary
281
     1
  3
CANNOSCALE
350
EC6
  3
CMLEADERSTYLE
350
EFE
  3
CTABLESTYLE
350
8F0
  3
MSLTSCALE
350
EFF
  3
XCLIPFRAME
350
F00
  0
DICTIONARY
  5
E7E
102
{ACAD_REACTORS
330
19
102
}
330
19
100
AcDbDictionary
281
     1
  3
ASEBlockHierarchyIndexRecord
350
E7F
1001
DCO15
1040
1699428016.836
  0
DICTIONARY
  5
E70
102
{ACAD_REACTORS
330
81A
102
}
330
81A
100
AcDbDictionary
281
     1
  0
DICTIONARY
  5
81B
102
{ACAD_REACTORS
330
81A
102
}
330
81A
100
AcDbDictionary
281
     1
  0
DICTIONARY
  5
E6F
102
{ACAD_REACTORS
330
81A
102
}
330
81A
100
AcDbDictionary
281
     1
1001
ACAD
1000
<All
  0
SORTENTSTABLE
  5
E3B
102
{ACAD_REACTORS
330
E3A
102
}
330
E3A
100
AcDbSortentsTable
330
A
331
0
  5
8A4
331
8C5
  5
8C5
331
8C6
  5
8C6
331
8C7
  5
8C7
331
8C8
  5
8C8
331
8C9
  5
8C9
331
8F1
  5
8F1
331
8F8
  5
8F8
331
8FC
  5
8FC
331
8FD
  5
8FD
331
8FE
  5
8FE
331
8FF
  5
8FF
331
900
  5
900
331
901
  5
901
331
902
  5
902
331
903
  5
903
331
904
  5
904
331
905
  5
905
331
906
  5
906
331
907
  5
907
331
908
  5
908
331
909
  5
909
331
90A
  5
90A
331
90B
  5
90B
331
90C
  5
90C
331
90D
  5
90D
331
90E
  5
90E
331
90F
  5
90F
331
910
  5
910
331
911
  5
911
331
912
  5
912
331
913
  5
913
331
914
  5
914
331
916
  5
916
331
917
  5
917
331
918
  5
918
331
919
  5
919
331
91A
  5
91A
331
91B
  5
91B
331
91C
  5
91C
331
91D
  5
91D
331
91E
  5
91E
331
91F
  5
91F
331
920
  5
920
331
921
  5
921
331
924
  5
924
331
925
  5
925
331
926
  5
926
331
927
  5
927
331
928
  5
928
331
929
  5
929
331
92A
  5
92A
331
92B
  5
92B
331
92C
  5
92C
331
92D
  5
92D
331
92E
  5
92E
331
92F
  5
92F
331
930
  5
930
331
931
  5
931
331
932
  5
932
331
933
  5
933
331
936
  5
936
331
937
  5
937
331
938
  5
938
331
939
  5
939
331
93A
  5
93A
331
93B
  5
93B
331
93C
  5
93C
331
93D
  5
93D
331
93E
  5
93E
331
93F
  5
93F
331
940
  5
940
331
941
  5
941
331
942
  5
942
331
943
  5
943
331
944
  5
944
331
945
  5
945
331
946
  5
946
331
947
  5
947
331
948
  5
948
331
949
  5
949
331
94A
  5
94A
331
94B
  5
94B
331
94C
  5
94C
331
94D
  5
94D
331
94E
  5
94E
331
94F
  5
94F
331
950
  5
950
331
951
  5
951
331
952
  5
952
331
953
  5
953
331
954
  5
954
331
955
  5
955
331
956
  5
956
331
957
  5
957
331
958
  5
958
331
959
  5
959
331
95A
  5
95A
331
95B
  5
95B
331
95C
  5
95C
331
95D
  5
95D
331
95E
  5
95E
331
95F
  5
95F
331
960
  5
960
331
961
  5
961
331
962
  5
962
331
963
  5
963
331
964
  5
964
331
965
  5
965
331
966
  5
966
331
967
  5
967
331
968
  5
968
331
969
  5
969
331
96A
  5
96A
331
96B
  5
96B
331
96C
  5
96C
331
96D
  5
96D
331
96E
  5
96E
331
96F
  5
96F
331
970
  5
970
331
971
  5
971
331
972
  5
972
331
973
  5
973
331
974
  5
974
331
975
  5
975
331
976
  5
976
331
977
  5
977
331
978
  5
978
331
979
  5
979
331
97A
  5
97A
331
97B
  5
97B
331
97C
  5
97C
331
97D
  5
97D
331
97E
  5
97E
331
97F
  5
97F
331
980
  5
980
331
981
  5
981
331
982
  5
982
331
983
  5
983
331
984
  5
984
331
985
  5
985
331
986
  5
986
331
987
  5
987
331
988
  5
988
331
989
  5
989
331
98A
  5
98A
331
98B
  5
98B
331
98C
  5
98C
331
98E
  5
98E
331
98F
  5
98F
331
990
  5
990
331
991
  5
991
331
992
  5
992
331
993
  5
993
331
994
  5
994
331
995
  5
995
331
997
  5
997
331
998
  5
998
331
999
  5
999
331
99A
  5
99A
331
99B
  5
99B
331
99C
  5
99C
331
99D
  5
99D
331
99E
  5
99E
331
99F
  5
99F
331
9A0
  5
9A0
331
9A1
  5
9A1
331
9A2
  5
9A2
331
9A3
  5
9A3
331
9A4
  5
9A4
331
9A5
  5
9A5
331
9A6
  5
9A6
331
9A7
  5
9A7
331
9A8
  5
9A8
331
9A9
  5
9A9
331
9AA
  5
9AA
331
9AB
  5
9AB
331
9AC
  5
9AC
331
9AD
  5
9AD
331
9AE
  5
9AE
331
9AF
  5
9AF
331
9B0
  5
9B0
331
9B1
  5
9B1
331
9B2
  5
9B2
331
9B3
  5
9B3
331
9B4
  5
9B4
331
9B5
  5
9B5
331
9B6
  5
9B6
331
9B7
  5
9B7
331
9B8
  5
9B8
331
9B9
  5
9B9
331
9BA
  5
9BA
331
9BB
  5
9BB
331
9BC
  5
9BC
331
9BD
  5
9BD
331
9BE
  5
9BE
331
9BF
  5
9BF
331
9C0
  5
9C0
331
9C1
  5
9C1
331
9C2
  5
9C2
331
9C3
  5
9C3
331
9C4
  5
9C4
331
9C5
  5
9C5
331
9C6
  5
9C6
331
9C7
  5
9C7
331
9C8
  5
9C8
331
9C9
  5
9C9
331
9CA
  5
9CA
331
9CB
  5
9CB
331
9CC
  5
9CC
331
9CD
  5
9CD
331
9CE
  5
9CE
331
9CF
  5
9CF
331
9D0
  5
9D0
331
9D1
  5
9D1
331
9D2
  5
9D2
331
9D3
  5
9D3
331
9D4
  5
9D4
331
9D5
  5
9D5
331
9D6
  5
9D6
331
9D7
  5
9D7
331
9D8
  5
9D8
331
9D9
  5
9D9
331
9DA
  5
9DA
331
9DB
  5
9DB
331
9DC
  5
9DC
331
9DE
  5
9DE
331
9DF
  5
9DF
331
9E0
  5
9E0
331
9E1
  5
9E1
331
9E2
  5
9E2
331
9E3
  5
9E3
331
9E4
  5
9E4
331
9E5
  5
9E5
331
9E6
  5
9E6
331
9E7
  5
9E7
331
9E8
  5
9E8
331
9E9
  5
9E9
331
9EA
  5
9EA
331
9EB
  5
9EB
331
9EC
  5
9EC
331
9ED
  5
9ED
331
9EF
  5
9EF
331
9F0
  5
9F0
331
9F1
  5
9F1
331
9F2
  5
9F2
331
9F3
  5
9F3
331
9F8
  5
9F8
331
9F9
  5
9F9
331
9FA
  5
9FA
331
A03
  5
A03
331
A0B
  5
A0B
331
A0C
  5
A0C
331
A0D
  5
A0D
331
A0E
  5
A0E
331
A0F
  5
A0F
331
A10
  5
A10
331
A11
  5
A11
331
A12
  5
A12
331
A13
  5
A13
331
A14
  5
A14
331
A18
  5
A18
331
A19
  5
A19
331
A1B
  5
A1B
331
A1C
  5
A1C
331
A1D
  5
A1D
331
A1F
  5
A1F
331
A20
  5
A20
331
A21
  5
A21
331
A22
  5
A22
331
A23
  5
A23
331
A24
  5
A24
331
A25
  5
A25
331
A26
  5
A26
331
A27
  5
A27
331
A2B
  5
A2B
331
A2C
  5
A2C
331
A2D
  5
A2D
331
A2E
  5
A2E
331
A2F
  5
A2F
331
A30
  5
A30
331
A31
  5
A31
331
A33
  5
A33
331
A34
  5
A34
331
A36
  5
A36
331
A37
  5
A37
331
A38
  5
A38
331
A39
  5
A39
331
A3A
  5
A3A
331
A3B
  5
A3B
331
A3C
  5
A3C
331
A3D
  5
A3D
331
A3E
  5
A3E
331
A3F
  5
A3F
331
A40
  5
A40
331
A41
  5
A41
331
A42
  5
A42
331
A43
  5
A43
331
A44
  5
A44
331
A47
  5
A47
331
A4A
  5
A4A
331
A4B
  5
A4B
331
A4C
  5
A4C
331
A4D
  5
A4D
331
A4E
  5
A4E
331
A4F
  5
A4F
331
A54
  5
A54
331
A55
  5
A55
331
A56
  5
A56
331
A57
  5
A57
331
A58
  5
A58
331
A59
  5
A59
331
A5C
  5
A5C
331
A5E
  5
A5E
331
A5F
  5
A5F
331
A60
  5
A60
331
A61
  5
A61
331
A62
  5
A62
331
A63
  5
A63
331
A64
  5
A64
331
A65
  5
A65
331
A66
  5
A66
331
A67
  5
A67
331
A68
  5
A68
331
A69
  5
A69
331
A6A
  5
A6A
331
A6B
  5
A6B
331
A6C
  5
A6C
331
A6D
  5
A6D
331
A6E
  5
A6E
331
A77
  5
A77
331
A78
  5
A78
331
A79
  5
A79
331
A7A
  5
A7A
331
A7B
  5
A7B
331
A7C
  5
A7C
331
A7D
  5
A7D
331
A7E
  5
A7E
331
A7F
  5
A7F
331
A80
  5
A80
331
A81
  5
A81
331
A82
  5
A82
331
A83
  5
A83
331
A84
  5
A84
331
A85
  5
A85
331
A86
  5
A86
331
A87
  5
A87
331
A88
  5
A88
331
A89
  5
A89
331
A8A
  5
A8A
331
A8B
  5
A8B
331
A8C
  5
A8C
331
A8D
  5
A8D
331
A8E
  5
A8E
331
A8F
  5
A8F
331
A91
  5
A91
331
A92
  5
A92
331
A93
  5
A93
331
A94
  5
A94
331
A95
  5
A95
331
A96
  5
A96
331
A99
  5
A99
331
A9A
  5
A9A
331
A9B
  5
A9B
331
A9C
  5
A9C
331
A9D
  5
A9D
331
A9E
  5
A9E
331
A9F
  5
A9F
331
AA0
  5
AA0
331
AA1
  5
AA1
331
AA2
  5
AA2
331
AA3
  5
AA3
331
AA4
  5
AA4
331
AA5
  5
AA5
331
AA6
  5
AA6
331
AA7
  5
AA7
331
AA8
  5
AA8
331
AA9
  5
AA9
331
AAA
  5
AAA
331
AAB
  5
AAB
331
AAC
  5
AAC
331
AAD
  5
AAD
331
AAE
  5
AAE
331
AAF
  5
AAF
331
AB1
  5
AB1
331
AB5
  5
AB5
331
AB6
  5
AB6
331
AB7
  5
AB7
331
AB8
  5
AB8
331
ABA
  5
ABA
331
ABB
  5
ABB
331
ABC
  5
ABC
331
ABD
  5
ABD
331
ABE
  5
ABE
331
ABF
  5
ABF
331
AC0
  5
AC0
331
AC1
  5
AC1
331
AC2
  5
AC2
331
AC3
  5
AC3
331
AC5
  5
AC5
331
AC6
  5
AC6
331
AC7
  5
AC7
331
AC8
  5
AC8
331
AC9
  5
AC9
331
ACA
  5
ACA
331
ACB
  5
ACB
331
ACC
  5
ACC
331
ACE
  5
ACE
331
ACF
  5
ACF
331
AD0
  5
AD0
331
AD1
  5
AD1
331
AD2
  5
AD2
331
AD3
  5
AD3
331
AD4
  5
AD4
331
AD5
  5
AD5
331
AD6
  5
AD6
331
AD7
  5
AD7
331
AD8
  5
AD8
331
AD9
  5
AD9
331
ADA
  5
ADA
331
ADB
  5
ADB
331
ADC
  5
ADC
331
ADD
  5
ADD
331
ADE
  5
ADE
331
ADF
  5
ADF
331
AE0
  5
AE0
331
AE1
  5
AE1
331
AE2
  5
AE2
331
AE3
  5
AE3
331
AE4
  5
AE4
331
AE5
  5
AE5
331
AE6
  5
AE6
331
AE7
  5
AE7
331
AE8
  5
AE8
331
AE9
  5
AE9
331
AEA
  5
AEA
331
AEB
  5
AEB
331
AEC
  5
AEC
331
AED
  5
AED
331
AEE
  5
AEE
331
AF0
  5
AF0
331
AF1
  5
AF1
331
AF2
  5
AF2
331
AF3
  5
AF3
331
AF4
  5
AF4
331
AF5
  5
AF5
331
AF6
  5
AF6
331
AF7
  5
AF7
331
AF8
  5
AF8
331
AF9
  5
AF9
331
AFA
  5
AFA
331
AFB
  5
AFB
331
AFC
  5
AFC
331
AFD
  5
AFD
331
AFE
  5
AFE
331
AFF
  5
AFF
331
B00
  5
B00
331
B01
  5
B01
331
B02
  5
B02
331
B03
  5
B03
331
B04
  5
B04
331
B06
  5
B06
331
B07
  5
B07
331
B08
  5
B08
331
B09
  5
B09
331
B0A
  5
B0A
331
B0B
  5
B0B
331
B0C
  5
B0C
331
B0D
  5
B0D
331
B0E
  5
B0E
331
B0F
  5
B0F
331
B10
  5
B10
331
B11
  5
B11
331
B12
  5
B12
331
B13
  5
B13
331
B14
  5
B14
331
B15
  5
B15
331
B16
  5
B16
331
B17
  5
B17
331
B18
  5
B18
331
B19
  5
B19
331
B1A
  5
B1A
331
B1B
  5
B1B
331
B1C
  5
B1C
331
B1D
  5
B1D
331
B1E
  5
B1E
331
B1F
  5
B1F
331
B20
  5
B20
331
B21
  5
B21
331
B22
  5
B22
331
B23
  5
B23
331
B25
  5
B25
331
B26
  5
B26
331
B27
  5
B27
331
B28
  5
B28
331
B29
  5
B29
331
B2A
  5
B2A
331
B2B
  5
B2B
331
B2C
  5
B2C
331
B2D
  5
B2D
331
B2E
  5
B2E
331
B2F
  5
B2F
331
B30
  5
B30
331
B31
  5
B31
331
B32
  5
B32
331
B33
  5
B33
331
B34
  5
B34
331
B35
  5
B35
331
B36
  5
B36
331
B37
  5
B37
331
B38
  5
B38
331
B3A
  5
B3A
331
B3B
  5
B3B
331
B3C
  5
B3C
331
B3D
  5
B3D
331
B3E
  5
B3E
331
B3F
  5
B3F
331
B40
  5
B40
331
B44
  5
B44
331
B45
  5
B45
331
B46
  5
B46
331
B47
  5
B47
331
B48
  5
B48
331
B49
  5
B49
331
B4A
  5
B4A
331
B4B
  5
B4B
331
B4C
  5
B4C
331
B4D
  5
B4D
331
B4E
  5
B4E
331
B4F
  5
B4F
331
B50
  5
B50
331
B51
  5
B51
331
B52
  5
B52
331
B53
  5
B53
331
B54
  5
B54
331
B55
  5
B55
331
B56
  5
B56
331
B57
  5
B57
331
B58
  5
B58
331
B59
  5
B59
331
B5A
  5
B5A
331
B5C
  5
B5C
331
B5D
  5
B5D
331
B5E
  5
B5E
331
B5F
  5
B5F
331
B60
  5
B60
331
B61
  5
B61
331
B62
  5
B62
331
B63
  5
B63
331
B64
  5
B64
331
B65
  5
B65
331
B66
  5
B66
331
B67
  5
B67
331
B68
  5
B68
331
B69
  5
B69
331
B6A
  5
B6A
331
B6B
  5
B6B
331
B6D
  5
B6D
331
B6E
  5
B6E
331
B6F
  5
B6F
331
B70
  5
B70
331
B71
  5
B71
331
B72
  5
B72
331
B7C
  5
B7C
331
B7D
  5
B7D
331
B7E
  5
B7E
331
B7F
  5
B7F
331
B80
  5
B80
331
B81
  5
B81
331
B82
  5
B82
331
B83
  5
B83
331
B84
  5
B84
331
B85
  5
B85
331
B86
  5
B86
331
B87
  5
B87
331
B8A
  5
B8A
331
B8E
  5
B8E
331
B8F
  5
B8F
331
B90
  5
B90
331
B91
  5
B91
331
B92
  5
B92
331
B93
  5
B93
331
B94
  5
B94
331
B95
  5
B95
331
B96
  5
B96
331
B97
  5
B97
331
B98
  5
B98
331
B99
  5
B99
331
B9A
  5
B9A
331
B9B
  5
B9B
331
B9D
  5
B9D
331
B9E
  5
B9E
331
BA0
  5
BA0
331
BA1
  5
BA1
331
BA2
  5
BA2
331
BA3
  5
BA3
331
BA4
  5
BA4
331
BA5
  5
BA5
331
BA6
  5
BA6
331
BA7
  5
BA7
331
BA8
  5
BA8
331
BA9
  5
BA9
331
BAA
  5
BAA
331
BAB
  5
BAB
331
BAC
  5
BAC
331
BAD
  5
BAD
331
BAF
  5
BAF
331
BB0
  5
BB0
331
BB1
  5
BB1
331
BB2
  5
BB2
331
BB3
  5
BB3
331
BB4
  5
BB4
331
BB5
  5
BB5
331
BB6
  5
BB6
331
BB8
  5
BB8
331
BB9
  5
BB9
331
BBA
  5
BBA
331
BBB
  5
BBB
331
BBC
  5
BBC
331
BBE
  5
BBE
331
BBF
  5
BBF
331
BC3
  5
BC3
331
BC4
  5
BC4
331
BC5
  5
BC5
331
BC6
  5
BC6
331
BC7
  5
BC7
331
BC8
  5
BC8
331
BC9
  5
BC9
331
BCA
  5
BCA
331
BCB
  5
BCB
331
BCC
  5
BCC
331
BCD
  5
BCD
331
BCE
  5
BCE
331
BCF
  5
BCF
331
BD0
  5
BD0
331
BD1
  5
BD1
331
BD2
  5
BD2
331
BD3
  5
BD3
331
BD4
  5
BD4
331
BD5
  5
BD5
331
BD6
  5
BD6
331
BD7
  5
BD7
331
BD8
  5
BD8
331
BD9
  5
BD9
331
BDA
  5
BDA
331
BDB
  5
BDB
331
BDC
  5
BDC
331
BDD
  5
BDD
331
BDF
  5
BDF
331
BE0
  5
BE0
331
BE1
  5
BE1
331
BE2
  5
BE2
331
BE3
  5
BE3
331
BE4
  5
BE4
331
BE5
  5
BE5
331
BE6
  5
BE6
331
BE7
  5
BE7
331
BE8
  5
BE8
331
BE9
  5
BE9
331
BEA
  5
BEA
331
BED
  5
BED
331
BEE
  5
BEE
331
BEF
  5
BEF
331
BF0
  5
BF0
331
BF1
  5
BF1
331
BF2
  5
BF2
331
BF3
  5
BF3
331
BF4
  5
BF4
331
BF5
  5
BF5
331
BF6
  5
BF6
331
BF7
  5
BF7
331
BF8
  5
BF8
331
BF9
  5
BF9
331
BFA
  5
BFA
331
BFB
  5
BFB
331
BFC
  5
BFC
331
BFF
  5
BFF
331
C00
  5
C00
331
C01
  5
C01
331
C02
  5
C02
331
C03
  5
C03
331
C04
  5
C04
331
C05
  5
C05
331
C06
  5
C06
331
C07
  5
C07
331
C08
  5
C08
331
C09
  5
C09
331
C0A
  5
C0A
331
C0B
  5
C0B
331
C0C
  5
C0C
331
C0D
  5
C0D
331
C0E
  5
C0E
331
C0F
  5
C0F
331
C10
  5
C10
331
C11
  5
C11
331
C12
  5
C12
331
C13
  5
C13
331
C14
  5
C14
331
C15
  5
C15
331
C16
  5
C16
331
C17
  5
C17
331
C18
  5
C18
331
C19
  5
C19
331
C1A
  5
C1A
331
C1B
  5
C1B
331
C1C
  5
C1C
331
C1D
  5
C1D
331
C1E
  5
C1E
331
C1F
  5
C1F
331
C20
  5
C20
331
C21
  5
C21
331
C22
  5
C22
331
C23
  5
C23
331
C24
  5
C24
331
C25
  5
C25
331
C26
  5
C26
331
C27
  5
C27
331
C28
  5
C28
331
C29
  5
C29
331
C2A
  5
C2A
331
C2B
  5
C2B
331
C2C
  5
C2C
331
C2D
  5
C2D
331
C2E
  5
C2E
331
C2F
  5
C2F
331
C30
  5
C30
331
C31
  5
C31
331
C32
  5
C32
331
C33
  5
C33
331
C34
  5
C34
331
C35
  5
C35
331
C36
  5
C36
331
C37
  5
C37
331
C38
  5
C38
331
C39
  5
C39
331
C3A
  5
C3A
331
C3B
  5
C3B
331
C3C
  5
C3C
331
C3D
  5
C3D
331
C3E
  5
C3E
331
C3F
  5
C3F
331
C40
  5
C40
331
C41
  5
C41
331
C42
  5
C42
331
C43
  5
C43
331
C44
  5
C44
331
C45
  5
C45
331
C46
  5
C46
331
C47
  5
C47
331
C48
  5
C48
331
C49
  5
C49
331
C4A
  5
C4A
331
C4B
  5
C4B
331
C4C
  5
C4C
331
C4D
  5
C4D
331
C4E
  5
C4E
331
C4F
  5
C4F
331
C50
  5
C50
331
C51
  5
C51
331
C52
  5
C52
331
C53
  5
C53
331
C54
  5
C54
331
C55
  5
C55
331
C57
  5
C57
331
C58
  5
C58
331
C59
  5
C59
331
C5A
  5
C5A
331
C5B
  5
C5B
331
C5C
  5
C5C
331
C5D
  5
C5D
331
C5E
  5
C5E
331
C60
  5
C60
331
C61
  5
C61
331
C62
  5
C62
331
C63
  5
C63
331
C64
  5
C64
331
C65
  5
C65
331
C66
  5
C66
331
C67
  5
C67
331
C68
  5
C68
331
C69
  5
C69
331
C6A
  5
C6A
331
C6B
  5
C6B
331
C6C
  5
C6C
331
C6D
  5
C6D
331
C6E
  5
C6E
331
C6F
  5
C6F
331
C70
  5
C70
331
C71
  5
C71
331
C72
  5
C72
331
C73
  5
C73
331
C74
  5
C74
331
C75
  5
C75
331
C76
  5
C76
331
C77
  5
C77
331
C78
  5
C78
331
C79
  5
C79
331
C7A
  5
C7A
331
C7B
  5
C7B
331
C7C
  5
C7C
331
C7D
  5
C7D
331
C7E
  5
C7E
331
C7F
  5
C7F
331
C80
  5
C80
331
C81
  5
C81
331
C82
  5
C82
331
C83
  5
C83
331
C84
  5
C84
331
C85
  5
C85
331
C86
  5
C86
331
C87
  5
C87
331
C88
  5
C88
331
C89
  5
C89
331
C8A
  5
C8A
331
C8B
  5
C8B
331
C8C
  5
C8C
331
C8D
  5
C8D
331
C8E
  5
C8E
331
C8F
  5
C8F
331
C90
  5
C90
331
C91
  5
C91
331
C92
  5
C92
331
C93
  5
C93
331
C94
  5
C94
331
C95
  5
C95
331
C96
  5
C96
331
C97
  5
C97
331
C98
  5
C98
331
C99
  5
C99
331
C9A
  5
C9A
331
C9B
  5
C9B
331
C9C
  5
C9C
331
C9D
  5
C9D
331
C9E
  5
C9E
331
C9F
  5
C9F
331
CA0
  5
CA0
331
CA1
  5
CA1
331
CA2
  5
CA2
331
CA3
  5
CA3
331
CA4
  5
CA4
331
CA5
  5
CA5
331
CA7
  5
CA7
331
CA8
  5
CA8
331
CA9
  5
CA9
331
CAA
  5
CAA
331
CAB
  5
CAB
331
CAC
  5
CAC
331
CAD
  5
CAD
331
CAE
  5
CAE
331
CAF
  5
CAF
331
CB0
  5
CB0
331
CB1
  5
CB1
331
CB2
  5
CB2
331
CB3
  5
CB3
331
CB4
  5
CB4
331
CB5
  5
CB5
331
CB6
  5
CB6
331
CB8
  5
CB8
331
CB9
  5
CB9
331
CBA
  5
CBA
331
CBB
  5
CBB
331
CBC
  5
CBC
331
CBE
  5
CBE
331
CC2
  5
CC2
331
CC3
  5
CC3
331
CC4
  5
CC4
331
CC6
  5
CC6
331
CC7
  5
CC7
331
CC9
  5
CC9
331
CD3
  5
CD3
331
CDC
  5
CDC
331
CDD
  5
CDD
331
CDE
  5
CDE
331
CDF
  5
CDF
331
CE0
  5
CE0
331
CE1
  5
CE1
331
CE2
  5
CE2
331
CE3
  5
CE3
331
CE5
  5
CE5
331
CE6
  5
CE6
331
CE9
  5
CE9
331
CEB
  5
CEB
331
CEC
  5
CEC
331
CEE
  5
CEE
331
CEF
  5
CEF
331
CF0
  5
CF0
331
CF1
  5
CF1
331
CF2
  5
CF2
331
CF4
  5
CF4
331
CF6
  5
CF6
331
CF7
  5
CF7
331
CF8
  5
CF8
331
CF9
  5
CF9
331
CFA
  5
CFA
331
CFB
  5
CFB
331
CFC
  5
CFC
331
CFD
  5
CFD
331
CFE
  5
CFE
331
D02
  5
D02
331
D03
  5
D03
331
D04
  5
D04
331
D05
  5
D05
331
D06
  5
D06
331
D07
  5
D07
331
D08
  5
D08
331
D09
  5
D09
331
D0B
  5
D0B
331
D0C
  5
D0C
331
D0D
  5
D0D
331
D0F
  5
D0F
331
D10
  5
D10
331
D11
  5
D11
331
D12
  5
D12
331
D13
  5
D13
331
D14
  5
D14
331
D15
  5
D15
331
D16
  5
D16
331
D17
  5
D17
331
D18
  5
D18
331
D19
  5
D19
331
D1A
  5
D1A
331
D1B
  5
D1B
331
D1C
  5
D1C
331
D1D
  5
D1D
331
D1E
  5
D1E
331
D21
  5
D21
331
D24
  5
D24
331
D25
  5
D25
331
D26
  5
D26
331
D27
  5
D27
331
D28
  5
D28
331
D29
  5
D29
331
D2E
  5
D2E
331
D2F
  5
D2F
331
D30
  5
D30
331
D31
  5
D31
331
D32
  5
D32
331
D33
  5
D33
331
D36
  5
D36
331
D37
  5
D37
331
D39
  5
D39
331
D3A
  5
D3A
331
D3B
  5
D3B
331
D3C
  5
D3C
331
D3D
  5
D3D
331
D3E
  5
D3E
331
D3F
  5
D3F
331
D40
  5
D40
331
D41
  5
D41
331
D42
  5
D42
331
D43
  5
D43
331
D44
  5
D44
331
D45
  5
D45
331
D46
  5
D46
331
D47
  5
D47
331
D48
  5
D48
331
D49
  5
D49
331
D4A
  5
D4A
331
D4B
  5
D4B
331
D4C
  5
D4C
331
D4D
  5
D4D
331
D4E
  5
D4E
331
D4F
  5
D4F
331
D50
  5
D50
331
D51
  5
D51
331
D57
  5
D57
331
D58
  5
D58
331
D59
  5
D59
331
D5A
  5
D5A
331
D5C
  5
D5C
331
D5D
  5
D5D
331
D5E
  5
D5E
331
D5F
  5
D5F
331
D61
  5
D61
331
D62
  5
D62
331
D65
  5
D65
331
D67
  5
D67
331
D68
  5
D68
331
D69
  5
D69
331
D6A
  5
D6A
331
D6B
  5
D6B
331
D6C
  5
D6C
331
D6D
  5
D6D
331
D6E
  5
D6E
331
D6F
  5
D6F
331
D70
  5
D70
331
D71
  5
D71
331
D73
  5
D73
331
D74
  5
D74
331
D75
  5
D75
331
D79
  5
D79
331
D7A
  5
D7A
331
D7B
  5
D7B
331
D7C
  5
D7C
331
D7E
  5
D7E
331
D7F
  5
D7F
331
D81
  5
D81
331
D87
  5
D87
331
D8B
  5
D8B
331
D8D
  5
D8D
331
D8E
  5
D8E
331
D8F
  5
D8F
331
D93
  5
D93
331
D95
  5
D95
331
D9A
  5
D9A
331
D9B
  5
D9B
331
D9D
  5
D9D
331
D9E
  5
D9E
331
D9F
  5
D9F
331
DA6
  5
DA6
331
DA7
  5
DA7
331
DA8
  5
DA8
331
DA9
  5
DA9
331
DAA
  5
DAA
331
DAB
  5
DAB
331
DAC
  5
DAC
331
DAD
  5
DAD
331
DAE
  5
DAE
331
DD2
  5
DD2
331
DD3
  5
DD3
331
DD4
  5
DD4
331
DDD
  5
DDD
331
DDE
  5
DDE
331
DDF
  5
DDF
331
DE0
  5
DE0
331
E39
  5
E39
  0
LAYOUT
  5
80C
102
{ACAD_REACTORS
330
80A
102
}
330
80A
100
AcDbPlotSettings
  1

  2
GelSprinter GX 3000
  4

  6

 40
0.0
 41
0.0
 42
0.0
 43
0.0
 44
0.0
 45
0.0
 46
0.0
 47
0.0
 48
0.0
 49
0.0
140
0.0
141
0.0
142
1.0
143
1.0
 70
   688
 72
     0
 73
     0
 74
     5
  7

 75
    16
 76
     0
 77
     2
 78
   300
147
1.0
148
0.0
149
0.0
100
AcDbLayout
  1
Layout1
 70
     0
 71
     1
 10
0.0
 20
0.0
 11
27.0398162198209
 21
41.5645823649274
 12
0.0
 22
0.0
 32
0.0
 14
0.0
 24
0.0
 34
0.0
 15
27.0398162198209
 25
41.5645823649274
 35
0.0
146
0.0
 13
0.0
 23
0.0
 33
0.0
 16
1.0
 26
0.0
 36
0.0
 17
0.0
 27
1.0
 37
0.0
 76
     0
330
B
  0
LAYOUT
  5
80B
102
{ACAD_REACTORS
330
80A
102
}
330
80A
100
AcDbPlotSettings
  1

  2
Microsoft XPS Document Writer
  4
Letter
  6

 40
3.174999952316284
 41
3.174999952316284
 42
3.175003051757812
 43
3.17498779296875
 44
215.8999938964844
 45
279.3999938964844
 46
0.0
 47
0.0
 48
0.0
 49
0.0
140
0.0
141
0.0
142
1.0
143
40.36945809163846
 70
 11952
 72
     0
 73
     1
 74
     0
  7

 75
     0
 76
     0
 77
     2
 78
   300
147
0.0247712019747703
148
3381.967373398389
149
2049.758567534106
100
AcDbLayout
  1
Model
 70
     1
 71
     0
 10
0.0
 20
0.0
 11
12.0
 21
9.0
 12
0.0
 22
0.0
 32
0.0
 14
0.0
 24
0.0
 34
0.0
 15
0.0
 25
0.0
 35
0.0
146
0.0
 13
0.0
 23
0.0
 33
0.0
 16
1.0
 26
0.0
 36
0.0
 17
0.0
 27
1.0
 37
0.0
 76
     0
330
A
331
15
1001
ACAD_PSEXT
1000
Microsoft XPS Document Writer
1000
Microsoft XPS Document Writer
1000
XPSPort:
1000

1070
     0
  0
MATERIAL
  5
7F2
102
{ACAD_REACTORS
330
7F0
102
}
330
7F0
100
AcDbMaterial
  1
ByBlock
 72
     1
 94
       63
  0
MATERIAL
  5
7F1
102
{ACAD_REACTORS
330
7F0
102
}
330
7F0
100
AcDbMaterial
  1
ByLayer
 72
     1
 94
       63
  0
MATERIAL
  5
7F3
102
{ACAD_REACTORS
330
7F0
102
}
330
7F0
100
AcDbMaterial
  1
Global
 72
     1
 94
       63
  0
MLEADERSTYLE
  5
EC5
102
{ACAD_REACTORS
330
EC4
102
}
330
EC4
100
AcDbMLeaderStyle
179
     2
170
     2
171
     1
172
     0
 90
        2
 40
0.0
 41
0.0
173
     1
 91
-1056964608
340
11
 92
       -2
290
     1
 42
0.09
291
     1
 43
0.36
  3
Standard
341
0
 44
0.18
300

342
17
174
     1
178
     6
175
     1
176
     0
 93
-1056964608
 45
0.18
292
     0
297
     0
 46
0.18
343
0
 94
-1056964608
 47
1.0
 49
1.0
140
1.0
293
     1
141
0.0
294
     1
177
     0
142
1.0
295
     0
296
     0
143
0.125
271
     0
272
     9
273
     9
  0
MLINESTYLE
  5
1C
102
{ACAD_REACTORS
330
1B
102
}
330
1B
100
AcDbMlineStyle
  2
STANDARD
 70
     0
  3

 62
     0
 51
90.0
 52
90.0
 71
     2
 49
0.5
 62
   256
  6
BYLAYER
 49
-0.5
 62
   256
  6
BYLAYER
  0
ACDBPLACEHOLDER
  5
7EF
102
{ACAD_REACTORS
330
7EE
102
}
330
7EE
  0
SCALE
  5
E99
102
{ACAD_REACTORS
330
E98
102
}
330
E98
100
AcDbScale
 70
     0
300
1:1
140
1.0
141
1.0
290
     1
  0
SCALE
  5
E9A
102
{ACAD_REACTORS
330
E98
102
}
330
E98
100
AcDbScale
 70
     0
300
1:2
140
1.0
141
2.0
290
     0
  0
SCALE
  5
E9B
102
{ACAD_REACTORS
330
E98
102
}
330
E98
100
AcDbScale
 70
     0
300
1:4
140
1.0
141
4.0
290
     0
  0
SCALE
  5
E9C
102
{ACAD_REACTORS
330
E98
102
}
330
E98
100
AcDbScale
 70
     0
300
1:5
140
1.0
141
5.0
290
     0
  0
SCALE
  5
E9D
102
{ACAD_REACTORS
330
E98
102
}
330
E98
100
AcDbScale
 70
     0
300
1:8
140
1.0
141
8.0
290
     0
  0
SCALE
  5
E9E
102
{ACAD_REACTORS
330
E98
102
}
330
E98
100
AcDbScale
 70
     0
300
1:10
140
1.0
141
10.0
290
     0
  0
SCALE
  5
E9F
102
{ACAD_REACTORS
330
E98
102
}
330
E98
100
AcDbScale
 70
     0
300
1:16
140
1.0
141
16.0
290
     0
  0
SCALE
  5
EA0
102
{ACAD_REACTORS
330
E98
102
}
330
E98
100
AcDbScale
 70
     0
300
1:20
140
1.0
141
20.0
290
     0
  0
SCALE
  5
EA1
102
{ACAD_REACTORS
330
E98
102
}
330
E98
100
AcDbScale
 70
     0
300
1:30
140
1.0
141
30.0
290
     0
  0
SCALE
  5
EA2
102
{ACAD_REACTORS
330
E98
102
}
330
E98
100
AcDbScale
 70
     0
300
1:40
140
1.0
141
40.0
290
     0
  0
SCALE
  5
EA3
102
{ACAD_REACTORS
330
E98
102
}
330
E98
100
AcDbScale
 70
     0
300
1:50
140
1.0
141
50.0
290
     0
  0
SCALE
  5
EA4
102
{ACAD_REACTORS
330
E98
102
}
330
E98
100
AcDbScale
 70
     0
300
1:100
140
1.0
141
100.0
290
     0
  0
SCALE
  5
EA5
102
{ACAD_REACTORS
330
E98
102
}
330
E98
100
AcDbScale
 70
     0
300
2:1
140
2.0
141
1.0
290
     0
  0
SCALE
  5
EA6
102
{ACAD_REACTORS
330
E98
102
}
330
E98
100
AcDbScale
 70
     0
300
4:1
140
4.0
141
1.0
290
     0
  0
SCALE
  5
EA7
102
{ACAD_REACTORS
330
E98
102
}
330
E98
100
AcDbScale
 70
     0
300
8:1
140
8.0
141
1.0
290
     0
  0
SCALE
  5
EA8
102
{ACAD_REACTORS
330
E98
102
}
330
E98
100
AcDbScale
 70
     0
300
10:1
140
10.0
141
1.0
290
     0
  0
SCALE
  5
EA9
102
{ACAD_REACTORS
330
E98
102
}
330
E98
100
AcDbScale
 70
     0
300
100:1
140
100.0
141
1.0
290
     0
  0
SCALE
  5
EAA
102
{ACAD_REACTORS
330
E98
102
}
330
E98
100
AcDbScale
 70
     0
300
1/128" = 1'-0"
140
0.0078125
141
12.0
290
     0
  0
SCALE
  5
EAB
102
{ACAD_REACTORS
330
E98
102
}
330
E98
100
AcDbScale
 70
     0
300
1/64" = 1'-0"
140
0.015625
141
12.0
290
     0
  0
SCALE
  5
EAC
102
{ACAD_REACTORS
330
E98
102
}
330
E98
100
AcDbScale
 70
     0
300
1/32" = 1'-0"
140
0.03125
141
12.0
290
     0
  0
SCALE
  5
EAD
102
{ACAD_REACTORS
330
E98
102
}
330
E98
100
AcDbScale
 70
     0
300
1/16" = 1'-0"
140
0.0625
141
12.0
290
     0
  0
SCALE
  5
EAE
102
{ACAD_REACTORS
330
E98
102
}
330
E98
100
AcDbScale
 70
     0
300
3/32" = 1'-0"
140
0.09375
141
12.0
290
     0
  0
SCALE
  5
EAF
102
{ACAD_REACTORS
330
E98
102
}
330
E98
100
AcDbScale
 70
     0
300
1/8" = 1'-0"
140
0.125
141
12.0
290
     0
  0
SCALE
  5
EB0
102
{ACAD_REACTORS
330
E98
102
}
330
E98
100
AcDbScale
 70
     0
300
3/16" = 1'-0"
140
0.1875
141
12.0
290
     0
  0
SCALE
  5
EB1
102
{ACAD_REACTORS
330
E98
102
}
330
E98
100
AcDbScale
 70
     0
300
1/4" = 1'-0"
140
0.25
141
12.0
290
     0
  0
SCALE
  5
EB2
102
{ACAD_REACTORS
330
E98
102
}
330
E98
100
AcDbScale
 70
     0
300
3/8" = 1'-0"
140
0.375
141
12.0
290
     0
  0
SCALE
  5
EB3
102
{ACAD_REACTORS
330
E98
102
}
330
E98
100
AcDbScale
 70
     0
300
1/2" = 1'-0"
140
0.5
141
12.0
290
     0
  0
SCALE
  5
EB4
102
{ACAD_REACTORS
330
E98
102
}
330
E98
100
AcDbScale
 70
     0
300
3/4" = 1'-0"
140
0.75
141
12.0
290
     0
  0
SCALE
  5
EB5
102
{ACAD_REACTORS
330
E98
102
}
330
E98
100
AcDbScale
 70
     0
300
1" = 1'-0"
140
1.0
141
12.0
290
     0
  0
SCALE
  5
EB6
102
{ACAD_REACTORS
330
E98
102
}
330
E98
100
AcDbScale
 70
     0
300
1-1/2" = 1'-0"
140
1.5
141
12.0
290
     0
  0
SCALE
  5
EB7
102
{ACAD_REACTORS
330
E98
102
}
330
E98
100
AcDbScale
 70
     0
300
3" = 1'-0"
140
3.0
141
12.0
290
     0
  0
SCALE
  5
EB8
102
{ACAD_REACTORS
330
E98
102
}
330
E98
100
AcDbScale
 70
     0
300
6" = 1'-0"
140
6.0
141
12.0
290
     0
  0
SCALE
  5
EB9
102
{ACAD_REACTORS
330
E98
102
}
330
E98
100
AcDbScale
 70
     0
300
1'-0" = 1'-0"
140
12.0
141
12.0
290
     0
  0
TABLESTYLE
  5
807
102
{ACAD_REACTORS
330
806
102
}
102
{ACAD_XDICTIONARY
360
EC7
102
}
330
806
100
AcDbTableStyle
  3
Standard
 70
     0
 71
     0
 40
0.06
 41
0.06
280
     0
281
     0
  7
STANDARD
140
0.18
170
     2
 62
     0
 63
   257
283
     0
 90
      512
 91
        0
  1

274
    -2
284
     1
 64
     0
275
    -2
285
     1
 65
     0
276
    -2
286
     1
 66
     0
277
    -2
287
     1
 67
     0
278
    -2
288
     1
 68
     0
279
    -2
289
     1
 69
     0
  7
STANDARD
140
0.25
170
     5
 62
     0
 63
   257
283
     0
 90
      512
 91
        0
  1

274
    -2
284
     1
 64
     0
275
    -2
285
     1
 65
     0
276
    -2
286
     1
 66
     0
277
    -2
287
     1
 67
     0
278
    -2
288
     1
 68
     0
279
    -2
289
     1
 69
     0
  7
STANDARD
140
0.18
170
     5
 62
     0
 63
   257
283
     0
 90
      512
 91
        0
  1

274
    -2
284
     1
 64
     0
275
    -2
285
     1
 65
     0
276
    -2
286
     1
 66
     0
277
    -2
287
     1
 67
     0
278
    -2
288
     1
 68
     0
279
    -2
289
     1
 69
     0
  0
VISUALSTYLE
  5
7FA
102
{ACAD_REACTORS
330
7F4
102
}
102
{ACAD_XDICTIONARY
360
EC9
102
}
330
7F4
100
AcDbVisualStyle
  2
2dWireframe
 70
     4
177
     2
291
     0
 71
     0
176
     1
 72
     2
176
     1
 73
     0
176
     1
 90
        0
176
     1
 40
-0.6
176
     1
 41
-30.0
176
     1
 62
     5
 63
     7
421
 16777215
176
     1
 74
     1
176
     1
 91
        4
176
     1
 64
     7
176
     1
 65
   257
176
     1
 75
     1
176
     1
175
     1
176
     1
 42
1.0
176
     1
 92
        0
176
     1
 66
   257
176
     1
 43
1.0
176
     1
 76
     1
176
     1
 77
     6
176
     1
 78
     2
176
     1
 67
     7
176
     1
 79
     5
176
     1
170
     0
176
     1
171
     0
176
     1
290
     0
176
     1
 93
        1
176
     1
 44
0.0
176
     1
173
     0
176
     1
  0
VISUALSTYLE
  5
7FC
102
{ACAD_REACTORS
330
7F4
102
}
102
{ACAD_XDICTIONARY
360
ECB
102
}
330
7F4
100
AcDbVisualStyle
  2
3D Hidden
 70
     6
177
     2
291
     0
 71
     1
176
     1
 72
     2
176
     1
 73
     2
176
     1
 90
        0
176
     1
 40
-0.6
176
     1
 41
-30.0
176
     1
 62
     5
 63
     7
421
 16777215
176
     1
 74
     2
176
     1
 91
        2
176
     1
 64
     7
176
     1
 65
   257
176
     1
 75
     2
176
     1
175
     1
176
     1
 42
40.0
176
     1
 92
        0
176
     1
 66
   257
176
     1
 43
1.0
176
     1
 76
     1
176
     1
 77
     6
176
     1
 78
     2
176
     1
 67
     7
176
     1
 79
     3
176
     1
170
     0
176
     1
171
     0
176
     1
290
     0
176
     1
 93
        1
176
     1
 44
0.0
176
     1
173
     0
176
     1
  0
VISUALSTYLE
  5
7FB
102
{ACAD_REACTORS
330
7F4
102
}
102
{ACAD_XDICTIONARY
360
ECD
102
}
330
7F4
100
AcDbVisualStyle
  2
3dWireframe
 70
     5
177
     2
291
     0
 71
     0
176
     1
 72
     2
176
     1
 73
     0
176
     1
 90
        0
176
     1
 40
-0.6
176
     1
 41
-30.0
176
     1
 62
     5
 63
     7
421
 16777215
176
     1
 74
     1
176
     1
 91
        4
176
     1
 64
     7
176
     1
 65
   257
176
     1
 75
     1
176
     1
175
     1
176
     1
 42
1.0
176
     1
 92
        0
176
     1
 66
   257
176
     1
 43
1.0
176
     1
 76
     1
176
     1
 77
     6
176
     1
 78
     2
176
     1
 67
     7
176
     1
 79
     5
176
     1
170
     0
176
     1
171
     0
176
     1
290
     0
176
     1
 93
        1
176
     1
 44
0.0
176
     1
173
     0
176
     1
  0
VISUALSTYLE
  5
7F9
102
{ACAD_REACTORS
330
7F4
102
}
102
{ACAD_XDICTIONARY
360
ECF
102
}
330
7F4
100
AcDbVisualStyle
  2
Basic
 70
     7
177
     2
291
     1
 71
     1
176
     1
 72
     0
176
     1
 73
     1
176
     1
 90
        0
176
     1
 40
-0.6
176
     1
 41
-30.0
176
     1
 62
     5
 63
     7
421
 16777215
176
     1
 74
     0
176
     1
 91
        4
176
     1
 64
     7
176
     1
 65
   257
176
     1
 75
     1
176
     1
175
     1
176
     1
 42
1.0
176
     1
 92
        8
176
     1
 66
     7
176
     1
 43
1.0
176
     1
 76
     1
176
     1
 77
     6
176
     1
 78
     2
176
     1
 67
     7
176
     1
 79
     5
176
     1
170
     0
176
     1
171
     0
176
     1
290
     0
176
     1
 93
        1
176
     1
 44
0.0
176
     1
173
     0
176
     1
  0
VISUALSTYLE
  5
800
102
{ACAD_REACTORS
330
7F4
102
}
102
{ACAD_XDICTIONARY
360
ED1
102
}
330
7F4
100
AcDbVisualStyle
  2
Brighten
 70
    12
177
     2
291
     1
 71
     2
176
     1
 72
     2
176
     1
 73
     0
176
     1
 90
        0
176
     1
 40
-0.6
176
     1
 41
-30.0
176
     1
 62
     5
 63
     7
421
 16777215
176
     1
 74
     1
176
     1
 91
        4
176
     1
 64
     7
176
     1
 65
   257
176
     1
 75
     1
176
     1
175
     1
176
     1
 42
1.0
176
     1
 92
        8
176
     1
 66
     7
176
     1
 43
1.0
176
     1
 76
     1
176
     1
 77
     6
176
     1
 78
     2
176
     1
 67
     7
176
     1
 79
     5
176
     1
170
     0
176
     1
171
     0
176
     1
290
     0
176
     1
 93
        1
176
     1
 44
50.0
176
     1
173
     0
176
     1
  0
VISUALSTYLE
  5
804
102
{ACAD_REACTORS
330
7F4
102
}
102
{ACAD_XDICTIONARY
360
ED3
102
}
330
7F4
100
AcDbVisualStyle
  2
ColorChange
 70
    16
177
     2
291
     1
 71
     2
176
     1
 72
     2
176
     1
 73
     3
176
     1
 90
        0
176
     1
 40
-0.6
176
     1
 41
-30.0
176
     1
 62
     5
 63
     8
421
  8421504
176
     1
 74
     1
176
     1
 91
        4
176
     1
 64
     7
176
     1
 65
   257
176
     1
 75
     1
176
     1
175
     1
176
     1
 42
1.0
176
     1
 92
        8
176
     1
 66
     8
424
  8421504
176
     1
 43
1.0
176
     1
 76
     1
176
     1
 77
     6
176
     1
 78
     2
176
     1
 67
     7
176
     1
 79
     5
176
     1
170
     0
176
     1
171
     0
176
     1
290
     0
176
     1
 93
        1
176
     1
 44
0.0
176
     1
173
     0
176
     1
  0
VISUALSTYLE
  5
7FD
102
{ACAD_REACTORS
330
7F4
102
}
102
{ACAD_XDICTIONARY
360
ED5
102
}
330
7F4
100
AcDbVisualStyle
  2
Conceptual
 70
     9
177
     2
291
     0
 71
     3
176
     1
 72
     2
176
     1
 73
     0
176
     1
 90
        0
176
     1
 40
-0.6
176
     1
 41
-30.0
176
     1
 62
     5
 63
     7
421
 16777215
176
     1
 74
     2
176
     1
 91
        2
176
     1
 64
     7
176
     1
 65
   257
176
     1
 75
     1
176
     1
175
     1
176
     1
 42
40.0
176
     1
 92
        8
176
     1
 66
     7
176
     1
 43
1.0
176
     1
 76
     1
176
     1
 77
     6
176
     1
 78
     2
176
     1
 67
     7
176
     1
 79
     3
176
     1
170
     0
176
     1
171
     0
176
     1
290
     0
176
     1
 93
        1
176
     1
 44
0.0
176
     1
173
     0
176
     1
  0
VISUALSTYLE
  5
7FF
102
{ACAD_REACTORS
330
7F4
102
}
102
{ACAD_XDICTIONARY
360
ED7
102
}
330
7F4
100
AcDbVisualStyle
  2
Dim
 70
    11
177
     2
291
     1
 71
     2
176
     1
 72
     2
176
     1
 73
     0
176
     1
 90
        0
176
     1
 40
-0.6
176
     1
 41
-30.0
176
     1
 62
     5
 63
     7
421
 16777215
176
     1
 74
     1
176
     1
 91
        4
176
     1
 64
     7
176
     1
 65
   257
176
     1
 75
     1
176
     1
175
     1
176
     1
 42
1.0
176
     1
 92
        8
176
     1
 66
     7
176
     1
 43
1.0
176
     1
 76
     1
176
     1
 77
     6
176
     1
 78
     2
176
     1
 67
     7
176
     1
 79
     5
176
     1
170
     0
176
     1
171
     0
176
     1
290
     0
176
     1
 93
        1
176
     1
 44
-50.0
176
     1
173
     0
176
     1
  0
VISUALSTYLE
  5
EBE
102
{ACAD_REACTORS
330
7F4
102
}
102
{ACAD_XDICTIONARY
360
EF1
102
}
330
7F4
100
AcDbVisualStyle
  2
EdgeColorOff
 70
    22
177
     2
291
     1
 71
     2
176
     0
 72
     2
176
     0
 73
     0
176
     0
 90
        0
176
     0
 40
0.6
176
     0
 41
30.0
176
     0
 62
     5
 63
     7
421
 16777215
176
     0
 74
     1
176
     0
 91
        4
176
     0
 64
     7
176
     0
 65
   257
176
     0
 75
     1
176
     0
175
     1
176
     0
 42
1.0
176
     0
 92
        8
176
     2
 66
     7
176
     0
 43
1.0
176
     0
 76
     1
176
     0
 77
     6
176
     0
 78
     2
176
     0
 67
     7
176
     0
 79
     5
176
     0
170
     0
176
     0
171
     0
176
     0
290
     0
176
     0
 93
        1
176
     0
 44
0.0
176
     0
173
     0
176
     0
  0
VISUALSTYLE
  5
803
102
{ACAD_REACTORS
330
7F4
102
}
102
{ACAD_XDICTIONARY
360
ED9
102
}
330
7F4
100
AcDbVisualStyle
  2
Facepattern
 70
    15
177
     2
291
     1
 71
     2
176
     1
 72
     2
176
     1
 73
     0
176
     1
 90
        0
176
     1
 40
-0.6
176
     1
 41
-30.0
176
     1
 62
     5
 63
     7
421
 16777215
176
     1
 74
     1
176
     1
 91
        4
176
     1
 64
     7
176
     1
 65
   257
176
     1
 75
     1
176
     1
175
     1
176
     1
 42
1.0
176
     1
 92
        8
176
     1
 66
     7
176
     1
 43
1.0
176
     1
 76
     1
176
     1
 77
     6
176
     1
 78
     2
176
     1
 67
     7
176
     1
 79
     5
176
     1
170
     0
176
     1
171
     0
176
     1
290
     0
176
     1
 93
        1
176
     1
 44
0.0
176
     1
173
     0
176
     1
  0
VISUALSTYLE
  5
7F5
102
{ACAD_REACTORS
330
7F4
102
}
102
{ACAD_XDICTIONARY
360
EDB
102
}
330
7F4
100
AcDbVisualStyle
  2
Flat
 70
     0
177
     2
291
     1
 71
     2
176
     1
 72
     1
176
     1
 73
     1
176
     1
 90
        2
176
     1
 40
-0.6
176
     1
 41
30.0
176
     1
 62
     5
 63
     7
421
 16777215
176
     1
 74
     0
176
     1
 91
        4
176
     1
 64
     7
176
     1
 65
   257
176
     1
 75
     1
176
     1
175
     1
176
     1
 42
1.0
176
     1
 92
        8
176
     1
 66
     7
176
     1
 43
1.0
176
     1
 76
     1
176
     1
 77
     6
176
     1
 78
     2
176
     1
 67
     7
176
     1
 79
     5
176
     1
170
     0
176
     1
171
     0
176
     1
290
     0
176
     1
 93
       13
176
     1
 44
0.0
176
     1
173
     0
176
     1
  0
VISUALSTYLE
  5
7F6
102
{ACAD_REACTORS
330
7F4
102
}
102
{ACAD_XDICTIONARY
360
EDD
102
}
330
7F4
100
AcDbVisualStyle
  2
FlatWithEdges
 70
     1
177
     2
291
     1
 71
     2
176
     1
 72
     1
176
     1
 73
     1
176
     1
 90
        2
176
     1
 40
-0.6
176
     1
 41
30.0
176
     1
 62
     5
 63
     7
421
 16777215
176
     1
 74
     1
176
     1
 91
        4
176
     1
 64
     7
176
     1
 65
   257
176
     1
 75
     1
176
     1
175
     1
176
     1
 42
1.0
176
     1
 92
        0
176
     1
 66
   257
176
     1
 43
1.0
176
     1
 76
     1
176
     1
 77
     6
176
     1
 78
     2
176
     1
 67
     7
176
     1
 79
     5
176
     1
170
     0
176
     1
171
     0
176
     1
290
     0
176
     1
 93
       13
176
     1
 44
0.0
176
     1
173
     0
176
     1
  0
VISUALSTYLE
  5
7F7
102
{ACAD_REACTORS
330
7F4
102
}
102
{ACAD_XDICTIONARY
360
EDF
102
}
330
7F4
100
AcDbVisualStyle
  2
Gouraud
 70
     2
177
     2
291
     1
 71
     2
176
     1
 72
     2
176
     1
 73
     1
176
     1
 90
        2
176
     1
 40
-0.6
176
     1
 41
30.0
176
     1
 62
     5
 63
     7
421
 16777215
176
     1
 74
     0
176
     1
 91
        4
176
     1
 64
     7
176
     1
 65
   257
176
     1
 75
     1
176
     1
175
     1
176
     1
 42
1.0
176
     1
 92
        0
176
     1
 66
     7
176
     1
 43
1.0
176
     1
 76
     1
176
     1
 77
     6
176
     1
 78
     2
176
     1
 67
     7
176
     1
 79
     5
176
     1
170
     0
176
     1
171
     0
176
     1
290
     0
176
     1
 93
       13
176
     1
 44
0.0
176
     1
173
     0
176
     1
  0
VISUALSTYLE
  5
7F8
102
{ACAD_REACTORS
330
7F4
102
}
102
{ACAD_XDICTIONARY
360
EE1
102
}
330
7F4
100
AcDbVisualStyle
  2
GouraudWithEdges
 70
     3
177
     2
291
     1
 71
     2
176
     1
 72
     2
176
     1
 73
     1
176
     1
 90
        2
176
     1
 40
-0.6
176
     1
 41
30.0
176
     1
 62
     5
 63
     7
421
 16777215
176
     1
 74
     1
176
     1
 91
        4
176
     1
 64
     7
176
     1
 65
   257
176
     1
 75
     1
176
     1
175
     1
176
     1
 42
1.0
176
     1
 92
        0
176
     1
 66
   257
176
     1
 43
1.0
176
     1
 76
     1
176
     1
 77
     6
176
     1
 78
     2
176
     1
 67
     7
176
     1
 79
     5
176
     1
170
     0
176
     1
171
     0
176
     1
290
     0
176
     1
 93
       13
176
     1
 44
0.0
176
     1
173
     0
176
     1
  0
VISUALSTYLE
  5
EBB
102
{ACAD_REACTORS
330
7F4
102
}
102
{ACAD_XDICTIONARY
360
EEB
102
}
330
7F4
100
AcDbVisualStyle
  2
Hidden
 70
     6
177
     2
291
     0
 71
     1
176
     1
 72
     2
176
     1
 73
     2
176
     1
 90
        0
176
     1
 40
0.6
176
     1
 41
30.0
176
     1
 62
     5
 63
     7
421
 16777215
176
     1
 74
     2
176
     1
 91
        2
176
     1
 64
     7
176
     1
 65
   257
176
     1
 75
     2
176
     1
175
     1
176
     1
 42
40.0
176
     1
 92
        0
176
     1
 66
   257
176
     1
 43
1.0
176
     1
 76
     1
176
     1
 77
     6
176
     1
 78
     2
176
     1
 67
     7
176
     1
 79
     3
176
     1
170
     0
176
     1
171
     0
176
     1
290
     0
176
     1
 93
        1
176
     1
 44
0.0
176
     1
173
     0
176
     1
  0
VISUALSTYLE
  5
EBC
102
{ACAD_REACTORS
330
7F4
102
}
102
{ACAD_XDICTIONARY
360
EED
102
}
330
7F4
100
AcDbVisualStyle
  2
JitterOff
 70
    20
177
     2
291
     1
 71
     2
176
     0
 72
     2
176
     0
 73
     0
176
     0
 90
        0
176
     0
 40
0.6
176
     0
 41
30.0
176
     0
 62
     5
 63
     7
421
 16777215
176
     0
 74
     1
176
     0
 91
        4
176
     0
 64
     7
176
     0
 65
   257
176
     0
 75
     1
176
     0
175
     1
176
     0
 42
1.0
176
     0
 92
       10
176
     2
 66
     7
176
     0
 43
1.0
176
     0
 76
     1
176
     0
 77
     6
176
     0
 78
     2
176
     0
 67
     7
176
     0
 79
     5
176
     0
170
     0
176
     0
171
     0
176
     0
290
     0
176
     0
 93
        1
176
     0
 44
0.0
176
     0
173
     0
176
     0
  0
VISUALSTYLE
  5
802
102
{ACAD_REACTORS
330
7F4
102
}
102
{ACAD_XDICTIONARY
360
EE3
102
}
330
7F4
100
AcDbVisualStyle
  2
Linepattern
 70
    14
177
     2
291
     1
 71
     2
176
     1
 72
     2
176
     1
 73
     0
176
     1
 90
        0
176
     1
 40
-0.6
176
     1
 41
-30.0
176
     1
 62
     5
 63
     7
421
 16777215
176
     1
 74
     1
176
     1
 91
        4
176
     1
 64
     7
176
     1
 65
   257
176
     1
 75
     7
176
     1
175
     7
176
     1
 42
1.0
176
     1
 92
        8
176
     1
 66
     7
176
     1
 43
1.0
176
     1
 76
     1
176
     1
 77
     6
176
     1
 78
     2
176
     1
 67
     7
176
     1
 79
     5
176
     1
170
     0
176
     1
171
     0
176
     1
290
     0
176
     1
 93
        1
176
     1
 44
0.0
176
     1
173
     0
176
     1
  0
VISUALSTYLE
  5
EBD
102
{ACAD_REACTORS
330
7F4
102
}
102
{ACAD_XDICTIONARY
360
EEF
102
}
330
7F4
100
AcDbVisualStyle
  2
OverhangOff
 70
    21
177
     2
291
     1
 71
     2
176
     0
 72
     2
176
     0
 73
     0
176
     0
 90
        0
176
     0
 40
0.6
176
     0
 41
30.0
176
     0
 62
     5
 63
     7
421
 16777215
176
     0
 74
     1
176
     0
 91
        4
176
     0
 64
     7
176
     0
 65
   257
176
     0
 75
     1
176
     0
175
     1
176
     0
 42
1.0
176
     0
 92
        9
176
     2
 66
     7
176
     0
 43
1.0
176
     0
 76
     1
176
     0
 77
     6
176
     0
 78
     2
176
     0
 67
     7
176
     0
 79
     5
176
     0
170
     0
176
     0
171
     0
176
     0
290
     0
176
     0
 93
        1
176
     0
 44
0.0
176
     0
173
     0
176
     0
  0
VISUALSTYLE
  5
7FE
102
{ACAD_REACTORS
330
7F4
102
}
102
{ACAD_XDICTIONARY
360
EE5
102
}
330
7F4
100
AcDbVisualStyle
  2
Realistic
 70
     8
177
     2
291
     0
 71
     2
176
     1
 72
     2
176
     1
 73
     0
176
     1
 90
        0
176
     1
 40
-0.6
176
     1
 41
-30.0
176
     1
 62
     5
 63
     7
421
 16777215
176
     1
 74
     1
176
     1
 91
        0
176
     1
 64
     7
176
     1
 65
   257
176
     1
 75
     1
176
     1
175
     1
176
     1
 42
1.0
176
     1
 92
        8
176
     1
 66
     8
424
  7895160
176
     1
 43
1.0
176
     1
 76
     1
176
     1
 77
     6
176
     1
 78
     2
176
     1
 67
     7
176
     1
 79
     5
176
     1
170
     0
176
     1
171
     0
176
     1
290
     0
176
     1
 93
       13
176
     1
 44
0.0
176
     1
173
     0
176
     1
  0
VISUALSTYLE
  5
EC3
102
{ACAD_REACTORS
330
7F4
102
}
102
{ACAD_XDICTIONARY
360
EFB
102
}
330
7F4
100
AcDbVisualStyle
  2
Shaded
 70
    27
177
     2
291
     0
 71
     2
176
     1
 72
     2
176
     1
 73
     1
176
     1
 90
        2
176
     1
 40
0.6
176
     1
 41
30.0
176
     1
 62
     5
 63
     7
421
 16777215
176
     1
 74
     0
176
     1
 91
        4
176
     1
 64
     7
176
     1
 65
   257
176
     1
 75
     1
176
     1
175
     1
176
     1
 42
1.0
176
     1
 92
        8
176
     1
 66
   257
176
     1
 43
1.0
176
     1
 76
     1
176
     1
 77
     6
176
     1
 78
     2
176
     1
 67
     8
425
  7895160
176
     1
 79
     3
176
     1
170
     0
176
     1
171
     0
176
     1
290
     0
176
     1
 93
        5
176
     1
 44
0.0
176
     1
173
     0
176
     1
  0
VISUALSTYLE
  5
EC2
102
{ACAD_REACTORS
330
7F4
102
}
102
{ACAD_XDICTIONARY
360
EF9
102
}
330
7F4
100
AcDbVisualStyle
  2
Shaded with edges
 70
    26
177
     2
291
     0
 71
     2
176
     1
 72
     2
176
     1
 73
     1
176
     1
 90
        2
176
     1
 40
0.6
176
     1
 41
30.0
176
     1
 62
     5
 63
     7
421
 16777215
176
     1
 74
     1
176
     1
 91
       10
176
     1
 64
     7
176
     1
 65
   257
176
     1
 75
     2
176
     1
175
     1
176
     1
 42
1.0
176
     1
 92
        8
176
     1
 66
   257
176
     1
 43
1.0
176
     1
 76
     1
176
     1
 77
     6
176
     1
 78
     2
176
     1
 67
     7
176
     1
 79
     3
176
     1
170
     0
176
     1
171
     0
176
     1
290
     0
176
     1
 93
        5
176
     1
 44
0.0
176
     1
173
     0
176
     1
  0
VISUALSTYLE
  5
EBF
102
{ACAD_REACTORS
330
7F4
102
}
102
{ACAD_XDICTIONARY
360
EF3
102
}
330
7F4
100
AcDbVisualStyle
  2
Shades of Gray
 70
    23
177
     2
291
     0
 71
     2
176
     1
 72
     2
176
     1
 73
     3
176
     1
 90
        0
176
     1
 40
0.6
176
     1
 41
30.0
176
     1
 62
     5
 63
     7
421
 16777215
176
     1
 74
     2
176
     1
 91
        2
176
     1
 64
     7
176
     1
 65
     7
176
     1
 75
     1
176
     1
175
     1
176
     1
 42
40.0
176
     1
 92
        8
176
     1
 66
     7
176
     1
 43
1.0
176
     1
 76
     1
176
     1
 77
     6
176
     1
 78
     2
176
     1
 67
     7
176
     1
 79
     3
176
     1
170
     0
176
     1
171
     0
176
     1
290
     0
176
     1
 93
        1
176
     1
 44
0.0
176
     1
173
     0
176
     1
  0
VISUALSTYLE
  5
EC0
102
{ACAD_REACTORS
330
7F4
102
}
102
{ACAD_XDICTIONARY
360
EF5
102
}
330
7F4
100
AcDbVisualStyle
  2
Sketchy
 70
    24
177
     2
291
     0
 71
     1
176
     1
 72
     2
176
     1
 73
     2
176
     1
 90
        0
176
     1
 40
0.6
176
     1
 41
30.0
176
     1
 62
     5
 63
     7
421
 16777215
176
     1
 74
     2
176
     1
 91
        2
176
     1
 64
     7
176
     1
 65
     7
176
     1
 75
     1
176
     1
175
     1
176
     1
 42
40.0
176
     1
 92
       11
176
     1
 66
     7
176
     1
 43
1.0
176
     1
 76
     1
176
     1
 77
     6
176
     1
 78
     2
176
     1
 67
     7
176
     1
 79
     6
176
     1
170
     0
176
     1
171
     0
176
     1
290
     0
176
     1
 93
        1
176
     1
 44
0.0
176
     1
173
     0
176
     1
  0
VISUALSTYLE
  5
801
102
{ACAD_REACTORS
330
7F4
102
}
102
{ACAD_XDICTIONARY
360
EE7
102
}
330
7F4
100
AcDbVisualStyle
  2
Thicken
 70
    13
177
     2
291
     1
 71
     2
176
     1
 72
     2
176
     1
 73
     0
176
     1
 90
        0
176
     1
 40
-0.6
176
     1
 41
-30.0
176
     1
 62
     5
 63
     7
421
 16777215
176
     1
 74
     1
176
     1
 91
        4
176
     1
 64
     7
176
     1
 65
   257
176
     1
 75
     1
176
     1
175
     1
176
     1
 42
1.0
176
     1
 92
       12
176
     1
 66
     7
176
     1
 43
1.0
176
     1
 76
     1
176
     1
 77
     6
176
     1
 78
     2
176
     1
 67
     7
176
     1
 79
     5
176
     1
170
     0
176
     1
171
     0
176
     1
290
     0
176
     1
 93
        1
176
     1
 44
0.0
176
     1
173
     0
176
     1
  0
VISUALSTYLE
  5
EBA
102
{ACAD_REACTORS
330
7F4
102
}
102
{ACAD_XDICTIONARY
360
EE9
102
}
330
7F4
100
AcDbVisualStyle
  2
Wireframe
 70
     5
177
     2
291
     0
 71
     0
176
     1
 72
     2
176
     1
 73
     0
176
     1
 90
        0
176
     1
 40
0.6
176
     1
 41
30.0
176
     1
 62
     5
 63
     7
421
 16777215
176
     1
 74
     1
176
     1
 91
        4
176
     1
 64
     7
176
     1
 65
   257
176
     1
 75
     1
176
     1
175
     1
176
     1
 42
1.0
176
     1
 92
        0
176
     1
 66
   257
176
     1
 43
1.0
176
     1
 76
     1
176
     1
 77
     6
176
     1
 78
     2
176
     1
 67
     7
176
     1
 79
     3
176
     1
170
     0
176
     1
171
     0
176
     1
290
     0
176
     1
 93
        1
176
     1
 44
0.0
176
     1
173
     0
176
     1
  0
VISUALSTYLE
  5
EC1
102
{ACAD_REACTORS
330
7F4
102
}
102
{ACAD_XDICTIONARY
360
EF7
102
}
330
7F4
100
AcDbVisualStyle
  2
X-Ray
 70
    25
177
     2
291
     0
 71
     2
176
     1
 72
     2
176
     1
 73
     1
176
     1
 90
        1
176
     1
 40
0.5
176
     1
 41
30.0
176
     1
 62
     5
 63
     7
421
 16777215
176
     1
 74
     1
176
     1
 91
        0
176
     1
 64
     7
176
     1
 65
   257
176
     1
 75
     1
176
     1
175
     1
176
     1
 42
1.0
176
     1
 92
        8
176
     1
 66
     7
176
     1
 43
1.0
176
     1
 76
     1
176
     1
 77
     6
176
     1
 78
     2
176
     1
 67
     7
176
     1
 79
     3
176
     1
170
     0
176
     1
171
     0
176
     1
290
     0
176
     1
 93
       13
176
     1
 44
0.0
176
     1
173
     0
176
     1
  0
DICTIONARYVAR
  5
EC6
102
{ACAD_REACTORS
330
8EF
102
}
330
8EF
100
DictionaryVariables
280
     0
  1
1:1
  0
DICTIONARYVAR
  5
EFE
102
{ACAD_REACTORS
330
8EF
102
}
330
8EF
100
DictionaryVariables
280
     0
  1
Standard
  0
DICTIONARYVAR
  5
8F0
102
{ACAD_REACTORS
330
8EF
102
}
330
8EF
100
DictionaryVariables
280
     0
  1
Standard
  0
DICTIONARYVAR
  5
EFF
102
{ACAD_REACTORS
330
8EF
102
}
330
8EF
100
DictionaryVariables
280
     0
  1
0
  0
DICTIONARYVAR
  5
F00
102
{ACAD_REACTORS
330
8EF
102
}
330
8EF
100
DictionaryVariables
280
     0
  1
0
  0
XRECORD
  5
E7F
102
{ACAD_REACTORS
330
E7E
102
}
330
E7E
100
AcDbXrecord
280
     1
  0
DICTIONARY
  5
EC7
330
807
100
AcDbDictionary
280
     1
281
     1
  3
ACAD_ROUNDTRIP_2008_TABLESTYLE_CELLSTYLEMAP
360
EC8
  0
DICTIONARY
  5
EC9
330
7FA
100
AcDbDictionary
280
     1
281
     1
  3
ACAD_XREC_ROUNDTRIP
360
ECA
  0
DICTIONARY
  5
ECB
330
7FC
100
AcDbDictionary
280
     1
281
     1
  3
ACAD_XREC_ROUNDTRIP
360
ECC
  0
DICTIONARY
  5
ECD
330
7FB
100
AcDbDictionary
280
     1
281
     1
  3
ACAD_XREC_ROUNDTRIP
360
ECE
  0
DICTIONARY
  5
ECF
330
7F9
100
AcDbDictionary
280
     1
281
     1
  3
ACAD_XREC_ROUNDTRIP
360
ED0
  0
DICTIONARY
  5
ED1
330
800
100
AcDbDictionary
280
     1
281
     1
  3
ACAD_XREC_ROUNDTRIP
360
ED2
  0
DICTIONARY
  5
ED3
330
804
100
AcDbDictionary
280
     1
281
     1
  3
ACAD_XREC_ROUNDTRIP
360
ED4
  0
DICTIONARY
  5
ED5
330
7FD
100
AcDbDictionary
280
     1
281
     1
  3
ACAD_XREC_ROUNDTRIP
360
ED6
  0
DICTIONARY
  5
ED7
330
7FF
100
AcDbDictionary
280
     1
281
     1
  3
ACAD_XREC_ROUNDTRIP
360
ED8
  0
DICTIONARY
  5
EF1
330
EBE
100
AcDbDictionary
280
     1
281
     1
  3
ACAD_XREC_ROUNDTRIP
360
EF2
  0
DICTIONARY
  5
ED9
330
803
100
AcDbDictionary
280
     1
281
     1
  3
ACAD_XREC_ROUNDTRIP
360
EDA
  0
DICTIONARY
  5
EDB
330
7F5
100
AcDbDictionary
280
     1
281
     1
  3
ACAD_XREC_ROUNDTRIP
360
EDC
  0
DICTIONARY
  5
EDD
330
7F6
100
AcDbDictionary
280
     1
281
     1
  3
ACAD_XREC_ROUNDTRIP
360
EDE
  0
DICTIONARY
  5
EDF
330
7F7
100
AcDbDictionary
280
     1
281
     1
  3
ACAD_XREC_ROUNDTRIP
360
EE0
  0
DICTIONARY
  5
EE1
330
7F8
100
AcDbDictionary
280
     1
281
     1
  3
ACAD_XREC_ROUNDTRIP
360
EE2
  0
DICTIONARY
  5
EEB
330
EBB
100
AcDbDictionary
280
     1
281
     1
  3
ACAD_XREC_ROUNDTRIP
360
EEC
  0
DICTIONARY
  5
EED
330
EBC
100
AcDbDictionary
280
     1
281
     1
  3
ACAD_XREC_ROUNDTRIP
360
EEE
  0
DICTIONARY
  5
EE3
330
802
100
AcDbDictionary
280
     1
281
     1
  3
ACAD_XREC_ROUNDTRIP
360
EE4
  0
DICTIONARY
  5
EEF
330
EBD
100
AcDbDictionary
280
     1
281
     1
  3
ACAD_XREC_ROUNDTRIP
360
EF0
  0
DICTIONARY
  5
EE5
330
7FE
100
AcDbDictionary
280
     1
281
     1
  3
ACAD_XREC_ROUNDTRIP
360
EE6
  0
DICTIONARY
  5
EFB
330
EC3
100
AcDbDictionary
280
     1
281
     1
  3
ACAD_XREC_ROUNDTRIP
360
EFC
  0
DICTIONARY
  5
EF9
330
EC2
100
AcDbDictionary
280
     1
281
     1
  3
ACAD_XREC_ROUNDTRIP
360
EFA
  0
DICTIONARY
  5
EF3
330
EBF
100
AcDbDictionary
280
     1
281
     1
  3
ACAD_XREC_ROUNDTRIP
360
EF4
  0
DICTIONARY
  5
EF5
330
EC0
100
AcDbDictionary
280
     1
281
     1
  3
ACAD_XREC_ROUNDTRIP
360
EF6
  0
DICTIONARY
  5
EE7
330
801
100
AcDbDictionary
280
     1
281
     1
  3
ACAD_XREC_ROUNDTRIP
360
EE8
  0
DICTIONARY
  5
EE9
330
EBA
100
AcDbDictionary
280
     1
281
     1
  3
ACAD_XREC_ROUNDTRIP
360
EEA
  0
DICTIONARY
  5
EF7
330
EC1
100
AcDbDictionary
280
     1
281
     1
  3
ACAD_XREC_ROUNDTRIP
360
EF8
  0
CELLSTYLEMAP
  5
EC8
102
{ACAD_REACTORS
330
EC7
102
}
330
EC7
100
AcDbCellStyleMap
 90
        3
300
CELLSTYLE
  1
TABLEFORMAT_BEGIN
 90
        5
170
     1
 91
        0
 92
    32768
 62
   257
 93
        1
300
CONTENTFORMAT
  1
CONTENTFORMAT_BEGIN
 90
        0
 91
        0
 92
      512
 93
        0
300

 40
0.0
140
1.0
 94
        5
 62
     0
340
17
144
0.25
309
CONTENTFORMAT_END
171
     1
301
MARGIN
  1
CELLMARGIN_BEGIN
 40
0.06
 40
0.06
 40
0.06
 40
0.06
 40
0.06
 40
0.06
309
CELLMARGIN_END
 94
        6
 95
        1
302
GRIDFORMAT
  1
GRIDFORMAT_BEGIN
 90
        0
 91
        1
 62
     0
 92
       -2
340
0
 93
        0
 40
0.045
309
GRIDFORMAT_END
 95
        2
302
GRIDFORMAT
  1
GRIDFORMAT_BEGIN
 90
        0
 91
        1
 62
     0
 92
       -2
340
0
 93
        0
 40
0.045
309
GRIDFORMAT_END
 95
        4
302
GRIDFORMAT
  1
GRIDFORMAT_BEGIN
 90
        0
 91
        1
 62
     0
 92
       -2
340
0
 93
        0
 40
0.045
309
GRIDFORMAT_END
 95
        8
302
GRIDFORMAT
  1
GRIDFORMAT_BEGIN
 90
        0
 91
        1
 62
     0
 92
       -2
340
0
 93
        0
 40
0.045
309
GRIDFORMAT_END
 95
       16
302
GRIDFORMAT
  1
GRIDFORMAT_BEGIN
 90
        0
 91
        1
 62
     0
 92
       -2
340
0
 93
        0
 40
0.045
309
GRIDFORMAT_END
 95
       32
302
GRIDFORMAT
  1
GRIDFORMAT_BEGIN
 90
        0
 91
        1
 62
     0
 92
       -2
340
0
 93
        0
 40
0.045
309
GRIDFORMAT_END
309
TABLEFORMAT_END
  1
CELLSTYLE_BEGIN
 90
        1
 91
        1
300
_TITLE
309
CELLSTYLE_END
300
CELLSTYLE
  1
TABLEFORMAT_BEGIN
 90
        5
170
     1
 91
        0
 92
        0
 62
   257
 93
        1
300
CONTENTFORMAT
  1
CONTENTFORMAT_BEGIN
 90
        0
 91
        0
 92
      512
 93
        0
300

 40
0.0
140
1.0
 94
        5
 62
     0
340
17
144
0.18
309
CONTENTFORMAT_END
171
     1
301
MARGIN
  1
CELLMARGIN_BEGIN
 40
0.06
 40
0.06
 40
0.06
 40
0.06
 40
0.06
 40
0.06
309
CELLMARGIN_END
 94
        6
 95
        1
302
GRIDFORMAT
  1
GRIDFORMAT_BEGIN
 90
        0
 91
        1
 62
     0
 92
       -2
340
0
 93
        0
 40
0.045
309
GRIDFORMAT_END
 95
        2
302
GRIDFORMAT
  1
GRIDFORMAT_BEGIN
 90
        0
 91
        1
 62
     0
 92
       -2
340
0
 93
        0
 40
0.045
309
GRIDFORMAT_END
 95
        4
302
GRIDFORMAT
  1
GRIDFORMAT_BEGIN
 90
        0
 91
        1
 62
     0
 92
       -2
340
0
 93
        0
 40
0.045
309
GRIDFORMAT_END
 95
        8
302
GRIDFORMAT
  1
GRIDFORMAT_BEGIN
 90
        0
 91
        1
 62
     0
 92
       -2
340
0
 93
        0
 40
0.045
309
GRIDFORMAT_END
 95
       16
302
GRIDFORMAT
  1
GRIDFORMAT_BEGIN
 90
        0
 91
        1
 62
     0
 92
       -2
340
0
 93
        0
 40
0.045
309
GRIDFORMAT_END
 95
       32
302
GRIDFORMAT
  1
GRIDFORMAT_BEGIN
 90
        0
 91
        1
 62
     0
 92
       -2
340
0
 93
        0
 40
0.045
309
GRIDFORMAT_END
309
TABLEFORMAT_END
  1
CELLSTYLE_BEGIN
 90
        2
 91
        1
300
_HEADER
309
CELLSTYLE_END
300
CELLSTYLE
  1
TABLEFORMAT_BEGIN
 90
        5
170
     1
 91
        0
 92
        0
 62
   257
 93
        1
300
CONTENTFORMAT
  1
CONTENTFORMAT_BEGIN
 90
        0
 91
        0
 92
      512
 93
        0
300

 40
0.0
140
1.0
 94
        2
 62
     0
340
17
144
0.18
309
CONTENTFORMAT_END
171
     1
301
MARGIN
  1
CELLMARGIN_BEGIN
 40
0.06
 40
0.06
 40
0.06
 40
0.06
 40
0.06
 40
0.06
309
CELLMARGIN_END
 94
        6
 95
        1
302
GRIDFORMAT
  1
GRIDFORMAT_BEGIN
 90
        0
 91
        1
 62
     0
 92
       -2
340
0
 93
        0
 40
0.045
309
GRIDFORMAT_END
 95
        2
302
GRIDFORMAT
  1
GRIDFORMAT_BEGIN
 90
        0
 91
        1
 62
     0
 92
       -2
340
0
 93
        0
 40
0.045
309
GRIDFORMAT_END
 95
        4
302
GRIDFORMAT
  1
GRIDFORMAT_BEGIN
 90
        0
 91
        1
 62
     0
 92
       -2
340
0
 93
        0
 40
0.045
309
GRIDFORMAT_END
 95
        8
302
GRIDFORMAT
  1
GRIDFORMAT_BEGIN
 90
        0
 91
        1
 62
     0
 92
       -2
340
0
 93
        0
 40
0.045
309
GRIDFORMAT_END
 95
       16
302
GRIDFORMAT
  1
GRIDFORMAT_BEGIN
 90
        0
 91
        1
 62
     0
 92
       -2
340
0
 93
        0
 40
0.045
309
GRIDFORMAT_END
 95
       32
302
GRIDFORMAT
  1
GRIDFORMAT_BEGIN
 90
        0
 91
        1
 62
     0
 92
       -2
340
0
 93
        0
 40
0.045
309
GRIDFORMAT_END
309
TABLEFORMAT_END
  1
CELLSTYLE_BEGIN
 90
        3
 91
        2
300
_DATA
309
CELLSTYLE_END
  0
XRECORD
  5
ECA
102
{ACAD_REACTORS
330
EC9
102
}
330
EC9
100
AcDbXrecord
280
     1
102
RTVSPost2010Prop28
280
     1
102
RTVSPost2010PropOp28
 70
     1
102
RTVSPost2010Prop29
280
     1
102
RTVSPost2010PropOp29
 70
     1
102
RTVSPost2010Prop30
280
     0
102
RTVSPost2010PropOp30
 70
     1
102
RTVSPost2010Prop31
280
     0
102
RTVSPost2010PropOp31
 70
     1
102
RTVSPost2010Prop32
280
     0
102
RTVSPost2010PropOp32
 70
     1
102
RTVSPost2010Prop33
280
     0
102
RTVSPost2010PropOp33
 70
     1
102
RTVSPost2010Prop34
280
     0
102
RTVSPost2010PropOp34
 70
     1
102
RTVSPost2010Prop35
280
     0
102
RTVSPost2010PropOp35
 70
     1
102
RTVSPost2010Prop36
280
     0
102
RTVSPost2010PropOp36
 70
     1
102
RTVSPost2010Prop37
 90
       50
102
RTVSPost2010PropOp37
 70
     1
102
RTVSPost2010Prop38
140
0.0
102
RTVSPost2010PropOp38
 70
     1
102
RTVSPost2010Prop39
140
1.0
102
RTVSPost2010PropOp39
 70
     1
102
RTVSPost2010Prop40
 90
        0
102
RTVSPost2010PropOp40
 70
     1
102
RTVSPost2010Prop41ColorIndex
 90
       18
102
RTVSPost2010Prop41ColorRGB
 90
        0
102
RTVSPost2010PropOp41
 70
     1
102
RTVSPost2010Prop42
 90
       50
102
RTVSPost2010PropOp42
 70
     1
102
RTVSPost2010Prop43
 90
        3
102
RTVSPost2010PropOp43
 70
     1
102
RTVSPost2010Prop44ColorIndex
 90
        5
102
RTVSPost2010Prop44ColorRGB
 90
      255
102
RTVSPost2010PropOp44
 70
     1
102
RTVSPost2010Prop45
280
     0
102
RTVSPost2010PropOp45
 70
     1
102
RTVSPost2010Prop46
 90
       50
102
RTVSPost2010PropOp46
 70
     1
102
RTVSPost2010Prop47
 90
       50
102
RTVSPost2010PropOp47
 70
     1
102
RTVSPost2010Prop48
 90
       50
102
RTVSPost2010PropOp48
 70
     1
102
RTVSPost2010Prop49
280
     0
102
RTVSPost2010PropOp49
 70
     1
102
RTVSPost2010Prop50
 90
       50
102
RTVSPost2010PropOp50
 70
     1
102
RTVSPost2010Prop51ColorIndex
 90
      256
102
RTVSPost2010Prop51ColorRGB
 90
-16777216
102
RTVSPost2010PropOp51
 70
     0
102
RTVSPost2010Prop52
140
1.0
102
RTVSPost2010PropOp52
 70
     0
102
RTVSPost2010Prop53
 90
        2
102
RTVSPost2010PropOp53
 70
     1
102
RTVSPost2010Prop54
  1
strokes_ogs.tif
102
RTVSPost2010PropOp54
 70
     1
102
RTVSPost2010Prop55
280
     0
102
RTVSPost2010PropOp55
 70
     1
102
RTVSPost2010Prop56
140
1.0
102
RTVSPost2010PropOp56
 70
     1
102
RTVSPost2010Prop57
140
1.0
102
RTVSPost2010PropOp57
 70
     1
  0
XRECORD
  5
ECC
102
{ACAD_REACTORS
330
ECB
102
}
330
ECB
100
AcDbXrecord
280
     1
102
RTVSPost2010Prop28
280
     0
102
RTVSPost2010PropOp28
 70
     1
102
RTVSPost2010Prop29
280
     1
102
RTVSPost2010PropOp29
 70
     1
102
RTVSPost2010Prop30
280
     1
102
RTVSPost2010PropOp30
 70
     1
102
RTVSPost2010Prop31
280
     0
102
RTVSPost2010PropOp31
 70
     1
102
RTVSPost2010Prop32
280
     0
102
RTVSPost2010PropOp32
 70
     1
102
RTVSPost2010Prop33
280
     0
102
RTVSPost2010PropOp33
 70
     1
102
RTVSPost2010Prop34
280
     0
102
RTVSPost2010PropOp34
 70
     1
102
RTVSPost2010Prop35
280
     0
102
RTVSPost2010PropOp35
 70
     1
102
RTVSPost2010Prop36
280
     0
102
RTVSPost2010PropOp36
 70
     1
102
RTVSPost2010Prop37
 90
       50
102
RTVSPost2010PropOp37
 70
     1
102
RTVSPost2010Prop38
140
0.0
102
RTVSPost2010PropOp38
 70
     1
102
RTVSPost2010Prop39
140
1.0
102
RTVSPost2010PropOp39
 70
     1
102
RTVSPost2010Prop40
 90
        0
102
RTVSPost2010PropOp40
 70
     1
102
RTVSPost2010Prop41ColorIndex
 90
       18
102
RTVSPost2010Prop41ColorRGB
 90
        0
102
RTVSPost2010PropOp41
 70
     1
102
RTVSPost2010Prop42
 90
       50
102
RTVSPost2010PropOp42
 70
     1
102
RTVSPost2010Prop43
 90
        3
102
RTVSPost2010PropOp43
 70
     1
102
RTVSPost2010Prop44ColorIndex
 90
        5
102
RTVSPost2010Prop44ColorRGB
 90
      255
102
RTVSPost2010PropOp44
 70
     1
102
RTVSPost2010Prop45
280
     0
102
RTVSPost2010PropOp45
 70
     1
102
RTVSPost2010Prop46
 90
       50
102
RTVSPost2010PropOp46
 70
     1
102
RTVSPost2010Prop47
 90
       50
102
RTVSPost2010PropOp47
 70
     1
102
RTVSPost2010Prop48
 90
       50
102
RTVSPost2010PropOp48
 70
     1
102
RTVSPost2010Prop49
280
     0
102
RTVSPost2010PropOp49
 70
     1
102
RTVSPost2010Prop50
 90
       50
102
RTVSPost2010PropOp50
 70
     1
102
RTVSPost2010Prop51ColorIndex
 90
      256
102
RTVSPost2010Prop51ColorRGB
 90
-16777216
102
RTVSPost2010PropOp51
 70
     0
102
RTVSPost2010Prop52
140
1.0
102
RTVSPost2010PropOp52
 70
     0
102
RTVSPost2010Prop53
 90
        2
102
RTVSPost2010PropOp53
 70
     1
102
RTVSPost2010Prop54
  1
strokes_ogs.tif
102
RTVSPost2010PropOp54
 70
     1
102
RTVSPost2010Prop55
280
     0
102
RTVSPost2010PropOp55
 70
     1
102
RTVSPost2010Prop56
140
1.0
102
RTVSPost2010PropOp56
 70
     1
102
RTVSPost2010Prop57
140
1.0
102
RTVSPost2010PropOp57
 70
     1
  0
XRECORD
  5
ECE
102
{ACAD_REACTORS
330
ECD
102
}
330
ECD
100
AcDbXrecord
280
     1
102
RTVSPost2010Prop28
280
     0
102
RTVSPost2010PropOp28
 70
     1
102
RTVSPost2010Prop29
280
     1
102
RTVSPost2010PropOp29
 70
     1
102
RTVSPost2010Prop30
280
     1
102
RTVSPost2010PropOp30
 70
     1
102
RTVSPost2010Prop31
280
     0
102
RTVSPost2010PropOp31
 70
     1
102
RTVSPost2010Prop32
280
     0
102
RTVSPost2010PropOp32
 70
     1
102
RTVSPost2010Prop33
280
     0
102
RTVSPost2010PropOp33
 70
     1
102
RTVSPost2010Prop34
280
     0
102
RTVSPost2010PropOp34
 70
     1
102
RTVSPost2010Prop35
280
     0
102
RTVSPost2010PropOp35
 70
     1
102
RTVSPost2010Prop36
280
     0
102
RTVSPost2010PropOp36
 70
     1
102
RTVSPost2010Prop37
 90
       50
102
RTVSPost2010PropOp37
 70
     1
102
RTVSPost2010Prop38
140
0.0
102
RTVSPost2010PropOp38
 70
     1
102
RTVSPost2010Prop39
140
1.0
102
RTVSPost2010PropOp39
 70
     1
102
RTVSPost2010Prop40
 90
        0
102
RTVSPost2010PropOp40
 70
     1
102
RTVSPost2010Prop41ColorIndex
 90
       18
102
RTVSPost2010Prop41ColorRGB
 90
        0
102
RTVSPost2010PropOp41
 70
     1
102
RTVSPost2010Prop42
 90
       50
102
RTVSPost2010PropOp42
 70
     1
102
RTVSPost2010Prop43
 90
        3
102
RTVSPost2010PropOp43
 70
     1
102
RTVSPost2010Prop44ColorIndex
 90
        5
102
RTVSPost2010Prop44ColorRGB
 90
      255
102
RTVSPost2010PropOp44
 70
     1
102
RTVSPost2010Prop45
280
     0
102
RTVSPost2010PropOp45
 70
     1
102
RTVSPost2010Prop46
 90
       50
102
RTVSPost2010PropOp46
 70
     1
102
RTVSPost2010Prop47
 90
       50
102
RTVSPost2010PropOp47
 70
     1
102
RTVSPost2010Prop48
 90
       50
102
RTVSPost2010PropOp48
 70
     1
102
RTVSPost2010Prop49
280
     0
102
RTVSPost2010PropOp49
 70
     1
102
RTVSPost2010Prop50
 90
       50
102
RTVSPost2010PropOp50
 70
     1
102
RTVSPost2010Prop51ColorIndex
 90
      256
102
RTVSPost2010Prop51ColorRGB
 90
-16777216
102
RTVSPost2010PropOp51
 70
     0
102
RTVSPost2010Prop52
140
1.0
102
RTVSPost2010PropOp52
 70
     0
102
RTVSPost2010Prop53
 90
        2
102
RTVSPost2010PropOp53
 70
     1
102
RTVSPost2010Prop54
  1
strokes_ogs.tif
102
RTVSPost2010PropOp54
 70
     1
102
RTVSPost2010Prop55
280
     0
102
RTVSPost2010PropOp55
 70
     1
102
RTVSPost2010Prop56
140
1.0
102
RTVSPost2010PropOp56
 70
     1
102
RTVSPost2010Prop57
140
1.0
102
RTVSPost2010PropOp57
 70
     1
  0
XRECORD
  5
ED0
102
{ACAD_REACTORS
330
ECF
102
}
330
ECF
100
AcDbXrecord
280
     1
102
RTVSPost2010Prop28
280
     0
102
RTVSPost2010PropOp28
 70
     1
102
RTVSPost2010Prop29
280
     1
102
RTVSPost2010PropOp29
 70
     1
102
RTVSPost2010Prop30
280
     1
102
RTVSPost2010PropOp30
 70
     1
102
RTVSPost2010Prop31
280
     0
102
RTVSPost2010PropOp31
 70
     1
102
RTVSPost2010Prop32
280
     0
102
RTVSPost2010PropOp32
 70
     1
102
RTVSPost2010Prop33
280
     0
102
RTVSPost2010PropOp33
 70
     1
102
RTVSPost2010Prop34
280
     0
102
RTVSPost2010PropOp34
 70
     1
102
RTVSPost2010Prop35
280
     0
102
RTVSPost2010PropOp35
 70
     1
102
RTVSPost2010Prop36
280
     0
102
RTVSPost2010PropOp36
 70
     1
102
RTVSPost2010Prop37
 90
       50
102
RTVSPost2010PropOp37
 70
     1
102
RTVSPost2010Prop38
140
0.0
102
RTVSPost2010PropOp38
 70
     1
102
RTVSPost2010Prop39
140
1.0
102
RTVSPost2010PropOp39
 70
     1
102
RTVSPost2010Prop40
 90
        0
102
RTVSPost2010PropOp40
 70
     1
102
RTVSPost2010Prop41ColorIndex
 90
       18
102
RTVSPost2010Prop41ColorRGB
 90
        0
102
RTVSPost2010PropOp41
 70
     1
102
RTVSPost2010Prop42
 90
       50
102
RTVSPost2010PropOp42
 70
     1
102
RTVSPost2010Prop43
 90
        3
102
RTVSPost2010PropOp43
 70
     1
102
RTVSPost2010Prop44ColorIndex
 90
        5
102
RTVSPost2010Prop44ColorRGB
 90
      255
102
RTVSPost2010PropOp44
 70
     1
102
RTVSPost2010Prop45
280
     0
102
RTVSPost2010PropOp45
 70
     1
102
RTVSPost2010Prop46
 90
       50
102
RTVSPost2010PropOp46
 70
     1
102
RTVSPost2010Prop47
 90
       50
102
RTVSPost2010PropOp47
 70
     1
102
RTVSPost2010Prop48
 90
       50
102
RTVSPost2010PropOp48
 70
     1
102
RTVSPost2010Prop49
280
     0
102
RTVSPost2010PropOp49
 70
     1
102
RTVSPost2010Prop50
 90
       50
102
RTVSPost2010PropOp50
 70
     1
102
RTVSPost2010Prop51ColorIndex
 90
      256
102
RTVSPost2010Prop51ColorRGB
 90
-16777216
102
RTVSPost2010PropOp51
 70
     0
102
RTVSPost2010Prop52
140
1.0
102
RTVSPost2010PropOp52
 70
     0
102
RTVSPost2010Prop53
 90
        2
102
RTVSPost2010PropOp53
 70
     1
102
RTVSPost2010Prop54
  1
strokes_ogs.tif
102
RTVSPost2010PropOp54
 70
     1
102
RTVSPost2010Prop55
280
     0
102
RTVSPost2010PropOp55
 70
     1
102
RTVSPost2010Prop56
140
1.0
102
RTVSPost2010PropOp56
 70
     1
102
RTVSPost2010Prop57
140
1.0
102
RTVSPost2010PropOp57
 70
     1
  0
XRECORD
  5
ED2
102
{ACAD_REACTORS
330
ED1
102
}
330
ED1
100
AcDbXrecord
280
     1
102
RTVSPost2010Prop28
280
     0
102
RTVSPost2010PropOp28
 70
     1
102
RTVSPost2010Prop29
280
     1
102
RTVSPost2010PropOp29
 70
     1
102
RTVSPost2010Prop30
280
     1
102
RTVSPost2010PropOp30
 70
     1
102
RTVSPost2010Prop31
280
     0
102
RTVSPost2010PropOp31
 70
     1
102
RTVSPost2010Prop32
280
     0
102
RTVSPost2010PropOp32
 70
     1
102
RTVSPost2010Prop33
280
     0
102
RTVSPost2010PropOp33
 70
     1
102
RTVSPost2010Prop34
280
     0
102
RTVSPost2010PropOp34
 70
     1
102
RTVSPost2010Prop35
280
     0
102
RTVSPost2010PropOp35
 70
     1
102
RTVSPost2010Prop36
280
     0
102
RTVSPost2010PropOp36
 70
     1
102
RTVSPost2010Prop37
 90
       50
102
RTVSPost2010PropOp37
 70
     1
102
RTVSPost2010Prop38
140
0.0
102
RTVSPost2010PropOp38
 70
     1
102
RTVSPost2010Prop39
140
1.0
102
RTVSPost2010PropOp39
 70
     1
102
RTVSPost2010Prop40
 90
        0
102
RTVSPost2010PropOp40
 70
     1
102
RTVSPost2010Prop41ColorIndex
 90
       18
102
RTVSPost2010Prop41ColorRGB
 90
        0
102
RTVSPost2010PropOp41
 70
     1
102
RTVSPost2010Prop42
 90
       50
102
RTVSPost2010PropOp42
 70
     1
102
RTVSPost2010Prop43
 90
        3
102
RTVSPost2010PropOp43
 70
     1
102
RTVSPost2010Prop44ColorIndex
 90
        5
102
RTVSPost2010Prop44ColorRGB
 90
      255
102
RTVSPost2010PropOp44
 70
     1
102
RTVSPost2010Prop45
280
     0
102
RTVSPost2010PropOp45
 70
     1
102
RTVSPost2010Prop46
 90
       50
102
RTVSPost2010PropOp46
 70
     1
102
RTVSPost2010Prop47
 90
       50
102
RTVSPost2010PropOp47
 70
     1
102
RTVSPost2010Prop48
 90
       50
102
RTVSPost2010PropOp48
 70
     1
102
RTVSPost2010Prop49
280
     0
102
RTVSPost2010PropOp49
 70
     1
102
RTVSPost2010Prop50
 90
       50
102
RTVSPost2010PropOp50
 70
     1
102
RTVSPost2010Prop51ColorIndex
 90
      256
102
RTVSPost2010Prop51ColorRGB
 90
-16777216
102
RTVSPost2010PropOp51
 70
     0
102
RTVSPost2010Prop52
140
1.0
102
RTVSPost2010PropOp52
 70
     0
102
RTVSPost2010Prop53
 90
        2
102
RTVSPost2010PropOp53
 70
     1
102
RTVSPost2010Prop54
  1
strokes_ogs.tif
102
RTVSPost2010PropOp54
 70
     1
102
RTVSPost2010Prop55
280
     0
102
RTVSPost2010PropOp55
 70
     1
102
RTVSPost2010Prop56
140
1.0
102
RTVSPost2010PropOp56
 70
     1
102
RTVSPost2010Prop57
140
1.0
102
RTVSPost2010PropOp57
 70
     1
  0
XRECORD
  5
ED4
102
{ACAD_REACTORS
330
ED3
102
}
330
ED3
100
AcDbXrecord
280
     1
102
RTVSPost2010Prop28
280
     0
102
RTVSPost2010PropOp28
 70
     1
102
RTVSPost2010Prop29
280
     1
102
RTVSPost2010PropOp29
 70
     1
102
RTVSPost2010Prop30
280
     1
102
RTVSPost2010PropOp30
 70
     1
102
RTVSPost2010Prop31
280
     0
102
RTVSPost2010PropOp31
 70
     1
102
RTVSPost2010Prop32
280
     0
102
RTVSPost2010PropOp32
 70
     1
102
RTVSPost2010Prop33
280
     0
102
RTVSPost2010PropOp33
 70
     1
102
RTVSPost2010Prop34
280
     0
102
RTVSPost2010PropOp34
 70
     1
102
RTVSPost2010Prop35
280
     0
102
RTVSPost2010PropOp35
 70
     1
102
RTVSPost2010Prop36
280
     0
102
RTVSPost2010PropOp36
 70
     1
102
RTVSPost2010Prop37
 90
       50
102
RTVSPost2010PropOp37
 70
     1
102
RTVSPost2010Prop38
140
0.0
102
RTVSPost2010PropOp38
 70
     1
102
RTVSPost2010Prop39
140
1.0
102
RTVSPost2010PropOp39
 70
     1
102
RTVSPost2010Prop40
 90
        0
102
RTVSPost2010PropOp40
 70
     1
102
RTVSPost2010Prop41ColorIndex
 90
       18
102
RTVSPost2010Prop41ColorRGB
 90
        0
102
RTVSPost2010PropOp41
 70
     1
102
RTVSPost2010Prop42
 90
       50
102
RTVSPost2010PropOp42
 70
     1
102
RTVSPost2010Prop43
 90
        3
102
RTVSPost2010PropOp43
 70
     1
102
RTVSPost2010Prop44ColorIndex
 90
        5
102
RTVSPost2010Prop44ColorRGB
 90
      255
102
RTVSPost2010PropOp44
 70
     1
102
RTVSPost2010Prop45
280
     0
102
RTVSPost2010PropOp45
 70
     1
102
RTVSPost2010Prop46
 90
       50
102
RTVSPost2010PropOp46
 70
     1
102
RTVSPost2010Prop47
 90
       50
102
RTVSPost2010PropOp47
 70
     1
102
RTVSPost2010Prop48
 90
       50
102
RTVSPost2010PropOp48
 70
     1
102
RTVSPost2010Prop49
280
     0
102
RTVSPost2010PropOp49
 70
     1
102
RTVSPost2010Prop50
 90
       50
102
RTVSPost2010PropOp50
 70
     1
102
RTVSPost2010Prop51ColorIndex
 90
      256
102
RTVSPost2010Prop51ColorRGB
 90
-16777216
102
RTVSPost2010PropOp51
 70
     0
102
RTVSPost2010Prop52
140
1.0
102
RTVSPost2010PropOp52
 70
     0
102
RTVSPost2010Prop53
 90
        2
102
RTVSPost2010PropOp53
 70
     1
102
RTVSPost2010Prop54
  1
strokes_ogs.tif
102
RTVSPost2010PropOp54
 70
     1
102
RTVSPost2010Prop55
280
     0
102
RTVSPost2010PropOp55
 70
     1
102
RTVSPost2010Prop56
140
1.0
102
RTVSPost2010PropOp56
 70
     1
102
RTVSPost2010Prop57
140
1.0
102
RTVSPost2010PropOp57
 70
     1
  0
XRECORD
  5
ED6
102
{ACAD_REACTORS
330
ED5
102
}
330
ED5
100
AcDbXrecord
280
     1
102
RTVSPost2010Prop28
280
     0
102
RTVSPost2010PropOp28
 70
     1
102
RTVSPost2010Prop29
280
     1
102
RTVSPost2010PropOp29
 70
     1
102
RTVSPost2010Prop30
280
     1
102
RTVSPost2010PropOp30
 70
     1
102
RTVSPost2010Prop31
280
     0
102
RTVSPost2010PropOp31
 70
     1
102
RTVSPost2010Prop32
280
     0
102
RTVSPost2010PropOp32
 70
     1
102
RTVSPost2010Prop33
280
     0
102
RTVSPost2010PropOp33
 70
     1
102
RTVSPost2010Prop34
280
     0
102
RTVSPost2010PropOp34
 70
     1
102
RTVSPost2010Prop35
280
     0
102
RTVSPost2010PropOp35
 70
     1
102
RTVSPost2010Prop36
280
     0
102
RTVSPost2010PropOp36
 70
     1
102
RTVSPost2010Prop37
 90
       50
102
RTVSPost2010PropOp37
 70
     1
102
RTVSPost2010Prop38
140
0.0
102
RTVSPost2010PropOp38
 70
     1
102
RTVSPost2010Prop39
140
1.0
102
RTVSPost2010PropOp39
 70
     1
102
RTVSPost2010Prop40
 90
        0
102
RTVSPost2010PropOp40
 70
     1
102
RTVSPost2010Prop41ColorIndex
 90
       18
102
RTVSPost2010Prop41ColorRGB
 90
        0
102
RTVSPost2010PropOp41
 70
     1
102
RTVSPost2010Prop42
 90
       50
102
RTVSPost2010PropOp42
 70
     1
102
RTVSPost2010Prop43
 90
        3
102
RTVSPost2010PropOp43
 70
     1
102
RTVSPost2010Prop44ColorIndex
 90
        5
102
RTVSPost2010Prop44ColorRGB
 90
      255
102
RTVSPost2010PropOp44
 70
     1
102
RTVSPost2010Prop45
280
     0
102
RTVSPost2010PropOp45
 70
     1
102
RTVSPost2010Prop46
 90
       50
102
RTVSPost2010PropOp46
 70
     1
102
RTVSPost2010Prop47
 90
       50
102
RTVSPost2010PropOp47
 70
     1
102
RTVSPost2010Prop48
 90
       50
102
RTVSPost2010PropOp48
 70
     1
102
RTVSPost2010Prop49
280
     0
102
RTVSPost2010PropOp49
 70
     1
102
RTVSPost2010Prop50
 90
       50
102
RTVSPost2010PropOp50
 70
     1
102
RTVSPost2010Prop51ColorIndex
 90
      256
102
RTVSPost2010Prop51ColorRGB
 90
-16777216
102
RTVSPost2010PropOp51
 70
     0
102
RTVSPost2010Prop52
140
1.0
102
RTVSPost2010PropOp52
 70
     0
102
RTVSPost2010Prop53
 90
        2
102
RTVSPost2010PropOp53
 70
     1
102
RTVSPost2010Prop54
  1
strokes_ogs.tif
102
RTVSPost2010PropOp54
 70
     1
102
RTVSPost2010Prop55
280
     0
102
RTVSPost2010PropOp55
 70
     1
102
RTVSPost2010Prop56
140
1.0
102
RTVSPost2010PropOp56
 70
     1
102
RTVSPost2010Prop57
140
1.0
102
RTVSPost2010PropOp57
 70
     1
  0
XRECORD
  5
ED8
102
{ACAD_REACTORS
330
ED7
102
}
330
ED7
100
AcDbXrecord
280
     1
102
RTVSPost2010Prop28
280
     0
102
RTVSPost2010PropOp28
 70
     1
102
RTVSPost2010Prop29
280
     1
102
RTVSPost2010PropOp29
 70
     1
102
RTVSPost2010Prop30
280
     1
102
RTVSPost2010PropOp30
 70
     1
102
RTVSPost2010Prop31
280
     0
102
RTVSPost2010PropOp31
 70
     1
102
RTVSPost2010Prop32
280
     0
102
RTVSPost2010PropOp32
 70
     1
102
RTVSPost2010Prop33
280
     0
102
RTVSPost2010PropOp33
 70
     1
102
RTVSPost2010Prop34
280
     0
102
RTVSPost2010PropOp34
 70
     1
102
RTVSPost2010Prop35
280
     0
102
RTVSPost2010PropOp35
 70
     1
102
RTVSPost2010Prop36
280
     0
102
RTVSPost2010PropOp36
 70
     1
102
RTVSPost2010Prop37
 90
       50
102
RTVSPost2010PropOp37
 70
     1
102
RTVSPost2010Prop38
140
0.0
102
RTVSPost2010PropOp38
 70
     1
102
RTVSPost2010Prop39
140
1.0
102
RTVSPost2010PropOp39
 70
     1
102
RTVSPost2010Prop40
 90
        0
102
RTVSPost2010PropOp40
 70
     1
102
RTVSPost2010Prop41ColorIndex
 90
       18
102
RTVSPost2010Prop41ColorRGB
 90
        0
102
RTVSPost2010PropOp41
 70
     1
102
RTVSPost2010Prop42
 90
       50
102
RTVSPost2010PropOp42
 70
     1
102
RTVSPost2010Prop43
 90
        3
102
RTVSPost2010PropOp43
 70
     1
102
RTVSPost2010Prop44ColorIndex
 90
        5
102
RTVSPost2010Prop44ColorRGB
 90
      255
102
RTVSPost2010PropOp44
 70
     1
102
RTVSPost2010Prop45
280
     0
102
RTVSPost2010PropOp45
 70
     1
102
RTVSPost2010Prop46
 90
       50
102
RTVSPost2010PropOp46
 70
     1
102
RTVSPost2010Prop47
 90
       50
102
RTVSPost2010PropOp47
 70
     1
102
RTVSPost2010Prop48
 90
       50
102
RTVSPost2010PropOp48
 70
     1
102
RTVSPost2010Prop49
280
     0
102
RTVSPost2010PropOp49
 70
     1
102
RTVSPost2010Prop50
 90
       50
102
RTVSPost2010PropOp50
 70
     1
102
RTVSPost2010Prop51ColorIndex
 90
      256
102
RTVSPost2010Prop51ColorRGB
 90
-16777216
102
RTVSPost2010PropOp51
 70
     0
102
RTVSPost2010Prop52
140
1.0
102
RTVSPost2010PropOp52
 70
     0
102
RTVSPost2010Prop53
 90
        2
102
RTVSPost2010PropOp53
 70
     1
102
RTVSPost2010Prop54
  1
strokes_ogs.tif
102
RTVSPost2010PropOp54
 70
     1
102
RTVSPost2010Prop55
280
     0
102
RTVSPost2010PropOp55
 70
     1
102
RTVSPost2010Prop56
140
1.0
102
RTVSPost2010PropOp56
 70
     1
102
RTVSPost2010Prop57
140
1.0
102
RTVSPost2010PropOp57
 70
     1
  0
XRECORD
  5
EF2
102
{ACAD_REACTORS
330
EF1
102
}
330
EF1
100
AcDbXrecord
280
     1
102
RTVSPost2010Prop28
280
     0
102
RTVSPost2010PropOp28
 70
     0
102
RTVSPost2010Prop29
280
     1
102
RTVSPost2010PropOp29
 70
     0
102
RTVSPost2010Prop30
280
     1
102
RTVSPost2010PropOp30
 70
     0
102
RTVSPost2010Prop31
280
     0
102
RTVSPost2010PropOp31
 70
     0
102
RTVSPost2010Prop32
280
     0
102
RTVSPost2010PropOp32
 70
     0
102
RTVSPost2010Prop33
280
     0
102
RTVSPost2010PropOp33
 70
     0
102
RTVSPost2010Prop34
280
     0
102
RTVSPost2010PropOp34
 70
     0
102
RTVSPost2010Prop35
280
     0
102
RTVSPost2010PropOp35
 70
     0
102
RTVSPost2010Prop36
280
     0
102
RTVSPost2010PropOp36
 70
     0
102
RTVSPost2010Prop37
 90
       50
102
RTVSPost2010PropOp37
 70
     0
102
RTVSPost2010Prop38
140
0.0
102
RTVSPost2010PropOp38
 70
     0
102
RTVSPost2010Prop39
140
1.0
102
RTVSPost2010PropOp39
 70
     0
102
RTVSPost2010Prop40
 90
        0
102
RTVSPost2010PropOp40
 70
     0
102
RTVSPost2010Prop41ColorIndex
 90
       18
102
RTVSPost2010Prop41ColorRGB
 90
        0
102
RTVSPost2010PropOp41
 70
     0
102
RTVSPost2010Prop42
 90
       50
102
RTVSPost2010PropOp42
 70
     0
102
RTVSPost2010Prop43
 90
        3
102
RTVSPost2010PropOp43
 70
     0
102
RTVSPost2010Prop44ColorIndex
 90
        5
102
RTVSPost2010Prop44ColorRGB
 90
      255
102
RTVSPost2010PropOp44
 70
     0
102
RTVSPost2010Prop45
280
     0
102
RTVSPost2010PropOp45
 70
     0
102
RTVSPost2010Prop46
 90
       50
102
RTVSPost2010PropOp46
 70
     0
102
RTVSPost2010Prop47
 90
       50
102
RTVSPost2010PropOp47
 70
     0
102
RTVSPost2010Prop48
 90
       50
102
RTVSPost2010PropOp48
 70
     0
102
RTVSPost2010Prop49
280
     0
102
RTVSPost2010PropOp49
 70
     0
102
RTVSPost2010Prop50
 90
       50
102
RTVSPost2010PropOp50
 70
     0
102
RTVSPost2010Prop51ColorIndex
 90
      256
102
RTVSPost2010Prop51ColorRGB
 90
-16777216
102
RTVSPost2010PropOp51
 70
     0
102
RTVSPost2010Prop52
140
1.0
102
RTVSPost2010PropOp52
 70
     0
102
RTVSPost2010Prop53
 90
        2
102
RTVSPost2010PropOp53
 70
     0
102
RTVSPost2010Prop54
  1
strokes_ogs.tif
102
RTVSPost2010PropOp54
 70
     0
102
RTVSPost2010Prop55
280
     0
102
RTVSPost2010PropOp55
 70
     0
102
RTVSPost2010Prop56
140
1.0
102
RTVSPost2010PropOp56
 70
     0
102
RTVSPost2010Prop57
140
1.0
102
RTVSPost2010PropOp57
 70
     0
  0
XRECORD
  5
EDA
102
{ACAD_REACTORS
330
ED9
102
}
330
ED9
100
AcDbXrecord
280
     1
102
RTVSPost2010Prop28
280
     0
102
RTVSPost2010PropOp28
 70
     1
102
RTVSPost2010Prop29
280
     1
102
RTVSPost2010PropOp29
 70
     1
102
RTVSPost2010Prop30
280
     1
102
RTVSPost2010PropOp30
 70
     1
102
RTVSPost2010Prop31
280
     0
102
RTVSPost2010PropOp31
 70
     1
102
RTVSPost2010Prop32
280
     0
102
RTVSPost2010PropOp32
 70
     1
102
RTVSPost2010Prop33
280
     0
102
RTVSPost2010PropOp33
 70
     1
102
RTVSPost2010Prop34
280
     0
102
RTVSPost2010PropOp34
 70
     1
102
RTVSPost2010Prop35
280
     0
102
RTVSPost2010PropOp35
 70
     1
102
RTVSPost2010Prop36
280
     0
102
RTVSPost2010PropOp36
 70
     1
102
RTVSPost2010Prop37
 90
       50
102
RTVSPost2010PropOp37
 70
     1
102
RTVSPost2010Prop38
140
0.0
102
RTVSPost2010PropOp38
 70
     1
102
RTVSPost2010Prop39
140
1.0
102
RTVSPost2010PropOp39
 70
     1
102
RTVSPost2010Prop40
 90
        0
102
RTVSPost2010PropOp40
 70
     1
102
RTVSPost2010Prop41ColorIndex
 90
       18
102
RTVSPost2010Prop41ColorRGB
 90
        0
102
RTVSPost2010PropOp41
 70
     1
102
RTVSPost2010Prop42
 90
       50
102
RTVSPost2010PropOp42
 70
     1
102
RTVSPost2010Prop43
 90
        3
102
RTVSPost2010PropOp43
 70
     1
102
RTVSPost2010Prop44ColorIndex
 90
        5
102
RTVSPost2010Prop44ColorRGB
 90
      255
102
RTVSPost2010PropOp44
 70
     1
102
RTVSPost2010Prop45
280
     0
102
RTVSPost2010PropOp45
 70
     1
102
RTVSPost2010Prop46
 90
       50
102
RTVSPost2010PropOp46
 70
     1
102
RTVSPost2010Prop47
 90
       50
102
RTVSPost2010PropOp47
 70
     1
102
RTVSPost2010Prop48
 90
       50
102
RTVSPost2010PropOp48
 70
     1
102
RTVSPost2010Prop49
280
     0
102
RTVSPost2010PropOp49
 70
     1
102
RTVSPost2010Prop50
 90
       50
102
RTVSPost2010PropOp50
 70
     1
102
RTVSPost2010Prop51ColorIndex
 90
      256
102
RTVSPost2010Prop51ColorRGB
 90
-16777216
102
RTVSPost2010PropOp51
 70
     0
102
RTVSPost2010Prop52
140
1.0
102
RTVSPost2010PropOp52
 70
     0
102
RTVSPost2010Prop53
 90
        2
102
RTVSPost2010PropOp53
 70
     1
102
RTVSPost2010Prop54
  1
strokes_ogs.tif
102
RTVSPost2010PropOp54
 70
     1
102
RTVSPost2010Prop55
280
     0
102
RTVSPost2010PropOp55
 70
     1
102
RTVSPost2010Prop56
140
1.0
102
RTVSPost2010PropOp56
 70
     1
102
RTVSPost2010Prop57
140
1.0
102
RTVSPost2010PropOp57
 70
     1
  0
XRECORD
  5
EDC
102
{ACAD_REACTORS
330
EDB
102
}
330
EDB
100
AcDbXrecord
280
     1
102
RTVSPost2010Prop28
280
     0
102
RTVSPost2010PropOp28
 70
     1
102
RTVSPost2010Prop29
280
     1
102
RTVSPost2010PropOp29
 70
     1
102
RTVSPost2010Prop30
280
     1
102
RTVSPost2010PropOp30
 70
     1
102
RTVSPost2010Prop31
280
     0
102
RTVSPost2010PropOp31
 70
     1
102
RTVSPost2010Prop32
280
     0
102
RTVSPost2010PropOp32
 70
     1
102
RTVSPost2010Prop33
280
     0
102
RTVSPost2010PropOp33
 70
     1
102
RTVSPost2010Prop34
280
     0
102
RTVSPost2010PropOp34
 70
     1
102
RTVSPost2010Prop35
280
     0
102
RTVSPost2010PropOp35
 70
     1
102
RTVSPost2010Prop36
280
     0
102
RTVSPost2010PropOp36
 70
     1
102
RTVSPost2010Prop37
 90
       50
102
RTVSPost2010PropOp37
 70
     1
102
RTVSPost2010Prop38
140
0.0
102
RTVSPost2010PropOp38
 70
     1
102
RTVSPost2010Prop39
140
1.0
102
RTVSPost2010PropOp39
 70
     1
102
RTVSPost2010Prop40
 90
        0
102
RTVSPost2010PropOp40
 70
     1
102
RTVSPost2010Prop41ColorIndex
 90
       18
102
RTVSPost2010Prop41ColorRGB
 90
        0
102
RTVSPost2010PropOp41
 70
     1
102
RTVSPost2010Prop42
 90
       50
102
RTVSPost2010PropOp42
 70
     1
102
RTVSPost2010Prop43
 90
        3
102
RTVSPost2010PropOp43
 70
     1
102
RTVSPost2010Prop44ColorIndex
 90
        5
102
RTVSPost2010Prop44ColorRGB
 90
      255
102
RTVSPost2010PropOp44
 70
     1
102
RTVSPost2010Prop45
280
     0
102
RTVSPost2010PropOp45
 70
     1
102
RTVSPost2010Prop46
 90
       50
102
RTVSPost2010PropOp46
 70
     1
102
RTVSPost2010Prop47
 90
       50
102
RTVSPost2010PropOp47
 70
     1
102
RTVSPost2010Prop48
 90
       50
102
RTVSPost2010PropOp48
 70
     1
102
RTVSPost2010Prop49
280
     0
102
RTVSPost2010PropOp49
 70
     1
102
RTVSPost2010Prop50
 90
       50
102
RTVSPost2010PropOp50
 70
     1
102
RTVSPost2010Prop51ColorIndex
 90
      256
102
RTVSPost2010Prop51ColorRGB
 90
-16777216
102
RTVSPost2010PropOp51
 70
     0
102
RTVSPost2010Prop52
140
1.0
102
RTVSPost2010PropOp52
 70
     0
102
RTVSPost2010Prop53
 90
        2
102
RTVSPost2010PropOp53
 70
     1
102
RTVSPost2010Prop54
  1
strokes_ogs.tif
102
RTVSPost2010PropOp54
 70
     1
102
RTVSPost2010Prop55
280
     0
102
RTVSPost2010PropOp55
 70
     1
102
RTVSPost2010Prop56
140
1.0
102
RTVSPost2010PropOp56
 70
     1
102
RTVSPost2010Prop57
140
1.0
102
RTVSPost2010PropOp57
 70
     1
  0
XRECORD
  5
EDE
102
{ACAD_REACTORS
330
EDD
102
}
330
EDD
100
AcDbXrecord
280
     1
102
RTVSPost2010Prop28
280
     0
102
RTVSPost2010PropOp28
 70
     1
102
RTVSPost2010Prop29
280
     1
102
RTVSPost2010PropOp29
 70
     1
102
RTVSPost2010Prop30
280
     1
102
RTVSPost2010PropOp30
 70
     1
102
RTVSPost2010Prop31
280
     0
102
RTVSPost2010PropOp31
 70
     1
102
RTVSPost2010Prop32
280
     0
102
RTVSPost2010PropOp32
 70
     1
102
RTVSPost2010Prop33
280
     0
102
RTVSPost2010PropOp33
 70
     1
102
RTVSPost2010Prop34
280
     0
102
RTVSPost2010PropOp34
 70
     1
102
RTVSPost2010Prop35
280
     0
102
RTVSPost2010PropOp35
 70
     1
102
RTVSPost2010Prop36
280
     0
102
RTVSPost2010PropOp36
 70
     1
102
RTVSPost2010Prop37
 90
       50
102
RTVSPost2010PropOp37
 70
     1
102
RTVSPost2010Prop38
140
0.0
102
RTVSPost2010PropOp38
 70
     1
102
RTVSPost2010Prop39
140
1.0
102
RTVSPost2010PropOp39
 70
     1
102
RTVSPost2010Prop40
 90
        0
102
RTVSPost2010PropOp40
 70
     1
102
RTVSPost2010Prop41ColorIndex
 90
       18
102
RTVSPost2010Prop41ColorRGB
 90
        0
102
RTVSPost2010PropOp41
 70
     1
102
RTVSPost2010Prop42
 90
       50
102
RTVSPost2010PropOp42
 70
     1
102
RTVSPost2010Prop43
 90
        3
102
RTVSPost2010PropOp43
 70
     1
102
RTVSPost2010Prop44ColorIndex
 90
        5
102
RTVSPost2010Prop44ColorRGB
 90
      255
102
RTVSPost2010PropOp44
 70
     1
102
RTVSPost2010Prop45
280
     0
102
RTVSPost2010PropOp45
 70
     1
102
RTVSPost2010Prop46
 90
       50
102
RTVSPost2010PropOp46
 70
     1
102
RTVSPost2010Prop47
 90
       50
102
RTVSPost2010PropOp47
 70
     1
102
RTVSPost2010Prop48
 90
       50
102
RTVSPost2010PropOp48
 70
     1
102
RTVSPost2010Prop49
280
     0
102
RTVSPost2010PropOp49
 70
     1
102
RTVSPost2010Prop50
 90
       50
102
RTVSPost2010PropOp50
 70
     1
102
RTVSPost2010Prop51ColorIndex
 90
      256
102
RTVSPost2010Prop51ColorRGB
 90
-16777216
102
RTVSPost2010PropOp51
 70
     0
102
RTVSPost2010Prop52
140
1.0
102
RTVSPost2010PropOp52
 70
     0
102
RTVSPost2010Prop53
 90
        2
102
RTVSPost2010PropOp53
 70
     1
102
RTVSPost2010Prop54
  1
strokes_ogs.tif
102
RTVSPost2010PropOp54
 70
     1
102
RTVSPost2010Prop55
280
     0
102
RTVSPost2010PropOp55
 70
     1
102
RTVSPost2010Prop56
140
1.0
102
RTVSPost2010PropOp56
 70
     1
102
RTVSPost2010Prop57
140
1.0
102
RTVSPost2010PropOp57
 70
     1
  0
XRECORD
  5
EE0
102
{ACAD_REACTORS
330
EDF
102
}
330
EDF
100
AcDbXrecord
280
     1
102
RTVSPost2010Prop28
280
     0
102
RTVSPost2010PropOp28
 70
     1
102
RTVSPost2010Prop29
280
     1
102
RTVSPost2010PropOp29
 70
     1
102
RTVSPost2010Prop30
280
     1
102
RTVSPost2010PropOp30
 70
     1
102
RTVSPost2010Prop31
280
     0
102
RTVSPost2010PropOp31
 70
     1
102
RTVSPost2010Prop32
280
     0
102
RTVSPost2010PropOp32
 70
     1
102
RTVSPost2010Prop33
280
     0
102
RTVSPost2010PropOp33
 70
     1
102
RTVSPost2010Prop34
280
     0
102
RTVSPost2010PropOp34
 70
     1
102
RTVSPost2010Prop35
280
     0
102
RTVSPost2010PropOp35
 70
     1
102
RTVSPost2010Prop36
280
     0
102
RTVSPost2010PropOp36
 70
     1
102
RTVSPost2010Prop37
 90
       50
102
RTVSPost2010PropOp37
 70
     1
102
RTVSPost2010Prop38
140
0.0
102
RTVSPost2010PropOp38
 70
     1
102
RTVSPost2010Prop39
140
1.0
102
RTVSPost2010PropOp39
 70
     1
102
RTVSPost2010Prop40
 90
        0
102
RTVSPost2010PropOp40
 70
     1
102
RTVSPost2010Prop41ColorIndex
 90
       18
102
RTVSPost2010Prop41ColorRGB
 90
        0
102
RTVSPost2010PropOp41
 70
     1
102
RTVSPost2010Prop42
 90
       50
102
RTVSPost2010PropOp42
 70
     1
102
RTVSPost2010Prop43
 90
        3
102
RTVSPost2010PropOp43
 70
     1
102
RTVSPost2010Prop44ColorIndex
 90
        5
102
RTVSPost2010Prop44ColorRGB
 90
      255
102
RTVSPost2010PropOp44
 70
     1
102
RTVSPost2010Prop45
280
     0
102
RTVSPost2010PropOp45
 70
     1
102
RTVSPost2010Prop46
 90
       50
102
RTVSPost2010PropOp46
 70
     1
102
RTVSPost2010Prop47
 90
       50
102
RTVSPost2010PropOp47
 70
     1
102
RTVSPost2010Prop48
 90
       50
102
RTVSPost2010PropOp48
 70
     1
102
RTVSPost2010Prop49
280
     0
102
RTVSPost2010PropOp49
 70
     1
102
RTVSPost2010Prop50
 90
       50
102
RTVSPost2010PropOp50
 70
     1
102
RTVSPost2010Prop51ColorIndex
 90
      256
102
RTVSPost2010Prop51ColorRGB
 90
-16777216
102
RTVSPost2010PropOp51
 70
     0
102
RTVSPost2010Prop52
140
1.0
102
RTVSPost2010PropOp52
 70
     0
102
RTVSPost2010Prop53
 90
        2
102
RTVSPost2010PropOp53
 70
     1
102
RTVSPost2010Prop54
  1
strokes_ogs.tif
102
RTVSPost2010PropOp54
 70
     1
102
RTVSPost2010Prop55
280
     0
102
RTVSPost2010PropOp55
 70
     1
102
RTVSPost2010Prop56
140
1.0
102
RTVSPost2010PropOp56
 70
     1
102
RTVSPost2010Prop57
140
1.0
102
RTVSPost2010PropOp57
 70
     1
  0
XRECORD
  5
EE2
102
{ACAD_REACTORS
330
EE1
102
}
330
EE1
100
AcDbXrecord
280
     1
102
RTVSPost2010Prop28
280
     0
102
RTVSPost2010PropOp28
 70
     1
102
RTVSPost2010Prop29
280
     1
102
RTVSPost2010PropOp29
 70
     1
102
RTVSPost2010Prop30
280
     1
102
RTVSPost2010PropOp30
 70
     1
102
RTVSPost2010Prop31
280
     0
102
RTVSPost2010PropOp31
 70
     1
102
RTVSPost2010Prop32
280
     0
102
RTVSPost2010PropOp32
 70
     1
102
RTVSPost2010Prop33
280
     0
102
RTVSPost2010PropOp33
 70
     1
102
RTVSPost2010Prop34
280
     0
102
RTVSPost2010PropOp34
 70
     1
102
RTVSPost2010Prop35
280
     0
102
RTVSPost2010PropOp35
 70
     1
102
RTVSPost2010Prop36
280
     0
102
RTVSPost2010PropOp36
 70
     1
102
RTVSPost2010Prop37
 90
       50
102
RTVSPost2010PropOp37
 70
     1
102
RTVSPost2010Prop38
140
0.0
102
RTVSPost2010PropOp38
 70
     1
102
RTVSPost2010Prop39
140
1.0
102
RTVSPost2010PropOp39
 70
     1
102
RTVSPost2010Prop40
 90
        0
102
RTVSPost2010PropOp40
 70
     1
102
RTVSPost2010Prop41ColorIndex
 90
       18
102
RTVSPost2010Prop41ColorRGB
 90
        0
102
RTVSPost2010PropOp41
 70
     1
102
RTVSPost2010Prop42
 90
       50
102
RTVSPost2010PropOp42
 70
     1
102
RTVSPost2010Prop43
 90
        3
102
RTVSPost2010PropOp43
 70
     1
102
RTVSPost2010Prop44ColorIndex
 90
        5
102
RTVSPost2010Prop44ColorRGB
 90
      255
102
RTVSPost2010PropOp44
 70
     1
102
RTVSPost2010Prop45
280
     0
102
RTVSPost2010PropOp45
 70
     1
102
RTVSPost2010Prop46
 90
       50
102
RTVSPost2010PropOp46
 70
     1
102
RTVSPost2010Prop47
 90
       50
102
RTVSPost2010PropOp47
 70
     1
102
RTVSPost2010Prop48
 90
       50
102
RTVSPost2010PropOp48
 70
     1
102
RTVSPost2010Prop49
280
     0
102
RTVSPost2010PropOp49
 70
     1
102
RTVSPost2010Prop50
 90
       50
102
RTVSPost2010PropOp50
 70
     1
102
RTVSPost2010Prop51ColorIndex
 90
      256
102
RTVSPost2010Prop51ColorRGB
 90
-16777216
102
RTVSPost2010PropOp51
 70
     0
102
RTVSPost2010Prop52
140
1.0
102
RTVSPost2010PropOp52
 70
     0
102
RTVSPost2010Prop53
 90
        2
102
RTVSPost2010PropOp53
 70
     1
102
RTVSPost2010Prop54
  1
strokes_ogs.tif
102
RTVSPost2010PropOp54
 70
     1
102
RTVSPost2010Prop55
280
     0
102
RTVSPost2010PropOp55
 70
     1
102
RTVSPost2010Prop56
140
1.0
102
RTVSPost2010PropOp56
 70
     1
102
RTVSPost2010Prop57
140
1.0
102
RTVSPost2010PropOp57
 70
     1
  0
XRECORD
  5
EEC
102
{ACAD_REACTORS
330
EEB
102
}
330
EEB
100
AcDbXrecord
280
     1
102
RTVSPost2010Prop28
280
     0
102
RTVSPost2010PropOp28
 70
     1
102
RTVSPost2010Prop29
280
     1
102
RTVSPost2010PropOp29
 70
     1
102
RTVSPost2010Prop30
280
     1
102
RTVSPost2010PropOp30
 70
     1
102
RTVSPost2010Prop31
280
     0
102
RTVSPost2010PropOp31
 70
     1
102
RTVSPost2010Prop32
280
     0
102
RTVSPost2010PropOp32
 70
     1
102
RTVSPost2010Prop33
280
     0
102
RTVSPost2010PropOp33
 70
     1
102
RTVSPost2010Prop34
280
     0
102
RTVSPost2010PropOp34
 70
     1
102
RTVSPost2010Prop35
280
     0
102
RTVSPost2010PropOp35
 70
     1
102
RTVSPost2010Prop36
280
     0
102
RTVSPost2010PropOp36
 70
     1
102
RTVSPost2010Prop37
 90
       50
102
RTVSPost2010PropOp37
 70
     1
102
RTVSPost2010Prop38
140
0.0
102
RTVSPost2010PropOp38
 70
     1
102
RTVSPost2010Prop39
140
1.0
102
RTVSPost2010PropOp39
 70
     1
102
RTVSPost2010Prop40
 90
        0
102
RTVSPost2010PropOp40
 70
     1
102
RTVSPost2010Prop41ColorIndex
 90
       18
102
RTVSPost2010Prop41ColorRGB
 90
        0
102
RTVSPost2010PropOp41
 70
     1
102
RTVSPost2010Prop42
 90
       50
102
RTVSPost2010PropOp42
 70
     1
102
RTVSPost2010Prop43
 90
        3
102
RTVSPost2010PropOp43
 70
     1
102
RTVSPost2010Prop44ColorIndex
 90
        5
102
RTVSPost2010Prop44ColorRGB
 90
      255
102
RTVSPost2010PropOp44
 70
     1
102
RTVSPost2010Prop45
280
     0
102
RTVSPost2010PropOp45
 70
     1
102
RTVSPost2010Prop46
 90
       50
102
RTVSPost2010PropOp46
 70
     1
102
RTVSPost2010Prop47
 90
       50
102
RTVSPost2010PropOp47
 70
     1
102
RTVSPost2010Prop48
 90
       50
102
RTVSPost2010PropOp48
 70
     1
102
RTVSPost2010Prop49
280
     0
102
RTVSPost2010PropOp49
 70
     1
102
RTVSPost2010Prop50
 90
       50
102
RTVSPost2010PropOp50
 70
     1
102
RTVSPost2010Prop51ColorIndex
 90
      256
102
RTVSPost2010Prop51ColorRGB
 90
-16777216
102
RTVSPost2010PropOp51
 70
     0
102
RTVSPost2010Prop52
140
1.0
102
RTVSPost2010PropOp52
 70
     0
102
RTVSPost2010Prop53
 90
        2
102
RTVSPost2010PropOp53
 70
     1
102
RTVSPost2010Prop54
  1
strokes_ogs.tif
102
RTVSPost2010PropOp54
 70
     1
102
RTVSPost2010Prop55
280
     0
102
RTVSPost2010PropOp55
 70
     1
102
RTVSPost2010Prop56
140
1.0
102
RTVSPost2010PropOp56
 70
     1
102
RTVSPost2010Prop57
140
1.0
102
RTVSPost2010PropOp57
 70
     1
  0
XRECORD
  5
EEE
102
{ACAD_REACTORS
330
EED
102
}
330
EED
100
AcDbXrecord
280
     1
102
RTVSPost2010Prop28
280
     0
102
RTVSPost2010PropOp28
 70
     0
102
RTVSPost2010Prop29
280
     1
102
RTVSPost2010PropOp29
 70
     0
102
RTVSPost2010Prop30
280
     1
102
RTVSPost2010PropOp30
 70
     0
102
RTVSPost2010Prop31
280
     0
102
RTVSPost2010PropOp31
 70
     0
102
RTVSPost2010Prop32
280
     0
102
RTVSPost2010PropOp32
 70
     0
102
RTVSPost2010Prop33
280
     0
102
RTVSPost2010PropOp33
 70
     0
102
RTVSPost2010Prop34
280
     0
102
RTVSPost2010PropOp34
 70
     0
102
RTVSPost2010Prop35
280
     0
102
RTVSPost2010PropOp35
 70
     0
102
RTVSPost2010Prop36
280
     0
102
RTVSPost2010PropOp36
 70
     0
102
RTVSPost2010Prop37
 90
       50
102
RTVSPost2010PropOp37
 70
     0
102
RTVSPost2010Prop38
140
0.0
102
RTVSPost2010PropOp38
 70
     0
102
RTVSPost2010Prop39
140
1.0
102
RTVSPost2010PropOp39
 70
     0
102
RTVSPost2010Prop40
 90
        0
102
RTVSPost2010PropOp40
 70
     0
102
RTVSPost2010Prop41ColorIndex
 90
       18
102
RTVSPost2010Prop41ColorRGB
 90
        0
102
RTVSPost2010PropOp41
 70
     0
102
RTVSPost2010Prop42
 90
       50
102
RTVSPost2010PropOp42
 70
     0
102
RTVSPost2010Prop43
 90
        3
102
RTVSPost2010PropOp43
 70
     0
102
RTVSPost2010Prop44ColorIndex
 90
        5
102
RTVSPost2010Prop44ColorRGB
 90
      255
102
RTVSPost2010PropOp44
 70
     0
102
RTVSPost2010Prop45
280
     0
102
RTVSPost2010PropOp45
 70
     0
102
RTVSPost2010Prop46
 90
       50
102
RTVSPost2010PropOp46
 70
     0
102
RTVSPost2010Prop47
 90
       50
102
RTVSPost2010PropOp47
 70
     0
102
RTVSPost2010Prop48
 90
       50
102
RTVSPost2010PropOp48
 70
     0
102
RTVSPost2010Prop49
280
     0
102
RTVSPost2010PropOp49
 70
     0
102
RTVSPost2010Prop50
 90
       50
102
RTVSPost2010PropOp50
 70
     0
102
RTVSPost2010Prop51ColorIndex
 90
      256
102
RTVSPost2010Prop51ColorRGB
 90
-16777216
102
RTVSPost2010PropOp51
 70
     0
102
RTVSPost2010Prop52
140
1.0
102
RTVSPost2010PropOp52
 70
     0
102
RTVSPost2010Prop53
 90
        2
102
RTVSPost2010PropOp53
 70
     0
102
RTVSPost2010Prop54
  1
strokes_ogs.tif
102
RTVSPost2010PropOp54
 70
     0
102
RTVSPost2010Prop55
280
     0
102
RTVSPost2010PropOp55
 70
     0
102
RTVSPost2010Prop56
140
1.0
102
RTVSPost2010PropOp56
 70
     0
102
RTVSPost2010Prop57
140
1.0
102
RTVSPost2010PropOp57
 70
     0
  0
XRECORD
  5
EE4
102
{ACAD_REACTORS
330
EE3
102
}
330
EE3
100
AcDbXrecord
280
     1
102
RTVSPost2010Prop28
280
     0
102
RTVSPost2010PropOp28
 70
     1
102
RTVSPost2010Prop29
280
     1
102
RTVSPost2010PropOp29
 70
     1
102
RTVSPost2010Prop30
280
     1
102
RTVSPost2010PropOp30
 70
     1
102
RTVSPost2010Prop31
280
     0
102
RTVSPost2010PropOp31
 70
     1
102
RTVSPost2010Prop32
280
     0
102
RTVSPost2010PropOp32
 70
     1
102
RTVSPost2010Prop33
280
     0
102
RTVSPost2010PropOp33
 70
     1
102
RTVSPost2010Prop34
280
     0
102
RTVSPost2010PropOp34
 70
     1
102
RTVSPost2010Prop35
280
     0
102
RTVSPost2010PropOp35
 70
     1
102
RTVSPost2010Prop36
280
     0
102
RTVSPost2010PropOp36
 70
     1
102
RTVSPost2010Prop37
 90
       50
102
RTVSPost2010PropOp37
 70
     1
102
RTVSPost2010Prop38
140
0.0
102
RTVSPost2010PropOp38
 70
     1
102
RTVSPost2010Prop39
140
1.0
102
RTVSPost2010PropOp39
 70
     1
102
RTVSPost2010Prop40
 90
        0
102
RTVSPost2010PropOp40
 70
     1
102
RTVSPost2010Prop41ColorIndex
 90
       18
102
RTVSPost2010Prop41ColorRGB
 90
        0
102
RTVSPost2010PropOp41
 70
     1
102
RTVSPost2010Prop42
 90
       50
102
RTVSPost2010PropOp42
 70
     1
102
RTVSPost2010Prop43
 90
        3
102
RTVSPost2010PropOp43
 70
     1
102
RTVSPost2010Prop44ColorIndex
 90
        5
102
RTVSPost2010Prop44ColorRGB
 90
      255
102
RTVSPost2010PropOp44
 70
     1
102
RTVSPost2010Prop45
280
     0
102
RTVSPost2010PropOp45
 70
     1
102
RTVSPost2010Prop46
 90
       50
102
RTVSPost2010PropOp46
 70
     1
102
RTVSPost2010Prop47
 90
       50
102
RTVSPost2010PropOp47
 70
     1
102
RTVSPost2010Prop48
 90
       50
102
RTVSPost2010PropOp48
 70
     1
102
RTVSPost2010Prop49
280
     0
102
RTVSPost2010PropOp49
 70
     1
102
RTVSPost2010Prop50
 90
       50
102
RTVSPost2010PropOp50
 70
     1
102
RTVSPost2010Prop51ColorIndex
 90
      256
102
RTVSPost2010Prop51ColorRGB
 90
-16777216
102
RTVSPost2010PropOp51
 70
     0
102
RTVSPost2010Prop52
140
1.0
102
RTVSPost2010PropOp52
 70
     0
102
RTVSPost2010Prop53
 90
        2
102
RTVSPost2010PropOp53
 70
     1
102
RTVSPost2010Prop54
  1
strokes_ogs.tif
102
RTVSPost2010PropOp54
 70
     1
102
RTVSPost2010Prop55
280
     0
102
RTVSPost2010PropOp55
 70
     1
102
RTVSPost2010Prop56
140
1.0
102
RTVSPost2010PropOp56
 70
     1
102
RTVSPost2010Prop57
140
1.0
102
RTVSPost2010PropOp57
 70
     1
  0
XRECORD
  5
EF0
102
{ACAD_REACTORS
330
EEF
102
}
330
EEF
100
AcDbXrecord
280
     1
102
RTVSPost2010Prop28
280
     0
102
RTVSPost2010PropOp28
 70
     0
102
RTVSPost2010Prop29
280
     1
102
RTVSPost2010PropOp29
 70
     0
102
RTVSPost2010Prop30
280
     1
102
RTVSPost2010PropOp30
 70
     0
102
RTVSPost2010Prop31
280
     0
102
RTVSPost2010PropOp31
 70
     0
102
RTVSPost2010Prop32
280
     0
102
RTVSPost2010PropOp32
 70
     0
102
RTVSPost2010Prop33
280
     0
102
RTVSPost2010PropOp33
 70
     0
102
RTVSPost2010Prop34
280
     0
102
RTVSPost2010PropOp34
 70
     0
102
RTVSPost2010Prop35
280
     0
102
RTVSPost2010PropOp35
 70
     0
102
RTVSPost2010Prop36
280
     0
102
RTVSPost2010PropOp36
 70
     0
102
RTVSPost2010Prop37
 90
       50
102
RTVSPost2010PropOp37
 70
     0
102
RTVSPost2010Prop38
140
0.0
102
RTVSPost2010PropOp38
 70
     0
102
RTVSPost2010Prop39
140
1.0
102
RTVSPost2010PropOp39
 70
     0
102
RTVSPost2010Prop40
 90
        0
102
RTVSPost2010PropOp40
 70
     0
102
RTVSPost2010Prop41ColorIndex
 90
       18
102
RTVSPost2010Prop41ColorRGB
 90
        0
102
RTVSPost2010PropOp41
 70
     0
102
RTVSPost2010Prop42
 90
       50
102
RTVSPost2010PropOp42
 70
     0
102
RTVSPost2010Prop43
 90
        3
102
RTVSPost2010PropOp43
 70
     0
102
RTVSPost2010Prop44ColorIndex
 90
        5
102
RTVSPost2010Prop44ColorRGB
 90
      255
102
RTVSPost2010PropOp44
 70
     0
102
RTVSPost2010Prop45
280
     0
102
RTVSPost2010PropOp45
 70
     0
102
RTVSPost2010Prop46
 90
       50
102
RTVSPost2010PropOp46
 70
     0
102
RTVSPost2010Prop47
 90
       50
102
RTVSPost2010PropOp47
 70
     0
102
RTVSPost2010Prop48
 90
       50
102
RTVSPost2010PropOp48
 70
     0
102
RTVSPost2010Prop49
280
     0
102
RTVSPost2010PropOp49
 70
     0
102
RTVSPost2010Prop50
 90
       50
102
RTVSPost2010PropOp50
 70
     0
102
RTVSPost2010Prop51ColorIndex
 90
      256
102
RTVSPost2010Prop51ColorRGB
 90
-16777216
102
RTVSPost2010PropOp51
 70
     0
102
RTVSPost2010Prop52
140
1.0
102
RTVSPost2010PropOp52
 70
     0
102
RTVSPost2010Prop53
 90
        2
102
RTVSPost2010PropOp53
 70
     0
102
RTVSPost2010Prop54
  1
strokes_ogs.tif
102
RTVSPost2010PropOp54
 70
     0
102
RTVSPost2010Prop55
280
     0
102
RTVSPost2010PropOp55
 70
     0
102
RTVSPost2010Prop56
140
1.0
102
RTVSPost2010PropOp56
 70
     0
102
RTVSPost2010Prop57
140
1.0
102
RTVSPost2010PropOp57
 70
     0
  0
XRECORD
  5
EE6
102
{ACAD_REACTORS
330
EE5
102
}
330
EE5
100
AcDbXrecord
280
     1
102
RTVSPost2010Prop28
280
     0
102
RTVSPost2010PropOp28
 70
     1
102
RTVSPost2010Prop29
280
     1
102
RTVSPost2010PropOp29
 70
     1
102
RTVSPost2010Prop30
280
     1
102
RTVSPost2010PropOp30
 70
     1
102
RTVSPost2010Prop31
280
     0
102
RTVSPost2010PropOp31
 70
     1
102
RTVSPost2010Prop32
280
     0
102
RTVSPost2010PropOp32
 70
     1
102
RTVSPost2010Prop33
280
     0
102
RTVSPost2010PropOp33
 70
     1
102
RTVSPost2010Prop34
280
     0
102
RTVSPost2010PropOp34
 70
     1
102
RTVSPost2010Prop35
280
     0
102
RTVSPost2010PropOp35
 70
     1
102
RTVSPost2010Prop36
280
     0
102
RTVSPost2010PropOp36
 70
     1
102
RTVSPost2010Prop37
 90
       50
102
RTVSPost2010PropOp37
 70
     1
102
RTVSPost2010Prop38
140
0.0
102
RTVSPost2010PropOp38
 70
     1
102
RTVSPost2010Prop39
140
1.0
102
RTVSPost2010PropOp39
 70
     1
102
RTVSPost2010Prop40
 90
        0
102
RTVSPost2010PropOp40
 70
     1
102
RTVSPost2010Prop41ColorIndex
 90
       18
102
RTVSPost2010Prop41ColorRGB
 90
        0
102
RTVSPost2010PropOp41
 70
     1
102
RTVSPost2010Prop42
 90
       50
102
RTVSPost2010PropOp42
 70
     1
102
RTVSPost2010Prop43
 90
        3
102
RTVSPost2010PropOp43
 70
     1
102
RTVSPost2010Prop44ColorIndex
 90
        5
102
RTVSPost2010Prop44ColorRGB
 90
      255
102
RTVSPost2010PropOp44
 70
     1
102
RTVSPost2010Prop45
280
     0
102
RTVSPost2010PropOp45
 70
     1
102
RTVSPost2010Prop46
 90
       50
102
RTVSPost2010PropOp46
 70
     1
102
RTVSPost2010Prop47
 90
       50
102
RTVSPost2010PropOp47
 70
     1
102
RTVSPost2010Prop48
 90
       50
102
RTVSPost2010PropOp48
 70
     1
102
RTVSPost2010Prop49
280
     0
102
RTVSPost2010PropOp49
 70
     1
102
RTVSPost2010Prop50
 90
       50
102
RTVSPost2010PropOp50
 70
     1
102
RTVSPost2010Prop51ColorIndex
 90
      256
102
RTVSPost2010Prop51ColorRGB
 90
-16777216
102
RTVSPost2010PropOp51
 70
     0
102
RTVSPost2010Prop52
140
1.0
102
RTVSPost2010PropOp52
 70
     0
102
RTVSPost2010Prop53
 90
        2
102
RTVSPost2010PropOp53
 70
     1
102
RTVSPost2010Prop54
  1
strokes_ogs.tif
102
RTVSPost2010PropOp54
 70
     1
102
RTVSPost2010Prop55
280
     0
102
RTVSPost2010PropOp55
 70
     1
102
RTVSPost2010Prop56
140
1.0
102
RTVSPost2010PropOp56
 70
     1
102
RTVSPost2010Prop57
140
1.0
102
RTVSPost2010PropOp57
 70
     1
  0
XRECORD
  5
EFC
102
{ACAD_REACTORS
330
EFB
102
}
330
EFB
100
AcDbXrecord
280
     1
102
RTVSPost2010Prop28
280
     0
102
RTVSPost2010PropOp28
 70
     1
102
RTVSPost2010Prop29
280
     1
102
RTVSPost2010PropOp29
 70
     1
102
RTVSPost2010Prop30
280
     1
102
RTVSPost2010PropOp30
 70
     1
102
RTVSPost2010Prop31
280
     0
102
RTVSPost2010PropOp31
 70
     1
102
RTVSPost2010Prop32
280
     0
102
RTVSPost2010PropOp32
 70
     1
102
RTVSPost2010Prop33
280
     0
102
RTVSPost2010PropOp33
 70
     1
102
RTVSPost2010Prop34
280
     0
102
RTVSPost2010PropOp34
 70
     1
102
RTVSPost2010Prop35
280
     0
102
RTVSPost2010PropOp35
 70
     1
102
RTVSPost2010Prop36
280
     0
102
RTVSPost2010PropOp36
 70
     1
102
RTVSPost2010Prop37
 90
       50
102
RTVSPost2010PropOp37
 70
     1
102
RTVSPost2010Prop38
140
0.0
102
RTVSPost2010PropOp38
 70
     1
102
RTVSPost2010Prop39
140
1.0
102
RTVSPost2010PropOp39
 70
     1
102
RTVSPost2010Prop40
 90
        0
102
RTVSPost2010PropOp40
 70
     1
102
RTVSPost2010Prop41ColorIndex
 90
       18
102
RTVSPost2010Prop41ColorRGB
 90
        0
102
RTVSPost2010PropOp41
 70
     1
102
RTVSPost2010Prop42
 90
       50
102
RTVSPost2010PropOp42
 70
     1
102
RTVSPost2010Prop43
 90
        3
102
RTVSPost2010PropOp43
 70
     1
102
RTVSPost2010Prop44ColorIndex
 90
        5
102
RTVSPost2010Prop44ColorRGB
 90
      255
102
RTVSPost2010PropOp44
 70
     1
102
RTVSPost2010Prop45
280
     0
102
RTVSPost2010PropOp45
 70
     1
102
RTVSPost2010Prop46
 90
       50
102
RTVSPost2010PropOp46
 70
     1
102
RTVSPost2010Prop47
 90
       50
102
RTVSPost2010PropOp47
 70
     1
102
RTVSPost2010Prop48
 90
       50
102
RTVSPost2010PropOp48
 70
     1
102
RTVSPost2010Prop49
280
     0
102
RTVSPost2010PropOp49
 70
     1
102
RTVSPost2010Prop50
 90
       50
102
RTVSPost2010PropOp50
 70
     1
102
RTVSPost2010Prop51ColorIndex
 90
      256
102
RTVSPost2010Prop51ColorRGB
 90
-16777216
102
RTVSPost2010PropOp51
 70
     0
102
RTVSPost2010Prop52
140
1.0
102
RTVSPost2010PropOp52
 70
     0
102
RTVSPost2010Prop53
 90
        2
102
RTVSPost2010PropOp53
 70
     1
102
RTVSPost2010Prop54
  1
strokes_ogs.tif
102
RTVSPost2010PropOp54
 70
     1
102
RTVSPost2010Prop55
280
     0
102
RTVSPost2010PropOp55
 70
     1
102
RTVSPost2010Prop56
140
1.0
102
RTVSPost2010PropOp56
 70
     1
102
RTVSPost2010Prop57
140
1.0
102
RTVSPost2010PropOp57
 70
     1
  0
XRECORD
  5
EFA
102
{ACAD_REACTORS
330
EF9
102
}
330
EF9
100
AcDbXrecord
280
     1
102
RTVSPost2010Prop28
280
     0
102
RTVSPost2010PropOp28
 70
     1
102
RTVSPost2010Prop29
280
     1
102
RTVSPost2010PropOp29
 70
     1
102
RTVSPost2010Prop30
280
     1
102
RTVSPost2010PropOp30
 70
     1
102
RTVSPost2010Prop31
280
     0
102
RTVSPost2010PropOp31
 70
     1
102
RTVSPost2010Prop32
280
     0
102
RTVSPost2010PropOp32
 70
     1
102
RTVSPost2010Prop33
280
     0
102
RTVSPost2010PropOp33
 70
     1
102
RTVSPost2010Prop34
280
     0
102
RTVSPost2010PropOp34
 70
     1
102
RTVSPost2010Prop35
280
     0
102
RTVSPost2010PropOp35
 70
     1
102
RTVSPost2010Prop36
280
     0
102
RTVSPost2010PropOp36
 70
     1
102
RTVSPost2010Prop37
 90
       50
102
RTVSPost2010PropOp37
 70
     1
102
RTVSPost2010Prop38
140
0.0
102
RTVSPost2010PropOp38
 70
     1
102
RTVSPost2010Prop39
140
1.0
102
RTVSPost2010PropOp39
 70
     1
102
RTVSPost2010Prop40
 90
        0
102
RTVSPost2010PropOp40
 70
     1
102
RTVSPost2010Prop41ColorIndex
 90
       18
102
RTVSPost2010Prop41ColorRGB
 90
        0
102
RTVSPost2010PropOp41
 70
     1
102
RTVSPost2010Prop42
 90
       50
102
RTVSPost2010PropOp42
 70
     1
102
RTVSPost2010Prop43
 90
        3
102
RTVSPost2010PropOp43
 70
     1
102
RTVSPost2010Prop44ColorIndex
 90
        5
102
RTVSPost2010Prop44ColorRGB
 90
      255
102
RTVSPost2010PropOp44
 70
     1
102
RTVSPost2010Prop45
280
     0
102
RTVSPost2010PropOp45
 70
     1
102
RTVSPost2010Prop46
 90
       50
102
RTVSPost2010PropOp46
 70
     1
102
RTVSPost2010Prop47
 90
       50
102
RTVSPost2010PropOp47
 70
     1
102
RTVSPost2010Prop48
 90
       50
102
RTVSPost2010PropOp48
 70
     1
102
RTVSPost2010Prop49
280
     0
102
RTVSPost2010PropOp49
 70
     1
102
RTVSPost2010Prop50
 90
       50
102
RTVSPost2010PropOp50
 70
     1
102
RTVSPost2010Prop51ColorIndex
 90
      256
102
RTVSPost2010Prop51ColorRGB
 90
-16777216
102
RTVSPost2010PropOp51
 70
     0
102
RTVSPost2010Prop52
140
1.0
102
RTVSPost2010PropOp52
 70
     0
102
RTVSPost2010Prop53
 90
        2
102
RTVSPost2010PropOp53
 70
     1
102
RTVSPost2010Prop54
  1
strokes_ogs.tif
102
RTVSPost2010PropOp54
 70
     1
102
RTVSPost2010Prop55
280
     0
102
RTVSPost2010PropOp55
 70
     1
102
RTVSPost2010Prop56
140
1.0
102
RTVSPost2010PropOp56
 70
     1
102
RTVSPost2010Prop57
140
1.0
102
RTVSPost2010PropOp57
 70
     1
  0
XRECORD
  5
EF4
102
{ACAD_REACTORS
330
EF3
102
}
330
EF3
100
AcDbXrecord
280
     1
102
RTVSPost2010Prop28
280
     0
102
RTVSPost2010PropOp28
 70
     1
102
RTVSPost2010Prop29
280
     1
102
RTVSPost2010PropOp29
 70
     1
102
RTVSPost2010Prop30
280
     1
102
RTVSPost2010PropOp30
 70
     1
102
RTVSPost2010Prop31
280
     0
102
RTVSPost2010PropOp31
 70
     1
102
RTVSPost2010Prop32
280
     0
102
RTVSPost2010PropOp32
 70
     1
102
RTVSPost2010Prop33
280
     0
102
RTVSPost2010PropOp33
 70
     1
102
RTVSPost2010Prop34
280
     0
102
RTVSPost2010PropOp34
 70
     1
102
RTVSPost2010Prop35
280
     0
102
RTVSPost2010PropOp35
 70
     1
102
RTVSPost2010Prop36
280
     0
102
RTVSPost2010PropOp36
 70
     1
102
RTVSPost2010Prop37
 90
       50
102
RTVSPost2010PropOp37
 70
     1
102
RTVSPost2010Prop38
140
0.0
102
RTVSPost2010PropOp38
 70
     1
102
RTVSPost2010Prop39
140
1.0
102
RTVSPost2010PropOp39
 70
     1
102
RTVSPost2010Prop40
 90
        0
102
RTVSPost2010PropOp40
 70
     1
102
RTVSPost2010Prop41ColorIndex
 90
       18
102
RTVSPost2010Prop41ColorRGB
 90
        0
102
RTVSPost2010PropOp41
 70
     1
102
RTVSPost2010Prop42
 90
       50
102
RTVSPost2010PropOp42
 70
     1
102
RTVSPost2010Prop43
 90
        3
102
RTVSPost2010PropOp43
 70
     1
102
RTVSPost2010Prop44ColorIndex
 90
        5
102
RTVSPost2010Prop44ColorRGB
 90
      255
102
RTVSPost2010PropOp44
 70
     1
102
RTVSPost2010Prop45
280
     0
102
RTVSPost2010PropOp45
 70
     1
102
RTVSPost2010Prop46
 90
       50
102
RTVSPost2010PropOp46
 70
     1
102
RTVSPost2010Prop47
 90
       50
102
RTVSPost2010PropOp47
 70
     1
102
RTVSPost2010Prop48
 90
       50
102
RTVSPost2010PropOp48
 70
     1
102
RTVSPost2010Prop49
280
     0
102
RTVSPost2010PropOp49
 70
     1
102
RTVSPost2010Prop50
 90
       50
102
RTVSPost2010PropOp50
 70
     1
102
RTVSPost2010Prop51ColorIndex
 90
      256
102
RTVSPost2010Prop51ColorRGB
 90
-16777216
102
RTVSPost2010PropOp51
 70
     0
102
RTVSPost2010Prop52
140
1.0
102
RTVSPost2010PropOp52
 70
     0
102
RTVSPost2010Prop53
 90
        2
102
RTVSPost2010PropOp53
 70
     1
102
RTVSPost2010Prop54
  1
strokes_ogs.tif
102
RTVSPost2010PropOp54
 70
     1
102
RTVSPost2010Prop55
280
     0
102
RTVSPost2010PropOp55
 70
     1
102
RTVSPost2010Prop56
140
1.0
102
RTVSPost2010PropOp56
 70
     1
102
RTVSPost2010Prop57
140
1.0
102
RTVSPost2010PropOp57
 70
     1
  0
XRECORD
  5
EF6
102
{ACAD_REACTORS
330
EF5
102
}
330
EF5
100
AcDbXrecord
280
     1
102
RTVSPost2010Prop28
280
     0
102
RTVSPost2010PropOp28
 70
     1
102
RTVSPost2010Prop29
280
     1
102
RTVSPost2010PropOp29
 70
     1
102
RTVSPost2010Prop30
280
     1
102
RTVSPost2010PropOp30
 70
     1
102
RTVSPost2010Prop31
280
     0
102
RTVSPost2010PropOp31
 70
     1
102
RTVSPost2010Prop32
280
     0
102
RTVSPost2010PropOp32
 70
     1
102
RTVSPost2010Prop33
280
     0
102
RTVSPost2010PropOp33
 70
     1
102
RTVSPost2010Prop34
280
     0
102
RTVSPost2010PropOp34
 70
     1
102
RTVSPost2010Prop35
280
     0
102
RTVSPost2010PropOp35
 70
     1
102
RTVSPost2010Prop36
280
     0
102
RTVSPost2010PropOp36
 70
     1
102
RTVSPost2010Prop37
 90
       50
102
RTVSPost2010PropOp37
 70
     1
102
RTVSPost2010Prop38
140
0.0
102
RTVSPost2010PropOp38
 70
     1
102
RTVSPost2010Prop39
140
1.0
102
RTVSPost2010PropOp39
 70
     1
102
RTVSPost2010Prop40
 90
        0
102
RTVSPost2010PropOp40
 70
     1
102
RTVSPost2010Prop41ColorIndex
 90
       18
102
RTVSPost2010Prop41ColorRGB
 90
        0
102
RTVSPost2010PropOp41
 70
     1
102
RTVSPost2010Prop42
 90
       50
102
RTVSPost2010PropOp42
 70
     1
102
RTVSPost2010Prop43
 90
        3
102
RTVSPost2010PropOp43
 70
     1
102
RTVSPost2010Prop44ColorIndex
 90
        5
102
RTVSPost2010Prop44ColorRGB
 90
      255
102
RTVSPost2010PropOp44
 70
     1
102
RTVSPost2010Prop45
280
     0
102
RTVSPost2010PropOp45
 70
     1
102
RTVSPost2010Prop46
 90
       50
102
RTVSPost2010PropOp46
 70
     1
102
RTVSPost2010Prop47
 90
       50
102
RTVSPost2010PropOp47
 70
     1
102
RTVSPost2010Prop48
 90
       50
102
RTVSPost2010PropOp48
 70
     1
102
RTVSPost2010Prop49
280
     0
102
RTVSPost2010PropOp49
 70
     1
102
RTVSPost2010Prop50
 90
       50
102
RTVSPost2010PropOp50
 70
     1
102
RTVSPost2010Prop51ColorIndex
 90
      256
102
RTVSPost2010Prop51ColorRGB
 90
-16777216
102
RTVSPost2010PropOp51
 70
     0
102
RTVSPost2010Prop52
140
1.0
102
RTVSPost2010PropOp52
 70
     0
102
RTVSPost2010Prop53
 90
        2
102
RTVSPost2010PropOp53
 70
     1
102
RTVSPost2010Prop54
  1
strokes_ogs.tif
102
RTVSPost2010PropOp54
 70
     1
102
RTVSPost2010Prop55
280
     0
102
RTVSPost2010PropOp55
 70
     1
102
RTVSPost2010Prop56
140
1.0
102
RTVSPost2010PropOp56
 70
     1
102
RTVSPost2010Prop57
140
1.0
102
RTVSPost2010PropOp57
 70
     1
  0
XRECORD
  5
EE8
102
{ACAD_REACTORS
330
EE7
102
}
330
EE7
100
AcDbXrecord
280
     1
102
RTVSPost2010Prop28
280
     0
102
RTVSPost2010PropOp28
 70
     1
102
RTVSPost2010Prop29
280
     1
102
RTVSPost2010PropOp29
 70
     1
102
RTVSPost2010Prop30
280
     1
102
RTVSPost2010PropOp30
 70
     1
102
RTVSPost2010Prop31
280
     0
102
RTVSPost2010PropOp31
 70
     1
102
RTVSPost2010Prop32
280
     0
102
RTVSPost2010PropOp32
 70
     1
102
RTVSPost2010Prop33
280
     0
102
RTVSPost2010PropOp33
 70
     1
102
RTVSPost2010Prop34
280
     0
102
RTVSPost2010PropOp34
 70
     1
102
RTVSPost2010Prop35
280
     0
102
RTVSPost2010PropOp35
 70
     1
102
RTVSPost2010Prop36
280
     0
102
RTVSPost2010PropOp36
 70
     1
102
RTVSPost2010Prop37
 90
       50
102
RTVSPost2010PropOp37
 70
     1
102
RTVSPost2010Prop38
140
0.0
102
RTVSPost2010PropOp38
 70
     1
102
RTVSPost2010Prop39
140
1.0
102
RTVSPost2010PropOp39
 70
     1
102
RTVSPost2010Prop40
 90
        0
102
RTVSPost2010PropOp40
 70
     1
102
RTVSPost2010Prop41ColorIndex
 90
       18
102
RTVSPost2010Prop41ColorRGB
 90
        0
102
RTVSPost2010PropOp41
 70
     1
102
RTVSPost2010Prop42
 90
       50
102
RTVSPost2010PropOp42
 70
     1
102
RTVSPost2010Prop43
 90
        3
102
RTVSPost2010PropOp43
 70
     1
102
RTVSPost2010Prop44ColorIndex
 90
        5
102
RTVSPost2010Prop44ColorRGB
 90
      255
102
RTVSPost2010PropOp44
 70
     1
102
RTVSPost2010Prop45
280
     0
102
RTVSPost2010PropOp45
 70
     1
102
RTVSPost2010Prop46
 90
       50
102
RTVSPost2010PropOp46
 70
     1
102
RTVSPost2010Prop47
 90
       50
102
RTVSPost2010PropOp47
 70
     1
102
RTVSPost2010Prop48
 90
       50
102
RTVSPost2010PropOp48
 70
     1
102
RTVSPost2010Prop49
280
     0
102
RTVSPost2010PropOp49
 70
     1
102
RTVSPost2010Prop50
 90
       50
102
RTVSPost2010PropOp50
 70
     1
102
RTVSPost2010Prop51ColorIndex
 90
      256
102
RTVSPost2010Prop51ColorRGB
 90
-16777216
102
RTVSPost2010PropOp51
 70
     0
102
RTVSPost2010Prop52
140
1.0
102
RTVSPost2010PropOp52
 70
     0
102
RTVSPost2010Prop53
 90
        2
102
RTVSPost2010PropOp53
 70
     1
102
RTVSPost2010Prop54
  1
strokes_ogs.tif
102
RTVSPost2010PropOp54
 70
     1
102
RTVSPost2010Prop55
280
     0
102
RTVSPost2010PropOp55
 70
     1
102
RTVSPost2010Prop56
140
1.0
102
RTVSPost2010PropOp56
 70
     1
102
RTVSPost2010Prop57
140
1.0
102
RTVSPost2010PropOp57
 70
     1
  0
XRECORD
  5
EEA
102
{ACAD_REACTORS
330
EE9
102
}
330
EE9
100
AcDbXrecord
280
     1
102
RTVSPost2010Prop28
280
     0
102
RTVSPost2010PropOp28
 70
     1
102
RTVSPost2010Prop29
280
     1
102
RTVSPost2010PropOp29
 70
     1
102
RTVSPost2010Prop30
280
     1
102
RTVSPost2010PropOp30
 70
     1
102
RTVSPost2010Prop31
280
     0
102
RTVSPost2010PropOp31
 70
     1
102
RTVSPost2010Prop32
280
     0
102
RTVSPost2010PropOp32
 70
     1
102
RTVSPost2010Prop33
280
     0
102
RTVSPost2010PropOp33
 70
     1
102
RTVSPost2010Prop34
280
     0
102
RTVSPost2010PropOp34
 70
     1
102
RTVSPost2010Prop35
280
     0
102
RTVSPost2010PropOp35
 70
     1
102
RTVSPost2010Prop36
280
     0
102
RTVSPost2010PropOp36
 70
     1
102
RTVSPost2010Prop37
 90
       50
102
RTVSPost2010PropOp37
 70
     1
102
RTVSPost2010Prop38
140
0.0
102
RTVSPost2010PropOp38
 70
     1
102
RTVSPost2010Prop39
140
1.0
102
RTVSPost2010PropOp39
 70
     1
102
RTVSPost2010Prop40
 90
        0
102
RTVSPost2010PropOp40
 70
     1
102
RTVSPost2010Prop41ColorIndex
 90
       18
102
RTVSPost2010Prop41ColorRGB
 90
        0
102
RTVSPost2010PropOp41
 70
     1
102
RTVSPost2010Prop42
 90
       50
102
RTVSPost2010PropOp42
 70
     1
102
RTVSPost2010Prop43
 90
        3
102
RTVSPost2010PropOp43
 70
     1
102
RTVSPost2010Prop44ColorIndex
 90
        5
102
RTVSPost2010Prop44ColorRGB
 90
      255
102
RTVSPost2010PropOp44
 70
     1
102
RTVSPost2010Prop45
280
     0
102
RTVSPost2010PropOp45
 70
     1
102
RTVSPost2010Prop46
 90
       50
102
RTVSPost2010PropOp46
 70
     1
102
RTVSPost2010Prop47
 90
       50
102
RTVSPost2010PropOp47
 70
     1
102
RTVSPost2010Prop48
 90
       50
102
RTVSPost2010PropOp48
 70
     1
102
RTVSPost2010Prop49
280
     0
102
RTVSPost2010PropOp49
 70
     1
102
RTVSPost2010Prop50
 90
       50
102
RTVSPost2010PropOp50
 70
     1
102
RTVSPost2010Prop51ColorIndex
 90
      256
102
RTVSPost2010Prop51ColorRGB
 90
-16777216
102
RTVSPost2010PropOp51
 70
     0
102
RTVSPost2010Prop52
140
1.0
102
RTVSPost2010PropOp52
 70
     0
102
RTVSPost2010Prop53
 90
        2
102
RTVSPost2010PropOp53
 70
     1
102
RTVSPost2010Prop54
  1
strokes_ogs.tif
102
RTVSPost2010PropOp54
 70
     1
102
RTVSPost2010Prop55
280
     0
102
RTVSPost2010PropOp55
 70
     1
102
RTVSPost2010Prop56
140
1.0
102
RTVSPost2010PropOp56
 70
     1
102
RTVSPost2010Prop57
140
1.0
102
RTVSPost2010PropOp57
 70
     1
  0
XRECORD
  5
EF8
102
{ACAD_REACTORS
330
EF7
102
}
330
EF7
100
AcDbXrecord
280
     1
102
RTVSPost2010Prop28
280
     0
102
RTVSPost2010PropOp28
 70
     1
102
RTVSPost2010Prop29
280
     1
102
RTVSPost2010PropOp29
 70
     1
102
RTVSPost2010Prop30
280
     1
102
RTVSPost2010PropOp30
 70
     1
102
RTVSPost2010Prop31
280
     0
102
RTVSPost2010PropOp31
 70
     1
102
RTVSPost2010Prop32
280
     0
102
RTVSPost2010PropOp32
 70
     1
102
RTVSPost2010Prop33
280
     0
102
RTVSPost2010PropOp33
 70
     1
102
RTVSPost2010Prop34
280
     0
102
RTVSPost2010PropOp34
 70
     1
102
RTVSPost2010Prop35
280
     0
102
RTVSPost2010PropOp35
 70
     1
102
RTVSPost2010Prop36
280
     0
102
RTVSPost2010PropOp36
 70
     1
102
RTVSPost2010Prop37
 90
       50
102
RTVSPost2010PropOp37
 70
     1
102
RTVSPost2010Prop38
140
0.0
102
RTVSPost2010PropOp38
 70
     1
102
RTVSPost2010Prop39
140
1.0
102
RTVSPost2010PropOp39
 70
     1
102
RTVSPost2010Prop40
 90
        0
102
RTVSPost2010PropOp40
 70
     1
102
RTVSPost2010Prop41ColorIndex
 90
       18
102
RTVSPost2010Prop41ColorRGB
 90
        0
102
RTVSPost2010PropOp41
 70
     1
102
RTVSPost2010Prop42
 90
       50
102
RTVSPost2010PropOp42
 70
     1
102
RTVSPost2010Prop43
 90
        3
102
RTVSPost2010PropOp43
 70
     1
102
RTVSPost2010Prop44ColorIndex
 90
        5
102
RTVSPost2010Prop44ColorRGB
 90
      255
102
RTVSPost2010PropOp44
 70
     1
102
RTVSPost2010Prop45
280
     0
102
RTVSPost2010PropOp45
 70
     1
102
RTVSPost2010Prop46
 90
       50
102
RTVSPost2010PropOp46
 70
     1
102
RTVSPost2010Prop47
 90
       50
102
RTVSPost2010PropOp47
 70
     1
102
RTVSPost2010Prop48
 90
       50
102
RTVSPost2010PropOp48
 70
     1
102
RTVSPost2010Prop49
280
     0
102
RTVSPost2010PropOp49
 70
     1
102
RTVSPost2010Prop50
 90
       50
102
RTVSPost2010PropOp50
 70
     1
102
RTVSPost2010Prop51ColorIndex
 90
      256
102
RTVSPost2010Prop51ColorRGB
 90
-16777216
102
RTVSPost2010PropOp51
 70
     0
102
RTVSPost2010Prop52
140
1.0
102
RTVSPost2010PropOp52
 70
     0
102
RTVSPost2010Prop53
 90
        2
102
RTVSPost2010PropOp53
 70
     1
102
RTVSPost2010Prop54
  1
strokes_ogs.tif
102
RTVSPost2010PropOp54
 70
     1
102
RTVSPost2010Prop55
280
     0
102
RTVSPost2010PropOp55
 70
     1
102
RTVSPost2010Prop56
140
1.0
102
RTVSPost2010PropOp56
 70
     1
102
RTVSPost2010Prop57
140
1.0
102
RTVSPost2010PropOp57
 70
     1
  0
ENDSEC
  0
EOF
