  0
SECTION
  2
HEADER
  9
$ACADVER
  1
AC1024
  9
$ACADMAINTVER
 70
     6
  9
$DWGCODEPAGE
  3
ANSI_1252
  9
$INSBASE
 10
0.0
 20
0.0
 30
0.0
  9
$EXTMIN
 10
711.1008830962804
 20
267.1036805463434
 30
0.0
  9
$EXTMAX
 10
926.0991924853971
 20
555.5403330554383
 30
0.0
  9
$LIMMIN
 10
0.0
 20
0.0
  9
$LIMMAX
 10
420.0
 20
297.0
  9
$ORTHOMODE
 70
     0
  9
$REGENMODE
 70
     1
  9
$FILLMODE
 70
     1
  9
$QTEXTMODE
 70
     0
  9
$MIRRTEXT
 70
     0
  9
$LTSCALE
 40
1.0
  9
$ATTMODE
 70
     1
  9
$TEXTSIZE
 40
16.97154762873321
  9
$TRACEWID
 40
1.0
  9
$TEXTSTYLE
  7
Standard
  9
$CLAYER
  8
Drawing
  9
$CELTYPE
  6
ByLayer
  9
$CECOLOR
 62
   256
  9
$CELTSCALE
 40
1.0
  9
$DISPSILH
 70
     0
  9
$DIMSCALE
 40
1.0
  9
$DIMASZ
 40
2.5
  9
$DIMEXO
 40
0.625
  9
$DIMDLI
 40
3.75
  9
$DIMRND
 40
0.0
  9
$DIMDLE
 40
0.0
  9
$DIMEXE
 40
1.25
  9
$DIMTP
 40
0.0
  9
$DIMTM
 40
0.0
  9
$DIMTXT
 40
2.5
  9
$DIMCEN
 40
2.5
  9
$DIMTSZ
 40
0.0
  9
$DIMTOL
 70
     0
  9
$DIMLIM
 70
     0
  9
$DIMTIH
 70
     0
  9
$DIMTOH
 70
     0
  9
$DIMSE1
 70
     0
  9
$DIMSE2
 70
     0
  9
$DIMTAD
 70
     1
  9
$DIMZIN
 70
     8
  9
$DIMBLK
  1

  9
$DIMASO
 70
     1
  9
$DIMSHO
 70
     1
  9
$DIMPOST
  1

  9
$DIMAPOST
  1

  9
$DIMALT
 70
     0
  9
$DIMALTD
 70
     3
  9
$DIMALTF
 40
0.03937007874016
  9
$DIMLFAC
 40
1.0
  9
$DIMTOFL
 70
     1
  9
$DIMTVP
 40
0.0
  9
$DIMTIX
 70
     0
  9
$DIMSOXD
 70
     0
  9
$DIMSAH
 70
     0
  9
$DIMBLK1
  1

  9
$DIMBLK2
  1

  9
$DIMSTYLE
  2
ISO-25
  9
$DIMCLRD
 70
     0
  9
$DIMCLRE
 70
     0
  9
$DIMCLRT
 70
     0
  9
$DIMTFAC
 40
1.0
  9
$DIMGAP
 40
0.625
  9
$DIMJUST
 70
     0
  9
$DIMSD1
 70
     0
  9
$DIMSD2
 70
     0
  9
$DIMTOLJ
 70
     0
  9
$DIMTZIN
 70
     8
  9
$DIMALTZ
 70
     0
  9
$DIMALTTZ
 70
     0
  9
$DIMUPT
 70
     0
  9
$DIMDEC
 70
     2
  9
$DIMTDEC
 70
     2
  9
$DIMALTU
 70
     2
  9
$DIMALTTD
 70
     3
  9
$DIMTXSTY
  7
Standard
  9
$DIMAUNIT
 70
     0
  9
$DIMADEC
 70
     0
  9
$DIMALTRND
 40
0.0
  9
$DIMAZIN
 70
     0
  9
$DIMDSEP
 70
    44
  9
$DIMATFIT
 70
     3
  9
$DIMFRAC
 70
     0
  9
$DIMLDRBLK
  1

  9
$DIMLUNIT
 70
     2
  9
$DIMLWD
 70
    -2
  9
$DIMLWE
 70
    -2
  9
$DIMTMOVE
 70
     0
  9
$DIMFXL
 40
1.0
  9
$DIMFXLON
 70
     0
  9
$DIMJOGANG
 40
0.7853981633974483
  9
$DIMTFILL
 70
     0
  9
$DIMTFILLCLR
 70
     0
  9
$DIMARCSYM
 70
     0
  9
$DIMLTYPE
  6

  9
$DIMLTEX1
  6

  9
$DIMLTEX2
  6

  9
$DIMTXTDIRECTION
 70
     0
  9
$LUNITS
 70
     2
  9
$LUPREC
 70
     4
  9
$SKETCHINC
 40
1.0
  9
$FILLETRAD
 40
0.0
  9
$AUNITS
 70
     0
  9
$AUPREC
 70
     0
  9
$MENU
  1
.
  9
$ELEVATION
 40
0.0
  9
$PELEVATION
 40
0.0
  9
$THICKNESS
 40
0.0
  9
$LIMCHECK
 70
     0
  9
$CHAMFERA
 40
0.0
  9
$CHAMFERB
 40
0.0
  9
$CHAMFERC
 40
0.0
  9
$CHAMFERD
 40
0.0
  9
$SKPOLY
 70
     0
  9
$TDCREATE
 40
2453314.433178079
  9
$TDUCREATE
 40
2453314.391511412
  9
$TDUPDATE
 40
2457219.626930266
  9
$TDUUPDATE
 40
2457219.5852636
  9
$TDINDWG
 40
0.5449395949
  9
$TDUSRTIMER
 40
0.5449318287
  9
$USRTIMER
 70
     1
  9
$ANGBASE
 50
0.0
  9
$ANGDIR
 70
     0
  9
$PDMODE
 70
     0
  9
$PDSIZE
 40
0.0
  9
$PLINEWID
 40
0.0
  9
$SPLFRAME
 70
     0
  9
$SPLINETYPE
 70
     6
  9
$SPLINESEGS
 70
     8
  9
$HANDSEED
  5
6A2
  9
$SURFTAB1
 70
     6
  9
$SURFTAB2
 70
     6
  9
$SURFTYPE
 70
     6
  9
$SURFU
 70
     6
  9
$SURFV
 70
     6
  9
$UCSBASE
  2

  9
$UCSNAME
  2

  9
$UCSORG
 10
0.0
 20
0.0
 30
0.0
  9
$UCSXDIR
 10
1.0
 20
0.0
 30
0.0
  9
$UCSYDIR
 10
0.0
 20
1.0
 30
0.0
  9
$UCSORTHOREF
  2

  9
$UCSORTHOVIEW
 70
     0
  9
$UCSORGTOP
 10
0.0
 20
0.0
 30
0.0
  9
$UCSORGBOTTOM
 10
0.0
 20
0.0
 30
0.0
  9
$UCSORGLEFT
 10
0.0
 20
0.0
 30
0.0
  9
$UCSORGRIGHT
 10
0.0
 20
0.0
 30
0.0
  9
$UCSORGFRONT
 10
0.0
 20
0.0
 30
0.0
  9
$UCSORGBACK
 10
0.0
 20
0.0
 30
0.0
  9
$PUCSBASE
  2

  9
$PUCSNAME
  2

  9
$PUCSORG
 10
0.0
 20
0.0
 30
0.0
  9
$PUCSXDIR
 10
1.0
 20
0.0
 30
0.0
  9
$PUCSYDIR
 10
0.0
 20
1.0
 30
0.0
  9
$PUCSORTHOREF
  2

  9
$PUCSORTHOVIEW
 70
     0
  9
$PUCSORGTOP
 10
0.0
 20
0.0
 30
0.0
  9
$PUCSORGBOTTOM
 10
0.0
 20
0.0
 30
0.0
  9
$PUCSORGLEFT
 10
0.0
 20
0.0
 30
0.0
  9
$PUCSORGRIGHT
 10
0.0
 20
0.0
 30
0.0
  9
$PUCSORGFRONT
 10
0.0
 20
0.0
 30
0.0
  9
$PUCSORGBACK
 10
0.0
 20
0.0
 30
0.0
  9
$USERI1
 70
     0
  9
$USERI2
 70
     0
  9
$USERI3
 70
     0
  9
$USERI4
 70
     0
  9
$USERI5
 70
     0
  9
$USERR1
 40
0.0
  9
$USERR2
 40
0.0
  9
$USERR3
 40
0.0
  9
$USERR4
 40
0.0
  9
$USERR5
 40
0.0
  9
$WORLDVIEW
 70
     1
  9
$SHADEDGE
 70
     3
  9
$SHADEDIF
 70
    70
  9
$TILEMODE
 70
     0
  9
$MAXACTVP
 70
    64
  9
$PINSBASE
 10
0.0
 20
0.0
 30
0.0
  9
$PLIMCHECK
 70
     0
  9
$PEXTMIN
 10
20.31999878883363
 20
4.829810001241071
 30
0.0
  9
$PEXTMAX
 10
182.8799890995026
 20
213.3696298435622
 30
0.0
  9
$PLIMMIN
 10
-7.143749713897707
 20
-13.49375152587891
  9
$PLIMMAX
 10
208.7562441825867
 20
265.9062423706055
  9
$UNITMODE
 70
     0
  9
$VISRETAIN
 70
     1
  9
$PLINEGEN
 70
     0
  9
$PSLTSCALE
 70
     1
  9
$TREEDEPTH
 70
  3020
  9
$CMLSTYLE
  2
Standard
  9
$CMLJUST
 70
     0
  9
$CMLSCALE
 40
20.0
  9
$PROXYGRAPHICS
 70
     1
  9
$MEASUREMENT
 70
     1
  9
$CELWEIGHT
370
    -1
  9
$ENDCAPS
280
     0
  9
$JOINSTYLE
280
     0
  9
$LWDISPLAY
290
     0
  9
$INSUNITS
 70
     4
  9
$HYPERLINKBASE
  1

  9
$STYLESHEET
  1
monochrome.ctb
  9
$XEDIT
290
     1
  9
$CEPSNTYPE
380
     0
  9
$PSTYLEMODE
290
     1
  9
$FINGERPRINTGUID
  2
{FDEAD578-A652-11D2-9A35-0060089B3A3F}
  9
$VERSIONGUID
  2
{88E526D5-9546-4E56-9A3E-DCD318665AA2}
  9
$EXTNAMES
290
     1
  9
$PSVPSCALE
 40
0.0
  9
$OLESTARTUP
290
     0
  9
$SORTENTS
280
   127
  9
$INDEXCTL
280
     0
  9
$HIDETEXT
280
     1
  9
$XCLIPFRAME
280
     2
  9
$HALOGAP
280
     0
  9
$OBSCOLOR
 70
   257
  9
$OBSLTYPE
280
     0
  9
$INTERSECTIONDISPLAY
280
     0
  9
$INTERSECTIONCOLOR
 70
   257
  9
$DIMASSOC
280
     2
  9
$PROJECTNAME
  1

  9
$CAMERADISPLAY
290
     0
  9
$LENSLENGTH
 40
50.0
  9
$CAMERAHEIGHT
 40
0.0
  9
$STEPSPERSEC
 40
2.0
  9
$STEPSIZE
 40
6.0
  9
$3DDWFPREC
 40
2.0
  9
$PSOLWIDTH
 40
0.25
  9
$PSOLHEIGHT
 40
4.0
  9
$LOFTANG1
 40
1.570796326794897
  9
$LOFTANG2
 40
1.570796326794897
  9
$LOFTMAG1
 40
0.0
  9
$LOFTMAG2
 40
0.0
  9
$LOFTPARAM
 70
     7
  9
$LOFTNORMALS
280
     1
  9
$LATITUDE
 40
37.795
  9
$LONGITUDE
 40
-122.394
  9
$NORTHDIRECTION
 40
0.0
  9
$TIMEZONE
 70
 -8000
  9
$LIGHTGLYPHDISPLAY
280
     1
  9
$TILEMODELIGHTSYNCH
280
     1
  9
$SOLIDHIST
280
     0
  9
$SHOWHIST
280
     1
  9
$DWFFRAME
280
     2
  9
$DGNFRAME
280
     2
  9
$REALWORLDSCALE
290
     1
  9
$INTERFERECOLOR
 62
   256
  9
$CSHADOW
280
     0
  9
$SHADOWPLANELOCATION
 40
0.0
  0
ENDSEC
  0
SECTION
  2
CLASSES
  0
CLASS
  1
ACDBDICTIONARYWDFLT
  2
AcDbDictionaryWithDefault
  3
ObjectDBX Classes
 90
        0
 91
        4
280
     0
281
     0
  0
CLASS
  1
ACDBPLACEHOLDER
  2
AcDbPlaceHolder
  3
ObjectDBX Classes
 90
        0
 91
        1
280
     0
281
     0
  0
CLASS
  1
LAYOUT
  2
AcDbLayout
  3
ObjectDBX Classes
 90
        0
 91
        1
280
     0
281
     0
  0
CLASS
  1
DICTIONARYVAR
  2
AcDbDictionaryVar
  3
ObjectDBX Classes
 90
        0
 91
        4
280
     0
281
     0
  0
CLASS
  1
RASTERVARIABLES
  2
AcDbRasterVariables
  3
ISM
 90
        0
 91
        4
280
     0
281
     0
  0
CLASS
  1
IMAGEDEF
  2
AcDbRasterImageDef
  3
ISM
 90
        0
 91
        4
280
     0
281
     0
  0
CLASS
  1
IMAGEDEF_REACTOR
  2
AcDbRasterImageDefReactor
  3
ISM
 90
        1
 91
        4
280
     0
281
     0
  0
CLASS
  1
IMAGE
  2
AcDbRasterImage
  3
ISM
 90
      127
 91
        5
280
     0
281
     1
  0
CLASS
  1
VISUALSTYLE
  2
AcDbVisualStyle
  3
ObjectDBX Classes
 90
     4095
 91
        4
280
     0
281
     0
  0
CLASS
  1
SCALE
  2
AcDbScale
  3
ObjectDBX Classes
 90
     1153
 91
        4
280
     0
281
     0
  0
CLASS
  1
MATERIAL
  2
AcDbMaterial
  3
ObjectDBX Classes
 90
     1153
 91
        4
280
     0
281
     0
  0
CLASS
  1
TABLESTYLE
  2
AcDbTableStyle
  3
ObjectDBX Classes
 90
     4095
 91
        4
280
     0
281
     0
  0
CLASS
  1
MLEADERSTYLE
  2
AcDbMLeaderStyle
  3
ACDB_MLEADERSTYLE_CLASS
 90
     4095
 91
        4
280
     0
281
     0
  0
CLASS
  1
CELLSTYLEMAP
  2
AcDbCellStyleMap
  3
ObjectDBX Classes
 90
     1152
 91
        4
280
     0
281
     0
  0
ENDSEC
  0
SECTION
  2
TABLES
  0
TABLE
  2
VPORT
  5
8
330
0
100
AcDbSymbolTable
 70
    16
  0
VPORT
  5
5EF
330
8
100
AcDbSymbolTableRecord
100
AcDbViewportTableRecord
  2
*Active
 70
     0
 10
0.0
 20
0.0
 11
1.0
 21
1.0
 12
803.325369266624
 22
424.7102306539595
 13
0.0
 23
0.0
 14
10.0
 24
10.0
 15
10.0
 25
10.0
 16
0.0
 26
0.0
 36
1.0
 17
0.0
 27
0.0
 37
0.0
 40
272.6264485678041
 41
1.796934865900383
 42
50.0
 43
0.0
 44
0.0
 50
0.0
 51
0.0
 71
     0
 72
  1000
 73
     1
 74
     3
 75
     0
 76
     0
 77
     0
 78
     0
281
     0
 65
     1
110
0.0
120
0.0
130
0.0
111
1.0
121
0.0
131
0.0
112
0.0
122
1.0
132
0.0
 79
     0
146
0.0
348
62C
 60
     3
 61
     5
292
     1
282
     1
141
0.0
142
0.0
 63
   256
  0
ENDTAB
  0
TABLE
  2
LTYPE
  5
5
330
0
100
AcDbSymbolTable
 70
     2
  0
LTYPE
  5
14
330
5
100
AcDbSymbolTableRecord
100
AcDbLinetypeTableRecord
  2
ByBlock
 70
     0
  3

 72
    65
 73
     0
 40
0.0
  0
LTYPE
  5
15
330
5
100
AcDbSymbolTableRecord
100
AcDbLinetypeTableRecord
  2
ByLayer
 70
     0
  3

 72
    65
 73
     0
 40
0.0
  0
LTYPE
  5
16
330
5
100
AcDbSymbolTableRecord
100
AcDbLinetypeTableRecord
  2
Continuous
 70
     0
  3
Solid line
 72
    65
 73
     0
 40
0.0
  0
LTYPE
  5
1F5
330
5
100
AcDbSymbolTableRecord
100
AcDbLinetypeTableRecord
  2
DASHED2
 70
     0
  3
Dashed (.5x) _ _ _ _ _ _ _ _ _ _ _ _ _ _ _ _ _
 72
    65
 73
     2
 40
9.524999999999999
 49
6.35
 74
     0
 49
-3.175
 74
     0
  0
ENDTAB
  0
TABLE
  2
LAYER
  5
2
330
0
100
AcDbSymbolTable
 70
     4
  0
LAYER
  5
10
330
2
100
AcDbSymbolTableRecord
100
AcDbLayerTableRecord
  2
0
 70
     0
 62
     7
  6
Continuous
370
    -3
390
F
347
664
  0
LAYER
  5
8C
330
2
100
AcDbSymbolTableRecord
100
AcDbLayerTableRecord
  2
Drawing
 70
     0
 62
     1
  6
Continuous
370
    -3
390
F
347
664
  0
LAYER
  5
444
330
2
100
AcDbSymbolTableRecord
100
AcDbLayerTableRecord
  2
trench scale n
 70
     0
 62
     7
  6
Continuous
370
    -3
390
F
347
664
  0
LAYER
  5
445
330
2
100
AcDbSymbolTableRecord
100
AcDbLayerTableRecord
  2
CD
 70
     0
 62
     7
  6
Continuous
370
    -3
390
F
347
664
  0
ENDTAB
  0
TABLE
  2
STYLE
  5
3
330
0
100
AcDbSymbolTable
 70
     3
  0
STYLE
  5
11
330
3
100
AcDbSymbolTableRecord
100
AcDbTextStyleTableRecord
  2
Standard
 70
     0
 40
0.0
 41
1.0
 50
0.0
 71
     0
 42
16.97154762873321
  3
txt
  4

  0
STYLE
  5
446
330
3
100
AcDbSymbolTableRecord
100
AcDbTextStyleTableRecord
  2
verdana
 70
     0
 40
1.0
 41
1.0
 50
0.0
 71
     0
 42
1.0
  3
verdana.TTF
  4

1001
ACAD
1000
Verdana
1071
       34
  0
STYLE
  5
447
330
3
100
AcDbSymbolTableRecord
100
AcDbTextStyleTableRecord
  2
ver
 70
     0
 40
0.3
 41
1.0
 50
0.0
 71
     0
 42
0.3
  3
verdana.TTF
  4

1001
ACAD
1000
Verdana
1071
       34
  0
ENDTAB
  0
TABLE
  2
VIEW
  5
6
330
0
100
AcDbSymbolTable
 70
     0
  0
ENDTAB
  0
TABLE
  2
UCS
  5
7
330
0
100
AcDbSymbolTable
 70
     0
  0
ENDTAB
  0
TABLE
  2
APPID
  5
9
330
0
100
AcDbSymbolTable
 70
     1
  0
APPID
  5
12
330
9
100
AcDbSymbolTableRecord
100
AcDbRegAppTableRecord
  2
ACAD
 70
     0
  0
ENDTAB
  0
TABLE
  2
DIMSTYLE
  5
A
330
0
100
AcDbSymbolTable
 70
     1
100
AcDbDimStyleTable
  0
DIMSTYLE
105
27
330
A
100
AcDbSymbolTableRecord
100
AcDbDimStyleTableRecord
  2
ISO-25
 70
     0
 41
2.5
 42
0.625
 43
3.75
 44
1.25
 73
     0
 74
     0
 77
     1
 78
     8
140
2.5
141
2.5
143
0.03937007874016
147
0.625
171
     3
172
     1
178
     0
271
     2
272
     2
274
     3
278
    44
283
     0
284
     8
340
11
  0
ENDTAB
  0
TABLE
  2
BLOCK_RECORD
  5
1
330
0
100
AcDbSymbolTable
 70
     4
  0
BLOCK_RECORD
  5
1F
330
1
100
AcDbSymbolTableRecord
100
AcDbBlockTableRecord
  2
*Model_Space
340
22
 70
     0
280
     1
281
     0
  0
BLOCK_RECORD
  5
55
330
1
100
AcDbSymbolTableRecord
100
AcDbBlockTableRecord
  2
*Paper_Space
340
56
 70
     0
280
     1
281
     0
  0
BLOCK_RECORD
  5
50
330
1
100
AcDbSymbolTableRecord
100
AcDbBlockTableRecord
  2
*Paper_Space0
340
51
 70
     0
280
     1
281
     0
  0
BLOCK_RECORD
  5
18F
330
1
100
AcDbSymbolTableRecord
100
AcDbBlockTableRecord
  2
A$C5A7F326B
340
0
 70
     0
280
     1
281
     0
  0
BLOCK_RECORD
  5
30D
330
1
100
AcDbSymbolTableRecord
100
AcDbBlockTableRecord
  2
A$C32F61CBC
340
0
 70
     0
280
     1
281
     0
  0
BLOCK_RECORD
  5
448
330
1
100
AcDbSymbolTableRecord
100
AcDbBlockTableRecord
  2
A$C36576122
340
0
102
{BLKREFS
331
458
102
}
 70
     0
280
     1
281
     0
  0
ENDTAB
  0
ENDSEC
  0
SECTION
  2
BLOCKS
  0
BLOCK
  5
20
330
1F
100
AcDbEntity
  8
0
100
AcDbBlockBegin
  2
*Model_Space
 70
     0
 10
0.0
 20
0.0
 30
0.0
  3
*Model_Space
  1

  0
ENDBLK
  5
21
330
1F
100
AcDbEntity
  8
0
100
AcDbBlockEnd
  0
BLOCK
  5
57
330
55
100
AcDbEntity
 67
     1
  8
0
100
AcDbBlockBegin
  2
*Paper_Space
 70
     0
 10
0.0
 20
0.0
 30
0.0
  3
*Paper_Space
  1

  0
ENDBLK
  5
58
330
55
100
AcDbEntity
 67
     1
  8
0
100
AcDbBlockEnd
  0
BLOCK
  5
52
330
50
100
AcDbEntity
  8
0
100
AcDbBlockBegin
  2
*Paper_Space0
 70
     0
 10
0.0
 20
0.0
 30
0.0
  3
*Paper_Space0
  1

  0
VIEWPORT
  5
303
330
50
100
AcDbEntity
  8
0
100
AcDbViewport
 10
133.3499908447266
 20
123.1856182046298
 30
0.0
 40
485.9016272529091
 41
271.5934358645208
 68
     1
 69
     1
 12
133.3499908447266
 22
123.1856182046298
 13
0.0
 23
0.0
 14
10.0
 24
10.0
 15
10.0
 25
10.0
 16
0.0
 26
0.0
 36
1.0
 17
0.0
 27
0.0
 37
0.0
 42
50.0
 43
0.0
 44
0.0
 45
271.5934358645208
 50
0.0
 51
0.0
 72
  1000
 90
    32800
  1

281
     0
 71
     1
 74
     0
110
0.0
120
0.0
130
0.0
111
1.0
121
0.0
131
0.0
112
0.0
122
1.0
132
0.0
 79
     0
146
0.0
170
     0
 61
     5
348
62C
292
     1
282
     1
141
0.0
142
0.0
 63
   256
  0
VIEWPORT
  5
305
330
50
100
AcDbEntity
  8
Drawing
100
AcDbViewport
 10
133.3499939441681
 20
101.5999939441681
 30
0.0
 40
213.3599903106689
 41
162.5599903106689
 68
     2
 69
     2
 12
810.0431996724437
 22
451.3353481618466
 13
0.0
 23
0.0
 14
10.0
 24
10.0
 15
10.0
 25
10.0
 16
0.0
 26
0.0
 36
1.0
 17
0.0
 27
0.0
 37
0.0
 42
50.0
 43
0.0
 44
0.0
 45
245.9546688745139
 50
0.0
 51
0.0
 72
  1000
 90
    32864
  1

281
     0
 71
     1
 74
     0
110
0.0
120
0.0
130
0.0
111
1.0
121
0.0
131
0.0
112
0.0
122
1.0
132
0.0
 79
     0
146
0.0
170
     0
 61
     5
348
62C
292
     1
282
     1
141
0.0
142
0.0
 63
   256
  0
ENDBLK
  5
53
330
50
100
AcDbEntity
  8
0
100
AcDbBlockEnd
  0
BLOCK
  5
1EB
330
18F
100
AcDbEntity
  8
0
100
AcDbBlockBegin
  2
A$C5A7F326B
 70
     0
 10
0.0
 20
0.0
 30
0.0
  3
A$C5A7F326B
  1

  0
HATCH
  5
190
330
18F
100
AcDbEntity
  8
Drawing
 62
     1
100
AcDbHatch
 10
0.0
 20
0.0
 30
0.0
210
0.0
220
0.0
230
1.0
  2
SOLID
 70
     1
 71
     1
 91
        5
 92
        7
 72
     0
 73
     1
 93
       11
 10
10.38917409960868
 20
30.11391194989841
 10
10.73167516584181
 20
31.02645440337477
 10
10.16084271554246
 20
32.28120055181075
 10
8.220006000312404
 20
32.39526918321502
 10
7.306672483780859
 20
32.39526918321502
 10
6.735840033482407
 20
31.25458946693053
 10
6.279173275216634
 20
30.11391194989841
 10
6.393338967249293
 20
29.77170825493834
 10
6.964171417548641
 20
29.54357319138256
 10
7.76333924204663
 20
29.65763962353407
 10
8.562507066545534
 20
29.88577688634262
 97
        1
330
19A
 92
        7
 72
     0
 73
     1
 93
        9
 10
14.95584567240076
 20
34.67662641653118
 10
14.95584567240075
 20
35.24696517504749
 10
13.92834646383564
 20
35.47510023860326
 10
12.67251188107184
 20
35.47510023860325
 10
12.55834219890493
 20
34.10628765801533
 10
13.01500895717072
 20
33.30781163669093
 10
13.47167970556984
 20
33.19374300528665
 10
13.58584539760342
 20
33.30781163669095
 10
13.92834646383563
 20
33.53594670024672
 97
        1
330
19E
 92
        7
 72
     0
 73
     1
 93
        7
 10
21.46334997028953
 20
34.33442272157112
 10
21.92002071868865
 20
35.58916887000753
 10
21.00668321202374
 20
35.81730393356332
 10
20.55001645375796
 20
35.01883011149123
 10
20.55001645375796
 20
33.8781503952068
 10
20.66418613592396
 20
33.42188026809521
 10
21.46334997028953
 20
33.76408396305527
 97
        1
330
19F
 92
        7
 72
     0
 73
     1
 93
       15
 10
19.63668293722549
 20
19.16339810968058
 10
19.63668293722549
 20
17.33831320272878
 10
20.32168506969174
 20
17.33831320272878
 10
21.00668321202374
 20
17.90865196124463
 10
21.34918427825595
 20
18.13678702480041
 10
22.60501886102066
 20
18.59305935116475
 10
23.06168561928643
 20
19.84780549960117
 10
23.46823079075038
 20
20.45709556648256
 10
23.46311088761249
 20
20.55429033240619
 10
22.37668747695446
 20
20.98848301663287
 10
21.92002071868865
 20
21.10255164803715
 10
21.57751965245552
 20
22.01509410151306
 10
20.20751937765817
 20
21.90102766936155
 10
20.20751937765817
 20
21.10255164803715
 10
19.52251724519283
 20
19.961874131005
 97
        2
330
199
330
195
 92
        7
 72
     0
 73
     1
 93
       13
 10
108.412147696355
 20
28.6400084857932
 10
109.4624820371832
 20
28.7711866680305
 10
110.2502325724886
 20
29.03354254677698
 10
110.5128163780114
 20
29.16472072901428
 10
110.5784625497078
 20
29.29589842552344
 10
109.7907111331394
 20
29.5582547899981
 10
108.8716691357043
 20
29.5582547899981
 10
107.690043332746
 20
29.42707660776077
 10
107.0335842595708
 20
29.36148775950619
 10
106.3771251863953
 20
28.7711866680305
 10
106.3114790146989
 20
28.6400084857932
 10
106.7053542823515
 20
28.37765260704668
 10
107.1648757217007
 20
28.31206327306393
 97
        1
330
193
 75
     0
 76
     1
 47
0.179997368057399
 98
        5
 10
8.695433992979474
 20
30.67934021273351
 10
13.55957728651799
 20
34.09929018894553
 10
21.12602319314522
 20
34.45928471876653
 10
20.76571611931593
 20
19.69950073872741
 10
107.4195325653836
 20
28.87936659217229
450
        1
451
        0
460
0.0
461
0.0
452
        1
462
0.3899999856948853
453
        2
463
0.0
 63
     1
421
 16711680
463
1.0
 63
    12
421
 13041664
470
LINEAR
  0
LWPOLYLINE
  5
193
102
{ACAD_REACTORS
330
190
102
}
330
18F
100
AcDbEntity
  8
Drawing
100
AcDbPolyline
 90
       13
 70
     1
 43
0.0
 10
107.1648757217007
 20
28.31206327306393
 10
108.4121476963551
 20
28.6400084857932
 10
109.4624820371832
 20
28.77118666803051
 10
110.2502325724886
 20
29.03354254677697
 10
110.5128163780114
 20
29.16472072901428
 10
110.5784625497079
 20
29.29589842552343
 10
109.7907111331394
 20
29.5582547899981
 10
108.8716691357042
 20
29.5582547899981
 10
107.6900433327463
 20
29.4270766077608
 10
107.0335842595708
 20
29.36148775950619
 10
106.3771251863953
 20
28.77118666803051
 10
106.3114790146989
 20
28.6400084857932
 10
106.7053542823515
 20
28.37765260704668
  0
LWPOLYLINE
  5
194
330
18F
100
AcDbEntity
  8
Drawing
100
AcDbPolyline
 90
       23
 70
     1
 43
0.0
 10
72.63228305028235
 20
29.71937568618955
 10
79.82478962374717
 20
29.37717192259453
 10
89.30063133759359
 20
29.71937568618955
 10
94.66646891749008
 20
29.83344312165968
 10
96.60730378681433
 20
29.94751104285808
 10
99.57564035057351
 20
29.94751104285808
 10
104.3706441453746
 20
30.17564688525476
 10
108.5948150363436
 20
30.17564688525476
 10
113.0473185600874
 20
29.94751104285808
 10
116.8148224229801
 20
29.26310400139619
 10
114.0748193732592
 20
27.55208615487732
 10
110.7639834197059
 20
25.95513671528499
 10
107.9098144942291
 20
25.49886503049163
 10
103.3431433322029
 20
24.47225471116286
 10
100.374807649707
 20
24.13005094756784
 10
97.29230432892882
 20
24.35818678996452
 10
91.81229999201321
 20
24.81445798902973
 10
88.72979755249821
 20
25.15666175262476
 10
85.07646044662465
 20
26.41140791435021
 10
81.99395800710965
 20
27.32395079820884
 10
80.0531231377854
 20
28.12242576086908
 10
78.22645414421697
 20
28.23649368206742
 10
76.17145251787372
 20
29.49123984379287
  0
LWPOLYLINE
  5
195
102
{ACAD_REACTORS
330
190
102
}
330
18F
100
AcDbEntity
  8
Drawing
100
AcDbPolyline
 90
       30
 70
     0
 43
0.0
 10
22.60501886102065
 20
30.22798058130269
 10
22.60501886102065
 20
26.12153624178148
 10
22.94751992725287
 20
23.38390888135376
 10
23.40418668551956
 20
21.67289040655299
 10
23.51835237755222
 20
19.50560180464112
 10
24.43168988421712
 20
17.110178139173
 10
24.8883566424829
 20
14.71475227445211
 10
25.34502340074869
 20
12.43339504113595
 10
25.00252233451647
 20
9.01136029078765
 10
23.63252205971912
 20
6.045595667550913
 10
21.46334997028953
 20
2.965764612162673
 10
19.40835155315926
 20
1.482881200918143
 10
17.12501377169701
 20
0.6844073788460605
 10
14.95584567240076
 20
0.2281350524817185
 10
12.10167544063916
 20
-0.0000000110740643
 10
10.04667303337646
 20
0.7984738109980185
 10
7.763339242046641
 20
1.254746137362361
 10
5.365835768551733
 20
2.395423654394051
 10
3.767504109687252
 20
3.650169802830476
 10
1.826667394457218
 20
7.414410447391163
 10
0.4566671196598691
 20
11.63492121906387
 10
0.0000003613940862
 20
15.7413633593323
 10
0.3424974374938756
 20
22.69950149143318
 10
1.940833086490784
 20
28.17475841154231
 10
3.425003043455035
 20
31.93899685685068
 10
5.822502526817516
 20
35.36103380645176
 10
5.936672208983509
 20
37.64239103976792
 10
8.105840308279767
 20
40.49408703160037
 10
10.96001054004137
 20
41.97696824359213
 10
14.72751428833453
 20
43.00357932847277
  0
MTEXT
  5
196
330
18F
100
AcDbEntity
  8
Drawing
100
AcDbMText
 10
8.220007516689293
 20
25.77933371325059
 30
0.0
 40
2.5
 41
9.444444444444445
 46
0.0
 71
     1
 72
     5
  1
{\fArial|b0|i0|c0|p34;5.78}
 73
     1
 44
1.0
  0
LWPOLYLINE
  5
197
330
18F
100
AcDbEntity
  8
Drawing
100
AcDbPolyline
 90
        2
 70
     0
 43
0.0
 10
11.30251083746737
 20
20.98848393728912
 10
12.44417840765811
 20
19.16339865530011
  0
LWPOLYLINE
  5
198
330
18F
100
AcDbEntity
  8
Drawing
100
AcDbPolyline
 90
        2
 70
     0
 43
0.0
 10
11.18834408044836
 20
21.10255185848746
 10
9.818342996219485
 20
19.27746609077025
  0
LWPOLYLINE
  5
199
102
{ACAD_REACTORS
330
190
102
}
330
18F
100
AcDbEntity
  8
Drawing
100
AcDbPolyline
 90
       14
 70
     1
 43
0.0
 10
19.52251724519283
 20
19.961874131005
 10
20.20751937765817
 20
21.10255164803715
 10
20.20751937765817
 20
21.90102766936155
 10
21.57751965245552
 20
22.01509410151306
 10
21.92002071868865
 20
21.10255164803715
 10
22.37668747695443
 20
20.98848301663287
 10
23.51835237755222
 20
20.5322128895213
 10
23.06168561928644
 20
19.84780549960118
 10
22.60501886102065
 20
18.59305935116475
 10
21.34918427825596
 20
18.13678702480041
 10
21.00668321202374
 20
17.90865196124463
 10
20.32168506969174
 20
17.33831320272878
 10
19.63668293722549
 20
17.33831320272878
 10
19.63668293722549
 20
19.1633981096806
  0
LWPOLYLINE
  5
19A
102
{ACAD_REACTORS
330
190
102
}
330
18F
100
AcDbEntity
  8
Drawing
100
AcDbPolyline
 90
       11
 70
     1
 43
0.0
 10
8.56250706654555
 20
29.88577688634263
 10
10.38917409960868
 20
30.11391194989841
 10
10.73167516584181
 20
31.02645440337477
 10
10.16084271554246
 20
32.28120055181074
 10
8.220006000312424
 20
32.39526918321502
 10
7.306672483780858
 20
32.39526918321502
 10
6.735840033482418
 20
31.25458946693055
 10
6.279173275216635
 20
30.11391194989841
 10
6.393338967249292
 20
29.77170825493835
 10
6.964171417548641
 20
29.54357319138256
 10
7.763339242046641
 20
29.65763962353407
  0
LWPOLYLINE
  5
19B
330
18F
100
AcDbEntity
  8
Drawing
100
AcDbPolyline
 90
        8
 70
     1
 43
0.0
 10
16.66834701343123
 20
38.32679623043572
 10
17.6958502121297
 20
38.66899992539578
 10
17.81001590416236
 20
38.66899992539578
 10
18.26668266242814
 20
38.78306855680006
 10
18.03834728822858
 20
39.46747594672019
 10
17.23917946373058
 20
39.58154457812446
 10
17.01084807966345
 20
39.01120362035584
 10
17.01084807966345
 20
38.78306855680006
  0
LWPOLYLINE
  5
19C
330
18F
100
AcDbEntity
  8
Drawing
100
AcDbPolyline
 90
        7
 70
     1
 43
0.0
 10
19.63668293722549
 20
38.32679623043572
 10
20.20751937765817
 20
38.66899992539578
 10
20.20751937765817
 20
39.12527225176012
 10
20.09334969549218
 20
39.80967964168025
 10
19.63668293722549
 20
39.80967964168025
 10
19.29418187099327
 20
39.35340731531591
 10
19.29418187099327
 20
38.78306855680006
  0
LWPOLYLINE
  5
19D
330
18F
100
AcDbEntity
  8
Drawing
100
AcDbPolyline
 90
        9
 70
     0
 43
0.0
 10
17.92418159619592
 20
42.66137563351271
 10
19.97918400345861
 20
41.52069811648056
 10
21.12085289418974
 20
40.15188333664031
 10
21.92002071868865
 20
39.2393408831644
 10
22.14835210275487
 20
38.09866116687948
 10
22.60501886102065
 20
35.47510023860326
 10
22.60501886102065
 20
33.19374300528665
 10
22.60501886102065
 20
31.1405230347786
 10
22.60501886102065
 20
29.77170825493835
  0
LWPOLYLINE
  5
19E
102
{ACAD_REACTORS
330
190
102
}
330
18F
100
AcDbEntity
  8
Drawing
100
AcDbPolyline
 90
        9
 70
     1
 43
0.0
 10
13.92834646383562
 20
33.53594670024671
 10
14.95584567240076
 20
34.67662641653118
 10
14.95584567240076
 20
35.24696517504748
 10
13.92834646383562
 20
35.47510023860326
 10
12.67251188107184
 20
35.47510023860326
 10
12.55834219890494
 20
34.10628765801533
 10
13.01500895717072
 20
33.30781163669093
 10
13.47167970556984
 20
33.19374300528665
 10
13.58584539760341
 20
33.30781163669093
  0
LWPOLYLINE
  5
19F
102
{ACAD_REACTORS
330
190
102
}
330
18F
100
AcDbEntity
  8
Drawing
100
AcDbPolyline
 90
        7
 70
     1
 43
0.0
 10
20.66418613592396
 20
33.42188026809521
 10
21.46334997028953
 20
33.76408396305527
 10
21.46334997028953
 20
34.33442272157112
 10
21.92002071868865
 20
35.58916887000754
 10
21.00668321202374
 20
35.81730393356332
 10
20.55001645375796
 20
35.01883011149124
 10
20.55001645375796
 20
33.87815039520677
  0
LWPOLYLINE
  5
1A0
330
18F
100
AcDbEntity
  8
Drawing
100
AcDbPolyline
 90
        8
 70
     1
 43
0.0
 10
14.61334460616854
 20
42.77544426491653
 10
15.86917918893232
 20
42.09103687499641
 10
17.6958502121297
 20
42.43324056995647
 10
18.03834728822858
 20
43.23171439202855
 10
17.92418159619592
 20
44.03019041335295
 10
16.78251270546389
 20
44.6005291718688
 10
15.86917918893232
 20
44.25832547690874
 10
14.8416799803681
 20
43.57391808698861
  0
MTEXT
  5
1A1
330
18F
100
AcDbEntity
  8
Drawing
100
AcDbMText
 10
62.66031046420756
 20
31.1246538696771
 30
0.0
 40
2.5
 41
9.444444444444445
 46
0.0
 71
     1
 72
     5
  1
{\fArial|b0|i0|c0|p34;N}
 73
     1
 44
1.0
  0
LWPOLYLINE
  5
1A2
330
18F
100
AcDbEntity
  8
Drawing
100
AcDbPolyline
 90
        6
 70
     1
 43
0.0
 10
98.76220187633885
 20
26.67233818087419
 10
98.95913951016519
 20
27.45940630284178
 10
98.95913951016519
 20
27.45940630284178
 10
98.36832660868617
 20
27.45940630284178
 10
98.43397189911957
 20
27.13146109011257
 10
98.56526424251251
 20
26.80351636311156
  0
LWPOLYLINE
  5
1A3
330
18F
100
AcDbEntity
  8
Drawing
100
AcDbPolyline
 90
       11
 70
     1
 43
0.0
 10
86.55206505405408
 20
26.14762593765306
 10
87.4054617610559
 20
26.54115999863689
 10
87.47110793275237
 20
26.93469405962065
 10
87.4054617610559
 20
27.13146109011257
 10
87.01158649340323
 20
27.52499515109639
 10
86.74900268788042
 20
27.52499515109639
 10
86.42077359192433
 20
27.39381745458724
 10
86.28948212979446
 20
27.13146109011257
 10
86.15818978640152
 20
26.67233818087419
 10
86.09254449596813
 20
26.34439296814497
 10
86.15818978640152
 20
26.27880411989042
  0
LWPOLYLINE
  5
1A4
330
18F
100
AcDbEntity
  8
Drawing
100
AcDbPolyline
 90
        9
 70
     1
 43
0.0
 10
83.33541674113644
 20
27.52499515109639
 10
83.20412527900658
 20
27.91852921208016
 10
83.00718764518024
 20
28.24647442480938
 10
82.74460383965743
 20
28.44324145530129
 10
82.48202003413462
 20
28.44324145530129
 10
82.21943622861181
 20
28.44324145530129
 10
82.02249859478547
 20
27.91852921208016
 10
82.61331149626449
 20
27.39381745458724
 10
83.07283293561363
 20
27.32822812060448
  0
LWPOLYLINE
  5
1A5
330
18F
100
AcDbEntity
  8
Drawing
100
AcDbPolyline
 90
       12
 70
     1
 43
0.0
 10
102.3156425190313
 20
26.86767911341542
 10
104.2564773883555
 20
26.29733999315187
 10
104.94147793047
 20
26.41140791435021
 10
105.2839782015272
 20
27.0958149558121
 10
105.2839782015272
 20
27.89428991847234
 10
103.7998103602793
 20
28.35056111753755
 10
102.8864763041266
 20
28.35056111753755
 10
101.7448087339359
 20
28.35056111753755
 10
100.488974406726
 20
28.35056111753755
 10
101.0598081918214
 20
27.55208615487732
 10
101.973142247974
 20
27.32395079820884
 10
102.3156425190313
 20
26.98174703461376
  0
MTEXT
  5
1A6
330
18F
100
AcDbEntity
  8
Drawing
100
AcDbMText
 10
92.66926933973753
 20
18.87460119135585
 30
0.0
 40
2.5
 41
9.444444444444445
 46
0.0
 71
     1
 72
     5
  1
{\fArial|b0|i0|c0|p34;5.58}
 73
     1
 44
1.0
  0
LWPOLYLINE
  5
1A7
330
18F
100
AcDbEntity
  8
Drawing
100
AcDbPolyline
 90
        2
 70
     0
 43
0.0
 10
96.640826154955
 20
14.79875398949076
 10
95.27082507072612
 20
12.97366822177355
  0
LWPOLYLINE
  5
1A8
330
18F
100
AcDbEntity
  8
Drawing
100
AcDbPolyline
 90
        2
 70
     0
 43
0.0
 10
96.754992911974
 20
14.68468606829242
 10
97.89666048216475
 20
12.85960078630342
  0
LWPOLYLINE
  5
1A9
330
18F
100
AcDbEntity
  8
Drawing
100
AcDbPolyline
 90
        8
 70
     1
 43
0.0
 10
100.3377029469494
 20
24.70466787595524
 10
100.862869676732
 20
25.16379078519361
 10
100.862869676732
 20
25.49173599792283
 10
100.0094738509933
 20
25.68850302841469
 10
99.68124387377406
 20
25.49173599792283
 10
99.74689004547054
 20
25.16379078519361
 10
99.8781815076004
 20
25.09820193693901
 10
100.3377029469494
 20
25.03261260295625
  0
LWPOLYLINE
  5
1AA
330
18F
100
AcDbEntity
  8
Drawing
100
AcDbPolyline
 90
        9
 70
     1
 43
0.0
 10
84.51704254409435
 20
27.59058448507909
 10
84.9765639834435
 20
27.787351515571
 10
84.32010491026801
 20
28.50883030355584
 10
83.86058347091887
 20
28.90236436453966
 10
83.59800054665925
 20
29.03354254677697
 10
83.1384791073101
 20
28.70559733404775
 10
83.33541674113644
 20
28.11529624257207
 10
83.33541674113644
 20
27.72176218158825
 10
83.86058347091887
 20
27.6561733333337
  0
MTEXT
  5
1AB
330
18F
100
AcDbEntity
  8
Drawing
100
AcDbMText
 10
95.73187814539244
 20
40.65428287445758
 30
0.0
 40
2.5
 41
9.444444444444445
 46
0.0
 71
     1
 72
     5
  1
{\fArial|b0|i0|c0|p34;5.78}
 73
     1
 44
1.0
  0
LWPOLYLINE
  5
1AC
330
18F
100
AcDbEntity
  8
Drawing
100
AcDbPolyline
 90
       10
 70
     1
 43
0.0
 10
93.37923871006842
 20
29.09913139503152
 10
94.23263453580716
 20
29.23030957726888
 10
95.08603124280887
 20
29.36148775950619
 10
95.21732358620193
 20
28.83677551628506
 10
94.75780214685278
 20
28.50883030355584
 10
94.1013430736773
 20
28.44324145530129
 10
93.37923871006842
 20
28.24647442480938
 10
92.78842492732633
 20
28.44324145530129
 10
92.39454965967366
 20
28.83677551628506
 10
92.78842492732633
 20
29.09913139503152
  0
LWPOLYLINE
  5
1AD
330
18F
100
AcDbEntity
  8
Drawing
100
AcDbPolyline
 90
        2
 70
     0
 43
0.0
 10
99.52328186432669
 20
36.93843020241349
 10
98.15328078009782
 20
35.11334443469627
  0
LWPOLYLINE
  5
1AE
330
18F
100
AcDbEntity
  8
Drawing
100
AcDbPolyline
 90
        2
 70
     0
 43
0.0
 10
99.6374486213457
 20
36.82436228121514
 10
100.7791161915364
 20
34.99927699922614
  0
HATCH
  5
1AF
330
18F
100
AcDbEntity
  8
Drawing
 62
     1
100
AcDbHatch
 10
0.0
 20
0.0
 30
0.0
210
0.0
220
0.0
230
1.0
  2
SOLID
 70
     1
 71
     0
 91
       10
 92
        7
 72
     0
 73
     1
 93
        3
 10
188.0480798578475
 20
26.60000936832688
 10
187.1161617248433
 20
26.22756513940038
 10
188.0480798578475
 20
25.11023245262083
 97
        0
 92
        7
 72
     0
 73
     1
 93
        5
 10
187.1358438555529
 20
33.15041775123183
 10
187.1387704827868
 20
33.17673446103771
 10
187.1161617248436
 20
33.58333951072251
 10
185.9978599652386
 20
32.46600682394302
 10
187.1358438555528
 20
31.94123839806599
 97
        0
 92
        7
 72
     0
 73
     1
 93
        7
 10
184.8592769547436
 20
40.23475277623038
 10
184.7069460779404
 20
40.36520903117605
 10
184.7069460779405
 20
40.53915052289648
 10
184.5067909524324
 20
40.93911388204469
 10
183.957699644176
 20
39.99863018654514
 10
183.8986988691644
 20
39.82178119526503
 10
185.0659418322349
 20
39.82178119526503
 97
        0
 92
        7
 72
     0
 73
     1
 93
        3
 10
173.1373888485208
 20
42.2426689261514
 10
171.7059468434002
 20
41.06485564227
 10
172.6938223745818
 20
40.73584967713356
 97
        0
 92
        7
 72
     0
 73
     1
 93
        4
 10
165.8889799008535
 20
33.35018121273714
 10
165.7692591719905
 20
33.11638433645174
 10
165.3092765312873
 20
31.81422905902554
 10
166.5207701041925
 20
31.90734023768931
 97
        0
 92
        7
 72
     0
 73
     1
 93
        5
 10
163.3430646454525
 20
22.35835874943473
 10
163.3216318562788
 20
22.3715367287756
 10
163.3079044876902
 20
21.94635878194242
 10
163.4305826222966
 20
20.78192650590876
 10
164.3567192158166
 20
21.58388274606472
 97
        0
 92
        7
 72
     0
 73
     1
 93
        4
 10
166.2411946642915
 20
12.44712721193662
 10
165.4546657320418
 20
12.35981072476505
 10
165.4686699466603
 20
12.28052242013121
 10
166.2411946642914
 20
11.42290521809269
 97
        0
 92
        7
 72
     0
 73
     1
 93
        5
 10
172.6281015990486
 20
6.536630040032207
 10
172.5782379687186
 20
6.860462806583314
 10
171.7812177346465
 20
6.661380500584528
 10
171.4901238137004
 20
6.559585861207836
 10
172.6281015990487
 20
5.74744874786586
 97
        0
 92
        7
 72
     0
 73
     1
 93
        4
 10
187.022969911543
 20
8.164017850689902
 10
186.0731974608025
 20
8.61058228281155
 10
185.4430746808069
 20
8.81294642588989
 10
185.5319008987367
 20
6.860462806583143
 97
        0
 92
        7
 72
     0
 73
     1
 93
        3
 10
189.4551918354385
 20
17.53132862149846
 10
188.7443466260678
 20
17.07475285916183
 10
189.7255324972544
 20
16.4509030371924
 97
        0
 75
     0
 76
     1
 47
0.0740232987626095
 98
       10
 10
187.6119418543468
 20
25.78133005609027
 10
186.7228918849601
 20
32.36940374535862
 10
184.5743538714331
 20
40.06782680729299
 10
172.4980923747706
 20
41.4002462487835
 10
166.0524809779791
 20
32.22135719471834
 10
163.6816813533686
 20
21.63602518097844
 10
165.9043062768357
 20
12.16104302563275
 10
171.979480480137
 20
6.461249125934103
 10
185.9079288255133
 20
7.941715118064906
 10
189.0936915095705
 20
16.97255762148984
450
        1
451
        0
460
0.0
461
0.0
452
        1
462
0.3899999856948853
453
        2
463
0.0
 63
     1
421
 16711680
463
1.0
 63
    12
421
 13041664
470
LINEAR
  0
LWPOLYLINE
  5
1B2
330
18F
100
AcDbEntity
  8
Drawing
100
AcDbPolyline
 90
        3
 70
     1
 43
0.0
 10
184.5067909524323
 20
40.93911388204447
 10
183.8544482593296
 20
39.82178119526509
 10
185.0659418322348
 20
39.82178119526509
  0
LWPOLYLINE
  5
1B3
330
18F
100
AcDbEntity
  8
Drawing
100
AcDbPolyline
 90
        2
 70
     0
 43
0.0
 10
180.0460872752788
 20
21.05917098857168
 10
194.3568918979566
 20
23.02684129349069
  0
LWPOLYLINE
  5
1B4
330
18F
100
AcDbEntity
  8
Drawing
100
AcDbPolyline
 90
        3
 70
     0
 43
0.0
 10
182.8032150301106
 20
25.32245681113886
 10
186.6763224162037
 20
26.04393608485191
 10
187.9235943908581
 20
26.63423717632759
  0
LWPOLYLINE
  5
1B5
330
18F
100
AcDbEntity
  8
Drawing
100
AcDbPolyline
 90
        3
 70
     0
 43
0.0
 10
183.6566117371123
 20
20.33769171485869
 10
186.7419685879001
 20
20.468869897096
 10
187.8579491004247
 20
21.25593801906359
  0
LWPOLYLINE
  5
1B6
330
18F
100
AcDbEntity
  8
Drawing
100
AcDbPolyline
 90
        2
 70
     0
 43
0.0
 10
184.6412999062439
 20
16.46793995327528
 10
188.3831158302072
 20
16.92706286251365
  0
LWPOLYLINE
  5
1B7
330
18F
100
AcDbEntity
  8
Drawing
100
AcDbPolyline
 90
        3
 70
     0
 43
0.0
 10
182.0154644948052
 20
11.54876370524966
 10
185.2977589794194
 20
8.859614612345865
 10
187.1358438555528
 20
8.269313035141977
  0
LWPOLYLINE
  5
1B8
330
18F
100
AcDbEntity
  8
Drawing
100
AcDbPolyline
 90
        3
 70
     0
 43
0.0
 10
186.9389062217265
 20
33.84902797054508
 10
186.0855095147247
 20
32.79960396983103
 10
181.6872345175859
 20
30.30722142169088
  0
LWPOLYLINE
  5
1B9
330
18F
100
AcDbEntity
  8
Drawing
100
AcDbPolyline
 90
        2
 70
     0
 43
0.0
 10
184.0504870047649
 20
39.75203937103021
 10
185.1664675172896
 20
39.62086118879284
  0
LWPOLYLINE
  5
1BA
330
18F
100
AcDbEntity
  8
Drawing
100
AcDbPolyline
 90
       54
 70
     0
 43
0.0
 10
184.7069460779404
 20
41.41463351761831
 10
184.7069460779404
 20
40.36520903117605
 10
185.6259880753755
 20
39.57814090920846
 10
186.4793847823773
 20
39.05342915171553
 10
187.5297191232054
 20
37.21693654330568
 10
187.4640738327722
 20
35.18367739013217
 10
187.2671361989458
 20
34.33101993418182
 10
187.1358438555528
 20
33.15041775123041
 10
187.1358438555528
 20
30.98598041581954
 10
187.5297191232054
 20
29.80537823286818
 10
188.1205320246844
 20
28.62477604991676
 10
188.2518243680773
 20
27.90329677620377
 10
188.054886734251
 20
25.67327010681009
 10
188.3174696585107
 20
23.7711891358739
 10
187.8579491004247
 20
21.60675131473482
 10
187.9235943908581
 20
20.62291616227532
 10
188.4487620019037
 20
19.5079028275785
 10
189.4990963427318
 20
17.80258888713422
 10
189.7616792669916
 20
16.68757555243741
 10
189.6303878048617
 20
15.24461700501132
 10
189.1052210750792
 20
12.65124088122411
 10
188.7769910978599
 20
10.35562536357588
 10
187.2014900272493
 20
8.12559917991041
 10
185.6259880753755
 20
6.879407662976291
 10
183.328381759893
 20
5.436449601278412
 10
180.3086710808017
 20
3.993491053852381
 10
178.9301076440173
 20
3.66554632685137
 10
177.5515433259699
 20
3.468779296359457
 10
175.5165208160101
 20
3.599956992868613
 10
174.7944164524014
 20
4.124669236089744
 10
173.1532692100942
 20
5.174093236803799
 10
171.9716425258732
 20
6.157928874991455
 10
170.8556628946117
 20
6.61705178422983
 10
169.4770985765642
 20
8.519133240894234
 10
167.7703051625607
 20
9.830913606082959
 10
166.6543255312993
 20
10.74915942455971
 10
165.4726997283412
 20
12.25770682024029
 10
165.0788235794255
 20
14.48773348963391
 10
164.1597815819904
 20
15.93069155133179
 10
163.831551604771
 20
17.8327730079962
 10
163.372031046685
 20
19.27573155542223
 10
163.3063848749886
 20
21.89929180007147
 10
163.372031046685
 20
23.93255143897323
 10
163.831551604771
 20
26.62170101760523
 10
164.2254277536869
 20
28.52378198854143
 10
164.5536568496429
 20
30.16350756645937
 10
165.4726997283412
 20
32.53724760535636
 10
166.9169093368221
 20
35.35757536622566
 10
167.9015975059536
 20
36.93171161016085
 10
169.0175771372152
 20
38.6370260363334
 10
170.8556628946117
 20
40.34234046250589
 10
172.3655177935258
 20
41.85088737245832
 10
173.6784359398767
 20
42.63795598015406
 10
174.8600617428347
 20
43.49061295037626
  0
MTEXT
  5
1BB
330
18F
100
AcDbEntity
  8
Drawing
100
AcDbMText
 10
126.9750971454863
 20
30.58466207494564
 30
0.0
 40
2.5
 41
9.444444444444445
 46
0.0
 71
     1
 72
     5
  1
{\fArial|b0|i0|c0|p34;S}
 73
     1
 44
1.0
  0
LWPOLYLINE
  5
1BC
330
18F
100
AcDbEntity
  8
Drawing
100
AcDbPolyline
 90
        2
 70
     0
 43
0.0
 10
117.8651567638082
 20
29.23030957726888
 10
119.0467825667662
 20
29.23030957726888
  0
LWPOLYLINE
  5
1BD
330
18F
100
AcDbEntity
  8
Drawing
100
AcDbPolyline
 90
        2
 70
     0
 43
0.0
 10
118.7185525895468
 20
29.23030957726888
 10
120.2940545414206
 20
29.29589842552343
  0
LWPOLYLINE
  5
1BE
330
18F
100
AcDbEntity
  8
Drawing
100
AcDbPolyline
 90
        2
 70
     0
 43
0.0
 10
117.0117600568063
 20
29.36148775950619
 10
118.0620943976345
 20
29.23030957726888
  0
LWPOLYLINE
  5
1BF
330
18F
100
AcDbEntity
  8
Drawing
100
AcDbPolyline
 90
        3
 70
     0
 43
0.0
 10
163.372031046685
 20
20.73122577584246
 10
164.3567192158167
 20
21.58388274606466
 10
166.5230331879062
 20
21.91182795879388
  0
LWPOLYLINE
  5
1C0
330
18F
100
AcDbEntity
  8
Drawing
100
AcDbPolyline
 90
        3
 70
     1
 43
0.0
 10
164.4705502115838
 20
21.66512272789095
 10
163.4454402652794
 20
20.64090121977523
 10
163.2590566386787
 20
22.41001118574388
  0
LWPOLYLINE
  5
1C1
330
18F
100
AcDbEntity
  8
Drawing
100
AcDbPolyline
 90
        2
 70
     0
 43
0.0
 10
164.3567192158167
 20
21.58388274606466
 10
163.2407387032921
 20
22.43654020201501
  0
LWPOLYLINE
  5
1C2
330
18F
100
AcDbEntity
  8
Drawing
100
AcDbPolyline
 90
        3
 70
     1
 43
0.0
 10
166.2411946642914
 20
12.44712721193656
 10
166.2411946642914
 20
11.42290521809264
 10
165.4024683445878
 20
12.3540160332729
  0
LWPOLYLINE
  5
1C3
330
18F
100
AcDbEntity
  8
Drawing
100
AcDbPolyline
 90
        3
 70
     1
 43
0.0
 10
172.5782379687184
 20
6.8604628065832
 10
172.7646215953192
 20
5.650018941140104
 10
171.4599362091136
 20
6.581129756320365
  0
LWPOLYLINE
  5
1C4
330
18F
100
AcDbEntity
  8
Drawing
100
AcDbPolyline
 90
        2
 70
     0
 43
0.0
 10
172.6281015990486
 20
6.826354973444097
 10
172.6281015990486
 20
5.711341638747285
  0
LWPOLYLINE
  5
1C5
330
18F
100
AcDbEntity
  8
Drawing
100
AcDbPolyline
 90
        3
 70
     0
 43
0.0
 10
171.3151834526977
 20
6.498409760714878
 10
172.6281015990486
 20
6.95753315568146
 10
175.056999376661
 20
10.30257267404369
  0
LWPOLYLINE
  5
1C6
330
18F
100
AcDbEntity
  8
Drawing
100
AcDbPolyline
 90
        2
 70
     0
 43
0.0
 10
166.5230331879062
 20
12.53259934343731
 10
165.4070535566448
 20
12.53259934343731
  0
LWPOLYLINE
  5
1C7
330
18F
100
AcDbEntity
  8
Drawing
100
AcDbPolyline
 90
        3
 70
     0
 43
0.0
 10
166.32609555408
 20
11.35199667475774
 10
166.4573878974729
 20
12.53259934343731
 10
170.5274329173924
 20
15.35292661857846
  0
LWPOLYLINE
  5
1C8
330
18F
100
AcDbEntity
  8
Drawing
100
AcDbPolyline
 90
        8
 70
     1
 43
0.0
 10
179.7178581793227
 20
5.973698003221955
 10
179.1270452778436
 20
5.711341638747285
 10
179.0613991061472
 20
5.317807577763517
 10
179.0613991061472
 20
5.121040547271605
 10
180.1117334469753
 20
5.055451699017055
 10
180.1117334469753
 20
5.58016394223813
 10
179.9804419848455
 20
6.170465033713867
 10
179.6522120076262
 20
5.973698003221955
  0
LWPOLYLINE
  5
1C9
330
18F
100
AcDbEntity
  8
Drawing
100
AcDbPolyline
 90
        8
 70
     1
 43
0.0
 10
179.8491496414525
 20
8.138135338632821
 10
180.5712548863245
 20
8.138135338632821
 10
180.7681925201507
 20
8.531669399616646
 10
180.7681925201507
 20
8.794025278363108
 10
180.2430249091051
 20
8.99079230885502
 10
179.6522120076262
 20
8.99079230885502
 10
179.192690568277
 20
8.925203460600414
 10
179.192690568277
 20
8.269313035141977
  0
LWPOLYLINE
  5
1CA
330
18F
100
AcDbEntity
  8
Drawing
100
AcDbPolyline
 90
        6
 70
     1
 43
0.0
 10
178.1423562274489
 20
9.05638164283772
 10
178.6675238384945
 20
9.253148673329633
 10
178.4705862046682
 20
9.843449764805314
 10
178.2736485708418
 20
9.90903861305992
 10
177.8797733031893
 20
9.515504552076095
 10
177.9454185936225
 20
9.31873752158424
  0
LWPOLYLINE
  5
1CB
330
18F
100
AcDbEntity
  8
Drawing
100
AcDbPolyline
 90
        7
 70
     1
 43
0.0
 10
177.0263765961874
 20
10.17139449180638
 10
177.3546056921437
 20
10.63051788677291
 10
177.1576680583173
 20
10.82728491726482
 10
176.6981466189682
 20
11.15522964426589
 10
176.2386260608821
 20
11.02405194775673
 10
176.1729798891856
 20
10.56492855279015
 10
176.3042713513155
 20
10.30257267404369
  0
LWPOLYLINE
  5
1CC
330
18F
100
AcDbEntity
  8
Drawing
100
AcDbPolyline
 90
        8
 70
     1
 43
0.0
 10
174.7944164524014
 20
24.9289227501551
 10
175.4508746443137
 20
25.06010044666425
 10
175.5821669877066
 20
25.25686747715611
 10
175.7134584498365
 20
25.78157972037724
 10
175.2539370104873
 20
26.24070311534382
 10
174.7944164524014
 20
26.24070311534382
 10
174.5318326468786
 20
25.84716905435999
 10
174.4661864751821
 20
25.38804565939347
  0
LWPOLYLINE
  5
1CD
330
18F
100
AcDbEntity
  8
Drawing
100
AcDbPolyline
 90
       10
 70
     1
 43
0.0
 10
172.1685801596994
 20
24.33862165867941
 10
172.4968101369188
 20
23.94508759769559
 10
172.5624554273521
 20
23.68273123322092
 10
173.0876230383977
 20
23.68273123322092
 10
173.4158521343539
 20
24.07626529420475
 10
173.4158521343539
 20
24.46979935518851
 10
173.0219768667013
 20
24.79774456791779
 10
172.5624554273521
 20
24.99451159840964
 10
172.1685801596994
 20
24.99451159840964
 10
172.1685801596994
 20
24.66656638568043
  0
LWPOLYLINE
  5
1CE
330
18F
100
AcDbEntity
  8
Drawing
100
AcDbPolyline
 90
        7
 70
     1
 43
0.0
 10
170.3304952835661
 20
22.56771838425232
 10
170.9869543567415
 20
23.09243014174524
 10
170.5274329173924
 20
23.55155353671182
 10
170.2648491118696
 20
23.55155353671182
 10
169.8709738442169
 20
23.55155353671182
 10
169.739682382087
 20
23.158019475728
 10
170.3304952835661
 20
22.76448541474423
  0
LWPOLYLINE
  5
1CF
330
18F
100
AcDbEntity
  8
Drawing
100
AcDbPolyline
 90
        7
 70
     1
 43
0.0
 10
168.6237018695625
 20
20.60004759360515
 10
170.1335576497397
 20
21.51829389781005
 10
169.2145147710414
 20
22.10859498928579
 10
168.2954727736063
 20
22.2397731715231
 10
167.7703051625607
 20
22.17418432326849
 10
167.9015975059536
 20
20.66563692758791
 10
168.2954727736063
 20
20.468869897096
  0
LWPOLYLINE
  5
1D0
330
18F
100
AcDbEntity
  8
Drawing
100
AcDbPolyline
 90
        2
 70
     0
 43
0.0
 10
177.6171894976665
 20
20.99358165458892
 10
178.7988153006244
 20
19.41944541065374
  0
LWPOLYLINE
  5
1D1
330
18F
100
AcDbEntity
  8
Drawing
100
AcDbPolyline
 90
        2
 70
     0
 43
0.0
 10
177.6828356693629
 20
20.99358165458892
 10
176.7637927906646
 20
19.5506235928911
  0
LWPOLYLINE
  5
1D2
330
18F
100
AcDbEntity
  8
Drawing
100
AcDbPolyline
 90
        2
 70
     0
 43
0.0
 10
166.3917417257765
 20
32.01253536213522
 10
165.2757612132518
 20
31.81576833164331
  0
LWPOLYLINE
  5
1D3
330
18F
100
AcDbEntity
  8
Drawing
100
AcDbPolyline
 90
        3
 70
     0
 43
0.0
 10
171.7090587203504
 20
41.06381925049072
 10
172.6937477707451
 20
40.73587452348966
 10
174.3348950130522
 20
36.8661227619063
  0
LWPOLYLINE
  5
1D4
330
18F
100
AcDbEntity
  8
Drawing
100
AcDbPolyline
 90
        5
 70
     0
 43
0.0
 10
184.2474246385913
 20
40.86705221999881
 10
183.8535493709386
 20
39.68645003704745
 10
181.8841721514123
 20
38.37466967185873
 10
180.6369001767578
 20
37.12847864065276
 10
180.5056087146279
 20
36.93171161016085
  0
LWPOLYLINE
  5
1D5
330
18F
100
AcDbEntity
  8
Drawing
100
AcDbPolyline
 90
        9
 70
     1
 43
0.0
 10
176.1729798891856
 20
35.02963015349644
 10
176.2386260608821
 20
35.68552057895488
 10
175.5165208160101
 20
36.01346530595595
 10
175.056999376661
 20
36.0790546399387
 10
174.7944164524014
 20
35.88228760944679
 10
174.2036026696593
 20
35.35757536622566
 10
174.8600617428347
 20
35.22639718398835
 10
175.4508746443137
 20
35.02963015349644
 10
175.4508746443137
 20
35.02963015349644
  0
LWPOLYLINE
  5
1D6
330
18F
100
AcDbEntity
  8
Drawing
100
AcDbPolyline
 90
        3
 70
     1
 43
0.0
 10
165.8684274110898
 20
33.39711763912328
 10
166.5207701041926
 20
31.90734023768925
 10
165.3092765312874
 20
31.81422905902559
  0
LWPOLYLINE
  5
1D7
330
18F
100
AcDbEntity
  8
Drawing
100
AcDbPolyline
 90
        3
 70
     0
 43
0.0
 10
166.0635126298203
 20
33.45549390956126
 10
166.5230331879062
 20
32.01253536213522
 10
170.2648491118696
 20
29.78250917846975
  0
LWPOLYLINE
  5
1D8
330
18F
100
AcDbEntity
  8
Drawing
100
AcDbPolyline
 90
       10
 70
     1
 43
0.0
 10
182.1467559569351
 20
33.25872687906934
 10
182.8032150301106
 20
33.32431572732395
 10
182.8032150301106
 20
33.78343912229047
 10
182.6719235679807
 20
34.1769731832743
 10
182.1467559569351
 20
34.70168494076722
 10
181.8841721514123
 20
34.57050724425807
 10
181.6872345175859
 20
33.98020615278239
 10
181.6215892271525
 20
33.71784978830772
 10
181.4246515933262
 20
33.58667209179862
 10
181.6215892271525
 20
33.32431572732395
  0
LWPOLYLINE
  5
1D9
330
18F
100
AcDbEntity
  8
Drawing
100
AcDbPolyline
 90
        3
 70
     1
 43
0.0
 10
171.5531280224141
 20
40.93911388204447
 10
173.1373888485208
 20
42.24266892615123
 10
172.6714297820188
 20
40.65978083178169
  0
LWPOLYLINE
  5
1DA
330
18F
100
AcDbEntity
  8
Drawing
100
AcDbPolyline
 90
        2
 70
     0
 43
0.0
 10
173.2189145005276
 20
42.44118894966221
 10
172.8906854045714
 20
40.93264155398157
  0
LWPOLYLINE
  5
1DB
330
18F
100
AcDbEntity
  8
Drawing
100
AcDbPolyline
 90
       21
 70
     1
 43
0.0
 10
181.9498183231087
 20
45.39269440704066
 10
182.6719235679807
 20
45.06474919431145
 10
183.0001526639369
 20
45.06474919431145
 10
183.7222579088087
 20
44.93357101207408
 10
184.0504870047649
 20
44.93357101207408
 10
184.8382375400703
 20
44.08091404185194
 10
184.8382375400703
 20
42.90031185890058
 10
184.5756537345475
 20
42.24442143344208
 10
184.3787161007211
 20
41.26058628098264
 10
183.6566117371123
 20
41.06381925049072
 10
183.2627364694597
 20
41.06381925049072
 10
182.6719235679807
 20
41.26058628098264
 10
181.8185268609789
 20
41.71970967594916
 10
181.6215892271525
 20
41.91647670644107
 10
180.8994839822806
 20
42.70354482840867
 10
180.4399625429314
 20
42.5723666461713
 10
180.0460872752788
 20
42.96590070715513
 10
179.5865667171928
 20
44.14650289010649
 10
179.8491496414525
 20
44.93357101207408
 10
180.965130153977
 20
45.06474919431145
 10
181.1620677878034
 20
45.13033804256605
  0
LWPOLYLINE
  5
1DC
330
18F
100
AcDbEntity
  8
Drawing
100
AcDbPolyline
 90
       12
 70
     1
 43
0.0
 10
178.6675238384945
 20
45.72063913404173
 10
179.2583367399735
 20
44.99916034605684
 10
179.7835043510191
 20
44.99916034605684
 10
180.7025463484542
 20
44.99916034605684
 10
181.6872345175859
 20
45.98299549851635
 10
181.6215892271525
 20
47.36036471195968
 10
181.1620677878034
 20
47.95066580343536
 10
180.7025463484542
 20
47.75389877294339
 10
179.8491496414525
 20
47.36036471195968
 10
179.3896282021034
 20
46.70447477222939
 10
178.8644614723208
 20
46.31094071124556
 10
178.8644614723208
 20
46.1797625290082
  0
LWPOLYLINE
  5
1DD
330
18F
100
AcDbEntity
  8
Drawing
100
AcDbPolyline
 90
       15
 70
     1
 43
0.0
 10
175.1882917200541
 20
43.29384591988435
 10
175.2539370104873
 20
44.67121513332762
 10
176.1073337174892
 20
45.13033804256605
 10
176.3042713513155
 20
45.45828325529527
 10
177.0263765961874
 20
46.04858434677095
 10
177.8797733031893
 20
45.91740665026174
 10
178.4705862046682
 20
45.72063913404173
 10
178.733170010191
 20
45.19592737654881
 10
179.0613991061472
 20
44.14650289010649
 10
179.0613991061472
 20
43.75296882912272
 10
178.6675238384945
 20
43.62179113261357
 10
178.2736485708418
 20
43.29384591988435
 10
177.6171894976665
 20
43.16266773764704
 10
176.3042713513155
 20
43.2282570716298
 10
175.7134584498365
 20
43.29384591988435
  0
LWPOLYLINE
  5
1DE
330
18F
100
AcDbEntity
  8
Drawing
100
AcDbPolyline
 90
        3
 70
     1
 43
0.0
 10
187.0229699115431
 20
8.164017850689902
 10
185.5319008987367
 20
6.8604628065832
 10
185.4387090854364
 20
8.90890630854284
  0
LWPOLYLINE
  5
1DF
330
18F
100
AcDbEntity
  8
Drawing
100
AcDbPolyline
 90
        2
 70
     0
 43
0.0
 10
185.4290504415492
 20
8.728436430108502
 10
185.4946966132458
 20
7.088710852190559
  0
LWPOLYLINE
  5
1E0
330
18F
100
AcDbEntity
  8
Drawing
100
AcDbPolyline
 90
        3
 70
     1
 43
0.0
 10
189.4459570573534
 20
17.56823572397161
 10
189.7255324972547
 20
16.45090303719223
 10
188.7004225509503
 20
17.10268031638151
  0
LWPOLYLINE
  5
1E1
330
18F
100
AcDbEntity
  8
Drawing
100
AcDbPolyline
 90
        3
 70
     1
 43
0.0
 10
187.6753126046459
 20
21.29267849896451
 10
188.2344634844482
 20
20.08223463352141
 10
186.9297780982427
 20
20.45467886244791
  0
LWPOLYLINE
  5
1E2
330
18F
100
AcDbEntity
  8
Drawing
100
AcDbPolyline
 90
        3
 70
     1
 43
0.0
 10
188.0480798578475
 20
26.60000936832688
 10
188.0480798578475
 20
25.11023245262101
 10
187.1161617248434
 20
26.22756513940038
  0
LWPOLYLINE
  5
1E3
330
18F
100
AcDbEntity
  8
Drawing
100
AcDbPolyline
 90
        2
 70
     0
 43
0.0
 10
187.004552393423
 20
26.17511378136106
 10
187.8579491004247
 20
25.32245681113886
  0
LWPOLYLINE
  5
1E4
330
18F
100
AcDbEntity
  8
Drawing
100
AcDbPolyline
 90
        2
 70
     0
 43
0.0
 10
186.9389062217265
 20
20.468869897096
 10
188.054886734251
 20
20.07533583611223
  0
LWPOLYLINE
  5
1E5
330
18F
100
AcDbEntity
  8
Drawing
100
AcDbPolyline
 90
        3
 70
     0
 43
0.0
 10
189.4334501710354
 20
17.51736395398933
 10
188.5144072923371
 20
16.92706286251365
 10
189.4990963427318
 20
16.40235110502073
  0
LWPOLYLINE
  5
1E6
330
18F
100
AcDbEntity
  8
Drawing
100
AcDbPolyline
 90
        2
 70
     0
 43
0.0
 10
199.9454308392378
 20
21.63865394191475
 10
198.5754297550089
 20
19.81356817419754
  0
LWPOLYLINE
  5
1E7
330
18F
100
AcDbEntity
  8
Drawing
100
AcDbPolyline
 90
        2
 70
     0
 43
0.0
 10
200.0595975962568
 20
21.52458602071641
 10
201.2012651664476
 20
19.69950073872741
  0
MTEXT
  5
1E8
330
18F
100
AcDbEntity
  8
Drawing
100
AcDbMText
 10
195.9323938498304
 20
25.38804565939347
 30
0.0
 40
2.5
 41
0.0
 46
0.0
 71
     1
 72
     5
  1
{\fArial|b0|i0|c0|p34;5.67}
 73
     1
 44
1.0
  0
LWPOLYLINE
  5
1E9
330
18F
100
AcDbEntity
  8
Drawing
100
AcDbPolyline
 90
        3
 70
     1
 43
0.0
 10
187.2093535381439
 20
31.90734023768925
 10
187.1161617248434
 20
33.58333951072245
 10
185.9978599652387
 20
32.46600682394302
  0
LWPOLYLINE
  5
1EA
330
18F
100
AcDbEntity
  8
Drawing
100
AcDbPolyline
 90
        3
 70
     0
 43
0.0
 10
185.6259880753755
 20
32.53724760535636
 10
186.6106771257703
 20
32.07812469611798
 10
186.87326005003
 20
31.94694651388068
  0
ENDBLK
  5
1EC
330
18F
100
AcDbEntity
  8
0
100
AcDbBlockEnd
  0
BLOCK
  5
35D
330
30D
100
AcDbEntity
  8
0
100
AcDbBlockBegin
  2
A$C32F61CBC
 70
     0
 10
0.0
 20
0.0
 30
0.0
  3
A$C32F61CBC
  1

  0
LWPOLYLINE
  5
30E
330
30D
100
AcDbEntity
  8
Drawing
100
AcDbPolyline
 90
       22
 70
     1
 43
0.0
 10
7.864486447419608
 20
14.20482918939479
 10
8.848042318700777
 20
13.22212398218926
 10
9.20569791094897
 20
13.04345010821999
 10
10.63632826020569
 20
13.04345010821999
 10
12.24578441052074
 20
13.04345010821999
 10
14.21289615308308
 20
12.77544039689201
 10
14.74938552665446
 20
11.43538744174748
 10
15.28587091009251
 20
9.73798893791718
 10
15.46469671114994
 20
8.397935982772651
 10
15.55411160674487
 20
7.593904649536398
 10
13.94465545643072
 20
6.87921135291117
 10
12.96109958514955
 20
5.360486723050144
 10
12.24578441052074
 20
5.181812849080416
 10
11.61988413148686
 20
5.003138975111142
 10
9.742183294387019
 20
5.628496434377666
 10
8.669212527510012
 20
5.449822560408393
 10
7.32800106398156
 20
8.66594789335295
 10
7.149171272790795
 20
11.52472327910618
 10
6.433856098161982
 20
13.13278594557823
 10
6.076200505914699
 20
13.93681727881449
 10
6.433856098161982
 20
14.38350086411174
 10
6.880926586005103
 20
14.38350086411174
  0
LWPOLYLINE
  5
30F
330
30D
100
AcDbEntity
  8
Drawing
100
AcDbPolyline
 90
       12
 70
     1
 43
0.0
 10
19.04126859415976
 20
1.07204104046923
 10
18.95185369856483
 20
2.412091796360983
 10
18.95185369856483
 20
3.305461166207806
 10
18.05771272287859
 20
4.020154462833034
 10
17.34239754824978
 20
3.484135040177534
 10
17.07415286146409
 20
2.76943954429953
 10
16.26942678137368
 20
2.501429832972008
 10
16.09059699018292
 20
2.144082085033006
 10
15.91176719899306
 20
1.250714914438504
 10
16.62708237362187
 20
0.3573455445912259
 10
18.41536831512678
 20
-0.0000000040949999
 10
19.04126859415976
 20
0.2680097072329772
  0
LWPOLYLINE
  5
310
330
30D
100
AcDbEntity
  8
Drawing
100
AcDbPolyline
 90
       11
 70
     1
 43
0.0
 10
14.92821132771189
 20
10.72069414512271
 10
16.09059699018292
 20
11.61406131571721
 10
16.53766747802604
 20
12.32875461234244
 10
17.61063824490304
 20
12.68610236028098
 10
18.50478321072171
 20
12.86477623425071
 10
18.68361300191248
 20
12.15008293762548
 10
17.96829782728366
 20
11.07803969380893
 10
17.70005314049797
 20
9.827324775275429
 10
16.80591216481173
 20
8.487274019383676
 10
16.18001188577875
 20
8.397935982772651
 10
15.64352650234071
 20
8.487274019383676
  0
LWPOLYLINE
  5
311
330
30D
100
AcDbEntity
  8
Drawing
100
AcDbPolyline
 90
       11
 70
     1
 43
0.0
 10
17.34239754824978
 20
22.24514032250363
 10
18.68361300191248
 20
22.24514032250363
 10
18.8624388029699
 20
22.87049778177061
 10
18.95185369856483
 20
24.21054853766236
 10
17.96829782728366
 20
24.92524403353991
 10
18.23653852393602
 20
25.81861120413487
 10
16.44825657256445
 20
25.90794704149312
 10
16.09059699018292
 20
25.90794704149312
 10
16.18001188577875
 20
24.47855824899034
 10
15.73294139793563
 20
22.87049778177061
 10
16.7164972692168
 20
22.51315003383161
  0
LWPOLYLINE
  5
312
330
30D
100
AcDbEntity
  8
Drawing
100
AcDbPolyline
 90
        2
 70
     0
 43
0.0
 10
6.344441202567054
 20
25.51699911327387
 10
15.37528181555501
 20
19.79944394326276
  0
LWPOLYLINE
  5
313
330
30D
100
AcDbEntity
  8
Drawing
100
AcDbPolyline
 90
        8
 70
     1
 43
0.0
 10
14.48114083986877
 20
22.15580228589306
 10
15.10704111890175
 20
23.13850749309859
 10
14.03407035202565
 20
24.56789628560136
 10
13.31875517739684
 20
24.65723212295961
 10
12.60344000276802
 20
24.65723212295961
 10
12.33519930611567
 20
23.40651720442611
 10
12.78226979395879
 20
22.33447615986233
 10
13.58699986418253
 20
22.24514032250363
  0
LWPOLYLINE
  5
314
330
30D
100
AcDbEntity
  8
Drawing
100
AcDbPolyline
 90
        7
 70
     1
 43
0.0
 10
5.09264463463353
 20
19.92210285508145
 10
6.880926586005103
 20
20.19011476566175
 10
7.953897352882109
 20
20.19011476566175
 10
8.132727144071964
 20
20.90480806228697
 10
6.076200505914699
 20
21.17281997286727
 10
5.360885331285886
 20
20.636798350959
 10
5.360885331285886
 20
20.10077672905072
  0
LWPOLYLINE
  5
315
330
30D
100
AcDbEntity
  8
Drawing
100
AcDbPolyline
 90
       11
 70
     1
 43
0.0
 10
4.556155261062145
 20
16.4382471158815
 10
5.271470435690958
 20
15.72355381925627
 10
6.433856098161982
 20
15.72355381925627
 10
6.97034148160094
 20
16.25957324191222
 10
7.059756377195868
 20
16.88493290043107
 10
6.255026306972127
 20
17.42095232308702
 10
5.807955819129006
 20
18.04630978235355
 10
4.824399947847837
 20
18.04630978235355
 10
4.377329460004717
 20
18.04630978235355
 10
4.287914564409789
 20
17.06360457514802
 10
4.645570156657072
 20
16.34891127852279
  0
LWPOLYLINE
  5
316
330
30D
100
AcDbEntity
  8
Drawing
100
AcDbPolyline
 90
        5
 70
     1
 43
0.0
 10
7.059756377195868
 20
17.95669463992272
 10
7.238586168386632
 20
19.11807372109797
 10
6.702100784947675
 20
19.38608343242595
 10
6.433856098161982
 20
19.20740955845622
 10
6.612685889352747
 20
18.67138793654794
  0
LWPOLYLINE
  5
317
330
30D
100
AcDbEntity
  8
Drawing
100
AcDbPolyline
 90
        7
 70
     1
 43
0.0
 10
8.579797631915085
 20
16.52758515249252
 10
9.56335749332959
 20
16.52758515249252
 10
10.01042798117271
 20
16.61692098985077
 10
8.669212527510012
 20
17.77830007102602
 10
8.132727144071964
 20
17.5996261970563
 10
7.953897352882109
 20
17.42095232308702
 10
8.222142039667801
 20
16.4382471158815
  0
LWPOLYLINE
  5
318
330
30D
100
AcDbEntity
  8
Drawing
100
AcDbPolyline
 90
        9
 70
     1
 43
0.0
 10
10.72574315580152
 20
17.33161648572877
 10
11.61988413148686
 20
17.33161648572877
 10
12.24578441052074
 20
17.33161648572877
 10
12.24578441052074
 20
18.13564781896457
 10
12.24578441052074
 20
18.93967915220082
 10
11.08339874804881
 20
18.4929933676508
 10
10.36808357341999
 20
18.4929933676508
 10
9.921013085576874
 20
18.31431949368152
 10
10.36808357341999
 20
17.51029035969805
  0
MTEXT
  5
319
330
30D
100
AcDbEntity
  8
Drawing
100
AcDbMText
 10
0.2808999892404245
 20
28.45754728727309
 30
0.0
 40
2.5
 41
0.0
 46
0.0
 71
     1
 72
     5
  1
{\fArial|b0|i0|c0|p34;5.67}
 73
     1
 44
1.0
  0
LWPOLYLINE
  5
31A
330
30D
100
AcDbEntity
  8
Drawing
100
AcDbPolyline
 90
       12
 70
     1
 43
0.0
 10
16.98474195600249
 20
33.68024846327398
 10
18.14712761847443
 20
34.21627008518226
 10
18.68361300191248
 20
35.19897529238779
 10
20.11423936103677
 20
35.02030141841851
 10
21.63428061575598
 20
33.32290071533544
 10
21.81311040694675
 20
31.98284995944323
 10
20.11423936103677
 20
31.89351412208498
 10
19.84599866438441
 20
31.53616637414598
 10
18.95185369856483
 20
31.26815446356568
 10
18.41536831512678
 20
31.26815446356568
 10
17.16356775705992
 20
31.80417608547396
 10
16.7164972692168
 20
33.50157458930471
  0
LWPOLYLINE
  5
31B
330
30D
100
AcDbEntity
  8
Drawing
100
AcDbPolyline
 90
        9
 70
     1
 43
0.0
 10
21.27662502350779
 20
23.40651720442611
 10
23.15432586060854
 20
23.31718136706786
 10
23.69081124404659
 20
23.31718136706786
 10
23.51198145285673
 20
24.29988657427339
 10
21.18721012791286
 20
25.19325374486789
 10
20.38248404782246
 20
25.72927536677616
 10
19.84599866438441
 20
24.47855824899034
 10
19.75658376878857
 20
23.49585524103713
 10
20.47189495328405
 20
23.13850749309859
  0
LWPOLYLINE
  5
31C
330
30D
100
AcDbEntity
  8
Drawing
100
AcDbPolyline
 90
       12
 70
     1
 43
0.0
 10
26.99913844027162
 20
24.21054853766236
 10
28.429764799395
 20
22.69182390780134
 10
29.32390976521458
 20
22.15580228589306
 10
29.94981004424847
 20
21.08376124132883
 10
28.6980094861816
 20
19.83304632279533
 10
28.60859459058577
 20
18.22498365632327
 10
28.87683927737146
 20
17.5996261970563
 10
26.10499347445204
 20
18.76100527823155
 10
25.12143760317088
 20
20.01172019676505
 10
24.94261180211345
 20
22.06646644853436
 10
24.76378201092359
 20
23.49585524103713
 10
26.19440837004697
 20
23.58519107839584
  0
LWPOLYLINE
  5
31D
330
30D
100
AcDbEntity
  8
Drawing
100
AcDbPolyline
 90
        3
 70
     0
 43
0.0
 10
16.62708237362187
 20
18.37005515075998
 10
17.43181244384562
 20
20.15679169120131
 10
18.32595341953186
 20
18.28071931340128
  0
LWPOLYLINE
  5
31E
330
30D
100
AcDbEntity
  8
Drawing
100
AcDbPolyline
 90
       15
 70
     1
 43
0.0
 10
20.91896943126051
 20
14.38350086411174
 10
23.06491096501361
 20
16.34891127852279
 10
23.78022613964242
 20
16.61692098985077
 10
25.12143760317088
 20
17.06360457514802
 10
25.83675277779969
 20
18.04630978235355
 10
22.97549606941777
 20
18.31431949368152
 10
21.72369551135091
 20
18.40365753029255
 10
21.09779523231794
 20
17.86763590838427
 10
19.30950929081303
 20
17.77830007102602
 10
18.41536831512678
 20
17.33161648572877
 10
17.96829782728366
 20
15.81288965661452
 10
18.59419810631755
 20
14.91952248602001
 10
19.30950929081303
 20
14.11549115278422
 10
20.29306915222662
 20
14.11549115278422
 10
20.91896943126051
 20
14.11549115278422
  0
LWPOLYLINE
  5
31F
330
30D
100
AcDbEntity
  8
Drawing
100
AcDbPolyline
 90
        7
 70
     1
 43
0.0
 10
25.2108524987658
 20
19.92238216015403
 10
24.67436711532775
 20
22.78115974515958
 10
22.79666627822792
 20
22.24514032250363
 10
22.88608117382284
 20
20.81575153000085
 10
22.97549606941777
 20
19.83304632279533
 10
24.22729662748463
 20
19.92238216015403
 10
25.2108524987658
 20
20.01172019676505
  0
LWPOLYLINE
  5
320
330
30D
100
AcDbEntity
  8
Drawing
100
AcDbPolyline
 90
       13
 70
     1
 43
0.0
 10
23.86963704510401
 20
24.92524403353991
 10
24.40612242854206
 20
24.65723212295961
 10
24.85319690651852
 20
24.56789628560136
 10
25.4790971855515
 20
24.56789628560136
 10
26.19440837004697
 20
24.65723212295961
 10
26.19440837004697
 20
25.37192761883762
 10
26.37323816123774
 20
26.97999028530967
 10
25.2108524987658
 20
27.60534774457619
 10
24.31671152308047
 20
27.87335745590417
 10
24.04846683629478
 20
26.97999028530967
 10
23.42256655726089
 20
26.44396866340139
 10
23.06491096501361
 20
25.81861120413487
 10
23.78022613964242
 20
25.10391570825686
  0
LWPOLYLINE
  5
321
330
30D
100
AcDbEntity
  8
Drawing
100
AcDbPolyline
 90
        3
 70
     0
 43
0.0
 10
84.59361929051977
 20
12.38239438175151
 10
85.57717516180094
 20
14.07979288558226
 10
86.91839061546273
 20
12.11438247117121
  0
LWPOLYLINE
  5
322
330
30D
100
AcDbEntity
  8
Drawing
100
AcDbPolyline
 90
       12
 70
     0
 43
0.0
 10
66.71076386560128
 20
20.78005106354658
 10
70.46616553980186
 20
20.78005106354658
 10
75.20511909515119
 20
21.94143014472183
 10
76.6357494444079
 20
22.56678760398836
 10
79.31817636159906
 20
22.56678760398836
 10
83.78888922029603
 20
22.38811373001909
 10
87.6337017999582
 20
21.85209430736313
 10
91.1208587873731
 20
22.29877789266038
 10
93.80328570456425
 20
22.38811373001909
 10
96.84337220413602
 20
23.10280922589664
 10
99.07872863348405
 20
23.54949281119389
 10
101.2246701672372
 20
23.46015477458286
  0
LWPOLYLINE
  5
323
330
30D
100
AcDbEntity
  8
Drawing
100
AcDbPolyline
 90
        2
 70
     0
 43
0.0
 10
83.87830411589096
 20
13.27576155234601
 10
76.27808986202729
 20
13.99045484897124
  0
LWPOLYLINE
  5
324
102
{ACAD_REACTORS
330
32B
102
}
330
30D
100
AcDbEntity
  8
Drawing
100
AcDbPolyline
 90
       19
 70
     0
 43
0.0
 10
72.25444749117435
 20
20.69071522618833
 10
73.32742224818378
 20
19.6186741816241
 10
74.5792188161173
 20
19.08265255971583
 10
76.18867496643236
 20
17.74260180382407
 10
77.61930531568999
 20
16.84923243397679
 10
78.51344629137532
 20
16.67055856000752
 10
80.03349153622787
 20
15.95586526338229
 10
82.2688479655759
 20
15.15183393014604
 10
84.14654481254331
 20
14.61581230823776
 10
86.65014592867703
 20
14.97316005617677
 10
88.7066725668343
 20
14.97316005617677
 10
89.77964732384464
 20
14.25846675955154
 10
91.03144389177817
 20
14.16912872294051
 10
92.909144728878
 20
15.33050780411577
 10
94.2503601825407
 20
16.67055856000752
 10
95.94923122845069
 20
18.3679592630906
 10
97.37985758757497
 20
19.88668389295208
 10
98.542243250046
 20
20.95872493751631
 10
100.1516994003611
 20
20.69071522618833
  0
LWPOLYLINE
  5
325
330
30D
100
AcDbEntity
  8
Drawing
100
AcDbPolyline
 90
       12
 70
     1
 43
0.0
 10
70.55557644526436
 20
20.8693891001576
 10
72.61210707355497
 20
21.22673684809661
 10
74.93687839849883
 20
22.12010401869111
 10
76.09926406096986
 20
22.29877789266038
 10
76.36750475762221
 20
23.46015477458286
 10
75.74160447858924
 20
23.90684055913289
 10
74.93687839849883
 20
23.90684055913289
 10
73.41683315364628
 20
23.28148309986591
 10
71.89679189892615
 20
23.28148309986591
 10
70.46616553980186
 20
22.83479731531634
 10
70.01909106182632
 20
22.20943985604936
 10
70.10850595742124
 20
21.49474655942458
  0
MTEXT
  5
326
330
30D
100
AcDbEntity
  8
Drawing
100
AcDbMText
 10
59.66366279086014
 20
22.73789622959259
 30
0.0
 40
2.5
 41
0.0
 46
0.0
 71
     1
 72
     5
  1
{\fArial|b0|i0|c0|p34;N}
 73
     1
 44
1.0
  0
MTEXT
  5
327
330
30D
100
AcDbEntity
  8
Drawing
100
AcDbMText
 10
69.85688906632004
 20
16.3949836003145
 30
0.0
 40
2.5
 41
0.0
 46
0.0
 71
     1
 72
     5
  1
{\fArial|b0|i0|c0|p34;5.69}
 73
     1
 44
1.0
  0
LWPOLYLINE
  5
328
330
30D
100
AcDbEntity
  8
Drawing
100
AcDbPolyline
 90
       14
 70
     1
 43
0.0
 10
77.26164972344179
 20
17.02790630794652
 10
78.33462049031789
 20
16.67055856000752
 10
79.04993167481337
 20
16.49188688529057
 10
79.58642104838475
 20
16.49188688529057
 10
79.58642104838475
 20
17.2065801819158
 10
78.42403538591373
 20
17.74260180382407
 10
77.44047552449922
 20
18.63596897441857
 10
76.54633454881298
 20
19.17199059632685
 10
76.00984916537493
 20
19.7080100189828
 10
75.38394888634105
 20
20.06535776692135
 10
75.02629329409376
 20
20.06535776692135
 10
74.75804860730807
 20
20.06535776692135
 10
74.75804860730807
 20
19.26132643368555
 10
75.38394888634105
 20
18.54663313706033
  0
LWPOLYLINE
  5
329
330
30D
100
AcDbEntity
  8
Drawing
100
AcDbPolyline
 90
       12
 70
     1
 43
0.0
 10
94.69743067038382
 20
22.56678760398836
 10
95.77040143725992
 20
23.46015477458286
 10
96.3963017162938
 20
24.35352414443014
 10
94.96567136703618
 20
26.14025848561914
 10
93.2668003211262
 20
26.76561814413844
 10
92.37265934543996
 20
26.58694427016917
 10
91.92558885759684
 20
25.87224877429162
 10
91.65734417081114
 20
24.80020772972739
 10
91.65734417081114
 20
23.72816668516361
 10
91.92558885759684
 20
23.19214506325534
 10
92.4620742410358
 20
22.65612564059938
 10
93.53504500791189
 20
22.47745176663011
  0
LWPOLYLINE
  5
32A
330
30D
100
AcDbEntity
  8
Drawing
100
AcDbPolyline
 90
        5
 70
     0
 43
0.0
 10
89.06433214921583
 20
15.15183393014604
 10
90.49495850834012
 20
16.22387497471027
 10
91.65734417081114
 20
16.49188688529057
 10
92.81972983328308
 20
16.58122272264927
 10
94.2503601825407
 20
16.67055856000752
  0
HATCH
  5
32B
330
30D
100
AcDbEntity
  8
Drawing
 62
     1
100
AcDbHatch
 10
0.0
 20
0.0
 30
0.0
210
0.0
220
0.0
230
1.0
  2
SOLID
 70
     1
 71
     1
 91
        1
 92
        7
 72
     0
 73
     1
 93
       10
 10
85.30893047501525
 20
16.22387497471044
 10
84.77244509157708
 20
16.75989659661855
 10
83.78888922029591
 20
16.84923243397685
 10
83.43123362804783
 20
17.11724434455749
 10
82.35826286117185
 20
16.04520110074111
 10
82.35826286117174
 20
15.24117196675718
 10
82.54885793688982
 20
15.07190015424578
 10
83.90384891513031
 20
14.68509412482706
 10
84.4147894993265
 20
14.79448618220755
 10
85.30893047501525
 20
14.97316005617682
 97
        2
330
32E
330
324
 75
     0
 76
     1
 47
0.0893367883865676
 98
        1
 10
84.2554475188432
 20
15.77719138941302
450
        1
451
        0
460
0.0
461
0.0
452
        1
462
0.4900000095367432
453
        2
463
0.0
 63
     1
421
 16711680
463
1.0
 63
     1
421
 16384000
470
LINEAR
  0
LWPOLYLINE
  5
32E
102
{ACAD_REACTORS
330
32B
102
}
330
30D
100
AcDbEntity
  8
Drawing
100
AcDbPolyline
 90
        9
 70
     1
 43
0.0
 10
83.43123362804783
 20
17.11724434455755
 10
82.35826286117174
 20
16.045201100741
 10
82.35826286117174
 20
15.24117196675707
 10
83.16298894126214
 20
14.52647647087952
 10
84.414789499329
 20
14.79448618220749
 10
85.30893047501525
 20
14.97316005617677
 10
85.30893047501525
 20
16.22387497471027
 10
84.7724450915772
 20
16.75989659661855
 10
83.78888922029603
 20
16.84923243397679
  0
LWPOLYLINE
  5
32F
330
30D
100
AcDbEntity
  8
Drawing
100
AcDbPolyline
 90
        6
 70
     1
 43
0.0
 10
86.02424564964406
 20
17.29591601927405
 10
86.11366054523899
 20
16.49188688529057
 10
86.8289757198678
 20
16.13453913735202
 10
87.09721641652015
 20
16.84923243397679
 10
86.73956082427196
 20
17.47458989324377
 10
86.29249033642975
 20
17.47458989324377
  0
LWPOLYLINE
  5
330
330
30D
100
AcDbEntity
  8
Drawing
100
AcDbPolyline
 90
       16
 70
     1
 43
0.0
 10
83.96771901148588
 20
18.01061151515205
 10
84.95127488276705
 20
17.92127567779335
 10
85.4877602662051
 20
17.65326376721305
 10
85.75600495299079
 20
19.08265255971583
 10
85.75600495299079
 20
19.7080100189828
 10
85.75600495299079
 20
19.88668389295208
 10
84.59361929051977
 20
19.9760219295631
 10
83.78888922029603
 20
19.9760219295631
 10
83.61005942910526
 20
19.6186741816241
 10
83.25240383685707
 20
19.08265255971583
 10
82.89474824460979
 20
18.8146428483883
 10
82.80533334901486
 20
18.63596897441857
 10
82.71591845341902
 20
18.4572951004493
 10
81.82177747773278
 20
18.18928538912132
 10
82.2688479655759
 20
17.92127567779335
 10
82.71591845341902
 20
18.0999473525103
  0
MTEXT
  5
331
330
30D
100
AcDbEntity
  8
Drawing
100
AcDbMText
 10
103.2978246010789
 20
22.55922235562332
 30
0.0
 40
2.5
 41
0.0
 46
0.0
 71
     1
 72
     5
  1
{\fArial|b0|i0|c0|p34;S}
 73
     1
 44
1.0
  0
LWPOLYLINE
  5
332
330
30D
100
AcDbEntity
  8
Drawing
100
AcDbPolyline
 90
        2
 70
     0
 43
0.0
 10
158.0366180584311
 20
9.702290670715229
 10
161.7920197326317
 20
13.27576155234601
  0
LWPOLYLINE
  5
333
330
30D
100
AcDbEntity
  8
Drawing
100
AcDbPolyline
 90
        2
 70
     0
 43
0.0
 10
171.0016861466762
 20
13.99045484897124
 10
174.9359176120676
 20
9.523616796745955
  0
HATCH
  5
334
330
30D
100
AcDbEntity
  8
Drawing
 62
     1
100
AcDbHatch
 10
0.0
 20
0.0
 30
0.0
210
0.0
220
0.0
230
1.0
  2
SOLID
 70
     1
 71
     1
 91
       18
 92
        7
 72
     0
 73
     1
 93
        4
 10
153.2976645030827
 20
18.72530481177733
 10
152.3141046416682
 20
19.70801001898292
 10
151.9954002080933
 20
18.81640925240561
 10
151.9393126470305
 20
18.47083552206072
 97
        2
330
347
330
33A
 92
        7
 72
     0
 73
     1
 93
        5
 10
153.8341498865208
 20
24.53219801839941
 10
153.4035018947797
 20
23.61786447402773
 10
153.9235647821159
 20
24.08551443310222
 10
153.3278546654007
 20
23.02739395777741
 10
154.4600501655538
 20
23.10280922589664
 97
        2
330
346
330
33A
 92
        7
 72
     0
 73
     1
 93
        3
 10
156.8742323959593
 20
29.98174127783074
 10
155.6224358280258
 20
28.99903607062515
 10
156.9636472915549
 20
28.37367861135823
 97
        1
330
34E
 92
        7
 72
     0
 73
     1
 93
        4
 10
161.4708558455234
 20
31.55151644151272
 10
161.1252745290351
 20
31.45855596332268
 10
160.8084598712173
 20
31.23245619636424
 10
161.613189941441
 20
31.05378232239445
 97
        2
330
33A
330
34D
 92
        7
 72
     0
 73
     1
 93
        4
 10
164.2062019630372
 20
33.73388603343068
 10
163.3299408315879
 20
33.23359870817143
 10
163.0563676722551
 20
32.97165148599288
 10
164.2956168586321
 20
32.3938352775391
 97
        2
330
345
330
33A
 92
        7
 72
     0
 73
     1
 93
        5
 10
168.0510185328328
 20
35.43843365453193
 10
167.8721887416426
 20
35.43128673651415
 10
167.6636073197963
 20
35.34197206788139
 10
166.8886328703616
 20
34.98460095196424
 10
168.0510185328327
 20
34.09123378136962
 97
        2
330
33A
330
344
 92
        7
 72
     0
 73
     1
 93
        3
 10
172.6111462871247
 20
35.6099606104836
 10
171.0016861466761
 20
35.60996061048348
 10
171.62758642571
 20
34.44858152930874
 97
        1
330
343
 92
        7
 72
     0
 73
     1
 93
        3
 10
175.2041583087199
 20
32.39383527753915
 10
174.8465027164726
 20
31.14312035900548
 10
175.561813900968
 20
31.14312035900548
 97
        1
330
35C
 92
        7
 72
     0
 73
     1
 93
        4
 10
177.1712740414157
 20
28.46301664796954
 10
177.1545327130366
 20
28.53410510469865
 10
176.1877141800009
 20
27.48031144076356
 10
177.1712740414157
 20
27.17793942019676
 97
        2
330
33A
330
35B
 92
        7
 72
     0
 73
     1
 93
        3
 10
177.6183445292588
 20
24.44285998178827
 10
176.9030293546299
 20
23.63882864855253
 10
177.7971703303164
 20
23.46015477458292
 97
        1
330
350
 92
        7
 72
     0
 73
     1
 93
        3
 10
177.8865852259112
 20
20.24403164089108
 10
177.1712740414156
 20
19.7080100189828
 10
178.0654150171018
 20
19.17199059632674
 97
        1
330
355
 92
        7
 72
     0
 73
     1
 93
        3
 10
180.0325307497975
 20
13.72244513764326
 10
178.9595559927881
 20
13.72244513764332
 10
179.5854562718212
 20
12.38239438175151
 97
        1
330
338
 92
        7
 72
     0
 73
     1
 93
        3
 10
176.1877141800013
 20
8.89825933747909
 10
175.0253285175302
 20
9.523616796745841
 10
175.0253285175302
 20
8.18356384160154
 97
        1
330
342
 92
        7
 72
     0
 73
     1
 93
        3
 10
171.2699308334627
 20
8.272901878212451
 10
170.9122752412148
 20
7.200858634396013
 10
172.0746609036867
 20
7.290196671006981
 97
        1
330
341
 92
        7
 72
     0
 73
     1
 93
        4
 10
167.5145331493947
 20
8.183563841601483
 10
166.8044780309114
 20
6.764686031626411
 10
166.8600237988871
 20
6.757748815879381
 10
168.3192592294863
 20
6.843513085709731
 97
        2
330
340
330
33A
 92
        7
 72
     0
 73
     1
 93
        3
 10
163.5803056741366
 20
8.45157355292929
 10
162.8649904995079
 20
7.2008586343959
 10
164.1167910575747
 20
7.111522797037196
 97
        1
330
33C
 92
        7
 72
     0
 73
     1
 93
        3
 10
158.0366180584311
 20
9.523616796745955
 10
156.6954065949018
 20
9.34494292277634
 10
157.5001326749932
 20
8.362237715570757
 97
        1
330
33D
 92
        7
 72
     0
 73
     1
 93
        4
 10
155.1753613500492
 20
13.63310930028507
 10
153.6504569357268
 20
13.47273186622624
 10
153.99672425211
 20
12.8768988193612
 10
154.281220374364
 20
12.56106605646858
 97
        2
330
337
330
33A
 75
     0
 76
     1
 47
0.0893367883865676
 98
       18
 10
152.4035195372632
 20
18.72530481177728
 10
153.8341498865208
 20
23.37081893722461
 10
156.6059916993069
 20
29.08837410723618
 10
161.3449452546553
 20
31.32179423297475
 10
163.848546370789
 20
33.01919273680551
 10
167.5145331493947
 20
34.71659124063626
 10
171.5381715301152
 20
35.34194869990324
 10
175.2041583087199
 20
31.41113007033346
 10
176.813614459035
 20
27.48031144076367
 10
177.350099842473
 20
23.81750252252186
 10
177.7971703303161
 20
19.79734805559383
 10
179.4066304707636
 20
13.36509738970472
 10
175.2935732043157
 20
8.80892130086795
 10
171.2699308334628
 20
7.647544418945472
 10
167.782773846047
 20
7.111522797037196
 10
163.5803056741366
 20
7.468870544976198
 10
157.3213068739357
 20
9.076933211448704
 10
154.3706352699588
 20
13.18642571498776
450
        1
451
        0
460
0.0
461
0.0
452
        1
462
0.4900000095367432
453
        2
463
0.0
 63
     1
421
 16711680
463
1.0
 63
     1
421
 16384000
470
LINEAR
  0
LWPOLYLINE
  5
337
102
{ACAD_REACTORS
330
334
102
}
330
30D
100
AcDbEntity
  8
Drawing
100
AcDbPolyline
 90
        3
 70
     1
 43
0.0
 10
153.4764903041392
 20
13.45443542631574
 10
155.1753613500492
 20
13.63310930028501
 10
154.2812203743639
 20
12.56106605646846
  0
LWPOLYLINE
  5
338
102
{ACAD_REACTORS
330
334
102
}
330
30D
100
AcDbEntity
  8
Drawing
100
AcDbPolyline
 90
        3
 70
     1
 43
0.0
 10
179.585456271821
 20
12.38239438175151
 10
178.9595559927881
 20
13.72244513764326
 10
180.0325307497975
 20
13.72244513764326
  0
LWPOLYLINE
  5
339
330
30D
100
AcDbEntity
  8
Drawing
  6
DASHED2
 48
0.175
100
AcDbPolyline
 90
       29
 70
     1
 43
0.0
 10
158.9307630242498
 20
24.08551443310216
 10
157.5001326749931
 20
22.20943985604936
 10
157.2318919783407
 20
19.7080100189828
 10
157.2318919783407
 20
18.72530481177728
 10
157.9472031628362
 20
17.83193764118232
 10
159.288418616498
 20
16.75989659661855
 10
160.6296340701598
 20
15.77719138941302
 10
161.523775045846
 20
14.70515034484879
 10
162.3285051160698
 20
12.82907796704876
 10
163.222646091756
 20
11.39968917454598
 10
164.921517137666
 20
10.68499367866843
 10
167.3357033582048
 20
10.50631980469871
 10
168.7663297173282
 20
10.77433171527946
 10
169.7498895787427
 20
11.13167946321801
 10
170.6440305544289
 20
12.11438247117121
 10
170.8228603456197
 20
14.16912872294051
 10
172.7005571925862
 20
15.77719138941302
 10
173.8629428550581
 20
17.5639279298548
 10
174.0417726462489
 20
21.22673684809661
 10
173.7735319495965
 20
25.60423906296364
 10
173.5052872628108
 20
28.4630166479692
 10
172.9688018793719
 20
30.78577261106648
 10
171.2699308334628
 20
32.30449724092796
 10
168.6769188118666
 20
32.66184498886696
 10
166.2627325913278
 20
31.85781365563071
 10
163.6697165795991
 20
30.2497509891582
 10
162.5073309171272
 20
28.1950047373889
 10
160.987289662408
 20
26.4082703961999
 10
160.4508042789699
 20
25.60423906296364
  0
LWPOLYLINE
  5
33A
102
{ACAD_REACTORS
330
334
102
}
330
30D
100
AcDbEntity
  8
Drawing
100
AcDbPolyline
 90
       47
 70
     1
 43
0.0
 10
152.3141046416682
 20
21.22673684809661
 10
153.3870754085443
 20
23.81750252252186
 10
154.0129756875782
 20
25.24689131502464
 10
154.1918054787681
 20
27.48031144076367
 10
156.3377470125212
 20
29.80306740386095
 10
159.288418616498
 20
30.96444648503621
 10
161.613189941441
 20
31.58980394430273
 10
163.7591314751941
 20
33.64455019607249
 10
166.620388183576
 20
34.89526511460599
 10
167.8721887416428
 20
35.43128673651427
 10
170.1075451709909
 20
35.52062257387252
 10
172.0746609036865
 20
35.78863228520049
 10
173.0582167749677
 20
35.78863228520049
 10
173.6841170540007
 20
34.89526511460599
 10
173.7735319495965
 20
34.09123378136974
 10
175.3829880999107
 20
32.66184498886696
 10
175.7406436921589
 20
30.96444648503621
 10
176.813614459035
 20
29.98174127783068
 10
177.1712740414156
 20
28.4630166479692
 10
177.1712740414156
 20
26.76561814413844
 10
177.5289296336638
 20
25.51490102635262
 10
177.7971703303161
 20
23.72816668516361
 10
177.7971703303161
 20
21.67342043339386
 10
177.9760001215069
 20
19.88668389295208
 10
178.5124855049449
 20
18.01061151515205
 10
179.585456271821
 20
15.77719138941302
 10
180.0325307497975
 20
13.90111901161299
 10
180.0325307497975
 20
12.56106605646846
 10
179.3172155751687
 20
10.95300558924873
 10
178.9595559927881
 20
9.791626508073477
 10
177.350099842473
 20
9.166269048806953
 10
175.0253285175301
 20
8.094228004242723
 10
172.253486704744
 20
7.2008586343959
 10
169.7498895787427
 20
7.022186959678947
 10
167.6039440548572
 20
6.664839211739945
 10
164.7426873464752
 20
7.022186959678947
 10
161.7026048370368
 20
7.2008586343959
 10
158.5731034418692
 20
7.290196671006925
 10
156.8742323959592
 20
8.898259337478976
 10
154.9071206533969
 20
11.31035113793496
 10
153.2976645030827
 20
14.07979288558226
 10
152.5823493284539
 20
15.50918167808504
 10
151.7776192582302
 20
16.3132130113213
 10
151.7776192582302
 20
17.47458989324377
 10
152.3141046416682
 20
20.78005106354658
 10
153.029419816297
 20
23.28148309986591
 10
153.9235647821157
 20
24.08551443310216
  0
LWPOLYLINE
  5
33B
330
30D
100
AcDbEntity
  8
Drawing
100
AcDbPolyline
 90
        2
 70
     0
 43
0.0
 10
163.4908907785417
 20
8.451573552929403
 10
163.9379612663848
 20
10.95300558924873
  0
LWPOLYLINE
  5
33C
102
{ACAD_REACTORS
330
334
102
}
330
30D
100
AcDbEntity
  8
Drawing
100
AcDbPolyline
 90
        3
 70
     1
 43
0.0
 10
162.8649904995078
 20
7.2008586343959
 10
163.5803056741366
 20
8.451573552929403
 10
164.1167910575747
 20
7.111522797037196
  0
LWPOLYLINE
  5
33D
102
{ACAD_REACTORS
330
334
102
}
330
30D
100
AcDbEntity
  8
Drawing
100
AcDbPolyline
 90
        3
 70
     1
 43
0.0
 10
156.6954065949018
 20
9.344942922776227
 10
158.0366180584311
 20
9.523616796745955
 10
157.5001326749931
 20
8.3622377155707
  0
LWPOLYLINE
  5
33E
330
30D
100
AcDbEntity
  8
Drawing
100
AcDbPolyline
 90
        2
 70
     0
 43
0.0
 10
167.4251182537997
 20
8.183563841601426
 10
167.3357033582048
 20
10.41698396734046
  0
LWPOLYLINE
  5
33F
330
30D
100
AcDbEntity
  8
Drawing
100
AcDbPolyline
 90
        2
 70
     0
 43
0.0
 10
170.1075451709909
 20
11.04234142660698
 10
171.2699308334628
 20
8.630247426898677
  0
LWPOLYLINE
  5
340
102
{ACAD_REACTORS
330
334
102
}
330
30D
100
AcDbEntity
  8
Drawing
100
AcDbPolyline
 90
        3
 70
     1
 43
0.0
 10
166.7992179747658
 20
6.754175049098649
 10
167.5145331493947
 20
8.183563841601426
 10
168.319259229486
 20
6.843513085709674
  0
LWPOLYLINE
  5
341
102
{ACAD_REACTORS
330
334
102
}
330
30D
100
AcDbEntity
  8
Drawing
100
AcDbPolyline
 90
        3
 70
     1
 43
0.0
 10
170.9122752412146
 20
7.2008586343959
 10
171.2699308334628
 20
8.272901878212451
 10
172.0746609036865
 20
7.290196671006925
  0
LWPOLYLINE
  5
342
102
{ACAD_REACTORS
330
334
102
}
330
30D
100
AcDbEntity
  8
Drawing
100
AcDbPolyline
 90
        3
 70
     1
 43
0.0
 10
175.0253285175301
 20
8.183563841601426
 10
175.0253285175301
 20
9.523616796745955
 10
176.1877141800011
 20
8.898259337478976
  0
LWPOLYLINE
  5
343
102
{ACAD_REACTORS
330
334
102
}
330
30D
100
AcDbEntity
  8
Drawing
100
AcDbPolyline
 90
        3
 70
     1
 43
0.0
 10
171.0016861466762
 20
35.60996061048354
 10
171.6275864257101
 20
34.44858152930874
 10
172.6111462871246
 20
35.60996061048354
  0
LWPOLYLINE
  5
344
102
{ACAD_REACTORS
330
334
102
}
330
30D
100
AcDbEntity
  8
Drawing
100
AcDbPolyline
 90
        3
 70
     1
 43
0.0
 10
168.0510185328327
 20
35.52062257387252
 10
168.0510185328327
 20
34.09123378136974
 10
166.8886328703617
 20
34.98460095196424
  0
LWPOLYLINE
  5
345
102
{ACAD_REACTORS
330
334
102
}
330
30D
100
AcDbEntity
  8
Drawing
100
AcDbPolyline
 90
        3
 70
     1
 43
0.0
 10
164.2062019630372
 20
33.73388603343074
 10
164.2956168586321
 20
32.39383527753898
 10
162.9544053951037
 20
33.01919273680551
  0
LWPOLYLINE
  5
346
102
{ACAD_REACTORS
330
334
102
}
330
30D
100
AcDbEntity
  8
Drawing
100
AcDbPolyline
 90
        3
 70
     1
 43
0.0
 10
153.8341498865208
 20
24.53219801839941
 10
154.4600501655538
 20
23.10280922589664
 10
153.118834711892
 20
23.01347118928561
  0
LWPOLYLINE
  5
347
102
{ACAD_REACTORS
330
334
102
}
330
30D
100
AcDbEntity
  8
Drawing
100
AcDbPolyline
 90
        3
 70
     1
 43
0.0
 10
152.3141046416682
 20
19.7080100189828
 10
153.2976645030827
 20
18.72530481177728
 10
151.8670341538251
 20
18.4572951004493
  0
LWPOLYLINE
  5
348
330
30D
100
AcDbEntity
  8
Drawing
100
AcDbPolyline
 90
        2
 70
     0
 43
0.0
 10
154.728290862207
 20
23.01347118928561
 10
157.05306218715
 20
22.20943985604936
  0
LWPOLYLINE
  5
349
330
30D
100
AcDbEntity
  8
Drawing
100
AcDbPolyline
 90
        2
 70
     0
 43
0.0
 10
153.3870754085443
 20
18.63596897441857
 10
156.7848214904976
 20
18.63596897441857
  0
LWPOLYLINE
  5
34A
330
30D
100
AcDbEntity
  8
Drawing
100
AcDbPolyline
 90
        2
 70
     0
 43
0.0
 10
155.4436060368349
 20
13.63310930028501
 10
159.4672484076888
 20
15.95586526338229
  0
LWPOLYLINE
  5
34B
330
30D
100
AcDbEntity
  8
Drawing
100
AcDbPolyline
 90
        2
 70
     0
 43
0.0
 10
161.7920197326317
 20
31.14312035900548
 10
163.1332311961611
 20
30.16041515179995
  0
LWPOLYLINE
  5
34C
330
30D
100
AcDbEntity
  8
Drawing
100
AcDbPolyline
 90
        2
 70
     0
 43
0.0
 10
156.963647291555
 20
28.1950047373889
 10
160.3613893833741
 20
26.05092264826089
  0
LWPOLYLINE
  5
34D
102
{ACAD_REACTORS
330
334
102
}
330
30D
100
AcDbEntity
  8
Drawing
100
AcDbPolyline
 90
        3
 70
     1
 43
0.0
 10
161.4343601502511
 20
31.67913978166143
 10
161.613189941441
 20
31.05378232239445
 10
160.8084598712172
 20
31.23245619636418
  0
LWPOLYLINE
  5
34E
102
{ACAD_REACTORS
330
334
102
}
330
30D
100
AcDbEntity
  8
Drawing
100
AcDbPolyline
 90
        3
 70
     1
 43
0.0
 10
156.8742323959592
 20
29.98174127783068
 10
156.963647291555
 20
28.37367861135817
 10
155.6224358280257
 20
28.99903607062515
  0
MTEXT
  5
34F
330
30D
100
AcDbEntity
  8
Drawing
100
AcDbMText
 10
164.1334148631258
 20
25.77534768856788
 30
0.0
 40
2.5
 41
0.0
 46
0.0
 71
     1
 72
     5
  1
{\fArial|b0|i0|c0|p34;5.48}
 73
     1
 44
1.0
  0
LWPOLYLINE
  5
350
102
{ACAD_REACTORS
330
334
102
}
330
30D
100
AcDbEntity
  8
Drawing
100
AcDbPolyline
 90
        3
 70
     1
 43
0.0
 10
177.6183445292587
 20
24.44285998178839
 10
176.9030293546299
 20
23.63882864855259
 10
177.7971703303161
 20
23.46015477458286
  0
LWPOLYLINE
  5
351
330
30D
100
AcDbEntity
  8
Drawing
100
AcDbPolyline
 90
        2
 70
     0
 43
0.0
 10
173.9523577506531
 20
16.93857047058782
 10
178.7807301917306
 20
13.90111901161299
  0
LWPOLYLINE
  5
352
330
30D
100
AcDbEntity
  8
Drawing
100
AcDbPolyline
 90
        2
 70
     0
 43
0.0
 10
176.72419956344
 20
23.63882864855259
 10
174.1311875418438
 20
23.54949281119389
  0
LWPOLYLINE
  5
353
330
30D
100
AcDbEntity
  8
Drawing
100
AcDbPolyline
 90
        3
 70
     0
 43
0.0
 10
165.8156621034847
 20
21.13739881148558
 10
166.620388183576
 20
22.65612564059938
 10
167.6039440548572
 20
21.04806297412688
  0
LWPOLYLINE
  5
354
330
30D
100
AcDbEntity
  8
Drawing
100
AcDbPolyline
 90
        2
 70
     0
 43
0.0
 10
174.3994282384962
 20
20.42270551486035
 10
177.0818591458207
 20
19.6186741816241
  0
LWPOLYLINE
  5
355
102
{ACAD_REACTORS
330
334
102
}
330
30D
100
AcDbEntity
  8
Drawing
100
AcDbPolyline
 90
        3
 70
     1
 43
0.0
 10
177.8865852259111
 20
20.24403164089108
 10
177.1712740414156
 20
19.7080100189828
 10
178.0654150171018
 20
19.17199059632685
  0
LWPOLYLINE
  5
356
330
30D
100
AcDbEntity
  8
Drawing
100
AcDbPolyline
 90
        2
 70
     0
 43
0.0
 10
176.1877141800011
 20
27.39097560340542
 10
174.3100173330346
 20
26.85495398149715
  0
LWPOLYLINE
  5
357
330
30D
100
AcDbEntity
  8
Drawing
100
AcDbPolyline
 90
        2
 70
     0
 43
0.0
 10
174.7570878208777
 20
31.05378232239445
 10
173.6841170540007
 20
29.89240544047198
  0
LWPOLYLINE
  5
358
330
30D
100
AcDbEntity
  8
Drawing
100
AcDbPolyline
 90
        2
 70
     0
 43
0.0
 10
171.5381715301152
 20
34.26990765533901
 10
171.2699308334628
 20
32.21516140356971
  0
LWPOLYLINE
  5
359
330
30D
100
AcDbEntity
  8
Drawing
100
AcDbPolyline
 90
        2
 70
     0
 43
0.0
 10
168.2298443338901
 20
34.09123378136974
 10
168.5875039162717
 20
32.75118302547799
  0
LWPOLYLINE
  5
35A
330
30D
100
AcDbEntity
  8
Drawing
100
AcDbPolyline
 90
        2
 70
     0
 43
0.0
 10
164.2956168586321
 20
32.21516140356971
 10
164.921517137666
 20
31.50046810694448
  0
LWPOLYLINE
  5
35B
102
{ACAD_REACTORS
330
334
102
}
330
30D
100
AcDbEntity
  8
Drawing
100
AcDbPolyline
 90
        3
 70
     1
 43
0.0
 10
177.1712740414156
 20
28.5523524853279
 10
176.1877141800011
 20
27.48031144076367
 10
177.350099842473
 20
27.12296369282467
  0
LWPOLYLINE
  5
35C
102
{ACAD_REACTORS
330
334
102
}
330
30D
100
AcDbEntity
  8
Drawing
100
AcDbPolyline
 90
        3
 70
     1
 43
0.0
 10
175.2041583087199
 20
32.39383527753898
 10
174.8465027164726
 20
31.14312035900548
 10
175.5618139009681
 20
31.14312035900548
  0
ENDBLK
  5
35E
330
30D
100
AcDbEntity
  8
0
100
AcDbBlockEnd
  0
BLOCK
  5
455
330
448
100
AcDbEntity
  8
0
100
AcDbBlockBegin
  2
A$C36576122
 70
     0
 10
0.0
 20
0.0
 30
0.0
  3
A$C36576122
  1

  0
MTEXT
  5
449
330
448
100
AcDbEntity
  8
trench scale n
100
AcDbMText
 10
0.1972577083735843
 20
2.162594381103233
 30
0.0
 40
0.8
 41
0.2683285054029629
 46
0.0
 71
     1
 72
     5
  1
N
  7
verdana
 73
     1
 44
1.0
  0
MTEXT
  5
44A
330
448
100
AcDbEntity
  8
trench scale n
100
AcDbMText
 10
0.1972577083735843
 20
2.162594381103233
 30
0.0
 40
0.8
 41
0.2683285054029629
 46
0.0
 71
     1
 72
     5
  1
N
  7
verdana
 73
     1
 44
1.0
  0
MTEXT
  5
44B
330
448
100
AcDbEntity
  8
trench scale n
100
AcDbMText
 10
0.1972577083735843
 20
2.162594381103233
 30
0.0
 40
0.8
 41
0.2683285054029629
 46
0.0
 71
     1
 72
     5
  1
N
  7
verdana
 73
     1
 44
1.0
  0
MTEXT
  5
44C
330
448
100
AcDbEntity
  8
trench scale n
100
AcDbMText
 10
0.1972577083735843
 20
2.162594381103233
 30
0.0
 40
0.8
 41
0.2683285054029629
 46
0.0
 71
     1
 72
     5
  1
N
  7
verdana
 73
     1
 44
1.0
  0
LWPOLYLINE
  5
44D
102
{ACAD_REACTORS
330
44E
102
}
330
448
100
AcDbEntity
  8
trench scale n
100
AcDbPolyline
 90
        3
 70
     1
 43
0.0
 10
0.5106233673127889
 20
1.005125346485372
 10
0.000000012195045
 20
-0.0000000137850549
 10
1.005535233287688
 20
-0.0000000137850549
  0
HATCH
  5
44E
330
448
100
AcDbEntity
  8
trench scale n
100
AcDbHatch
 10
0.0
 20
0.0
 30
0.0
210
0.0
220
0.0
230
1.0
  2
SOLID
 70
     1
 71
     1
 91
        1
 92
        1
 93
        3
 72
     1
 10
0.5106233673127889
 20
1.005125346485372
 11
0.000000012195045
 21
-0.0000000137850549
 72
     1
 10
0.000000012195045
 20
-0.0000000137850549
 11
1.005535233287688
 21
-0.0000000137850549
 72
     1
 10
1.005535233287688
 20
-0.0000000137850549
 11
0.5106233673127889
 21
1.005125346485372
 97
        1
330
44D
 75
     0
 76
     1
 98
        1
 10
-46.6265582303945
 20
-116.6947228256637
  0
HATCH
  5
44F
330
448
100
AcDbEntity
  8
trench scale n
100
AcDbHatch
 10
0.0
 20
0.0
 30
0.0
210
0.0
220
0.0
230
1.0
  2
SOLID
 70
     1
 71
     1
 91
        1
 92
        1
 93
        3
 72
     1
 10
0.5106233673127889
 20
1.005125346485372
 11
0.000000012195045
 21
-0.0000000137850549
 72
     1
 10
0.000000012195045
 20
-0.0000000137850549
 11
1.005535233287688
 21
-0.0000000137850549
 72
     1
 10
1.005535233287688
 20
-0.0000000137850549
 11
0.5106233673127889
 21
1.005125346485372
 97
        1
330
450
 75
     0
 76
     1
 98
        1
 10
-46.6265582303945
 20
-116.6947228256637
  0
LWPOLYLINE
  5
450
102
{ACAD_REACTORS
330
44F
102
}
330
448
100
AcDbEntity
  8
trench scale n
100
AcDbPolyline
 90
        3
 70
     1
 43
0.0
 10
0.5106233673127889
 20
1.005125346485372
 10
0.000000012195045
 20
-0.0000000137850549
 10
1.005535233287688
 20
-0.0000000137850549
  0
LWPOLYLINE
  5
451
102
{ACAD_REACTORS
330
452
102
}
330
448
100
AcDbEntity
  8
trench scale n
100
AcDbPolyline
 90
        3
 70
     1
 43
0.0
 10
0.5106233673127889
 20
1.005125346485372
 10
0.000000012195045
 20
-0.0000000137850549
 10
1.005535233287688
 20
-0.0000000137850549
  0
HATCH
  5
452
330
448
100
AcDbEntity
  8
trench scale n
100
AcDbHatch
 10
0.0
 20
0.0
 30
0.0
210
0.0
220
0.0
230
1.0
  2
SOLID
 70
     1
 71
     1
 91
        1
 92
        1
 93
        3
 72
     1
 10
0.5106233673127889
 20
1.005125346485372
 11
0.000000012195045
 21
-0.0000000137850549
 72
     1
 10
0.000000012195045
 20
-0.0000000137850549
 11
1.005535233287688
 21
-0.0000000137850549
 72
     1
 10
1.005535233287688
 20
-0.0000000137850549
 11
0.5106233673127889
 21
1.005125346485372
 97
        1
330
451
 75
     0
 76
     1
 98
        1
 10
-46.6265582303945
 20
-116.6947228256637
  0
HATCH
  5
453
330
448
100
AcDbEntity
  8
trench scale n
100
AcDbHatch
 10
0.0
 20
0.0
 30
0.0
210
0.0
220
0.0
230
1.0
  2
SOLID
 70
     1
 71
     1
 91
        1
 92
        1
 93
        3
 72
     1
 10
0.5106233673127889
 20
1.005125346485372
 11
0.000000012195045
 21
-0.0000000137850549
 72
     1
 10
0.000000012195045
 20
-0.0000000137850549
 11
1.005535233287688
 21
-0.0000000137850549
 72
     1
 10
1.005535233287688
 20
-0.0000000137850549
 11
0.5106233673127889
 21
1.005125346485372
 97
        1
330
454
 75
     0
 76
     1
 98
        1
 10
-46.6265582303945
 20
-116.6947228256637
  0
LWPOLYLINE
  5
454
102
{ACAD_REACTORS
330
453
102
}
330
448
100
AcDbEntity
  8
trench scale n
100
AcDbPolyline
 90
        3
 70
     1
 43
0.0
 10
0.5106233673127889
 20
1.005125346485372
 10
0.000000012195045
 20
-0.0000000137850549
 10
1.005535233287688
 20
-0.0000000137850549
  0
ENDBLK
  5
456
330
448
100
AcDbEntity
  8
0
100
AcDbBlockEnd
  0
ENDSEC
  0
SECTION
  2
ENTITIES
  0
LWPOLYLINE
  5
8D
330
1F
100
AcDbEntity
  8
Drawing
100
AcDbPolyline
 90
       31
 70
     0
 43
0.0
 10
727.107035362302
 20
448.0473590707582
 10
729.9502327401173
 20
449.9411822853197
 10
732.5828237177585
 20
451.3089435518491
 10
737.1108805285655
 20
453.6236159215445
 10
739.9540779063808
 20
455.5174391361058
 10
743.7450095727122
 20
459.305085061114
 10
745.0086525468671
 20
461.304120564459
 10
745.6404744912556
 20
464.3552799638682
 10
745.4298671764595
 20
466.038678096748
 10
745.0086525468671
 20
467.5116516520608
 10
744.0609200875954
 20
469.4054748666223
 10
742.4813656839351
 20
470.6680233402534
 10
740.9018112802747
 20
470.8784484219351
 10
738.7957381323129
 20
470.2471736810047
 10
735.426022010196
 20
467.827289022526
 10
731.1085734288074
 20
465.3021915711489
 10
728.4759824511661
 20
463.5135806453709
 10
727.2123385623889
 20
462.7770941197718
 10
726.5805166180004
 20
462.566669542205
 10
725.6327841587287
 20
462.566669542205
 10
724.2638370698645
 20
463.4083683565874
 10
722.578978551495
 20
464.5657045414351
 10
719.4198697441743
 20
465.4074038599324
 10
716.0501536220576
 20
464.9865542006837
 10
713.9440804740956
 20
462.9875186973388
 10
711.8380082407559
 20
460.778058616427
 10
711.2061862963674
 20
458.9894481947637
 10
711.1008830962804
 20
456.6747753209536
 10
711.2061862963674
 20
454.1496778695765
 10
711.2061862963674
 20
451.9402177886647
 10
711.6274009259597
 20
450.3620319445683
  0
LWPOLYLINE
  5
8E
330
1F
100
AcDbEntity
  8
Drawing
100
AcDbPolyline
 90
        9
 70
     0
 43
0.0
 10
713.8387772740086
 20
448.0473590707582
 10
714.5759024184842
 20
446.995235174694
 10
715.2077243628728
 20
446.4691732266619
 10
716.0501536220576
 20
446.1535363603115
 10
716.2607609368537
 20
445.6274744122794
 10
719.1039592292911
 20
445.1014124642473
 10
720.1569948886499
 20
445.4170493305977
 10
720.5782095182423
 20
445.6274744122794
 10
721.8418534070195
 20
445.5222616193811
  0
LWPOLYLINE
  5
8F
330
1F
100
AcDbEntity
  8
Drawing
100
AcDbPolyline
 90
        3
 70
     0
 43
0.0
 10
724.3691402699516
 20
446.3639609378784
 10
725.8433914735249
 20
447.3108725451592
 10
727.107035362302
 20
448.1525718636565
  0
LWPOLYLINE
  5
90
330
1F
100
AcDbEntity
  8
Drawing
100
AcDbPolyline
 90
        9
 70
     1
 43
0.0
 10
721.5259428921363
 20
446.3639609378784
 10
721.9471566071064
 20
445.7326867010628
 10
722.473675351408
 20
445.6274744122794
 10
723.9479256403591
 20
445.8378989898463
 10
724.5797475847477
 20
446.5743855154453
 10
723.3161046105928
 20
446.995235174694
 10
722.1577639219026
 20
446.8900228859105
 10
721.6312460922233
 20
446.5743855154453
 10
721.6312460922233
 20
446.3639609378784
  0
LWPOLYLINE
  5
91
330
1F
100
AcDbEntity
  8
Drawing
100
AcDbPolyline
 90
       13
 70
     1
 43
0.0
 10
712.3645260704353
 20
447.9421467819747
 10
713.7334731592995
 20
448.1525718636565
 10
715.1024211627857
 20
448.2577841524399
 10
715.9448495073483
 20
448.6786338116885
 10
716.0501536220576
 20
449.2046957597207
 10
715.7342421925522
 20
449.8359699965362
 10
715.4183316776689
 20
450.5724565221353
 10
714.365295103688
 20
450.5724565221353
 10
713.3122594443292
 20
450.6776688109187
 10
711.9433114408429
 20
450.4672442333518
 10
711.6274009259597
 20
449.6255449148545
 10
711.4167936111636
 20
448.4682087300068
 10
711.7327041260468
 20
448.0473590707582
  0
LWPOLYLINE
  5
92
330
1F
100
AcDbEntity
  8
Drawing
100
AcDbPolyline
 90
       12
 70
     1
 43
0.0
 10
723.3161046105928
 20
463.9344303046196
 10
721.5259428921363
 20
462.6718818309884
 10
721.420638777427
 20
462.3562444605233
 10
720.7888168330385
 20
462.2510321717398
 10
719.6304770589705
 20
462.2510321717398
 10
719.8410843737668
 20
460.8832709052103
 10
720.5782095182423
 20
460.1467843796114
 10
721.5259428921363
 20
459.9363592979296
 10
722.473675351408
 20
459.9363592979296
 10
722.473675351408
 20
461.5145451420259
 10
724.1585329551554
 20
462.2510321717398
 10
725.1062663290493
 20
462.8823064085553
  0
LWPOLYLINE
  5
93
330
1F
100
AcDbEntity
  8
Drawing
100
AcDbPolyline
 90
        9
 70
     1
 43
0.0
 10
732.7934310325547
 20
463.1979437790205
 10
733.8464676065356
 20
462.9875186973388
 10
735.1101114953128
 20
463.5135806453709
 10
735.320718810109
 20
464.6709173343334
 10
734.8995041805166
 20
465.7230412303976
 10
734.5835927510112
 20
465.7230412303976
 10
733.004038347351
 20
465.1969792823654
 10
732.8987351472639
 20
464.2500676750847
 10
732.8987351472639
 20
463.7240057270526
  0
LWPOLYLINE
  5
94
330
1F
100
AcDbEntity
  8
Drawing
100
AcDbPolyline
 90
        8
 70
     1
 43
0.0
 10
739.8487747062937
 20
466.1438903855314
 10
741.2177217951579
 20
465.9334658079645
 10
741.7442405394595
 20
466.56474004478
 10
741.2177217951579
 20
468.563775548125
 10
740.2699893358862
 20
468.563775548125
 10
739.4275600767014
 20
467.7220767337425
 10
739.4275600767014
 20
466.8803774152452
 10
739.4275600767014
 20
466.3543154672132
  0
LWPOLYLINE
  5
95
330
1F
100
AcDbEntity
  8
Drawing
100
AcDbPolyline
 90
        7
 70
     1
 43
0.0
 10
744.0609200875954
 20
466.1438903855314
 10
743.2184908284106
 20
468.0377136000928
 10
742.5866688840221
 20
468.0377136000928
 10
742.7972761988183
 20
466.9855897040287
 10
742.9025803135274
 20
466.2491031784297
 10
743.639705458003
 20
466.038678096748
 10
744.0609200875954
 20
465.828253519181
  0
LWPOLYLINE
  5
96
102
{ACAD_REACTORS
330
B7
102
}
330
1F
100
AcDbEntity
  8
Drawing
100
AcDbPolyline
 90
       10
 70
     1
 43
0.0
 10
714.6812065331934
 20
461.1989082756755
 10
715.7342421925522
 20
461.6197579349242
 10
716.3660641369407
 20
462.3562444605233
 10
716.0501536220576
 20
463.5135806453709
 10
714.9971170480766
 20
463.303156067804
 10
714.1546877888918
 20
462.4614567493066
 10
713.5228667591255
 20
461.8301825124911
 10
713.5228667591255
 20
461.304120564459
 10
714.0493845888049
 20
461.093695986892
 10
714.365295103688
 20
461.093695986892
  0
LWPOLYLINE
  5
97
330
1F
100
AcDbEntity
  8
Drawing
100
AcDbPolyline
 90
        8
 70
     1
 43
0.0
 10
717.3137975108347
 20
463.6187934382691
 10
717.840315340514
 20
463.8292180158361
 10
718.6827445996988
 20
464.5657045414351
 10
718.4721372849026
 20
465.3021915711489
 10
716.9978860813293
 20
465.3021915711489
 10
716.4713682516499
 20
464.8813419119002
 10
716.6819755664461
 20
464.039642593403
 10
716.7872787665331
 20
463.9344303046196
  0
LWPOLYLINE
  5
98
330
1F
100
AcDbEntity
  8
Drawing
100
AcDbPolyline
 90
        5
 70
     1
 43
0.0
 10
713.7334731592995
 20
458.8842354018655
 10
714.5759024184842
 20
459.4102973498975
 10
714.365295103688
 20
460.1467843796114
 10
713.9440804740956
 20
460.1467843796114
 10
713.5228667591255
 20
459.4102973498975
  0
LWPOLYLINE
  5
99
102
{ACAD_REACTORS
330
A8
102
}
330
1F
100
AcDbEntity
  8
Drawing
100
AcDbPolyline
 90
       10
 70
     1
 43
0.0
 10
736.0578439545845
 20
457.3060495577691
 10
737.1108805285655
 20
457.8321115058012
 10
736.2684512693808
 20
460.4624212459618
 10
735.6366293249922
 20
461.8301825124911
 10
734.0570749213318
 20
461.8301825124911
 10
733.004038347351
 20
460.4624212459618
 10
732.3722164029623
 20
458.4633862467316
 10
732.6881278324677
 20
457.3060495577691
 10
733.5305570916524
 20
456.9904126914188
 10
734.7942000658074
 20
457.2008372689857
  0
HATCH
  5
A8
330
1F
100
AcDbEntity
  8
Drawing
 62
     1
100
AcDbHatch
 10
0.0
 20
0.0
 30
0.0
210
0.0
220
0.0
230
1.0
  2
SOLID
 70
     1
 71
     1
 91
        1
 92
        7
 72
     0
 73
     1
 93
       10
 10
734.7942000658074
 20
457.2008372689855
 10
736.0578439545847
 20
457.3060495577692
 10
737.1108805285654
 20
457.8321115058011
 10
736.2684512693808
 20
460.4624212459613
 10
735.6366293249921
 20
461.830182512491
 10
734.057074921332
 20
461.830182512491
 10
733.0040383473511
 20
460.4624212459622
 10
732.3722164029622
 20
458.4633862467317
 10
732.6881278324677
 20
457.3060495577693
 10
733.5305570916523
 20
456.9904126914187
 97
        1
330
99
 75
     0
 76
     1
 47
0.105212390968893
 98
        1
 10
734.5835927510112
 20
458.9894481947637
450
        1
451
        0
460
0.0
461
0.0
452
        1
462
0.5400000214576721
453
        2
463
0.0
 63
     1
421
 16711680
463
1.0
 63
     1
421
 16716820
470
LINEAR
  0
HATCH
  5
B7
330
1F
100
AcDbEntity
  8
Drawing
 62
     1
100
AcDbHatch
 10
0.0
 20
0.0
 30
0.0
210
0.0
220
0.0
230
1.0
  2
SOLID
 70
     1
 71
     1
 91
        1
 92
        7
 72
     0
 73
     1
 93
       10
 10
714.1546877888918
 20
462.4614567493066
 10
713.5228667591255
 20
461.8301825124911
 10
713.5228667591255
 20
461.3041205644591
 10
714.0493845888049
 20
461.093695986892
 10
714.365295103688
 20
461.093695986892
 10
714.6812065331924
 20
461.198908275675
 10
715.7342421925522
 20
461.6197579349242
 10
716.3660641369407
 20
462.3562444605233
 10
716.0501536220576
 20
463.5135806453708
 10
714.9971170480767
 20
463.3031560678041
 97
        1
330
96
 75
     0
 76
     1
 47
0.105212390968893
 98
        1
 10
714.7865097332804
 20
462.3562444605233
450
        1
451
        0
460
0.0
461
0.0
452
        1
462
0.5400000214576721
453
        2
463
0.0
 63
     1
421
 16711680
463
1.0
 63
     1
421
 16716820
470
LINEAR
  0
MTEXT
  5
B9
330
1F
100
AcDbEntity
  8
Drawing
100
AcDbMText
 10
719.3145665440874
 20
458.3581734538333
 30
0.0
 40
3.5
 41
0.0
 46
0.0
 71
     1
 72
     5
  1
{\fArial|b0|i0|c0|p34;5.74}
  7
verdana
 73
     1
 44
1.0
  0
MTEXT
  5
C0
330
1F
100
AcDbEntity
  8
Drawing
100
AcDbMText
 10
749.3963953336172
 20
470.1954172221182
 30
0.0
 40
3.5
 41
0.0
 46
0.0
 71
     1
 72
     5
  1
{\fArial|b0|i0|c0|p34;B}
  7
verdana
 73
     1
 44
1.0
  0
LWPOLYLINE
  5
C1
330
1F
100
AcDbEntity
  8
Drawing
100
AcDbPolyline
 90
        2
 70
     0
 43
0.0
 10
744.3768306024785
 20
466.9855897040287
 10
748.4836727836931
 20
468.353350970558
  0
LWPOLYLINE
  5
C2
330
1F
100
AcDbEntity
  8
Drawing
100
AcDbPolyline
 90
        4
 70
     0
 43
0.0
 10
722.1577639219026
 20
454.8861648992903
 10
721.1047282625439
 20
452.8871293959454
 10
722.0524607218157
 20
454.8861648992903
 10
723.1054972957966
 20
452.8871293959454
  0
LWPOLYLINE
  5
C3
330
1F
100
AcDbEntity
  8
Drawing
100
AcDbPolyline
 90
        3
 70
     0
 43
0.0
 10
818.8994524745768
 20
456.8851998985205
 10
818.0570232153921
 20
458.2529611650499
 10
817.1092907561202
 20
456.6747753209536
  0
MTEXT
  5
CA
330
1F
100
AcDbEntity
  8
Drawing
100
AcDbMText
 10
814.5036500368216
 20
456.0067269172812
 30
0.0
 40
3.5
 41
0.0
 46
0.0
 71
     1
 72
     5
  1
{\fArial|b0|i0|c0|p34;5.64}
  7
verdana
 73
     1
 44
1.0
  0
MTEXT
  5
D0
330
1F
100
AcDbEntity
  8
Drawing
100
AcDbMText
 10
784.7027218528273
 20
465.2654174042921
 30
0.0
 40
3.5
 41
0.0
 46
0.0
 71
     1
 72
     5
  1
{\fArial|b0|i0|c0|p34;SW}
  7
verdana
 73
     1
 44
1.0
  0
MTEXT
  5
D6
330
1F
100
AcDbEntity
  8
Drawing
100
AcDbMText
 10
848.4798570096627
 20
465.5810547747573
 30
0.0
 40
3.5
 41
0.0
 46
0.0
 71
     1
 72
     5
  1
{\fArial|b0|i0|c0|p34;NE}
  7
verdana
 73
     1
 44
1.0
  0
LWPOLYLINE
  5
D8
330
1F
100
AcDbEntity
  8
Drawing
100
AcDbPolyline
 90
       25
 70
     0
 43
0.0
 10
791.8287877751269
 20
463.303156067804
 10
795.0932006971568
 20
463.6187934382691
 10
796.9886656157003
 20
463.8292180158361
 10
798.2523095044775
 20
463.8292180158361
 10
799.3053460784583
 20
463.4083683565874
 10
802.2538475709829
 20
461.4093328532425
 10
803.6227946598469
 20
460.2519966683948
 10
807.8349400411486
 20
458.6738108242985
 10
810.5728342188768
 20
458.1477488762664
 10
812.9948178817219
 20
457.6216869282343
 10
815.5221056592762
 20
457.6216869282343
 10
818.0493925222082
 20
458.3581734538333
 10
819.9448574407518
 20
458.1477488762664
 10
823.630484992374
 20
457.4112623506674
 10
825.4206467108305
 20
456.779987609737
 10
829.2115774625397
 20
455.9382887953545
 10
830.685828666113
 20
456.9904126914188
 10
831.4229538105886
 20
457.9373242986995
 10
831.6335611253849
 20
459.6207224315792
 10
834.6873667326184
 20
459.5155101427958
 10
837.9517787400262
 20
460.6728463276435
 10
839.4260299435995
 20
462.0406075941728
 10
841.8480136064445
 20
463.1979437790205
 10
844.1646931545804
 20
463.6187934382691
 10
846.0601589877461
 20
463.8292180158361
  0
LWPOLYLINE
  5
D9
330
1F
100
AcDbEntity
  8
Drawing
100
AcDbPolyline
 90
       12
 70
     1
 43
0.0
 10
825.7365581403359
 20
463.6187934382691
 10
824.683521566355
 20
462.8823064085553
 10
825.3153435107436
 20
461.7249702237077
 10
825.9471645405099
 20
461.304120564459
 10
826.6842905996077
 20
460.778058616427
 10
828.1585408885588
 20
460.778058616427
 10
829.8433994069283
 20
461.6197579349242
 10
830.1593099218114
 20
462.6718818309884
 10
830.4752213513169
 20
463.6187934382691
 10
830.5805245514039
 20
464.6709173343334
 10
828.6850596328603
 20
464.7761296231168
 10
826.4736832848115
 20
463.9344303046196
  0
LWPOLYLINE
  5
DA
330
1F
100
AcDbEntity
  8
Drawing
100
AcDbPolyline
 90
        5
 70
     1
 43
0.0
 10
820.0501615554609
 20
462.6718818309884
 10
821.4191086443251
 20
462.6718818309884
 10
821.4191086443251
 20
463.1979437790205
 10
820.2607688702572
 20
463.5135806453709
 10
819.6289469258686
 20
463.303156067804
  0
LWPOLYLINE
  5
DB
330
1F
100
AcDbEntity
  8
Drawing
100
AcDbPolyline
 90
        6
 70
     1
 43
0.0
 10
816.6804454333442
 20
460.4624212459618
 10
817.522874692529
 20
460.6728463276435
 10
817.522874692529
 20
461.304120564459
 10
816.7857486334311
 20
461.1989082756755
 10
816.0486234889556
 20
461.093695986892
 10
816.8910527481403
 20
460.56763403886
  0
LWPOLYLINE
  5
DC
330
1F
100
AcDbEntity
  8
Drawing
100
AcDbPolyline
 90
        5
 70
     1
 43
0.0
 10
814.6796764000915
 20
462.6718818309884
 10
815.6274088593632
 20
462.9875186973388
 10
815.416801544567
 20
463.6187934382691
 10
814.258461770499
 20
463.6187934382691
 10
814.258461770499
 20
462.8823064085553
  0
LWPOLYLINE
  5
DD
330
1F
100
AcDbEntity
  8
Drawing
100
AcDbPolyline
 90
       12
 70
     1
 43
0.0
 10
802.464454885779
 20
461.7249702237077
 10
803.728097859934
 20
461.6197579349242
 10
804.2546166042356
 20
462.2510321717398
 10
803.8334019746432
 20
462.9875186973388
 10
803.728097859934
 20
463.8292180158361
 10
802.6750622005752
 20
464.4604922526516
 10
801.4114183117981
 20
464.4604922526516
 10
800.1477744230209
 20
464.4604922526516
 10
799.7265597934286
 20
464.2500676750847
 10
799.4106492785454
 20
463.6187934382691
 10
799.8318639081377
 20
462.9875186973388
 10
800.5689890526133
 20
462.6718818309884
  0
LWPOLYLINE
  5
DE
330
1F
100
AcDbEntity
  8
Drawing
100
AcDbPolyline
 90
       10
 70
     1
 43
0.0
 10
805.7288668931867
 20
459.4102973498975
 10
807.3084222114692
 20
459.8311470091462
 10
807.097814896673
 20
460.778058616427
 10
805.9394742079828
 20
461.5145451420259
 10
804.8864385486241
 20
461.6197579349242
 10
803.6227946598469
 20
461.6197579349242
 10
803.0962768301677
 20
461.5145451420259
 10
802.464454885779
 20
461.5145451420259
 10
802.2538475709829
 20
461.304120564459
 10
803.4121873450508
 20
460.4624212459618
  0
MTEXT
  5
E5
330
1F
100
AcDbEntity
  8
Drawing
100
AcDbMText
 10
897.8768360766157
 20
465.2654174042921
 30
0.0
 40
3.5
 41
0.0
 46
0.0
 71
     1
 72
     5
  1
{\fArial|b0|i0|c0|p34;5.62}
  7
verdana
 73
     1
 44
1.0
  0
LWPOLYLINE
  5
E6
330
1F
100
AcDbEntity
  8
Drawing
100
AcDbPolyline
 90
        3
 70
     0
 43
0.0
 10
899.77458755071
 20
459.1998727723307
 10
900.7223200099817
 20
461.4093328532425
 10
901.8806597840497
 20
459.4102973498975
  0
LWPOLYLINE
  5
E7
330
1F
100
AcDbEntity
  8
Drawing
100
AcDbPolyline
 90
       41
 70
     1
 43
0.0
 10
889.8760455845335
 20
470.4575987626865
 10
892.1927260472916
 20
471.4045103699673
 10
894.7200129102235
 20
472.9826962140636
 10
896.9313892582726
 20
474.8765189245103
 10
898.6162468620199
 20
476.9807672207535
 10
901.3541419543702
 20
479.5058641680157
 10
904.4079475616039
 20
480.9788377233285
 10
908.3041815134003
 20
482.346598989858
 10
911.3579871206338
 20
482.87266093789
 10
914.2011854130714
 20
482.7674486491065
 10
915.3595251871392
 20
482.7674486491065
 10
916.9390795907997
 20
481.5048996713606
 10
919.8875810833241
 20
477.612041457569
 10
922.4148688608783
 20
473.087908502847
 10
923.2572972054408
 20
469.7211117329726
 10
923.4679045202371
 20
465.828253519181
 10
922.8360825758485
 20
462.566669542205
 10
921.0459208573919
 20
458.1477488762664
 10
919.5716705684409
 20
455.2018017656407
 10
916.8337754760904
 20
452.7819171071619
 10
914.0958812983621
 20
450.4672442333518
 10
910.9367724910416
 20
449.7307577077528
 10
905.1450727060795
 20
448.8890583892555
 10
901.4594451544573
 20
448.0473590707582
 10
898.1950331470497
 20
447.1004474634775
 10
896.4048714285931
 20
446.4691732266619
 10
892.8245470770579
 20
445.5222616193811
 10
891.2449926733976
 20
445.7326867010628
 10
889.6654382697374
 20
446.258748649095
 10
888.1911879807861
 20
446.258748649095
 10
884.8214709440471
 20
447.8369344931913
 10
882.7153987107074
 20
449.4151203372876
 10
881.8729694515226
 20
450.9933061813839
 10
881.8729694515226
 20
453.518403632761
 10
881.8729694515226
 20
456.043501084138
 10
881.7676662514357
 20
457.7268992170177
 10
882.7153987107074
 20
460.9884831939938
 10
882.7153987107074
 20
463.4083683565874
 10
884.2949531143678
 20
466.8803774152452
 10
886.8222399772998
 20
469.1950497849406
 10
889.3495277548542
 20
470.5628110514699
  0
LWPOLYLINE
  5
E8
330
1F
100
AcDbEntity
  8
Drawing
100
AcDbPolyline
 90
        6
 70
     1
 43
0.0
 10
903.6708215025061
 20
474.7713066357268
 10
904.3026434468949
 20
474.4556697693764
 10
904.8291612765742
 20
475.086944006192
 10
904.618553961778
 20
475.9286433246892
 10
903.3549109876229
 20
475.5077936654405
 10
903.3549109876229
 20
475.1921562949755
  0
LWPOLYLINE
  5
E9
330
1F
100
AcDbEntity
  8
Drawing
100
AcDbPolyline
 90
        8
 70
     1
 43
0.0
 10
913.5693634686828
 20
473.4035458733122
 10
913.5693634686828
 20
472.3514219772479
 10
915.0436137576338
 20
472.0357846067828
 10
915.9913471315277
 20
471.9305723179993
 10
916.2019544463241
 20
472.0357846067828
 10
916.4125617611202
 20
472.2462091843497
 10
915.0436137576338
 20
473.5087581620957
 10
913.885273983566
 20
473.7191827396625
  0
LWPOLYLINE
  5
EA
330
1F
100
AcDbEntity
  8
Drawing
100
AcDbPolyline
 90
        6
 70
     1
 43
0.0
 10
915.2542210724301
 20
473.298333080414
 10
915.9913471315277
 20
473.1931207916305
 10
916.3072576464109
 20
473.4035458733122
 10
916.0966503316148
 20
474.0348201101277
 10
915.5701325019355
 20
474.4556697693764
 10
915.0436137576338
 20
473.824395028446
  0
LWPOLYLINE
  5
EB
330
1F
100
AcDbEntity
  8
Drawing
100
AcDbPolyline
 90
       10
 70
     1
 43
0.0
 10
914.7277032427506
 20
466.7751651264617
 10
915.4648283872262
 20
465.7230412303976
 10
916.0966503316148
 20
465.1969792823654
 10
917.3602942203919
 20
464.8813419119002
 10
917.3602942203919
 20
466.038678096748
 10
916.8337754760904
 20
467.0908019928121
 10
915.8860430168187
 20
467.9325013113095
 10
915.2542210724301
 20
468.1429258888763
 10
914.4117927278675
 20
467.827289022526
 10
914.4117927278675
 20
467.3012270744939
  0
LWPOLYLINE
  5
EC
330
1F
100
AcDbEntity
  8
Drawing
100
AcDbPolyline
 90
        8
 70
     1
 43
0.0
 10
918.4133307943729
 20
463.092731490237
 10
917.8868120500714
 20
462.2510321717398
 10
917.8868120500714
 20
461.7249702237077
 10
918.729241309256
 20
461.5145451420259
 10
919.2557591389356
 20
462.0406075941728
 10
919.782277883237
 20
462.9875186973388
 10
918.729241309256
 20
463.4083683565874
 10
918.51863399446
 20
463.1979437790205
  0
LWPOLYLINE
  5
ED
330
1F
100
AcDbEntity
  8
Drawing
100
AcDbPolyline
 90
        4
 70
     1
 43
0.0
 10
911.8845049503133
 20
468.0377136000928
 10
911.9898090650223
 20
468.7742006298067
 10
911.2526830059247
 20
468.563775548125
 10
911.3579871206338
 20
468.2481386817747
  0
LWPOLYLINE
  5
EE
330
1F
100
AcDbEntity
  8
Drawing
100
AcDbPolyline
 90
        5
 70
     1
 43
0.0
 10
915.9913471315277
 20
462.566669542205
 10
916.4125617611202
 20
463.4083683565874
 10
915.8860430168187
 20
463.6187934382691
 10
915.5701325019355
 20
463.303156067804
 10
915.5701325019355
 20
462.8823064085553
  0
LWPOLYLINE
  5
EF
330
1F
100
AcDbEntity
  8
Drawing
100
AcDbPolyline
 90
        6
 70
     1
 43
0.0
 10
915.9913471315277
 20
454.1496778695765
 10
916.6231690759165
 20
454.7809521063921
 10
916.6231690759165
 20
455.7278637136728
 10
916.3072576464109
 20
455.9382887953545
 10
915.6754357020224
 20
455.3070140544241
 10
915.8860430168187
 20
454.1496778695765
  0
LWPOLYLINE
  5
F0
330
1F
100
AcDbEntity
  8
Drawing
100
AcDbPolyline
 90
        7
 70
     1
 43
0.0
 10
896.4048714285931
 20
472.7722711323818
 10
897.0366924583594
 20
473.298333080414
 10
897.0366924583594
 20
473.824395028446
 10
897.0366924583594
 20
473.9296078213442
 10
895.9836567990009
 20
473.6139704508792
 10
895.8783526842916
 20
473.087908502847
 10
895.9836567990009
 20
472.5618465548149
  0
LWPOLYLINE
  5
F1
330
1F
100
AcDbEntity
  8
Drawing
100
AcDbPolyline
 90
        3
 70
     1
 43
0.0
 10
898.5109436619329
 20
476.8755544278551
 10
898.5109436619329
 20
475.5077936654405
 10
897.7738185174572
 20
475.7182182430075
  0
LWPOLYLINE
  5
F2
330
1F
100
AcDbEntity
  8
Drawing
100
AcDbPolyline
 90
        3
 70
     1
 43
0.0
 10
911.7792017502262
 20
482.87266093789
 10
912.5163268947018
 20
481.5048996713606
 10
913.4640593539735
 20
482.5570235674248
  0
LWPOLYLINE
  5
F3
330
1F
100
AcDbEntity
  8
Drawing
100
AcDbPolyline
 90
        3
 70
     1
 43
0.0
 10
917.6762047352751
 20
455.4122268473225
 10
919.0451518241392
 20
454.9913771880738
 10
917.9921161647804
 20
453.6236159215445
  0
LWPOLYLINE
  5
F4
330
1F
100
AcDbEntity
  8
Drawing
100
AcDbPolyline
 90
        3
 70
     1
 43
0.0
 10
906.1981092800605
 20
449.2046957597207
 10
904.8291612765742
 20
450.3620319445683
 10
904.3026434468949
 20
448.5734210187903
  0
LWPOLYLINE
  5
F5
330
1F
100
AcDbEntity
  8
Drawing
100
AcDbPolyline
 90
        3
 70
     1
 43
0.0
 10
895.5624421694084
 20
446.3639609378784
 10
894.6147087955145
 20
447.5212971227261
 10
893.9828877657482
 20
445.8378989898463
  0
LWPOLYLINE
  5
F6
330
1F
100
AcDbEntity
  8
Drawing
100
AcDbPolyline
 90
        3
 70
     1
 43
0.0
 10
881.6623621367264
 20
452.9923416847288
 10
883.2419165403868
 20
453.9392532920095
 10
882.0835767663189
 20
455.2018017656407
  0
LWPOLYLINE
  5
F7
330
1F
100
AcDbEntity
  8
Drawing
100
AcDbPolyline
 90
        3
 70
     1
 43
0.0
 10
883.9790425994846
 20
466.038678096748
 10
884.8214709440471
 20
464.6709173343334
 10
883.1366133402998
 20
464.1448553863013
  0
HATCH
  5
114
330
1F
100
AcDbEntity
  8
Drawing
 62
     1
100
AcDbHatch
 10
0.0
 20
0.0
 30
0.0
210
0.0
220
0.0
230
1.0
  2
SOLID
 70
     1
 71
     0
 91
        7
 92
        7
 72
     0
 73
     1
 93
        4
 10
898.5109436619327
 20
476.8492522019893
 10
898.4290434954112
 20
476.7469656434804
 10
897.7738185174574
 20
475.7182182430076
 10
898.5109436619329
 20
475.5077936654407
 97
        0
 92
        7
 72
     0
 73
     1
 93
        4
 10
913.4640593539734
 20
482.5570235674248
 10
911.8828850956411
 20
482.8532371370686
 10
911.7877729644647
 20
482.8567567526503
 10
912.5163268947019
 20
481.5048996713606
 97
        0
 92
        7
 72
     0
 73
     1
 93
        4
 10
919.0451518241391
 20
454.9913771880738
 10
917.6762047352752
 20
455.4122268473225
 10
917.9642960965087
 20
453.7811261393443
 10
918.4308812863846
 20
454.1935167915677
 97
        0
 92
        7
 72
     0
 73
     1
 93
        5
 10
906.1981092800604
 20
449.2046957597207
 10
904.829161276574
 20
450.3620319445682
 10
904.3415393917277
 20
448.7055527491422
 10
905.1450727060792
 20
448.8890583892554
 10
905.3319017521665
 20
448.9162099831926
 97
        0
 92
        7
 72
     0
 73
     1
 93
        3
 10
894.6147087955145
 20
447.521297122726
 10
893.9828877657482
 20
445.8378989898463
 10
895.5624421694082
 20
446.3639609378784
 97
        0
 92
        7
 72
     0
 73
     1
 93
        5
 10
882.0835767663189
 20
455.2018017656406
 10
881.8729694515226
 20
454.0970717251846
 10
881.8729694515226
 20
453.518403632761
 10
881.8729694515227
 20
453.1185966022529
 10
883.2419165403868
 20
453.9392532920095
 97
        0
 92
        7
 72
     0
 73
     1
 93
        3
 10
883.9790425994845
 20
466.0386780967477
 10
883.1366133402998
 20
464.1448553863012
 10
884.821470944047
 20
464.6709173343334
 97
        0
 75
     0
 76
     1
 47
0.105212390968893
 98
        7
 10
898.0897290323404
 20
475.9286433246892
 10
912.5163268947018
 20
482.136174412291
 10
918.2027234795768
 20
454.7809521063921
 10
905.2503759061666
 20
449.2046957597207
 10
894.7200129102235
 20
446.5743855154453
 10
882.2941840811151
 20
454.044465580793
 10
883.8737384847753
 20
464.9865542006837
450
        1
451
        0
460
0.0
461
0.0
452
        1
462
0.5400000214576721
453
        2
463
0.0
 63
     1
421
 16711680
463
1.0
 63
     1
421
 16716820
470
LINEAR
  0
LWPOLYLINE
  5
115
330
1F
100
AcDbEntity
  8
Drawing
100
AcDbPolyline
 90
        2
 70
     0
 43
0.0
 10
912.5163268947018
 20
481.3996873825772
 10
911.4632903207208
 20
473.298333080414
  0
LWPOLYLINE
  5
116
330
1F
100
AcDbEntity
  8
Drawing
100
AcDbPolyline
 90
        2
 70
     0
 43
0.0
 10
898.721550976729
 20
475.5077936654405
 10
903.3549109876229
 20
469.826324525871
  0
LWPOLYLINE
  5
117
330
1F
100
AcDbEntity
  8
Drawing
100
AcDbPolyline
 90
        2
 70
     0
 43
0.0
 10
884.610863629251
 20
464.6709173343334
 10
891.3502967881069
 20
463.4083683565874
  0
LWPOLYLINE
  5
118
330
1F
100
AcDbEntity
  8
Drawing
100
AcDbPolyline
 90
        2
 70
     0
 43
0.0
 10
883.452523855183
 20
453.8340410032262
 10
889.8760455845335
 20
456.043501084138
  0
LWPOLYLINE
  5
119
330
1F
100
AcDbEntity
  8
Drawing
100
AcDbPolyline
 90
        2
 70
     0
 43
0.0
 10
894.6147087955145
 20
447.4160848339426
 10
894.2987982806313
 20
454.044465580793
  0
LWPOLYLINE
  5
11A
330
1F
100
AcDbEntity
  8
Drawing
100
AcDbPolyline
 90
        2
 70
     0
 43
0.0
 10
904.9344653912834
 20
450.3620319445683
 10
903.1443036728268
 20
456.2539256617049
  0
LWPOLYLINE
  5
11B
330
1F
100
AcDbEntity
  8
Drawing
100
AcDbPolyline
 90
        2
 70
     0
 43
0.0
 10
917.5709015351882
 20
455.5174391361058
 10
915.0436137576338
 20
459.1998727723307
  0
MTEXT
  5
16D
330
1F
100
AcDbEntity
  8
Drawing
100
AcDbMText
 10
729.3551164883553
 20
478.3690850860322
 30
0.0
 40
3.5
 41
0.0
 46
0.0
 71
     1
 72
     5
  1
{\fArial|b0|i0|c0|p34;Fill 1050}
  7
verdana
 73
     1
 44
1.0
  0
HATCH
  5
244
330
1F
100
AcDbEntity
  8
Drawing
 62
     1
100
AcDbHatch
 10
0.0
 20
0.0
 30
0.0
210
0.0
220
0.0
230
1.0
  2
SOLID
 70
     1
 71
     0
 91
        2
 92
       23
 72
     0
 73
     1
 93
        8
 10
741.9504735873832
 20
419.0733559418991
 10
741.349232331723
 20
420.3749197783704
 10
740.1467458302702
 20
419.9744380903979
 10
738.9442633189508
 20
418.3725157370127
 10
739.3450921527691
 20
418.0721550208434
 10
739.8461252024407
 20
417.6716733328735
 10
740.9484034979063
 20
417.6716733328736
 10
741.9504735873832
 20
417.77179430468
 97
        0
 92
        5
 93
       47
 72
     1
 10
730.4266651821807
 20
415.969629626207
 11
731.0279068189842
 21
415.3689085753495
 72
     1
 10
731.0279068189842
 20
415.3689085753495
 11
731.0279155459344
 21
415.3689013091944
 72
     1
 10
731.0279155459344
 20
415.3689013091944
 11
730.4266655633253
 21
415.969630007682
 72
     1
 10
730.4266655633253
 20
415.969630007682
 11
730.4266651821807
 21
415.969629626207
 72
     1
 10
730.4266651821807
 20
415.969629626207
 11
728.8233542181873
 21
417.5715523610673
 72
     1
 10
728.8233542181873
 20
417.5715523610673
 11
728.8233527993186
 21
417.5715542149028
 72
     1
 10
728.8233527993186
 20
417.5715542149028
 11
728.1219047565403
 21
418.2723947652058
 72
     1
 10
728.1219047565403
 20
418.2723947652058
 11
726.2179687934391
 21
421.0757599832569
 72
     1
 10
726.2179687934391
 20
421.0757599832569
 11
726.1177645775854
 21
421.1758809550632
 72
     1
 10
726.1177645775854
 20
421.1758809550632
 11
727.0196264610752
 21
420.7753992670903
 72
     1
 10
727.0196264610752
 20
420.7753992670903
 11
727.8212841287101
 21
420.074559062204
 72
     1
 10
727.8212841287101
 20
420.074559062204
 11
728.6229378062126
 21
418.8731161975385
 72
     1
 10
728.6229378062126
 20
418.8731161975385
 11
729.9256285235194
 21
417.5715523610674
 72
     1
 10
729.9256285235194
 20
417.5715523610674
 11
731.8295644866201
 21
415.6692692915155
 72
     1
 10
731.8295644866201
 20
415.6692692915155
 11
732.3579285894806
 21
414.2615178121712
 72
     1
 10
732.3579285894806
 20
414.2615178121712
 11
732.8316345760973
 21
413.8671049945178
 72
     1
 10
732.8316345760973
 20
413.8671049945178
 11
734.4349459212357
 21
413.5667442783513
 72
     1
 10
734.4349459212357
 20
413.5667442783513
 11
736.940123139997
 21
413.4666255057977
 72
     1
 10
736.940123139997
 20
413.4666255057977
 11
737.8419850234856
 21
413.4666255057977
 72
     1
 10
737.8419850234856
 20
413.4666255057977
 11
739.645712780598
 21
414.5679473986571
 72
     1
 10
739.645712780598
 20
414.5679473986571
 11
741.3492323317231
 21
416.3701116956545
 72
     1
 10
741.3492323317231
 20
416.3701116956545
 11
741.950473587383
 21
417.77179430468
 72
     1
 10
741.950473587383
 20
417.77179430468
 11
740.9484034979058
 21
417.6716733328735
 72
     1
 10
740.9484034979058
 20
417.6716733328735
 11
739.8461252024405
 21
417.6716733328734
 72
     1
 10
739.8461252024405
 20
417.6716733328734
 11
739.3450921527683
 21
418.0721550208491
 72
     1
 10
739.3450921527683
 20
418.0721550208491
 11
738.9442633189508
 21
418.3725157370127
 72
     1
 10
738.9442633189508
 20
418.3725157370127
 11
740.1467458302703
 21
419.974438090398
 72
     1
 10
740.1467458302703
 20
419.974438090398
 11
741.3492323317231
 21
420.3749197783704
 72
     1
 10
741.3492323317231
 20
420.3749197783704
 11
741.9504735873832
 21
419.0733559418991
 72
     1
 10
741.9504735873832
 20
419.0733559418991
 11
741.950473587383
 21
417.7717943046798
 72
     1
 10
741.950473587383
 20
417.7717943046798
 11
741.3492323317229
 21
416.3701116956544
 72
     1
 10
741.3492323317229
 20
416.3701116956544
 11
739.6457127805978
 21
414.567947398657
 72
     1
 10
739.6457127805978
 20
414.567947398657
 11
737.8419850234857
 21
413.4666255057977
 72
     1
 10
737.8419850234857
 20
413.4666255057977
 11
736.9401231399946
 21
413.4666255057977
 72
     1
 10
736.9401231399946
 20
413.4666255057977
 11
734.4349459212353
 21
413.5667442783515
 72
     1
 10
734.4349459212353
 20
413.5667442783515
 11
732.8316345760976
 21
413.8671049945178
 72
     1
 10
732.8316345760976
 20
413.8671049945178
 11
732.3579285894805
 21
414.2615178121715
 72
     1
 10
732.3579285894805
 20
414.2615178121715
 11
732.4308057422803
 21
414.0673469381301
 72
     1
 10
732.4308057422803
 20
414.0673469381301
 11
731.8295644866195
 21
414.5679473986581
 72
     1
 10
731.8295644866195
 20
414.5679473986581
 11
731.0279155459361
 21
415.3689013091925
 72
     1
 10
731.0279155459361
 20
415.3689013091925
 11
731.0279068189845
 21
415.3689085753485
 72
     1
 10
731.0279068189845
 20
415.3689085753485
 11
728.8233542181877
 21
417.5715523610674
 72
     1
 10
728.8233542181877
 20
417.5715523610674
 11
728.8233544362852
 21
417.5715525793539
 72
     1
 10
728.8233544362852
 20
417.5715525793539
 11
728.8233527993185
 21
417.5715542149023
 72
     1
 10
728.8233527993185
 20
417.5715542149023
 11
728.823354218187
 21
417.571552361068
 72
     1
 10
728.823354218187
 20
417.571552361068
 11
728.8233544362845
 21
417.5715525793546
 72
     1
 10
728.8233544362845
 20
417.5715525793546
 11
730.4266655633253
 21
415.969630007682
 97
        0
 75
     0
 76
     1
 47
0.1001201990959342
 98
        2
 10
740.848195291918
 20
418.5727554813724
 10
729.9256285235194
 20
416.870712156181
450
        1
451
        0
460
0.0
461
0.0
452
        1
462
0.550000011920929
453
        2
463
0.0
 63
     1
421
 16711680
463
1.0
 63
     1
421
 16718362
470
LINEAR
  0
LWPOLYLINE
  5
247
330
1F
100
AcDbEntity
  8
Drawing
100
AcDbPolyline
 90
       11
 70
     1
 43
0.0
 10
726.2179687934392
 20
421.0757599832568
 10
728.1219047565398
 20
418.2723947652061
 10
730.4266655633253
 20
415.969630007682
 10
731.82956448662
 20
414.5679473986569
 10
732.4308057422802
 20
414.0673469381304
 10
731.82956448662
 20
415.6692692915157
 10
729.9256285235194
 20
417.5715523610674
 10
728.6229378062123
 20
418.8731161975388
 10
727.8212841287102
 20
420.0745590622041
 10
727.0196264610747
 20
420.7753992670904
 10
726.1177645775849
 20
421.1758809550633
  0
LWPOLYLINE
  5
248
330
1F
100
AcDbEntity
  8
Drawing
100
AcDbPolyline
 90
       14
 70
     0
 43
0.0
 10
724.11362439863
 20
421.0757599832568
 10
726.2179687934392
 20
420.975641210703
 10
728.8233542181877
 20
417.5715523610674
 10
731.0279068189845
 20
415.3689085753494
 10
732.8316345760975
 20
413.8671049945178
 10
734.4349459212351
 20
413.5667442783515
 10
736.9401231399959
 20
413.4666255057977
 10
737.8419850234857
 20
413.4666255057977
 10
739.6457127805977
 20
414.5679473986569
 10
741.349232331723
 20
416.3701116956544
 10
741.9504735873832
 20
417.77179430468
 10
742.1508860092251
 20
419.1734769137051
 10
741.4494405377106
 20
420.5751595227306
 10
740.7479910760637
 20
421.0757599832568
  0
LWPOLYLINE
  5
249
330
1F
100
AcDbEntity
  8
Drawing
 48
0.25
100
AcDbPolyline
 90
        2
 70
     0
 43
0.0
 10
721.4113765843113
 20
421.4027027122298
 10
744.496089815118
 20
421.4027027122298
  0
LWPOLYLINE
  5
24A
330
1F
100
AcDbEntity
  8
Drawing
100
AcDbPolyline
 90
        2
 70
     0
 43
0.0
 10
736.8399149340073
 20
415.3689085753494
 10
742.1508860092251
 20
411.3641004926334
  0
LWPOLYLINE
  5
24B
330
1F
100
AcDbEntity
  8
Drawing
100
AcDbPolyline
 90
        4
 70
     0
 43
0.0
 10
736.1384654723604
 20
417.1710728723473
 10
735.4370160107126
 20
416.0697509794881
 10
736.1384654723604
 20
417.0709519005408
 10
736.8399149340073
 20
415.969630007682
  0
LWPOLYLINE
  5
24C
330
1F
100
AcDbEntity
  8
Drawing
100
AcDbPolyline
 90
        8
 70
     1
 43
0.0
 10
733.9339128715626
 20
414.668068370463
 10
734.8357747550524
 20
414.1674657106841
 10
735.6374324226879
 20
414.5679473986569
 10
735.6374324226879
 20
415.1686688309891
 10
734.8357747550524
 20
415.6692692915157
 10
733.9339128715626
 20
415.6692692915157
 10
733.4328758317577
 20
415.4690295471555
 10
733.4328758317577
 20
414.668068370463
  0
LWPOLYLINE
  5
24D
330
1F
100
AcDbEntity
  8
Drawing
100
AcDbPolyline
 90
        5
 70
     1
 43
0.0
 10
738.6436426911202
 20
414.2675866824906
 10
738.042401435461
 20
415.1686688309891
 10
739.1446757407928
 20
415.6692692915157
 10
740.1467458302702
 20
415.5691483197092
 10
740.0465416144159
 20
415.0685478591831
  0
MTEXT
  5
24E
330
1F
100
AcDbEntity
  8
Drawing
100
AcDbMText
 10
743.2712644595368
 20
411.990876650154
 30
0.0
 40
3.5
 41
0.0
 46
0.0
 71
     1
 72
     5
  1
{\fArial|b0|i0|c0|p34;5.86}
  7
verdana
 73
     1
 44
1.0
  0
HATCH
  5
251
330
1F
100
AcDbEntity
  8
Drawing
 62
     1
100
AcDbHatch
 10
0.0
 20
0.0
 30
0.0
210
0.0
220
0.0
230
1.0
  2
SOLID
 70
     1
 71
     1
 91
        1
 92
        7
 72
     0
 73
     1
 93
        8
 10
740.9484034979059
 20
417.6716733328735
 10
741.9504735873832
 20
417.77179430468
 10
741.9504735873832
 20
419.0733559418992
 10
741.3492323317231
 20
420.3749197783704
 10
740.1467458302701
 20
419.9744380903979
 10
738.9442633189509
 20
418.3725157370127
 10
739.3450921527696
 20
418.0721550208447
 10
739.8461252024404
 20
417.6716733328735
 97
        1
330
254
 75
     0
 76
     1
 47
0.1001201990959342
 98
        1
 10
740.2469540362579
 20
418.5727554813724
450
        1
451
        0
460
0.0
461
0.0
452
        1
462
0.550000011920929
453
        2
463
0.0
 63
     1
421
 16711680
463
1.0
 63
     1
421
 16718362
470
LINEAR
  0
LWPOLYLINE
  5
254
102
{ACAD_REACTORS
330
251
102
}
330
1F
100
AcDbEntity
  8
Drawing
100
AcDbPolyline
 90
        8
 70
     1
 43
0.0
 10
738.9442633189508
 20
418.3725157370126
 10
740.1467458302702
 20
419.974438090398
 10
741.349232331723
 20
420.3749197783704
 10
741.9504735873832
 20
419.073355941899
 10
741.9504735873832
 20
417.77179430468
 10
740.9484034979057
 20
417.6716733328735
 10
739.8461252024406
 20
417.6716733328735
 10
739.3450921527681
 20
418.0721550208463
  0
LWPOLYLINE
  5
255
330
1F
100
AcDbEntity
  8
Drawing
100
AcDbPolyline
 90
        9
 70
     1
 43
0.0
 10
736.3388818843357
 20
418.4726345095664
 10
737.5413643956551
 20
420.0745590622041
 10
737.5413643956551
 20
420.5751595227306
 10
736.8399149340073
 20
421.4762416712296
 10
736.238673678348
 20
421.4762416712296
 10
735.1363953828829
 20
419.7741983460377
 10
734.8357747550524
 20
418.9732371693453
 10
734.8357747550524
 20
418.3725157370126
 10
735.8378448445299
 20
418.1722737934001
  0
MTEXT
  5
256
330
1F
100
AcDbEntity
  8
Drawing
100
AcDbMText
 10
805.4800351325677
 20
408.5867899997707
 30
0.0
 40
3.5
 41
0.0
 46
0.0
 71
     1
 72
     5
  1
{\fArial|b0|i0|c0|p34;5.48}
  7
verdana
 73
     1
 44
1.0
  0
MTEXT
  5
257
330
1F
100
AcDbEntity
  8
Drawing
100
AcDbMText
 10
815.9015688512937
 20
407.9860685674381
 30
0.0
 40
3.5
 41
0.0
 46
0.0
 71
     1
 72
     5
  1
{\fArial|b0|i0|c0|p34;P}
  7
verdana
 73
     1
 44
1.0
  0
LWPOLYLINE
  5
259
330
1F
100
AcDbEntity
  8
Drawing
100
AcDbPolyline
 90
        3
 70
     0
 43
0.0
 10
807.9671121964818
 20
404.1554455038944
 10
808.9691822859593
 20
405.4570093403658
 10
810.071456591291
 20
404.0553267313407
  0
HATCH
  5
25A
330
1F
100
AcDbEntity
  8
Drawing
 62
     1
100
AcDbHatch
 10
0.0
 20
0.0
 30
0.0
210
0.0
220
0.0
230
1.0
  2
SOLID
 70
     1
 71
     1
 91
        1
 92
        7
 72
     0
 73
     1
 93
       13
 10
815.7832604904594
 20
413.666865250158
 10
817.0859512077664
 20
412.865904073465
 10
817.7874006694145
 20
412.8659040734651
 10
818.4288678406838
 20
413.5780281075963
 10
819.1392112897569
 20
415.3846144269855
 10
817.8876048852687
 20
415.7693902633219
 10
817.3865718355972
 20
416.6704724118208
 10
817.8876048852686
 20
417.1710728723473
 10
817.2863636296096
 20
417.77179430468
 10
816.2842935401319
 20
417.4714335885137
 10
816.1840853341433
 20
417.2711916449012
 10
815.1820152446661
 20
416.169869752042
 10
815.48263986263
 20
414.5679473986571
 97
        2
330
25E
330
25F
 75
     0
 76
     1
 47
0.0702971586283603
 98
        1
 10
816.7495191341802
 20
414.6514134309904
450
        1
451
        0
460
0.0
461
0.0
452
        1
462
0.550000011920929
453
        2
463
0.0
 63
     1
421
 16711680
463
1.0
 63
     1
421
 16718362
470
LINEAR
  0
LWPOLYLINE
  5
25D
330
1F
100
AcDbEntity
  8
Drawing
100
AcDbPolyline
 90
        7
 70
     1
 43
0.0
 10
814.4805697731524
 20
420.4750385509241
 10
815.3824316566422
 20
419.974438090398
 10
816.3845017461197
 20
419.4738376298714
 10
816.785330579937
 20
419.8743171185915
 10
816.785330579937
 20
420.975641210703
 10
814.8813946168364
 20
421.5763604437834
 10
814.6809821949944
 20
420.875520238897
  0
LWPOLYLINE
  5
25E
102
{ACAD_REACTORS
330
25A
102
}
330
1F
100
AcDbEntity
  8
Drawing
100
AcDbPolyline
 90
       13
 70
     1
 43
0.0
 10
816.1840853341434
 20
417.2711916449011
 10
815.182015244666
 20
416.1698697520418
 10
815.4826398626299
 20
414.5679473986569
 10
815.7832604904595
 20
413.666865250158
 10
817.0859512077666
 20
412.8659040734651
 10
817.7874006694144
 20
412.8659040734651
 10
818.6892625529042
 20
413.8671049945178
 10
819.1902995927101
 20
415.3689085753494
 10
817.8876048852687
 20
415.7693902633218
 10
817.3865718355971
 20
416.6704724118208
 10
817.8876048852687
 20
417.1710728723473
 10
817.2863636296095
 20
417.77179430468
 10
816.284293540132
 20
417.4714335885137
  0
LWPOLYLINE
  5
25F
102
{ACAD_REACTORS
330
25A
102
}
330
1F
100
AcDbEntity
  8
Drawing
100
AcDbPolyline
 90
       22
 70
     0
 43
0.0
 10
796.2428877604477
 20
426.0817711862782
 10
797.946407311573
 20
425.7814104701119
 10
799.3493062348678
 20
426.0817711862782
 10
799.8503432746736
 20
423.4786457125874
 10
799.750135068686
 20
419.7741983460377
 10
799.750135068686
 20
416.7705911843745
 10
800.6519969521758
 20
414.4678264268504
 10
801.9546876694828
 20
413.1662647896314
 10
803.9588278484377
 20
412.2651826411324
 10
805.662347399563
 20
411.3641004926334
 10
808.1675246183238
 20
410.7633790603008
 10
810.9733224649142
 20
410.563139315941
 10
813.3782914776864
 20
411.3641004926334
 10
816.6851223739493
 20
412.2651826411324
 10
818.1882295032326
 20
412.9660228460188
 10
819.2905038085644
 20
415.7693902633218
 10
820.4929903100171
 20
418.672876453179
 10
820.5931985160048
 20
419.6740773742317
 10
821.2946439875193
 20
422.5775635640884
 10
821.9960934491671
 20
424.2796068892803
 10
822.0963016551548
 20
426.0817711862782
 10
824.9020995017452
 20
426.3821319024445
  0
MTEXT
  5
260
330
1F
100
AcDbEntity
  8
Drawing
100
AcDbMText
 10
786.0398706085435
 20
428.0101111802701
 30
0.0
 40
3.5
 41
0.0
 46
0.0
 71
     1
 72
     5
  1
{\fArial|b0|i0|c0|p34;N}
  7
verdana
 73
     1
 44
1.0
  0
LWPOLYLINE
  5
261
330
1F
100
AcDbEntity
  8
Drawing
100
AcDbPolyline
 90
        2
 70
     0
 43
0.0
 10
792.4350198243799
 20
417.77179430468
 10
799.2490980288801
 20
417.4714335885137
  0
MTEXT
  5
263
330
1F
100
AcDbEntity
  8
Drawing
100
AcDbMText
 10
784.2848361593402
 20
418.5201546832671
 30
0.0
 40
3.5
 41
0.0
 46
0.0
 71
     1
 72
     5
  1
{\fArial|b0|i0|c0|p34;P}
  7
verdana
 73
     1
 44
1.0
  0
LWPOLYLINE
  5
264
330
1F
100
AcDbEntity
  8
Drawing
100
AcDbPolyline
 90
       13
 70
     1
 43
0.0
 10
800.2511681183576
 20
419.7741983460377
 10
801.5538628257989
 20
419.974438090398
 10
801.5538628257989
 20
417.9720340490398
 10
801.9546876694828
 20
416.2699907238484
 10
802.856553543106
 20
415.1686688309891
 10
803.1571741709356
 20
414.2675866824906
 10
804.4598648882436
 20
413.4666255057977
 10
804.7604855160732
 20
412.765783101659
 10
804.359656682256
 20
412.6656643291053
 10
802.2553082973134
 20
413.8671049945178
 10
800.6519969521758
 20
415.4690295471555
 10
800.6519969521758
 20
417.6716733328735
 10
800.1509639025032
 20
419.5739564024252
  0
LWPOLYLINE
  5
265
330
1F
100
AcDbEntity
  8
Drawing
100
AcDbPolyline
 90
        5
 70
     1
 43
0.0
 10
806.4640050671985
 20
411.2639795208274
 10
806.8648339010158
 20
412.0649428967726
 10
806.5642132731862
 20
412.3653036129389
 10
805.5621431837087
 20
412.2651826411324
 10
805.7625556055507
 20
411.7645821806063
  0
LWPOLYLINE
  5
266
330
1F
100
AcDbEntity
  8
Drawing
100
AcDbPolyline
 90
        5
 70
     1
 43
0.0
 10
805.2615225558791
 20
414.2675866824906
 10
806.0631762333812
 20
413.666865250158
 10
806.4640050671985
 20
413.9672259663243
 10
806.1633844393689
 20
414.3677076542967
 10
805.5621431837087
 20
414.4678264268504
  0
LWPOLYLINE
  5
267
330
1F
100
AcDbEntity
  8
Drawing
100
AcDbPolyline
 90
        2
 70
     0
 43
0.0
 10
814.781190400982
 20
411.0637397764671
 10
815.5828440784842
 20
408.0601348140567
  0
LWPOLYLINE
  5
268
330
1F
100
AcDbEntity
  8
Drawing
100
AcDbPolyline
 90
        7
 70
     1
 43
0.0
 10
813.6789121055169
 20
411.9648219249661
 10
815.3824316566422
 20
412.3653036129389
 10
814.981602822824
 20
413.4666255057977
 10
814.1799451551885
 20
413.4666255057977
 10
813.1778750657111
 20
413.2663835621851
 10
812.4764256040642
 20
412.9660228460188
 10
813.1778750657111
 20
411.9648219249661
  0
LWPOLYLINE
  5
269
330
1F
100
AcDbEntity
  8
Drawing
100
AcDbPolyline
 90
        8
 70
     1
 43
0.0
 10
805.3617267717334
 20
422.2772028479221
 10
806.2635926453565
 20
422.0769631035623
 10
807.265662734834
 20
421.6764814155894
 10
807.265662734834
 20
422.4774425922823
 10
806.0631762333812
 20
422.8779242802547
 10
805.2615225558791
 20
423.2784037689748
 10
804.7604855160732
 20
423.2784037689748
 10
804.6602773100856
 20
422.7778033084487
  0
LWPOLYLINE
  5
26A
330
1F
100
AcDbEntity
  8
Drawing
100
AcDbPolyline
 90
        6
 70
     1
 43
0.0
 10
806.8648339010158
 20
425.1806890377792
 10
808.1675246183238
 20
425.5811685264993
 10
808.4681452461534
 20
426.0817711862782
 10
807.466075156676
 20
425.8815292426656
 10
806.0631762333812
 20
425.7814104701119
 10
806.0631762333812
 20
425.280807810333
  0
LWPOLYLINE
  5
26B
330
1F
100
AcDbEntity
  8
Drawing
100
AcDbPolyline
 90
        8
 70
     1
 43
0.0
 10
809.1695947078013
 20
420.4750385509241
 10
810.4722854251083
 20
420.0745590622041
 10
811.2739430927438
 20
419.7741983460377
 10
811.4743555145858
 20
419.8743171185915
 10
811.4743555145858
 20
420.1746778347578
 10
809.5704235416185
 20
421.275999727617
 10
808.9691822859593
 20
421.275999727617
 10
808.8689740799716
 20
420.875520238897
  0
LWPOLYLINE
  5
26C
330
1F
100
AcDbEntity
  8
Drawing
100
AcDbPolyline
 90
        9
 70
     1
 43
0.0
 10
809.1695947078013
 20
421.3761206994231
 10
810.071456591291
 20
420.975641210703
 10
810.8731142589265
 20
420.975641210703
 10
811.4743555145858
 20
421.3761206994231
 10
811.5745637205744
 20
421.9768421317557
 10
810.372081209254
 20
422.2772028479221
 10
809.6706317476062
 20
422.177081876116
 10
808.9691822859593
 20
422.177081876116
 10
809.0693865018136
 20
421.5763604437834
  0
MTEXT
  5
26D
330
1F
100
AcDbEntity
  8
Drawing
100
AcDbMText
 10
828.2270305528538
 20
428.0101111802701
 30
0.0
 40
3.5
 41
0.0
 46
0.0
 71
     1
 72
     5
  1
{\fArial|b0|i0|c0|p34;S}
  7
verdana
 73
     1
 44
1.0
  0
MTEXT
  5
26F
330
1F
100
AcDbEntity
  8
Drawing
100
AcDbMText
 10
825.7774159393485
 20
421.4302904916999
 30
0.0
 40
3.5
 41
0.0
 46
0.0
 71
     1
 72
     5
  1
{\fArial|b0|i0|c0|p34;C}
  7
verdana
 73
     1
 44
1.0
  0
LWPOLYLINE
  5
270
330
1F
100
AcDbEntity
  8
Drawing
100
AcDbPolyline
 90
        2
 70
     0
 43
0.0
 10
817.8876048852687
 20
421.275999727617
 10
824.000233628122
 20
422.5775635640884
  0
LWPOLYLINE
  5
271
330
1F
100
AcDbEntity
  8
Drawing
100
AcDbPolyline
 90
        6
 70
     1
 43
0.0
 10
819.9919532702122
 20
419.073355941899
 10
820.1923696821875
 20
419.974438090398
 10
820.6934027318591
 20
420.6752804945367
 10
819.2905038085644
 20
419.6740773742317
 10
819.2905038085644
 20
419.2735956862588
 10
819.6913326423817
 20
419.1734769137051
  0
MTEXT
  5
273
330
1F
100
AcDbEntity
  8
Drawing
100
AcDbMText
 10
894.7538564244827
 20
425.868400469563
 30
0.0
 40
3.5
 41
0.0
 46
0.0
 71
     1
 72
     5
  1
{\fArial|b0|i0|c0|p34;5.67}
  7
verdana
 73
     1
 44
1.0
  0
HATCH
  5
274
330
1F
100
AcDbEntity
  8
Drawing
 62
     1
100
AcDbHatch
 10
0.0
 20
0.0
 30
0.0
210
0.0
220
0.0
230
1.0
  2
SOLID
 70
     1
 71
     0
 91
        5
 92
        7
 72
     0
 73
     1
 93
        3
 10
908.1068873992758
 20
422.8058833648574
 10
907.4033032163486
 20
422.5246957323202
 10
907.9661673705838
 20
421.7514253443373
 97
        0
 92
        7
 72
     0
 73
     1
 93
        4
 10
907.1382583839395
 20
418.1518309069834
 10
907.1763747722724
 20
418.2381530029103
 10
906.488648965717
 20
418.3068658494916
 10
906.6997230235555
 20
417.4632985533746
 97
        0
 92
        7
 72
     0
 73
     1
 93
        3
 10
903.1818180694551
 20
414.3702235992004
 10
902.4078758672492
 20
415.0731948797966
 10
902.4078758672493
 20
414.0187390585288
 97
        0
 92
        7
 72
     0
 73
     1
 93
        3
 10
891.5023669184172
 20
417.5335954615088
 10
890.7284287063449
 20
417.3930016452401
 10
891.3616508798585
 20
416.4791396402411
 97
        0
 92
        7
 72
     0
 73
     1
 93
        4
 10
889.198895898107
 20
422.8645146729509
 10
889.180548292065
 20
422.7215270750904
 10
889.1805482920654
 20
421.8217222524718
 10
889.9544904942719
 20
422.3840997167989
 97
        0
 75
     0
 76
     1
 47
0.0702971586283619
 98
        5
 10
907.8958093513045
 20
422.384099716799
 10
906.6997230235554
 20
418.0959729258361
 10
902.689307944366
 20
414.299926691066
 10
891.2209348412996
 20
417.1821109208371
 10
889.321264330624
 20
422.4543988241857
450
        1
451
        0
460
0.0
461
0.0
452
        1
462
0.550000011920929
453
        2
463
0.0
 63
     1
421
 16711680
463
1.0
 63
     1
421
 16718362
470
LINEAR
  0
LWPOLYLINE
  5
277
330
1F
100
AcDbEntity
  8
Drawing
100
AcDbPolyline
 90
       23
 70
     0
 43
0.0
 10
891.4320088991378
 20
427.2346039720891
 10
889.4619803691828
 20
424.914799405898
 10
889.1101902727867
 20
422.1732089923957
 10
889.2509063113446
 20
419.9939960432211
 10
889.7434164364338
 20
418.5880534820289
 10
891.2209348412996
 20
416.5494365483755
 10
891.9245150340937
 20
415.7058692522582
 10
892.4873831784614
 20
414.4405205073348
 10
894.1759756411655
 20
413.8078461348732
 10
895.8645720940028
 20
413.5266585023359
 10
897.1310164410313
 20
414.299926691066
 10
898.7492548745893
 20
414.229629782932
 10
900.2267772695893
 20
413.9484421503943
 10
901.9153697322934
 20
413.9484421503943
 10
903.2521760887346
 20
414.0890359666632
 10
905.0814845899974
 20
415.4949785278549
 10
906.4886489657172
 20
416.6197334565099
 10
907.0515131199525
 20
417.9553791095672
 10
908.106887399276
 20
420.3454827831451
 10
908.106887399276
 20
421.5405346199345
 10
908.106887399276
 20
423.2276670129162
 10
906.981155100673
 20
426.0395521353002
 10
906.2072168886004
 20
427.3049030794759
  0
LWPOLYLINE
  5
278
330
1F
100
AcDbEntity
  8
Drawing
  6
DASHED2
 48
0.25
100
AcDbPolyline
 90
        2
 70
     0
 43
0.0
 10
891.7837989955349
 20
427.726684528282
 10
905.5036366958063
 20
427.726684528282
  0
LWPOLYLINE
  5
27A
330
1F
100
AcDbEntity
  8
Drawing
100
AcDbPolyline
 90
        3
 70
     1
 43
0.0
 10
891.3616508798584
 20
416.479139640241
 10
891.5023669184172
 20
417.5335954615088
 10
890.7284287063446
 20
417.39300164524
  0
HATCH
  5
27B
330
1F
100
AcDbEntity
  8
Drawing
 62
     1
100
AcDbHatch
 10
0.0
 20
0.0
 30
0.0
210
0.0
220
0.0
230
1.0
  2
SOLID
 70
     1
 71
     0
 91
        1
 92
        7
 72
     0
 73
     1
 93
        5
 10
896.8495843639134
 20
415.0731948797966
 10
896.5704588142836
 20
413.9576602648065
 10
897.1310164410313
 20
414.299926691066
 10
897.3236634400517
 20
414.2915580303597
 10
897.3420904988695
 20
414.299926691066
 97
        0
 75
     0
 76
     1
 47
0.0702971586283619
 98
        1
 10
896.9903004024725
 20
414.4405205073348
450
        1
451
        0
460
0.0
461
0.0
452
        1
462
0.550000011920929
453
        2
463
0.0
 63
     1
421
 16711680
463
1.0
 63
     1
421
 16718362
470
LINEAR
  0
LWPOLYLINE
  5
27E
330
1F
100
AcDbEntity
  8
Drawing
100
AcDbPolyline
 90
        3
 70
     1
 43
0.0
 10
896.5681522867969
 20
413.9484421503943
 10
896.8495843639137
 20
415.0731948797965
 10
897.3420904988695
 20
414.299926691066
  0
LWPOLYLINE
  5
27F
330
1F
100
AcDbEntity
  8
Drawing
100
AcDbPolyline
 90
        2
 70
     0
 43
0.0
 10
896.9199423831931
 20
415.1434917879309
 10
896.9903004024725
 20
417.1118140127027
  0
LWPOLYLINE
  5
280
330
1F
100
AcDbEntity
  8
Drawing
100
AcDbPolyline
 90
        3
 70
     0
 43
0.0
 10
896.4977942675175
 20
413.9484421503943
 10
896.8495843639137
 20
415.1434917879309
 10
897.412448518149
 20
414.229629782932
  0
LWPOLYLINE
  5
281
330
1F
100
AcDbEntity
  8
Drawing
100
AcDbPolyline
 90
        2
 70
     0
 43
0.0
 10
890.0248485135505
 20
422.4543988241857
 10
891.5023669184172
 20
422.5246957323201
  0
LWPOLYLINE
  5
282
330
1F
100
AcDbEntity
  8
Drawing
100
AcDbPolyline
 90
        3
 70
     1
 43
0.0
 10
889.1805482920652
 20
422.8761802729918
 10
889.954490494272
 20
422.384099716799
 10
889.1805482920652
 20
421.8217222524717
  0
LWPOLYLINE
  5
283
330
1F
100
AcDbEntity
  8
Drawing
100
AcDbPolyline
 90
        3
 70
     0
 43
0.0
 10
897.412448518149
 20
420.0642951506078
 10
898.3271067589137
 20
421.3296438955312
 10
899.382477048104
 20
419.9939960432211
  0
LWPOLYLINE
  5
284
330
1F
100
AcDbEntity
  8
Drawing
100
AcDbPolyline
 90
        2
 70
     0
 43
0.0
 10
891.4320088991378
 20
417.4632985533744
 10
892.9798893134164
 20
418.5880534820289
  0
LWPOLYLINE
  5
285
330
1F
100
AcDbEntity
  8
Drawing
100
AcDbPolyline
 90
        2
 70
     0
 43
0.0
 10
902.4078758672492
 20
415.0028979716621
 10
901.6339376551757
 20
416.8306241809127
  0
LWPOLYLINE
  5
286
330
1F
100
AcDbEntity
  8
Drawing
100
AcDbPolyline
 90
        3
 70
     1
 43
0.0
 10
902.4078758672492
 20
414.0187390585288
 10
902.4078758672492
 20
415.0731948797965
 10
903.1818180694552
 20
414.3702235992004
  0
LWPOLYLINE
  5
288
330
1F
100
AcDbEntity
  8
Drawing
100
AcDbPolyline
 90
        2
 70
     0
 43
0.0
 10
907.4033032163486
 20
422.5246957323201
 10
905.7147107536446
 20
423.0870731966474
  0
LWPOLYLINE
  5
289
330
1F
100
AcDbEntity
  8
Drawing
100
AcDbPolyline
 90
        2
 70
     0
 43
0.0
 10
906.5590069849966
 20
418.3068658494917
 10
904.8704105321592
 20
419.4316207781462
  0
LWPOLYLINE
  5
28A
330
1F
100
AcDbEntity
  8
Drawing
100
AcDbPolyline
 90
        3
 70
     1
 43
0.0
 10
908.106887399276
 20
422.8058833648574
 10
907.4033032163486
 20
422.5246957323201
 10
907.9661673705839
 20
421.7514253443373
  0
LWPOLYLINE
  5
28B
330
1F
100
AcDbEntity
  8
Drawing
100
AcDbPolyline
 90
        3
 70
     1
 43
0.0
 10
906.6997230235554
 20
417.4632985533744
 10
906.4886489657172
 20
418.3068658494917
 10
907.1922291585113
 20
418.2365689413572
  0
MTEXT
  5
291
330
1F
100
AcDbEntity
  8
Drawing
100
AcDbMText
 10
728.4314135283606
 20
431.8266680293718
 30
0.0
 40
3.5
 41
0.0
 46
0.0
 71
     1
 72
     5
  1
{\fArial|b0|i0|c0|p34;Fill 1045}
  7
verdana
 73
     1
 44
1.0
  0
LWPOLYLINE
  5
2C8
330
1F
100
AcDbEntity
  8
Drawing
100
AcDbPolyline
 90
        2
 70
     0
 43
0.0
 10
743.1713141065372
 20
366.5873758544849
 10
751.9559395583126
 20
364.7142306818132
  0
HATCH
  5
2C9
330
1F
100
AcDbEntity
  8
Drawing
 62
     1
100
AcDbHatch
 10
0.0
 20
0.0
 30
0.0
210
0.0
220
0.0
230
1.0
  2
SOLID
 70
     1
 71
     1
 91
        1
 92
        7
 72
     0
 73
     1
 93
       19
 10
734.358829544536
 20
370.0189619586072
 10
733.9567478088836
 20
369.7176621616073
 10
733.4541466368507
 20
369.7176621616072
 10
732.2479014298931
 20
369.7176621616073
 10
732.0468625571336
 20
368.4120297079391
 10
732.0468625571336
 20
367.8094301139391
 10
731.9463431207539
 20
367.4076970512726
 10
732.2479014298929
 20
366.805097457272
 10
732.7505026019259
 20
366.8050974572721
 10
734.358829544536
 20
366.0016313319383
 10
735.9671564871442
 20
365.9011980662717
 10
736.5702770955576
 20
365.9011980662718
 10
737.5754834297558
 20
367.4076970512722
 10
738.580685773821
 20
368.5124629736069
 10
739.2843258186119
 20
369.5167956302734
 10
739.0832869458526
 20
370.6215615526076
 10
738.279123474548
 20
371.1237278809413
 10
736.8718393948311
 20
371.1237278809413
 10
735.2635124522211
 20
370.922861349608
 97
        1
330
2CD
 75
     0
 76
     1
 47
0.0535183732165154
 98
        1
 10
735.5694678881816
 20
368.6210730602106
450
        1
451
        0
460
0.0
461
0.0
452
        1
462
0.449999988079071
453
        2
463
0.0
 63
     1
421
 16711680
463
1.0
 63
     1
421
 15073280
470
LINEAR
  0
LWPOLYLINE
  5
2CC
330
1F
100
AcDbEntity
  8
Drawing
100
AcDbPolyline
 90
       13
 70
     1
 43
0.0
 10
744.4108649555817
 20
369.6172288959406
 10
744.4108649555817
 20
367.8094301139395
 10
744.9134661276137
 20
366.805097457272
 10
745.6171101625393
 20
366.2024978632717
 10
746.823355369497
 20
366.403364394605
 10
747.325956541529
 20
366.805097457272
 10
747.4264759779087
 20
368.1107299109394
 10
747.5269954142884
 20
369.7176621616072
 10
747.5269954142884
 20
370.5211282869409
 10
746.7228319429839
 20
371.5254609436083
 10
745.7176295989191
 20
371.5254609436083
 10
744.9134661276137
 20
371.4250276779412
 10
744.2098260828222
 20
370.4206950212742
  0
LWPOLYLINE
  5
2CD
102
{ACAD_REACTORS
330
2C9
102
}
330
1F
100
AcDbEntity
  8
Drawing
100
AcDbPolyline
 90
       19
 70
     1
 43
0.0
 10
732.750502601926
 20
366.805097457272
 10
734.3588295445359
 20
366.0016313319384
 10
735.9671564871458
 20
365.9011980662717
 10
736.5702770955575
 20
365.9011980662717
 10
737.5754834297556
 20
367.4076970512724
 10
738.5806857738205
 20
368.5124629736065
 10
739.2843258186119
 20
369.5167956302735
 10
739.0832869458525
 20
370.6215615526075
 10
738.279123474548
 20
371.1237278809413
 10
736.8718393948309
 20
371.1237278809413
 10
735.263512452221
 20
370.922861349608
 10
734.3588295445359
 20
370.0189619586072
 10
733.9567478088836
 20
369.7176621616072
 10
733.4541466368507
 20
369.7176621616072
 10
732.2479014298931
 20
369.7176621616072
 10
732.0468625571336
 20
368.4120297079398
 10
732.0468625571336
 20
367.8094301139395
 10
731.9463431207539
 20
367.4076970512724
 10
732.2479014298931
 20
366.805097457272
  0
LWPOLYLINE
  5
2CF
330
1F
100
AcDbEntity
  8
Drawing
100
AcDbPolyline
 90
       15
 70
     1
 43
0.0
 10
739.5858881178854
 20
360.2769351889351
 10
740.9931721976025
 20
360.0760686576014
 10
742.8025420031051
 20
359.5739023292681
 10
744.0087832199295
 20
359.8752021262681
 10
743.9082637835497
 20
361.1808345799354
 10
742.400460267452
 20
361.6830009082692
 10
741.1942150604953
 20
361.7834341739358
 10
740.0884892899173
 20
362.1851672366029
 10
739.1838063822322
 20
362.5869002992695
 10
737.5754834297556
 20
362.4864670336028
 10
737.1734016941034
 20
362.0847339709362
 10
737.0728782675903
 20
361.1808345799354
 10
737.3744405668629
 20
360.8795347829355
 10
738.1786040381683
 20
360.4778017202684
 10
738.4801663374408
 20
360.3773684546018
  0
LWPOLYLINE
  5
2D0
330
1F
100
AcDbEntity
  8
Drawing
100
AcDbPolyline
 90
       14
 70
     1
 43
0.0
 10
736.682280135379
 20
362.1453497693969
 10
736.1466326799198
 20
363.590346657164
 10
736.0930651412807
 20
364.5001576389873
 10
734.0572672452633
 20
364.9972986752709
 10
733.353627200471
 20
365.2985984722714
 10
733.0520649011985
 20
365.2985984722714
 10
732.4489442927859
 20
365.399031737938
 10
732.0221436817617
 20
364.7142306818132
 10
732.4506600500761
 20
363.6973820789508
 10
733.2531077640913
 20
362.9886333619365
 10
733.6551894997435
 20
361.9843007052691
 10
734.0572672452633
 20
361.2812678456021
 10
734.5598724074287
 20
360.8795347829355
 10
735.3640318886007
 20
361.1808345799354
  0
LWPOLYLINE
  5
2D1
330
1F
100
AcDbEntity
  8
Drawing
100
AcDbPolyline
 90
        3
 70
     0
 43
0.0
 10
739.7890377711244
 20
365.6775626734088
 10
740.7532055850313
 20
367.4436680257891
 10
741.9851951316011
 20
365.6240438628893
  0
LWPOLYLINE
  5
2D2
330
1F
100
AcDbEntity
  8
Drawing
100
AcDbPolyline
 90
       12
 70
     1
 43
0.0
 10
745.5165907261596
 20
362.9886333619365
 10
746.7228319429839
 20
363.2899331589365
 10
747.325956541529
 20
363.992966018604
 10
747.325956541529
 20
364.695998878271
 10
746.220230770951
 20
365.5998982692713
 10
744.310345519202
 20
364.8968654096043
 10
743.4056626115168
 20
364.3946990812706
 10
743.1041003122443
 20
364.0933992842706
 10
743.1041003122443
 20
363.3903664246036
 10
743.1041003122443
 20
362.9886333619365
 10
743.204619748624
 20
362.7877668306032
 10
744.310345519202
 20
362.7877668306032
  0
HATCH
  5
2D3
330
1F
100
AcDbEntity
  8
Drawing
100
AcDbHatch
 10
0.0
 20
0.0
 30
0.0
210
0.0
220
0.0
230
1.0
  2
DOTS
 70
     0
 71
     1
 91
        1
 92
        7
 72
     0
 73
     1
 93
        9
 10
736.6287165868731
 20
373.277172188125
 10
735.9859380442683
 20
373.3842098091641
 10
735.3967230501702
 20
373.3842098091641
 10
735.1824648660129
 20
372.9560615242594
 10
735.2360324046521
 20
372.6884696709139
 10
735.5574176858219
 20
372.4208778175685
 10
736.628716586873
 20
371.9927317319165
 10
737.217927590839
 20
372.3138401965294
 10
737.2714911393447
 20
372.9560615242596
 97
        1
330
2D4
 75
     0
 76
     1
 52
0.0
 41
0.1
 77
     0
 78
     1
 53
0.0
 43
13.25132573890892
 44
-51.97915302896104
 45
0.079375
 46
0.15875
 79
     2
 49
0.0
 49
-0.15875
 47
0.0535183732165154
 98
        1
 10
736.4265046149437
 20
372.7419884814335
  0
LWPOLYLINE
  5
2D4
102
{ACAD_REACTORS
330
2D3
102
}
330
1F
100
AcDbEntity
  8
Drawing
100
AcDbPolyline
 90
        9
 70
     1
 43
0.0
 10
735.5574176858215
 20
372.4208778175685
 10
736.6287165868732
 20
371.9927317319166
 10
737.217927590839
 20
372.3138401965293
 10
737.2714911393448
 20
372.9560615242594
 10
736.6287165868732
 20
373.277172188125
 10
735.9859380442683
 20
373.3842098091641
 10
735.3967230501701
 20
373.3842098091641
 10
735.1824648660129
 20
372.9560615242594
 10
735.236032404652
 20
372.6884696709139
  0
MTEXT
  5
2D5
330
1F
100
AcDbEntity
  8
Drawing
100
AcDbMText
 10
752.5444811304016
 20
365.7643563551998
 30
0.0
 40
3.5
 41
0.0
 46
0.0
 71
     1
 72
     5
  1
{\fArial|b0|i0|c0|p34;5.62}
  7
verdana
 73
     1
 44
1.0
  0
LWPOLYLINE
  5
2D6
330
1F
100
AcDbEntity
  8
Drawing
100
AcDbPolyline
 90
        2
 70
     0
 43
0.0
 10
818.4793530188042
 20
359.8440585110729
 10
822.5502784684556
 20
358.3990638225587
  0
LWPOLYLINE
  5
2D7
330
1F
100
AcDbEntity
  8
Drawing
100
AcDbPolyline
 90
        3
 70
     0
 43
0.0
 10
816.0689374741694
 20
358.6131368653846
 10
817.1937959335944
 20
360.3792422177644
 10
818.3186583831528
 20
358.4525804338255
  0
MTEXT
  5
2D8
330
1F
100
AcDbEntity
  8
Drawing
100
AcDbMText
 10
822.9781254048941
 20
359.4491872966925
 30
0.0
 40
3.5
 41
0.0
 46
0.0
 71
     1
 72
     5
  1
{\fArial|b0|i0|c0|p34;5.48}
  7
verdana
 73
     1
 44
1.0
  0
LWPOLYLINE
  5
2D9
330
1F
100
AcDbEntity
  8
Drawing
100
AcDbPolyline
 90
       25
 70
     0
 43
0.0
 10
798.9282029389321
 20
376.4882744282718
 10
799.8388072043333
 20
373.59828285199
 10
801.070796750904
 20
371.4575480252252
 10
802.5706120202701
 20
369.316810999208
 10
804.0704232995038
 20
367.4971868363086
 10
805.2488492975679
 20
366.2662651906198
 10
806.8557916639463
 20
365.4099708200633
 10
807.7128283907084
 20
363.9649739322963
 10
810.9267171135987
 20
362.1988685799165
 10
812.6943541156277
 20
361.34257420936
 10
815.2119007474073
 20
360.3792422177644
 10
817.9972691118508
 20
360.4327610282839
 10
820.4612482049904
 20
360.6468340711099
 10
823.0859259239157
 20
361.5031284416664
 10
824.9606940130905
 20
362.1453497693969
 10
826.7283310151195
 20
363.1621983722594
 10
828.3888369300046
 20
364.5001576389873
 10
829.8350886508649
 20
366.7479300867913
 10
830.692125377627
 20
368.0858893535192
 10
831.3349039202319
 20
369.5308862412867
 10
831.7634202885454
 20
371.029399740321
 10
831.7634202885454
 20
372.5279154386076
 10
832.0312460113425
 20
373.8658747053355
 10
832.1919406469931
 20
374.6151314548529
 10
832.3526312925112
 20
375.8460531005417
  0
LWPOLYLINE
  5
2DA
330
1F
100
AcDbEntity
  8
Drawing
 48
0.25
100
AcDbPolyline
 90
        2
 70
     0
 43
0.0
 10
799.249592210235
 20
375.6854988682353
 10
832.3526312925112
 20
375.6854988682353
  0
HATCH
  5
2DB
330
1F
100
AcDbEntity
  8
Drawing
 62
     1
100
AcDbHatch
 10
0.0
 20
0.0
 30
0.0
210
0.0
220
0.0
230
1.0
  2
SOLID
 70
     1
 71
     1
 91
        1
 92
        7
 72
     0
 73
     1
 93
       18
 10
811.5159321076969
 20
364.125530363855
 10
812.6407905671218
 20
364.0720115533354
 10
813.0693109255695
 20
363.8044196999899
 10
813.4442637453782
 20
363.9649739322963
 10
814.3548640206461
 20
364.9818225351593
 10
814.4619951077909
 20
366.3197818018867
 10
814.4619951077908
 20
366.8014488973108
 10
812.2122741988069
 20
367.8182975001743
 10
810.8195860264532
 20
368.5140354391716
 10
810.1232439353423
 20
368.6210730602106
 10
809.5875964798834
 20
368.781627292517
 10
809.1055165630631
 20
368.781627292517
 10
808.8912543887724
 20
367.7112598791347
 10
808.8912543887725
 20
366.2662651906198
 10
808.8912543887725
 20
365.03534134568
 10
808.8376908402666
 20
364.1255303638552
 10
808.9448219274115
 20
363.8044196999899
 10
810.1768114739813
 20
363.8579385105094
 97
        1
330
2DE
 75
     0
 76
     1
 47
0.0535183732165155
 98
        1
 10
811.0874117492492
 20
365.8916357162352
450
        1
451
        0
460
0.0
461
0.0
452
        1
462
0.449999988079071
453
        2
463
0.0
 63
     1
421
 16711680
463
1.0
 63
     1
421
 15073280
470
LINEAR
  0
LWPOLYLINE
  5
2DE
102
{ACAD_REACTORS
330
2DB
102
}
330
1F
100
AcDbEntity
  8
Drawing
100
AcDbPolyline
 90
       18
 70
     1
 43
0.0
 10
813.4442637453783
 20
363.9649739322963
 10
814.3548640206461
 20
364.9818225351592
 10
814.4619951077909
 20
366.3197818018871
 10
814.4619951077909
 20
366.8014488973108
 10
812.2122741988076
 20
367.8182975001737
 10
810.819586026453
 20
368.5140354391715
 10
810.1232439353423
 20
368.6210730602106
 10
809.5875964798831
 20
368.781627292517
 10
809.105516563063
 20
368.781627292517
 10
808.8912543887725
 20
367.7112598791346
 10
808.8912543887725
 20
366.2662651906198
 10
808.8912543887725
 20
365.0353413456787
 10
808.8376908402668
 20
364.125530363855
 10
808.9448219274116
 20
363.8044196999899
 10
810.1768114739814
 20
363.8579385105095
 10
811.5159321076969
 20
364.125530363855
 10
812.6407905671219
 20
364.0720115533354
 10
813.0693109255697
 20
363.8044196999899
  0
LWPOLYLINE
  5
2DF
330
1F
100
AcDbEntity
  8
Drawing
100
AcDbPolyline
 90
       16
 70
     0
 43
0.0
 10
809.373338295726
 20
371.9927317319166
 10
809.373338295726
 20
372.8490239032203
 10
810.6053278422958
 20
373.063099145299
 10
811.9444484760113
 20
373.1701345670854
 10
812.8014852027734
 20
373.2236533776054
 10
813.4442637453783
 20
373.4377264204313
 10
814.9976425632501
 20
373.59828285199
 10
815.0512061117568
 20
373.2236533776054
 10
815.0512061117568
 20
372.5814320498748
 10
815.319031834553
 20
371.6181022575315
 10
814.944075024611
 20
370.7082890764555
 10
812.6407905671219
 20
370.6547724651887
 10
811.4088010205521
 20
370.6547724651887
 10
810.4446332066452
 20
370.44069722311
 10
809.5340329313774
 20
370.4942160336295
 10
809.2662072085811
 20
371.7786564898379
  0
LWPOLYLINE
  5
2E0
330
1F
100
AcDbEntity
  8
Drawing
100
AcDbPolyline
 90
       11
 70
     0
 43
0.0
 10
799.3567232973799
 20
375.8460531005417
 10
800.2673235726477
 20
376.8629039026569
 10
801.1243602994098
 20
377.0769769454828
 10
801.8207023905204
 20
377.2910499883087
 10
803.0526919370902
 20
377.5586418416542
 10
803.5347758440446
 20
377.5586418416542
 10
804.3382490223
 20
377.6656794626933
 10
806.0523224758233
 20
377.4516064198674
 10
808.1413487491561
 20
376.7023474710977
 10
809.1590801115688
 20
376.2206825749263
 10
809.9625492996918
 20
375.6319800577153
  0
LWPOLYLINE
  5
2E1
330
1F
100
AcDbEntity
  8
Drawing
100
AcDbPolyline
 90
        8
 70
     0
 43
0.0
 10
822.0681945615022
 20
368.8886649135561
 10
822.0681945615022
 20
370.0125511374581
 10
823.0859259239157
 20
370.1195887584972
 10
824.4250425674979
 20
370.1195887584972
 10
825.2285157457534
 20
369.6379216630735
 10
824.5857372031485
 20
368.8351461030365
 10
823.5144422922301
 20
368.4070000173847
 10
822.3360162941651
 20
368.6745918707302
  0
MTEXT
  5
2E2
330
1F
100
AcDbEntity
  8
Drawing
100
AcDbMText
 10
814.6755838600712
 20
379.194641793487
 30
0.0
 40
3.5
 41
0.0
 46
0.0
 71
     1
 72
     5
  1
{\fArial|b0|i0|c0|p34;5.64}
  7
verdana
 73
     1
 44
1.0
  0
LWPOLYLINE
  5
2E3
330
1F
100
AcDbEntity
  8
Drawing
100
AcDbPolyline
 90
        3
 70
     0
 43
0.0
 10
816.0689374741694
 20
374.2940207909874
 10
817.1937959335944
 20
375.6854988682353
 10
818.211527296007
 20
374.3475396015074
  0
LWPOLYLINE
  5
2E4
330
1F
100
AcDbEntity
  8
Drawing
100
AcDbPolyline
 90
       11
 70
     0
 43
0.0
 10
825.4427739299106
 20
375.6319800577153
 10
825.3892103814048
 20
372.4208778175685
 10
825.4963414685496
 20
371.564583447012
 10
826.6211999279747
 20
371.2434727831469
 10
827.9067570131845
 20
370.9223643185342
 10
828.9244883755971
 20
370.9223643185342
 10
829.7279575637201
 20
371.7786564898379
 10
830.4242996548307
 20
373.009580334779
 10
830.8528200132776
 20
374.722169075892
 10
831.013514648929
 20
375.3643882043698
 10
831.2277728330862
 20
375.6854988682353
  0
MTEXT
  5
2E5
330
1F
100
AcDbEntity
  8
Drawing
100
AcDbMText
 10
901.9012170450598
 20
361.4425436131074
 30
0.0
 40
3.5
 41
0.0
 46
0.0
 71
     1
 72
     5
  1
{\fArial|b0|i0|c0|p34;5.45}
  7
verdana
 73
     1
 44
1.0
  0
LWPOLYLINE
  5
2E6
330
1F
100
AcDbEntity
  8
Drawing
100
AcDbPolyline
 90
        2
 70
     0
 43
0.0
 10
892.9912685782281
 20
368.1711301826513
 10
900.4888127139
 20
361.0258202647733
  0
LWPOLYLINE
  5
2E7
330
1F
100
AcDbEntity
  8
Drawing
100
AcDbPolyline
 90
        2
 70
     0
 43
0.0
 10
892.9106160152103
 20
368.778801253005
 10
897.9992688371419
 20
370.2237981407725
  0
LWPOLYLINE
  5
2E8
330
1F
100
AcDbEntity
  8
Drawing
100
AcDbPolyline
 90
        2
 70
     0
 43
0.0
 10
892.7499213795588
 20
371.4012009759413
 10
895.7495479281586
 20
375.0939703115127
  0
HATCH
  5
2E9
330
1F
100
AcDbEntity
  8
Drawing
 62
     1
100
AcDbHatch
 10
0.0
 20
0.0
 30
0.0
210
0.0
220
0.0
230
1.0
  2
SOLID
 70
     1
 71
     1
 91
        5
 92
        7
 72
     0
 73
     1
 93
        4
 10
882.4119171099109
 20
372.632124820883
 10
884.2331216505798
 20
372.7391602426692
 10
883.1444129868922
 20
374.2931079409889
 10
883.0444885622643
 20
374.1878735970881
 97
        2
330
2EC
330
2F2
 92
        7
 72
     0
 73
     1
 93
        3
 10
889.9109854764771
 20
378.3585913621791
 10
888.3576066586045
 20
378.0909995088336
 10
889.4824691081627
 20
376.9671132849317
 97
        1
330
2F5
 92
        7
 72
     0
 73
     1
 93
        3
 10
896.1245047381007
 20
376.7530402421057
 10
895.9102425638102
 20
375.0939703115128
 10
897.2493631975256
 20
375.7361894399905
 97
        1
330
2F9
 92
        7
 72
     0
 73
     1
 93
        3
 10
899.7133422906661
 20
371.1336091225958
 10
898.1063999242876
 20
370.2773147520393
 10
899.6597787421593
 20
369.6350956235615
 97
        1
330
2F8
 92
        7
 72
     0
 73
     1
 93
        3
 10
891.1429790131803
 20
362.3030779621912
 10
892.696357831053
 20
362.1960403411522
 10
892.0000157399427
 20
363.7480726507059
 97
        1
330
2F1
 75
     0
 76
     1
 47
0.0535183732165146
 98
        5
 10
883.161822749528
 20
373.2208273380934
 10
889.3217744725114
 20
377.8234076554882
 10
896.7137157420664
 20
375.8432270610297
 10
899.2848259223517
 20
370.2773147520393
 10
891.7321900171462
 20
362.7847428583627
450
        1
451
        0
460
0.0
461
0.0
452
        1
462
0.449999988079071
453
        2
463
0.0
 63
     1
421
 16711680
463
1.0
 63
     1
421
 15073280
470
LINEAR
  0
LWPOLYLINE
  5
2EC
102
{ACAD_REACTORS
330
2E9
102
}
330
1F
100
AcDbEntity
  8
Drawing
100
AcDbPolyline
 90
       28
 70
     1
 43
0.0
 10
882.7868699297194
 20
373.9165652770912
 10
884.7687691060398
 20
376.003781293336
 10
885.9471911139706
 20
377.2347051382771
 10
887.7148321061329
 20
378.0374806983141
 10
889.6431637438143
 20
378.3585913621791
 10
892.0535792884482
 20
378.6261832155251
 10
893.5533945578152
 20
378.5726644050051
 10
895.4281626469899
 20
377.0206320954512
 10
896.5530211064149
 20
376.592483810547
 10
898.3206581084448
 20
375.1474869227795
 10
899.5526476550147
 20
372.7391602426692
 10
899.9276044649566
 20
370.7589818474635
 10
899.9811680134624
 20
369.688614434081
 10
900.1418626491138
 20
368.1900987357944
 10
899.6062151936537
 20
366.4775099946814
 10
898.6420473797468
 20
365.407142581299
 10
896.8744103777169
 20
364.2297397461302
 10
894.8925112013974
 20
362.8382616688828
 10
892.4820956567626
 20
362.0354861088458
 10
890.5002004705764
 20
362.0354861088458
 10
887.5005699318433
 20
362.5706698155368
 10
885.0365908387028
 20
363.5339996078801
 10
884.0724270149283
 20
364.550848210743
 10
882.9475645653708
 20
365.7282532451645
 10
882.3047860227659
 20
367.0662125118924
 10
881.8227061059458
 20
369.2069473386568
 10
882.0905278386088
 20
372.0434223036718
 10
882.6797388425746
 20
373.6489734237452
  0
LWPOLYLINE
  5
2ED
330
1F
100
AcDbEntity
  8
Drawing
100
AcDbPolyline
 90
        3
 70
     0
 43
0.0
 10
890.1075953013494
 20
368.8626103687347
 10
890.6843291586981
 20
370.0150802778771
 10
891.2610630160477
 20
368.8626103687347
  0
LWPOLYLINE
  5
2EE
330
1F
100
AcDbEntity
  8
Drawing
  6
DASHED2
 48
0.1
100
AcDbPolyline
 90
       10
 70
     1
 43
0.0
 10
890.3395058349249
 20
367.8689880719289
 10
891.517931832989
 20
367.8154692614094
 10
892.4820956567626
 20
368.4041717786204
 10
892.8034849280655
 20
369.7956498558679
 10
892.8034849280655
 20
371.026573700809
 10
891.9464482013034
 20
371.2941655541549
 10
889.5896001953085
 20
371.0800903120762
 10
888.893258104197
 20
369.5815768130419
 10
889.3217744725114
 20
368.2971363568336
 10
889.9645530151163
 20
367.8154692614094
  0
LWPOLYLINE
  5
2EF
330
1F
100
AcDbEntity
  8
Drawing
100
AcDbPolyline
 90
        5
 70
     1
 43
0.0
 10
883.804601292132
 20
369.2604661491769
 10
883.804601292132
 20
369.8491686663874
 10
882.7868699297194
 20
369.8491686663874
 10
883.2153902881671
 20
369.2604661491769
 10
883.2689538366728
 20
369.2604661491769
  0
LWPOLYLINE
  5
2F0
330
1F
100
AcDbEntity
  8
Drawing
100
AcDbPolyline
 90
        2
 70
     0
 43
0.0
 10
891.3036736488318
 20
367.6013962185834
 10
891.8928846527976
 20
363.5875184183997
  0
LWPOLYLINE
  5
2F1
102
{ACAD_REACTORS
330
2E9
102
}
330
1F
100
AcDbEntity
  8
Drawing
100
AcDbPolyline
 90
        3
 70
     1
 43
0.0
 10
891.1429790131804
 20
362.3030779621913
 10
892.0000157399425
 20
363.748072650706
 10
892.6963578310531
 20
362.1960403411522
  0
LWPOLYLINE
  5
2F2
102
{ACAD_REACTORS
330
2E9
102
}
330
1F
100
AcDbEntity
  8
Drawing
100
AcDbPolyline
 90
        3
 70
     1
 43
0.0
 10
883.1082592010214
 20
374.3447113627431
 10
884.2331216505797
 20
372.7391602426692
 10
882.4119171099107
 20
372.6321248208828
  0
LWPOLYLINE
  5
2F3
330
1F
100
AcDbEntity
  8
Drawing
100
AcDbPolyline
 90
        2
 70
     0
 43
0.0
 10
890.5537640190821
 20
371.4012009759413
 10
889.6431637438143
 20
376.9135944744121
  0
LWPOLYLINE
  5
2F4
330
1F
100
AcDbEntity
  8
Drawing
100
AcDbPolyline
 90
        2
 70
     0
 43
0.0
 10
884.2331216505797
 20
372.7391602426692
 10
888.4111741972436
 20
369.9562062874265
  0
LWPOLYLINE
  5
2F5
102
{ACAD_REACTORS
330
2E9
102
}
330
1F
100
AcDbEntity
  8
Drawing
100
AcDbPolyline
 90
        3
 70
     1
 43
0.0
 10
888.3576066586045
 20
378.0909995088336
 10
889.4824691081628
 20
376.9671132849317
 10
889.9109854764772
 20
378.3585913621791
  0
LWPOLYLINE
  5
2F6
330
1F
100
AcDbEntity
  8
Drawing
100
AcDbPolyline
 90
        9
 70
     1
 43
0.0
 10
892.5892267439083
 20
376.4319295782407
 10
893.2320052865123
 20
376.3248919572011
 10
893.7676527419724
 20
376.2713731466815
 10
893.9283473776229
 20
376.538965000027
 10
893.8212162904781
 20
376.9671132849317
 10
893.4998270191761
 20
377.2347051382771
 10
892.8570524667045
 20
377.2882239487967
 10
892.3749685597511
 20
377.0206320954512
 10
892.3749685597511
 20
376.7530402421057
  0
LWPOLYLINE
  5
2F7
330
1F
100
AcDbEntity
  8
Drawing
100
AcDbPolyline
 90
        6
 70
     1
 43
0.0
 10
889.1075162883542
 20
371.5082385969808
 10
889.1075162883542
 20
372.3110141570173
 10
889.4824691081628
 20
372.5250871998433
 10
889.8038583794648
 20
371.7223116398068
 10
889.8038583794648
 20
371.1871279331153
 10
889.375338021018
 20
371.0800903120762
  0
LWPOLYLINE
  5
2F8
102
{ACAD_REACTORS
330
2E9
102
}
330
1F
100
AcDbEntity
  8
Drawing
100
AcDbPolyline
 90
        3
 70
     1
 43
0.0
 10
899.7133422906661
 20
371.1336091225958
 10
898.1063999242876
 20
370.2773147520393
 10
899.6597787421595
 20
369.6350956235615
  0
LWPOLYLINE
  5
2F9
102
{ACAD_REACTORS
330
2E9
102
}
330
1F
100
AcDbEntity
  8
Drawing
100
AcDbPolyline
 90
        3
 70
     1
 43
0.0
 10
896.1245047381005
 20
376.7530402421057
 10
895.91024256381
 20
375.0939703115127
 10
897.2493631975256
 20
375.7361894399905
  0
MTEXT
  5
2FF
330
1F
100
AcDbEntity
  8
Drawing
100
AcDbMText
 10
733.6902456081039
 20
385.2894224989045
 30
0.0
 40
3.5
 41
0.0
 46
0.0
 71
     1
 72
     5
  1
{\fArial|b0|i0|c0|p34;Fill 1076}
  7
verdana
 73
     1
 44
1.0
  0
LWPOLYLINE
  5
3B0
330
1F
100
AcDbEntity
  8
Drawing
100
AcDbPolyline
 90
       22
 70
     1
 43
0.0
 10
734.4756336747002
 20
311.8606881258
 10
735.4591895459814
 20
310.8779829185945
 10
735.8168451382296
 20
310.6993090446252
 10
737.2474754874863
 20
310.6993090446252
 10
738.8569316378014
 20
310.6993090446252
 10
740.8240433803637
 20
310.4312993332973
 10
741.3605327539351
 20
309.0912463781527
 10
741.8970181373732
 20
307.3938478743224
 10
742.0758439384306
 20
306.0537949191779
 10
742.1652588340255
 20
305.2497635859417
 10
740.5558026837114
 20
304.5350702893164
 10
739.5722468124302
 20
303.0163456594554
 10
738.8569316378014
 20
302.8376717854857
 10
738.2310313587675
 20
302.6589979115164
 10
736.3533305216677
 20
303.2843553707829
 10
735.2803597547907
 20
303.1056814968136
 10
733.9391482912622
 20
306.3218068297582
 10
733.7603185000714
 20
309.1805822155114
 10
733.0450033254426
 20
310.7886448819835
 10
732.6873477331953
 20
311.5926762152197
 10
733.0450033254426
 20
312.039359800517
 10
733.4920738132857
 20
312.039359800517
  0
LWPOLYLINE
  5
3B1
330
1F
100
AcDbEntity
  8
Drawing
100
AcDbPolyline
 90
       12
 70
     1
 43
0.0
 10
745.6524158214404
 20
298.7278999768745
 10
745.5630009258455
 20
300.0679507327662
 10
745.5630009258455
 20
300.9613201026131
 10
744.6688599501592
 20
301.6760133992383
 10
743.9535447755304
 20
301.1399939765828
 10
743.6853000887447
 20
300.4252984807048
 10
742.8805740086543
 20
300.1572887693773
 10
742.7017442174636
 20
299.7999410214383
 10
742.5229144262737
 20
298.9065738508438
 10
743.2382296009025
 20
298.0132044809965
 10
745.0265155424074
 20
297.6558589323103
 10
745.6524158214404
 20
297.9238686436382
  0
LWPOLYLINE
  5
3B2
330
1F
100
AcDbEntity
  8
Drawing
100
AcDbPolyline
 90
       11
 70
     1
 43
0.0
 10
741.5393585549925
 20
308.376553081528
 10
742.7017442174636
 20
309.2699202521225
 10
743.1488147053067
 20
309.9846135487477
 10
744.2217854721837
 20
310.3419612966862
 10
745.1159304380024
 20
310.520635170656
 10
745.2947602291931
 20
309.8059418740307
 10
744.5794450545643
 20
308.7338986302142
 10
744.3112003677786
 20
307.4831837116807
 10
743.4170593920924
 20
306.1431329557889
 10
742.7911591130594
 20
306.0537949191779
 10
742.2546737296213
 20
306.1431329557889
  0
LWPOLYLINE
  5
3B3
330
1F
100
AcDbEntity
  8
Drawing
100
AcDbPolyline
 90
       11
 70
     1
 43
0.0
 10
743.9535447755304
 20
319.9009992589089
 10
745.2947602291931
 20
319.9009992589089
 10
745.4735860302505
 20
320.5263567181759
 10
745.5630009258455
 20
321.8664074740676
 10
744.5794450545643
 20
322.5811029699452
 10
744.8476857512167
 20
323.4744701405401
 10
743.0594037998451
 20
323.5638059778984
 10
742.7017442174636
 20
323.5638059778984
 10
742.7911591130594
 20
322.1344171853956
 10
742.3440886252163
 20
320.5263567181759
 10
743.3276444964974
 20
320.1690089702369
  0
LWPOLYLINE
  5
3B4
330
1F
100
AcDbEntity
  8
Drawing
100
AcDbPolyline
 90
        2
 70
     0
 43
0.0
 10
732.9555884298477
 20
323.1728580496791
 10
741.9864290428357
 20
317.455302879668
  0
LWPOLYLINE
  5
3B5
330
1F
100
AcDbEntity
  8
Drawing
100
AcDbPolyline
 90
        8
 70
     1
 43
0.0
 10
741.0922880671494
 20
319.8116612222983
 10
741.7181883461824
 20
320.7943664295038
 10
740.6452175793063
 20
322.2237552220066
 10
739.9299024046775
 20
322.3130910593649
 10
739.2145872300487
 20
322.3130910593649
 10
738.9463465333963
 20
321.0623761408314
 10
739.3934170212394
 20
319.9903350962676
 10
740.1981470914632
 20
319.9009992589089
  0
LWPOLYLINE
  5
3B6
330
1F
100
AcDbEntity
  8
Drawing
100
AcDbPolyline
 90
        7
 70
     1
 43
0.0
 10
731.7037918619142
 20
317.5779617914867
 10
733.4920738132857
 20
317.845973702067
 10
734.5650445801627
 20
317.845973702067
 10
734.7438743713526
 20
318.5606669986922
 10
732.6873477331953
 20
318.8286789092725
 10
731.9720325585665
 20
318.2926572873642
 10
731.9720325585665
 20
317.756635665456
  0
LWPOLYLINE
  5
3B7
330
1F
100
AcDbEntity
  8
Drawing
100
AcDbPolyline
 90
       11
 70
     1
 43
0.0
 10
731.1673024883428
 20
314.0941060522867
 10
731.8826176629716
 20
313.3794127556615
 10
733.0450033254426
 20
313.3794127556615
 10
733.5814887088816
 20
313.9154321783175
 10
733.6709036044765
 20
314.5407918368363
 10
732.8661735342528
 20
315.0768112594923
 10
732.4191030464096
 20
315.7021687187588
 10
731.4355471751285
 20
315.7021687187588
 10
730.9884766872854
 20
315.7021687187588
 10
730.8990617916904
 20
314.7194635115533
 10
731.2567173839377
 20
314.004770214928
  0
LWPOLYLINE
  5
3B8
330
1F
100
AcDbEntity
  8
Drawing
100
AcDbPolyline
 90
        5
 70
     1
 43
0.0
 10
733.6709036044765
 20
315.612553576328
 10
733.8497333956673
 20
316.7739326575032
 10
733.3132480122283
 20
317.0419423688312
 10
733.0450033254426
 20
316.8632684948615
 10
733.2238331166334
 20
316.3272468729532
  0
LWPOLYLINE
  5
3B9
330
1F
100
AcDbEntity
  8
Drawing
100
AcDbPolyline
 90
        7
 70
     1
 43
0.0
 10
735.1909448591957
 20
314.1834440888978
 10
736.1745047206102
 20
314.1834440888978
 10
736.6215752084534
 20
314.272779926256
 10
735.2803597547907
 20
315.4341590074313
 10
734.7438743713526
 20
315.2554851334615
 10
734.5650445801627
 20
315.0768112594923
 10
734.8332892669484
 20
314.0941060522867
  0
LWPOLYLINE
  5
3BA
330
1F
100
AcDbEntity
  8
Drawing
100
AcDbPolyline
 90
        9
 70
     1
 43
0.0
 10
737.3368903830822
 20
314.987475422134
 10
738.2310313587675
 20
314.987475422134
 10
738.8569316378014
 20
314.987475422134
 10
738.8569316378014
 20
315.7915067553698
 10
738.8569316378014
 20
316.5955380886061
 10
737.6945459753294
 20
316.148852304056
 10
736.9792308007006
 20
316.148852304056
 10
736.5321603128575
 20
315.9701784300868
 10
736.9792308007006
 20
315.1661492961033
  0
MTEXT
  5
3BB
330
1F
100
AcDbEntity
  8
Drawing
100
AcDbMText
 10
718.5300553716482
 20
328.2192859247969
 30
0.0
 40
3.5
 41
0.0
 46
0.0
 71
     1
 72
     5
  1
{\fArial|b0|i0|c0|p34;5.67}
  7
verdana
 73
     1
 44
1.0
  0
LWPOLYLINE
  5
3BC
330
1F
100
AcDbEntity
  8
Drawing
100
AcDbPolyline
 90
       12
 70
     1
 43
0.0
 10
743.5958891832831
 20
331.3361073996792
 10
744.7582748457551
 20
331.8721290215875
 10
745.2947602291931
 20
332.854834228793
 10
746.7253865883174
 20
332.6761603548238
 10
748.2454278430366
 20
330.9787596517407
 10
748.4242576342274
 20
329.6387088958485
 10
746.7253865883174
 20
329.5493730584902
 10
746.457145891665
 20
329.1920253105512
 10
745.5630009258455
 20
328.9240133999709
 10
745.0265155424074
 20
328.9240133999709
 10
743.7747149843406
 20
329.4600350218792
 10
743.3276444964974
 20
331.15743352571
  0
LWPOLYLINE
  5
3BD
330
1F
100
AcDbEntity
  8
Drawing
100
AcDbPolyline
 90
        9
 70
     1
 43
0.0
 10
747.8877722507884
 20
321.0623761408314
 10
749.7654730878892
 20
320.9730403034731
 10
750.3019584713272
 20
320.9730403034731
 10
750.1231286801374
 20
321.9557455106786
 10
747.7983573551935
 20
322.8491126812731
 10
746.9936312751031
 20
323.3851343031814
 10
746.457145891665
 20
322.1344171853956
 10
746.3677309960692
 20
321.1517141774424
 10
747.0830421805647
 20
320.7943664295038
  0
LWPOLYLINE
  5
3BE
330
1F
100
AcDbEntity
  8
Drawing
100
AcDbPolyline
 90
       12
 70
     1
 43
0.0
 10
753.6102856675523
 20
321.8664074740676
 10
755.0409120266756
 20
320.3476828442066
 10
755.9350569924952
 20
319.8116612222983
 10
756.5609572715291
 20
318.7396201777341
 10
755.3091567134622
 20
317.4889052592006
 10
755.2197418178664
 20
315.8808425927285
 10
755.4879865046521
 20
315.2554851334615
 10
752.7161407017327
 20
316.4168642146368
 10
751.7325848304515
 20
317.6675791331703
 10
751.5537590293941
 20
319.7223253849396
 10
751.3749292382042
 20
321.1517141774424
 10
752.8055555973276
 20
321.2410500148011
  0
LWPOLYLINE
  5
3BF
330
1F
100
AcDbEntity
  8
Drawing
100
AcDbPolyline
 90
        3
 70
     0
 43
0.0
 10
743.2382296009025
 20
316.0259140871652
 10
744.0429596711263
 20
317.8126506276066
 10
744.9371006468125
 20
315.9365782498065
  0
LWPOLYLINE
  5
3C0
330
1F
100
AcDbEntity
  8
Drawing
100
AcDbPolyline
 90
       15
 70
     1
 43
0.0
 10
747.5301166585411
 20
312.039359800517
 10
749.6760581922942
 20
314.004770214928
 10
750.3913733669231
 20
314.272779926256
 10
751.7325848304515
 20
314.7194635115533
 10
752.4479000050803
 20
315.7021687187588
 10
749.5866432966984
 20
315.9701784300868
 10
748.3348427386316
 20
316.0595164666978
 10
747.7089424595986
 20
315.5234948447895
 10
745.9206565180937
 20
315.4341590074313
 10
745.0265155424074
 20
314.987475422134
 10
744.5794450545643
 20
313.4687485930198
 10
745.2053453335982
 20
312.5753814224253
 10
745.9206565180937
 20
311.7713500891895
 10
746.9042163795073
 20
311.7713500891895
 10
747.5301166585411
 20
311.7713500891895
  0
LWPOLYLINE
  5
3C1
330
1F
100
AcDbEntity
  8
Drawing
100
AcDbPolyline
 90
        7
 70
     1
 43
0.0
 10
751.8219997260464
 20
317.5782410965593
 10
751.2855143426084
 20
320.4370186815648
 10
749.4078135055086
 20
319.9009992589089
 10
749.4972284011035
 20
318.4716104664061
 10
749.5866432966984
 20
317.4889052592006
 10
750.8384438547653
 20
317.5782410965593
 10
751.8219997260464
 20
317.6675791331703
  0
LWPOLYLINE
  5
3C2
330
1F
100
AcDbEntity
  8
Drawing
100
AcDbPolyline
 90
       13
 70
     1
 43
0.0
 10
750.4807842723847
 20
322.5811029699452
 10
751.0172696558227
 20
322.3130910593649
 10
751.4643441337992
 20
322.2237552220066
 10
752.0902444128321
 20
322.2237552220066
 10
752.8055555973276
 20
322.3130910593649
 10
752.8055555973276
 20
323.0277865552429
 10
752.9843853885184
 20
324.6358492217149
 10
751.8219997260464
 20
325.2612066809814
 10
750.9278587503611
 20
325.5292163923094
 10
750.6596140635754
 20
324.6358492217149
 10
750.0337137845415
 20
324.0998275998066
 10
749.6760581922942
 20
323.4744701405401
 10
750.3913733669231
 20
322.7597746446621
  0
LWPOLYLINE
  5
3C3
330
1F
100
AcDbEntity
  8
Drawing
100
AcDbPolyline
 90
        3
 70
     0
 43
0.0
 10
811.2047665178004
 20
310.0382533181568
 10
812.1883223890816
 20
311.7356518219875
 10
813.5295378427434
 20
309.7702414075765
  0
LWPOLYLINE
  5
3C4
330
1F
100
AcDbEntity
  8
Drawing
100
AcDbPolyline
 90
       12
 70
     0
 43
0.0
 10
793.3219110928819
 20
318.4359099999518
 10
797.0773127670825
 20
318.4359099999518
 10
801.8162663224318
 20
319.5972890811271
 10
803.2468966716885
 20
320.2226465403936
 10
805.9293235888797
 20
320.2226465403936
 10
810.4000364475767
 20
320.0439726664243
 10
814.2448490272388
 20
319.5079532437684
 10
817.7320060146537
 20
319.9546368290656
 10
820.4144329318449
 20
320.0439726664243
 10
823.4545194314167
 20
320.7586681623019
 10
825.6898758607647
 20
321.2053517475991
 10
827.8358173945178
 20
321.1160137109881
  0
LWPOLYLINE
  5
3C5
330
1F
100
AcDbEntity
  8
Drawing
100
AcDbPolyline
 90
        2
 70
     0
 43
0.0
 10
810.4894513431716
 20
310.9316204887513
 10
802.8892370893079
 20
311.6463137853765
  0
LWPOLYLINE
  5
3C6
102
{ACAD_REACTORS
330
3CD
102
}
330
1F
100
AcDbEntity
  8
Drawing
100
AcDbPolyline
 90
       19
 70
     0
 43
0.0
 10
798.865594718455
 20
318.3465741625936
 10
799.9385694754644
 20
317.2745331180294
 10
801.190366043398
 20
316.7385114961211
 10
802.799822193713
 20
315.3984607402293
 10
804.2304525429706
 20
314.505091370382
 10
805.124593518656
 20
314.3264174964128
 10
806.6446387635085
 20
313.6117241997875
 10
808.8799951928565
 20
312.8076928665513
 10
810.757692039824
 20
312.271671244643
 10
813.2612931559577
 20
312.629018992582
 10
815.3178197941149
 20
312.629018992582
 10
816.3907945511253
 20
311.9143256959568
 10
817.6425911190588
 20
311.8249876593458
 10
819.5202919561586
 20
312.986366740521
 10
820.8615074098213
 20
314.3264174964128
 10
822.5603784557313
 20
316.0238181994958
 10
823.9910048148556
 20
317.5425428293573
 10
825.1533904773266
 20
318.6145838739216
 10
826.4727257626686
 20
319.4988376963296
  0
LWPOLYLINE
  5
3C7
330
1F
100
AcDbEntity
  8
Drawing
100
AcDbPolyline
 90
       12
 70
     1
 43
0.0
 10
797.166723672545
 20
318.5252480365629
 10
799.2232543008356
 20
318.8825957845019
 10
801.5480256257795
 20
319.7759629550964
 10
802.7104112882505
 20
319.9546368290656
 10
802.9786519849029
 20
321.1160137109881
 10
802.3527517058699
 20
321.5626994955381
 10
801.5480256257795
 20
321.5626994955381
 10
800.0279803809269
 20
320.9373420362712
 10
798.5079391262068
 20
320.9373420362712
 10
797.0773127670825
 20
320.4906562517216
 10
796.630238289107
 20
319.8652987924546
 10
796.7196531847019
 20
319.1506054958298
  0
MTEXT
  5
3C8
330
1F
100
AcDbEntity
  8
Drawing
100
AcDbMText
 10
786.2748100181408
 20
320.3937551659978
 30
0.0
 40
3.5
 41
0.0
 46
0.0
 71
     1
 72
     5
  1
{\fArial|b0|i0|c0|p34;N}
  7
verdana
 73
     1
 44
1.0
  0
MTEXT
  5
3C9
330
1F
100
AcDbEntity
  8
Drawing
100
AcDbMText
 10
788.1485387754666
 20
311.1172934438179
 30
0.0
 40
3.5
 41
0.0
 46
0.0
 71
     1
 72
     5
  1
{\fArial|b0|i0|c0|p34;5.49}
  7
verdana
 73
     1
 44
1.0
  0
LWPOLYLINE
  5
3CA
330
1F
100
AcDbEntity
  8
Drawing
100
AcDbPolyline
 90
       14
 70
     1
 43
0.0
 10
803.8727969507224
 20
314.6837652443518
 10
804.9457677175985
 20
314.3264174964128
 10
805.661078902094
 20
314.1477458216958
 10
806.1975682756654
 20
314.1477458216958
 10
806.1975682756654
 20
314.862439118321
 10
805.0351826131944
 20
315.3984607402293
 10
804.0516227517799
 20
316.2918279108238
 10
803.1574817760936
 20
316.8278495327321
 10
802.6209963926556
 20
317.3638689553881
 10
801.9950961136217
 20
317.7212167033266
 10
801.6374405213744
 20
317.7212167033266
 10
801.3691958345887
 20
317.7212167033266
 10
801.3691958345887
 20
316.9171853700908
 10
801.9950961136217
 20
316.2024920734656
  0
LWPOLYLINE
  5
3CB
330
1F
100
AcDbEntity
  8
Drawing
100
AcDbPolyline
 90
       12
 70
     1
 43
0.0
 10
821.3085778976645
 20
320.2226465403936
 10
822.3815486645406
 20
321.1160137109881
 10
823.0074489435744
 20
322.0093830808354
 10
821.5768185943168
 20
323.7961174220244
 10
819.8779475484068
 20
324.4214770805437
 10
818.9838065727206
 20
324.2428032065744
 10
818.5367360848775
 20
323.5281077106969
 10
818.2684913980918
 20
322.4560666661326
 10
818.2684913980918
 20
321.3840256215689
 10
818.5367360848775
 20
320.8480039996606
 10
819.0732214683164
 20
320.3119845770046
 10
820.1461922351925
 20
320.1333107030354
  0
LWPOLYLINE
  5
3CC
330
1F
100
AcDbEntity
  8
Drawing
100
AcDbPolyline
 90
        5
 70
     0
 43
0.0
 10
815.6754793764965
 20
312.8076928665513
 10
817.1061057356208
 20
313.8797339111155
 10
818.2684913980918
 20
314.1477458216958
 10
819.4308770605637
 20
314.2370816590545
 10
820.8615074098213
 20
314.3264174964128
  0
HATCH
  5
3CD
330
1F
100
AcDbEntity
  8
Drawing
 62
     1
100
AcDbHatch
 10
0.0
 20
0.0
 30
0.0
210
0.0
220
0.0
230
1.0
  2
SOLID
 70
     1
 71
     1
 91
        1
 92
        7
 72
     0
 73
     1
 93
       10
 10
811.920077702296
 20
312.629018992582
 10
811.9200777022959
 20
313.8797339111154
 10
811.383592318858
 20
314.4157555330237
 10
810.4000364475766
 20
314.505091370382
 10
810.0423808553285
 20
314.7731032809628
 10
808.9694100884524
 20
313.7010600371463
 10
808.9694100884524
 20
312.8970309031624
 10
809.1600051641702
 20
312.727759090651
 10
810.5149961424107
 20
312.3409530612323
 10
811.025936726611
 20
312.4503451186131
 97
        2
330
3D0
330
3C6
 75
     0
 76
     1
 47
0.0893367883865676
 98
        1
 10
810.8665947461238
 20
313.4330503258183
450
        1
451
        0
460
0.0
461
0.0
452
        1
462
0.4900000095367432
453
        2
463
0.0
 63
     1
421
 16711680
463
1.0
 63
     1
421
 16384000
470
LINEAR
  0
LWPOLYLINE
  5
3D0
102
{ACAD_REACTORS
330
3CD
102
}
330
1F
100
AcDbEntity
  8
Drawing
100
AcDbPolyline
 90
        9
 70
     1
 43
0.0
 10
810.0423808553285
 20
314.7731032809628
 10
808.9694100884524
 20
313.7010600371462
 10
808.9694100884524
 20
312.8970309031623
 10
809.7741361685428
 20
312.1823354072848
 10
811.0259367266096
 20
312.4503451186127
 10
811.9200777022959
 20
312.629018992582
 10
811.9200777022959
 20
313.8797339111155
 10
811.3835923188578
 20
314.4157555330238
 10
810.4000364475767
 20
314.505091370382
  0
LWPOLYLINE
  5
3D1
330
1F
100
AcDbEntity
  8
Drawing
100
AcDbPolyline
 90
        6
 70
     1
 43
0.0
 10
812.6353928769247
 20
314.9517749556793
 10
812.7248077725196
 20
314.1477458216958
 10
813.4401229471484
 20
313.7903980737573
 10
813.7083636438008
 20
314.505091370382
 10
813.3507080515526
 20
315.130448829649
 10
812.9036375637104
 20
315.130448829649
  0
LWPOLYLINE
  5
3D2
330
1F
100
AcDbEntity
  8
Drawing
100
AcDbPolyline
 90
       16
 70
     1
 43
0.0
 10
810.5788662387665
 20
315.6664704515573
 10
811.5624221100477
 20
315.5771346141986
 10
812.0989074934857
 20
315.3091227036183
 10
812.3671521802714
 20
316.7385114961211
 10
812.3671521802714
 20
317.3638689553881
 10
812.3671521802714
 20
317.5425428293573
 10
811.2047665178004
 20
317.6318808659684
 10
810.4000364475767
 20
317.6318808659684
 10
810.2212066563859
 20
317.2745331180294
 10
809.8635510641377
 20
316.7385114961211
 10
809.5058954718904
 20
316.4705017847936
 10
809.4164805762955
 20
316.2918279108238
 10
809.3270656806997
 20
316.1131540368546
 10
808.4329247050134
 20
315.8451443255266
 10
808.8799951928565
 20
315.5771346141986
 10
809.3270656806997
 20
315.7558062889156
  0
MTEXT
  5
3D3
330
1F
100
AcDbEntity
  8
Drawing
100
AcDbMText
 10
829.9089718283595
 20
320.2150812920286
 30
0.0
 40
3.5
 41
0.0
 46
0.0
 71
     1
 72
     5
  1
{\fArial|b0|i0|c0|p34;S}
  7
verdana
 73
     1
 44
1.0
  0
LWPOLYLINE
  5
3D4
330
1F
100
AcDbEntity
  8
Drawing
100
AcDbPolyline
 90
        2
 70
     0
 43
0.0
 10
884.6477652857118
 20
307.3581496071205
 10
888.4031669599124
 20
310.9316204887513
  0
LWPOLYLINE
  5
3D5
330
1F
100
AcDbEntity
  8
Drawing
100
AcDbPolyline
 90
        2
 70
     0
 43
0.0
 10
897.6128333739568
 20
311.6463137853765
 10
901.5470648393482
 20
307.1794757331512
  0
HATCH
  5
3D6
330
1F
100
AcDbEntity
  8
Drawing
 62
     1
100
AcDbHatch
 10
0.0
 20
0.0
 30
0.0
210
0.0
220
0.0
230
1.0
  2
SOLID
 70
     1
 71
     1
 91
       18
 92
        7
 72
     0
 73
     1
 93
        4
 10
879.9088117303634
 20
316.3811637481826
 10
878.9252518689489
 20
317.3638689553882
 10
878.606547435374
 20
316.4722681888109
 10
878.5504598743112
 20
316.126694458466
 97
        2
330
3E9
330
3DC
 92
        7
 72
     0
 73
     1
 93
        5
 10
880.4452971138014
 20
322.1880569548047
 10
880.0146491220603
 20
321.273723410433
 10
880.5347120093966
 20
321.7413733695075
 10
879.9390018926813
 20
320.6832528941827
 10
881.0711973928344
 20
320.7586681623019
 97
        2
330
3E8
330
3DC
 92
        7
 72
     0
 73
     1
 93
        3
 10
883.48537962324
 20
327.637600214236
 10
882.2335830553064
 20
326.6548950070304
 10
883.5747945188356
 20
326.0295375477635
 97
        1
330
3F0
 92
        7
 72
     0
 73
     1
 93
        4
 10
888.082003072804
 20
329.207375377918
 10
887.7364217563157
 20
329.1144148997279
 10
887.419607098498
 20
328.8883151327695
 10
888.2243371687216
 20
328.7096412587997
 97
        2
330
3DC
330
3EF
 92
        7
 72
     0
 73
     1
 93
        4
 10
890.8173491903178
 20
331.3897449698359
 10
889.9410880588686
 20
330.8894576445767
 10
889.6675148995357
 20
330.6275104223981
 10
890.9067640859128
 20
330.0496942139443
 97
        2
330
3E7
330
3DC
 92
        7
 72
     0
 73
     1
 93
        5
 10
894.6621657601135
 20
333.0942925909372
 10
894.4833359689233
 20
333.0871456729194
 10
894.2747545470769
 20
332.9978310042866
 10
893.4997800976422
 20
332.6404598883695
 10
894.6621657601133
 20
331.7470927177749
 97
        2
330
3DC
330
3E6
 92
        7
 72
     0
 73
     1
 93
        3
 10
899.2222935144054
 20
333.2658195468888
 10
897.6128333739567
 20
333.2658195468887
 10
898.2387336529906
 20
332.104440465714
 97
        1
330
3E5
 92
        7
 72
     0
 73
     1
 93
        3
 10
901.8153055360006
 20
330.0496942139444
 10
901.4576499437533
 20
328.7989792954107
 10
902.1729611282486
 20
328.7989792954107
 97
        1
330
3FE
 92
        7
 72
     0
 73
     1
 93
        4
 10
903.7824212686963
 20
326.1188755843748
 10
903.7656799403172
 20
326.1899640411039
 10
902.7988614072815
 20
325.1361703771688
 10
903.7824212686963
 20
324.833798356602
 97
        2
330
3DC
330
3FD
 92
        7
 72
     0
 73
     1
 93
        3
 10
904.2294917565395
 20
322.0987189181935
 10
903.5141765819105
 20
321.2946875849578
 10
904.408317557597
 20
321.1160137109882
 97
        1
330
3F2
 92
        7
 72
     0
 73
     1
 93
        3
 10
904.4977324531918
 20
317.8998905772963
 10
903.7824212686962
 20
317.3638689553881
 10
904.6765622443825
 20
316.827849532732
 97
        1
330
3F7
 92
        7
 72
     0
 73
     1
 93
        3
 10
906.6436779770781
 20
311.3783040740485
 10
905.5707032200687
 20
311.3783040740486
 10
906.1966034991018
 20
310.0382533181568
 97
        1
330
3DA
 92
        7
 72
     0
 73
     1
 93
        3
 10
902.798861407282
 20
306.5541182738843
 10
901.6364757448108
 20
307.1794757331511
 10
901.6364757448108
 20
305.8394227780068
 97
        1
330
3E4
 92
        7
 72
     0
 73
     1
 93
        3
 10
897.8810780607433
 20
305.9287608146177
 10
897.5234224684955
 20
304.8567175708013
 10
898.6858081309673
 20
304.9460556074122
 97
        1
330
3E3
 92
        7
 72
     0
 73
     1
 93
        4
 10
894.1256803766753
 20
305.8394227780067
 10
893.415625258192
 20
304.4205449680317
 10
893.4711710261678
 20
304.4136077522846
 10
894.930406456767
 20
304.499372022115
 97
        2
330
3E2
330
3DC
 92
        7
 72
     0
 73
     1
 93
        3
 10
890.1914529014173
 20
306.1074324893345
 10
889.4761377267886
 20
304.8567175708012
 10
890.7279382848553
 20
304.7673817334424
 97
        1
330
3DE
 92
        7
 72
     0
 73
     1
 93
        3
 10
884.6477652857118
 20
307.1794757331512
 10
883.3065538221824
 20
307.0008018591816
 10
884.1112799022738
 20
306.018096651976
 97
        1
330
3DF
 92
        7
 72
     0
 73
     1
 93
        4
 10
881.7865085773299
 20
311.2889682366903
 10
880.2616041630074
 20
311.1285908026315
 10
880.6078714793906
 20
310.5327577557665
 10
880.8923676016447
 20
310.2169249928738
 97
        2
330
3D9
330
3DC
 75
     0
 76
     1
 47
0.0893367883865676
 98
       18
 10
879.0146667645438
 20
316.3811637481825
 10
880.4452971138014
 20
321.0266778736299
 10
883.2171389265875
 20
326.7442330436414
 10
887.9560924819359
 20
328.97765316938
 10
890.4596935980696
 20
330.6750516732108
 10
894.1256803766753
 20
332.3724501770415
 10
898.1493187573958
 20
332.9978076363085
 10
901.8153055360006
 20
329.0669890067387
 10
903.4247616863156
 20
325.1361703771689
 10
903.9612470697537
 20
321.4733614589271
 10
904.4083175575968
 20
317.4532069919991
 10
906.0177776980443
 20
311.02095632611
 10
901.9047204315964
 20
306.4647802372732
 10
897.8810780607434
 20
305.3034033553507
 10
894.3939210733276
 20
304.7673817334424
 10
890.1914529014173
 20
305.1247294813815
 10
883.9324541012163
 20
306.732792147854
 10
880.9817824972395
 20
310.842284651393
450
        1
451
        0
460
0.0
461
0.0
452
        1
462
0.4900000095367432
453
        2
463
0.0
 63
     1
421
 16711680
463
1.0
 63
     1
421
 16384000
470
LINEAR
  0
LWPOLYLINE
  5
3D9
102
{ACAD_REACTORS
330
3D6
102
}
330
1F
100
AcDbEntity
  8
Drawing
100
AcDbPolyline
 90
        3
 70
     1
 43
0.0
 10
880.0876375314199
 20
311.110294362721
 10
881.7865085773299
 20
311.2889682366903
 10
880.8923676016445
 20
310.2169249928737
  0
LWPOLYLINE
  5
3DA
102
{ACAD_REACTORS
330
3D6
102
}
330
1F
100
AcDbEntity
  8
Drawing
100
AcDbPolyline
 90
        3
 70
     1
 43
0.0
 10
906.1966034991017
 20
310.0382533181568
 10
905.5707032200687
 20
311.3783040740485
 10
906.6436779770781
 20
311.3783040740485
  0
LWPOLYLINE
  5
3DB
330
1F
100
AcDbEntity
  8
Drawing
  6
DASHED2
 48
0.175
100
AcDbPolyline
 90
       29
 70
     1
 43
0.0
 10
885.5419102515305
 20
321.7413733695074
 10
884.1112799022737
 20
319.8652987924546
 10
883.8430392056214
 20
317.3638689553881
 10
883.8430392056214
 20
316.3811637481825
 10
884.5583503901169
 20
315.4877965775876
 10
885.8995658437786
 20
314.4157555330238
 10
887.2407812974404
 20
313.4330503258183
 10
888.1349222731267
 20
312.361009281254
 10
888.9396523433504
 20
310.484936903454
 10
889.8337933190367
 20
309.0555481109512
 10
891.5326643649466
 20
308.3408526150737
 10
893.9468505854854
 20
308.162178741104
 10
895.3774769446088
 20
308.4301906516847
 10
896.3610368060233
 20
308.7875383996233
 10
897.2551777817096
 20
309.7702414075765
 10
897.4340075729003
 20
311.8249876593458
 10
899.3117044198668
 20
313.4330503258183
 10
900.4740900823388
 20
315.2197868662601
 10
900.6529198735295
 20
318.8825957845019
 10
900.3846791768772
 20
323.2600979993689
 10
900.1164344900915
 20
326.1188755843745
 10
899.5799491066525
 20
328.4416315474717
 10
897.8810780607434
 20
329.9603561773332
 10
895.2880660391472
 20
330.3177039252722
 10
892.8738798186084
 20
329.513672592036
 10
890.2808638068798
 20
327.9056099255635
 10
889.1184781444078
 20
325.8508636737942
 10
887.5984368896886
 20
324.0641293326051
 10
887.0619515062506
 20
323.2600979993689
  0
LWPOLYLINE
  5
3DC
102
{ACAD_REACTORS
330
3D6
102
}
330
1F
100
AcDbEntity
  8
Drawing
100
AcDbPolyline
 90
       47
 70
     1
 43
0.0
 10
878.9252518689489
 20
318.8825957845019
 10
879.998222635825
 20
321.4733614589271
 10
880.6241229148588
 20
322.9027502514299
 10
880.8029527060487
 20
325.1361703771689
 10
882.9488942398018
 20
327.4589263402662
 10
885.8995658437786
 20
328.6203054214415
 10
888.2243371687216
 20
329.245662880708
 10
890.3702787024747
 20
331.3004091324777
 10
893.2315354108566
 20
332.5511240510112
 10
894.4833359689235
 20
333.0871456729195
 10
896.7186923982715
 20
333.1764815102778
 10
898.6858081309672
 20
333.4444912216057
 10
899.6693640022484
 20
333.4444912216057
 10
900.2952642812813
 20
332.5511240510112
 10
900.3846791768772
 20
331.747092717775
 10
901.9941353271913
 20
330.3177039252722
 10
902.3517909194395
 20
328.6203054214415
 10
903.4247616863156
 20
327.6376002142359
 10
903.7824212686962
 20
326.1188755843745
 10
903.7824212686962
 20
324.4214770805437
 10
904.1400768609444
 20
323.1707599627579
 10
904.4083175575968
 20
321.3840256215689
 10
904.4083175575968
 20
319.3292793697991
 10
904.5871473487875
 20
317.5425428293573
 10
905.1236327322256
 20
315.6664704515573
 10
906.1966034991017
 20
313.4330503258183
 10
906.6436779770781
 20
311.5569779480182
 10
906.6436779770781
 20
310.2169249928737
 10
905.9283628024493
 20
308.608864525654
 10
905.5707032200687
 20
307.4474854444787
 10
903.9612470697537
 20
306.8221279852122
 10
901.6364757448107
 20
305.750086940648
 10
898.8646339320246
 20
304.8567175708012
 10
896.3610368060233
 20
304.6780458960842
 10
894.2150912821378
 20
304.3206981481452
 10
891.3538345737559
 20
304.6780458960842
 10
888.3137520643174
 20
304.8567175708012
 10
885.1842506691498
 20
304.9460556074122
 10
883.4853796232399
 20
306.5541182738842
 10
881.5182678806775
 20
308.9662100743402
 10
879.9088117303634
 20
311.7356518219875
 10
879.1934965557346
 20
313.1650406144903
 10
878.3887664855108
 20
313.9690719477265
 10
878.3887664855108
 20
315.130448829649
 10
878.9252518689489
 20
318.4359099999518
 10
879.6405670435777
 20
320.9373420362712
 10
880.5347120093963
 20
321.7413733695074
  0
LWPOLYLINE
  5
3DD
330
1F
100
AcDbEntity
  8
Drawing
100
AcDbPolyline
 90
        2
 70
     0
 43
0.0
 10
890.1020380058224
 20
306.1074324893347
 10
890.5491084936655
 20
308.608864525654
  0
LWPOLYLINE
  5
3DE
102
{ACAD_REACTORS
330
3D6
102
}
330
1F
100
AcDbEntity
  8
Drawing
100
AcDbPolyline
 90
        3
 70
     1
 43
0.0
 10
889.4761377267885
 20
304.8567175708012
 10
890.1914529014173
 20
306.1074324893347
 10
890.7279382848553
 20
304.7673817334424
  0
LWPOLYLINE
  5
3DF
102
{ACAD_REACTORS
330
3D6
102
}
330
1F
100
AcDbEntity
  8
Drawing
100
AcDbPolyline
 90
        3
 70
     1
 43
0.0
 10
883.3065538221824
 20
307.0008018591815
 10
884.6477652857118
 20
307.1794757331512
 10
884.1112799022737
 20
306.018096651976
  0
LWPOLYLINE
  5
3E0
330
1F
100
AcDbEntity
  8
Drawing
100
AcDbPolyline
 90
        2
 70
     0
 43
0.0
 10
894.0362654810804
 20
305.8394227780067
 10
893.9468505854854
 20
308.0728429037457
  0
LWPOLYLINE
  5
3E1
330
1F
100
AcDbEntity
  8
Drawing
100
AcDbPolyline
 90
        2
 70
     0
 43
0.0
 10
896.7186923982715
 20
308.6982003630122
 10
897.8810780607434
 20
306.2861063633039
  0
LWPOLYLINE
  5
3E2
102
{ACAD_REACTORS
330
3D6
102
}
330
1F
100
AcDbEntity
  8
Drawing
100
AcDbPolyline
 90
        3
 70
     1
 43
0.0
 10
893.4103652020465
 20
304.4100339855039
 10
894.1256803766753
 20
305.8394227780067
 10
894.9304064567666
 20
304.4993720221149
  0
LWPOLYLINE
  5
3E3
102
{ACAD_REACTORS
330
3D6
102
}
330
1F
100
AcDbEntity
  8
Drawing
100
AcDbPolyline
 90
        3
 70
     1
 43
0.0
 10
897.5234224684953
 20
304.8567175708012
 10
897.8810780607434
 20
305.9287608146177
 10
898.6858081309672
 20
304.9460556074122
  0
LWPOLYLINE
  5
3E4
102
{ACAD_REACTORS
330
3D6
102
}
330
1F
100
AcDbEntity
  8
Drawing
100
AcDbPolyline
 90
        3
 70
     1
 43
0.0
 10
901.6364757448107
 20
305.8394227780067
 10
901.6364757448107
 20
307.1794757331512
 10
902.7988614072817
 20
306.5541182738842
  0
LWPOLYLINE
  5
3E5
102
{ACAD_REACTORS
330
3D6
102
}
330
1F
100
AcDbEntity
  8
Drawing
100
AcDbPolyline
 90
        3
 70
     1
 43
0.0
 10
897.6128333739568
 20
333.2658195468888
 10
898.2387336529907
 20
332.104440465714
 10
899.2222935144052
 20
333.2658195468888
  0
LWPOLYLINE
  5
3E6
102
{ACAD_REACTORS
330
3D6
102
}
330
1F
100
AcDbEntity
  8
Drawing
100
AcDbPolyline
 90
        3
 70
     1
 43
0.0
 10
894.6621657601133
 20
333.1764815102778
 10
894.6621657601133
 20
331.747092717775
 10
893.4997800976423
 20
332.6404598883695
  0
LWPOLYLINE
  5
3E7
102
{ACAD_REACTORS
330
3D6
102
}
330
1F
100
AcDbEntity
  8
Drawing
100
AcDbPolyline
 90
        3
 70
     1
 43
0.0
 10
890.8173491903178
 20
331.389744969836
 10
890.9067640859128
 20
330.0496942139442
 10
889.5655526223843
 20
330.6750516732108
  0
LWPOLYLINE
  5
3E8
102
{ACAD_REACTORS
330
3D6
102
}
330
1F
100
AcDbEntity
  8
Drawing
100
AcDbPolyline
 90
        3
 70
     1
 43
0.0
 10
880.4452971138014
 20
322.1880569548047
 10
881.0711973928344
 20
320.7586681623019
 10
879.7299819391726
 20
320.6693301256909
  0
LWPOLYLINE
  5
3E9
102
{ACAD_REACTORS
330
3D6
102
}
330
1F
100
AcDbEntity
  8
Drawing
100
AcDbPolyline
 90
        3
 70
     1
 43
0.0
 10
878.9252518689489
 20
317.3638689553881
 10
879.9088117303634
 20
316.3811637481825
 10
878.4781813811057
 20
316.1131540368546
  0
LWPOLYLINE
  5
3EA
330
1F
100
AcDbEntity
  8
Drawing
100
AcDbPolyline
 90
        2
 70
     0
 43
0.0
 10
881.3394380894877
 20
320.6693301256909
 10
883.6642094144306
 20
319.8652987924546
  0
LWPOLYLINE
  5
3EB
330
1F
100
AcDbEntity
  8
Drawing
100
AcDbPolyline
 90
        2
 70
     0
 43
0.0
 10
879.998222635825
 20
316.2918279108238
 10
883.3959687177783
 20
316.2918279108238
  0
LWPOLYLINE
  5
3EC
330
1F
100
AcDbEntity
  8
Drawing
100
AcDbPolyline
 90
        2
 70
     0
 43
0.0
 10
882.0547532641156
 20
311.2889682366903
 10
886.0783956349694
 20
313.6117241997875
  0
LWPOLYLINE
  5
3ED
330
1F
100
AcDbEntity
  8
Drawing
100
AcDbPolyline
 90
        2
 70
     0
 43
0.0
 10
888.4031669599124
 20
328.7989792954107
 10
889.7443784234417
 20
327.8162740882052
  0
LWPOLYLINE
  5
3EE
330
1F
100
AcDbEntity
  8
Drawing
100
AcDbPolyline
 90
        2
 70
     0
 43
0.0
 10
883.5747945188357
 20
325.8508636737942
 10
886.9725366106547
 20
323.7067815846661
  0
LWPOLYLINE
  5
3EF
102
{ACAD_REACTORS
330
3D6
102
}
330
1F
100
AcDbEntity
  8
Drawing
100
AcDbPolyline
 90
        3
 70
     1
 43
0.0
 10
888.0455073775317
 20
329.3349987180667
 10
888.2243371687216
 20
328.7096412587997
 10
887.4196070984979
 20
328.8883151327694
  0
LWPOLYLINE
  5
3F0
102
{ACAD_REACTORS
330
3D6
102
}
330
1F
100
AcDbEntity
  8
Drawing
100
AcDbPolyline
 90
        3
 70
     1
 43
0.0
 10
883.4853796232399
 20
327.6376002142359
 10
883.5747945188357
 20
326.0295375477634
 10
882.2335830553063
 20
326.6548950070304
  0
MTEXT
  5
3F1
330
1F
100
AcDbEntity
  8
Drawing
100
AcDbMText
 10
889.7446183723625
 20
325.2157182659074
 30
0.0
 40
3.5
 41
0.0
 46
0.0
 71
     1
 72
     5
  1
{\fArial|b0|i0|c0|p34;5.48}
  7
verdana
 73
     1
 44
1.0
  0
LWPOLYLINE
  5
3F2
102
{ACAD_REACTORS
330
3D6
102
}
330
1F
100
AcDbEntity
  8
Drawing
100
AcDbPolyline
 90
        3
 70
     1
 43
0.0
 10
904.2294917565393
 20
322.0987189181936
 10
903.5141765819105
 20
321.2946875849578
 10
904.4083175575968
 20
321.1160137109881
  0
LWPOLYLINE
  5
3F3
330
1F
100
AcDbEntity
  8
Drawing
100
AcDbPolyline
 90
        2
 70
     0
 43
0.0
 10
900.5635049779337
 20
314.5944294069931
 10
905.3918774190113
 20
311.5569779480182
  0
LWPOLYLINE
  5
3F4
330
1F
100
AcDbEntity
  8
Drawing
100
AcDbPolyline
 90
        2
 70
     0
 43
0.0
 10
903.3353467907207
 20
321.2946875849578
 10
900.7423347691245
 20
321.2053517475991
  0
LWPOLYLINE
  5
3F5
330
1F
100
AcDbEntity
  8
Drawing
100
AcDbPolyline
 90
        3
 70
     0
 43
0.0
 10
892.4268093307653
 20
318.7932577478908
 10
893.2315354108566
 20
320.3119845770046
 10
894.2150912821378
 20
318.7039219105321
  0
LWPOLYLINE
  5
3F6
330
1F
100
AcDbEntity
  8
Drawing
100
AcDbPolyline
 90
        2
 70
     0
 43
0.0
 10
901.0105754657768
 20
318.0785644512656
 10
903.6930063731013
 20
317.2745331180294
  0
LWPOLYLINE
  5
3F7
102
{ACAD_REACTORS
330
3D6
102
}
330
1F
100
AcDbEntity
  8
Drawing
100
AcDbPolyline
 90
        3
 70
     1
 43
0.0
 10
904.4977324531917
 20
317.8998905772963
 10
903.7824212686962
 20
317.3638689553881
 10
904.6765622443825
 20
316.8278495327321
  0
LWPOLYLINE
  5
3F8
330
1F
100
AcDbEntity
  8
Drawing
100
AcDbPolyline
 90
        2
 70
     0
 43
0.0
 10
902.7988614072817
 20
325.0468345398107
 10
900.9211645603152
 20
324.5108129179024
  0
LWPOLYLINE
  5
3F9
330
1F
100
AcDbEntity
  8
Drawing
100
AcDbPolyline
 90
        2
 70
     0
 43
0.0
 10
901.3682350481583
 20
328.7096412587997
 10
900.2952642812813
 20
327.5482643768772
  0
LWPOLYLINE
  5
3FA
330
1F
100
AcDbEntity
  8
Drawing
100
AcDbPolyline
 90
        2
 70
     0
 43
0.0
 10
898.1493187573958
 20
331.9257665917443
 10
897.8810780607434
 20
329.871020339975
  0
LWPOLYLINE
  5
3FB
330
1F
100
AcDbEntity
  8
Drawing
100
AcDbPolyline
 90
        2
 70
     0
 43
0.0
 10
894.8409915611708
 20
331.747092717775
 10
895.1986511435523
 20
330.4070419618832
  0
LWPOLYLINE
  5
3FC
330
1F
100
AcDbEntity
  8
Drawing
100
AcDbPolyline
 90
        2
 70
     0
 43
0.0
 10
890.9067640859128
 20
329.871020339975
 10
891.5326643649466
 20
329.1563270433497
  0
LWPOLYLINE
  5
3FD
102
{ACAD_REACTORS
330
3D6
102
}
330
1F
100
AcDbEntity
  8
Drawing
100
AcDbPolyline
 90
        3
 70
     1
 43
0.0
 10
903.7824212686962
 20
326.2082114217332
 10
902.7988614072817
 20
325.1361703771689
 10
903.9612470697537
 20
324.7788226292299
  0
LWPOLYLINE
  5
3FE
102
{ACAD_REACTORS
330
3D6
102
}
330
1F
100
AcDbEntity
  8
Drawing
100
AcDbPolyline
 90
        3
 70
     1
 43
0.0
 10
901.8153055360006
 20
330.0496942139442
 10
901.4576499437533
 20
328.7989792954107
 10
902.1729611282487
 20
328.7989792954107
  0
MTEXT
  5
404
330
1F
100
AcDbEntity
  8
Drawing
100
AcDbMText
 10
728.3176995882459
 20
343.3759560313607
 30
0.0
 40
3.5
 41
0.0
 46
0.0
 71
     1
 72
     5
  1
{\fArial|b0|i0|c0|p34;Fill 1078}
  7
verdana
 73
     1
 44
1.0
  0
INSERT
  5
458
330
1F
100
AcDbEntity
  8
Drawing
100
AcDbBlockReference
  2
A$C36576122
 10
767.0159275357335
 20
480.8504985987502
 30
0.0
 41
10.0
 42
10.0
 43
10.0
  0
LWPOLYLINE
  5
45B
102
{ACAD_REACTORS
330
45C
102
}
330
1F
100
AcDbEntity
  8
Drawing
100
AcDbPolyline
 90
        4
 70
     1
 43
0.0
 10
762.8033241254043
 20
274.7015062641995
 10
862.4872061087539
 20
274.7015062641995
 10
862.4872061087539
 20
273.5509076136198
 10
762.8033241254043
 20
273.5509076136198
  0
HATCH
  5
45C
330
1F
100
AcDbEntity
  8
Drawing
100
AcDbHatch
 10
0.0
 20
0.0
 30
0.0
210
0.0
220
0.0
230
1.0
  2
SOLID
 70
     1
 71
     1
 91
        1
 92
        1
 93
        4
 72
     1
 10
762.8033241254043
 20
274.7015062641995
 11
862.4872061087539
 21
274.7015062641995
 72
     1
 10
862.4872061087539
 20
274.7015062641995
 11
862.4872061087539
 21
273.5509076136198
 72
     1
 10
862.4872061087539
 20
273.5509076136198
 11
762.8033241254043
 21
273.5509076136198
 72
     1
 10
762.8033241254043
 20
273.5509076136198
 11
762.8033241254043
 21
274.7015062641995
 97
        1
330
45B
 75
     0
 76
     1
 98
        1
 10
0.0
 20
0.0
  0
LWPOLYLINE
  5
45D
102
{ACAD_REACTORS
330
45E
102
}
330
1F
100
AcDbEntity
  8
Drawing
100
AcDbPolyline
 90
        4
 70
     1
 43
0.0
 10
800.9078012522024
 20
354.5085913579679
 10
831.9544671723106
 20
354.5085913579679
 10
831.9544671723106
 20
353.9644220765215
 10
800.9078012522024
 20
353.9644220765215
  0
HATCH
  5
45E
330
1F
100
AcDbEntity
  8
Drawing
100
AcDbHatch
 10
0.0
 20
0.0
 30
0.0
210
0.0
220
0.0
230
1.0
  2
SOLID
 70
     1
 71
     1
 91
        1
 92
        1
 93
        4
 72
     1
 10
800.9078012522024
 20
354.5085913579679
 11
831.9544671723106
 21
354.5085913579679
 72
     1
 10
831.9544671723106
 20
354.5085913579679
 11
831.9544671723106
 21
353.9644220765215
 72
     1
 10
831.9544671723106
 20
353.9644220765215
 11
800.9078012522024
 21
353.9644220765215
 72
     1
 10
800.9078012522024
 20
353.9644220765215
 11
800.9078012522024
 21
354.5085913579679
 97
        1
330
45D
 75
     0
 76
     1
 98
        1
 10
0.0
 20
0.0
  0
MTEXT
  5
462
330
1F
100
AcDbEntity
  8
Drawing
100
AcDbMText
 10
806.6006242715334
 20
352.672256487589
 30
0.0
 40
3.5
 41
20.57226238471804
 46
0.0
 71
     1
 72
     5
  1
150mm
  7
verdana
 73
     1
 44
1.0
  0
TEXT
  5
463
330
1F
100
AcDbEntity
  8
Drawing
100
AcDbText
 10
793.4055323751144
 20
267.1036805463434
 30
0.0
 40
3.5
  1
metre
100
AcDbText
  0
MTEXT
  5
464
330
1F
100
AcDbEntity
  8
Drawing
100
AcDbMText
 10
761.3812543354087
 20
271.9048818502092
 30
0.0
 40
3.5
 41
3.9151
 46
0.0
 71
     1
 72
     5
  1
0
  7
verdana
 73
     1
 44
1.0
  0
MTEXT
  5
467
330
1F
100
AcDbEntity
  8
Drawing
100
AcDbMText
 10
861.9519371925272
 20
272.2538241075723
 30
0.0
 40
3.5
 41
2.9363
 46
0.0
 71
     1
 72
     5
  1
1
  7
verdana
 73
     1
 44
1.0
  0
HATCH
  5
4CF
330
1F
100
AcDbEntity
  8
Drawing
 62
     1
100
AcDbHatch
 10
0.0
 20
0.0
 30
0.0
210
0.0
220
0.0
230
1.0
  2
SOLID
 70
     1
 71
     1
 91
        5
 92
        7
 72
     0
 73
     1
 93
       11
 10
731.5850358750782
 20
523.5882861766323
 10
731.0142034247791
 20
524.8430323250684
 10
729.0733667095503
 20
524.9571009564727
 10
728.1600331930175
 20
524.9571009564727
 10
727.5892007427188
 20
523.8164212401886
 10
727.1325339844531
 20
522.6757437231563
 10
727.2466996764858
 20
522.333540028196
 10
727.8175321267853
 20
522.1054049646402
 10
728.6166999512833
 20
522.2194713967917
 10
729.415867775782
 20
522.4476086596003
 10
731.2425348088451
 20
522.6757437231561
 97
        1
330
4D9
 92
        7
 72
     0
 73
     1
 93
        9
 10
735.8092063816373
 20
527.2384581897888
 10
735.8092063816373
 20
527.8087969483051
 10
734.7817071730723
 20
528.0369320118609
 10
733.5258725903085
 20
528.0369320118609
 10
733.4117029081415
 20
526.668119431273
 10
733.8683696664071
 20
525.8696434099486
 10
734.3250404148064
 20
525.7555747785443
 10
734.43920610684
 20
525.8696434099485
 10
734.781707173072
 20
526.0977784735044
 97
        1
330
4DD
 92
        7
 72
     0
 73
     1
 93
        7
 10
742.7733814279252
 20
528.1510006432652
 10
741.8600439212604
 20
528.379135706821
 10
741.4033771629944
 20
527.5806618847489
 10
741.4033771629945
 20
526.4399821684641
 10
741.5175468451606
 20
525.9837120413529
 10
742.3167106795261
 20
526.3259157363129
 10
742.3167106795261
 20
526.8962544948288
 97
        1
330
4DE
 92
        7
 72
     0
 73
     1
 93
       15
 10
743.9150463285229
 20
512.4096372728587
 10
744.321591499987
 20
513.01892733974
 10
744.316471596849
 20
513.1161221056639
 10
743.2300481861913
 20
513.5503147898903
 10
742.7733814279251
 20
513.6643834212948
 10
742.4308803616921
 20
514.5769258747707
 10
741.0608800868947
 20
514.4628594426192
 10
741.0608800868947
 20
513.6643834212948
 10
740.3758779544294
 20
512.5237059042628
 10
740.490043646462
 20
511.7252298829383
 10
740.490043646462
 20
509.9001449759865
 10
741.1750457789283
 20
509.9001449759864
 10
741.8600439212603
 20
510.4704837345022
 10
742.2025449874927
 20
510.6986187980582
 10
743.4583795702573
 20
511.1548911244224
 97
        2
330
4D8
330
4D4
 92
        7
 72
     0
 73
     1
 93
       13
 10
831.1035932817249
 20
521.5953743200346
 10
831.3661770872478
 20
521.7265525022719
 10
831.4318232589444
 20
521.8577301987812
 10
830.6440718423761
 20
522.1200865632557
 10
829.7250298449404
 20
522.1200865632559
 10
828.5434040419848
 20
521.9889083810186
 10
827.8869449688075
 20
521.9233195327638
 10
827.2304858956319
 20
521.3330184412881
 10
827.1648397239354
 20
521.2018402590509
 10
827.5587149915882
 20
520.9394843803043
 10
828.018236430937
 20
520.8738950463216
 10
829.265508405591
 20
521.2018402590509
 10
830.3158427464197
 20
521.3330184412882
 97
        1
330
4D2
 75
     0
 76
     1
 47
0.179997368057399
 98
        5
 10
729.548794702216
 20
523.2411719859912
 10
734.4129379957545
 20
526.6611219622032
 10
741.9793839023818
 20
527.0211164920242
 10
741.6190768285525
 20
512.2613325119851
 10
828.2728932746202
 20
521.44119836543
450
        1
451
        0
460
0.0
461
0.0
452
        1
462
0.3899999856948853
453
        2
463
0.0
 63
     1
421
 16711680
463
1.0
 63
    12
421
 13041664
470
LINEAR
  0
LWPOLYLINE
  5
4D2
102
{ACAD_REACTORS
330
4CF
102
}
330
1F
100
AcDbEntity
  8
Drawing
100
AcDbPolyline
 90
       13
 70
     1
 43
0.0
 10
828.0182364309372
 20
520.8738950463216
 10
829.2655084055916
 20
521.2018402590509
 10
830.3158427464198
 20
521.3330184412882
 10
831.1035932817251
 20
521.5953743200346
 10
831.3661770872479
 20
521.7265525022719
 10
831.4318232589444
 20
521.8577301987812
 10
830.644071842376
 20
522.1200865632558
 10
829.7250298449408
 20
522.1200865632558
 10
828.5434040419829
 20
521.9889083810185
 10
827.8869449688074
 20
521.9233195327638
 10
827.2304858956319
 20
521.3330184412882
 10
827.1648397239354
 20
521.2018402590509
 10
827.5587149915881
 20
520.9394843803043
  0
LWPOLYLINE
  5
4D3
330
1F
100
AcDbEntity
  8
Drawing
100
AcDbPolyline
 90
       23
 70
     1
 43
0.0
 10
793.4856437595189
 20
522.2812074594472
 10
800.6781503329837
 20
521.9390036958522
 10
810.1539920468301
 20
522.2812074594472
 10
815.5198296267266
 20
522.3952748949173
 10
817.4606644960509
 20
522.5093428161158
 10
820.42900105981
 20
522.5093428161158
 10
825.2240048546112
 20
522.7374786585124
 10
829.4481757455801
 20
522.7374786585124
 10
833.900679269324
 20
522.5093428161158
 10
837.6681831322167
 20
521.8249357746538
 10
834.9281800824957
 20
520.1139179281349
 10
831.6173441289425
 20
518.5169684885427
 10
828.7631752034656
 20
518.0606968037494
 10
824.1965040414394
 20
517.0340864844205
 10
821.2281683589435
 20
516.6918827208256
 10
818.1456650381654
 20
516.9200185632221
 10
812.6656607012497
 20
517.3762897622873
 10
809.5831582617348
 20
517.7184935258824
 10
805.9298211558612
 20
518.9732396876079
 10
802.8473187163462
 20
519.8857825714665
 10
800.906483847022
 20
520.6842575341268
 10
799.0798148534535
 20
520.7983254553251
 10
797.0248132271103
 20
522.0530716170506
  0
LWPOLYLINE
  5
4D4
102
{ACAD_REACTORS
330
4CF
102
}
330
1F
100
AcDbEntity
  8
Drawing
100
AcDbPolyline
 90
       30
 70
     0
 43
0.0
 10
743.4583795702572
 20
522.7898123545604
 10
743.4583795702572
 20
518.6833680150392
 10
743.8008806364894
 20
515.9457406546114
 10
744.2575473947561
 20
514.2347221798107
 10
744.3717130867888
 20
512.0674335778988
 10
745.2850505934537
 20
509.6720099124307
 10
745.7417173517194
 20
507.2765840477098
 10
746.1983841099852
 20
504.9952268143936
 10
745.855883043753
 20
501.5731920640453
 10
744.4858827689557
 20
498.6074274408086
 10
742.3167106795261
 20
495.5275963854203
 10
740.2617122623958
 20
494.0447129741758
 10
737.9783744809336
 20
493.2462391521037
 10
735.8092063816373
 20
492.7899668257394
 10
732.9550361498757
 20
492.5618317621836
 10
730.900033742613
 20
493.3603055842557
 10
728.6166999512832
 20
493.81657791062
 10
726.2191964777883
 20
494.9572554276517
 10
724.6208648189238
 20
496.2120015760881
 10
722.6800281036938
 20
499.9762422206488
 10
721.3100278288964
 20
504.1967529923215
 10
720.8533610706306
 20
508.30319513259
 10
721.1958581467304
 20
515.2613332646908
 10
722.7941937957273
 20
520.7365901848
 10
724.2783637526916
 20
524.5008286301083
 10
726.675863236054
 20
527.9228655797094
 10
726.79003291822
 20
530.2042228130256
 10
728.9592010175163
 20
533.055918804858
 10
731.8133712492779
 20
534.5388000168498
 10
735.5808749975711
 20
535.5654111017304
  0
MTEXT
  5
4D5
330
1F
100
AcDbEntity
  8
Drawing
100
AcDbMText
 10
729.0733682259258
 20
518.3411654865083
 30
0.0
 40
3.5
 41
9.444444444444445
 46
0.0
 71
     1
 72
     5
  1
{\fArial|b0|i0|c0|p34;5.78}
  7
verdana
 73
     1
 44
1.0
  0
LWPOLYLINE
  5
4D6
330
1F
100
AcDbEntity
  8
Drawing
100
AcDbPolyline
 90
        2
 70
     0
 43
0.0
 10
732.1558715467039
 20
513.5503157105468
 10
733.2975391168947
 20
511.7252304285578
  0
LWPOLYLINE
  5
4D7
330
1F
100
AcDbEntity
  8
Drawing
100
AcDbPolyline
 90
        2
 70
     0
 43
0.0
 10
732.0417047896849
 20
513.6643836317451
 10
730.671703705456
 20
511.8392978640279
  0
LWPOLYLINE
  5
4D8
102
{ACAD_REACTORS
330
4CF
102
}
330
1F
100
AcDbEntity
  8
Drawing
100
AcDbPolyline
 90
       14
 70
     1
 43
0.0
 10
740.3758779544294
 20
512.5237059042627
 10
741.0608800868947
 20
513.6643834212948
 10
741.0608800868947
 20
514.4628594426192
 10
742.4308803616921
 20
514.5769258747707
 10
742.7733814279252
 20
513.6643834212948
 10
743.230048186191
 20
513.5503147898905
 10
744.3717130867888
 20
513.094044662779
 10
743.915046328523
 20
512.4096372728588
 10
743.4583795702572
 20
511.1548911244224
 10
742.2025449874925
 20
510.6986187980581
 10
741.8600439212603
 20
510.4704837345023
 10
741.1750457789283
 20
509.9001449759864
 10
740.490043646462
 20
509.9001449759864
 10
740.490043646462
 20
511.7252298829383
  0
LWPOLYLINE
  5
4D9
102
{ACAD_REACTORS
330
4CF
102
}
330
1F
100
AcDbEntity
  8
Drawing
100
AcDbPolyline
 90
       11
 70
     1
 43
0.0
 10
729.4158677757821
 20
522.4476086596003
 10
731.2425348088452
 20
522.6757437231561
 10
731.5850358750783
 20
523.5882861766324
 10
731.014203424779
 20
524.8430323250684
 10
729.073366709549
 20
524.9571009564727
 10
728.1600331930174
 20
524.9571009564727
 10
727.589200742719
 20
523.8164212401882
 10
727.1325339844532
 20
522.6757437231561
 10
727.2466996764858
 20
522.333540028196
 10
727.8175321267852
 20
522.1054049646402
 10
728.6166999512832
 20
522.2194713967917
  0
LWPOLYLINE
  5
4DA
330
1F
100
AcDbEntity
  8
Drawing
100
AcDbPolyline
 90
        8
 70
     1
 43
0.0
 10
737.5217077226678
 20
530.8886280036934
 10
738.5492109213662
 20
531.2308316986534
 10
738.6633766133989
 20
531.2308316986534
 10
739.1200433716647
 20
531.3449003300577
 10
738.8917079974651
 20
532.0293077199779
 10
738.0925401729671
 20
532.1433763513821
 10
737.8642087889
 20
531.5730353936135
 10
737.8642087889
 20
531.3449003300577
  0
LWPOLYLINE
  5
4DB
330
1F
100
AcDbEntity
  8
Drawing
100
AcDbPolyline
 90
        7
 70
     1
 43
0.0
 10
740.490043646462
 20
530.8886280036934
 10
741.0608800868947
 20
531.2308316986534
 10
741.0608800868947
 20
531.6871040250178
 10
740.9467104047287
 20
532.3715114149379
 10
740.490043646462
 20
532.3715114149379
 10
740.1475425802298
 20
531.9152390885736
 10
740.1475425802298
 20
531.3449003300577
  0
LWPOLYLINE
  5
4DC
330
1F
100
AcDbEntity
  8
Drawing
100
AcDbPolyline
 90
        9
 70
     0
 43
0.0
 10
738.7775423054325
 20
535.2232074067704
 10
740.8325447126952
 20
534.0825298897382
 10
741.9742136034263
 20
532.713715109898
 10
742.7733814279252
 20
531.8011726564221
 10
743.0017128119914
 20
530.6604929401371
 10
743.4583795702572
 20
528.0369320118609
 10
743.4583795702572
 20
525.7555747785443
 10
743.4583795702572
 20
523.7023548080363
 10
743.4583795702572
 20
522.333540028196
  0
LWPOLYLINE
  5
4DD
102
{ACAD_REACTORS
330
4CF
102
}
330
1F
100
AcDbEntity
  8
Drawing
100
AcDbPolyline
 90
        9
 70
     1
 43
0.0
 10
734.7817071730722
 20
526.0977784735044
 10
735.8092063816373
 20
527.2384581897888
 10
735.8092063816373
 20
527.8087969483051
 10
734.7817071730722
 20
528.0369320118609
 10
733.5258725903084
 20
528.0369320118609
 10
733.4117029081415
 20
526.668119431273
 10
733.8683696664073
 20
525.8696434099486
 10
734.3250404148064
 20
525.7555747785443
 10
734.43920610684
 20
525.8696434099486
  0
LWPOLYLINE
  5
4DE
102
{ACAD_REACTORS
330
4CF
102
}
330
1F
100
AcDbEntity
  8
Drawing
100
AcDbPolyline
 90
        7
 70
     1
 43
0.0
 10
741.5175468451605
 20
525.9837120413529
 10
742.3167106795261
 20
526.3259157363129
 10
742.3167106795261
 20
526.8962544948288
 10
742.7733814279252
 20
528.1510006432652
 10
741.8600439212603
 20
528.379135706821
 10
741.4033771629945
 20
527.5806618847489
 10
741.4033771629945
 20
526.4399821684644
  0
LWPOLYLINE
  5
4DF
330
1F
100
AcDbEntity
  8
Drawing
100
AcDbPolyline
 90
        8
 70
     1
 43
0.0
 10
735.4667053154051
 20
535.3372760381742
 10
736.7225398981689
 20
534.6528686482541
 10
738.5492109213662
 20
534.9950723432141
 10
738.8917079974651
 20
535.7935461652862
 10
738.7775423054325
 20
536.5920221866106
 10
737.6358734147004
 20
537.1623609451265
 10
736.7225398981689
 20
536.8201572501664
 10
735.6950406896046
 20
536.1357498602463
  0
MTEXT
  5
4E0
330
1F
100
AcDbEntity
  8
Drawing
100
AcDbMText
 10
783.5136711734441
 20
523.6864856429347
 30
0.0
 40
3.5
 41
9.444444444444445
 46
0.0
 71
     1
 72
     5
  1
{\fArial|b0|i0|c0|p34;N}
  7
verdana
 73
     1
 44
1.0
  0
LWPOLYLINE
  5
4E1
330
1F
100
AcDbEntity
  8
Drawing
100
AcDbPolyline
 90
        6
 70
     1
 43
0.0
 10
819.6155625855754
 20
519.2341699541319
 10
819.8125002194017
 20
520.0212380760995
 10
819.8125002194017
 20
520.0212380760995
 10
819.2216873179227
 20
520.0212380760995
 10
819.2873326083561
 20
519.6932928633703
 10
819.418624951749
 20
519.3653481363692
  0
LWPOLYLINE
  5
4E2
330
1F
100
AcDbEntity
  8
Drawing
100
AcDbPolyline
 90
       11
 70
     1
 43
0.0
 10
807.4054257632906
 20
518.7094577109108
 10
808.2588224702924
 20
519.1029917718945
 10
808.3244686419889
 20
519.4965258328783
 10
808.2588224702924
 20
519.6932928633703
 10
807.8649472026398
 20
520.086826924354
 10
807.602363397117
 20
520.086826924354
 10
807.2741343011609
 20
519.9556492278449
 10
807.142842839031
 20
519.6932928633703
 10
807.0115504956381
 20
519.2341699541319
 10
806.9459052052047
 20
518.9062247414026
 10
807.0115504956381
 20
518.8406358931481
  0
LWPOLYLINE
  5
4E3
330
1F
100
AcDbEntity
  8
Drawing
100
AcDbPolyline
 90
        9
 70
     1
 43
0.0
 10
804.188777450373
 20
520.086826924354
 10
804.0574859882431
 20
520.4803609853378
 10
803.8605483544168
 20
520.808306198067
 10
803.597964548894
 20
521.005073228559
 10
803.3353807433712
 20
521.005073228559
 10
803.0727969378484
 20
521.005073228559
 10
802.875859304022
 20
520.4803609853378
 10
803.466672205501
 20
519.9556492278449
 10
803.9261936448502
 20
519.8900598938621
  0
LWPOLYLINE
  5
4E4
330
1F
100
AcDbEntity
  8
Drawing
100
AcDbPolyline
 90
       12
 70
     1
 43
0.0
 10
823.1690032282678
 20
519.4295108866731
 10
825.109838097592
 20
518.8591717664095
 10
825.7948386397065
 20
518.9732396876079
 10
826.1373389107638
 20
519.6576467290697
 10
826.1373389107638
 20
520.45612169173
 10
824.6531710695158
 20
520.9123928907952
 10
823.7398370133632
 20
520.9123928907952
 10
822.5981694431724
 20
520.9123928907952
 10
821.3423351159626
 20
520.9123928907952
 10
821.9131689010579
 20
520.1139179281349
 10
822.8265029572106
 20
519.8857825714665
 10
823.1690032282678
 20
519.5435788078714
  0
MTEXT
  5
4E5
330
1F
100
AcDbEntity
  8
Drawing
100
AcDbMText
 10
820.0516780781592
 20
514.970001117217
 30
0.0
 40
3.5
 41
9.444444444444445
 46
0.0
 71
     1
 72
     5
  1
{\fArial|b0|i0|c0|p34;5.66}
  7
verdana
 73
     1
 44
1.0
  0
LWPOLYLINE
  5
4E6
330
1F
100
AcDbEntity
  8
Drawing
100
AcDbPolyline
 90
        2
 70
     0
 43
0.0
 10
825.1114095649075
 20
509.8069024373265
 10
823.7414084806786
 20
507.9818166696093
  0
LWPOLYLINE
  5
4E7
330
1F
100
AcDbEntity
  8
Drawing
100
AcDbPolyline
 90
        2
 70
     0
 43
0.0
 10
824.9535323489166
 20
509.6928345161282
 10
826.0951999191074
 20
507.8677492341392
  0
LWPOLYLINE
  5
4E8
330
1F
100
AcDbEntity
  8
Drawing
100
AcDbPolyline
 90
        8
 70
     1
 43
0.0
 10
821.191063656186
 20
517.2664996492128
 10
821.7162303859685
 20
517.7256225584513
 10
821.7162303859685
 20
518.0535677711805
 10
820.8628345602299
 20
518.2503348016724
 10
820.5346045830106
 20
518.0535677711805
 10
820.6002507547071
 20
517.7256225584513
 10
820.7315422168369
 20
517.6600337101967
 10
821.191063656186
 20
517.5944443762139
  0
LWPOLYLINE
  5
4E9
330
1F
100
AcDbEntity
  8
Drawing
100
AcDbPolyline
 90
        9
 70
     1
 43
0.0
 10
805.3704032533309
 20
520.1524162583368
 10
805.82992469268
 20
520.3491832888287
 10
805.1734656195046
 20
521.0706620768135
 10
804.7139441801554
 20
521.4641961377973
 10
804.4513612558958
 20
521.5953743200346
 10
803.9918398165466
 20
521.2674291073054
 10
804.188777450373
 20
520.6771280158298
 10
804.188777450373
 20
520.2835939548459
 10
804.7139441801554
 20
520.2180051065914
  0
MTEXT
  5
4EA
330
1F
100
AcDbEntity
  8
Drawing
100
AcDbMText
 10
816.585238854629
 20
533.2161146477152
 30
0.0
 40
3.5
 41
9.444444444444445
 46
0.0
 71
     1
 72
     5
  1
{\fArial|b0|i0|c0|p34;5.78}
  7
verdana
 73
     1
 44
1.0
  0
LWPOLYLINE
  5
4EB
330
1F
100
AcDbEntity
  8
Drawing
100
AcDbPolyline
 90
       10
 70
     1
 43
0.0
 10
814.232599419305
 20
521.6609631682892
 10
815.0859952450437
 20
521.7921413505265
 10
815.9393919520454
 20
521.9233195327638
 10
816.0706842954385
 20
521.3986072895427
 10
815.6111628560893
 20
521.0706620768135
 10
814.9547037829138
 20
521.005073228559
 10
814.232599419305
 20
520.808306198067
 10
813.6417856365629
 20
521.005073228559
 10
813.2479103689102
 20
521.3986072895427
 10
813.6417856365629
 20
521.6609631682892
  0
LWPOLYLINE
  5
4EC
330
1F
100
AcDbEntity
  8
Drawing
100
AcDbPolyline
 90
        2
 70
     0
 43
0.0
 10
820.3766425735632
 20
529.5002619756712
 10
819.0066414893344
 20
527.6751762079539
  0
LWPOLYLINE
  5
4ED
330
1F
100
AcDbEntity
  8
Drawing
100
AcDbPolyline
 90
        2
 70
     0
 43
0.0
 10
820.4908093305822
 20
529.3861940544728
 10
821.632476900773
 20
527.5611087724837
  0
MTEXT
  5
4EE
330
1F
100
AcDbEntity
  8
Drawing
100
AcDbMText
 10
729.8640314344083
 20
550.7090052983654
 30
0.0
 40
3.5
 41
0.0
 46
0.0
 71
     1
 72
     5
  1
{\fArial|b0|i0|c0|p34;Fill 1046}
  7
verdana
 73
     1
 44
1.0
  0
HATCH
  5
4EF
330
1F
100
AcDbEntity
  8
Drawing
 62
     1
100
AcDbHatch
 10
0.0
 20
0.0
 30
0.0
210
0.0
220
0.0
230
1.0
  2
SOLID
 70
     1
 71
     1
 91
       10
 92
        7
 72
     0
 73
     1
 93
        3
 10
908.901440567084
 20
519.1618411415845
 10
907.9695224340799
 20
518.789396912658
 10
908.901440567084
 20
517.6720642258786
 97
        1
330
523
 92
        7
 72
     0
 73
     1
 93
        5
 10
907.9892045647895
 20
525.7122495244895
 10
907.9921311920233
 20
525.7385662342954
 10
907.9695224340801
 20
526.1451712839802
 10
906.8512206744751
 20
525.0278385972007
 10
907.9892045647894
 20
524.5030701713237
 97
        2
330
4FA
330
529
 92
        7
 72
     0
 73
     1
 93
        7
 10
905.7126376639801
 20
532.796584549488
 10
905.560306787177
 20
532.9270408044338
 10
905.5603067871771
 20
533.1009822961541
 10
905.360151661669
 20
533.5009456553023
 10
904.8110603534126
 20
532.5604619598028
 10
904.7520595784009
 20
532.3836129685227
 10
905.9193025414714
 20
532.3836129685227
 97
        3
330
4FA
330
4F2
330
514
 92
        7
 72
     0
 73
     1
 93
        3
 10
893.9907495577573
 20
534.8045006994091
 10
892.5593075526367
 20
533.6266874155276
 10
893.5471830838184
 20
533.2976814503912
 97
        2
330
519
330
513
 92
        7
 72
     0
 73
     1
 93
        4
 10
886.7423406100901
 20
525.9120129859948
 10
886.622619881227
 20
525.6782161097094
 10
886.1626372405238
 20
524.3760608322832
 10
887.374130813429
 20
524.469172010947
 97
        2
330
4FA
330
516
 92
        7
 72
     0
 73
     1
 93
        5
 10
884.196425354689
 20
514.9201905226923
 10
884.1749925655154
 20
514.9333685020333
 10
884.1612651969267
 20
514.5081905552001
 10
884.2839433315331
 20
513.3437582791664
 10
885.2100799250532
 20
514.1457145193224
 97
        4
330
500
330
4FA
330
4FF
330
501
 92
        7
 72
     0
 73
     1
 93
        4
 10
887.094555373528
 20
505.0089589851943
 10
886.3080264412783
 20
504.9216424980227
 10
886.3220306558968
 20
504.8423541933889
 10
887.0945553735279
 20
503.9847369913504
 97
        2
330
502
330
4FA
 92
        7
 72
     0
 73
     1
 93
        5
 10
893.4814623082851
 20
499.0984618132899
 10
893.4315986779551
 20
499.422294579841
 10
892.634578443883
 20
499.2232122738422
 10
892.3434845229369
 20
499.1214176344655
 10
893.4814623082852
 20
498.3092805211235
 97
        3
330
503
330
505
330
504
 92
        7
 72
     0
 73
     1
 93
        4
 10
907.8763306207795
 20
500.7258496239476
 10
906.926558170039
 20
501.1724140560692
 10
906.2964353900435
 20
501.3747781991476
 10
906.3852616079732
 20
499.4222945798408
 97
        2
330
51F
330
4F7
 92
        7
 72
     0
 73
     1
 93
        3
 10
910.3085525446751
 20
510.0931603947561
 10
909.5977073353043
 20
509.6365846324195
 10
910.578893206491
 20
509.0127348104501
 97
        2
330
526
330
521
 75
     0
 76
     1
 47
0.0740232987626095
 98
       10
 10
908.4653025635834
 20
518.343161829348
 10
907.5762525941966
 20
524.9312355186163
 10
905.4277145806697
 20
532.6296585805507
 10
893.3514530840072
 20
533.9620780220412
 10
886.9058416872157
 20
524.783188967976
 10
884.5350420626052
 20
514.1978569542362
 10
886.7576669860722
 20
504.7228747988904
 10
892.8328411893735
 20
499.0230808991918
 10
906.7612895347498
 20
500.5035468913226
 10
909.947052218807
 20
509.5343893947475
450
        1
451
        0
460
0.0
461
0.0
452
        1
462
0.3899999856948853
453
        2
463
0.0
 63
     1
421
 16711680
463
1.0
 63
    12
421
 13041664
470
LINEAR
  0
LWPOLYLINE
  5
4F2
102
{ACAD_REACTORS
330
4EF
102
}
330
1F
100
AcDbEntity
  8
Drawing
100
AcDbPolyline
 90
        3
 70
     1
 43
0.0
 10
905.3601516616689
 20
533.5009456553021
 10
904.7078089685662
 20
532.3836129685228
 10
905.9193025414713
 20
532.3836129685228
  0
LWPOLYLINE
  5
4F3
330
1F
100
AcDbEntity
  8
Drawing
100
AcDbPolyline
 90
        2
 70
     0
 43
0.0
 10
900.8994479845153
 20
513.6210027618293
 10
915.2102526071932
 20
515.5886730667484
  0
LWPOLYLINE
  5
4F4
330
1F
100
AcDbEntity
  8
Drawing
100
AcDbPolyline
 90
        3
 70
     0
 43
0.0
 10
903.6565757393471
 20
517.8842885843965
 10
907.5296831254402
 20
518.6057678581096
 10
908.7769551000946
 20
519.1960689495852
  0
LWPOLYLINE
  5
4F5
330
1F
100
AcDbEntity
  8
Drawing
100
AcDbPolyline
 90
        3
 70
     0
 43
0.0
 10
904.5099724463488
 20
512.8995234881163
 10
907.5953292971367
 20
513.0307016703537
 10
908.7113098096612
 20
513.8177697923213
  0
LWPOLYLINE
  5
4F6
330
1F
100
AcDbEntity
  8
Drawing
100
AcDbPolyline
 90
        2
 70
     0
 43
0.0
 10
905.4946606154805
 20
509.0297717265329
 10
909.2364765394437
 20
509.4888946357713
  0
LWPOLYLINE
  5
4F7
102
{ACAD_REACTORS
330
4EF
102
}
330
1F
100
AcDbEntity
  8
Drawing
100
AcDbPolyline
 90
        3
 70
     0
 43
0.0
 10
902.8688252040417
 20
504.1105954785073
 10
906.151119688656
 20
501.4214463856035
 10
907.9892045647894
 20
500.8311448083996
  0
LWPOLYLINE
  5
4F8
330
1F
100
AcDbEntity
  8
Drawing
100
AcDbPolyline
 90
        3
 70
     0
 43
0.0
 10
907.792266930963
 20
526.4108597438028
 10
906.9388702239612
 20
525.3614357430887
 10
902.5405952268225
 20
522.8690531949485
  0
LWPOLYLINE
  5
4F9
330
1F
100
AcDbEntity
  8
Drawing
100
AcDbPolyline
 90
        2
 70
     0
 43
0.0
 10
904.9038477140015
 20
532.3138711442879
 10
906.0198282265261
 20
532.1826929620505
  0
LWPOLYLINE
  5
4FA
102
{ACAD_REACTORS
330
4EF
102
}
330
1F
100
AcDbEntity
  8
Drawing
100
AcDbPolyline
 90
       54
 70
     0
 43
0.0
 10
905.560306787177
 20
533.9764652908759
 10
905.560306787177
 20
532.9270408044338
 10
906.4793487846121
 20
532.1399726824661
 10
907.3327454916139
 20
531.6152609249732
 10
908.3830798324419
 20
529.7787683165634
 10
908.3174345420088
 20
527.7455091633899
 10
908.1204969081823
 20
526.8928517074395
 10
907.9892045647894
 20
525.712249524488
 10
907.9892045647894
 20
523.5478121890771
 10
908.3830798324419
 20
522.3672100061258
 10
908.9738927339209
 20
521.1866078231744
 10
909.1051850773139
 20
520.4651285494615
 10
908.9082474434875
 20
518.2351018800678
 10
909.1708303677473
 20
516.3330209091316
 10
908.7113098096612
 20
514.1685830879925
 10
908.7769551000946
 20
513.184747935533
 10
909.3021227111402
 20
512.0697346008362
 10
910.3524570519684
 20
510.3644206603919
 10
910.6150399762281
 20
509.2494073256951
 10
910.4837485140982
 20
507.806448778269
 10
909.9585817843157
 20
505.2130726544818
 10
909.6303518070964
 20
502.9174571368335
 10
908.0548507364858
 20
500.6874309531681
 10
906.4793487846121
 20
499.441239436234
 10
904.1817424691295
 20
497.9982813745361
 10
901.1620317900382
 20
496.55532282711
 10
899.7834683532539
 20
496.227378100109
 10
898.4049040352064
 20
496.0306110696171
 10
896.3698815252467
 20
496.1617887661263
 10
895.6477771616379
 20
496.6865010093474
 10
894.0066299193307
 20
497.7359250100615
 10
892.8250032351098
 20
498.7197606482491
 10
891.7090236038482
 20
499.1788835574875
 10
890.3304592858008
 20
501.0809650141519
 10
888.6236658717972
 20
502.3927453793406
 10
887.5076862405358
 20
503.3109911978174
 10
886.3260604375778
 20
504.819538593498
 10
885.932184288662
 20
507.0495652628916
 10
885.0131422912269
 20
508.4925233245895
 10
884.6849123140075
 20
510.3946047812539
 10
884.2253917559216
 20
511.8375633286799
 10
884.1597455842251
 20
514.4611235733291
 10
884.2253917559216
 20
516.4943832122309
 10
884.6849123140075
 20
519.183532790863
 10
885.0787884629234
 20
521.0856137617991
 10
885.4070175588795
 20
522.725339339717
 10
886.3260604375778
 20
525.0990793786141
 10
887.7702700460586
 20
527.9194071394834
 10
888.7549582151902
 20
529.4935433834185
 10
889.8709378464517
 20
531.1988578095911
 10
891.7090236038482
 20
532.9041722357636
 10
893.2188785027623
 20
534.412719145716
 10
894.5317966491133
 20
535.1997877534118
 10
895.7134224520712
 20
536.0524447236339
  0
MTEXT
  5
4FB
330
1F
100
AcDbEntity
  8
Drawing
100
AcDbMText
 10
847.8284578547228
 20
523.1464938482034
 30
0.0
 40
3.5
 41
9.444444444444445
 46
0.0
 71
     1
 72
     5
  1
{\fArial|b0|i0|c0|p34;S}
  7
verdana
 73
     1
 44
1.0
  0
LWPOLYLINE
  5
4FC
330
1F
100
AcDbEntity
  8
Drawing
100
AcDbPolyline
 90
        2
 70
     0
 43
0.0
 10
838.7185174730447
 20
521.7921413505265
 10
839.9001432760027
 20
521.7921413505265
  0
LWPOLYLINE
  5
4FD
330
1F
100
AcDbEntity
  8
Drawing
100
AcDbPolyline
 90
        2
 70
     0
 43
0.0
 10
839.5719132987833
 20
521.7921413505265
 10
841.1474152506571
 20
521.8577301987812
  0
LWPOLYLINE
  5
4FE
330
1F
100
AcDbEntity
  8
Drawing
100
AcDbPolyline
 90
        2
 70
     0
 43
0.0
 10
837.8651207660429
 20
521.9233195327638
 10
838.915455106871
 20
521.7921413505265
  0
LWPOLYLINE
  5
4FF
102
{ACAD_REACTORS
330
4EF
102
}
330
1F
100
AcDbEntity
  8
Drawing
100
AcDbPolyline
 90
        3
 70
     0
 43
0.0
 10
884.2253917559216
 20
513.2930575491001
 10
885.2100799250533
 20
514.1457145193224
 10
887.3763938971427
 20
514.4736597320516
  0
LWPOLYLINE
  5
500
102
{ACAD_REACTORS
330
4EF
102
}
330
1F
100
AcDbEntity
  8
Drawing
100
AcDbPolyline
 90
        3
 70
     1
 43
0.0
 10
885.3239109208204
 20
514.2269545011486
 10
884.298800974516
 20
513.2027329930329
 10
884.1124173479152
 20
514.9718429590016
  0
LWPOLYLINE
  5
501
102
{ACAD_REACTORS
330
4EF
102
}
330
1F
100
AcDbEntity
  8
Drawing
100
AcDbPolyline
 90
        2
 70
     0
 43
0.0
 10
885.2100799250533
 20
514.1457145193224
 10
884.0940994125286
 20
514.9983719752727
  0
LWPOLYLINE
  5
502
102
{ACAD_REACTORS
330
4EF
102
}
330
1F
100
AcDbEntity
  8
Drawing
100
AcDbPolyline
 90
        3
 70
     1
 43
0.0
 10
887.0945553735279
 20
505.0089589851942
 10
887.0945553735279
 20
503.9847369913503
 10
886.2558290538243
 20
504.9158478065306
  0
LWPOLYLINE
  5
503
102
{ACAD_REACTORS
330
4EF
102
}
330
1F
100
AcDbEntity
  8
Drawing
100
AcDbPolyline
 90
        3
 70
     1
 43
0.0
 10
893.431598677955
 20
499.4222945798409
 10
893.6179823045558
 20
498.2118507143978
 10
892.3132969183501
 20
499.142961529578
  0
LWPOLYLINE
  5
504
102
{ACAD_REACTORS
330
4EF
102
}
330
1F
100
AcDbEntity
  8
Drawing
100
AcDbPolyline
 90
        2
 70
     0
 43
0.0
 10
893.4814623082851
 20
499.3881867467018
 10
893.4814623082851
 20
498.273173412005
  0
LWPOLYLINE
  5
505
102
{ACAD_REACTORS
330
4EF
102
}
330
1F
100
AcDbEntity
  8
Drawing
100
AcDbPolyline
 90
        3
 70
     0
 43
0.0
 10
892.1685441619343
 20
499.0602415339725
 10
893.4814623082851
 20
499.5193649289391
 10
895.9103600858975
 20
502.8644044473014
  0
LWPOLYLINE
  5
506
330
1F
100
AcDbEntity
  8
Drawing
100
AcDbPolyline
 90
        2
 70
     0
 43
0.0
 10
887.3763938971427
 20
505.094431116695
 10
886.2604142658813
 20
505.094431116695
  0
LWPOLYLINE
  5
507
330
1F
100
AcDbEntity
  8
Drawing
100
AcDbPolyline
 90
        3
 70
     0
 43
0.0
 10
887.1794562633165
 20
503.9138284480154
 10
887.3107486067095
 20
505.094431116695
 10
891.3807936266289
 20
507.9147583918361
  0
LWPOLYLINE
  5
508
330
1F
100
AcDbEntity
  8
Drawing
100
AcDbPolyline
 90
        8
 70
     1
 43
0.0
 10
900.5712188885592
 20
498.5355297764796
 10
899.9804059870802
 20
498.273173412005
 10
899.9147598153837
 20
497.8796393510212
 10
899.9147598153837
 20
497.6828723205293
 10
900.9650941562119
 20
497.6172834722747
 10
900.9650941562119
 20
498.1419957154958
 10
900.833802694082
 20
498.7322968069715
 10
900.5055727168627
 20
498.5355297764796
  0
LWPOLYLINE
  5
509
330
1F
100
AcDbEntity
  8
Drawing
100
AcDbPolyline
 90
        8
 70
     1
 43
0.0
 10
900.7025103506891
 20
500.6999671118905
 10
901.424615595561
 20
500.6999671118905
 10
901.6215532293872
 20
501.0935011728743
 10
901.6215532293872
 20
501.3558570516208
 10
901.0963856183416
 20
501.5526240821127
 10
900.5055727168627
 20
501.5526240821127
 10
900.0460512775136
 20
501.4870352338581
 10
900.0460512775136
 20
500.8311448083996
  0
LWPOLYLINE
  5
50A
330
1F
100
AcDbEntity
  8
Drawing
100
AcDbPolyline
 90
        6
 70
     1
 43
0.0
 10
898.9957169366854
 20
501.6182134160954
 10
899.520884547731
 20
501.8149804465873
 10
899.3239469139047
 20
502.405281538063
 10
899.1270092800784
 20
502.4708703863176
 10
898.7331340124258
 20
502.0773363253338
 10
898.7987793028591
 20
501.8805692948419
  0
LWPOLYLINE
  5
50B
330
1F
100
AcDbEntity
  8
Drawing
100
AcDbPolyline
 90
        7
 70
     1
 43
0.0
 10
897.879737305424
 20
502.733226265064
 10
898.2079664013802
 20
503.1923496600306
 10
898.0110287675539
 20
503.3891166905225
 10
897.5515073282047
 20
503.7170614175236
 10
897.0919867701186
 20
503.5858837210144
 10
897.0263405984222
 20
503.1267603260478
 10
897.157632060552
 20
502.8644044473014
  0
LWPOLYLINE
  5
50C
330
1F
100
AcDbEntity
  8
Drawing
100
AcDbPolyline
 90
        8
 70
     1
 43
0.0
 10
895.6477771616379
 20
517.4907545234128
 10
896.3042353535502
 20
517.621932219922
 10
896.4355276969432
 20
517.8186992504138
 10
896.566819159073
 20
518.3434114936349
 10
896.1072977197239
 20
518.8025348886015
 10
895.6477771616379
 20
518.8025348886015
 10
895.3851933561151
 20
518.4090008276177
 10
895.3195471844186
 20
517.9498774326512
  0
LWPOLYLINE
  5
50D
330
1F
100
AcDbEntity
  8
Drawing
100
AcDbPolyline
 90
       10
 70
     1
 43
0.0
 10
893.021940868936
 20
516.9004534319371
 10
893.3501708461554
 20
516.5069193709533
 10
893.4158161365887
 20
516.2445630064785
 10
893.9409837476343
 20
516.2445630064785
 10
894.2692128435905
 20
516.6380970674625
 10
894.2692128435905
 20
517.0316311284462
 10
893.8753375759378
 20
517.3595763411754
 10
893.4158161365887
 20
517.5563433716673
 10
893.021940868936
 20
517.5563433716673
 10
893.021940868936
 20
517.228398158938
  0
LWPOLYLINE
  5
50E
330
1F
100
AcDbEntity
  8
Drawing
100
AcDbPolyline
 90
        7
 70
     1
 43
0.0
 10
891.1838559928026
 20
515.12955015751
 10
891.8403150659781
 20
515.654261915003
 10
891.3807936266289
 20
516.1133853099695
 10
891.1182098211061
 20
516.1133853099695
 10
890.7243345534534
 20
516.1133853099695
 10
890.5930430913236
 20
515.7198512489856
 10
891.1838559928026
 20
515.3263171880019
  0
LWPOLYLINE
  5
50F
330
1F
100
AcDbEntity
  8
Drawing
100
AcDbPolyline
 90
        7
 70
     1
 43
0.0
 10
889.4770625787991
 20
513.1618793668629
 10
890.9869183589763
 20
514.0801256710677
 10
890.067875480278
 20
514.6704267625435
 10
889.1488334828429
 20
514.8016049447808
 10
888.6236658717972
 20
514.7360160965261
 10
888.7549582151902
 20
513.2274687008455
 10
889.1488334828429
 20
513.0307016703537
  0
LWPOLYLINE
  5
510
330
1F
100
AcDbEntity
  8
Drawing
100
AcDbPolyline
 90
        2
 70
     0
 43
0.0
 10
898.470550206903
 20
513.5554134278466
 10
899.6521760098609
 20
511.9812771839114
  0
LWPOLYLINE
  5
511
330
1F
100
AcDbEntity
  8
Drawing
100
AcDbPolyline
 90
        2
 70
     0
 43
0.0
 10
898.5361963785995
 20
513.5554134278466
 10
897.6171534999012
 20
512.1124553661488
  0
LWPOLYLINE
  5
512
330
1F
100
AcDbEntity
  8
Drawing
100
AcDbPolyline
 90
        2
 70
     0
 43
0.0
 10
887.245102435013
 20
524.5743671353929
 10
886.1291219224884
 20
524.3776001049009
  0
LWPOLYLINE
  5
513
102
{ACAD_REACTORS
330
4EF
102
}
330
1F
100
AcDbEntity
  8
Drawing
100
AcDbPolyline
 90
        3
 70
     0
 43
0.0
 10
892.562419429587
 20
533.6256510237483
 10
893.5471084799816
 20
533.2977062967473
 10
895.1882557222888
 20
529.427954535164
  0
LWPOLYLINE
  5
514
102
{ACAD_REACTORS
330
4EF
102
}
330
1F
100
AcDbEntity
  8
Drawing
100
AcDbPolyline
 90
        5
 70
     0
 43
0.0
 10
905.1007853478278
 20
533.4288839932565
 10
904.7069100801751
 20
532.2482818103051
 10
902.7375328606488
 20
530.9365014451164
 10
901.4902608859943
 20
529.6903104139104
 10
901.3589694238644
 20
529.4935433834185
  0
LWPOLYLINE
  5
515
330
1F
100
AcDbEntity
  8
Drawing
100
AcDbPolyline
 90
        9
 70
     1
 43
0.0
 10
897.0263405984222
 20
527.5914619267542
 10
897.0919867701186
 20
528.2473523522126
 10
896.3698815252467
 20
528.5752970792137
 10
895.9103600858975
 20
528.6408864131963
 10
895.6477771616379
 20
528.4441193827045
 10
895.0569633788958
 20
527.9194071394834
 10
895.7134224520712
 20
527.788228957246
 10
896.3042353535502
 20
527.5914619267542
 10
896.3042353535502
 20
527.5914619267542
  0
LWPOLYLINE
  5
516
102
{ACAD_REACTORS
330
4EF
102
}
330
1F
100
AcDbEntity
  8
Drawing
100
AcDbPolyline
 90
        3
 70
     1
 43
0.0
 10
886.7217881203263
 20
525.9589494123809
 10
887.3741308134291
 20
524.469172010947
 10
886.162637240524
 20
524.3760608322832
  0
LWPOLYLINE
  5
517
330
1F
100
AcDbEntity
  8
Drawing
100
AcDbPolyline
 90
        3
 70
     0
 43
0.0
 10
886.9168733390568
 20
526.0173256828189
 10
887.3763938971427
 20
524.5743671353929
 10
891.1182098211061
 20
522.3443409517274
  0
LWPOLYLINE
  5
518
330
1F
100
AcDbEntity
  8
Drawing
100
AcDbPolyline
 90
       10
 70
     1
 43
0.0
 10
903.0001166661716
 20
525.820558652327
 10
903.6565757393471
 20
525.8861475005816
 10
903.6565757393471
 20
526.3452708955481
 10
903.5252842772172
 20
526.738804956532
 10
903.0001166661716
 20
527.263516714025
 10
902.7375328606488
 20
527.1323390175157
 10
902.5405952268225
 20
526.54203792604
 10
902.4749499363891
 20
526.2796815615654
 10
902.2780123025627
 20
526.1485038650562
 10
902.4749499363891
 20
525.8861475005816
  0
LWPOLYLINE
  5
519
102
{ACAD_REACTORS
330
4EF
102
}
330
1F
100
AcDbEntity
  8
Drawing
100
AcDbPolyline
 90
        3
 70
     1
 43
0.0
 10
892.4064887316506
 20
533.5009456553021
 10
893.9907495577573
 20
534.8045006994089
 10
893.5247904912553
 20
533.2216126050394
  0
LWPOLYLINE
  5
51A
330
1F
100
AcDbEntity
  8
Drawing
100
AcDbPolyline
 90
        2
 70
     0
 43
0.0
 10
894.0722752097641
 20
535.0030207229199
 10
893.7440461138079
 20
533.4944733272392
  0
LWPOLYLINE
  5
51B
330
1F
100
AcDbEntity
  8
Drawing
100
AcDbPolyline
 90
       21
 70
     1
 43
0.0
 10
902.8031790323453
 20
537.9545261802983
 10
903.5252842772172
 20
537.6265809675691
 10
903.8535133731734
 20
537.6265809675691
 10
904.5756186180453
 20
537.4954027853317
 10
904.9038477140015
 20
537.4954027853317
 10
905.6915982493068
 20
536.6427458151096
 10
905.6915982493068
 20
535.4621436321582
 10
905.429014443784
 20
534.8062532066997
 10
905.2320768099577
 20
533.8224180542403
 10
904.5099724463488
 20
533.6256510237483
 10
904.1160971786962
 20
533.6256510237483
 10
903.5252842772172
 20
533.8224180542403
 10
902.6718875702154
 20
534.2815414492068
 10
902.4749499363891
 20
534.4783084796987
 10
901.7528446915171
 20
535.2653766016663
 10
901.293323252168
 20
535.1341984194289
 10
900.8994479845153
 20
535.5277324804129
 10
900.4399274264293
 20
536.7083346633642
 10
900.7025103506891
 20
537.4954027853317
 10
901.8184908632136
 20
537.6265809675691
 10
902.0154284970399
 20
537.6921698158237
  0
LWPOLYLINE
  5
51C
330
1F
100
AcDbEntity
  8
Drawing
100
AcDbPolyline
 90
       12
 70
     1
 43
0.0
 10
899.520884547731
 20
538.2824709072994
 10
900.11169744921
 20
537.5609921193145
 10
900.6368650602557
 20
537.5609921193145
 10
901.5559070576908
 20
537.5609921193145
 10
902.5405952268225
 20
538.544827271774
 10
902.4749499363891
 20
539.9221964852173
 10
902.0154284970399
 20
540.512497576693
 10
901.5559070576908
 20
540.315730546201
 10
900.7025103506891
 20
539.9221964852173
 10
900.2429889113399
 20
539.266306545487
 10
899.7178221815574
 20
538.8727724845032
 10
899.7178221815574
 20
538.7415943022659
  0
LWPOLYLINE
  5
51D
330
1F
100
AcDbEntity
  8
Drawing
100
AcDbPolyline
 90
       15
 70
     1
 43
0.0
 10
896.0416524292906
 20
535.8556776931421
 10
896.1072977197239
 20
537.2330469065853
 10
896.9606944267257
 20
537.6921698158237
 10
897.157632060552
 20
538.0201150285529
 10
897.879737305424
 20
538.6104161200286
 10
898.7331340124258
 20
538.4792384235194
 10
899.3239469139047
 20
538.2824709072994
 10
899.5865307194275
 20
537.7577591498065
 10
899.9147598153837
 20
536.7083346633642
 10
899.9147598153837
 20
536.3148006023804
 10
899.520884547731
 20
536.1836229058713
 10
899.1270092800784
 20
535.8556776931421
 10
898.470550206903
 20
535.7244995109047
 10
897.157632060552
 20
535.7900888448875
 10
896.566819159073
 20
535.8556776931421
  0
MTEXT
  5
51E
330
1F
100
AcDbEntity
  8
Drawing
100
AcDbMText
 10
916.785754559067
 20
517.9498774326512
 30
0.0
 40
3.5
 41
0.0
 46
0.0
 71
     1
 72
     5
  1
{\fArial|b0|i0|c0|p34;5.67}
  7
verdana
 73
     1
 44
1.0
  0
LWPOLYLINE
  5
51F
102
{ACAD_REACTORS
330
4EF
102
}
330
1F
100
AcDbEntity
  8
Drawing
100
AcDbPolyline
 90
        3
 70
     1
 43
0.0
 10
907.8763306207796
 20
500.7258496239476
 10
906.3852616079732
 20
499.4222945798409
 10
906.2920697946729
 20
501.4707380818005
  0
LWPOLYLINE
  5
520
330
1F
100
AcDbEntity
  8
Drawing
100
AcDbPolyline
 90
        2
 70
     0
 43
0.0
 10
906.2824111507857
 20
501.2902682033662
 10
906.3480573224823
 20
499.6505426254482
  0
LWPOLYLINE
  5
521
102
{ACAD_REACTORS
330
4EF
102
}
330
1F
100
AcDbEntity
  8
Drawing
100
AcDbPolyline
 90
        3
 70
     1
 43
0.0
 10
910.29931776659
 20
510.1300674972293
 10
910.5788932064912
 20
509.0127348104499
 10
909.5537832601868
 20
509.6645120896392
  0
LWPOLYLINE
  5
522
330
1F
100
AcDbEntity
  8
Drawing
100
AcDbPolyline
 90
        3
 70
     1
 43
0.0
 10
908.5286733138825
 20
513.8545102722221
 10
909.0878241936847
 20
512.6440664067791
 10
907.7831388074792
 20
513.0165106357056
  0
LWPOLYLINE
  5
523
102
{ACAD_REACTORS
330
4EF
102
}
330
1F
100
AcDbEntity
  8
Drawing
100
AcDbPolyline
 90
        3
 70
     1
 43
0.0
 10
908.901440567084
 20
519.1618411415845
 10
908.901440567084
 20
517.6720642258787
 10
907.96952243408
 20
518.789396912658
  0
LWPOLYLINE
  5
524
330
1F
100
AcDbEntity
  8
Drawing
100
AcDbPolyline
 90
        2
 70
     0
 43
0.0
 10
907.8579131026595
 20
518.7369455546187
 10
908.7113098096612
 20
517.8842885843965
  0
LWPOLYLINE
  5
525
330
1F
100
AcDbEntity
  8
Drawing
100
AcDbPolyline
 90
        2
 70
     0
 43
0.0
 10
907.792266930963
 20
513.0307016703537
 10
908.9082474434875
 20
512.63716760937
  0
LWPOLYLINE
  5
526
102
{ACAD_REACTORS
330
4EF
102
}
330
1F
100
AcDbEntity
  8
Drawing
100
AcDbPolyline
 90
        3
 70
     0
 43
0.0
 10
910.2868108802719
 20
510.079195727247
 10
909.3677680015736
 20
509.4888946357713
 10
910.3524570519684
 20
508.9641828782784
  0
LWPOLYLINE
  5
527
330
1F
100
AcDbEntity
  8
Drawing
100
AcDbPolyline
 90
        2
 70
     0
 43
0.0
 10
920.7987915484744
 20
514.2004857151724
 10
919.4287904642455
 20
512.3753999474552
  0
LWPOLYLINE
  5
528
330
1F
100
AcDbEntity
  8
Drawing
100
AcDbPolyline
 90
        2
 70
     0
 43
0.0
 10
920.9129583054934
 20
514.0864177939741
 10
922.0546258756841
 20
512.2613325119851
  0
LWPOLYLINE
  5
529
102
{ACAD_REACTORS
330
4EF
102
}
330
1F
100
AcDbEntity
  8
Drawing
100
AcDbPolyline
 90
        3
 70
     1
 43
0.0
 10
908.0627142473804
 20
524.469172010947
 10
907.96952243408
 20
526.1451712839801
 10
906.8512206744753
 20
525.0278385972007
  0
LWPOLYLINE
  5
52A
330
1F
100
AcDbEntity
  8
Drawing
100
AcDbPolyline
 90
        3
 70
     0
 43
0.0
 10
906.4793487846121
 20
525.0990793786141
 10
907.4640378350068
 20
524.6399564693756
 10
907.7266207592666
 20
524.5087782871383
  0
MTEXT
  5
532
330
1F
100
AcDbEntity
  8
Drawing
100
AcDbMText
 10
884.1452425404474
 20
554.2710247948608
 30
0.0
 40
3.5
 41
32.5519
 46
0.0
 71
     1
 72
     5
  1
Cut 1054
  7
verdana
 73
     1
 44
1.0
  0
MTEXT
  5
539
330
1F
100
AcDbEntity
  8
Drawing
100
AcDbMText
 10
872.4464861566481
 20
488.2164449539766
 30
0.0
 40
3.5
 41
32.5519
 46
0.0
 71
     1
 72
     5
  1
Cut 1052
  7
verdana
 73
     1
 44
1.0
  0
MTEXT
  5
53F
330
1F
100
AcDbEntity
  8
Drawing
100
AcDbMText
 10
870.7913062451236
 20
435.2998802110952
 30
0.0
 40
3.5
 41
32.5519
 46
0.0
 71
     1
 72
     5
  1
Cut 1055
  7
verdana
 73
     1
 44
1.0
  0
MTEXT
  5
546
330
1F
100
AcDbEntity
  8
Drawing
100
AcDbMText
 10
873.841014857625
 20
390.4097235520751
 30
0.0
 40
3.5
 41
32.5519
 46
0.0
 71
     1
 72
     5
  1
Cut 1091
  7
verdana
 73
     1
 44
1.0
  0
MTEXT
  5
54C
330
1F
100
AcDbEntity
  8
Drawing
100
AcDbMText
 10
872.8120232748887
 20
343.1107951393426
 30
0.0
 40
3.5
 41
32.5519
 46
0.0
 71
     1
 72
     5
  1
Cut 1102
  7
verdana
 73
     1
 44
1.0
  0
LINE
  5
54F
330
1F
100
AcDbEntity
  8
Drawing
100
AcDbLine
 10
798.044996234153
 20
463.6472313248279
 30
0.0
 11
802.8687238607007
 21
465.1142471554447
 31
0.0
  0
LINE
  5
550
330
1F
100
AcDbEntity
  8
Drawing
100
AcDbLine
 10
802.8687238607007
 20
465.1142471554447
 30
0.0
 11
805.595179858666
 21
465.5333941486874
 31
0.0
  0
LINE
  5
551
330
1F
100
AcDbEntity
  8
Drawing
100
AcDbLine
 10
805.595179858666
 20
465.5333941486874
 30
0.0
 11
809.3702716709228
 21
465.323820652066
 31
0.0
  0
LINE
  5
552
330
1F
100
AcDbEntity
  8
Drawing
100
AcDbLine
 10
809.3702716709228
 20
465.323820652066
 30
0.0
 11
812.7259077170587
 21
464.9046729816897
 31
0.0
  0
LINE
  5
553
330
1F
100
AcDbEntity
  8
Drawing
100
AcDbLine
 10
812.7259077170587
 20
464.9046729816897
 30
0.0
 11
816.5009995293152
 21
464.9046729816897
 31
0.0
  0
LINE
  5
554
330
1F
100
AcDbEntity
  8
Drawing
100
AcDbLine
 10
816.5009995293152
 20
464.9046729816897
 30
0.0
 11
819.2274555272805
 21
464.9046729816897
 31
0.0
  0
LINE
  5
555
330
1F
100
AcDbEntity
  8
Drawing
100
AcDbLine
 10
819.2274555272805
 20
464.9046729816897
 30
0.0
 11
820.2760913415717
 21
464.9046729816897
 31
0.0
  0
LINE
  5
556
330
1F
100
AcDbEntity
  8
Drawing
100
AcDbLine
 10
820.2760913415717
 20
464.9046729816897
 30
0.0
 11
824.6803660828072
 21
464.6950994850683
 31
0.0
  0
LINE
  5
557
330
1F
100
AcDbEntity
  8
Drawing
100
AcDbLine
 10
824.6803660828072
 20
464.6950994850683
 30
0.0
 11
826.3581848260773
 21
464.6950994850683
 31
0.0
  0
LINE
  5
558
330
1F
100
AcDbEntity
  8
Drawing
100
AcDbLine
 10
826.3581848260773
 20
464.6950994850683
 30
0.0
 11
829.2943665464967
 21
465.323820652066
 31
0.0
  0
LINE
  5
559
330
1F
100
AcDbEntity
  8
Drawing
100
AcDbLine
 10
829.2943665464967
 20
465.323820652066
 30
0.0
 11
832.859731195895
 21
465.323820652066
 31
0.0
  0
LINE
  5
55A
330
1F
100
AcDbEntity
  8
Drawing
100
AcDbLine
 10
832.859731195895
 20
465.323820652066
 30
0.0
 11
835.7959143567188
 21
465.1142471554447
 31
0.0
  0
LINE
  5
55B
330
1F
100
AcDbEntity
  8
Drawing
100
AcDbLine
 10
835.7959143567188
 20
465.1142471554447
 30
0.0
 11
839.3612775657131
 21
464.9046729816897
 31
0.0
  0
LINE
  5
55C
330
1F
100
AcDbEntity
  8
Drawing
100
AcDbLine
 10
839.3612775657131
 20
464.9046729816897
 30
0.0
 11
841.87800640082
 21
464.9046729816897
 31
0.0
  0
LINE
  5
55D
330
1F
100
AcDbEntity
  8
Drawing
100
AcDbLine
 10
841.87800640082
 20
464.9046729816897
 30
0.0
 11
843.5558251440901
 21
464.6950994850683
 31
0.0
  0
LINE
  5
55E
330
1F
100
AcDbEntity
  8
Drawing
100
AcDbLine
 10
843.5558251440901
 20
464.6950994850683
 30
0.0
 11
846.2822797016514
 21
464.0663783180706
 31
0.0
  0
LINE
  5
55F
330
1F
100
AcDbEntity
  8
Drawing
100
AcDbLine
 10
799.5707155030851
 20
426.1053951645623
 30
0.0
 11
805.2333517810658
 21
425.8958216679409
 31
0.0
  0
LINE
  5
560
330
1F
100
AcDbEntity
  8
Drawing
100
AcDbLine
 10
805.2333517810658
 20
425.8958216679409
 30
0.0
 11
807.1208976871941
 21
426.3149693383173
 31
0.0
  0
LINE
  5
561
330
1F
100
AcDbEntity
  8
Drawing
100
AcDbLine
 10
807.1208976871941
 20
426.3149693383173
 30
0.0
 11
812.9932640088415
 21
426.3149693383173
 31
0.0
  0
LINE
  5
562
330
1F
100
AcDbEntity
  8
Drawing
100
AcDbLine
 10
812.9932640088415
 20
426.3149693383173
 30
0.0
 11
815.3002642406863
 21
425.8958216679409
 31
0.0
  0
LINE
  5
563
330
1F
100
AcDbEntity
  8
Drawing
100
AcDbLine
 10
815.3002642406863
 20
425.8958216679409
 30
0.0
 11
818.2364459611057
 21
426.3149693383173
 31
0.0
  0
LINE
  5
564
330
1F
100
AcDbEntity
  8
Drawing
100
AcDbLine
 10
818.2364459611057
 20
426.3149693383173
 30
0.0
 11
820.3337190300921
 21
427.7819851689339
 31
0.0
  0
LINE
  5
565
330
1F
100
AcDbEntity
  8
Drawing
100
AcDbLine
 10
820.3337190300921
 20
427.7819851689339
 30
0.0
 11
822.8504478651993
 21
426.5245428349386
 31
0.0
  0
LINE
  5
568
330
1F
100
AcDbEntity
  8
Drawing
100
AcDbLine
 10
826.4202014259885
 20
319.4988376963296
 30
0.0
 11
826.4202014259885
 21
319.4988376963296
 31
0.0
  0
LINE
  5
569
330
1F
100
AcDbEntity
  8
Drawing
100
AcDbLine
 10
826.4202014259885
 20
319.4988376963296
 30
0.0
 11
827.7858341796699
 21
321.1783847427132
 31
0.0
  0
MTEXT
  5
57A
330
1F
100
AcDbEntity
  8
Drawing
100
AcDbMText
 10
791.5778183028218
 20
383.5335645938307
 30
0.0
 40
3.5
 41
0.0
 46
0.0
 71
     1
 72
     5
  1
{\fArial|b0|i0|c0|p34;W}
  7
verdana
 73
     1
 44
1.0
  0
MTEXT
  5
580
330
1F
100
AcDbEntity
  8
Drawing
100
AcDbMText
 10
838.5163858714078
 20
382.9435747861282
 30
0.0
 40
3.5
 41
0.0
 46
0.0
 71
     1
 72
     5
  1
{\fArial|b0|i0|c0|p34;E}
  7
verdana
 73
     1
 44
1.0
  0
MTEXT
  5
5C3
330
1F
100
AcDbEntity
  8
Drawing
100
AcDbMText
 10
739.0790191614193
 20
426.2368244632791
 30
0.0
 40
3.5
 41
0.0
 46
0.0
 71
     1
 72
     5
  1
{\fArial|b0|i0|c0|p34;G}
  7
verdana
 73
     1
 44
1.0
  0
LWPOLYLINE
  5
5C4
330
1F
100
AcDbEntity
  8
Drawing
100
AcDbPolyline
 90
        2
 70
     0
 43
0.0
 10
736.0619697651847
 20
420.2612333040063
 10
738.2854932764652
 20
423.0675135579019
  0
MTEXT
  5
5CA
330
1F
100
AcDbEntity
  8
Drawing
100
AcDbMText
 10
758.7899082335022
 20
327.4319366926073
 30
0.0
 40
3.5
 41
0.0
 46
0.0
 71
     1
 72
     5
  1
{\fArial|b0|i0|c0|p34;L}
  7
verdana
 73
     1
 44
1.0
  0
LWPOLYLINE
  5
5CB
330
1F
100
AcDbEntity
  8
Drawing
100
AcDbPolyline
 90
        2
 70
     0
 43
0.0
 10
752.9605834745395
 20
319.2712759987458
 10
757.4496513970806
 20
323.7565378996505
  0
MTEXT
  5
5DB
330
1F
100
AcDbEntity
  8
Drawing
100
AcDbMText
 10
745.3495093315343
 20
357.9755478249106
 30
0.0
 40
3.5
 41
0.0
 46
0.0
 71
     1
 72
     5
  1
{\fArial|b0|i0|c0|p34;P}
  7
verdana
 73
     1
 44
1.0
  0
LWPOLYLINE
  5
5DC
330
1F
100
AcDbEntity
  8
Drawing
100
AcDbPolyline
 90
        2
 70
     0
 43
0.0
 10
741.7886312522902
 20
360.6732769565998
 10
744.0754846904182
 20
356.5188882914488
  0
MTEXT
  5
5E2
330
1F
100
AcDbEntity
  8
Drawing
100
AcDbMText
 10
828.1443143516261
 20
381.2361444195785
 30
0.0
 40
3.5
 41
0.0
 46
0.0
 71
     1
 72
     5
  1
{\fArial|b0|i0|c0|p34;M}
  7
verdana
 73
     1
 44
1.0
  0
MTEXT
  5
5E8
330
1F
100
AcDbEntity
  8
Drawing
100
AcDbMText
 10
810.0573861791446
 20
384.7673749257695
 30
0.0
 40
3.5
 41
0.0
 46
0.0
 71
     1
 72
     5
  1
{\fArial|b0|i0|c0|p34;A}
  7
verdana
 73
     1
 44
1.0
  0
LWPOLYLINE
  5
5E9
330
1F
100
AcDbEntity
  8
Drawing
100
AcDbPolyline
 90
        2
 70
     0
 43
0.0
 10
828.5334540071032
 20
373.1324628810625
 10
836.6413875439322
 20
378.117729560869
  0
LWPOLYLINE
  5
5EA
330
1F
100
AcDbEntity
  8
Drawing
100
AcDbPolyline
 90
        2
 70
     0
 43
0.0
 10
812.7333792727496
 20
372.5093047221025
 10
811.6939003222227
 20
379.3640458787888
  0
VIEWPORT
  5
309
330
55
100
AcDbEntity
 67
     1
  8
0
100
AcDbViewport
 10
100.8062472343446
 20
126.2062454223633
 30
0.0
 40
531.1832788177143
 41
295.6051935424806
 68
     1
 69
     1
 12
100.8062472343446
 22
126.2062454223633
 13
0.0
 23
0.0
 14
10.0
 24
10.0
 15
10.0
 25
10.0
 16
0.0
 26
0.0
 36
1.0
 17
0.0
 27
0.0
 37
0.0
 42
50.0
 43
0.0
 44
0.0
 45
295.6051935424806
 50
0.0
 51
0.0
 72
  1000
 90
    32800
  1

281
     0
 71
     1
 74
     0
110
0.0
120
0.0
130
0.0
111
1.0
121
0.0
131
0.0
112
0.0
122
1.0
132
0.0
 79
     0
146
0.0
170
     0
 61
     5
348
62C
292
     1
282
     1
141
0.0
142
0.0
 63
   256
  0
VIEWPORT
  5
30B
330
55
100
AcDbEntity
 67
     1
  8
Drawing
100
AcDbViewport
 10
101.5999939441681
 20
109.0997199224016
 30
0.0
 40
162.5599903106689
 41
208.5398198423211
 68
     2
 69
     2
 12
810.0431996724437
 22
413.0480555605189
 13
0.0
 23
0.0
 14
10.0
 24
10.0
 15
10.0
 25
10.0
 16
0.0
 26
0.0
 36
1.0
 17
0.0
 27
0.0
 37
0.0
 42
50.0
 43
0.0
 44
0.0
 45
329.2509228623346
 50
0.0
 51
0.0
 72
  1000
 90
    32864
  1

281
     0
 71
     1
 74
     0
110
0.0
120
0.0
130
0.0
111
1.0
121
0.0
131
0.0
112
0.0
122
1.0
132
0.0
 79
     0
146
0.0
170
     0
 61
     5
348
62C
292
     1
282
     1
141
0.0
142
0.0
 63
   256
  0
ENDSEC
  0
SECTION
  2
OBJECTS
  0
DICTIONARY
  5
C
330
0
100
AcDbDictionary
281
     1
  3
ACAD_COLOR
350
6B
  3
ACAD_DETAILVIEWSTYLE
350
6A0
  3
ACAD_GROUP
350
D
  3
ACAD_IMAGE_DICT
350
81
  3
ACAD_IMAGE_VARS
350
82
  3
ACAD_LAYOUT
350
1A
  3
ACAD_MATERIAL
350
6A
  3
ACAD_MLEADERSTYLE
350
667
  3
ACAD_MLINESTYLE
350
17
  3
ACAD_PLOTSETTINGS
350
19
  3
ACAD_PLOTSTYLENAME
350
E
  3
ACAD_SCALELIST
350
640
  3
ACAD_SECTIONVIEWSTYLE
350
6A1
  3
ACAD_TABLESTYLE
350
665
  3
ACAD_VISUALSTYLE
350
627
  3
ACDB_RECOMPOSE_DATA
350
69C
  3
AcDbVariableDictionary
350
5E
  0
DICTIONARY
  5
6B
102
{ACAD_REACTORS
330
C
102
}
330
C
100
AcDbDictionary
281
     1
  0
DICTIONARY
  5
6A0
102
{ACAD_REACTORS
330
C
102
}
330
C
100
AcDbDictionary
281
     1
  0
DICTIONARY
  5
D
102
{ACAD_REACTORS
330
C
102
}
330
C
100
AcDbDictionary
281
     1
  0
DICTIONARY
  5
81
102
{ACAD_REACTORS
330
C
102
}
330
C
100
AcDbDictionary
281
     1
  3
Cut 1052
350
83
  0
RASTERVARIABLES
  5
82
102
{ACAD_REACTORS
330
C
102
}
330
C
100
AcDbRasterVariables
 90
        0
 70
     1
 71
     1
 72
     1
  0
DICTIONARY
  5
1A
102
{ACAD_REACTORS
330
C
102
}
330
C
100
AcDbDictionary
281
     1
  3
Layout1
350
51
  3
Layout2
350
56
  3
Model
350
22
  0
DICTIONARY
  5
6A
102
{ACAD_REACTORS
330
C
102
}
330
C
100
AcDbDictionary
281
     1
  3
ByBlock
350
663
  3
ByLayer
350
662
  3
Global
350
664
  0
DICTIONARY
  5
667
102
{ACAD_REACTORS
330
C
102
}
330
C
100
AcDbDictionary
281
     1
  3
Standard
350
668
  0
DICTIONARY
  5
17
102
{ACAD_REACTORS
330
C
102
}
330
C
100
AcDbDictionary
281
     1
  3
Standard
350
18
  0
DICTIONARY
  5
19
102
{ACAD_REACTORS
330
C
102
}
330
C
100
AcDbDictionary
281
     1
  0
ACDBDICTIONARYWDFLT
  5
E
102
{ACAD_REACTORS
330
C
102
}
330
C
100
AcDbDictionary
281
     1
  3
Normal
350
F
100
AcDbDictionaryWithDefault
340
F
  0
DICTIONARY
  5
640
102
{ACAD_REACTORS
330
C
102
}
330
C
100
AcDbDictionary
281
     1
  3
A0
350
641
  3
A1
350
642
  3
A2
350
643
  3
A3
350
644
  3
A4
350
645
  3
A5
350
646
  3
A6
350
647
  3
A7
350
648
  3
A8
350
649
  3
A9
350
64A
  3
B0
350
64B
  3
B1
350
64C
  3
B2
350
64D
  3
B3
350
64E
  3
B4
350
64F
  3
B5
350
650
  3
B6
350
651
  3
B7
350
652
  3
B8
350
653
  3
B9
350
654
  3
C0
350
655
  3
C1
350
656
  3
C2
350
657
  3
C3
350
658
  3
C4
350
659
  3
C5
350
65A
  3
C6
350
65B
  3
C7
350
65C
  3
C8
350
65D
  3
C9
350
65E
  3
D0
350
65F
  3
D1
350
660
  3
D2
350
661
  0
DICTIONARY
  5
6A1
102
{ACAD_REACTORS
330
C
102
}
330
C
100
AcDbDictionary
281
     1
  0
DICTIONARY
  5
665
102
{ACAD_REACTORS
330
C
102
}
330
C
100
AcDbDictionary
281
     1
  3
Standard
350
666
  0
DICTIONARY
  5
627
102
{ACAD_REACTORS
330
C
102
}
330
C
100
AcDbDictionary
281
     1
  3
2dWireframe
350
62C
  3
Basic
350
62F
  3
Brighten
350
633
  3
ColorChange
350
637
  3
Conceptual
350
631
  3
Dim
350
632
  3
EdgeColorOff
350
63A
  3
Facepattern
350
636
  3
Flat
350
628
  3
FlatWithEdges
350
629
  3
Gouraud
350
62A
  3
GouraudWithEdges
350
62B
  3
Hidden
350
62E
  3
JitterOff
350
638
  3
Linepattern
350
635
  3
OverhangOff
350
639
  3
Realistic
350
630
  3
Shaded
350
63F
  3
Shaded with edges
350
63E
  3
Shades of Gray
350
63B
  3
Sketchy
350
63C
  3
Thicken
350
634
  3
Wireframe
350
62D
  3
X-Ray
350
63D
  0
XRECORD
  5
69C
102
{ACAD_REACTORS
330
C
102
}
330
C
100
AcDbXrecord
280
     1
 90
        1
330
666
  0
DICTIONARY
  5
5E
102
{ACAD_REACTORS
330
C
102
}
330
C
100
AcDbDictionary
281
     1
  3
CANNOSCALE
350
669
  3
CMLEADERSTYLE
350
69E
  3
CTABLESTYLE
350
69D
  3
DIMASSOC
350
5F
  3
HIDETEXT
350
63
  3
MSLTSCALE
350
69F
  3
PROJECTNAME
350
185
  0
IMAGEDEF
  5
83
102
{ACAD_REACTORS
330
81
102
}
330
81
100
AcDbRasterImageDef
 90
        0
  1
C:\Documents and Settings\Owner\My Documents\FBE PHole Scanned Images\Cut 1052.jpg
 10
1497.0
 20
1140.0
 11
0.1693333333333333
 21
0.1693333333333333
280
     1
281
     5
  0
LAYOUT
  5
51
102
{ACAD_REACTORS
330
1A
102
}
330
1A
100
AcDbPlotSettings
  1

  2
none_device
  4
Letter_(8.50_x_11.00_Inches)
  6

 40
6.349999904632568
 41
6.349999904632568
 42
6.350006103515625
 43
6.350006103515625
 44
215.8999938964844
 45
279.3999938964844
 46
0.0
 47
0.0
 48
0.0
 49
0.0
140
0.0
141
0.0
142
1.0
143
1.0
 70
   688
 72
     1
 73
     1
 74
     5
  7
monochrome.ctb
 75
    16
 76
     0
 77
     2
 78
   300
147
1.0
148
0.0
149
0.0
100
AcDbLayout
  1
Layout1
 70
     1
 71
     1
 10
-6.350006103515625
 20
-6.349999904632568
 11
273.0499877929688
 21
209.5499939918518
 12
0.0
 22
0.0
 32
0.0
 14
26.66999878883362
 24
20.31999878883363
 34
0.0
 15
240.0299890995026
 25
182.8799890995026
 35
0.0
146
0.0
 13
0.0
 23
0.0
 33
0.0
 16
1.0
 26
0.0
 36
0.0
 17
0.0
 27
1.0
 37
0.0
 76
     0
330
50
331
303
  0
LAYOUT
  5
56
102
{ACAD_REACTORS
330
1A
102
}
330
1A
100
AcDbPlotSettings
  1

  2
Dell AIO Printer A920
  4
User256
  6

 40
7.143749713897705
 41
13.49375152587891
 42
7.186080932617188
 43
3.17498779296875
 44
215.8999938964844
 45
279.3999938964844
 46
0.0
 47
0.0
 48
0.0
 49
0.0
140
0.0
141
0.0
142
1.0
143
1.0
 70
   672
 72
     1
 73
     0
 74
     5
  7
Grayscale.ctb
 75
     0
 76
     1
 77
     2
 78
   300
147
1.0
148
0.0
149
0.0
100
AcDbLayout
  1
Layout2
 70
     1
 71
     2
 10
-7.143749713897707
 20
-13.49375152587891
 11
208.7562441825867
 21
265.9062423706055
 12
0.0
 22
0.0
 32
0.0
 14
20.31999878883363
 24
4.829810001241071
 34
0.0
 15
182.8799890995026
 25
213.3696298435622
 35
0.0
146
0.0
 13
0.0
 23
0.0
 33
0.0
 16
1.0
 26
0.0
 36
0.0
 17
0.0
 27
1.0
 37
0.0
 76
     0
330
55
331
309
  0
LAYOUT
  5
22
102
{ACAD_REACTORS
330
1A
102
}
330
1A
100
AcDbPlotSettings
  1

  2
Dell AIO Printer A920
  4
User256
  6

 40
7.143749713897705
 41
13.49375152587891
 42
7.186080932617188
 43
3.17498779296875
 44
215.8999938964844
 45
279.3999938964844
 46
0.0
 47
0.0
 48
0.0
 49
0.0
140
0.0
141
0.0
142
1.0
143
1.463224937070645
 70
 11952
 72
     1
 73
     1
 74
     0
  7
monochrome.ctb
 75
     0
 76
     0
 77
     2
 78
   300
147
0.6834219228124866
148
-680.1142091598015
149
-356.3768556580933
100
AcDbLayout
  1
Model
 70
     1
 71
     0
 10
0.0
 20
0.0
 11
12.0
 21
9.0
 12
0.0
 22
0.0
 32
0.0
 14
0.0
 24
0.0
 34
0.0
 15
0.0
 25
0.0
 35
0.0
146
0.0
 13
0.0
 23
0.0
 33
0.0
 16
1.0
 26
0.0
 36
0.0
 17
0.0
 27
1.0
 37
0.0
 76
     0
330
1F
331
5EF
  0
MATERIAL
  5
663
102
{ACAD_REACTORS
330
6A
102
}
330
6A
100
AcDbMaterial
  1
ByBlock
 72
     1
 94
      127
  0
MATERIAL
  5
662
102
{ACAD_REACTORS
330
6A
102
}
330
6A
100
AcDbMaterial
  1
ByLayer
 72
     1
 94
      127
  0
MATERIAL
  5
664
102
{ACAD_REACTORS
330
6A
102
}
330
6A
100
AcDbMaterial
  1
Global
 72
     1
 94
      127
  0
MLEADERSTYLE
  5
668
102
{ACAD_REACTORS
330
667
102
}
330
667
100
AcDbMLeaderStyle
179
     2
170
     2
171
     1
172
     0
 90
        2
 40
0.0
 41
0.0
173
     1
 91
-1056964608
340
14
 92
       -2
290
     1
 42
2.0
291
     1
 43
8.0
  3
Standard
341
0
 44
4.0
300

342
11
174
     1
178
     6
175
     1
176
     0
 93
-1056964608
 45
4.0
292
     0
297
     0
 46
4.0
343
0
 94
-1056964608
 47
1.0
 49
1.0
140
1.0
293
     1
141
0.0
294
     1
177
     0
142
1.0
295
     0
296
     0
143
3.75
271
     0
272
     9
273
     9
  0
MLINESTYLE
  5
18
102
{ACAD_REACTORS
330
17
102
}
330
17
100
AcDbMlineStyle
  2
STANDARD
 70
     0
  3

 62
   256
 51
90.0
 52
90.0
 71
     2
 49
0.5
 62
   256
  6
BYLAYER
 49
-0.5
 62
   256
  6
BYLAYER
  0
ACDBPLACEHOLDER
  5
F
102
{ACAD_REACTORS
330
E
102
}
330
E
  0
SCALE
  5
641
102
{ACAD_REACTORS
330
640
102
}
330
640
100
AcDbScale
 70
     0
300
1:1
140
1.0
141
1.0
290
     1
  0
SCALE
  5
642
102
{ACAD_REACTORS
330
640
102
}
330
640
100
AcDbScale
 70
     0
300
1:2
140
1.0
141
2.0
290
     0
  0
SCALE
  5
643
102
{ACAD_REACTORS
330
640
102
}
330
640
100
AcDbScale
 70
     0
300
1:4
140
1.0
141
4.0
290
     0
  0
SCALE
  5
644
102
{ACAD_REACTORS
330
640
102
}
330
640
100
AcDbScale
 70
     0
300
1:5
140
1.0
141
5.0
290
     0
  0
SCALE
  5
645
102
{ACAD_REACTORS
330
640
102
}
330
640
100
AcDbScale
 70
     0
300
1:8
140
1.0
141
8.0
290
     0
  0
SCALE
  5
646
102
{ACAD_REACTORS
330
640
102
}
330
640
100
AcDbScale
 70
     0
300
1:10
140
1.0
141
10.0
290
     0
  0
SCALE
  5
647
102
{ACAD_REACTORS
330
640
102
}
330
640
100
AcDbScale
 70
     0
300
1:16
140
1.0
141
16.0
290
     0
  0
SCALE
  5
648
102
{ACAD_REACTORS
330
640
102
}
330
640
100
AcDbScale
 70
     0
300
1:20
140
1.0
141
20.0
290
     0
  0
SCALE
  5
649
102
{ACAD_REACTORS
330
640
102
}
330
640
100
AcDbScale
 70
     0
300
1:30
140
1.0
141
30.0
290
     0
  0
SCALE
  5
64A
102
{ACAD_REACTORS
330
640
102
}
330
640
100
AcDbScale
 70
     0
300
1:40
140
1.0
141
40.0
290
     0
  0
SCALE
  5
64B
102
{ACAD_REACTORS
330
640
102
}
330
640
100
AcDbScale
 70
     0
300
1:50
140
1.0
141
50.0
290
     0
  0
SCALE
  5
64C
102
{ACAD_REACTORS
330
640
102
}
330
640
100
AcDbScale
 70
     0
300
1:100
140
1.0
141
100.0
290
     0
  0
SCALE
  5
64D
102
{ACAD_REACTORS
330
640
102
}
330
640
100
AcDbScale
 70
     0
300
2:1
140
2.0
141
1.0
290
     0
  0
SCALE
  5
64E
102
{ACAD_REACTORS
330
640
102
}
330
640
100
AcDbScale
 70
     0
300
4:1
140
4.0
141
1.0
290
     0
  0
SCALE
  5
64F
102
{ACAD_REACTORS
330
640
102
}
330
640
100
AcDbScale
 70
     0
300
8:1
140
8.0
141
1.0
290
     0
  0
SCALE
  5
650
102
{ACAD_REACTORS
330
640
102
}
330
640
100
AcDbScale
 70
     0
300
10:1
140
10.0
141
1.0
290
     0
  0
SCALE
  5
651
102
{ACAD_REACTORS
330
640
102
}
330
640
100
AcDbScale
 70
     0
300
100:1
140
100.0
141
1.0
290
     0
  0
SCALE
  5
652
102
{ACAD_REACTORS
330
640
102
}
330
640
100
AcDbScale
 70
     0
300
1/128" = 1'-0"
140
0.0078125
141
12.0
290
     0
  0
SCALE
  5
653
102
{ACAD_REACTORS
330
640
102
}
330
640
100
AcDbScale
 70
     0
300
1/64" = 1'-0"
140
0.015625
141
12.0
290
     0
  0
SCALE
  5
654
102
{ACAD_REACTORS
330
640
102
}
330
640
100
AcDbScale
 70
     0
300
1/32" = 1'-0"
140
0.03125
141
12.0
290
     0
  0
SCALE
  5
655
102
{ACAD_REACTORS
330
640
102
}
330
640
100
AcDbScale
 70
     0
300
1/16" = 1'-0"
140
0.0625
141
12.0
290
     0
  0
SCALE
  5
656
102
{ACAD_REACTORS
330
640
102
}
330
640
100
AcDbScale
 70
     0
300
3/32" = 1'-0"
140
0.09375
141
12.0
290
     0
  0
SCALE
  5
657
102
{ACAD_REACTORS
330
640
102
}
330
640
100
AcDbScale
 70
     0
300
1/8" = 1'-0"
140
0.125
141
12.0
290
     0
  0
SCALE
  5
658
102
{ACAD_REACTORS
330
640
102
}
330
640
100
AcDbScale
 70
     0
300
3/16" = 1'-0"
140
0.1875
141
12.0
290
     0
  0
SCALE
  5
659
102
{ACAD_REACTORS
330
640
102
}
330
640
100
AcDbScale
 70
     0
300
1/4" = 1'-0"
140
0.25
141
12.0
290
     0
  0
SCALE
  5
65A
102
{ACAD_REACTORS
330
640
102
}
330
640
100
AcDbScale
 70
     0
300
3/8" = 1'-0"
140
0.375
141
12.0
290
     0
  0
SCALE
  5
65B
102
{ACAD_REACTORS
330
640
102
}
330
640
100
AcDbScale
 70
     0
300
1/2" = 1'-0"
140
0.5
141
12.0
290
     0
  0
SCALE
  5
65C
102
{ACAD_REACTORS
330
640
102
}
330
640
100
AcDbScale
 70
     0
300
3/4" = 1'-0"
140
0.75
141
12.0
290
     0
  0
SCALE
  5
65D
102
{ACAD_REACTORS
330
640
102
}
330
640
100
AcDbScale
 70
     0
300
1" = 1'-0"
140
1.0
141
12.0
290
     0
  0
SCALE
  5
65E
102
{ACAD_REACTORS
330
640
102
}
330
640
100
AcDbScale
 70
     0
300
1-1/2" = 1'-0"
140
1.5
141
12.0
290
     0
  0
SCALE
  5
65F
102
{ACAD_REACTORS
330
640
102
}
330
640
100
AcDbScale
 70
     0
300
3" = 1'-0"
140
3.0
141
12.0
290
     0
  0
SCALE
  5
660
102
{ACAD_REACTORS
330
640
102
}
330
640
100
AcDbScale
 70
     0
300
6" = 1'-0"
140
6.0
141
12.0
290
     0
  0
SCALE
  5
661
102
{ACAD_REACTORS
330
640
102
}
330
640
100
AcDbScale
 70
     0
300
1'-0" = 1'-0"
140
12.0
141
12.0
290
     0
  0
TABLESTYLE
  5
666
102
{ACAD_REACTORS
330
665
102
}
102
{ACAD_XDICTIONARY
360
69A
102
}
330
665
100
AcDbTableStyle
  3
Standard
 70
     0
 71
     0
 40
0.06
 41
0.06
280
     0
281
     0
  7
Standard
140
4.5
170
     2
 62
     0
 63
   257
283
     0
 90
        4
 91
        0
  1

274
    -2
284
     1
 64
     0
275
    -2
285
     1
 65
     0
276
    -2
286
     1
 66
     0
277
    -2
287
     1
 67
     0
278
    -2
288
     1
 68
     0
279
    -2
289
     1
 69
     0
  7
Standard
140
6.0
170
     5
 62
     0
 63
   257
283
     0
 90
        4
 91
        0
  1

274
    -2
284
     1
 64
     0
275
    -2
285
     1
 65
     0
276
    -2
286
     1
 66
     0
277
    -2
287
     1
 67
     0
278
    -2
288
     1
 68
     0
279
    -2
289
     1
 69
     0
  7
Standard
140
4.5
170
     5
 62
     0
 63
   257
283
     0
 90
        4
 91
        0
  1

274
    -2
284
     1
 64
     0
275
    -2
285
     1
 65
     0
276
    -2
286
     1
 66
     0
277
    -2
287
     1
 67
     0
278
    -2
288
     1
 68
     0
279
    -2
289
     1
 69
     0
  0
VISUALSTYLE
  5
62C
102
{ACAD_REACTORS
330
627
102
}
102
{ACAD_XDICTIONARY
360
672
102
}
330
627
100
AcDbVisualStyle
  2
2dWireframe
 70
     4
177
     2
291
     0
 71
     0
176
     1
 72
     2
176
     1
 73
     0
176
     1
 90
        0
176
     1
 40
0.6
176
     1
 41
30.0
176
     1
 62
     5
 63
     7
421
 16777215
176
     1
 74
     1
176
     1
 91
        4
176
     1
 64
     7
176
     1
 65
   257
176
     1
 75
     1
176
     1
175
     1
176
     1
 42
1.0
176
     1
 92
        0
176
     1
 66
   257
176
     1
 43
1.0
176
     1
 76
     1
176
     1
 77
     6
176
     1
 78
     2
176
     1
 67
     7
176
     1
 79
     5
176
     1
170
     0
176
     1
171
     0
176
     1
290
     0
176
     1
 93
        1
176
     1
 44
0.0
176
     1
173
     0
176
     1
  0
VISUALSTYLE
  5
62F
102
{ACAD_REACTORS
330
627
102
}
102
{ACAD_XDICTIONARY
360
678
102
}
330
627
100
AcDbVisualStyle
  2
Basic
 70
     7
177
     2
291
     1
 71
     1
176
     1
 72
     0
176
     1
 73
     1
176
     1
 90
        0
176
     1
 40
0.6
176
     1
 41
30.0
176
     1
 62
     5
 63
     7
421
 16777215
176
     1
 74
     0
176
     1
 91
        4
176
     1
 64
     7
176
     1
 65
   257
176
     1
 75
     1
176
     1
175
     1
176
     1
 42
1.0
176
     1
 92
        8
176
     1
 66
     7
176
     1
 43
1.0
176
     1
 76
     1
176
     1
 77
     6
176
     1
 78
     2
176
     1
 67
     7
176
     1
 79
     5
176
     1
170
     0
176
     1
171
     0
176
     1
290
     0
176
     1
 93
        1
176
     1
 44
0.0
176
     1
173
     0
176
     1
  0
VISUALSTYLE
  5
633
102
{ACAD_REACTORS
330
627
102
}
102
{ACAD_XDICTIONARY
360
680
102
}
330
627
100
AcDbVisualStyle
  2
Brighten
 70
    12
177
     2
291
     1
 71
     2
176
     1
 72
     2
176
     1
 73
     0
176
     1
 90
        0
176
     1
 40
0.6
176
     1
 41
30.0
176
     1
 62
     5
 63
     7
421
 16777215
176
     1
 74
     1
176
     1
 91
        4
176
     1
 64
     7
176
     1
 65
   257
176
     1
 75
     1
176
     1
175
     1
176
     1
 42
1.0
176
     1
 92
        8
176
     1
 66
     7
176
     1
 43
1.0
176
     1
 76
     1
176
     1
 77
     6
176
     1
 78
     2
176
     1
 67
     7
176
     1
 79
     5
176
     1
170
     0
176
     1
171
     0
176
     1
290
     0
176
     1
 93
        1
176
     1
 44
50.0
176
     1
173
     0
176
     1
  0
VISUALSTYLE
  5
637
102
{ACAD_REACTORS
330
627
102
}
102
{ACAD_XDICTIONARY
360
688
102
}
330
627
100
AcDbVisualStyle
  2
ColorChange
 70
    16
177
     2
291
     1
 71
     2
176
     1
 72
     2
176
     1
 73
     3
176
     1
 90
        0
176
     1
 40
0.6
176
     1
 41
30.0
176
     1
 62
     5
 63
     8
421
  8421504
176
     1
 74
     1
176
     1
 91
        4
176
     1
 64
     7
176
     1
 65
   257
176
     1
 75
     1
176
     1
175
     1
176
     1
 42
1.0
176
     1
 92
        8
176
     1
 66
     8
424
  8421504
176
     1
 43
1.0
176
     1
 76
     1
176
     1
 77
     6
176
     1
 78
     2
176
     1
 67
     7
176
     1
 79
     5
176
     1
170
     0
176
     1
171
     0
176
     1
290
     0
176
     1
 93
        1
176
     1
 44
0.0
176
     1
173
     0
176
     1
  0
VISUALSTYLE
  5
631
102
{ACAD_REACTORS
330
627
102
}
102
{ACAD_XDICTIONARY
360
67C
102
}
330
627
100
AcDbVisualStyle
  2
Conceptual
 70
     9
177
     2
291
     0
 71
     3
176
     1
 72
     2
176
     1
 73
     0
176
     1
 90
        0
176
     1
 40
0.6
176
     1
 41
30.0
176
     1
 62
     5
 63
     7
421
 16777215
176
     1
 74
     2
176
     1
 91
        2
176
     1
 64
     7
176
     1
 65
   257
176
     1
 75
     1
176
     1
175
     1
176
     1
 42
179.0
176
     1
 92
        8
176
     1
 66
     7
176
     1
 43
1.0
176
     1
 76
     1
176
     1
 77
     6
176
     1
 78
     2
176
     1
 67
     7
176
     1
 79
     3
176
     1
170
     0
176
     1
171
     0
176
     1
290
     0
176
     1
 93
        1
176
     1
 44
0.0
176
     1
173
     0
176
     1
  0
VISUALSTYLE
  5
632
102
{ACAD_REACTORS
330
627
102
}
102
{ACAD_XDICTIONARY
360
67E
102
}
330
627
100
AcDbVisualStyle
  2
Dim
 70
    11
177
     2
291
     1
 71
     2
176
     1
 72
     2
176
     1
 73
     0
176
     1
 90
        0
176
     1
 40
0.6
176
     1
 41
30.0
176
     1
 62
     5
 63
     7
421
 16777215
176
     1
 74
     1
176
     1
 91
        4
176
     1
 64
     7
176
     1
 65
   257
176
     1
 75
     1
176
     1
175
     1
176
     1
 42
1.0
176
     1
 92
        8
176
     1
 66
     7
176
     1
 43
1.0
176
     1
 76
     1
176
     1
 77
     6
176
     1
 78
     2
176
     1
 67
     7
176
     1
 79
     5
176
     1
170
     0
176
     1
171
     0
176
     1
290
     0
176
     1
 93
        1
176
     1
 44
-50.0
176
     1
173
     0
176
     1
  0
VISUALSTYLE
  5
63A
102
{ACAD_REACTORS
330
627
102
}
102
{ACAD_XDICTIONARY
360
68E
102
}
330
627
100
AcDbVisualStyle
  2
EdgeColorOff
 70
    22
177
     2
291
     1
 71
     2
176
     0
 72
     2
176
     0
 73
     0
176
     0
 90
        0
176
     0
 40
0.6
176
     0
 41
30.0
176
     0
 62
     5
 63
     7
421
 16777215
176
     0
 74
     1
176
     0
 91
        4
176
     0
 64
     7
176
     0
 65
   257
176
     0
 75
     1
176
     0
175
     1
176
     0
 42
1.0
176
     0
 92
        8
176
     2
 66
     7
176
     0
 43
1.0
176
     0
 76
     1
176
     0
 77
     6
176
     0
 78
     2
176
     0
 67
     7
176
     0
 79
     5
176
     0
170
     0
176
     0
171
     0
176
     0
290
     0
176
     0
 93
        1
176
     0
 44
0.0
176
     0
173
     0
176
     0
  0
VISUALSTYLE
  5
636
102
{ACAD_REACTORS
330
627
102
}
102
{ACAD_XDICTIONARY
360
686
102
}
330
627
100
AcDbVisualStyle
  2
Facepattern
 70
    15
177
     2
291
     1
 71
     2
176
     1
 72
     2
176
     1
 73
     0
176
     1
 90
        0
176
     1
 40
0.6
176
     1
 41
30.0
176
     1
 62
     5
 63
     7
421
 16777215
176
     1
 74
     1
176
     1
 91
        4
176
     1
 64
     7
176
     1
 65
   257
176
     1
 75
     1
176
     1
175
     1
176
     1
 42
1.0
176
     1
 92
        8
176
     1
 66
     7
176
     1
 43
1.0
176
     1
 76
     1
176
     1
 77
     6
176
     1
 78
     2
176
     1
 67
     7
176
     1
 79
     5
176
     1
170
     0
176
     1
171
     0
176
     1
290
     0
176
     1
 93
        1
176
     1
 44
0.0
176
     1
173
     0
176
     1
  0
VISUALSTYLE
  5
628
102
{ACAD_REACTORS
330
627
102
}
102
{ACAD_XDICTIONARY
360
66A
102
}
330
627
100
AcDbVisualStyle
  2
Flat
 70
     0
177
     2
291
     1
 71
     2
176
     1
 72
     1
176
     1
 73
     1
176
     1
 90
        2
176
     1
 40
0.6
176
     1
 41
30.0
176
     1
 62
     5
 63
     7
421
 16777215
176
     1
 74
     0
176
     1
 91
        0
176
     1
 64
     7
176
     1
 65
   257
176
     1
 75
     1
176
     1
175
     1
176
     1
 42
1.0
176
     1
 92
        8
176
     1
 66
     7
176
     1
 43
1.0
176
     1
 76
     1
176
     1
 77
     6
176
     1
 78
     2
176
     1
 67
     7
176
     1
 79
     5
176
     1
170
     0
176
     1
171
     0
176
     1
290
     0
176
     1
 93
       13
176
     1
 44
0.0
176
     1
173
     0
176
     1
  0
VISUALSTYLE
  5
629
102
{ACAD_REACTORS
330
627
102
}
102
{ACAD_XDICTIONARY
360
66C
102
}
330
627
100
AcDbVisualStyle
  2
FlatWithEdges
 70
     1
177
     2
291
     1
 71
     2
176
     1
 72
     1
176
     1
 73
     1
176
     1
 90
        2
176
     1
 40
0.6
176
     1
 41
30.0
176
     1
 62
     5
 63
     7
421
 16777215
176
     1
 74
     1
176
     1
 91
        0
176
     1
 64
     7
176
     1
 65
   257
176
     1
 75
     1
176
     1
175
     1
176
     1
 42
1.0
176
     1
 92
        0
176
     1
 66
   257
176
     1
 43
1.0
176
     1
 76
     1
176
     1
 77
     6
176
     1
 78
     2
176
     1
 67
     7
176
     1
 79
     5
176
     1
170
     0
176
     1
171
     0
176
     1
290
     0
176
     1
 93
       13
176
     1
 44
0.0
176
     1
173
     0
176
     1
  0
VISUALSTYLE
  5
62A
102
{ACAD_REACTORS
330
627
102
}
102
{ACAD_XDICTIONARY
360
66E
102
}
330
627
100
AcDbVisualStyle
  2
Gouraud
 70
     2
177
     2
291
     1
 71
     2
176
     1
 72
     2
176
     1
 73
     1
176
     1
 90
        2
176
     1
 40
0.6
176
     1
 41
30.0
176
     1
 62
     5
 63
     7
421
 16777215
176
     1
 74
     0
176
     1
 91
        0
176
     1
 64
     7
176
     1
 65
   257
176
     1
 75
     1
176
     1
175
     1
176
     1
 42
1.0
176
     1
 92
        0
176
     1
 66
     7
176
     1
 43
1.0
176
     1
 76
     1
176
     1
 77
     6
176
     1
 78
     2
176
     1
 67
     7
176
     1
 79
     5
176
     1
170
     0
176
     1
171
     0
176
     1
290
     0
176
     1
 93
       13
176
     1
 44
0.0
176
     1
173
     0
176
     1
  0
VISUALSTYLE
  5
62B
102
{ACAD_REACTORS
330
627
102
}
102
{ACAD_XDICTIONARY
360
670
102
}
330
627
100
AcDbVisualStyle
  2
GouraudWithEdges
 70
     3
177
     2
291
     1
 71
     2
176
     1
 72
     2
176
     1
 73
     1
176
     1
 90
        2
176
     1
 40
0.6
176
     1
 41
30.0
176
     1
 62
     5
 63
     7
421
 16777215
176
     1
 74
     1
176
     1
 91
        0
176
     1
 64
     7
176
     1
 65
   257
176
     1
 75
     1
176
     1
175
     1
176
     1
 42
1.0
176
     1
 92
        0
176
     1
 66
   257
176
     1
 43
1.0
176
     1
 76
     1
176
     1
 77
     6
176
     1
 78
     2
176
     1
 67
     7
176
     1
 79
     5
176
     1
170
     0
176
     1
171
     0
176
     1
290
     0
176
     1
 93
       13
176
     1
 44
0.0
176
     1
173
     0
176
     1
  0
VISUALSTYLE
  5
62E
102
{ACAD_REACTORS
330
627
102
}
102
{ACAD_XDICTIONARY
360
676
102
}
330
627
100
AcDbVisualStyle
  2
Hidden
 70
     6
177
     2
291
     0
 71
     1
176
     1
 72
     2
176
     1
 73
     2
176
     1
 90
        0
176
     1
 40
0.6
176
     1
 41
30.0
176
     1
 62
     5
 63
     7
421
 16777215
176
     1
 74
     2
176
     1
 91
        2
176
     1
 64
     7
176
     1
 65
   257
176
     1
 75
     2
176
     1
175
     1
176
     1
 42
40.0
176
     1
 92
        0
176
     1
 66
   257
176
     1
 43
1.0
176
     1
 76
     1
176
     1
 77
     6
176
     1
 78
     2
176
     1
 67
     7
176
     1
 79
     3
176
     1
170
     0
176
     1
171
     0
176
     1
290
     0
176
     1
 93
        1
176
     1
 44
0.0
176
     1
173
     0
176
     1
  0
VISUALSTYLE
  5
638
102
{ACAD_REACTORS
330
627
102
}
102
{ACAD_XDICTIONARY
360
68A
102
}
330
627
100
AcDbVisualStyle
  2
JitterOff
 70
    20
177
     2
291
     1
 71
     2
176
     0
 72
     2
176
     0
 73
     0
176
     0
 90
        0
176
     0
 40
0.6
176
     0
 41
30.0
176
     0
 62
     5
 63
     7
421
 16777215
176
     0
 74
     1
176
     0
 91
        4
176
     0
 64
     7
176
     0
 65
   257
176
     0
 75
     1
176
     0
175
     1
176
     0
 42
1.0
176
     0
 92
       10
176
     2
 66
     7
176
     0
 43
1.0
176
     0
 76
     1
176
     0
 77
     6
176
     0
 78
     2
176
     0
 67
     7
176
     0
 79
     5
176
     0
170
     0
176
     0
171
     0
176
     0
290
     0
176
     0
 93
        1
176
     0
 44
0.0
176
     0
173
     0
176
     0
  0
VISUALSTYLE
  5
635
102
{ACAD_REACTORS
330
627
102
}
102
{ACAD_XDICTIONARY
360
684
102
}
330
627
100
AcDbVisualStyle
  2
Linepattern
 70
    14
177
     2
291
     1
 71
     2
176
     1
 72
     2
176
     1
 73
     0
176
     1
 90
        0
176
     1
 40
0.6
176
     1
 41
30.0
176
     1
 62
     5
 63
     7
421
 16777215
176
     1
 74
     1
176
     1
 91
        4
176
     1
 64
     7
176
     1
 65
   257
176
     1
 75
     7
176
     1
175
     7
176
     1
 42
1.0
176
     1
 92
        8
176
     1
 66
     7
176
     1
 43
1.0
176
     1
 76
     1
176
     1
 77
     6
176
     1
 78
     2
176
     1
 67
     7
176
     1
 79
     5
176
     1
170
     0
176
     1
171
     0
176
     1
290
     0
176
     1
 93
        1
176
     1
 44
0.0
176
     1
173
     0
176
     1
  0
VISUALSTYLE
  5
639
102
{ACAD_REACTORS
330
627
102
}
102
{ACAD_XDICTIONARY
360
68C
102
}
330
627
100
AcDbVisualStyle
  2
OverhangOff
 70
    21
177
     2
291
     1
 71
     2
176
     0
 72
     2
176
     0
 73
     0
176
     0
 90
        0
176
     0
 40
0.6
176
     0
 41
30.0
176
     0
 62
     5
 63
     7
421
 16777215
176
     0
 74
     1
176
     0
 91
        4
176
     0
 64
     7
176
     0
 65
   257
176
     0
 75
     1
176
     0
175
     1
176
     0
 42
1.0
176
     0
 92
        9
176
     2
 66
     7
176
     0
 43
1.0
176
     0
 76
     1
176
     0
 77
     6
176
     0
 78
     2
176
     0
 67
     7
176
     0
 79
     5
176
     0
170
     0
176
     0
171
     0
176
     0
290
     0
176
     0
 93
        1
176
     0
 44
0.0
176
     0
173
     0
176
     0
  0
VISUALSTYLE
  5
630
102
{ACAD_REACTORS
330
627
102
}
102
{ACAD_XDICTIONARY
360
67A
102
}
330
627
100
AcDbVisualStyle
  2
Realistic
 70
     8
177
     2
291
     0
 71
     2
176
     1
 72
     3
176
     1
 73
     0
176
     1
 90
        2
176
     1
 40
0.6
176
     1
 41
30.0
176
     1
 62
     5
 63
     7
421
 16777215
176
     1
 74
     0
176
     1
 91
        0
176
     1
 64
     7
176
     1
 65
   257
176
     1
 75
     1
176
     1
175
     1
176
     1
 42
1.0
176
     1
 92
        8
176
     1
 66
   257
176
     1
 43
1.0
176
     1
 76
     1
176
     1
 77
     6
176
     1
 78
     2
176
     1
 67
     7
176
     1
 79
     3
176
     1
170
     0
176
     1
171
     0
176
     1
290
     0
176
     1
 93
       13
176
     1
 44
0.0
176
     1
173
     0
176
     1
  0
VISUALSTYLE
  5
63F
102
{ACAD_REACTORS
330
627
102
}
102
{ACAD_XDICTIONARY
360
698
102
}
330
627
100
AcDbVisualStyle
  2
Shaded
 70
    27
177
     2
291
     0
 71
     2
176
     1
 72
     2
176
     1
 73
     1
176
     1
 90
        2
176
     1
 40
0.6
176
     1
 41
30.0
176
     1
 62
     5
 63
     7
421
 16777215
176
     1
 74
     0
176
     1
 91
        4
176
     1
 64
     7
176
     1
 65
   257
176
     1
 75
     1
176
     1
175
     1
176
     1
 42
1.0
176
     1
 92
        8
176
     1
 66
   257
176
     1
 43
1.0
176
     1
 76
     1
176
     1
 77
     6
176
     1
 78
     2
176
     1
 67
     8
425
  7895160
176
     1
 79
     3
176
     1
170
     0
176
     1
171
     0
176
     1
290
     0
176
     1
 93
        5
176
     1
 44
0.0
176
     1
173
     0
176
     1
  0
VISUALSTYLE
  5
63E
102
{ACAD_REACTORS
330
627
102
}
102
{ACAD_XDICTIONARY
360
696
102
}
330
627
100
AcDbVisualStyle
  2
Shaded with edges
 70
    26
177
     2
291
     0
 71
     2
176
     1
 72
     2
176
     1
 73
     1
176
     1
 90
        2
176
     1
 40
0.6
176
     1
 41
30.0
176
     1
 62
     5
 63
     7
421
 16777215
176
     1
 74
     1
176
     1
 91
       10
176
     1
 64
     7
176
     1
 65
   257
176
     1
 75
     2
176
     1
175
     1
176
     1
 42
1.0
176
     1
 92
        8
176
     1
 66
   257
176
     1
 43
1.0
176
     1
 76
     1
176
     1
 77
     6
176
     1
 78
     2
176
     1
 67
     7
176
     1
 79
     3
176
     1
170
     0
176
     1
171
     0
176
     1
290
     0
176
     1
 93
        5
176
     1
 44
0.0
176
     1
173
     0
176
     1
  0
VISUALSTYLE
  5
63B
102
{ACAD_REACTORS
330
627
102
}
102
{ACAD_XDICTIONARY
360
690
102
}
330
627
100
AcDbVisualStyle
  2
Shades of Gray
 70
    23
177
     2
291
     0
 71
     2
176
     1
 72
     2
176
     1
 73
     3
176
     1
 90
        0
176
     1
 40
0.6
176
     1
 41
30.0
176
     1
 62
     5
 63
     7
421
 16777215
176
     1
 74
     2
176
     1
 91
        2
176
     1
 64
     7
176
     1
 65
     7
176
     1
 75
     1
176
     1
175
     1
176
     1
 42
40.0
176
     1
 92
        8
176
     1
 66
     7
176
     1
 43
1.0
176
     1
 76
     1
176
     1
 77
     6
176
     1
 78
     2
176
     1
 67
     7
176
     1
 79
     3
176
     1
170
     0
176
     1
171
     0
176
     1
290
     0
176
     1
 93
        1
176
     1
 44
0.0
176
     1
173
     0
176
     1
  0
VISUALSTYLE
  5
63C
102
{ACAD_REACTORS
330
627
102
}
102
{ACAD_XDICTIONARY
360
692
102
}
330
627
100
AcDbVisualStyle
  2
Sketchy
 70
    24
177
     2
291
     0
 71
     1
176
     1
 72
     2
176
     1
 73
     2
176
     1
 90
        0
176
     1
 40
0.6
176
     1
 41
30.0
176
     1
 62
     5
 63
     7
421
 16777215
176
     1
 74
     2
176
     1
 91
        2
176
     1
 64
     7
176
     1
 65
     7
176
     1
 75
     1
176
     1
175
     1
176
     1
 42
40.0
176
     1
 92
       11
176
     1
 66
     7
176
     1
 43
1.0
176
     1
 76
     1
176
     1
 77
     6
176
     1
 78
     2
176
     1
 67
     7
176
     1
 79
     6
176
     1
170
     0
176
     1
171
     0
176
     1
290
     0
176
     1
 93
        1
176
     1
 44
0.0
176
     1
173
     0
176
     1
  0
VISUALSTYLE
  5
634
102
{ACAD_REACTORS
330
627
102
}
102
{ACAD_XDICTIONARY
360
682
102
}
330
627
100
AcDbVisualStyle
  2
Thicken
 70
    13
177
     2
291
     1
 71
     2
176
     1
 72
     2
176
     1
 73
     0
176
     1
 90
        0
176
     1
 40
0.6
176
     1
 41
30.0
176
     1
 62
     5
 63
     7
421
 16777215
176
     1
 74
     1
176
     1
 91
        4
176
     1
 64
     7
176
     1
 65
   257
176
     1
 75
     1
176
     1
175
     1
176
     1
 42
1.0
176
     1
 92
       12
176
     1
 66
     7
176
     1
 43
1.0
176
     1
 76
     1
176
     1
 77
     6
176
     1
 78
     2
176
     1
 67
     7
176
     1
 79
     5
176
     1
170
     0
176
     1
171
     0
176
     1
290
     0
176
     1
 93
        1
176
     1
 44
0.0
176
     1
173
     0
176
     1
  0
VISUALSTYLE
  5
62D
102
{ACAD_REACTORS
330
627
102
}
102
{ACAD_XDICTIONARY
360
674
102
}
330
627
100
AcDbVisualStyle
  2
Wireframe
 70
     5
177
     2
291
     0
 71
     0
176
     1
 72
     2
176
     1
 73
     0
176
     1
 90
        0
176
     1
 40
0.6
176
     1
 41
30.0
176
     1
 62
     5
 63
     7
421
 16777215
176
     1
 74
     1
176
     1
 91
        4
176
     1
 64
     7
176
     1
 65
   257
176
     1
 75
     1
176
     1
175
     1
176
     1
 42
1.0
176
     1
 92
        0
176
     1
 66
   257
176
     1
 43
1.0
176
     1
 76
     1
176
     1
 77
     6
176
     1
 78
     2
176
     1
 67
     7
176
     1
 79
     3
176
     1
170
     0
176
     1
171
     0
176
     1
290
     0
176
     1
 93
        1
176
     1
 44
0.0
176
     1
173
     0
176
     1
  0
VISUALSTYLE
  5
63D
102
{ACAD_REACTORS
330
627
102
}
102
{ACAD_XDICTIONARY
360
694
102
}
330
627
100
AcDbVisualStyle
  2
X-Ray
 70
    25
177
     2
291
     0
 71
     2
176
     1
 72
     2
176
     1
 73
     1
176
     1
 90
        1
176
     1
 40
0.5
176
     1
 41
30.0
176
     1
 62
     5
 63
     7
421
 16777215
176
     1
 74
     1
176
     1
 91
        0
176
     1
 64
     7
176
     1
 65
   257
176
     1
 75
     1
176
     1
175
     1
176
     1
 42
1.0
176
     1
 92
        8
176
     1
 66
     7
176
     1
 43
1.0
176
     1
 76
     1
176
     1
 77
     6
176
     1
 78
     2
176
     1
 67
     7
176
     1
 79
     3
176
     1
170
     0
176
     1
171
     0
176
     1
290
     0
176
     1
 93
       13
176
     1
 44
0.0
176
     1
173
     0
176
     1
  0
DICTIONARYVAR
  5
669
102
{ACAD_REACTORS
330
5E
102
}
330
5E
100
DictionaryVariables
280
     0
  1
1:1
  0
DICTIONARYVAR
  5
69E
102
{ACAD_REACTORS
330
5E
102
}
330
5E
100
DictionaryVariables
280
     0
  1
Standard
  0
DICTIONARYVAR
  5
69D
102
{ACAD_REACTORS
330
5E
102
}
330
5E
100
DictionaryVariables
280
     0
  1
Standard
  0
DICTIONARYVAR
  5
5F
102
{ACAD_REACTORS
330
5E
102
}
330
5E
100
DictionaryVariables
280
     0
  1
2
  0
DICTIONARYVAR
  5
63
102
{ACAD_REACTORS
330
5E
102
}
330
5E
100
DictionaryVariables
280
     0
  1
1
  0
DICTIONARYVAR
  5
69F
102
{ACAD_REACTORS
330
5E
102
}
330
5E
100
DictionaryVariables
280
     0
  1
0
  0
DICTIONARYVAR
  5
185
102
{ACAD_REACTORS
330
5E
102
}
330
5E
100
DictionaryVariables
280
     0
  1

  0
DICTIONARY
  5
69A
330
666
100
AcDbDictionary
280
     1
281
     1
  3
ACAD_ROUNDTRIP_2008_TABLESTYLE_CELLSTYLEMAP
360
69B
  0
DICTIONARY
  5
672
330
62C
100
AcDbDictionary
280
     1
281
     1
  3
ACAD_XREC_ROUNDTRIP
360
673
  0
DICTIONARY
  5
678
330
62F
100
AcDbDictionary
280
     1
281
     1
  3
ACAD_XREC_ROUNDTRIP
360
679
  0
DICTIONARY
  5
680
330
633
100
AcDbDictionary
280
     1
281
     1
  3
ACAD_XREC_ROUNDTRIP
360
681
  0
DICTIONARY
  5
688
330
637
100
AcDbDictionary
280
     1
281
     1
  3
ACAD_XREC_ROUNDTRIP
360
689
  0
DICTIONARY
  5
67C
330
631
100
AcDbDictionary
280
     1
281
     1
  3
ACAD_XREC_ROUNDTRIP
360
67D
  0
DICTIONARY
  5
67E
330
632
100
AcDbDictionary
280
     1
281
     1
  3
ACAD_XREC_ROUNDTRIP
360
67F
  0
DICTIONARY
  5
68E
330
63A
100
AcDbDictionary
280
     1
281
     1
  3
ACAD_XREC_ROUNDTRIP
360
68F
  0
DICTIONARY
  5
686
330
636
100
AcDbDictionary
280
     1
281
     1
  3
ACAD_XREC_ROUNDTRIP
360
687
  0
DICTIONARY
  5
66A
330
628
100
AcDbDictionary
280
     1
281
     1
  3
ACAD_XREC_ROUNDTRIP
360
66B
  0
DICTIONARY
  5
66C
330
629
100
AcDbDictionary
280
     1
281
     1
  3
ACAD_XREC_ROUNDTRIP
360
66D
  0
DICTIONARY
  5
66E
330
62A
100
AcDbDictionary
280
     1
281
     1
  3
ACAD_XREC_ROUNDTRIP
360
66F
  0
DICTIONARY
  5
670
330
62B
100
AcDbDictionary
280
     1
281
     1
  3
ACAD_XREC_ROUNDTRIP
360
671
  0
DICTIONARY
  5
676
330
62E
100
AcDbDictionary
280
     1
281
     1
  3
ACAD_XREC_ROUNDTRIP
360
677
  0
DICTIONARY
  5
68A
330
638
100
AcDbDictionary
280
     1
281
     1
  3
ACAD_XREC_ROUNDTRIP
360
68B
  0
DICTIONARY
  5
684
330
635
100
AcDbDictionary
280
     1
281
     1
  3
ACAD_XREC_ROUNDTRIP
360
685
  0
DICTIONARY
  5
68C
330
639
100
AcDbDictionary
280
     1
281
     1
  3
ACAD_XREC_ROUNDTRIP
360
68D
  0
DICTIONARY
  5
67A
330
630
100
AcDbDictionary
280
     1
281
     1
  3
ACAD_XREC_ROUNDTRIP
360
67B
  0
DICTIONARY
  5
698
330
63F
100
AcDbDictionary
280
     1
281
     1
  3
ACAD_XREC_ROUNDTRIP
360
699
  0
DICTIONARY
  5
696
330
63E
100
AcDbDictionary
280
     1
281
     1
  3
ACAD_XREC_ROUNDTRIP
360
697
  0
DICTIONARY
  5
690
330
63B
100
AcDbDictionary
280
     1
281
     1
  3
ACAD_XREC_ROUNDTRIP
360
691
  0
DICTIONARY
  5
692
330
63C
100
AcDbDictionary
280
     1
281
     1
  3
ACAD_XREC_ROUNDTRIP
360
693
  0
DICTIONARY
  5
682
330
634
100
AcDbDictionary
280
     1
281
     1
  3
ACAD_XREC_ROUNDTRIP
360
683
  0
DICTIONARY
  5
674
330
62D
100
AcDbDictionary
280
     1
281
     1
  3
ACAD_XREC_ROUNDTRIP
360
675
  0
DICTIONARY
  5
694
330
63D
100
AcDbDictionary
280
     1
281
     1
  3
ACAD_XREC_ROUNDTRIP
360
695
  0
CELLSTYLEMAP
  5
69B
102
{ACAD_REACTORS
330
69A
102
}
330
69A
100
AcDbCellStyleMap
 90
        3
300
CELLSTYLE
  1
TABLEFORMAT_BEGIN
 90
        5
170
     1
 91
        0
 92
    32768
 62
   257
 93
        1
300
CONTENTFORMAT
  1
CONTENTFORMAT_BEGIN
 90
        0
 91
        0
 92
        4
 93
        0
300

 40
0.0
140
1.0
 94
        5
 62
     0
340
11
144
6.0
309
CONTENTFORMAT_END
171
     1
301
MARGIN
  1
CELLMARGIN_BEGIN
 40
1.5
 40
1.5
 40
1.5
 40
1.5
 40
1.5
 40
1.5
309
CELLMARGIN_END
 94
        6
 95
        1
302
GRIDFORMAT
  1
GRIDFORMAT_BEGIN
 90
        0
 91
        1
 62
     0
 92
       -2
340
14
 93
        0
 40
0.045
309
GRIDFORMAT_END
 95
        2
302
GRIDFORMAT
  1
GRIDFORMAT_BEGIN
 90
        0
 91
        1
 62
     0
 92
       -2
340
14
 93
        0
 40
0.045
309
GRIDFORMAT_END
 95
        4
302
GRIDFORMAT
  1
GRIDFORMAT_BEGIN
 90
        0
 91
        1
 62
     0
 92
       -2
340
14
 93
        0
 40
0.045
309
GRIDFORMAT_END
 95
        8
302
GRIDFORMAT
  1
GRIDFORMAT_BEGIN
 90
        0
 91
        1
 62
     0
 92
       -2
340
14
 93
        0
 40
0.045
309
GRIDFORMAT_END
 95
       16
302
GRIDFORMAT
  1
GRIDFORMAT_BEGIN
 90
        0
 91
        1
 62
     0
 92
       -2
340
14
 93
        0
 40
0.045
309
GRIDFORMAT_END
 95
       32
302
GRIDFORMAT
  1
GRIDFORMAT_BEGIN
 90
        0
 91
        1
 62
     0
 92
       -2
340
14
 93
        0
 40
0.045
309
GRIDFORMAT_END
309
TABLEFORMAT_END
  1
CELLSTYLE_BEGIN
 90
        1
 91
        1
300
_TITLE
309
CELLSTYLE_END
300
CELLSTYLE
  1
TABLEFORMAT_BEGIN
 90
        5
170
     1
 91
        0
 92
        0
 62
   257
 93
        1
300
CONTENTFORMAT
  1
CONTENTFORMAT_BEGIN
 90
        0
 91
        0
 92
        4
 93
        0
300

 40
0.0
140
1.0
 94
        5
 62
     0
340
11
144
4.5
309
CONTENTFORMAT_END
171
     1
301
MARGIN
  1
CELLMARGIN_BEGIN
 40
1.5
 40
1.5
 40
1.5
 40
1.5
 40
1.5
 40
1.5
309
CELLMARGIN_END
 94
        6
 95
        1
302
GRIDFORMAT
  1
GRIDFORMAT_BEGIN
 90
        0
 91
        1
 62
     0
 92
       -2
340
14
 93
        0
 40
0.045
309
GRIDFORMAT_END
 95
        2
302
GRIDFORMAT
  1
GRIDFORMAT_BEGIN
 90
        0
 91
        1
 62
     0
 92
       -2
340
14
 93
        0
 40
0.045
309
GRIDFORMAT_END
 95
        4
302
GRIDFORMAT
  1
GRIDFORMAT_BEGIN
 90
        0
 91
        1
 62
     0
 92
       -2
340
14
 93
        0
 40
0.045
309
GRIDFORMAT_END
 95
        8
302
GRIDFORMAT
  1
GRIDFORMAT_BEGIN
 90
        0
 91
        1
 62
     0
 92
       -2
340
14
 93
        0
 40
0.045
309
GRIDFORMAT_END
 95
       16
302
GRIDFORMAT
  1
GRIDFORMAT_BEGIN
 90
        0
 91
        1
 62
     0
 92
       -2
340
14
 93
        0
 40
0.045
309
GRIDFORMAT_END
 95
       32
302
GRIDFORMAT
  1
GRIDFORMAT_BEGIN
 90
        0
 91
        1
 62
     0
 92
       -2
340
14
 93
        0
 40
0.045
309
GRIDFORMAT_END
309
TABLEFORMAT_END
  1
CELLSTYLE_BEGIN
 90
        2
 91
        1
300
_HEADER
309
CELLSTYLE_END
300
CELLSTYLE
  1
TABLEFORMAT_BEGIN
 90
        5
170
     1
 91
        0
 92
        0
 62
   257
 93
        1
300
CONTENTFORMAT
  1
CONTENTFORMAT_BEGIN
 90
        0
 91
        0
 92
        4
 93
        0
300

 40
0.0
140
1.0
 94
        2
 62
     0
340
11
144
4.5
309
CONTENTFORMAT_END
171
     1
301
MARGIN
  1
CELLMARGIN_BEGIN
 40
1.5
 40
1.5
 40
1.5
 40
1.5
 40
1.5
 40
1.5
309
CELLMARGIN_END
 94
        6
 95
        1
302
GRIDFORMAT
  1
GRIDFORMAT_BEGIN
 90
        0
 91
        1
 62
     0
 92
       -2
340
14
 93
        0
 40
0.045
309
GRIDFORMAT_END
 95
        2
302
GRIDFORMAT
  1
GRIDFORMAT_BEGIN
 90
        0
 91
        1
 62
     0
 92
       -2
340
14
 93
        0
 40
0.045
309
GRIDFORMAT_END
 95
        4
302
GRIDFORMAT
  1
GRIDFORMAT_BEGIN
 90
        0
 91
        1
 62
     0
 92
       -2
340
14
 93
        0
 40
0.045
309
GRIDFORMAT_END
 95
        8
302
GRIDFORMAT
  1
GRIDFORMAT_BEGIN
 90
        0
 91
        1
 62
     0
 92
       -2
340
14
 93
        0
 40
0.045
309
GRIDFORMAT_END
 95
       16
302
GRIDFORMAT
  1
GRIDFORMAT_BEGIN
 90
        0
 91
        1
 62
     0
 92
       -2
340
14
 93
        0
 40
0.045
309
GRIDFORMAT_END
 95
       32
302
GRIDFORMAT
  1
GRIDFORMAT_BEGIN
 90
        0
 91
        1
 62
     0
 92
       -2
340
14
 93
        0
 40
0.045
309
GRIDFORMAT_END
309
TABLEFORMAT_END
  1
CELLSTYLE_BEGIN
 90
        3
 91
        2
300
_DATA
309
CELLSTYLE_END
  0
XRECORD
  5
673
102
{ACAD_REACTORS
330
672
102
}
330
672
100
AcDbXrecord
280
     1
102
RTVSPost2010Prop28
280
     1
102
RTVSPost2010PropOp28
 70
     1
102
RTVSPost2010Prop29
280
     1
102
RTVSPost2010PropOp29
 70
     1
102
RTVSPost2010Prop30
280
     0
102
RTVSPost2010PropOp30
 70
     1
102
RTVSPost2010Prop31
280
     0
102
RTVSPost2010PropOp31
 70
     1
102
RTVSPost2010Prop32
280
     0
102
RTVSPost2010PropOp32
 70
     1
102
RTVSPost2010Prop33
280
     0
102
RTVSPost2010PropOp33
 70
     1
102
RTVSPost2010Prop34
280
     0
102
RTVSPost2010PropOp34
 70
     1
102
RTVSPost2010Prop35
280
     0
102
RTVSPost2010PropOp35
 70
     1
102
RTVSPost2010Prop36
280
     0
102
RTVSPost2010PropOp36
 70
     1
102
RTVSPost2010Prop37
 90
       50
102
RTVSPost2010PropOp37
 70
     1
102
RTVSPost2010Prop38
140
0.0
102
RTVSPost2010PropOp38
 70
     1
102
RTVSPost2010Prop39
140
1.0
102
RTVSPost2010PropOp39
 70
     1
102
RTVSPost2010Prop40
 90
        0
102
RTVSPost2010PropOp40
 70
     1
102
RTVSPost2010Prop41ColorIndex
 90
       18
102
RTVSPost2010Prop41ColorRGB
 90
        0
102
RTVSPost2010PropOp41
 70
     1
102
RTVSPost2010Prop42
 90
       50
102
RTVSPost2010PropOp42
 70
     1
102
RTVSPost2010Prop43
 90
        3
102
RTVSPost2010PropOp43
 70
     1
102
RTVSPost2010Prop44ColorIndex
 90
        5
102
RTVSPost2010Prop44ColorRGB
 90
      255
102
RTVSPost2010PropOp44
 70
     1
102
RTVSPost2010Prop45
280
     0
102
RTVSPost2010PropOp45
 70
     1
102
RTVSPost2010Prop46
 90
       50
102
RTVSPost2010PropOp46
 70
     1
102
RTVSPost2010Prop47
 90
       50
102
RTVSPost2010PropOp47
 70
     1
102
RTVSPost2010Prop48
 90
       50
102
RTVSPost2010PropOp48
 70
     1
102
RTVSPost2010Prop49
280
     0
102
RTVSPost2010PropOp49
 70
     1
102
RTVSPost2010Prop50
 90
       50
102
RTVSPost2010PropOp50
 70
     1
102
RTVSPost2010Prop51ColorIndex
 90
      256
102
RTVSPost2010Prop51ColorRGB
 90
-16777216
102
RTVSPost2010PropOp51
 70
     0
102
RTVSPost2010Prop52
140
1.0
102
RTVSPost2010PropOp52
 70
     0
102
RTVSPost2010Prop53
 90
        2
102
RTVSPost2010PropOp53
 70
     1
102
RTVSPost2010Prop54
  1
strokes_ogs.tif
102
RTVSPost2010PropOp54
 70
     1
102
RTVSPost2010Prop55
280
     0
102
RTVSPost2010PropOp55
 70
     1
102
RTVSPost2010Prop56
140
1.0
102
RTVSPost2010PropOp56
 70
     1
102
RTVSPost2010Prop57
140
1.0
102
RTVSPost2010PropOp57
 70
     1
  0
XRECORD
  5
679
102
{ACAD_REACTORS
330
678
102
}
330
678
100
AcDbXrecord
280
     1
102
RTVSPost2010Prop28
280
     0
102
RTVSPost2010PropOp28
 70
     1
102
RTVSPost2010Prop29
280
     1
102
RTVSPost2010PropOp29
 70
     1
102
RTVSPost2010Prop30
280
     1
102
RTVSPost2010PropOp30
 70
     1
102
RTVSPost2010Prop31
280
     0
102
RTVSPost2010PropOp31
 70
     1
102
RTVSPost2010Prop32
280
     0
102
RTVSPost2010PropOp32
 70
     1
102
RTVSPost2010Prop33
280
     0
102
RTVSPost2010PropOp33
 70
     1
102
RTVSPost2010Prop34
280
     0
102
RTVSPost2010PropOp34
 70
     1
102
RTVSPost2010Prop35
280
     0
102
RTVSPost2010PropOp35
 70
     1
102
RTVSPost2010Prop36
280
     0
102
RTVSPost2010PropOp36
 70
     1
102
RTVSPost2010Prop37
 90
       50
102
RTVSPost2010PropOp37
 70
     1
102
RTVSPost2010Prop38
140
0.0
102
RTVSPost2010PropOp38
 70
     1
102
RTVSPost2010Prop39
140
1.0
102
RTVSPost2010PropOp39
 70
     1
102
RTVSPost2010Prop40
 90
        0
102
RTVSPost2010PropOp40
 70
     1
102
RTVSPost2010Prop41ColorIndex
 90
       18
102
RTVSPost2010Prop41ColorRGB
 90
        0
102
RTVSPost2010PropOp41
 70
     1
102
RTVSPost2010Prop42
 90
       50
102
RTVSPost2010PropOp42
 70
     1
102
RTVSPost2010Prop43
 90
        3
102
RTVSPost2010PropOp43
 70
     1
102
RTVSPost2010Prop44ColorIndex
 90
        5
102
RTVSPost2010Prop44ColorRGB
 90
      255
102
RTVSPost2010PropOp44
 70
     1
102
RTVSPost2010Prop45
280
     0
102
RTVSPost2010PropOp45
 70
     1
102
RTVSPost2010Prop46
 90
       50
102
RTVSPost2010PropOp46
 70
     1
102
RTVSPost2010Prop47
 90
       50
102
RTVSPost2010PropOp47
 70
     1
102
RTVSPost2010Prop48
 90
       50
102
RTVSPost2010PropOp48
 70
     1
102
RTVSPost2010Prop49
280
     0
102
RTVSPost2010PropOp49
 70
     1
102
RTVSPost2010Prop50
 90
       50
102
RTVSPost2010PropOp50
 70
     1
102
RTVSPost2010Prop51ColorIndex
 90
      256
102
RTVSPost2010Prop51ColorRGB
 90
-16777216
102
RTVSPost2010PropOp51
 70
     0
102
RTVSPost2010Prop52
140
1.0
102
RTVSPost2010PropOp52
 70
     0
102
RTVSPost2010Prop53
 90
        2
102
RTVSPost2010PropOp53
 70
     1
102
RTVSPost2010Prop54
  1
strokes_ogs.tif
102
RTVSPost2010PropOp54
 70
     1
102
RTVSPost2010Prop55
280
     0
102
RTVSPost2010PropOp55
 70
     1
102
RTVSPost2010Prop56
140
1.0
102
RTVSPost2010PropOp56
 70
     1
102
RTVSPost2010Prop57
140
1.0
102
RTVSPost2010PropOp57
 70
     1
  0
XRECORD
  5
681
102
{ACAD_REACTORS
330
680
102
}
330
680
100
AcDbXrecord
280
     1
102
RTVSPost2010Prop28
280
     0
102
RTVSPost2010PropOp28
 70
     1
102
RTVSPost2010Prop29
280
     1
102
RTVSPost2010PropOp29
 70
     1
102
RTVSPost2010Prop30
280
     1
102
RTVSPost2010PropOp30
 70
     1
102
RTVSPost2010Prop31
280
     0
102
RTVSPost2010PropOp31
 70
     1
102
RTVSPost2010Prop32
280
     0
102
RTVSPost2010PropOp32
 70
     1
102
RTVSPost2010Prop33
280
     0
102
RTVSPost2010PropOp33
 70
     1
102
RTVSPost2010Prop34
280
     0
102
RTVSPost2010PropOp34
 70
     1
102
RTVSPost2010Prop35
280
     0
102
RTVSPost2010PropOp35
 70
     1
102
RTVSPost2010Prop36
280
     0
102
RTVSPost2010PropOp36
 70
     1
102
RTVSPost2010Prop37
 90
       50
102
RTVSPost2010PropOp37
 70
     1
102
RTVSPost2010Prop38
140
0.0
102
RTVSPost2010PropOp38
 70
     1
102
RTVSPost2010Prop39
140
1.0
102
RTVSPost2010PropOp39
 70
     1
102
RTVSPost2010Prop40
 90
        0
102
RTVSPost2010PropOp40
 70
     1
102
RTVSPost2010Prop41ColorIndex
 90
       18
102
RTVSPost2010Prop41ColorRGB
 90
        0
102
RTVSPost2010PropOp41
 70
     1
102
RTVSPost2010Prop42
 90
       50
102
RTVSPost2010PropOp42
 70
     1
102
RTVSPost2010Prop43
 90
        3
102
RTVSPost2010PropOp43
 70
     1
102
RTVSPost2010Prop44ColorIndex
 90
        5
102
RTVSPost2010Prop44ColorRGB
 90
      255
102
RTVSPost2010PropOp44
 70
     1
102
RTVSPost2010Prop45
280
     0
102
RTVSPost2010PropOp45
 70
     1
102
RTVSPost2010Prop46
 90
       50
102
RTVSPost2010PropOp46
 70
     1
102
RTVSPost2010Prop47
 90
       50
102
RTVSPost2010PropOp47
 70
     1
102
RTVSPost2010Prop48
 90
       50
102
RTVSPost2010PropOp48
 70
     1
102
RTVSPost2010Prop49
280
     0
102
RTVSPost2010PropOp49
 70
     1
102
RTVSPost2010Prop50
 90
       50
102
RTVSPost2010PropOp50
 70
     1
102
RTVSPost2010Prop51ColorIndex
 90
      256
102
RTVSPost2010Prop51ColorRGB
 90
-16777216
102
RTVSPost2010PropOp51
 70
     0
102
RTVSPost2010Prop52
140
1.0
102
RTVSPost2010PropOp52
 70
     0
102
RTVSPost2010Prop53
 90
        2
102
RTVSPost2010PropOp53
 70
     1
102
RTVSPost2010Prop54
  1
strokes_ogs.tif
102
RTVSPost2010PropOp54
 70
     1
102
RTVSPost2010Prop55
280
     0
102
RTVSPost2010PropOp55
 70
     1
102
RTVSPost2010Prop56
140
1.0
102
RTVSPost2010PropOp56
 70
     1
102
RTVSPost2010Prop57
140
1.0
102
RTVSPost2010PropOp57
 70
     1
  0
XRECORD
  5
689
102
{ACAD_REACTORS
330
688
102
}
330
688
100
AcDbXrecord
280
     1
102
RTVSPost2010Prop28
280
     0
102
RTVSPost2010PropOp28
 70
     1
102
RTVSPost2010Prop29
280
     1
102
RTVSPost2010PropOp29
 70
     1
102
RTVSPost2010Prop30
280
     1
102
RTVSPost2010PropOp30
 70
     1
102
RTVSPost2010Prop31
280
     0
102
RTVSPost2010PropOp31
 70
     1
102
RTVSPost2010Prop32
280
     0
102
RTVSPost2010PropOp32
 70
     1
102
RTVSPost2010Prop33
280
     0
102
RTVSPost2010PropOp33
 70
     1
102
RTVSPost2010Prop34
280
     0
102
RTVSPost2010PropOp34
 70
     1
102
RTVSPost2010Prop35
280
     0
102
RTVSPost2010PropOp35
 70
     1
102
RTVSPost2010Prop36
280
     0
102
RTVSPost2010PropOp36
 70
     1
102
RTVSPost2010Prop37
 90
       50
102
RTVSPost2010PropOp37
 70
     1
102
RTVSPost2010Prop38
140
0.0
102
RTVSPost2010PropOp38
 70
     1
102
RTVSPost2010Prop39
140
1.0
102
RTVSPost2010PropOp39
 70
     1
102
RTVSPost2010Prop40
 90
        0
102
RTVSPost2010PropOp40
 70
     1
102
RTVSPost2010Prop41ColorIndex
 90
       18
102
RTVSPost2010Prop41ColorRGB
 90
        0
102
RTVSPost2010PropOp41
 70
     1
102
RTVSPost2010Prop42
 90
       50
102
RTVSPost2010PropOp42
 70
     1
102
RTVSPost2010Prop43
 90
        3
102
RTVSPost2010PropOp43
 70
     1
102
RTVSPost2010Prop44ColorIndex
 90
        5
102
RTVSPost2010Prop44ColorRGB
 90
      255
102
RTVSPost2010PropOp44
 70
     1
102
RTVSPost2010Prop45
280
     0
102
RTVSPost2010PropOp45
 70
     1
102
RTVSPost2010Prop46
 90
       50
102
RTVSPost2010PropOp46
 70
     1
102
RTVSPost2010Prop47
 90
       50
102
RTVSPost2010PropOp47
 70
     1
102
RTVSPost2010Prop48
 90
       50
102
RTVSPost2010PropOp48
 70
     1
102
RTVSPost2010Prop49
280
     0
102
RTVSPost2010PropOp49
 70
     1
102
RTVSPost2010Prop50
 90
       50
102
RTVSPost2010PropOp50
 70
     1
102
RTVSPost2010Prop51ColorIndex
 90
      256
102
RTVSPost2010Prop51ColorRGB
 90
-16777216
102
RTVSPost2010PropOp51
 70
     0
102
RTVSPost2010Prop52
140
1.0
102
RTVSPost2010PropOp52
 70
     0
102
RTVSPost2010Prop53
 90
        2
102
RTVSPost2010PropOp53
 70
     1
102
RTVSPost2010Prop54
  1
strokes_ogs.tif
102
RTVSPost2010PropOp54
 70
     1
102
RTVSPost2010Prop55
280
     0
102
RTVSPost2010PropOp55
 70
     1
102
RTVSPost2010Prop56
140
1.0
102
RTVSPost2010PropOp56
 70
     1
102
RTVSPost2010Prop57
140
1.0
102
RTVSPost2010PropOp57
 70
     1
  0
XRECORD
  5
67D
102
{ACAD_REACTORS
330
67C
102
}
330
67C
100
AcDbXrecord
280
     1
102
RTVSPost2010Prop28
280
     0
102
RTVSPost2010PropOp28
 70
     1
102
RTVSPost2010Prop29
280
     1
102
RTVSPost2010PropOp29
 70
     1
102
RTVSPost2010Prop30
280
     1
102
RTVSPost2010PropOp30
 70
     1
102
RTVSPost2010Prop31
280
     0
102
RTVSPost2010PropOp31
 70
     1
102
RTVSPost2010Prop32
280
     0
102
RTVSPost2010PropOp32
 70
     1
102
RTVSPost2010Prop33
280
     0
102
RTVSPost2010PropOp33
 70
     1
102
RTVSPost2010Prop34
280
     0
102
RTVSPost2010PropOp34
 70
     1
102
RTVSPost2010Prop35
280
     0
102
RTVSPost2010PropOp35
 70
     1
102
RTVSPost2010Prop36
280
     0
102
RTVSPost2010PropOp36
 70
     1
102
RTVSPost2010Prop37
 90
       50
102
RTVSPost2010PropOp37
 70
     1
102
RTVSPost2010Prop38
140
0.0
102
RTVSPost2010PropOp38
 70
     1
102
RTVSPost2010Prop39
140
1.0
102
RTVSPost2010PropOp39
 70
     1
102
RTVSPost2010Prop40
 90
        0
102
RTVSPost2010PropOp40
 70
     1
102
RTVSPost2010Prop41ColorIndex
 90
       18
102
RTVSPost2010Prop41ColorRGB
 90
        0
102
RTVSPost2010PropOp41
 70
     1
102
RTVSPost2010Prop42
 90
       50
102
RTVSPost2010PropOp42
 70
     1
102
RTVSPost2010Prop43
 90
        3
102
RTVSPost2010PropOp43
 70
     1
102
RTVSPost2010Prop44ColorIndex
 90
        5
102
RTVSPost2010Prop44ColorRGB
 90
      255
102
RTVSPost2010PropOp44
 70
     1
102
RTVSPost2010Prop45
280
     0
102
RTVSPost2010PropOp45
 70
     1
102
RTVSPost2010Prop46
 90
       50
102
RTVSPost2010PropOp46
 70
     1
102
RTVSPost2010Prop47
 90
       50
102
RTVSPost2010PropOp47
 70
     1
102
RTVSPost2010Prop48
 90
       50
102
RTVSPost2010PropOp48
 70
     1
102
RTVSPost2010Prop49
280
     0
102
RTVSPost2010PropOp49
 70
     1
102
RTVSPost2010Prop50
 90
       50
102
RTVSPost2010PropOp50
 70
     1
102
RTVSPost2010Prop51ColorIndex
 90
      256
102
RTVSPost2010Prop51ColorRGB
 90
-16777216
102
RTVSPost2010PropOp51
 70
     0
102
RTVSPost2010Prop52
140
1.0
102
RTVSPost2010PropOp52
 70
     0
102
RTVSPost2010Prop53
 90
        2
102
RTVSPost2010PropOp53
 70
     1
102
RTVSPost2010Prop54
  1
strokes_ogs.tif
102
RTVSPost2010PropOp54
 70
     1
102
RTVSPost2010Prop55
280
     0
102
RTVSPost2010PropOp55
 70
     1
102
RTVSPost2010Prop56
140
1.0
102
RTVSPost2010PropOp56
 70
     1
102
RTVSPost2010Prop57
140
1.0
102
RTVSPost2010PropOp57
 70
     1
  0
XRECORD
  5
67F
102
{ACAD_REACTORS
330
67E
102
}
330
67E
100
AcDbXrecord
280
     1
102
RTVSPost2010Prop28
280
     0
102
RTVSPost2010PropOp28
 70
     1
102
RTVSPost2010Prop29
280
     1
102
RTVSPost2010PropOp29
 70
     1
102
RTVSPost2010Prop30
280
     1
102
RTVSPost2010PropOp30
 70
     1
102
RTVSPost2010Prop31
280
     0
102
RTVSPost2010PropOp31
 70
     1
102
RTVSPost2010Prop32
280
     0
102
RTVSPost2010PropOp32
 70
     1
102
RTVSPost2010Prop33
280
     0
102
RTVSPost2010PropOp33
 70
     1
102
RTVSPost2010Prop34
280
     0
102
RTVSPost2010PropOp34
 70
     1
102
RTVSPost2010Prop35
280
     0
102
RTVSPost2010PropOp35
 70
     1
102
RTVSPost2010Prop36
280
     0
102
RTVSPost2010PropOp36
 70
     1
102
RTVSPost2010Prop37
 90
       50
102
RTVSPost2010PropOp37
 70
     1
102
RTVSPost2010Prop38
140
0.0
102
RTVSPost2010PropOp38
 70
     1
102
RTVSPost2010Prop39
140
1.0
102
RTVSPost2010PropOp39
 70
     1
102
RTVSPost2010Prop40
 90
        0
102
RTVSPost2010PropOp40
 70
     1
102
RTVSPost2010Prop41ColorIndex
 90
       18
102
RTVSPost2010Prop41ColorRGB
 90
        0
102
RTVSPost2010PropOp41
 70
     1
102
RTVSPost2010Prop42
 90
       50
102
RTVSPost2010PropOp42
 70
     1
102
RTVSPost2010Prop43
 90
        3
102
RTVSPost2010PropOp43
 70
     1
102
RTVSPost2010Prop44ColorIndex
 90
        5
102
RTVSPost2010Prop44ColorRGB
 90
      255
102
RTVSPost2010PropOp44
 70
     1
102
RTVSPost2010Prop45
280
     0
102
RTVSPost2010PropOp45
 70
     1
102
RTVSPost2010Prop46
 90
       50
102
RTVSPost2010PropOp46
 70
     1
102
RTVSPost2010Prop47
 90
       50
102
RTVSPost2010PropOp47
 70
     1
102
RTVSPost2010Prop48
 90
       50
102
RTVSPost2010PropOp48
 70
     1
102
RTVSPost2010Prop49
280
     0
102
RTVSPost2010PropOp49
 70
     1
102
RTVSPost2010Prop50
 90
       50
102
RTVSPost2010PropOp50
 70
     1
102
RTVSPost2010Prop51ColorIndex
 90
      256
102
RTVSPost2010Prop51ColorRGB
 90
-16777216
102
RTVSPost2010PropOp51
 70
     0
102
RTVSPost2010Prop52
140
1.0
102
RTVSPost2010PropOp52
 70
     0
102
RTVSPost2010Prop53
 90
        2
102
RTVSPost2010PropOp53
 70
     1
102
RTVSPost2010Prop54
  1
strokes_ogs.tif
102
RTVSPost2010PropOp54
 70
     1
102
RTVSPost2010Prop55
280
     0
102
RTVSPost2010PropOp55
 70
     1
102
RTVSPost2010Prop56
140
1.0
102
RTVSPost2010PropOp56
 70
     1
102
RTVSPost2010Prop57
140
1.0
102
RTVSPost2010PropOp57
 70
     1
  0
XRECORD
  5
68F
102
{ACAD_REACTORS
330
68E
102
}
330
68E
100
AcDbXrecord
280
     1
102
RTVSPost2010Prop28
280
     0
102
RTVSPost2010PropOp28
 70
     0
102
RTVSPost2010Prop29
280
     1
102
RTVSPost2010PropOp29
 70
     0
102
RTVSPost2010Prop30
280
     1
102
RTVSPost2010PropOp30
 70
     0
102
RTVSPost2010Prop31
280
     0
102
RTVSPost2010PropOp31
 70
     0
102
RTVSPost2010Prop32
280
     0
102
RTVSPost2010PropOp32
 70
     0
102
RTVSPost2010Prop33
280
     0
102
RTVSPost2010PropOp33
 70
     0
102
RTVSPost2010Prop34
280
     0
102
RTVSPost2010PropOp34
 70
     0
102
RTVSPost2010Prop35
280
     0
102
RTVSPost2010PropOp35
 70
     0
102
RTVSPost2010Prop36
280
     0
102
RTVSPost2010PropOp36
 70
     0
102
RTVSPost2010Prop37
 90
       50
102
RTVSPost2010PropOp37
 70
     0
102
RTVSPost2010Prop38
140
0.0
102
RTVSPost2010PropOp38
 70
     0
102
RTVSPost2010Prop39
140
1.0
102
RTVSPost2010PropOp39
 70
     0
102
RTVSPost2010Prop40
 90
        0
102
RTVSPost2010PropOp40
 70
     0
102
RTVSPost2010Prop41ColorIndex
 90
       18
102
RTVSPost2010Prop41ColorRGB
 90
        0
102
RTVSPost2010PropOp41
 70
     0
102
RTVSPost2010Prop42
 90
       50
102
RTVSPost2010PropOp42
 70
     0
102
RTVSPost2010Prop43
 90
        3
102
RTVSPost2010PropOp43
 70
     0
102
RTVSPost2010Prop44ColorIndex
 90
        5
102
RTVSPost2010Prop44ColorRGB
 90
      255
102
RTVSPost2010PropOp44
 70
     0
102
RTVSPost2010Prop45
280
     0
102
RTVSPost2010PropOp45
 70
     0
102
RTVSPost2010Prop46
 90
       50
102
RTVSPost2010PropOp46
 70
     0
102
RTVSPost2010Prop47
 90
       50
102
RTVSPost2010PropOp47
 70
     0
102
RTVSPost2010Prop48
 90
       50
102
RTVSPost2010PropOp48
 70
     0
102
RTVSPost2010Prop49
280
     0
102
RTVSPost2010PropOp49
 70
     0
102
RTVSPost2010Prop50
 90
       50
102
RTVSPost2010PropOp50
 70
     0
102
RTVSPost2010Prop51ColorIndex
 90
      256
102
RTVSPost2010Prop51ColorRGB
 90
-16777216
102
RTVSPost2010PropOp51
 70
     0
102
RTVSPost2010Prop52
140
1.0
102
RTVSPost2010PropOp52
 70
     0
102
RTVSPost2010Prop53
 90
        2
102
RTVSPost2010PropOp53
 70
     0
102
RTVSPost2010Prop54
  1
strokes_ogs.tif
102
RTVSPost2010PropOp54
 70
     0
102
RTVSPost2010Prop55
280
     0
102
RTVSPost2010PropOp55
 70
     0
102
RTVSPost2010Prop56
140
1.0
102
RTVSPost2010PropOp56
 70
     0
102
RTVSPost2010Prop57
140
1.0
102
RTVSPost2010PropOp57
 70
     0
  0
XRECORD
  5
687
102
{ACAD_REACTORS
330
686
102
}
330
686
100
AcDbXrecord
280
     1
102
RTVSPost2010Prop28
280
     0
102
RTVSPost2010PropOp28
 70
     1
102
RTVSPost2010Prop29
280
     1
102
RTVSPost2010PropOp29
 70
     1
102
RTVSPost2010Prop30
280
     1
102
RTVSPost2010PropOp30
 70
     1
102
RTVSPost2010Prop31
280
     0
102
RTVSPost2010PropOp31
 70
     1
102
RTVSPost2010Prop32
280
     0
102
RTVSPost2010PropOp32
 70
     1
102
RTVSPost2010Prop33
280
     0
102
RTVSPost2010PropOp33
 70
     1
102
RTVSPost2010Prop34
280
     0
102
RTVSPost2010PropOp34
 70
     1
102
RTVSPost2010Prop35
280
     0
102
RTVSPost2010PropOp35
 70
     1
102
RTVSPost2010Prop36
280
     0
102
RTVSPost2010PropOp36
 70
     1
102
RTVSPost2010Prop37
 90
       50
102
RTVSPost2010PropOp37
 70
     1
102
RTVSPost2010Prop38
140
0.0
102
RTVSPost2010PropOp38
 70
     1
102
RTVSPost2010Prop39
140
1.0
102
RTVSPost2010PropOp39
 70
     1
102
RTVSPost2010Prop40
 90
        0
102
RTVSPost2010PropOp40
 70
     1
102
RTVSPost2010Prop41ColorIndex
 90
       18
102
RTVSPost2010Prop41ColorRGB
 90
        0
102
RTVSPost2010PropOp41
 70
     1
102
RTVSPost2010Prop42
 90
       50
102
RTVSPost2010PropOp42
 70
     1
102
RTVSPost2010Prop43
 90
        3
102
RTVSPost2010PropOp43
 70
     1
102
RTVSPost2010Prop44ColorIndex
 90
        5
102
RTVSPost2010Prop44ColorRGB
 90
      255
102
RTVSPost2010PropOp44
 70
     1
102
RTVSPost2010Prop45
280
     0
102
RTVSPost2010PropOp45
 70
     1
102
RTVSPost2010Prop46
 90
       50
102
RTVSPost2010PropOp46
 70
     1
102
RTVSPost2010Prop47
 90
       50
102
RTVSPost2010PropOp47
 70
     1
102
RTVSPost2010Prop48
 90
       50
102
RTVSPost2010PropOp48
 70
     1
102
RTVSPost2010Prop49
280
     0
102
RTVSPost2010PropOp49
 70
     1
102
RTVSPost2010Prop50
 90
       50
102
RTVSPost2010PropOp50
 70
     1
102
RTVSPost2010Prop51ColorIndex
 90
      256
102
RTVSPost2010Prop51ColorRGB
 90
-16777216
102
RTVSPost2010PropOp51
 70
     0
102
RTVSPost2010Prop52
140
1.0
102
RTVSPost2010PropOp52
 70
     0
102
RTVSPost2010Prop53
 90
        2
102
RTVSPost2010PropOp53
 70
     1
102
RTVSPost2010Prop54
  1
strokes_ogs.tif
102
RTVSPost2010PropOp54
 70
     1
102
RTVSPost2010Prop55
280
     0
102
RTVSPost2010PropOp55
 70
     1
102
RTVSPost2010Prop56
140
1.0
102
RTVSPost2010PropOp56
 70
     1
102
RTVSPost2010Prop57
140
1.0
102
RTVSPost2010PropOp57
 70
     1
  0
XRECORD
  5
66B
102
{ACAD_REACTORS
330
66A
102
}
330
66A
100
AcDbXrecord
280
     1
102
RTVSPost2010Prop28
280
     0
102
RTVSPost2010PropOp28
 70
     1
102
RTVSPost2010Prop29
280
     1
102
RTVSPost2010PropOp29
 70
     1
102
RTVSPost2010Prop30
280
     1
102
RTVSPost2010PropOp30
 70
     1
102
RTVSPost2010Prop31
280
     0
102
RTVSPost2010PropOp31
 70
     1
102
RTVSPost2010Prop32
280
     0
102
RTVSPost2010PropOp32
 70
     1
102
RTVSPost2010Prop33
280
     0
102
RTVSPost2010PropOp33
 70
     1
102
RTVSPost2010Prop34
280
     0
102
RTVSPost2010PropOp34
 70
     1
102
RTVSPost2010Prop35
280
     0
102
RTVSPost2010PropOp35
 70
     1
102
RTVSPost2010Prop36
280
     0
102
RTVSPost2010PropOp36
 70
     1
102
RTVSPost2010Prop37
 90
       50
102
RTVSPost2010PropOp37
 70
     1
102
RTVSPost2010Prop38
140
0.0
102
RTVSPost2010PropOp38
 70
     1
102
RTVSPost2010Prop39
140
1.0
102
RTVSPost2010PropOp39
 70
     1
102
RTVSPost2010Prop40
 90
        0
102
RTVSPost2010PropOp40
 70
     1
102
RTVSPost2010Prop41ColorIndex
 90
       18
102
RTVSPost2010Prop41ColorRGB
 90
        0
102
RTVSPost2010PropOp41
 70
     1
102
RTVSPost2010Prop42
 90
       50
102
RTVSPost2010PropOp42
 70
     1
102
RTVSPost2010Prop43
 90
        3
102
RTVSPost2010PropOp43
 70
     1
102
RTVSPost2010Prop44ColorIndex
 90
        5
102
RTVSPost2010Prop44ColorRGB
 90
      255
102
RTVSPost2010PropOp44
 70
     1
102
RTVSPost2010Prop45
280
     0
102
RTVSPost2010PropOp45
 70
     1
102
RTVSPost2010Prop46
 90
       50
102
RTVSPost2010PropOp46
 70
     1
102
RTVSPost2010Prop47
 90
       50
102
RTVSPost2010PropOp47
 70
     1
102
RTVSPost2010Prop48
 90
       50
102
RTVSPost2010PropOp48
 70
     1
102
RTVSPost2010Prop49
280
     0
102
RTVSPost2010PropOp49
 70
     1
102
RTVSPost2010Prop50
 90
       50
102
RTVSPost2010PropOp50
 70
     1
102
RTVSPost2010Prop51ColorIndex
 90
      256
102
RTVSPost2010Prop51ColorRGB
 90
-16777216
102
RTVSPost2010PropOp51
 70
     0
102
RTVSPost2010Prop52
140
1.0
102
RTVSPost2010PropOp52
 70
     0
102
RTVSPost2010Prop53
 90
        2
102
RTVSPost2010PropOp53
 70
     1
102
RTVSPost2010Prop54
  1
strokes_ogs.tif
102
RTVSPost2010PropOp54
 70
     1
102
RTVSPost2010Prop55
280
     0
102
RTVSPost2010PropOp55
 70
     1
102
RTVSPost2010Prop56
140
1.0
102
RTVSPost2010PropOp56
 70
     1
102
RTVSPost2010Prop57
140
1.0
102
RTVSPost2010PropOp57
 70
     1
  0
XRECORD
  5
66D
102
{ACAD_REACTORS
330
66C
102
}
330
66C
100
AcDbXrecord
280
     1
102
RTVSPost2010Prop28
280
     0
102
RTVSPost2010PropOp28
 70
     1
102
RTVSPost2010Prop29
280
     1
102
RTVSPost2010PropOp29
 70
     1
102
RTVSPost2010Prop30
280
     1
102
RTVSPost2010PropOp30
 70
     1
102
RTVSPost2010Prop31
280
     0
102
RTVSPost2010PropOp31
 70
     1
102
RTVSPost2010Prop32
280
     0
102
RTVSPost2010PropOp32
 70
     1
102
RTVSPost2010Prop33
280
     0
102
RTVSPost2010PropOp33
 70
     1
102
RTVSPost2010Prop34
280
     0
102
RTVSPost2010PropOp34
 70
     1
102
RTVSPost2010Prop35
280
     0
102
RTVSPost2010PropOp35
 70
     1
102
RTVSPost2010Prop36
280
     0
102
RTVSPost2010PropOp36
 70
     1
102
RTVSPost2010Prop37
 90
       50
102
RTVSPost2010PropOp37
 70
     1
102
RTVSPost2010Prop38
140
0.0
102
RTVSPost2010PropOp38
 70
     1
102
RTVSPost2010Prop39
140
1.0
102
RTVSPost2010PropOp39
 70
     1
102
RTVSPost2010Prop40
 90
        0
102
RTVSPost2010PropOp40
 70
     1
102
RTVSPost2010Prop41ColorIndex
 90
       18
102
RTVSPost2010Prop41ColorRGB
 90
        0
102
RTVSPost2010PropOp41
 70
     1
102
RTVSPost2010Prop42
 90
       50
102
RTVSPost2010PropOp42
 70
     1
102
RTVSPost2010Prop43
 90
        3
102
RTVSPost2010PropOp43
 70
     1
102
RTVSPost2010Prop44ColorIndex
 90
        5
102
RTVSPost2010Prop44ColorRGB
 90
      255
102
RTVSPost2010PropOp44
 70
     1
102
RTVSPost2010Prop45
280
     0
102
RTVSPost2010PropOp45
 70
     1
102
RTVSPost2010Prop46
 90
       50
102
RTVSPost2010PropOp46
 70
     1
102
RTVSPost2010Prop47
 90
       50
102
RTVSPost2010PropOp47
 70
     1
102
RTVSPost2010Prop48
 90
       50
102
RTVSPost2010PropOp48
 70
     1
102
RTVSPost2010Prop49
280
     0
102
RTVSPost2010PropOp49
 70
     1
102
RTVSPost2010Prop50
 90
       50
102
RTVSPost2010PropOp50
 70
     1
102
RTVSPost2010Prop51ColorIndex
 90
      256
102
RTVSPost2010Prop51ColorRGB
 90
-16777216
102
RTVSPost2010PropOp51
 70
     0
102
RTVSPost2010Prop52
140
1.0
102
RTVSPost2010PropOp52
 70
     0
102
RTVSPost2010Prop53
 90
        2
102
RTVSPost2010PropOp53
 70
     1
102
RTVSPost2010Prop54
  1
strokes_ogs.tif
102
RTVSPost2010PropOp54
 70
     1
102
RTVSPost2010Prop55
280
     0
102
RTVSPost2010PropOp55
 70
     1
102
RTVSPost2010Prop56
140
1.0
102
RTVSPost2010PropOp56
 70
     1
102
RTVSPost2010Prop57
140
1.0
102
RTVSPost2010PropOp57
 70
     1
  0
XRECORD
  5
66F
102
{ACAD_REACTORS
330
66E
102
}
330
66E
100
AcDbXrecord
280
     1
102
RTVSPost2010Prop28
280
     0
102
RTVSPost2010PropOp28
 70
     1
102
RTVSPost2010Prop29
280
     1
102
RTVSPost2010PropOp29
 70
     1
102
RTVSPost2010Prop30
280
     1
102
RTVSPost2010PropOp30
 70
     1
102
RTVSPost2010Prop31
280
     0
102
RTVSPost2010PropOp31
 70
     1
102
RTVSPost2010Prop32
280
     0
102
RTVSPost2010PropOp32
 70
     1
102
RTVSPost2010Prop33
280
     0
102
RTVSPost2010PropOp33
 70
     1
102
RTVSPost2010Prop34
280
     0
102
RTVSPost2010PropOp34
 70
     1
102
RTVSPost2010Prop35
280
     0
102
RTVSPost2010PropOp35
 70
     1
102
RTVSPost2010Prop36
280
     0
102
RTVSPost2010PropOp36
 70
     1
102
RTVSPost2010Prop37
 90
       50
102
RTVSPost2010PropOp37
 70
     1
102
RTVSPost2010Prop38
140
0.0
102
RTVSPost2010PropOp38
 70
     1
102
RTVSPost2010Prop39
140
1.0
102
RTVSPost2010PropOp39
 70
     1
102
RTVSPost2010Prop40
 90
        0
102
RTVSPost2010PropOp40
 70
     1
102
RTVSPost2010Prop41ColorIndex
 90
       18
102
RTVSPost2010Prop41ColorRGB
 90
        0
102
RTVSPost2010PropOp41
 70
     1
102
RTVSPost2010Prop42
 90
       50
102
RTVSPost2010PropOp42
 70
     1
102
RTVSPost2010Prop43
 90
        3
102
RTVSPost2010PropOp43
 70
     1
102
RTVSPost2010Prop44ColorIndex
 90
        5
102
RTVSPost2010Prop44ColorRGB
 90
      255
102
RTVSPost2010PropOp44
 70
     1
102
RTVSPost2010Prop45
280
     0
102
RTVSPost2010PropOp45
 70
     1
102
RTVSPost2010Prop46
 90
       50
102
RTVSPost2010PropOp46
 70
     1
102
RTVSPost2010Prop47
 90
       50
102
RTVSPost2010PropOp47
 70
     1
102
RTVSPost2010Prop48
 90
       50
102
RTVSPost2010PropOp48
 70
     1
102
RTVSPost2010Prop49
280
     0
102
RTVSPost2010PropOp49
 70
     1
102
RTVSPost2010Prop50
 90
       50
102
RTVSPost2010PropOp50
 70
     1
102
RTVSPost2010Prop51ColorIndex
 90
      256
102
RTVSPost2010Prop51ColorRGB
 90
-16777216
102
RTVSPost2010PropOp51
 70
     0
102
RTVSPost2010Prop52
140
1.0
102
RTVSPost2010PropOp52
 70
     0
102
RTVSPost2010Prop53
 90
        2
102
RTVSPost2010PropOp53
 70
     1
102
RTVSPost2010Prop54
  1
strokes_ogs.tif
102
RTVSPost2010PropOp54
 70
     1
102
RTVSPost2010Prop55
280
     0
102
RTVSPost2010PropOp55
 70
     1
102
RTVSPost2010Prop56
140
1.0
102
RTVSPost2010PropOp56
 70
     1
102
RTVSPost2010Prop57
140
1.0
102
RTVSPost2010PropOp57
 70
     1
  0
XRECORD
  5
671
102
{ACAD_REACTORS
330
670
102
}
330
670
100
AcDbXrecord
280
     1
102
RTVSPost2010Prop28
280
     0
102
RTVSPost2010PropOp28
 70
     1
102
RTVSPost2010Prop29
280
     1
102
RTVSPost2010PropOp29
 70
     1
102
RTVSPost2010Prop30
280
     1
102
RTVSPost2010PropOp30
 70
     1
102
RTVSPost2010Prop31
280
     0
102
RTVSPost2010PropOp31
 70
     1
102
RTVSPost2010Prop32
280
     0
102
RTVSPost2010PropOp32
 70
     1
102
RTVSPost2010Prop33
280
     0
102
RTVSPost2010PropOp33
 70
     1
102
RTVSPost2010Prop34
280
     0
102
RTVSPost2010PropOp34
 70
     1
102
RTVSPost2010Prop35
280
     0
102
RTVSPost2010PropOp35
 70
     1
102
RTVSPost2010Prop36
280
     0
102
RTVSPost2010PropOp36
 70
     1
102
RTVSPost2010Prop37
 90
       50
102
RTVSPost2010PropOp37
 70
     1
102
RTVSPost2010Prop38
140
0.0
102
RTVSPost2010PropOp38
 70
     1
102
RTVSPost2010Prop39
140
1.0
102
RTVSPost2010PropOp39
 70
     1
102
RTVSPost2010Prop40
 90
        0
102
RTVSPost2010PropOp40
 70
     1
102
RTVSPost2010Prop41ColorIndex
 90
       18
102
RTVSPost2010Prop41ColorRGB
 90
        0
102
RTVSPost2010PropOp41
 70
     1
102
RTVSPost2010Prop42
 90
       50
102
RTVSPost2010PropOp42
 70
     1
102
RTVSPost2010Prop43
 90
        3
102
RTVSPost2010PropOp43
 70
     1
102
RTVSPost2010Prop44ColorIndex
 90
        5
102
RTVSPost2010Prop44ColorRGB
 90
      255
102
RTVSPost2010PropOp44
 70
     1
102
RTVSPost2010Prop45
280
     0
102
RTVSPost2010PropOp45
 70
     1
102
RTVSPost2010Prop46
 90
       50
102
RTVSPost2010PropOp46
 70
     1
102
RTVSPost2010Prop47
 90
       50
102
RTVSPost2010PropOp47
 70
     1
102
RTVSPost2010Prop48
 90
       50
102
RTVSPost2010PropOp48
 70
     1
102
RTVSPost2010Prop49
280
     0
102
RTVSPost2010PropOp49
 70
     1
102
RTVSPost2010Prop50
 90
       50
102
RTVSPost2010PropOp50
 70
     1
102
RTVSPost2010Prop51ColorIndex
 90
      256
102
RTVSPost2010Prop51ColorRGB
 90
-16777216
102
RTVSPost2010PropOp51
 70
     0
102
RTVSPost2010Prop52
140
1.0
102
RTVSPost2010PropOp52
 70
     0
102
RTVSPost2010Prop53
 90
        2
102
RTVSPost2010PropOp53
 70
     1
102
RTVSPost2010Prop54
  1
strokes_ogs.tif
102
RTVSPost2010PropOp54
 70
     1
102
RTVSPost2010Prop55
280
     0
102
RTVSPost2010PropOp55
 70
     1
102
RTVSPost2010Prop56
140
1.0
102
RTVSPost2010PropOp56
 70
     1
102
RTVSPost2010Prop57
140
1.0
102
RTVSPost2010PropOp57
 70
     1
  0
XRECORD
  5
677
102
{ACAD_REACTORS
330
676
102
}
330
676
100
AcDbXrecord
280
     1
102
RTVSPost2010Prop28
280
     0
102
RTVSPost2010PropOp28
 70
     1
102
RTVSPost2010Prop29
280
     1
102
RTVSPost2010PropOp29
 70
     1
102
RTVSPost2010Prop30
280
     1
102
RTVSPost2010PropOp30
 70
     1
102
RTVSPost2010Prop31
280
     0
102
RTVSPost2010PropOp31
 70
     1
102
RTVSPost2010Prop32
280
     0
102
RTVSPost2010PropOp32
 70
     1
102
RTVSPost2010Prop33
280
     0
102
RTVSPost2010PropOp33
 70
     1
102
RTVSPost2010Prop34
280
     0
102
RTVSPost2010PropOp34
 70
     1
102
RTVSPost2010Prop35
280
     0
102
RTVSPost2010PropOp35
 70
     1
102
RTVSPost2010Prop36
280
     0
102
RTVSPost2010PropOp36
 70
     1
102
RTVSPost2010Prop37
 90
       50
102
RTVSPost2010PropOp37
 70
     1
102
RTVSPost2010Prop38
140
0.0
102
RTVSPost2010PropOp38
 70
     1
102
RTVSPost2010Prop39
140
1.0
102
RTVSPost2010PropOp39
 70
     1
102
RTVSPost2010Prop40
 90
        0
102
RTVSPost2010PropOp40
 70
     1
102
RTVSPost2010Prop41ColorIndex
 90
       18
102
RTVSPost2010Prop41ColorRGB
 90
        0
102
RTVSPost2010PropOp41
 70
     1
102
RTVSPost2010Prop42
 90
       50
102
RTVSPost2010PropOp42
 70
     1
102
RTVSPost2010Prop43
 90
        3
102
RTVSPost2010PropOp43
 70
     1
102
RTVSPost2010Prop44ColorIndex
 90
        5
102
RTVSPost2010Prop44ColorRGB
 90
      255
102
RTVSPost2010PropOp44
 70
     1
102
RTVSPost2010Prop45
280
     0
102
RTVSPost2010PropOp45
 70
     1
102
RTVSPost2010Prop46
 90
       50
102
RTVSPost2010PropOp46
 70
     1
102
RTVSPost2010Prop47
 90
       50
102
RTVSPost2010PropOp47
 70
     1
102
RTVSPost2010Prop48
 90
       50
102
RTVSPost2010PropOp48
 70
     1
102
RTVSPost2010Prop49
280
     0
102
RTVSPost2010PropOp49
 70
     1
102
RTVSPost2010Prop50
 90
       50
102
RTVSPost2010PropOp50
 70
     1
102
RTVSPost2010Prop51ColorIndex
 90
      256
102
RTVSPost2010Prop51ColorRGB
 90
-16777216
102
RTVSPost2010PropOp51
 70
     0
102
RTVSPost2010Prop52
140
1.0
102
RTVSPost2010PropOp52
 70
     0
102
RTVSPost2010Prop53
 90
        2
102
RTVSPost2010PropOp53
 70
     1
102
RTVSPost2010Prop54
  1
strokes_ogs.tif
102
RTVSPost2010PropOp54
 70
     1
102
RTVSPost2010Prop55
280
     0
102
RTVSPost2010PropOp55
 70
     1
102
RTVSPost2010Prop56
140
1.0
102
RTVSPost2010PropOp56
 70
     1
102
RTVSPost2010Prop57
140
1.0
102
RTVSPost2010PropOp57
 70
     1
  0
XRECORD
  5
68B
102
{ACAD_REACTORS
330
68A
102
}
330
68A
100
AcDbXrecord
280
     1
102
RTVSPost2010Prop28
280
     0
102
RTVSPost2010PropOp28
 70
     0
102
RTVSPost2010Prop29
280
     1
102
RTVSPost2010PropOp29
 70
     0
102
RTVSPost2010Prop30
280
     1
102
RTVSPost2010PropOp30
 70
     0
102
RTVSPost2010Prop31
280
     0
102
RTVSPost2010PropOp31
 70
     0
102
RTVSPost2010Prop32
280
     0
102
RTVSPost2010PropOp32
 70
     0
102
RTVSPost2010Prop33
280
     0
102
RTVSPost2010PropOp33
 70
     0
102
RTVSPost2010Prop34
280
     0
102
RTVSPost2010PropOp34
 70
     0
102
RTVSPost2010Prop35
280
     0
102
RTVSPost2010PropOp35
 70
     0
102
RTVSPost2010Prop36
280
     0
102
RTVSPost2010PropOp36
 70
     0
102
RTVSPost2010Prop37
 90
       50
102
RTVSPost2010PropOp37
 70
     0
102
RTVSPost2010Prop38
140
0.0
102
RTVSPost2010PropOp38
 70
     0
102
RTVSPost2010Prop39
140
1.0
102
RTVSPost2010PropOp39
 70
     0
102
RTVSPost2010Prop40
 90
        0
102
RTVSPost2010PropOp40
 70
     0
102
RTVSPost2010Prop41ColorIndex
 90
       18
102
RTVSPost2010Prop41ColorRGB
 90
        0
102
RTVSPost2010PropOp41
 70
     0
102
RTVSPost2010Prop42
 90
       50
102
RTVSPost2010PropOp42
 70
     0
102
RTVSPost2010Prop43
 90
        3
102
RTVSPost2010PropOp43
 70
     0
102
RTVSPost2010Prop44ColorIndex
 90
        5
102
RTVSPost2010Prop44ColorRGB
 90
      255
102
RTVSPost2010PropOp44
 70
     0
102
RTVSPost2010Prop45
280
     0
102
RTVSPost2010PropOp45
 70
     0
102
RTVSPost2010Prop46
 90
       50
102
RTVSPost2010PropOp46
 70
     0
102
RTVSPost2010Prop47
 90
       50
102
RTVSPost2010PropOp47
 70
     0
102
RTVSPost2010Prop48
 90
       50
102
RTVSPost2010PropOp48
 70
     0
102
RTVSPost2010Prop49
280
     0
102
RTVSPost2010PropOp49
 70
     0
102
RTVSPost2010Prop50
 90
       50
102
RTVSPost2010PropOp50
 70
     0
102
RTVSPost2010Prop51ColorIndex
 90
      256
102
RTVSPost2010Prop51ColorRGB
 90
-16777216
102
RTVSPost2010PropOp51
 70
     0
102
RTVSPost2010Prop52
140
1.0
102
RTVSPost2010PropOp52
 70
     0
102
RTVSPost2010Prop53
 90
        2
102
RTVSPost2010PropOp53
 70
     0
102
RTVSPost2010Prop54
  1
strokes_ogs.tif
102
RTVSPost2010PropOp54
 70
     0
102
RTVSPost2010Prop55
280
     0
102
RTVSPost2010PropOp55
 70
     0
102
RTVSPost2010Prop56
140
1.0
102
RTVSPost2010PropOp56
 70
     0
102
RTVSPost2010Prop57
140
1.0
102
RTVSPost2010PropOp57
 70
     0
  0
XRECORD
  5
685
102
{ACAD_REACTORS
330
684
102
}
330
684
100
AcDbXrecord
280
     1
102
RTVSPost2010Prop28
280
     0
102
RTVSPost2010PropOp28
 70
     1
102
RTVSPost2010Prop29
280
     1
102
RTVSPost2010PropOp29
 70
     1
102
RTVSPost2010Prop30
280
     1
102
RTVSPost2010PropOp30
 70
     1
102
RTVSPost2010Prop31
280
     0
102
RTVSPost2010PropOp31
 70
     1
102
RTVSPost2010Prop32
280
     0
102
RTVSPost2010PropOp32
 70
     1
102
RTVSPost2010Prop33
280
     0
102
RTVSPost2010PropOp33
 70
     1
102
RTVSPost2010Prop34
280
     0
102
RTVSPost2010PropOp34
 70
     1
102
RTVSPost2010Prop35
280
     0
102
RTVSPost2010PropOp35
 70
     1
102
RTVSPost2010Prop36
280
     0
102
RTVSPost2010PropOp36
 70
     1
102
RTVSPost2010Prop37
 90
       50
102
RTVSPost2010PropOp37
 70
     1
102
RTVSPost2010Prop38
140
0.0
102
RTVSPost2010PropOp38
 70
     1
102
RTVSPost2010Prop39
140
1.0
102
RTVSPost2010PropOp39
 70
     1
102
RTVSPost2010Prop40
 90
        0
102
RTVSPost2010PropOp40
 70
     1
102
RTVSPost2010Prop41ColorIndex
 90
       18
102
RTVSPost2010Prop41ColorRGB
 90
        0
102
RTVSPost2010PropOp41
 70
     1
102
RTVSPost2010Prop42
 90
       50
102
RTVSPost2010PropOp42
 70
     1
102
RTVSPost2010Prop43
 90
        3
102
RTVSPost2010PropOp43
 70
     1
102
RTVSPost2010Prop44ColorIndex
 90
        5
102
RTVSPost2010Prop44ColorRGB
 90
      255
102
RTVSPost2010PropOp44
 70
     1
102
RTVSPost2010Prop45
280
     0
102
RTVSPost2010PropOp45
 70
     1
102
RTVSPost2010Prop46
 90
       50
102
RTVSPost2010PropOp46
 70
     1
102
RTVSPost2010Prop47
 90
       50
102
RTVSPost2010PropOp47
 70
     1
102
RTVSPost2010Prop48
 90
       50
102
RTVSPost2010PropOp48
 70
     1
102
RTVSPost2010Prop49
280
     0
102
RTVSPost2010PropOp49
 70
     1
102
RTVSPost2010Prop50
 90
       50
102
RTVSPost2010PropOp50
 70
     1
102
RTVSPost2010Prop51ColorIndex
 90
      256
102
RTVSPost2010Prop51ColorRGB
 90
-16777216
102
RTVSPost2010PropOp51
 70
     0
102
RTVSPost2010Prop52
140
1.0
102
RTVSPost2010PropOp52
 70
     0
102
RTVSPost2010Prop53
 90
        2
102
RTVSPost2010PropOp53
 70
     1
102
RTVSPost2010Prop54
  1
strokes_ogs.tif
102
RTVSPost2010PropOp54
 70
     1
102
RTVSPost2010Prop55
280
     0
102
RTVSPost2010PropOp55
 70
     1
102
RTVSPost2010Prop56
140
1.0
102
RTVSPost2010PropOp56
 70
     1
102
RTVSPost2010Prop57
140
1.0
102
RTVSPost2010PropOp57
 70
     1
  0
XRECORD
  5
68D
102
{ACAD_REACTORS
330
68C
102
}
330
68C
100
AcDbXrecord
280
     1
102
RTVSPost2010Prop28
280
     0
102
RTVSPost2010PropOp28
 70
     0
102
RTVSPost2010Prop29
280
     1
102
RTVSPost2010PropOp29
 70
     0
102
RTVSPost2010Prop30
280
     1
102
RTVSPost2010PropOp30
 70
     0
102
RTVSPost2010Prop31
280
     0
102
RTVSPost2010PropOp31
 70
     0
102
RTVSPost2010Prop32
280
     0
102
RTVSPost2010PropOp32
 70
     0
102
RTVSPost2010Prop33
280
     0
102
RTVSPost2010PropOp33
 70
     0
102
RTVSPost2010Prop34
280
     0
102
RTVSPost2010PropOp34
 70
     0
102
RTVSPost2010Prop35
280
     0
102
RTVSPost2010PropOp35
 70
     0
102
RTVSPost2010Prop36
280
     0
102
RTVSPost2010PropOp36
 70
     0
102
RTVSPost2010Prop37
 90
       50
102
RTVSPost2010PropOp37
 70
     0
102
RTVSPost2010Prop38
140
0.0
102
RTVSPost2010PropOp38
 70
     0
102
RTVSPost2010Prop39
140
1.0
102
RTVSPost2010PropOp39
 70
     0
102
RTVSPost2010Prop40
 90
        0
102
RTVSPost2010PropOp40
 70
     0
102
RTVSPost2010Prop41ColorIndex
 90
       18
102
RTVSPost2010Prop41ColorRGB
 90
        0
102
RTVSPost2010PropOp41
 70
     0
102
RTVSPost2010Prop42
 90
       50
102
RTVSPost2010PropOp42
 70
     0
102
RTVSPost2010Prop43
 90
        3
102
RTVSPost2010PropOp43
 70
     0
102
RTVSPost2010Prop44ColorIndex
 90
        5
102
RTVSPost2010Prop44ColorRGB
 90
      255
102
RTVSPost2010PropOp44
 70
     0
102
RTVSPost2010Prop45
280
     0
102
RTVSPost2010PropOp45
 70
     0
102
RTVSPost2010Prop46
 90
       50
102
RTVSPost2010PropOp46
 70
     0
102
RTVSPost2010Prop47
 90
       50
102
RTVSPost2010PropOp47
 70
     0
102
RTVSPost2010Prop48
 90
       50
102
RTVSPost2010PropOp48
 70
     0
102
RTVSPost2010Prop49
280
     0
102
RTVSPost2010PropOp49
 70
     0
102
RTVSPost2010Prop50
 90
       50
102
RTVSPost2010PropOp50
 70
     0
102
RTVSPost2010Prop51ColorIndex
 90
      256
102
RTVSPost2010Prop51ColorRGB
 90
-16777216
102
RTVSPost2010PropOp51
 70
     0
102
RTVSPost2010Prop52
140
1.0
102
RTVSPost2010PropOp52
 70
     0
102
RTVSPost2010Prop53
 90
        2
102
RTVSPost2010PropOp53
 70
     0
102
RTVSPost2010Prop54
  1
strokes_ogs.tif
102
RTVSPost2010PropOp54
 70
     0
102
RTVSPost2010Prop55
280
     0
102
RTVSPost2010PropOp55
 70
     0
102
RTVSPost2010Prop56
140
1.0
102
RTVSPost2010PropOp56
 70
     0
102
RTVSPost2010Prop57
140
1.0
102
RTVSPost2010PropOp57
 70
     0
  0
XRECORD
  5
67B
102
{ACAD_REACTORS
330
67A
102
}
330
67A
100
AcDbXrecord
280
     1
102
RTVSPost2010Prop28
280
     0
102
RTVSPost2010PropOp28
 70
     1
102
RTVSPost2010Prop29
280
     1
102
RTVSPost2010PropOp29
 70
     1
102
RTVSPost2010Prop30
280
     1
102
RTVSPost2010PropOp30
 70
     1
102
RTVSPost2010Prop31
280
     0
102
RTVSPost2010PropOp31
 70
     1
102
RTVSPost2010Prop32
280
     0
102
RTVSPost2010PropOp32
 70
     1
102
RTVSPost2010Prop33
280
     0
102
RTVSPost2010PropOp33
 70
     1
102
RTVSPost2010Prop34
280
     0
102
RTVSPost2010PropOp34
 70
     1
102
RTVSPost2010Prop35
280
     0
102
RTVSPost2010PropOp35
 70
     1
102
RTVSPost2010Prop36
280
     0
102
RTVSPost2010PropOp36
 70
     1
102
RTVSPost2010Prop37
 90
       50
102
RTVSPost2010PropOp37
 70
     1
102
RTVSPost2010Prop38
140
0.0
102
RTVSPost2010PropOp38
 70
     1
102
RTVSPost2010Prop39
140
1.0
102
RTVSPost2010PropOp39
 70
     1
102
RTVSPost2010Prop40
 90
        0
102
RTVSPost2010PropOp40
 70
     1
102
RTVSPost2010Prop41ColorIndex
 90
       18
102
RTVSPost2010Prop41ColorRGB
 90
        0
102
RTVSPost2010PropOp41
 70
     1
102
RTVSPost2010Prop42
 90
       50
102
RTVSPost2010PropOp42
 70
     1
102
RTVSPost2010Prop43
 90
        3
102
RTVSPost2010PropOp43
 70
     1
102
RTVSPost2010Prop44ColorIndex
 90
        5
102
RTVSPost2010Prop44ColorRGB
 90
      255
102
RTVSPost2010PropOp44
 70
     1
102
RTVSPost2010Prop45
280
     0
102
RTVSPost2010PropOp45
 70
     1
102
RTVSPost2010Prop46
 90
       50
102
RTVSPost2010PropOp46
 70
     1
102
RTVSPost2010Prop47
 90
       50
102
RTVSPost2010PropOp47
 70
     1
102
RTVSPost2010Prop48
 90
       50
102
RTVSPost2010PropOp48
 70
     1
102
RTVSPost2010Prop49
280
     0
102
RTVSPost2010PropOp49
 70
     1
102
RTVSPost2010Prop50
 90
       50
102
RTVSPost2010PropOp50
 70
     1
102
RTVSPost2010Prop51ColorIndex
 90
      256
102
RTVSPost2010Prop51ColorRGB
 90
-16777216
102
RTVSPost2010PropOp51
 70
     0
102
RTVSPost2010Prop52
140
1.0
102
RTVSPost2010PropOp52
 70
     0
102
RTVSPost2010Prop53
 90
        2
102
RTVSPost2010PropOp53
 70
     1
102
RTVSPost2010Prop54
  1
strokes_ogs.tif
102
RTVSPost2010PropOp54
 70
     1
102
RTVSPost2010Prop55
280
     0
102
RTVSPost2010PropOp55
 70
     1
102
RTVSPost2010Prop56
140
1.0
102
RTVSPost2010PropOp56
 70
     1
102
RTVSPost2010Prop57
140
1.0
102
RTVSPost2010PropOp57
 70
     1
  0
XRECORD
  5
699
102
{ACAD_REACTORS
330
698
102
}
330
698
100
AcDbXrecord
280
     1
102
RTVSPost2010Prop28
280
     0
102
RTVSPost2010PropOp28
 70
     1
102
RTVSPost2010Prop29
280
     1
102
RTVSPost2010PropOp29
 70
     1
102
RTVSPost2010Prop30
280
     1
102
RTVSPost2010PropOp30
 70
     1
102
RTVSPost2010Prop31
280
     0
102
RTVSPost2010PropOp31
 70
     1
102
RTVSPost2010Prop32
280
     0
102
RTVSPost2010PropOp32
 70
     1
102
RTVSPost2010Prop33
280
     0
102
RTVSPost2010PropOp33
 70
     1
102
RTVSPost2010Prop34
280
     0
102
RTVSPost2010PropOp34
 70
     1
102
RTVSPost2010Prop35
280
     0
102
RTVSPost2010PropOp35
 70
     1
102
RTVSPost2010Prop36
280
     0
102
RTVSPost2010PropOp36
 70
     1
102
RTVSPost2010Prop37
 90
       50
102
RTVSPost2010PropOp37
 70
     1
102
RTVSPost2010Prop38
140
0.0
102
RTVSPost2010PropOp38
 70
     1
102
RTVSPost2010Prop39
140
1.0
102
RTVSPost2010PropOp39
 70
     1
102
RTVSPost2010Prop40
 90
        0
102
RTVSPost2010PropOp40
 70
     1
102
RTVSPost2010Prop41ColorIndex
 90
       18
102
RTVSPost2010Prop41ColorRGB
 90
        0
102
RTVSPost2010PropOp41
 70
     1
102
RTVSPost2010Prop42
 90
       50
102
RTVSPost2010PropOp42
 70
     1
102
RTVSPost2010Prop43
 90
        3
102
RTVSPost2010PropOp43
 70
     1
102
RTVSPost2010Prop44ColorIndex
 90
        5
102
RTVSPost2010Prop44ColorRGB
 90
      255
102
RTVSPost2010PropOp44
 70
     1
102
RTVSPost2010Prop45
280
     0
102
RTVSPost2010PropOp45
 70
     1
102
RTVSPost2010Prop46
 90
       50
102
RTVSPost2010PropOp46
 70
     1
102
RTVSPost2010Prop47
 90
       50
102
RTVSPost2010PropOp47
 70
     1
102
RTVSPost2010Prop48
 90
       50
102
RTVSPost2010PropOp48
 70
     1
102
RTVSPost2010Prop49
280
     0
102
RTVSPost2010PropOp49
 70
     1
102
RTVSPost2010Prop50
 90
       50
102
RTVSPost2010PropOp50
 70
     1
102
RTVSPost2010Prop51ColorIndex
 90
      256
102
RTVSPost2010Prop51ColorRGB
 90
-16777216
102
RTVSPost2010PropOp51
 70
     0
102
RTVSPost2010Prop52
140
1.0
102
RTVSPost2010PropOp52
 70
     0
102
RTVSPost2010Prop53
 90
        2
102
RTVSPost2010PropOp53
 70
     1
102
RTVSPost2010Prop54
  1
strokes_ogs.tif
102
RTVSPost2010PropOp54
 70
     1
102
RTVSPost2010Prop55
280
     0
102
RTVSPost2010PropOp55
 70
     1
102
RTVSPost2010Prop56
140
1.0
102
RTVSPost2010PropOp56
 70
     1
102
RTVSPost2010Prop57
140
1.0
102
RTVSPost2010PropOp57
 70
     1
  0
XRECORD
  5
697
102
{ACAD_REACTORS
330
696
102
}
330
696
100
AcDbXrecord
280
     1
102
RTVSPost2010Prop28
280
     0
102
RTVSPost2010PropOp28
 70
     1
102
RTVSPost2010Prop29
280
     1
102
RTVSPost2010PropOp29
 70
     1
102
RTVSPost2010Prop30
280
     1
102
RTVSPost2010PropOp30
 70
     1
102
RTVSPost2010Prop31
280
     0
102
RTVSPost2010PropOp31
 70
     1
102
RTVSPost2010Prop32
280
     0
102
RTVSPost2010PropOp32
 70
     1
102
RTVSPost2010Prop33
280
     0
102
RTVSPost2010PropOp33
 70
     1
102
RTVSPost2010Prop34
280
     0
102
RTVSPost2010PropOp34
 70
     1
102
RTVSPost2010Prop35
280
     0
102
RTVSPost2010PropOp35
 70
     1
102
RTVSPost2010Prop36
280
     0
102
RTVSPost2010PropOp36
 70
     1
102
RTVSPost2010Prop37
 90
       50
102
RTVSPost2010PropOp37
 70
     1
102
RTVSPost2010Prop38
140
0.0
102
RTVSPost2010PropOp38
 70
     1
102
RTVSPost2010Prop39
140
1.0
102
RTVSPost2010PropOp39
 70
     1
102
RTVSPost2010Prop40
 90
        0
102
RTVSPost2010PropOp40
 70
     1
102
RTVSPost2010Prop41ColorIndex
 90
       18
102
RTVSPost2010Prop41ColorRGB
 90
        0
102
RTVSPost2010PropOp41
 70
     1
102
RTVSPost2010Prop42
 90
       50
102
RTVSPost2010PropOp42
 70
     1
102
RTVSPost2010Prop43
 90
        3
102
RTVSPost2010PropOp43
 70
     1
102
RTVSPost2010Prop44ColorIndex
 90
        5
102
RTVSPost2010Prop44ColorRGB
 90
      255
102
RTVSPost2010PropOp44
 70
     1
102
RTVSPost2010Prop45
280
     0
102
RTVSPost2010PropOp45
 70
     1
102
RTVSPost2010Prop46
 90
       50
102
RTVSPost2010PropOp46
 70
     1
102
RTVSPost2010Prop47
 90
       50
102
RTVSPost2010PropOp47
 70
     1
102
RTVSPost2010Prop48
 90
       50
102
RTVSPost2010PropOp48
 70
     1
102
RTVSPost2010Prop49
280
     0
102
RTVSPost2010PropOp49
 70
     1
102
RTVSPost2010Prop50
 90
       50
102
RTVSPost2010PropOp50
 70
     1
102
RTVSPost2010Prop51ColorIndex
 90
      256
102
RTVSPost2010Prop51ColorRGB
 90
-16777216
102
RTVSPost2010PropOp51
 70
     0
102
RTVSPost2010Prop52
140
1.0
102
RTVSPost2010PropOp52
 70
     0
102
RTVSPost2010Prop53
 90
        2
102
RTVSPost2010PropOp53
 70
     1
102
RTVSPost2010Prop54
  1
strokes_ogs.tif
102
RTVSPost2010PropOp54
 70
     1
102
RTVSPost2010Prop55
280
     0
102
RTVSPost2010PropOp55
 70
     1
102
RTVSPost2010Prop56
140
1.0
102
RTVSPost2010PropOp56
 70
     1
102
RTVSPost2010Prop57
140
1.0
102
RTVSPost2010PropOp57
 70
     1
  0
XRECORD
  5
691
102
{ACAD_REACTORS
330
690
102
}
330
690
100
AcDbXrecord
280
     1
102
RTVSPost2010Prop28
280
     0
102
RTVSPost2010PropOp28
 70
     1
102
RTVSPost2010Prop29
280
     1
102
RTVSPost2010PropOp29
 70
     1
102
RTVSPost2010Prop30
280
     1
102
RTVSPost2010PropOp30
 70
     1
102
RTVSPost2010Prop31
280
     0
102
RTVSPost2010PropOp31
 70
     1
102
RTVSPost2010Prop32
280
     0
102
RTVSPost2010PropOp32
 70
     1
102
RTVSPost2010Prop33
280
     0
102
RTVSPost2010PropOp33
 70
     1
102
RTVSPost2010Prop34
280
     0
102
RTVSPost2010PropOp34
 70
     1
102
RTVSPost2010Prop35
280
     0
102
RTVSPost2010PropOp35
 70
     1
102
RTVSPost2010Prop36
280
     0
102
RTVSPost2010PropOp36
 70
     1
102
RTVSPost2010Prop37
 90
       50
102
RTVSPost2010PropOp37
 70
     1
102
RTVSPost2010Prop38
140
0.0
102
RTVSPost2010PropOp38
 70
     1
102
RTVSPost2010Prop39
140
1.0
102
RTVSPost2010PropOp39
 70
     1
102
RTVSPost2010Prop40
 90
        0
102
RTVSPost2010PropOp40
 70
     1
102
RTVSPost2010Prop41ColorIndex
 90
       18
102
RTVSPost2010Prop41ColorRGB
 90
        0
102
RTVSPost2010PropOp41
 70
     1
102
RTVSPost2010Prop42
 90
       50
102
RTVSPost2010PropOp42
 70
     1
102
RTVSPost2010Prop43
 90
        3
102
RTVSPost2010PropOp43
 70
     1
102
RTVSPost2010Prop44ColorIndex
 90
        5
102
RTVSPost2010Prop44ColorRGB
 90
      255
102
RTVSPost2010PropOp44
 70
     1
102
RTVSPost2010Prop45
280
     0
102
RTVSPost2010PropOp45
 70
     1
102
RTVSPost2010Prop46
 90
       50
102
RTVSPost2010PropOp46
 70
     1
102
RTVSPost2010Prop47
 90
       50
102
RTVSPost2010PropOp47
 70
     1
102
RTVSPost2010Prop48
 90
       50
102
RTVSPost2010PropOp48
 70
     1
102
RTVSPost2010Prop49
280
     0
102
RTVSPost2010PropOp49
 70
     1
102
RTVSPost2010Prop50
 90
       50
102
RTVSPost2010PropOp50
 70
     1
102
RTVSPost2010Prop51ColorIndex
 90
      256
102
RTVSPost2010Prop51ColorRGB
 90
-16777216
102
RTVSPost2010PropOp51
 70
     0
102
RTVSPost2010Prop52
140
1.0
102
RTVSPost2010PropOp52
 70
     0
102
RTVSPost2010Prop53
 90
        2
102
RTVSPost2010PropOp53
 70
     1
102
RTVSPost2010Prop54
  1
strokes_ogs.tif
102
RTVSPost2010PropOp54
 70
     1
102
RTVSPost2010Prop55
280
     0
102
RTVSPost2010PropOp55
 70
     1
102
RTVSPost2010Prop56
140
1.0
102
RTVSPost2010PropOp56
 70
     1
102
RTVSPost2010Prop57
140
1.0
102
RTVSPost2010PropOp57
 70
     1
  0
XRECORD
  5
693
102
{ACAD_REACTORS
330
692
102
}
330
692
100
AcDbXrecord
280
     1
102
RTVSPost2010Prop28
280
     0
102
RTVSPost2010PropOp28
 70
     1
102
RTVSPost2010Prop29
280
     1
102
RTVSPost2010PropOp29
 70
     1
102
RTVSPost2010Prop30
280
     1
102
RTVSPost2010PropOp30
 70
     1
102
RTVSPost2010Prop31
280
     0
102
RTVSPost2010PropOp31
 70
     1
102
RTVSPost2010Prop32
280
     0
102
RTVSPost2010PropOp32
 70
     1
102
RTVSPost2010Prop33
280
     0
102
RTVSPost2010PropOp33
 70
     1
102
RTVSPost2010Prop34
280
     0
102
RTVSPost2010PropOp34
 70
     1
102
RTVSPost2010Prop35
280
     0
102
RTVSPost2010PropOp35
 70
     1
102
RTVSPost2010Prop36
280
     0
102
RTVSPost2010PropOp36
 70
     1
102
RTVSPost2010Prop37
 90
       50
102
RTVSPost2010PropOp37
 70
     1
102
RTVSPost2010Prop38
140
0.0
102
RTVSPost2010PropOp38
 70
     1
102
RTVSPost2010Prop39
140
1.0
102
RTVSPost2010PropOp39
 70
     1
102
RTVSPost2010Prop40
 90
        0
102
RTVSPost2010PropOp40
 70
     1
102
RTVSPost2010Prop41ColorIndex
 90
       18
102
RTVSPost2010Prop41ColorRGB
 90
        0
102
RTVSPost2010PropOp41
 70
     1
102
RTVSPost2010Prop42
 90
       50
102
RTVSPost2010PropOp42
 70
     1
102
RTVSPost2010Prop43
 90
        3
102
RTVSPost2010PropOp43
 70
     1
102
RTVSPost2010Prop44ColorIndex
 90
        5
102
RTVSPost2010Prop44ColorRGB
 90
      255
102
RTVSPost2010PropOp44
 70
     1
102
RTVSPost2010Prop45
280
     0
102
RTVSPost2010PropOp45
 70
     1
102
RTVSPost2010Prop46
 90
       50
102
RTVSPost2010PropOp46
 70
     1
102
RTVSPost2010Prop47
 90
       50
102
RTVSPost2010PropOp47
 70
     1
102
RTVSPost2010Prop48
 90
       50
102
RTVSPost2010PropOp48
 70
     1
102
RTVSPost2010Prop49
280
     0
102
RTVSPost2010PropOp49
 70
     1
102
RTVSPost2010Prop50
 90
       50
102
RTVSPost2010PropOp50
 70
     1
102
RTVSPost2010Prop51ColorIndex
 90
      256
102
RTVSPost2010Prop51ColorRGB
 90
-16777216
102
RTVSPost2010PropOp51
 70
     0
102
RTVSPost2010Prop52
140
1.0
102
RTVSPost2010PropOp52
 70
     0
102
RTVSPost2010Prop53
 90
        2
102
RTVSPost2010PropOp53
 70
     1
102
RTVSPost2010Prop54
  1
strokes_ogs.tif
102
RTVSPost2010PropOp54
 70
     1
102
RTVSPost2010Prop55
280
     0
102
RTVSPost2010PropOp55
 70
     1
102
RTVSPost2010Prop56
140
1.0
102
RTVSPost2010PropOp56
 70
     1
102
RTVSPost2010Prop57
140
1.0
102
RTVSPost2010PropOp57
 70
     1
  0
XRECORD
  5
683
102
{ACAD_REACTORS
330
682
102
}
330
682
100
AcDbXrecord
280
     1
102
RTVSPost2010Prop28
280
     0
102
RTVSPost2010PropOp28
 70
     1
102
RTVSPost2010Prop29
280
     1
102
RTVSPost2010PropOp29
 70
     1
102
RTVSPost2010Prop30
280
     1
102
RTVSPost2010PropOp30
 70
     1
102
RTVSPost2010Prop31
280
     0
102
RTVSPost2010PropOp31
 70
     1
102
RTVSPost2010Prop32
280
     0
102
RTVSPost2010PropOp32
 70
     1
102
RTVSPost2010Prop33
280
     0
102
RTVSPost2010PropOp33
 70
     1
102
RTVSPost2010Prop34
280
     0
102
RTVSPost2010PropOp34
 70
     1
102
RTVSPost2010Prop35
280
     0
102
RTVSPost2010PropOp35
 70
     1
102
RTVSPost2010Prop36
280
     0
102
RTVSPost2010PropOp36
 70
     1
102
RTVSPost2010Prop37
 90
       50
102
RTVSPost2010PropOp37
 70
     1
102
RTVSPost2010Prop38
140
0.0
102
RTVSPost2010PropOp38
 70
     1
102
RTVSPost2010Prop39
140
1.0
102
RTVSPost2010PropOp39
 70
     1
102
RTVSPost2010Prop40
 90
        0
102
RTVSPost2010PropOp40
 70
     1
102
RTVSPost2010Prop41ColorIndex
 90
       18
102
RTVSPost2010Prop41ColorRGB
 90
        0
102
RTVSPost2010PropOp41
 70
     1
102
RTVSPost2010Prop42
 90
       50
102
RTVSPost2010PropOp42
 70
     1
102
RTVSPost2010Prop43
 90
        3
102
RTVSPost2010PropOp43
 70
     1
102
RTVSPost2010Prop44ColorIndex
 90
        5
102
RTVSPost2010Prop44ColorRGB
 90
      255
102
RTVSPost2010PropOp44
 70
     1
102
RTVSPost2010Prop45
280
     0
102
RTVSPost2010PropOp45
 70
     1
102
RTVSPost2010Prop46
 90
       50
102
RTVSPost2010PropOp46
 70
     1
102
RTVSPost2010Prop47
 90
       50
102
RTVSPost2010PropOp47
 70
     1
102
RTVSPost2010Prop48
 90
       50
102
RTVSPost2010PropOp48
 70
     1
102
RTVSPost2010Prop49
280
     0
102
RTVSPost2010PropOp49
 70
     1
102
RTVSPost2010Prop50
 90
       50
102
RTVSPost2010PropOp50
 70
     1
102
RTVSPost2010Prop51ColorIndex
 90
      256
102
RTVSPost2010Prop51ColorRGB
 90
-16777216
102
RTVSPost2010PropOp51
 70
     0
102
RTVSPost2010Prop52
140
1.0
102
RTVSPost2010PropOp52
 70
     0
102
RTVSPost2010Prop53
 90
        2
102
RTVSPost2010PropOp53
 70
     1
102
RTVSPost2010Prop54
  1
strokes_ogs.tif
102
RTVSPost2010PropOp54
 70
     1
102
RTVSPost2010Prop55
280
     0
102
RTVSPost2010PropOp55
 70
     1
102
RTVSPost2010Prop56
140
1.0
102
RTVSPost2010PropOp56
 70
     1
102
RTVSPost2010Prop57
140
1.0
102
RTVSPost2010PropOp57
 70
     1
  0
XRECORD
  5
675
102
{ACAD_REACTORS
330
674
102
}
330
674
100
AcDbXrecord
280
     1
102
RTVSPost2010Prop28
280
     0
102
RTVSPost2010PropOp28
 70
     1
102
RTVSPost2010Prop29
280
     1
102
RTVSPost2010PropOp29
 70
     1
102
RTVSPost2010Prop30
280
     1
102
RTVSPost2010PropOp30
 70
     1
102
RTVSPost2010Prop31
280
     0
102
RTVSPost2010PropOp31
 70
     1
102
RTVSPost2010Prop32
280
     0
102
RTVSPost2010PropOp32
 70
     1
102
RTVSPost2010Prop33
280
     0
102
RTVSPost2010PropOp33
 70
     1
102
RTVSPost2010Prop34
280
     0
102
RTVSPost2010PropOp34
 70
     1
102
RTVSPost2010Prop35
280
     0
102
RTVSPost2010PropOp35
 70
     1
102
RTVSPost2010Prop36
280
     0
102
RTVSPost2010PropOp36
 70
     1
102
RTVSPost2010Prop37
 90
       50
102
RTVSPost2010PropOp37
 70
     1
102
RTVSPost2010Prop38
140
0.0
102
RTVSPost2010PropOp38
 70
     1
102
RTVSPost2010Prop39
140
1.0
102
RTVSPost2010PropOp39
 70
     1
102
RTVSPost2010Prop40
 90
        0
102
RTVSPost2010PropOp40
 70
     1
102
RTVSPost2010Prop41ColorIndex
 90
       18
102
RTVSPost2010Prop41ColorRGB
 90
        0
102
RTVSPost2010PropOp41
 70
     1
102
RTVSPost2010Prop42
 90
       50
102
RTVSPost2010PropOp42
 70
     1
102
RTVSPost2010Prop43
 90
        3
102
RTVSPost2010PropOp43
 70
     1
102
RTVSPost2010Prop44ColorIndex
 90
        5
102
RTVSPost2010Prop44ColorRGB
 90
      255
102
RTVSPost2010PropOp44
 70
     1
102
RTVSPost2010Prop45
280
     0
102
RTVSPost2010PropOp45
 70
     1
102
RTVSPost2010Prop46
 90
       50
102
RTVSPost2010PropOp46
 70
     1
102
RTVSPost2010Prop47
 90
       50
102
RTVSPost2010PropOp47
 70
     1
102
RTVSPost2010Prop48
 90
       50
102
RTVSPost2010PropOp48
 70
     1
102
RTVSPost2010Prop49
280
     0
102
RTVSPost2010PropOp49
 70
     1
102
RTVSPost2010Prop50
 90
       50
102
RTVSPost2010PropOp50
 70
     1
102
RTVSPost2010Prop51ColorIndex
 90
      256
102
RTVSPost2010Prop51ColorRGB
 90
-16777216
102
RTVSPost2010PropOp51
 70
     0
102
RTVSPost2010Prop52
140
1.0
102
RTVSPost2010PropOp52
 70
     0
102
RTVSPost2010Prop53
 90
        2
102
RTVSPost2010PropOp53
 70
     1
102
RTVSPost2010Prop54
  1
strokes_ogs.tif
102
RTVSPost2010PropOp54
 70
     1
102
RTVSPost2010Prop55
280
     0
102
RTVSPost2010PropOp55
 70
     1
102
RTVSPost2010Prop56
140
1.0
102
RTVSPost2010PropOp56
 70
     1
102
RTVSPost2010Prop57
140
1.0
102
RTVSPost2010PropOp57
 70
     1
  0
XRECORD
  5
695
102
{ACAD_REACTORS
330
694
102
}
330
694
100
AcDbXrecord
280
     1
102
RTVSPost2010Prop28
280
     0
102
RTVSPost2010PropOp28
 70
     1
102
RTVSPost2010Prop29
280
     1
102
RTVSPost2010PropOp29
 70
     1
102
RTVSPost2010Prop30
280
     1
102
RTVSPost2010PropOp30
 70
     1
102
RTVSPost2010Prop31
280
     0
102
RTVSPost2010PropOp31
 70
     1
102
RTVSPost2010Prop32
280
     0
102
RTVSPost2010PropOp32
 70
     1
102
RTVSPost2010Prop33
280
     0
102
RTVSPost2010PropOp33
 70
     1
102
RTVSPost2010Prop34
280
     0
102
RTVSPost2010PropOp34
 70
     1
102
RTVSPost2010Prop35
280
     0
102
RTVSPost2010PropOp35
 70
     1
102
RTVSPost2010Prop36
280
     0
102
RTVSPost2010PropOp36
 70
     1
102
RTVSPost2010Prop37
 90
       50
102
RTVSPost2010PropOp37
 70
     1
102
RTVSPost2010Prop38
140
0.0
102
RTVSPost2010PropOp38
 70
     1
102
RTVSPost2010Prop39
140
1.0
102
RTVSPost2010PropOp39
 70
     1
102
RTVSPost2010Prop40
 90
        0
102
RTVSPost2010PropOp40
 70
     1
102
RTVSPost2010Prop41ColorIndex
 90
       18
102
RTVSPost2010Prop41ColorRGB
 90
        0
102
RTVSPost2010PropOp41
 70
     1
102
RTVSPost2010Prop42
 90
       50
102
RTVSPost2010PropOp42
 70
     1
102
RTVSPost2010Prop43
 90
        3
102
RTVSPost2010PropOp43
 70
     1
102
RTVSPost2010Prop44ColorIndex
 90
        5
102
RTVSPost2010Prop44ColorRGB
 90
      255
102
RTVSPost2010PropOp44
 70
     1
102
RTVSPost2010Prop45
280
     0
102
RTVSPost2010PropOp45
 70
     1
102
RTVSPost2010Prop46
 90
       50
102
RTVSPost2010PropOp46
 70
     1
102
RTVSPost2010Prop47
 90
       50
102
RTVSPost2010PropOp47
 70
     1
102
RTVSPost2010Prop48
 90
       50
102
RTVSPost2010PropOp48
 70
     1
102
RTVSPost2010Prop49
280
     0
102
RTVSPost2010PropOp49
 70
     1
102
RTVSPost2010Prop50
 90
       50
102
RTVSPost2010PropOp50
 70
     1
102
RTVSPost2010Prop51ColorIndex
 90
      256
102
RTVSPost2010Prop51ColorRGB
 90
-16777216
102
RTVSPost2010PropOp51
 70
     0
102
RTVSPost2010Prop52
140
1.0
102
RTVSPost2010PropOp52
 70
     0
102
RTVSPost2010Prop53
 90
        2
102
RTVSPost2010PropOp53
 70
     1
102
RTVSPost2010Prop54
  1
strokes_ogs.tif
102
RTVSPost2010PropOp54
 70
     1
102
RTVSPost2010Prop55
280
     0
102
RTVSPost2010PropOp55
 70
     1
102
RTVSPost2010Prop56
140
1.0
102
RTVSPost2010PropOp56
 70
     1
102
RTVSPost2010Prop57
140
1.0
102
RTVSPost2010PropOp57
 70
     1
  0
ENDSEC
  0
EOF
