  0
SECTION
  2
HEADER
  9
$ACADVER
  1
AC1024
  9
$ACADMAINTVER
 70
     6
  9
$DWGCODEPAGE
  3
ANSI_1252
  9
$INSBASE
 10
0.0
 20
0.0
 30
0.0
  9
$EXTMIN
 10
712.7070905267444
 20
267.1036805463434
 30
0.0
  9
$EXTMAX
 10
928.9204500264726
 20
541.5790889562783
 30
0.0
  9
$LIMMIN
 10
0.0
 20
0.0
  9
$LIMMAX
 10
420.0
 20
297.0
  9
$ORTHOMODE
 70
     0
  9
$REGENMODE
 70
     1
  9
$FILLMODE
 70
     1
  9
$QTEXTMODE
 70
     0
  9
$MIRRTEXT
 70
     0
  9
$LTSCALE
 40
1.0
  9
$ATTMODE
 70
     1
  9
$TEXTSIZE
 40
16.97154762873321
  9
$TRACEWID
 40
1.0
  9
$TEXTSTYLE
  7
Standard
  9
$CLAYER
  8
Drawing
  9
$CELTYPE
  6
ByLayer
  9
$CECOLOR
 62
   256
  9
$CELTSCALE
 40
1.0
  9
$DISPSILH
 70
     0
  9
$DIMSCALE
 40
1.0
  9
$DIMASZ
 40
2.5
  9
$DIMEXO
 40
0.625
  9
$DIMDLI
 40
3.75
  9
$DIMRND
 40
0.0
  9
$DIMDLE
 40
0.0
  9
$DIMEXE
 40
1.25
  9
$DIMTP
 40
0.0
  9
$DIMTM
 40
0.0
  9
$DIMTXT
 40
2.5
  9
$DIMCEN
 40
2.5
  9
$DIMTSZ
 40
0.0
  9
$DIMTOL
 70
     0
  9
$DIMLIM
 70
     0
  9
$DIMTIH
 70
     0
  9
$DIMTOH
 70
     0
  9
$DIMSE1
 70
     0
  9
$DIMSE2
 70
     0
  9
$DIMTAD
 70
     1
  9
$DIMZIN
 70
     8
  9
$DIMBLK
  1

  9
$DIMASO
 70
     1
  9
$DIMSHO
 70
     1
  9
$DIMPOST
  1

  9
$DIMAPOST
  1

  9
$DIMALT
 70
     0
  9
$DIMALTD
 70
     3
  9
$DIMALTF
 40
0.03937007874016
  9
$DIMLFAC
 40
1.0
  9
$DIMTOFL
 70
     1
  9
$DIMTVP
 40
0.0
  9
$DIMTIX
 70
     0
  9
$DIMSOXD
 70
     0
  9
$DIMSAH
 70
     0
  9
$DIMBLK1
  1

  9
$DIMBLK2
  1

  9
$DIMSTYLE
  2
ISO-25
  9
$DIMCLRD
 70
     0
  9
$DIMCLRE
 70
     0
  9
$DIMCLRT
 70
     0
  9
$DIMTFAC
 40
1.0
  9
$DIMGAP
 40
0.625
  9
$DIMJUST
 70
     0
  9
$DIMSD1
 70
     0
  9
$DIMSD2
 70
     0
  9
$DIMTOLJ
 70
     0
  9
$DIMTZIN
 70
     8
  9
$DIMALTZ
 70
     0
  9
$DIMALTTZ
 70
     0
  9
$DIMUPT
 70
     0
  9
$DIMDEC
 70
     2
  9
$DIMTDEC
 70
     2
  9
$DIMALTU
 70
     2
  9
$DIMALTTD
 70
     3
  9
$DIMTXSTY
  7
Standard
  9
$DIMAUNIT
 70
     0
  9
$DIMADEC
 70
     0
  9
$DIMALTRND
 40
0.0
  9
$DIMAZIN
 70
     0
  9
$DIMDSEP
 70
    44
  9
$DIMATFIT
 70
     3
  9
$DIMFRAC
 70
     0
  9
$DIMLDRBLK
  1

  9
$DIMLUNIT
 70
     2
  9
$DIMLWD
 70
    -2
  9
$DIMLWE
 70
    -2
  9
$DIMTMOVE
 70
     0
  9
$DIMFXL
 40
1.0
  9
$DIMFXLON
 70
     0
  9
$DIMJOGANG
 40
0.7853981633974483
  9
$DIMTFILL
 70
     0
  9
$DIMTFILLCLR
 70
     0
  9
$DIMARCSYM
 70
     0
  9
$DIMLTYPE
  6

  9
$DIMLTEX1
  6

  9
$DIMLTEX2
  6

  9
$DIMTXTDIRECTION
 70
     0
  9
$LUNITS
 70
     2
  9
$LUPREC
 70
     4
  9
$SKETCHINC
 40
1.0
  9
$FILLETRAD
 40
0.0
  9
$AUNITS
 70
     0
  9
$AUPREC
 70
     0
  9
$MENU
  1
.
  9
$ELEVATION
 40
0.0
  9
$PELEVATION
 40
0.0
  9
$THICKNESS
 40
0.0
  9
$LIMCHECK
 70
     0
  9
$CHAMFERA
 40
0.0
  9
$CHAMFERB
 40
0.0
  9
$CHAMFERC
 40
0.0
  9
$CHAMFERD
 40
0.0
  9
$SKPOLY
 70
     0
  9
$TDCREATE
 40
2453314.433178079
  9
$TDUCREATE
 40
2453314.391511412
  9
$TDUPDATE
 40
2457219.626930752
  9
$TDUUPDATE
 40
2457219.585264086
  9
$TDINDWG
 40
0.5900297801
  9
$TDUSRTIMER
 40
0.5900220139
  9
$USRTIMER
 70
     1
  9
$ANGBASE
 50
0.0
  9
$ANGDIR
 70
     0
  9
$PDMODE
 70
     0
  9
$PDSIZE
 40
0.0
  9
$PLINEWID
 40
0.0
  9
$SPLFRAME
 70
     0
  9
$SPLINETYPE
 70
     6
  9
$SPLINESEGS
 70
     8
  9
$HANDSEED
  5
A1A
  9
$SURFTAB1
 70
     6
  9
$SURFTAB2
 70
     6
  9
$SURFTYPE
 70
     6
  9
$SURFU
 70
     6
  9
$SURFV
 70
     6
  9
$UCSBASE
  2

  9
$UCSNAME
  2

  9
$UCSORG
 10
0.0
 20
0.0
 30
0.0
  9
$UCSXDIR
 10
1.0
 20
0.0
 30
0.0
  9
$UCSYDIR
 10
0.0
 20
1.0
 30
0.0
  9
$UCSORTHOREF
  2

  9
$UCSORTHOVIEW
 70
     0
  9
$UCSORGTOP
 10
0.0
 20
0.0
 30
0.0
  9
$UCSORGBOTTOM
 10
0.0
 20
0.0
 30
0.0
  9
$UCSORGLEFT
 10
0.0
 20
0.0
 30
0.0
  9
$UCSORGRIGHT
 10
0.0
 20
0.0
 30
0.0
  9
$UCSORGFRONT
 10
0.0
 20
0.0
 30
0.0
  9
$UCSORGBACK
 10
0.0
 20
0.0
 30
0.0
  9
$PUCSBASE
  2

  9
$PUCSNAME
  2

  9
$PUCSORG
 10
0.0
 20
0.0
 30
0.0
  9
$PUCSXDIR
 10
1.0
 20
0.0
 30
0.0
  9
$PUCSYDIR
 10
0.0
 20
1.0
 30
0.0
  9
$PUCSORTHOREF
  2

  9
$PUCSORTHOVIEW
 70
     0
  9
$PUCSORGTOP
 10
0.0
 20
0.0
 30
0.0
  9
$PUCSORGBOTTOM
 10
0.0
 20
0.0
 30
0.0
  9
$PUCSORGLEFT
 10
0.0
 20
0.0
 30
0.0
  9
$PUCSORGRIGHT
 10
0.0
 20
0.0
 30
0.0
  9
$PUCSORGFRONT
 10
0.0
 20
0.0
 30
0.0
  9
$PUCSORGBACK
 10
0.0
 20
0.0
 30
0.0
  9
$USERI1
 70
     0
  9
$USERI2
 70
     0
  9
$USERI3
 70
     0
  9
$USERI4
 70
     0
  9
$USERI5
 70
     0
  9
$USERR1
 40
0.0
  9
$USERR2
 40
0.0
  9
$USERR3
 40
0.0
  9
$USERR4
 40
0.0
  9
$USERR5
 40
0.0
  9
$WORLDVIEW
 70
     1
  9
$SHADEDGE
 70
     3
  9
$SHADEDIF
 70
    70
  9
$TILEMODE
 70
     0
  9
$MAXACTVP
 70
    64
  9
$PINSBASE
 10
0.0
 20
0.0
 30
0.0
  9
$PLIMCHECK
 70
     0
  9
$PEXTMIN
 10
20.30825657543255
 20
4.811610675799557
 30
-0.0015258207003583
  9
$PEXTMAX
 10
182.8855376838814
 20
213.3725191232394
 30
0.0000000349246037
  9
$PLIMMIN
 10
-7.143749713897707
 20
-13.49375152587891
  9
$PLIMMAX
 10
208.7562441825867
 20
265.9062423706055
  9
$UNITMODE
 70
     0
  9
$VISRETAIN
 70
     1
  9
$PLINEGEN
 70
     0
  9
$PSLTSCALE
 70
     1
  9
$TREEDEPTH
 70
  3020
  9
$CMLSTYLE
  2
Standard
  9
$CMLJUST
 70
     0
  9
$CMLSCALE
 40
20.0
  9
$PROXYGRAPHICS
 70
     1
  9
$MEASUREMENT
 70
     1
  9
$CELWEIGHT
370
    -1
  9
$ENDCAPS
280
     0
  9
$JOINSTYLE
280
     0
  9
$LWDISPLAY
290
     0
  9
$INSUNITS
 70
     4
  9
$HYPERLINKBASE
  1

  9
$STYLESHEET
  1
monochrome.ctb
  9
$XEDIT
290
     1
  9
$CEPSNTYPE
380
     0
  9
$PSTYLEMODE
290
     1
  9
$FINGERPRINTGUID
  2
{FDEAD578-A652-11D2-9A35-0060089B3A3F}
  9
$VERSIONGUID
  2
{5A07F242-0A3B-4FEE-8B31-7DBF0B4D925F}
  9
$EXTNAMES
290
     1
  9
$PSVPSCALE
 40
0.0
  9
$OLESTARTUP
290
     0
  9
$SORTENTS
280
   127
  9
$INDEXCTL
280
     0
  9
$HIDETEXT
280
     1
  9
$XCLIPFRAME
280
     2
  9
$HALOGAP
280
     0
  9
$OBSCOLOR
 70
   257
  9
$OBSLTYPE
280
     0
  9
$INTERSECTIONDISPLAY
280
     0
  9
$INTERSECTIONCOLOR
 70
   257
  9
$DIMASSOC
280
     2
  9
$PROJECTNAME
  1

  9
$CAMERADISPLAY
290
     0
  9
$LENSLENGTH
 40
50.0
  9
$CAMERAHEIGHT
 40
0.0
  9
$STEPSPERSEC
 40
2.0
  9
$STEPSIZE
 40
6.0
  9
$3DDWFPREC
 40
2.0
  9
$PSOLWIDTH
 40
0.25
  9
$PSOLHEIGHT
 40
4.0
  9
$LOFTANG1
 40
1.570796326794897
  9
$LOFTANG2
 40
1.570796326794897
  9
$LOFTMAG1
 40
0.0
  9
$LOFTMAG2
 40
0.0
  9
$LOFTPARAM
 70
     7
  9
$LOFTNORMALS
280
     1
  9
$LATITUDE
 40
37.795
  9
$LONGITUDE
 40
-122.394
  9
$NORTHDIRECTION
 40
0.0
  9
$TIMEZONE
 70
 -8000
  9
$LIGHTGLYPHDISPLAY
280
     1
  9
$TILEMODELIGHTSYNCH
280
     1
  9
$SOLIDHIST
280
     0
  9
$SHOWHIST
280
     1
  9
$DWFFRAME
280
     2
  9
$DGNFRAME
280
     2
  9
$REALWORLDSCALE
290
     1
  9
$INTERFERECOLOR
 62
   256
  9
$CSHADOW
280
     0
  9
$SHADOWPLANELOCATION
 40
0.0
  0
ENDSEC
  0
SECTION
  2
CLASSES
  0
CLASS
  1
ACDBDICTIONARYWDFLT
  2
AcDbDictionaryWithDefault
  3
ObjectDBX Classes
 90
        0
 91
        4
280
     0
281
     0
  0
CLASS
  1
ACDBPLACEHOLDER
  2
AcDbPlaceHolder
  3
ObjectDBX Classes
 90
        0
 91
        1
280
     0
281
     0
  0
CLASS
  1
LAYOUT
  2
AcDbLayout
  3
ObjectDBX Classes
 90
        0
 91
        1
280
     0
281
     0
  0
CLASS
  1
DICTIONARYVAR
  2
AcDbDictionaryVar
  3
ObjectDBX Classes
 90
        0
 91
        4
280
     0
281
     0
  0
CLASS
  1
RASTERVARIABLES
  2
AcDbRasterVariables
  3
ISM
 90
        0
 91
        4
280
     0
281
     0
  0
CLASS
  1
IMAGEDEF
  2
AcDbRasterImageDef
  3
ISM
 90
        0
 91
        4
280
     0
281
     0
  0
CLASS
  1
IMAGEDEF_REACTOR
  2
AcDbRasterImageDefReactor
  3
ISM
 90
        1
 91
        4
280
     0
281
     0
  0
CLASS
  1
IMAGE
  2
AcDbRasterImage
  3
ISM
 90
      127
 91
        5
280
     0
281
     1
  0
CLASS
  1
VISUALSTYLE
  2
AcDbVisualStyle
  3
ObjectDBX Classes
 90
     4095
 91
        4
280
     0
281
     0
  0
CLASS
  1
SCALE
  2
AcDbScale
  3
ObjectDBX Classes
 90
     1153
 91
        4
280
     0
281
     0
  0
CLASS
  1
MATERIAL
  2
AcDbMaterial
  3
ObjectDBX Classes
 90
     1153
 91
        4
280
     0
281
     0
  0
CLASS
  1
TABLESTYLE
  2
AcDbTableStyle
  3
ObjectDBX Classes
 90
     4095
 91
        4
280
     0
281
     0
  0
CLASS
  1
MLEADERSTYLE
  2
AcDbMLeaderStyle
  3
ACDB_MLEADERSTYLE_CLASS
 90
     4095
 91
        4
280
     0
281
     0
  0
CLASS
  1
CELLSTYLEMAP
  2
AcDbCellStyleMap
  3
ObjectDBX Classes
 90
     1152
 91
        4
280
     0
281
     0
  0
ENDSEC
  0
SECTION
  2
TABLES
  0
TABLE
  2
VPORT
  5
8
330
0
100
AcDbSymbolTable
 70
     5
  0
VPORT
  5
96D
330
8
100
AcDbSymbolTableRecord
100
AcDbViewportTableRecord
  2
*Active
 70
     0
 10
0.0
 20
0.0
 11
1.0
 21
1.0
 12
820.6276399398627
 22
426.8940258898161
 13
0.0
 23
0.0
 14
10.0
 24
10.0
 15
10.0
 25
10.0
 16
0.0
 26
0.0
 36
1.0
 17
0.0
 27
0.0
 37
0.0
 40
317.5143577309753
 41
1.796934865900383
 42
50.0
 43
0.0
 44
0.0
 50
0.0
 51
0.0
 71
     0
 72
  1000
 73
     1
 74
     3
 75
     0
 76
     0
 77
     0
 78
     0
281
     0
 65
     1
110
0.0
120
0.0
130
0.0
111
1.0
121
0.0
131
0.0
112
0.0
122
1.0
132
0.0
 79
     0
146
0.0
348
9A4
 60
     3
 61
     5
292
     1
282
     1
141
0.0
142
0.0
 63
   256
  0
ENDTAB
  0
TABLE
  2
LTYPE
  5
5
330
0
100
AcDbSymbolTable
 70
     3
  0
LTYPE
  5
14
330
5
100
AcDbSymbolTableRecord
100
AcDbLinetypeTableRecord
  2
ByBlock
 70
     0
  3

 72
    65
 73
     0
 40
0.0
  0
LTYPE
  5
15
330
5
100
AcDbSymbolTableRecord
100
AcDbLinetypeTableRecord
  2
ByLayer
 70
     0
  3

 72
    65
 73
     0
 40
0.0
  0
LTYPE
  5
16
330
5
100
AcDbSymbolTableRecord
100
AcDbLinetypeTableRecord
  2
Continuous
 70
     0
  3
Solid line
 72
    65
 73
     0
 40
0.0
  0
LTYPE
  5
1F5
330
5
100
AcDbSymbolTableRecord
100
AcDbLinetypeTableRecord
  2
DASHED2
 70
     0
  3
Dashed (.5x) _ _ _ _ _ _ _ _ _ _ _ _ _ _ _ _ _
 72
    65
 73
     2
 40
9.524999999999999
 49
6.35
 74
     0
 49
-3.175
 74
     0
  0
LTYPE
  5
5A3
330
5
100
AcDbSymbolTableRecord
100
AcDbLinetypeTableRecord
  2
ACAD_ISO03W100
 70
     0
  3
ISO dash space __    __    __    __    __    __
 72
    65
 73
     2
 40
30.0
 49
12.0
 74
     0
 49
-18.0
 74
     0
  0
ENDTAB
  0
TABLE
  2
LAYER
  5
2
330
0
100
AcDbSymbolTable
 70
     4
  0
LAYER
  5
10
330
2
100
AcDbSymbolTableRecord
100
AcDbLayerTableRecord
  2
0
 70
     0
 62
     7
  6
Continuous
370
    -3
390
F
347
9DC
  0
LAYER
  5
8C
330
2
100
AcDbSymbolTableRecord
100
AcDbLayerTableRecord
  2
Drawing
 70
     0
 62
     1
  6
Continuous
370
    -3
390
F
347
9DC
  0
LAYER
  5
444
330
2
100
AcDbSymbolTableRecord
100
AcDbLayerTableRecord
  2
trench scale n
 70
     0
 62
     7
  6
Continuous
370
    -3
390
F
347
9DC
  0
LAYER
  5
445
330
2
100
AcDbSymbolTableRecord
100
AcDbLayerTableRecord
  2
CD
 70
     0
 62
     7
  6
Continuous
370
    -3
390
F
347
9DC
  0
ENDTAB
  0
TABLE
  2
STYLE
  5
3
330
0
100
AcDbSymbolTable
 70
     3
  0
STYLE
  5
11
330
3
100
AcDbSymbolTableRecord
100
AcDbTextStyleTableRecord
  2
Standard
 70
     0
 40
0.0
 41
1.0
 50
0.0
 71
     0
 42
16.97154762873321
  3
txt
  4

  0
STYLE
  5
446
330
3
100
AcDbSymbolTableRecord
100
AcDbTextStyleTableRecord
  2
verdana
 70
     0
 40
1.0
 41
1.0
 50
0.0
 71
     0
 42
1.0
  3
verdana.TTF
  4

1001
ACAD
1000
Verdana
1071
       34
  0
STYLE
  5
447
330
3
100
AcDbSymbolTableRecord
100
AcDbTextStyleTableRecord
  2
ver
 70
     0
 40
0.3
 41
1.0
 50
0.0
 71
     0
 42
0.3
  3
verdana.TTF
  4

1001
ACAD
1000
Verdana
1071
       34
  0
ENDTAB
  0
TABLE
  2
VIEW
  5
6
330
0
100
AcDbSymbolTable
 70
     0
  0
ENDTAB
  0
TABLE
  2
UCS
  5
7
330
0
100
AcDbSymbolTable
 70
     0
  0
ENDTAB
  0
TABLE
  2
APPID
  5
9
330
0
100
AcDbSymbolTable
 70
     1
  0
APPID
  5
12
330
9
100
AcDbSymbolTableRecord
100
AcDbRegAppTableRecord
  2
ACAD
 70
     0
  0
ENDTAB
  0
TABLE
  2
DIMSTYLE
  5
A
330
0
100
AcDbSymbolTable
 70
     1
100
AcDbDimStyleTable
  0
DIMSTYLE
105
27
330
A
100
AcDbSymbolTableRecord
100
AcDbDimStyleTableRecord
  2
ISO-25
 70
     0
 41
2.5
 42
0.625
 43
3.75
 44
1.25
 73
     0
 74
     0
 77
     1
 78
     8
140
2.5
141
2.5
143
0.03937007874016
147
0.625
171
     3
172
     1
178
     0
271
     2
272
     2
274
     3
278
    44
283
     0
284
     8
340
11
  0
ENDTAB
  0
TABLE
  2
BLOCK_RECORD
  5
1
330
0
100
AcDbSymbolTable
 70
     5
  0
BLOCK_RECORD
  5
1F
330
1
100
AcDbSymbolTableRecord
100
AcDbBlockTableRecord
  2
*Model_Space
340
22
 70
     0
280
     1
281
     0
  0
BLOCK_RECORD
  5
55
330
1
100
AcDbSymbolTableRecord
100
AcDbBlockTableRecord
  2
*Paper_Space
340
56
 70
     0
280
     1
281
     0
  0
BLOCK_RECORD
  5
50
330
1
100
AcDbSymbolTableRecord
100
AcDbBlockTableRecord
  2
*Paper_Space0
340
51
 70
     0
280
     1
281
     0
  0
BLOCK_RECORD
  5
18F
330
1
100
AcDbSymbolTableRecord
100
AcDbBlockTableRecord
  2
A$C5A7F326B
340
0
 70
     0
280
     1
281
     0
  0
BLOCK_RECORD
  5
30D
330
1
100
AcDbSymbolTableRecord
100
AcDbBlockTableRecord
  2
A$C32F61CBC
340
0
 70
     0
280
     1
281
     0
  0
BLOCK_RECORD
  5
448
330
1
100
AcDbSymbolTableRecord
100
AcDbBlockTableRecord
  2
A$C36576122
340
0
102
{BLKREFS
331
458
102
}
 70
     0
280
     1
281
     0
  0
BLOCK_RECORD
  5
92C
330
1
100
AcDbSymbolTableRecord
100
AcDbBlockTableRecord
  2
A$C1D7433BF
340
0
 70
     0
280
     1
281
     0
  0
ENDTAB
  0
ENDSEC
  0
SECTION
  2
BLOCKS
  0
BLOCK
  5
20
330
1F
100
AcDbEntity
  8
0
100
AcDbBlockBegin
  2
*Model_Space
 70
     0
 10
0.0
 20
0.0
 30
0.0
  3
*Model_Space
  1

  0
ENDBLK
  5
21
330
1F
100
AcDbEntity
  8
0
100
AcDbBlockEnd
  0
BLOCK
  5
57
330
55
100
AcDbEntity
 67
     1
  8
0
100
AcDbBlockBegin
  2
*Paper_Space
 70
     0
 10
0.0
 20
0.0
 30
0.0
  3
*Paper_Space
  1

  0
ENDBLK
  5
58
330
55
100
AcDbEntity
 67
     1
  8
0
100
AcDbBlockEnd
  0
BLOCK
  5
52
330
50
100
AcDbEntity
  8
0
100
AcDbBlockBegin
  2
*Paper_Space0
 70
     0
 10
0.0
 20
0.0
 30
0.0
  3
*Paper_Space0
  1

  0
VIEWPORT
  5
303
330
50
100
AcDbEntity
  8
0
100
AcDbViewport
 10
134.247422022681
 20
101.5999970436096
 30
0.0
 40
410.4598037219286
 41
228.4221935424805
 68
     1
 69
     1
 12
134.247422022681
 22
101.5999970436096
 13
0.0
 23
0.0
 14
10.0
 24
10.0
 15
10.0
 25
10.0
 16
0.0
 26
0.0
 36
1.0
 17
0.0
 27
0.0
 37
0.0
 42
50.0
 43
0.0
 44
0.0
 45
228.4221935424805
 50
0.0
 51
0.0
 72
  1000
 90
    32800
  1

281
     0
 71
     1
 74
     0
110
0.0
120
0.0
130
0.0
111
1.0
121
0.0
131
0.0
112
0.0
122
1.0
132
0.0
 79
     0
146
0.0
170
     0
 61
     5
348
9A4
292
     1
282
     1
141
0.0
142
0.0
 63
   256
  0
VIEWPORT
  5
305
330
50
100
AcDbEntity
  8
Drawing
100
AcDbViewport
 10
133.3499939441681
 20
101.5999939441681
 30
0.0
 40
213.3599903106689
 41
162.5599903106689
 68
     2
 69
     2
 12
810.0431996724437
 22
451.3353481618466
 13
0.0
 23
0.0
 14
10.0
 24
10.0
 15
10.0
 25
10.0
 16
0.0
 26
0.0
 36
1.0
 17
0.0
 27
0.0
 37
0.0
 42
50.0
 43
0.0
 44
0.0
 45
245.9546688745139
 50
0.0
 51
0.0
 72
  1000
 90
    32864
  1

281
     0
 71
     1
 74
     0
110
0.0
120
0.0
130
0.0
111
1.0
121
0.0
131
0.0
112
0.0
122
1.0
132
0.0
 79
     0
146
0.0
170
     0
 61
     5
348
9A4
292
     1
282
     1
141
0.0
142
0.0
 63
   256
  0
ENDBLK
  5
53
330
50
100
AcDbEntity
  8
0
100
AcDbBlockEnd
  0
BLOCK
  5
1EB
330
18F
100
AcDbEntity
  8
0
100
AcDbBlockBegin
  2
A$C5A7F326B
 70
     0
 10
0.0
 20
0.0
 30
0.0
  3
A$C5A7F326B
  1

  0
HATCH
  5
190
330
18F
100
AcDbEntity
  8
Drawing
 62
     1
100
AcDbHatch
 10
0.0
 20
0.0
 30
0.0
210
0.0
220
0.0
230
1.0
  2
SOLID
 70
     1
 71
     1
 91
        5
 92
        7
 72
     0
 73
     1
 93
       11
 10
10.38917409960868
 20
30.11391194989841
 10
10.73167516584181
 20
31.02645440337477
 10
10.16084271554246
 20
32.28120055181075
 10
8.220006000312404
 20
32.39526918321502
 10
7.306672483780859
 20
32.39526918321502
 10
6.735840033482407
 20
31.25458946693053
 10
6.279173275216634
 20
30.11391194989841
 10
6.393338967249293
 20
29.77170825493834
 10
6.964171417548641
 20
29.54357319138256
 10
7.76333924204663
 20
29.65763962353407
 10
8.562507066545534
 20
29.88577688634262
 97
        1
330
19A
 92
        7
 72
     0
 73
     1
 93
        9
 10
14.95584567240076
 20
34.67662641653118
 10
14.95584567240075
 20
35.24696517504749
 10
13.92834646383564
 20
35.47510023860326
 10
12.67251188107184
 20
35.47510023860325
 10
12.55834219890493
 20
34.10628765801533
 10
13.01500895717072
 20
33.30781163669093
 10
13.47167970556984
 20
33.19374300528665
 10
13.58584539760342
 20
33.30781163669095
 10
13.92834646383563
 20
33.53594670024672
 97
        1
330
19E
 92
        7
 72
     0
 73
     1
 93
        7
 10
21.46334997028953
 20
34.33442272157112
 10
21.92002071868865
 20
35.58916887000753
 10
21.00668321202374
 20
35.81730393356332
 10
20.55001645375796
 20
35.01883011149123
 10
20.55001645375796
 20
33.8781503952068
 10
20.66418613592396
 20
33.42188026809521
 10
21.46334997028953
 20
33.76408396305527
 97
        1
330
19F
 92
        7
 72
     0
 73
     1
 93
       15
 10
19.63668293722549
 20
19.16339810968058
 10
19.63668293722549
 20
17.33831320272878
 10
20.32168506969174
 20
17.33831320272878
 10
21.00668321202374
 20
17.90865196124463
 10
21.34918427825595
 20
18.13678702480041
 10
22.60501886102066
 20
18.59305935116475
 10
23.06168561928643
 20
19.84780549960117
 10
23.46823079075038
 20
20.45709556648256
 10
23.46311088761249
 20
20.55429033240619
 10
22.37668747695446
 20
20.98848301663287
 10
21.92002071868865
 20
21.10255164803715
 10
21.57751965245552
 20
22.01509410151306
 10
20.20751937765817
 20
21.90102766936155
 10
20.20751937765817
 20
21.10255164803715
 10
19.52251724519283
 20
19.961874131005
 97
        2
330
199
330
195
 92
        7
 72
     0
 73
     1
 93
       13
 10
108.412147696355
 20
28.6400084857932
 10
109.4624820371832
 20
28.7711866680305
 10
110.2502325724886
 20
29.03354254677698
 10
110.5128163780114
 20
29.16472072901428
 10
110.5784625497078
 20
29.29589842552344
 10
109.7907111331394
 20
29.5582547899981
 10
108.8716691357043
 20
29.5582547899981
 10
107.690043332746
 20
29.42707660776077
 10
107.0335842595708
 20
29.36148775950619
 10
106.3771251863953
 20
28.7711866680305
 10
106.3114790146989
 20
28.6400084857932
 10
106.7053542823515
 20
28.37765260704668
 10
107.1648757217007
 20
28.31206327306393
 97
        1
330
193
 75
     0
 76
     1
 47
0.179997368057399
 98
        5
 10
8.695433992979474
 20
30.67934021273351
 10
13.55957728651799
 20
34.09929018894553
 10
21.12602319314522
 20
34.45928471876653
 10
20.76571611931593
 20
19.69950073872741
 10
107.4195325653836
 20
28.87936659217229
450
        1
451
        0
460
0.0
461
0.0
452
        1
462
0.3899999856948853
453
        2
463
0.0
 63
     1
421
 16711680
463
1.0
 63
    12
421
 13041664
470
LINEAR
  0
LWPOLYLINE
  5
193
102
{ACAD_REACTORS
330
190
102
}
330
18F
100
AcDbEntity
  8
Drawing
100
AcDbPolyline
 90
       13
 70
     1
 43
0.0
 10
107.1648757217007
 20
28.31206327306393
 10
108.4121476963551
 20
28.6400084857932
 10
109.4624820371832
 20
28.77118666803051
 10
110.2502325724886
 20
29.03354254677697
 10
110.5128163780114
 20
29.16472072901428
 10
110.5784625497079
 20
29.29589842552343
 10
109.7907111331394
 20
29.5582547899981
 10
108.8716691357042
 20
29.5582547899981
 10
107.6900433327463
 20
29.4270766077608
 10
107.0335842595708
 20
29.36148775950619
 10
106.3771251863953
 20
28.77118666803051
 10
106.3114790146989
 20
28.6400084857932
 10
106.7053542823515
 20
28.37765260704668
  0
LWPOLYLINE
  5
194
330
18F
100
AcDbEntity
  8
Drawing
100
AcDbPolyline
 90
       23
 70
     1
 43
0.0
 10
72.63228305028235
 20
29.71937568618955
 10
79.82478962374717
 20
29.37717192259453
 10
89.30063133759359
 20
29.71937568618955
 10
94.66646891749008
 20
29.83344312165968
 10
96.60730378681433
 20
29.94751104285808
 10
99.57564035057351
 20
29.94751104285808
 10
104.3706441453746
 20
30.17564688525476
 10
108.5948150363436
 20
30.17564688525476
 10
113.0473185600874
 20
29.94751104285808
 10
116.8148224229801
 20
29.26310400139619
 10
114.0748193732592
 20
27.55208615487732
 10
110.7639834197059
 20
25.95513671528499
 10
107.9098144942291
 20
25.49886503049163
 10
103.3431433322029
 20
24.47225471116286
 10
100.374807649707
 20
24.13005094756784
 10
97.29230432892882
 20
24.35818678996452
 10
91.81229999201321
 20
24.81445798902973
 10
88.72979755249821
 20
25.15666175262476
 10
85.07646044662465
 20
26.41140791435021
 10
81.99395800710965
 20
27.32395079820884
 10
80.0531231377854
 20
28.12242576086908
 10
78.22645414421697
 20
28.23649368206742
 10
76.17145251787372
 20
29.49123984379287
  0
LWPOLYLINE
  5
195
102
{ACAD_REACTORS
330
190
102
}
330
18F
100
AcDbEntity
  8
Drawing
100
AcDbPolyline
 90
       30
 70
     0
 43
0.0
 10
22.60501886102065
 20
30.22798058130269
 10
22.60501886102065
 20
26.12153624178148
 10
22.94751992725287
 20
23.38390888135376
 10
23.40418668551956
 20
21.67289040655299
 10
23.51835237755222
 20
19.50560180464112
 10
24.43168988421712
 20
17.110178139173
 10
24.8883566424829
 20
14.71475227445211
 10
25.34502340074869
 20
12.43339504113595
 10
25.00252233451647
 20
9.01136029078765
 10
23.63252205971912
 20
6.045595667550913
 10
21.46334997028953
 20
2.965764612162673
 10
19.40835155315926
 20
1.482881200918143
 10
17.12501377169701
 20
0.6844073788460605
 10
14.95584567240076
 20
0.2281350524817185
 10
12.10167544063916
 20
-0.0000000110740643
 10
10.04667303337646
 20
0.7984738109980185
 10
7.763339242046641
 20
1.254746137362361
 10
5.365835768551733
 20
2.395423654394051
 10
3.767504109687252
 20
3.650169802830476
 10
1.826667394457218
 20
7.414410447391163
 10
0.4566671196598691
 20
11.63492121906387
 10
0.0000003613940862
 20
15.7413633593323
 10
0.3424974374938756
 20
22.69950149143318
 10
1.940833086490784
 20
28.17475841154231
 10
3.425003043455035
 20
31.93899685685068
 10
5.822502526817516
 20
35.36103380645176
 10
5.936672208983509
 20
37.64239103976792
 10
8.105840308279767
 20
40.49408703160037
 10
10.96001054004137
 20
41.97696824359213
 10
14.72751428833453
 20
43.00357932847277
  0
MTEXT
  5
196
330
18F
100
AcDbEntity
  8
Drawing
100
AcDbMText
 10
8.220007516689293
 20
25.77933371325059
 30
0.0
 40
2.5
 41
9.444444444444445
 46
0.0
 71
     1
 72
     5
  1
{\fArial|b0|i0|c0|p34;5.78}
 73
     1
 44
1.0
  0
LWPOLYLINE
  5
197
330
18F
100
AcDbEntity
  8
Drawing
100
AcDbPolyline
 90
        2
 70
     0
 43
0.0
 10
11.30251083746737
 20
20.98848393728912
 10
12.44417840765811
 20
19.16339865530011
  0
LWPOLYLINE
  5
198
330
18F
100
AcDbEntity
  8
Drawing
100
AcDbPolyline
 90
        2
 70
     0
 43
0.0
 10
11.18834408044836
 20
21.10255185848746
 10
9.818342996219485
 20
19.27746609077025
  0
LWPOLYLINE
  5
199
102
{ACAD_REACTORS
330
190
102
}
330
18F
100
AcDbEntity
  8
Drawing
100
AcDbPolyline
 90
       14
 70
     1
 43
0.0
 10
19.52251724519283
 20
19.961874131005
 10
20.20751937765817
 20
21.10255164803715
 10
20.20751937765817
 20
21.90102766936155
 10
21.57751965245552
 20
22.01509410151306
 10
21.92002071868865
 20
21.10255164803715
 10
22.37668747695443
 20
20.98848301663287
 10
23.51835237755222
 20
20.5322128895213
 10
23.06168561928644
 20
19.84780549960118
 10
22.60501886102065
 20
18.59305935116475
 10
21.34918427825596
 20
18.13678702480041
 10
21.00668321202374
 20
17.90865196124463
 10
20.32168506969174
 20
17.33831320272878
 10
19.63668293722549
 20
17.33831320272878
 10
19.63668293722549
 20
19.1633981096806
  0
LWPOLYLINE
  5
19A
102
{ACAD_REACTORS
330
190
102
}
330
18F
100
AcDbEntity
  8
Drawing
100
AcDbPolyline
 90
       11
 70
     1
 43
0.0
 10
8.56250706654555
 20
29.88577688634263
 10
10.38917409960868
 20
30.11391194989841
 10
10.73167516584181
 20
31.02645440337477
 10
10.16084271554246
 20
32.28120055181074
 10
8.220006000312424
 20
32.39526918321502
 10
7.306672483780858
 20
32.39526918321502
 10
6.735840033482418
 20
31.25458946693055
 10
6.279173275216635
 20
30.11391194989841
 10
6.393338967249292
 20
29.77170825493835
 10
6.964171417548641
 20
29.54357319138256
 10
7.763339242046641
 20
29.65763962353407
  0
LWPOLYLINE
  5
19B
330
18F
100
AcDbEntity
  8
Drawing
100
AcDbPolyline
 90
        8
 70
     1
 43
0.0
 10
16.66834701343123
 20
38.32679623043572
 10
17.6958502121297
 20
38.66899992539578
 10
17.81001590416236
 20
38.66899992539578
 10
18.26668266242814
 20
38.78306855680006
 10
18.03834728822858
 20
39.46747594672019
 10
17.23917946373058
 20
39.58154457812446
 10
17.01084807966345
 20
39.01120362035584
 10
17.01084807966345
 20
38.78306855680006
  0
LWPOLYLINE
  5
19C
330
18F
100
AcDbEntity
  8
Drawing
100
AcDbPolyline
 90
        7
 70
     1
 43
0.0
 10
19.63668293722549
 20
38.32679623043572
 10
20.20751937765817
 20
38.66899992539578
 10
20.20751937765817
 20
39.12527225176012
 10
20.09334969549218
 20
39.80967964168025
 10
19.63668293722549
 20
39.80967964168025
 10
19.29418187099327
 20
39.35340731531591
 10
19.29418187099327
 20
38.78306855680006
  0
LWPOLYLINE
  5
19D
330
18F
100
AcDbEntity
  8
Drawing
100
AcDbPolyline
 90
        9
 70
     0
 43
0.0
 10
17.92418159619592
 20
42.66137563351271
 10
19.97918400345861
 20
41.52069811648056
 10
21.12085289418974
 20
40.15188333664031
 10
21.92002071868865
 20
39.2393408831644
 10
22.14835210275487
 20
38.09866116687948
 10
22.60501886102065
 20
35.47510023860326
 10
22.60501886102065
 20
33.19374300528665
 10
22.60501886102065
 20
31.1405230347786
 10
22.60501886102065
 20
29.77170825493835
  0
LWPOLYLINE
  5
19E
102
{ACAD_REACTORS
330
190
102
}
330
18F
100
AcDbEntity
  8
Drawing
100
AcDbPolyline
 90
        9
 70
     1
 43
0.0
 10
13.92834646383562
 20
33.53594670024671
 10
14.95584567240076
 20
34.67662641653118
 10
14.95584567240076
 20
35.24696517504748
 10
13.92834646383562
 20
35.47510023860326
 10
12.67251188107184
 20
35.47510023860326
 10
12.55834219890494
 20
34.10628765801533
 10
13.01500895717072
 20
33.30781163669093
 10
13.47167970556984
 20
33.19374300528665
 10
13.58584539760341
 20
33.30781163669093
  0
LWPOLYLINE
  5
19F
102
{ACAD_REACTORS
330
190
102
}
330
18F
100
AcDbEntity
  8
Drawing
100
AcDbPolyline
 90
        7
 70
     1
 43
0.0
 10
20.66418613592396
 20
33.42188026809521
 10
21.46334997028953
 20
33.76408396305527
 10
21.46334997028953
 20
34.33442272157112
 10
21.92002071868865
 20
35.58916887000754
 10
21.00668321202374
 20
35.81730393356332
 10
20.55001645375796
 20
35.01883011149124
 10
20.55001645375796
 20
33.87815039520677
  0
LWPOLYLINE
  5
1A0
330
18F
100
AcDbEntity
  8
Drawing
100
AcDbPolyline
 90
        8
 70
     1
 43
0.0
 10
14.61334460616854
 20
42.77544426491653
 10
15.86917918893232
 20
42.09103687499641
 10
17.6958502121297
 20
42.43324056995647
 10
18.03834728822858
 20
43.23171439202855
 10
17.92418159619592
 20
44.03019041335295
 10
16.78251270546389
 20
44.6005291718688
 10
15.86917918893232
 20
44.25832547690874
 10
14.8416799803681
 20
43.57391808698861
  0
MTEXT
  5
1A1
330
18F
100
AcDbEntity
  8
Drawing
100
AcDbMText
 10
62.66031046420756
 20
31.1246538696771
 30
0.0
 40
2.5
 41
9.444444444444445
 46
0.0
 71
     1
 72
     5
  1
{\fArial|b0|i0|c0|p34;N}
 73
     1
 44
1.0
  0
LWPOLYLINE
  5
1A2
330
18F
100
AcDbEntity
  8
Drawing
100
AcDbPolyline
 90
        6
 70
     1
 43
0.0
 10
98.76220187633885
 20
26.67233818087419
 10
98.95913951016519
 20
27.45940630284178
 10
98.95913951016519
 20
27.45940630284178
 10
98.36832660868617
 20
27.45940630284178
 10
98.43397189911957
 20
27.13146109011257
 10
98.56526424251251
 20
26.80351636311156
  0
LWPOLYLINE
  5
1A3
330
18F
100
AcDbEntity
  8
Drawing
100
AcDbPolyline
 90
       11
 70
     1
 43
0.0
 10
86.55206505405408
 20
26.14762593765306
 10
87.4054617610559
 20
26.54115999863689
 10
87.47110793275237
 20
26.93469405962065
 10
87.4054617610559
 20
27.13146109011257
 10
87.01158649340323
 20
27.52499515109639
 10
86.74900268788042
 20
27.52499515109639
 10
86.42077359192433
 20
27.39381745458724
 10
86.28948212979446
 20
27.13146109011257
 10
86.15818978640152
 20
26.67233818087419
 10
86.09254449596813
 20
26.34439296814497
 10
86.15818978640152
 20
26.27880411989042
  0
LWPOLYLINE
  5
1A4
330
18F
100
AcDbEntity
  8
Drawing
100
AcDbPolyline
 90
        9
 70
     1
 43
0.0
 10
83.33541674113644
 20
27.52499515109639
 10
83.20412527900658
 20
27.91852921208016
 10
83.00718764518024
 20
28.24647442480938
 10
82.74460383965743
 20
28.44324145530129
 10
82.48202003413462
 20
28.44324145530129
 10
82.21943622861181
 20
28.44324145530129
 10
82.02249859478547
 20
27.91852921208016
 10
82.61331149626449
 20
27.39381745458724
 10
83.07283293561363
 20
27.32822812060448
  0
LWPOLYLINE
  5
1A5
330
18F
100
AcDbEntity
  8
Drawing
100
AcDbPolyline
 90
       12
 70
     1
 43
0.0
 10
102.3156425190313
 20
26.86767911341542
 10
104.2564773883555
 20
26.29733999315187
 10
104.94147793047
 20
26.41140791435021
 10
105.2839782015272
 20
27.0958149558121
 10
105.2839782015272
 20
27.89428991847234
 10
103.7998103602793
 20
28.35056111753755
 10
102.8864763041266
 20
28.35056111753755
 10
101.7448087339359
 20
28.35056111753755
 10
100.488974406726
 20
28.35056111753755
 10
101.0598081918214
 20
27.55208615487732
 10
101.973142247974
 20
27.32395079820884
 10
102.3156425190313
 20
26.98174703461376
  0
MTEXT
  5
1A6
330
18F
100
AcDbEntity
  8
Drawing
100
AcDbMText
 10
92.66926933973753
 20
18.87460119135585
 30
0.0
 40
2.5
 41
9.444444444444445
 46
0.0
 71
     1
 72
     5
  1
{\fArial|b0|i0|c0|p34;5.58}
 73
     1
 44
1.0
  0
LWPOLYLINE
  5
1A7
330
18F
100
AcDbEntity
  8
Drawing
100
AcDbPolyline
 90
        2
 70
     0
 43
0.0
 10
96.640826154955
 20
14.79875398949076
 10
95.27082507072612
 20
12.97366822177355
  0
LWPOLYLINE
  5
1A8
330
18F
100
AcDbEntity
  8
Drawing
100
AcDbPolyline
 90
        2
 70
     0
 43
0.0
 10
96.754992911974
 20
14.68468606829242
 10
97.89666048216475
 20
12.85960078630342
  0
LWPOLYLINE
  5
1A9
330
18F
100
AcDbEntity
  8
Drawing
100
AcDbPolyline
 90
        8
 70
     1
 43
0.0
 10
100.3377029469494
 20
24.70466787595524
 10
100.862869676732
 20
25.16379078519361
 10
100.862869676732
 20
25.49173599792283
 10
100.0094738509933
 20
25.68850302841469
 10
99.68124387377406
 20
25.49173599792283
 10
99.74689004547054
 20
25.16379078519361
 10
99.8781815076004
 20
25.09820193693901
 10
100.3377029469494
 20
25.03261260295625
  0
LWPOLYLINE
  5
1AA
330
18F
100
AcDbEntity
  8
Drawing
100
AcDbPolyline
 90
        9
 70
     1
 43
0.0
 10
84.51704254409435
 20
27.59058448507909
 10
84.9765639834435
 20
27.787351515571
 10
84.32010491026801
 20
28.50883030355584
 10
83.86058347091887
 20
28.90236436453966
 10
83.59800054665925
 20
29.03354254677697
 10
83.1384791073101
 20
28.70559733404775
 10
83.33541674113644
 20
28.11529624257207
 10
83.33541674113644
 20
27.72176218158825
 10
83.86058347091887
 20
27.6561733333337
  0
MTEXT
  5
1AB
330
18F
100
AcDbEntity
  8
Drawing
100
AcDbMText
 10
95.73187814539244
 20
40.65428287445758
 30
0.0
 40
2.5
 41
9.444444444444445
 46
0.0
 71
     1
 72
     5
  1
{\fArial|b0|i0|c0|p34;5.78}
 73
     1
 44
1.0
  0
LWPOLYLINE
  5
1AC
330
18F
100
AcDbEntity
  8
Drawing
100
AcDbPolyline
 90
       10
 70
     1
 43
0.0
 10
93.37923871006842
 20
29.09913139503152
 10
94.23263453580716
 20
29.23030957726888
 10
95.08603124280887
 20
29.36148775950619
 10
95.21732358620193
 20
28.83677551628506
 10
94.75780214685278
 20
28.50883030355584
 10
94.1013430736773
 20
28.44324145530129
 10
93.37923871006842
 20
28.24647442480938
 10
92.78842492732633
 20
28.44324145530129
 10
92.39454965967366
 20
28.83677551628506
 10
92.78842492732633
 20
29.09913139503152
  0
LWPOLYLINE
  5
1AD
330
18F
100
AcDbEntity
  8
Drawing
100
AcDbPolyline
 90
        2
 70
     0
 43
0.0
 10
99.52328186432669
 20
36.93843020241349
 10
98.15328078009782
 20
35.11334443469627
  0
LWPOLYLINE
  5
1AE
330
18F
100
AcDbEntity
  8
Drawing
100
AcDbPolyline
 90
        2
 70
     0
 43
0.0
 10
99.6374486213457
 20
36.82436228121514
 10
100.7791161915364
 20
34.99927699922614
  0
HATCH
  5
1AF
330
18F
100
AcDbEntity
  8
Drawing
 62
     1
100
AcDbHatch
 10
0.0
 20
0.0
 30
0.0
210
0.0
220
0.0
230
1.0
  2
SOLID
 70
     1
 71
     0
 91
       10
 92
        7
 72
     0
 73
     1
 93
        3
 10
188.0480798578475
 20
26.60000936832688
 10
187.1161617248433
 20
26.22756513940038
 10
188.0480798578475
 20
25.11023245262083
 97
        0
 92
        7
 72
     0
 73
     1
 93
        5
 10
187.1358438555529
 20
33.15041775123183
 10
187.1387704827868
 20
33.17673446103771
 10
187.1161617248436
 20
33.58333951072251
 10
185.9978599652386
 20
32.46600682394302
 10
187.1358438555528
 20
31.94123839806599
 97
        0
 92
        7
 72
     0
 73
     1
 93
        7
 10
184.8592769547436
 20
40.23475277623038
 10
184.7069460779404
 20
40.36520903117605
 10
184.7069460779405
 20
40.53915052289648
 10
184.5067909524324
 20
40.93911388204469
 10
183.957699644176
 20
39.99863018654514
 10
183.8986988691644
 20
39.82178119526503
 10
185.0659418322349
 20
39.82178119526503
 97
        0
 92
        7
 72
     0
 73
     1
 93
        3
 10
173.1373888485208
 20
42.2426689261514
 10
171.7059468434002
 20
41.06485564227
 10
172.6938223745818
 20
40.73584967713356
 97
        0
 92
        7
 72
     0
 73
     1
 93
        4
 10
165.8889799008535
 20
33.35018121273714
 10
165.7692591719905
 20
33.11638433645174
 10
165.3092765312873
 20
31.81422905902554
 10
166.5207701041925
 20
31.90734023768931
 97
        0
 92
        7
 72
     0
 73
     1
 93
        5
 10
163.3430646454525
 20
22.35835874943473
 10
163.3216318562788
 20
22.3715367287756
 10
163.3079044876902
 20
21.94635878194242
 10
163.4305826222966
 20
20.78192650590876
 10
164.3567192158166
 20
21.58388274606472
 97
        0
 92
        7
 72
     0
 73
     1
 93
        4
 10
166.2411946642915
 20
12.44712721193662
 10
165.4546657320418
 20
12.35981072476505
 10
165.4686699466603
 20
12.28052242013121
 10
166.2411946642914
 20
11.42290521809269
 97
        0
 92
        7
 72
     0
 73
     1
 93
        5
 10
172.6281015990486
 20
6.536630040032207
 10
172.5782379687186
 20
6.860462806583314
 10
171.7812177346465
 20
6.661380500584528
 10
171.4901238137004
 20
6.559585861207836
 10
172.6281015990487
 20
5.74744874786586
 97
        0
 92
        7
 72
     0
 73
     1
 93
        4
 10
187.022969911543
 20
8.164017850689902
 10
186.0731974608025
 20
8.61058228281155
 10
185.4430746808069
 20
8.81294642588989
 10
185.5319008987367
 20
6.860462806583143
 97
        0
 92
        7
 72
     0
 73
     1
 93
        3
 10
189.4551918354385
 20
17.53132862149846
 10
188.7443466260678
 20
17.07475285916183
 10
189.7255324972544
 20
16.4509030371924
 97
        0
 75
     0
 76
     1
 47
0.0740232987626095
 98
       10
 10
187.6119418543468
 20
25.78133005609027
 10
186.7228918849601
 20
32.36940374535862
 10
184.5743538714331
 20
40.06782680729299
 10
172.4980923747706
 20
41.4002462487835
 10
166.0524809779791
 20
32.22135719471834
 10
163.6816813533686
 20
21.63602518097844
 10
165.9043062768357
 20
12.16104302563275
 10
171.979480480137
 20
6.461249125934103
 10
185.9079288255133
 20
7.941715118064906
 10
189.0936915095705
 20
16.97255762148984
450
        1
451
        0
460
0.0
461
0.0
452
        1
462
0.3899999856948853
453
        2
463
0.0
 63
     1
421
 16711680
463
1.0
 63
    12
421
 13041664
470
LINEAR
  0
LWPOLYLINE
  5
1B2
330
18F
100
AcDbEntity
  8
Drawing
100
AcDbPolyline
 90
        3
 70
     1
 43
0.0
 10
184.5067909524323
 20
40.93911388204447
 10
183.8544482593296
 20
39.82178119526509
 10
185.0659418322348
 20
39.82178119526509
  0
LWPOLYLINE
  5
1B3
330
18F
100
AcDbEntity
  8
Drawing
100
AcDbPolyline
 90
        2
 70
     0
 43
0.0
 10
180.0460872752788
 20
21.05917098857168
 10
194.3568918979566
 20
23.02684129349069
  0
LWPOLYLINE
  5
1B4
330
18F
100
AcDbEntity
  8
Drawing
100
AcDbPolyline
 90
        3
 70
     0
 43
0.0
 10
182.8032150301106
 20
25.32245681113886
 10
186.6763224162037
 20
26.04393608485191
 10
187.9235943908581
 20
26.63423717632759
  0
LWPOLYLINE
  5
1B5
330
18F
100
AcDbEntity
  8
Drawing
100
AcDbPolyline
 90
        3
 70
     0
 43
0.0
 10
183.6566117371123
 20
20.33769171485869
 10
186.7419685879001
 20
20.468869897096
 10
187.8579491004247
 20
21.25593801906359
  0
LWPOLYLINE
  5
1B6
330
18F
100
AcDbEntity
  8
Drawing
100
AcDbPolyline
 90
        2
 70
     0
 43
0.0
 10
184.6412999062439
 20
16.46793995327528
 10
188.3831158302072
 20
16.92706286251365
  0
LWPOLYLINE
  5
1B7
330
18F
100
AcDbEntity
  8
Drawing
100
AcDbPolyline
 90
        3
 70
     0
 43
0.0
 10
182.0154644948052
 20
11.54876370524966
 10
185.2977589794194
 20
8.859614612345865
 10
187.1358438555528
 20
8.269313035141977
  0
LWPOLYLINE
  5
1B8
330
18F
100
AcDbEntity
  8
Drawing
100
AcDbPolyline
 90
        3
 70
     0
 43
0.0
 10
186.9389062217265
 20
33.84902797054508
 10
186.0855095147247
 20
32.79960396983103
 10
181.6872345175859
 20
30.30722142169088
  0
LWPOLYLINE
  5
1B9
330
18F
100
AcDbEntity
  8
Drawing
100
AcDbPolyline
 90
        2
 70
     0
 43
0.0
 10
184.0504870047649
 20
39.75203937103021
 10
185.1664675172896
 20
39.62086118879284
  0
LWPOLYLINE
  5
1BA
330
18F
100
AcDbEntity
  8
Drawing
100
AcDbPolyline
 90
       54
 70
     0
 43
0.0
 10
184.7069460779404
 20
41.41463351761831
 10
184.7069460779404
 20
40.36520903117605
 10
185.6259880753755
 20
39.57814090920846
 10
186.4793847823773
 20
39.05342915171553
 10
187.5297191232054
 20
37.21693654330568
 10
187.4640738327722
 20
35.18367739013217
 10
187.2671361989458
 20
34.33101993418182
 10
187.1358438555528
 20
33.15041775123041
 10
187.1358438555528
 20
30.98598041581954
 10
187.5297191232054
 20
29.80537823286818
 10
188.1205320246844
 20
28.62477604991676
 10
188.2518243680773
 20
27.90329677620377
 10
188.054886734251
 20
25.67327010681009
 10
188.3174696585107
 20
23.7711891358739
 10
187.8579491004247
 20
21.60675131473482
 10
187.9235943908581
 20
20.62291616227532
 10
188.4487620019037
 20
19.5079028275785
 10
189.4990963427318
 20
17.80258888713422
 10
189.7616792669916
 20
16.68757555243741
 10
189.6303878048617
 20
15.24461700501132
 10
189.1052210750792
 20
12.65124088122411
 10
188.7769910978599
 20
10.35562536357588
 10
187.2014900272493
 20
8.12559917991041
 10
185.6259880753755
 20
6.879407662976291
 10
183.328381759893
 20
5.436449601278412
 10
180.3086710808017
 20
3.993491053852381
 10
178.9301076440173
 20
3.66554632685137
 10
177.5515433259699
 20
3.468779296359457
 10
175.5165208160101
 20
3.599956992868613
 10
174.7944164524014
 20
4.124669236089744
 10
173.1532692100942
 20
5.174093236803799
 10
171.9716425258732
 20
6.157928874991455
 10
170.8556628946117
 20
6.61705178422983
 10
169.4770985765642
 20
8.519133240894234
 10
167.7703051625607
 20
9.830913606082959
 10
166.6543255312993
 20
10.74915942455971
 10
165.4726997283412
 20
12.25770682024029
 10
165.0788235794255
 20
14.48773348963391
 10
164.1597815819904
 20
15.93069155133179
 10
163.831551604771
 20
17.8327730079962
 10
163.372031046685
 20
19.27573155542223
 10
163.3063848749886
 20
21.89929180007147
 10
163.372031046685
 20
23.93255143897323
 10
163.831551604771
 20
26.62170101760523
 10
164.2254277536869
 20
28.52378198854143
 10
164.5536568496429
 20
30.16350756645937
 10
165.4726997283412
 20
32.53724760535636
 10
166.9169093368221
 20
35.35757536622566
 10
167.9015975059536
 20
36.93171161016085
 10
169.0175771372152
 20
38.6370260363334
 10
170.8556628946117
 20
40.34234046250589
 10
172.3655177935258
 20
41.85088737245832
 10
173.6784359398767
 20
42.63795598015406
 10
174.8600617428347
 20
43.49061295037626
  0
MTEXT
  5
1BB
330
18F
100
AcDbEntity
  8
Drawing
100
AcDbMText
 10
126.9750971454863
 20
30.58466207494564
 30
0.0
 40
2.5
 41
9.444444444444445
 46
0.0
 71
     1
 72
     5
  1
{\fArial|b0|i0|c0|p34;S}
 73
     1
 44
1.0
  0
LWPOLYLINE
  5
1BC
330
18F
100
AcDbEntity
  8
Drawing
100
AcDbPolyline
 90
        2
 70
     0
 43
0.0
 10
117.8651567638082
 20
29.23030957726888
 10
119.0467825667662
 20
29.23030957726888
  0
LWPOLYLINE
  5
1BD
330
18F
100
AcDbEntity
  8
Drawing
100
AcDbPolyline
 90
        2
 70
     0
 43
0.0
 10
118.7185525895468
 20
29.23030957726888
 10
120.2940545414206
 20
29.29589842552343
  0
LWPOLYLINE
  5
1BE
330
18F
100
AcDbEntity
  8
Drawing
100
AcDbPolyline
 90
        2
 70
     0
 43
0.0
 10
117.0117600568063
 20
29.36148775950619
 10
118.0620943976345
 20
29.23030957726888
  0
LWPOLYLINE
  5
1BF
330
18F
100
AcDbEntity
  8
Drawing
100
AcDbPolyline
 90
        3
 70
     0
 43
0.0
 10
163.372031046685
 20
20.73122577584246
 10
164.3567192158167
 20
21.58388274606466
 10
166.5230331879062
 20
21.91182795879388
  0
LWPOLYLINE
  5
1C0
330
18F
100
AcDbEntity
  8
Drawing
100
AcDbPolyline
 90
        3
 70
     1
 43
0.0
 10
164.4705502115838
 20
21.66512272789095
 10
163.4454402652794
 20
20.64090121977523
 10
163.2590566386787
 20
22.41001118574388
  0
LWPOLYLINE
  5
1C1
330
18F
100
AcDbEntity
  8
Drawing
100
AcDbPolyline
 90
        2
 70
     0
 43
0.0
 10
164.3567192158167
 20
21.58388274606466
 10
163.2407387032921
 20
22.43654020201501
  0
LWPOLYLINE
  5
1C2
330
18F
100
AcDbEntity
  8
Drawing
100
AcDbPolyline
 90
        3
 70
     1
 43
0.0
 10
166.2411946642914
 20
12.44712721193656
 10
166.2411946642914
 20
11.42290521809264
 10
165.4024683445878
 20
12.3540160332729
  0
LWPOLYLINE
  5
1C3
330
18F
100
AcDbEntity
  8
Drawing
100
AcDbPolyline
 90
        3
 70
     1
 43
0.0
 10
172.5782379687184
 20
6.8604628065832
 10
172.7646215953192
 20
5.650018941140104
 10
171.4599362091136
 20
6.581129756320365
  0
LWPOLYLINE
  5
1C4
330
18F
100
AcDbEntity
  8
Drawing
100
AcDbPolyline
 90
        2
 70
     0
 43
0.0
 10
172.6281015990486
 20
6.826354973444097
 10
172.6281015990486
 20
5.711341638747285
  0
LWPOLYLINE
  5
1C5
330
18F
100
AcDbEntity
  8
Drawing
100
AcDbPolyline
 90
        3
 70
     0
 43
0.0
 10
171.3151834526977
 20
6.498409760714878
 10
172.6281015990486
 20
6.95753315568146
 10
175.056999376661
 20
10.30257267404369
  0
LWPOLYLINE
  5
1C6
330
18F
100
AcDbEntity
  8
Drawing
100
AcDbPolyline
 90
        2
 70
     0
 43
0.0
 10
166.5230331879062
 20
12.53259934343731
 10
165.4070535566448
 20
12.53259934343731
  0
LWPOLYLINE
  5
1C7
330
18F
100
AcDbEntity
  8
Drawing
100
AcDbPolyline
 90
        3
 70
     0
 43
0.0
 10
166.32609555408
 20
11.35199667475774
 10
166.4573878974729
 20
12.53259934343731
 10
170.5274329173924
 20
15.35292661857846
  0
LWPOLYLINE
  5
1C8
330
18F
100
AcDbEntity
  8
Drawing
100
AcDbPolyline
 90
        8
 70
     1
 43
0.0
 10
179.7178581793227
 20
5.973698003221955
 10
179.1270452778436
 20
5.711341638747285
 10
179.0613991061472
 20
5.317807577763517
 10
179.0613991061472
 20
5.121040547271605
 10
180.1117334469753
 20
5.055451699017055
 10
180.1117334469753
 20
5.58016394223813
 10
179.9804419848455
 20
6.170465033713867
 10
179.6522120076262
 20
5.973698003221955
  0
LWPOLYLINE
  5
1C9
330
18F
100
AcDbEntity
  8
Drawing
100
AcDbPolyline
 90
        8
 70
     1
 43
0.0
 10
179.8491496414525
 20
8.138135338632821
 10
180.5712548863245
 20
8.138135338632821
 10
180.7681925201507
 20
8.531669399616646
 10
180.7681925201507
 20
8.794025278363108
 10
180.2430249091051
 20
8.99079230885502
 10
179.6522120076262
 20
8.99079230885502
 10
179.192690568277
 20
8.925203460600414
 10
179.192690568277
 20
8.269313035141977
  0
LWPOLYLINE
  5
1CA
330
18F
100
AcDbEntity
  8
Drawing
100
AcDbPolyline
 90
        6
 70
     1
 43
0.0
 10
178.1423562274489
 20
9.05638164283772
 10
178.6675238384945
 20
9.253148673329633
 10
178.4705862046682
 20
9.843449764805314
 10
178.2736485708418
 20
9.90903861305992
 10
177.8797733031893
 20
9.515504552076095
 10
177.9454185936225
 20
9.31873752158424
  0
LWPOLYLINE
  5
1CB
330
18F
100
AcDbEntity
  8
Drawing
100
AcDbPolyline
 90
        7
 70
     1
 43
0.0
 10
177.0263765961874
 20
10.17139449180638
 10
177.3546056921437
 20
10.63051788677291
 10
177.1576680583173
 20
10.82728491726482
 10
176.6981466189682
 20
11.15522964426589
 10
176.2386260608821
 20
11.02405194775673
 10
176.1729798891856
 20
10.56492855279015
 10
176.3042713513155
 20
10.30257267404369
  0
LWPOLYLINE
  5
1CC
330
18F
100
AcDbEntity
  8
Drawing
100
AcDbPolyline
 90
        8
 70
     1
 43
0.0
 10
174.7944164524014
 20
24.9289227501551
 10
175.4508746443137
 20
25.06010044666425
 10
175.5821669877066
 20
25.25686747715611
 10
175.7134584498365
 20
25.78157972037724
 10
175.2539370104873
 20
26.24070311534382
 10
174.7944164524014
 20
26.24070311534382
 10
174.5318326468786
 20
25.84716905435999
 10
174.4661864751821
 20
25.38804565939347
  0
LWPOLYLINE
  5
1CD
330
18F
100
AcDbEntity
  8
Drawing
100
AcDbPolyline
 90
       10
 70
     1
 43
0.0
 10
172.1685801596994
 20
24.33862165867941
 10
172.4968101369188
 20
23.94508759769559
 10
172.5624554273521
 20
23.68273123322092
 10
173.0876230383977
 20
23.68273123322092
 10
173.4158521343539
 20
24.07626529420475
 10
173.4158521343539
 20
24.46979935518851
 10
173.0219768667013
 20
24.79774456791779
 10
172.5624554273521
 20
24.99451159840964
 10
172.1685801596994
 20
24.99451159840964
 10
172.1685801596994
 20
24.66656638568043
  0
LWPOLYLINE
  5
1CE
330
18F
100
AcDbEntity
  8
Drawing
100
AcDbPolyline
 90
        7
 70
     1
 43
0.0
 10
170.3304952835661
 20
22.56771838425232
 10
170.9869543567415
 20
23.09243014174524
 10
170.5274329173924
 20
23.55155353671182
 10
170.2648491118696
 20
23.55155353671182
 10
169.8709738442169
 20
23.55155353671182
 10
169.739682382087
 20
23.158019475728
 10
170.3304952835661
 20
22.76448541474423
  0
LWPOLYLINE
  5
1CF
330
18F
100
AcDbEntity
  8
Drawing
100
AcDbPolyline
 90
        7
 70
     1
 43
0.0
 10
168.6237018695625
 20
20.60004759360515
 10
170.1335576497397
 20
21.51829389781005
 10
169.2145147710414
 20
22.10859498928579
 10
168.2954727736063
 20
22.2397731715231
 10
167.7703051625607
 20
22.17418432326849
 10
167.9015975059536
 20
20.66563692758791
 10
168.2954727736063
 20
20.468869897096
  0
LWPOLYLINE
  5
1D0
330
18F
100
AcDbEntity
  8
Drawing
100
AcDbPolyline
 90
        2
 70
     0
 43
0.0
 10
177.6171894976665
 20
20.99358165458892
 10
178.7988153006244
 20
19.41944541065374
  0
LWPOLYLINE
  5
1D1
330
18F
100
AcDbEntity
  8
Drawing
100
AcDbPolyline
 90
        2
 70
     0
 43
0.0
 10
177.6828356693629
 20
20.99358165458892
 10
176.7637927906646
 20
19.5506235928911
  0
LWPOLYLINE
  5
1D2
330
18F
100
AcDbEntity
  8
Drawing
100
AcDbPolyline
 90
        2
 70
     0
 43
0.0
 10
166.3917417257765
 20
32.01253536213522
 10
165.2757612132518
 20
31.81576833164331
  0
LWPOLYLINE
  5
1D3
330
18F
100
AcDbEntity
  8
Drawing
100
AcDbPolyline
 90
        3
 70
     0
 43
0.0
 10
171.7090587203504
 20
41.06381925049072
 10
172.6937477707451
 20
40.73587452348966
 10
174.3348950130522
 20
36.8661227619063
  0
LWPOLYLINE
  5
1D4
330
18F
100
AcDbEntity
  8
Drawing
100
AcDbPolyline
 90
        5
 70
     0
 43
0.0
 10
184.2474246385913
 20
40.86705221999881
 10
183.8535493709386
 20
39.68645003704745
 10
181.8841721514123
 20
38.37466967185873
 10
180.6369001767578
 20
37.12847864065276
 10
180.5056087146279
 20
36.93171161016085
  0
LWPOLYLINE
  5
1D5
330
18F
100
AcDbEntity
  8
Drawing
100
AcDbPolyline
 90
        9
 70
     1
 43
0.0
 10
176.1729798891856
 20
35.02963015349644
 10
176.2386260608821
 20
35.68552057895488
 10
175.5165208160101
 20
36.01346530595595
 10
175.056999376661
 20
36.0790546399387
 10
174.7944164524014
 20
35.88228760944679
 10
174.2036026696593
 20
35.35757536622566
 10
174.8600617428347
 20
35.22639718398835
 10
175.4508746443137
 20
35.02963015349644
 10
175.4508746443137
 20
35.02963015349644
  0
LWPOLYLINE
  5
1D6
330
18F
100
AcDbEntity
  8
Drawing
100
AcDbPolyline
 90
        3
 70
     1
 43
0.0
 10
165.8684274110898
 20
33.39711763912328
 10
166.5207701041926
 20
31.90734023768925
 10
165.3092765312874
 20
31.81422905902559
  0
LWPOLYLINE
  5
1D7
330
18F
100
AcDbEntity
  8
Drawing
100
AcDbPolyline
 90
        3
 70
     0
 43
0.0
 10
166.0635126298203
 20
33.45549390956126
 10
166.5230331879062
 20
32.01253536213522
 10
170.2648491118696
 20
29.78250917846975
  0
LWPOLYLINE
  5
1D8
330
18F
100
AcDbEntity
  8
Drawing
100
AcDbPolyline
 90
       10
 70
     1
 43
0.0
 10
182.1467559569351
 20
33.25872687906934
 10
182.8032150301106
 20
33.32431572732395
 10
182.8032150301106
 20
33.78343912229047
 10
182.6719235679807
 20
34.1769731832743
 10
182.1467559569351
 20
34.70168494076722
 10
181.8841721514123
 20
34.57050724425807
 10
181.6872345175859
 20
33.98020615278239
 10
181.6215892271525
 20
33.71784978830772
 10
181.4246515933262
 20
33.58667209179862
 10
181.6215892271525
 20
33.32431572732395
  0
LWPOLYLINE
  5
1D9
330
18F
100
AcDbEntity
  8
Drawing
100
AcDbPolyline
 90
        3
 70
     1
 43
0.0
 10
171.5531280224141
 20
40.93911388204447
 10
173.1373888485208
 20
42.24266892615123
 10
172.6714297820188
 20
40.65978083178169
  0
LWPOLYLINE
  5
1DA
330
18F
100
AcDbEntity
  8
Drawing
100
AcDbPolyline
 90
        2
 70
     0
 43
0.0
 10
173.2189145005276
 20
42.44118894966221
 10
172.8906854045714
 20
40.93264155398157
  0
LWPOLYLINE
  5
1DB
330
18F
100
AcDbEntity
  8
Drawing
100
AcDbPolyline
 90
       21
 70
     1
 43
0.0
 10
181.9498183231087
 20
45.39269440704066
 10
182.6719235679807
 20
45.06474919431145
 10
183.0001526639369
 20
45.06474919431145
 10
183.7222579088087
 20
44.93357101207408
 10
184.0504870047649
 20
44.93357101207408
 10
184.8382375400703
 20
44.08091404185194
 10
184.8382375400703
 20
42.90031185890058
 10
184.5756537345475
 20
42.24442143344208
 10
184.3787161007211
 20
41.26058628098264
 10
183.6566117371123
 20
41.06381925049072
 10
183.2627364694597
 20
41.06381925049072
 10
182.6719235679807
 20
41.26058628098264
 10
181.8185268609789
 20
41.71970967594916
 10
181.6215892271525
 20
41.91647670644107
 10
180.8994839822806
 20
42.70354482840867
 10
180.4399625429314
 20
42.5723666461713
 10
180.0460872752788
 20
42.96590070715513
 10
179.5865667171928
 20
44.14650289010649
 10
179.8491496414525
 20
44.93357101207408
 10
180.965130153977
 20
45.06474919431145
 10
181.1620677878034
 20
45.13033804256605
  0
LWPOLYLINE
  5
1DC
330
18F
100
AcDbEntity
  8
Drawing
100
AcDbPolyline
 90
       12
 70
     1
 43
0.0
 10
178.6675238384945
 20
45.72063913404173
 10
179.2583367399735
 20
44.99916034605684
 10
179.7835043510191
 20
44.99916034605684
 10
180.7025463484542
 20
44.99916034605684
 10
181.6872345175859
 20
45.98299549851635
 10
181.6215892271525
 20
47.36036471195968
 10
181.1620677878034
 20
47.95066580343536
 10
180.7025463484542
 20
47.75389877294339
 10
179.8491496414525
 20
47.36036471195968
 10
179.3896282021034
 20
46.70447477222939
 10
178.8644614723208
 20
46.31094071124556
 10
178.8644614723208
 20
46.1797625290082
  0
LWPOLYLINE
  5
1DD
330
18F
100
AcDbEntity
  8
Drawing
100
AcDbPolyline
 90
       15
 70
     1
 43
0.0
 10
175.1882917200541
 20
43.29384591988435
 10
175.2539370104873
 20
44.67121513332762
 10
176.1073337174892
 20
45.13033804256605
 10
176.3042713513155
 20
45.45828325529527
 10
177.0263765961874
 20
46.04858434677095
 10
177.8797733031893
 20
45.91740665026174
 10
178.4705862046682
 20
45.72063913404173
 10
178.733170010191
 20
45.19592737654881
 10
179.0613991061472
 20
44.14650289010649
 10
179.0613991061472
 20
43.75296882912272
 10
178.6675238384945
 20
43.62179113261357
 10
178.2736485708418
 20
43.29384591988435
 10
177.6171894976665
 20
43.16266773764704
 10
176.3042713513155
 20
43.2282570716298
 10
175.7134584498365
 20
43.29384591988435
  0
LWPOLYLINE
  5
1DE
330
18F
100
AcDbEntity
  8
Drawing
100
AcDbPolyline
 90
        3
 70
     1
 43
0.0
 10
187.0229699115431
 20
8.164017850689902
 10
185.5319008987367
 20
6.8604628065832
 10
185.4387090854364
 20
8.90890630854284
  0
LWPOLYLINE
  5
1DF
330
18F
100
AcDbEntity
  8
Drawing
100
AcDbPolyline
 90
        2
 70
     0
 43
0.0
 10
185.4290504415492
 20
8.728436430108502
 10
185.4946966132458
 20
7.088710852190559
  0
LWPOLYLINE
  5
1E0
330
18F
100
AcDbEntity
  8
Drawing
100
AcDbPolyline
 90
        3
 70
     1
 43
0.0
 10
189.4459570573534
 20
17.56823572397161
 10
189.7255324972547
 20
16.45090303719223
 10
188.7004225509503
 20
17.10268031638151
  0
LWPOLYLINE
  5
1E1
330
18F
100
AcDbEntity
  8
Drawing
100
AcDbPolyline
 90
        3
 70
     1
 43
0.0
 10
187.6753126046459
 20
21.29267849896451
 10
188.2344634844482
 20
20.08223463352141
 10
186.9297780982427
 20
20.45467886244791
  0
LWPOLYLINE
  5
1E2
330
18F
100
AcDbEntity
  8
Drawing
100
AcDbPolyline
 90
        3
 70
     1
 43
0.0
 10
188.0480798578475
 20
26.60000936832688
 10
188.0480798578475
 20
25.11023245262101
 10
187.1161617248434
 20
26.22756513940038
  0
LWPOLYLINE
  5
1E3
330
18F
100
AcDbEntity
  8
Drawing
100
AcDbPolyline
 90
        2
 70
     0
 43
0.0
 10
187.004552393423
 20
26.17511378136106
 10
187.8579491004247
 20
25.32245681113886
  0
LWPOLYLINE
  5
1E4
330
18F
100
AcDbEntity
  8
Drawing
100
AcDbPolyline
 90
        2
 70
     0
 43
0.0
 10
186.9389062217265
 20
20.468869897096
 10
188.054886734251
 20
20.07533583611223
  0
LWPOLYLINE
  5
1E5
330
18F
100
AcDbEntity
  8
Drawing
100
AcDbPolyline
 90
        3
 70
     0
 43
0.0
 10
189.4334501710354
 20
17.51736395398933
 10
188.5144072923371
 20
16.92706286251365
 10
189.4990963427318
 20
16.40235110502073
  0
LWPOLYLINE
  5
1E6
330
18F
100
AcDbEntity
  8
Drawing
100
AcDbPolyline
 90
        2
 70
     0
 43
0.0
 10
199.9454308392378
 20
21.63865394191475
 10
198.5754297550089
 20
19.81356817419754
  0
LWPOLYLINE
  5
1E7
330
18F
100
AcDbEntity
  8
Drawing
100
AcDbPolyline
 90
        2
 70
     0
 43
0.0
 10
200.0595975962568
 20
21.52458602071641
 10
201.2012651664476
 20
19.69950073872741
  0
MTEXT
  5
1E8
330
18F
100
AcDbEntity
  8
Drawing
100
AcDbMText
 10
195.9323938498304
 20
25.38804565939347
 30
0.0
 40
2.5
 41
0.0
 46
0.0
 71
     1
 72
     5
  1
{\fArial|b0|i0|c0|p34;5.67}
 73
     1
 44
1.0
  0
LWPOLYLINE
  5
1E9
330
18F
100
AcDbEntity
  8
Drawing
100
AcDbPolyline
 90
        3
 70
     1
 43
0.0
 10
187.2093535381439
 20
31.90734023768925
 10
187.1161617248434
 20
33.58333951072245
 10
185.9978599652387
 20
32.46600682394302
  0
LWPOLYLINE
  5
1EA
330
18F
100
AcDbEntity
  8
Drawing
100
AcDbPolyline
 90
        3
 70
     0
 43
0.0
 10
185.6259880753755
 20
32.53724760535636
 10
186.6106771257703
 20
32.07812469611798
 10
186.87326005003
 20
31.94694651388068
  0
ENDBLK
  5
1EC
330
18F
100
AcDbEntity
  8
0
100
AcDbBlockEnd
  0
BLOCK
  5
35D
330
30D
100
AcDbEntity
  8
0
100
AcDbBlockBegin
  2
A$C32F61CBC
 70
     0
 10
0.0
 20
0.0
 30
0.0
  3
A$C32F61CBC
  1

  0
LWPOLYLINE
  5
30E
330
30D
100
AcDbEntity
  8
Drawing
100
AcDbPolyline
 90
       22
 70
     1
 43
0.0
 10
7.864486447419608
 20
14.20482918939479
 10
8.848042318700777
 20
13.22212398218926
 10
9.20569791094897
 20
13.04345010821999
 10
10.63632826020569
 20
13.04345010821999
 10
12.24578441052074
 20
13.04345010821999
 10
14.21289615308308
 20
12.77544039689201
 10
14.74938552665446
 20
11.43538744174748
 10
15.28587091009251
 20
9.73798893791718
 10
15.46469671114994
 20
8.397935982772651
 10
15.55411160674487
 20
7.593904649536398
 10
13.94465545643072
 20
6.87921135291117
 10
12.96109958514955
 20
5.360486723050144
 10
12.24578441052074
 20
5.181812849080416
 10
11.61988413148686
 20
5.003138975111142
 10
9.742183294387019
 20
5.628496434377666
 10
8.669212527510012
 20
5.449822560408393
 10
7.32800106398156
 20
8.66594789335295
 10
7.149171272790795
 20
11.52472327910618
 10
6.433856098161982
 20
13.13278594557823
 10
6.076200505914699
 20
13.93681727881449
 10
6.433856098161982
 20
14.38350086411174
 10
6.880926586005103
 20
14.38350086411174
  0
LWPOLYLINE
  5
30F
330
30D
100
AcDbEntity
  8
Drawing
100
AcDbPolyline
 90
       12
 70
     1
 43
0.0
 10
19.04126859415976
 20
1.07204104046923
 10
18.95185369856483
 20
2.412091796360983
 10
18.95185369856483
 20
3.305461166207806
 10
18.05771272287859
 20
4.020154462833034
 10
17.34239754824978
 20
3.484135040177534
 10
17.07415286146409
 20
2.76943954429953
 10
16.26942678137368
 20
2.501429832972008
 10
16.09059699018292
 20
2.144082085033006
 10
15.91176719899306
 20
1.250714914438504
 10
16.62708237362187
 20
0.3573455445912259
 10
18.41536831512678
 20
-0.0000000040949999
 10
19.04126859415976
 20
0.2680097072329772
  0
LWPOLYLINE
  5
310
330
30D
100
AcDbEntity
  8
Drawing
100
AcDbPolyline
 90
       11
 70
     1
 43
0.0
 10
14.92821132771189
 20
10.72069414512271
 10
16.09059699018292
 20
11.61406131571721
 10
16.53766747802604
 20
12.32875461234244
 10
17.61063824490304
 20
12.68610236028098
 10
18.50478321072171
 20
12.86477623425071
 10
18.68361300191248
 20
12.15008293762548
 10
17.96829782728366
 20
11.07803969380893
 10
17.70005314049797
 20
9.827324775275429
 10
16.80591216481173
 20
8.487274019383676
 10
16.18001188577875
 20
8.397935982772651
 10
15.64352650234071
 20
8.487274019383676
  0
LWPOLYLINE
  5
311
330
30D
100
AcDbEntity
  8
Drawing
100
AcDbPolyline
 90
       11
 70
     1
 43
0.0
 10
17.34239754824978
 20
22.24514032250363
 10
18.68361300191248
 20
22.24514032250363
 10
18.8624388029699
 20
22.87049778177061
 10
18.95185369856483
 20
24.21054853766236
 10
17.96829782728366
 20
24.92524403353991
 10
18.23653852393602
 20
25.81861120413487
 10
16.44825657256445
 20
25.90794704149312
 10
16.09059699018292
 20
25.90794704149312
 10
16.18001188577875
 20
24.47855824899034
 10
15.73294139793563
 20
22.87049778177061
 10
16.7164972692168
 20
22.51315003383161
  0
LWPOLYLINE
  5
312
330
30D
100
AcDbEntity
  8
Drawing
100
AcDbPolyline
 90
        2
 70
     0
 43
0.0
 10
6.344441202567054
 20
25.51699911327387
 10
15.37528181555501
 20
19.79944394326276
  0
LWPOLYLINE
  5
313
330
30D
100
AcDbEntity
  8
Drawing
100
AcDbPolyline
 90
        8
 70
     1
 43
0.0
 10
14.48114083986877
 20
22.15580228589306
 10
15.10704111890175
 20
23.13850749309859
 10
14.03407035202565
 20
24.56789628560136
 10
13.31875517739684
 20
24.65723212295961
 10
12.60344000276802
 20
24.65723212295961
 10
12.33519930611567
 20
23.40651720442611
 10
12.78226979395879
 20
22.33447615986233
 10
13.58699986418253
 20
22.24514032250363
  0
LWPOLYLINE
  5
314
330
30D
100
AcDbEntity
  8
Drawing
100
AcDbPolyline
 90
        7
 70
     1
 43
0.0
 10
5.09264463463353
 20
19.92210285508145
 10
6.880926586005103
 20
20.19011476566175
 10
7.953897352882109
 20
20.19011476566175
 10
8.132727144071964
 20
20.90480806228697
 10
6.076200505914699
 20
21.17281997286727
 10
5.360885331285886
 20
20.636798350959
 10
5.360885331285886
 20
20.10077672905072
  0
LWPOLYLINE
  5
315
330
30D
100
AcDbEntity
  8
Drawing
100
AcDbPolyline
 90
       11
 70
     1
 43
0.0
 10
4.556155261062145
 20
16.4382471158815
 10
5.271470435690958
 20
15.72355381925627
 10
6.433856098161982
 20
15.72355381925627
 10
6.97034148160094
 20
16.25957324191222
 10
7.059756377195868
 20
16.88493290043107
 10
6.255026306972127
 20
17.42095232308702
 10
5.807955819129006
 20
18.04630978235355
 10
4.824399947847837
 20
18.04630978235355
 10
4.377329460004717
 20
18.04630978235355
 10
4.287914564409789
 20
17.06360457514802
 10
4.645570156657072
 20
16.34891127852279
  0
LWPOLYLINE
  5
316
330
30D
100
AcDbEntity
  8
Drawing
100
AcDbPolyline
 90
        5
 70
     1
 43
0.0
 10
7.059756377195868
 20
17.95669463992272
 10
7.238586168386632
 20
19.11807372109797
 10
6.702100784947675
 20
19.38608343242595
 10
6.433856098161982
 20
19.20740955845622
 10
6.612685889352747
 20
18.67138793654794
  0
LWPOLYLINE
  5
317
330
30D
100
AcDbEntity
  8
Drawing
100
AcDbPolyline
 90
        7
 70
     1
 43
0.0
 10
8.579797631915085
 20
16.52758515249252
 10
9.56335749332959
 20
16.52758515249252
 10
10.01042798117271
 20
16.61692098985077
 10
8.669212527510012
 20
17.77830007102602
 10
8.132727144071964
 20
17.5996261970563
 10
7.953897352882109
 20
17.42095232308702
 10
8.222142039667801
 20
16.4382471158815
  0
LWPOLYLINE
  5
318
330
30D
100
AcDbEntity
  8
Drawing
100
AcDbPolyline
 90
        9
 70
     1
 43
0.0
 10
10.72574315580152
 20
17.33161648572877
 10
11.61988413148686
 20
17.33161648572877
 10
12.24578441052074
 20
17.33161648572877
 10
12.24578441052074
 20
18.13564781896457
 10
12.24578441052074
 20
18.93967915220082
 10
11.08339874804881
 20
18.4929933676508
 10
10.36808357341999
 20
18.4929933676508
 10
9.921013085576874
 20
18.31431949368152
 10
10.36808357341999
 20
17.51029035969805
  0
MTEXT
  5
319
330
30D
100
AcDbEntity
  8
Drawing
100
AcDbMText
 10
0.2808999892404245
 20
28.45754728727309
 30
0.0
 40
2.5
 41
0.0
 46
0.0
 71
     1
 72
     5
  1
{\fArial|b0|i0|c0|p34;5.67}
 73
     1
 44
1.0
  0
LWPOLYLINE
  5
31A
330
30D
100
AcDbEntity
  8
Drawing
100
AcDbPolyline
 90
       12
 70
     1
 43
0.0
 10
16.98474195600249
 20
33.68024846327398
 10
18.14712761847443
 20
34.21627008518226
 10
18.68361300191248
 20
35.19897529238779
 10
20.11423936103677
 20
35.02030141841851
 10
21.63428061575598
 20
33.32290071533544
 10
21.81311040694675
 20
31.98284995944323
 10
20.11423936103677
 20
31.89351412208498
 10
19.84599866438441
 20
31.53616637414598
 10
18.95185369856483
 20
31.26815446356568
 10
18.41536831512678
 20
31.26815446356568
 10
17.16356775705992
 20
31.80417608547396
 10
16.7164972692168
 20
33.50157458930471
  0
LWPOLYLINE
  5
31B
330
30D
100
AcDbEntity
  8
Drawing
100
AcDbPolyline
 90
        9
 70
     1
 43
0.0
 10
21.27662502350779
 20
23.40651720442611
 10
23.15432586060854
 20
23.31718136706786
 10
23.69081124404659
 20
23.31718136706786
 10
23.51198145285673
 20
24.29988657427339
 10
21.18721012791286
 20
25.19325374486789
 10
20.38248404782246
 20
25.72927536677616
 10
19.84599866438441
 20
24.47855824899034
 10
19.75658376878857
 20
23.49585524103713
 10
20.47189495328405
 20
23.13850749309859
  0
LWPOLYLINE
  5
31C
330
30D
100
AcDbEntity
  8
Drawing
100
AcDbPolyline
 90
       12
 70
     1
 43
0.0
 10
26.99913844027162
 20
24.21054853766236
 10
28.429764799395
 20
22.69182390780134
 10
29.32390976521458
 20
22.15580228589306
 10
29.94981004424847
 20
21.08376124132883
 10
28.6980094861816
 20
19.83304632279533
 10
28.60859459058577
 20
18.22498365632327
 10
28.87683927737146
 20
17.5996261970563
 10
26.10499347445204
 20
18.76100527823155
 10
25.12143760317088
 20
20.01172019676505
 10
24.94261180211345
 20
22.06646644853436
 10
24.76378201092359
 20
23.49585524103713
 10
26.19440837004697
 20
23.58519107839584
  0
LWPOLYLINE
  5
31D
330
30D
100
AcDbEntity
  8
Drawing
100
AcDbPolyline
 90
        3
 70
     0
 43
0.0
 10
16.62708237362187
 20
18.37005515075998
 10
17.43181244384562
 20
20.15679169120131
 10
18.32595341953186
 20
18.28071931340128
  0
LWPOLYLINE
  5
31E
330
30D
100
AcDbEntity
  8
Drawing
100
AcDbPolyline
 90
       15
 70
     1
 43
0.0
 10
20.91896943126051
 20
14.38350086411174
 10
23.06491096501361
 20
16.34891127852279
 10
23.78022613964242
 20
16.61692098985077
 10
25.12143760317088
 20
17.06360457514802
 10
25.83675277779969
 20
18.04630978235355
 10
22.97549606941777
 20
18.31431949368152
 10
21.72369551135091
 20
18.40365753029255
 10
21.09779523231794
 20
17.86763590838427
 10
19.30950929081303
 20
17.77830007102602
 10
18.41536831512678
 20
17.33161648572877
 10
17.96829782728366
 20
15.81288965661452
 10
18.59419810631755
 20
14.91952248602001
 10
19.30950929081303
 20
14.11549115278422
 10
20.29306915222662
 20
14.11549115278422
 10
20.91896943126051
 20
14.11549115278422
  0
LWPOLYLINE
  5
31F
330
30D
100
AcDbEntity
  8
Drawing
100
AcDbPolyline
 90
        7
 70
     1
 43
0.0
 10
25.2108524987658
 20
19.92238216015403
 10
24.67436711532775
 20
22.78115974515958
 10
22.79666627822792
 20
22.24514032250363
 10
22.88608117382284
 20
20.81575153000085
 10
22.97549606941777
 20
19.83304632279533
 10
24.22729662748463
 20
19.92238216015403
 10
25.2108524987658
 20
20.01172019676505
  0
LWPOLYLINE
  5
320
330
30D
100
AcDbEntity
  8
Drawing
100
AcDbPolyline
 90
       13
 70
     1
 43
0.0
 10
23.86963704510401
 20
24.92524403353991
 10
24.40612242854206
 20
24.65723212295961
 10
24.85319690651852
 20
24.56789628560136
 10
25.4790971855515
 20
24.56789628560136
 10
26.19440837004697
 20
24.65723212295961
 10
26.19440837004697
 20
25.37192761883762
 10
26.37323816123774
 20
26.97999028530967
 10
25.2108524987658
 20
27.60534774457619
 10
24.31671152308047
 20
27.87335745590417
 10
24.04846683629478
 20
26.97999028530967
 10
23.42256655726089
 20
26.44396866340139
 10
23.06491096501361
 20
25.81861120413487
 10
23.78022613964242
 20
25.10391570825686
  0
LWPOLYLINE
  5
321
330
30D
100
AcDbEntity
  8
Drawing
100
AcDbPolyline
 90
        3
 70
     0
 43
0.0
 10
84.59361929051977
 20
12.38239438175151
 10
85.57717516180094
 20
14.07979288558226
 10
86.91839061546273
 20
12.11438247117121
  0
LWPOLYLINE
  5
322
330
30D
100
AcDbEntity
  8
Drawing
100
AcDbPolyline
 90
       12
 70
     0
 43
0.0
 10
66.71076386560128
 20
20.78005106354658
 10
70.46616553980186
 20
20.78005106354658
 10
75.20511909515119
 20
21.94143014472183
 10
76.6357494444079
 20
22.56678760398836
 10
79.31817636159906
 20
22.56678760398836
 10
83.78888922029603
 20
22.38811373001909
 10
87.6337017999582
 20
21.85209430736313
 10
91.1208587873731
 20
22.29877789266038
 10
93.80328570456425
 20
22.38811373001909
 10
96.84337220413602
 20
23.10280922589664
 10
99.07872863348405
 20
23.54949281119389
 10
101.2246701672372
 20
23.46015477458286
  0
LWPOLYLINE
  5
323
330
30D
100
AcDbEntity
  8
Drawing
100
AcDbPolyline
 90
        2
 70
     0
 43
0.0
 10
83.87830411589096
 20
13.27576155234601
 10
76.27808986202729
 20
13.99045484897124
  0
LWPOLYLINE
  5
324
102
{ACAD_REACTORS
330
32B
102
}
330
30D
100
AcDbEntity
  8
Drawing
100
AcDbPolyline
 90
       19
 70
     0
 43
0.0
 10
72.25444749117435
 20
20.69071522618833
 10
73.32742224818378
 20
19.6186741816241
 10
74.5792188161173
 20
19.08265255971583
 10
76.18867496643236
 20
17.74260180382407
 10
77.61930531568999
 20
16.84923243397679
 10
78.51344629137532
 20
16.67055856000752
 10
80.03349153622787
 20
15.95586526338229
 10
82.2688479655759
 20
15.15183393014604
 10
84.14654481254331
 20
14.61581230823776
 10
86.65014592867703
 20
14.97316005617677
 10
88.7066725668343
 20
14.97316005617677
 10
89.77964732384464
 20
14.25846675955154
 10
91.03144389177817
 20
14.16912872294051
 10
92.909144728878
 20
15.33050780411577
 10
94.2503601825407
 20
16.67055856000752
 10
95.94923122845069
 20
18.3679592630906
 10
97.37985758757497
 20
19.88668389295208
 10
98.542243250046
 20
20.95872493751631
 10
100.1516994003611
 20
20.69071522618833
  0
LWPOLYLINE
  5
325
330
30D
100
AcDbEntity
  8
Drawing
100
AcDbPolyline
 90
       12
 70
     1
 43
0.0
 10
70.55557644526436
 20
20.8693891001576
 10
72.61210707355497
 20
21.22673684809661
 10
74.93687839849883
 20
22.12010401869111
 10
76.09926406096986
 20
22.29877789266038
 10
76.36750475762221
 20
23.46015477458286
 10
75.74160447858924
 20
23.90684055913289
 10
74.93687839849883
 20
23.90684055913289
 10
73.41683315364628
 20
23.28148309986591
 10
71.89679189892615
 20
23.28148309986591
 10
70.46616553980186
 20
22.83479731531634
 10
70.01909106182632
 20
22.20943985604936
 10
70.10850595742124
 20
21.49474655942458
  0
MTEXT
  5
326
330
30D
100
AcDbEntity
  8
Drawing
100
AcDbMText
 10
59.66366279086014
 20
22.73789622959259
 30
0.0
 40
2.5
 41
0.0
 46
0.0
 71
     1
 72
     5
  1
{\fArial|b0|i0|c0|p34;N}
 73
     1
 44
1.0
  0
MTEXT
  5
327
330
30D
100
AcDbEntity
  8
Drawing
100
AcDbMText
 10
69.85688906632004
 20
16.3949836003145
 30
0.0
 40
2.5
 41
0.0
 46
0.0
 71
     1
 72
     5
  1
{\fArial|b0|i0|c0|p34;5.69}
 73
     1
 44
1.0
  0
LWPOLYLINE
  5
328
330
30D
100
AcDbEntity
  8
Drawing
100
AcDbPolyline
 90
       14
 70
     1
 43
0.0
 10
77.26164972344179
 20
17.02790630794652
 10
78.33462049031789
 20
16.67055856000752
 10
79.04993167481337
 20
16.49188688529057
 10
79.58642104838475
 20
16.49188688529057
 10
79.58642104838475
 20
17.2065801819158
 10
78.42403538591373
 20
17.74260180382407
 10
77.44047552449922
 20
18.63596897441857
 10
76.54633454881298
 20
19.17199059632685
 10
76.00984916537493
 20
19.7080100189828
 10
75.38394888634105
 20
20.06535776692135
 10
75.02629329409376
 20
20.06535776692135
 10
74.75804860730807
 20
20.06535776692135
 10
74.75804860730807
 20
19.26132643368555
 10
75.38394888634105
 20
18.54663313706033
  0
LWPOLYLINE
  5
329
330
30D
100
AcDbEntity
  8
Drawing
100
AcDbPolyline
 90
       12
 70
     1
 43
0.0
 10
94.69743067038382
 20
22.56678760398836
 10
95.77040143725992
 20
23.46015477458286
 10
96.3963017162938
 20
24.35352414443014
 10
94.96567136703618
 20
26.14025848561914
 10
93.2668003211262
 20
26.76561814413844
 10
92.37265934543996
 20
26.58694427016917
 10
91.92558885759684
 20
25.87224877429162
 10
91.65734417081114
 20
24.80020772972739
 10
91.65734417081114
 20
23.72816668516361
 10
91.92558885759684
 20
23.19214506325534
 10
92.4620742410358
 20
22.65612564059938
 10
93.53504500791189
 20
22.47745176663011
  0
LWPOLYLINE
  5
32A
330
30D
100
AcDbEntity
  8
Drawing
100
AcDbPolyline
 90
        5
 70
     0
 43
0.0
 10
89.06433214921583
 20
15.15183393014604
 10
90.49495850834012
 20
16.22387497471027
 10
91.65734417081114
 20
16.49188688529057
 10
92.81972983328308
 20
16.58122272264927
 10
94.2503601825407
 20
16.67055856000752
  0
HATCH
  5
32B
330
30D
100
AcDbEntity
  8
Drawing
 62
     1
100
AcDbHatch
 10
0.0
 20
0.0
 30
0.0
210
0.0
220
0.0
230
1.0
  2
SOLID
 70
     1
 71
     1
 91
        1
 92
        7
 72
     0
 73
     1
 93
       10
 10
85.30893047501525
 20
16.22387497471044
 10
84.77244509157708
 20
16.75989659661855
 10
83.78888922029591
 20
16.84923243397685
 10
83.43123362804783
 20
17.11724434455749
 10
82.35826286117185
 20
16.04520110074111
 10
82.35826286117174
 20
15.24117196675718
 10
82.54885793688982
 20
15.07190015424578
 10
83.90384891513031
 20
14.68509412482706
 10
84.4147894993265
 20
14.79448618220755
 10
85.30893047501525
 20
14.97316005617682
 97
        2
330
32E
330
324
 75
     0
 76
     1
 47
0.0893367883865676
 98
        1
 10
84.2554475188432
 20
15.77719138941302
450
        1
451
        0
460
0.0
461
0.0
452
        1
462
0.4900000095367432
453
        2
463
0.0
 63
     1
421
 16711680
463
1.0
 63
     1
421
 16384000
470
LINEAR
  0
LWPOLYLINE
  5
32E
102
{ACAD_REACTORS
330
32B
102
}
330
30D
100
AcDbEntity
  8
Drawing
100
AcDbPolyline
 90
        9
 70
     1
 43
0.0
 10
83.43123362804783
 20
17.11724434455755
 10
82.35826286117174
 20
16.045201100741
 10
82.35826286117174
 20
15.24117196675707
 10
83.16298894126214
 20
14.52647647087952
 10
84.414789499329
 20
14.79448618220749
 10
85.30893047501525
 20
14.97316005617677
 10
85.30893047501525
 20
16.22387497471027
 10
84.7724450915772
 20
16.75989659661855
 10
83.78888922029603
 20
16.84923243397679
  0
LWPOLYLINE
  5
32F
330
30D
100
AcDbEntity
  8
Drawing
100
AcDbPolyline
 90
        6
 70
     1
 43
0.0
 10
86.02424564964406
 20
17.29591601927405
 10
86.11366054523899
 20
16.49188688529057
 10
86.8289757198678
 20
16.13453913735202
 10
87.09721641652015
 20
16.84923243397679
 10
86.73956082427196
 20
17.47458989324377
 10
86.29249033642975
 20
17.47458989324377
  0
LWPOLYLINE
  5
330
330
30D
100
AcDbEntity
  8
Drawing
100
AcDbPolyline
 90
       16
 70
     1
 43
0.0
 10
83.96771901148588
 20
18.01061151515205
 10
84.95127488276705
 20
17.92127567779335
 10
85.4877602662051
 20
17.65326376721305
 10
85.75600495299079
 20
19.08265255971583
 10
85.75600495299079
 20
19.7080100189828
 10
85.75600495299079
 20
19.88668389295208
 10
84.59361929051977
 20
19.9760219295631
 10
83.78888922029603
 20
19.9760219295631
 10
83.61005942910526
 20
19.6186741816241
 10
83.25240383685707
 20
19.08265255971583
 10
82.89474824460979
 20
18.8146428483883
 10
82.80533334901486
 20
18.63596897441857
 10
82.71591845341902
 20
18.4572951004493
 10
81.82177747773278
 20
18.18928538912132
 10
82.2688479655759
 20
17.92127567779335
 10
82.71591845341902
 20
18.0999473525103
  0
MTEXT
  5
331
330
30D
100
AcDbEntity
  8
Drawing
100
AcDbMText
 10
103.2978246010789
 20
22.55922235562332
 30
0.0
 40
2.5
 41
0.0
 46
0.0
 71
     1
 72
     5
  1
{\fArial|b0|i0|c0|p34;S}
 73
     1
 44
1.0
  0
LWPOLYLINE
  5
332
330
30D
100
AcDbEntity
  8
Drawing
100
AcDbPolyline
 90
        2
 70
     0
 43
0.0
 10
158.0366180584311
 20
9.702290670715229
 10
161.7920197326317
 20
13.27576155234601
  0
LWPOLYLINE
  5
333
330
30D
100
AcDbEntity
  8
Drawing
100
AcDbPolyline
 90
        2
 70
     0
 43
0.0
 10
171.0016861466762
 20
13.99045484897124
 10
174.9359176120676
 20
9.523616796745955
  0
HATCH
  5
334
330
30D
100
AcDbEntity
  8
Drawing
 62
     1
100
AcDbHatch
 10
0.0
 20
0.0
 30
0.0
210
0.0
220
0.0
230
1.0
  2
SOLID
 70
     1
 71
     1
 91
       18
 92
        7
 72
     0
 73
     1
 93
        4
 10
153.2976645030827
 20
18.72530481177733
 10
152.3141046416682
 20
19.70801001898292
 10
151.9954002080933
 20
18.81640925240561
 10
151.9393126470305
 20
18.47083552206072
 97
        2
330
347
330
33A
 92
        7
 72
     0
 73
     1
 93
        5
 10
153.8341498865208
 20
24.53219801839941
 10
153.4035018947797
 20
23.61786447402773
 10
153.9235647821159
 20
24.08551443310222
 10
153.3278546654007
 20
23.02739395777741
 10
154.4600501655538
 20
23.10280922589664
 97
        2
330
346
330
33A
 92
        7
 72
     0
 73
     1
 93
        3
 10
156.8742323959593
 20
29.98174127783074
 10
155.6224358280258
 20
28.99903607062515
 10
156.9636472915549
 20
28.37367861135823
 97
        1
330
34E
 92
        7
 72
     0
 73
     1
 93
        4
 10
161.4708558455234
 20
31.55151644151272
 10
161.1252745290351
 20
31.45855596332268
 10
160.8084598712173
 20
31.23245619636424
 10
161.613189941441
 20
31.05378232239445
 97
        2
330
33A
330
34D
 92
        7
 72
     0
 73
     1
 93
        4
 10
164.2062019630372
 20
33.73388603343068
 10
163.3299408315879
 20
33.23359870817143
 10
163.0563676722551
 20
32.97165148599288
 10
164.2956168586321
 20
32.3938352775391
 97
        2
330
345
330
33A
 92
        7
 72
     0
 73
     1
 93
        5
 10
168.0510185328328
 20
35.43843365453193
 10
167.8721887416426
 20
35.43128673651415
 10
167.6636073197963
 20
35.34197206788139
 10
166.8886328703616
 20
34.98460095196424
 10
168.0510185328327
 20
34.09123378136962
 97
        2
330
33A
330
344
 92
        7
 72
     0
 73
     1
 93
        3
 10
172.6111462871247
 20
35.6099606104836
 10
171.0016861466761
 20
35.60996061048348
 10
171.62758642571
 20
34.44858152930874
 97
        1
330
343
 92
        7
 72
     0
 73
     1
 93
        3
 10
175.2041583087199
 20
32.39383527753915
 10
174.8465027164726
 20
31.14312035900548
 10
175.561813900968
 20
31.14312035900548
 97
        1
330
35C
 92
        7
 72
     0
 73
     1
 93
        4
 10
177.1712740414157
 20
28.46301664796954
 10
177.1545327130366
 20
28.53410510469865
 10
176.1877141800009
 20
27.48031144076356
 10
177.1712740414157
 20
27.17793942019676
 97
        2
330
33A
330
35B
 92
        7
 72
     0
 73
     1
 93
        3
 10
177.6183445292588
 20
24.44285998178827
 10
176.9030293546299
 20
23.63882864855253
 10
177.7971703303164
 20
23.46015477458292
 97
        1
330
350
 92
        7
 72
     0
 73
     1
 93
        3
 10
177.8865852259112
 20
20.24403164089108
 10
177.1712740414156
 20
19.7080100189828
 10
178.0654150171018
 20
19.17199059632674
 97
        1
330
355
 92
        7
 72
     0
 73
     1
 93
        3
 10
180.0325307497975
 20
13.72244513764326
 10
178.9595559927881
 20
13.72244513764332
 10
179.5854562718212
 20
12.38239438175151
 97
        1
330
338
 92
        7
 72
     0
 73
     1
 93
        3
 10
176.1877141800013
 20
8.89825933747909
 10
175.0253285175302
 20
9.523616796745841
 10
175.0253285175302
 20
8.18356384160154
 97
        1
330
342
 92
        7
 72
     0
 73
     1
 93
        3
 10
171.2699308334627
 20
8.272901878212451
 10
170.9122752412148
 20
7.200858634396013
 10
172.0746609036867
 20
7.290196671006981
 97
        1
330
341
 92
        7
 72
     0
 73
     1
 93
        4
 10
167.5145331493947
 20
8.183563841601483
 10
166.8044780309114
 20
6.764686031626411
 10
166.8600237988871
 20
6.757748815879381
 10
168.3192592294863
 20
6.843513085709731
 97
        2
330
340
330
33A
 92
        7
 72
     0
 73
     1
 93
        3
 10
163.5803056741366
 20
8.45157355292929
 10
162.8649904995079
 20
7.2008586343959
 10
164.1167910575747
 20
7.111522797037196
 97
        1
330
33C
 92
        7
 72
     0
 73
     1
 93
        3
 10
158.0366180584311
 20
9.523616796745955
 10
156.6954065949018
 20
9.34494292277634
 10
157.5001326749932
 20
8.362237715570757
 97
        1
330
33D
 92
        7
 72
     0
 73
     1
 93
        4
 10
155.1753613500492
 20
13.63310930028507
 10
153.6504569357268
 20
13.47273186622624
 10
153.99672425211
 20
12.8768988193612
 10
154.281220374364
 20
12.56106605646858
 97
        2
330
337
330
33A
 75
     0
 76
     1
 47
0.0893367883865676
 98
       18
 10
152.4035195372632
 20
18.72530481177728
 10
153.8341498865208
 20
23.37081893722461
 10
156.6059916993069
 20
29.08837410723618
 10
161.3449452546553
 20
31.32179423297475
 10
163.848546370789
 20
33.01919273680551
 10
167.5145331493947
 20
34.71659124063626
 10
171.5381715301152
 20
35.34194869990324
 10
175.2041583087199
 20
31.41113007033346
 10
176.813614459035
 20
27.48031144076367
 10
177.350099842473
 20
23.81750252252186
 10
177.7971703303161
 20
19.79734805559383
 10
179.4066304707636
 20
13.36509738970472
 10
175.2935732043157
 20
8.80892130086795
 10
171.2699308334628
 20
7.647544418945472
 10
167.782773846047
 20
7.111522797037196
 10
163.5803056741366
 20
7.468870544976198
 10
157.3213068739357
 20
9.076933211448704
 10
154.3706352699588
 20
13.18642571498776
450
        1
451
        0
460
0.0
461
0.0
452
        1
462
0.4900000095367432
453
        2
463
0.0
 63
     1
421
 16711680
463
1.0
 63
     1
421
 16384000
470
LINEAR
  0
LWPOLYLINE
  5
337
102
{ACAD_REACTORS
330
334
102
}
330
30D
100
AcDbEntity
  8
Drawing
100
AcDbPolyline
 90
        3
 70
     1
 43
0.0
 10
153.4764903041392
 20
13.45443542631574
 10
155.1753613500492
 20
13.63310930028501
 10
154.2812203743639
 20
12.56106605646846
  0
LWPOLYLINE
  5
338
102
{ACAD_REACTORS
330
334
102
}
330
30D
100
AcDbEntity
  8
Drawing
100
AcDbPolyline
 90
        3
 70
     1
 43
0.0
 10
179.585456271821
 20
12.38239438175151
 10
178.9595559927881
 20
13.72244513764326
 10
180.0325307497975
 20
13.72244513764326
  0
LWPOLYLINE
  5
339
330
30D
100
AcDbEntity
  8
Drawing
  6
DASHED2
 48
0.175
100
AcDbPolyline
 90
       29
 70
     1
 43
0.0
 10
158.9307630242498
 20
24.08551443310216
 10
157.5001326749931
 20
22.20943985604936
 10
157.2318919783407
 20
19.7080100189828
 10
157.2318919783407
 20
18.72530481177728
 10
157.9472031628362
 20
17.83193764118232
 10
159.288418616498
 20
16.75989659661855
 10
160.6296340701598
 20
15.77719138941302
 10
161.523775045846
 20
14.70515034484879
 10
162.3285051160698
 20
12.82907796704876
 10
163.222646091756
 20
11.39968917454598
 10
164.921517137666
 20
10.68499367866843
 10
167.3357033582048
 20
10.50631980469871
 10
168.7663297173282
 20
10.77433171527946
 10
169.7498895787427
 20
11.13167946321801
 10
170.6440305544289
 20
12.11438247117121
 10
170.8228603456197
 20
14.16912872294051
 10
172.7005571925862
 20
15.77719138941302
 10
173.8629428550581
 20
17.5639279298548
 10
174.0417726462489
 20
21.22673684809661
 10
173.7735319495965
 20
25.60423906296364
 10
173.5052872628108
 20
28.4630166479692
 10
172.9688018793719
 20
30.78577261106648
 10
171.2699308334628
 20
32.30449724092796
 10
168.6769188118666
 20
32.66184498886696
 10
166.2627325913278
 20
31.85781365563071
 10
163.6697165795991
 20
30.2497509891582
 10
162.5073309171272
 20
28.1950047373889
 10
160.987289662408
 20
26.4082703961999
 10
160.4508042789699
 20
25.60423906296364
  0
LWPOLYLINE
  5
33A
102
{ACAD_REACTORS
330
334
102
}
330
30D
100
AcDbEntity
  8
Drawing
100
AcDbPolyline
 90
       47
 70
     1
 43
0.0
 10
152.3141046416682
 20
21.22673684809661
 10
153.3870754085443
 20
23.81750252252186
 10
154.0129756875782
 20
25.24689131502464
 10
154.1918054787681
 20
27.48031144076367
 10
156.3377470125212
 20
29.80306740386095
 10
159.288418616498
 20
30.96444648503621
 10
161.613189941441
 20
31.58980394430273
 10
163.7591314751941
 20
33.64455019607249
 10
166.620388183576
 20
34.89526511460599
 10
167.8721887416428
 20
35.43128673651427
 10
170.1075451709909
 20
35.52062257387252
 10
172.0746609036865
 20
35.78863228520049
 10
173.0582167749677
 20
35.78863228520049
 10
173.6841170540007
 20
34.89526511460599
 10
173.7735319495965
 20
34.09123378136974
 10
175.3829880999107
 20
32.66184498886696
 10
175.7406436921589
 20
30.96444648503621
 10
176.813614459035
 20
29.98174127783068
 10
177.1712740414156
 20
28.4630166479692
 10
177.1712740414156
 20
26.76561814413844
 10
177.5289296336638
 20
25.51490102635262
 10
177.7971703303161
 20
23.72816668516361
 10
177.7971703303161
 20
21.67342043339386
 10
177.9760001215069
 20
19.88668389295208
 10
178.5124855049449
 20
18.01061151515205
 10
179.585456271821
 20
15.77719138941302
 10
180.0325307497975
 20
13.90111901161299
 10
180.0325307497975
 20
12.56106605646846
 10
179.3172155751687
 20
10.95300558924873
 10
178.9595559927881
 20
9.791626508073477
 10
177.350099842473
 20
9.166269048806953
 10
175.0253285175301
 20
8.094228004242723
 10
172.253486704744
 20
7.2008586343959
 10
169.7498895787427
 20
7.022186959678947
 10
167.6039440548572
 20
6.664839211739945
 10
164.7426873464752
 20
7.022186959678947
 10
161.7026048370368
 20
7.2008586343959
 10
158.5731034418692
 20
7.290196671006925
 10
156.8742323959592
 20
8.898259337478976
 10
154.9071206533969
 20
11.31035113793496
 10
153.2976645030827
 20
14.07979288558226
 10
152.5823493284539
 20
15.50918167808504
 10
151.7776192582302
 20
16.3132130113213
 10
151.7776192582302
 20
17.47458989324377
 10
152.3141046416682
 20
20.78005106354658
 10
153.029419816297
 20
23.28148309986591
 10
153.9235647821157
 20
24.08551443310216
  0
LWPOLYLINE
  5
33B
330
30D
100
AcDbEntity
  8
Drawing
100
AcDbPolyline
 90
        2
 70
     0
 43
0.0
 10
163.4908907785417
 20
8.451573552929403
 10
163.9379612663848
 20
10.95300558924873
  0
LWPOLYLINE
  5
33C
102
{ACAD_REACTORS
330
334
102
}
330
30D
100
AcDbEntity
  8
Drawing
100
AcDbPolyline
 90
        3
 70
     1
 43
0.0
 10
162.8649904995078
 20
7.2008586343959
 10
163.5803056741366
 20
8.451573552929403
 10
164.1167910575747
 20
7.111522797037196
  0
LWPOLYLINE
  5
33D
102
{ACAD_REACTORS
330
334
102
}
330
30D
100
AcDbEntity
  8
Drawing
100
AcDbPolyline
 90
        3
 70
     1
 43
0.0
 10
156.6954065949018
 20
9.344942922776227
 10
158.0366180584311
 20
9.523616796745955
 10
157.5001326749931
 20
8.3622377155707
  0
LWPOLYLINE
  5
33E
330
30D
100
AcDbEntity
  8
Drawing
100
AcDbPolyline
 90
        2
 70
     0
 43
0.0
 10
167.4251182537997
 20
8.183563841601426
 10
167.3357033582048
 20
10.41698396734046
  0
LWPOLYLINE
  5
33F
330
30D
100
AcDbEntity
  8
Drawing
100
AcDbPolyline
 90
        2
 70
     0
 43
0.0
 10
170.1075451709909
 20
11.04234142660698
 10
171.2699308334628
 20
8.630247426898677
  0
LWPOLYLINE
  5
340
102
{ACAD_REACTORS
330
334
102
}
330
30D
100
AcDbEntity
  8
Drawing
100
AcDbPolyline
 90
        3
 70
     1
 43
0.0
 10
166.7992179747658
 20
6.754175049098649
 10
167.5145331493947
 20
8.183563841601426
 10
168.319259229486
 20
6.843513085709674
  0
LWPOLYLINE
  5
341
102
{ACAD_REACTORS
330
334
102
}
330
30D
100
AcDbEntity
  8
Drawing
100
AcDbPolyline
 90
        3
 70
     1
 43
0.0
 10
170.9122752412146
 20
7.2008586343959
 10
171.2699308334628
 20
8.272901878212451
 10
172.0746609036865
 20
7.290196671006925
  0
LWPOLYLINE
  5
342
102
{ACAD_REACTORS
330
334
102
}
330
30D
100
AcDbEntity
  8
Drawing
100
AcDbPolyline
 90
        3
 70
     1
 43
0.0
 10
175.0253285175301
 20
8.183563841601426
 10
175.0253285175301
 20
9.523616796745955
 10
176.1877141800011
 20
8.898259337478976
  0
LWPOLYLINE
  5
343
102
{ACAD_REACTORS
330
334
102
}
330
30D
100
AcDbEntity
  8
Drawing
100
AcDbPolyline
 90
        3
 70
     1
 43
0.0
 10
171.0016861466762
 20
35.60996061048354
 10
171.6275864257101
 20
34.44858152930874
 10
172.6111462871246
 20
35.60996061048354
  0
LWPOLYLINE
  5
344
102
{ACAD_REACTORS
330
334
102
}
330
30D
100
AcDbEntity
  8
Drawing
100
AcDbPolyline
 90
        3
 70
     1
 43
0.0
 10
168.0510185328327
 20
35.52062257387252
 10
168.0510185328327
 20
34.09123378136974
 10
166.8886328703617
 20
34.98460095196424
  0
LWPOLYLINE
  5
345
102
{ACAD_REACTORS
330
334
102
}
330
30D
100
AcDbEntity
  8
Drawing
100
AcDbPolyline
 90
        3
 70
     1
 43
0.0
 10
164.2062019630372
 20
33.73388603343074
 10
164.2956168586321
 20
32.39383527753898
 10
162.9544053951037
 20
33.01919273680551
  0
LWPOLYLINE
  5
346
102
{ACAD_REACTORS
330
334
102
}
330
30D
100
AcDbEntity
  8
Drawing
100
AcDbPolyline
 90
        3
 70
     1
 43
0.0
 10
153.8341498865208
 20
24.53219801839941
 10
154.4600501655538
 20
23.10280922589664
 10
153.118834711892
 20
23.01347118928561
  0
LWPOLYLINE
  5
347
102
{ACAD_REACTORS
330
334
102
}
330
30D
100
AcDbEntity
  8
Drawing
100
AcDbPolyline
 90
        3
 70
     1
 43
0.0
 10
152.3141046416682
 20
19.7080100189828
 10
153.2976645030827
 20
18.72530481177728
 10
151.8670341538251
 20
18.4572951004493
  0
LWPOLYLINE
  5
348
330
30D
100
AcDbEntity
  8
Drawing
100
AcDbPolyline
 90
        2
 70
     0
 43
0.0
 10
154.728290862207
 20
23.01347118928561
 10
157.05306218715
 20
22.20943985604936
  0
LWPOLYLINE
  5
349
330
30D
100
AcDbEntity
  8
Drawing
100
AcDbPolyline
 90
        2
 70
     0
 43
0.0
 10
153.3870754085443
 20
18.63596897441857
 10
156.7848214904976
 20
18.63596897441857
  0
LWPOLYLINE
  5
34A
330
30D
100
AcDbEntity
  8
Drawing
100
AcDbPolyline
 90
        2
 70
     0
 43
0.0
 10
155.4436060368349
 20
13.63310930028501
 10
159.4672484076888
 20
15.95586526338229
  0
LWPOLYLINE
  5
34B
330
30D
100
AcDbEntity
  8
Drawing
100
AcDbPolyline
 90
        2
 70
     0
 43
0.0
 10
161.7920197326317
 20
31.14312035900548
 10
163.1332311961611
 20
30.16041515179995
  0
LWPOLYLINE
  5
34C
330
30D
100
AcDbEntity
  8
Drawing
100
AcDbPolyline
 90
        2
 70
     0
 43
0.0
 10
156.963647291555
 20
28.1950047373889
 10
160.3613893833741
 20
26.05092264826089
  0
LWPOLYLINE
  5
34D
102
{ACAD_REACTORS
330
334
102
}
330
30D
100
AcDbEntity
  8
Drawing
100
AcDbPolyline
 90
        3
 70
     1
 43
0.0
 10
161.4343601502511
 20
31.67913978166143
 10
161.613189941441
 20
31.05378232239445
 10
160.8084598712172
 20
31.23245619636418
  0
LWPOLYLINE
  5
34E
102
{ACAD_REACTORS
330
334
102
}
330
30D
100
AcDbEntity
  8
Drawing
100
AcDbPolyline
 90
        3
 70
     1
 43
0.0
 10
156.8742323959592
 20
29.98174127783068
 10
156.963647291555
 20
28.37367861135817
 10
155.6224358280257
 20
28.99903607062515
  0
MTEXT
  5
34F
330
30D
100
AcDbEntity
  8
Drawing
100
AcDbMText
 10
164.1334148631258
 20
25.77534768856788
 30
0.0
 40
2.5
 41
0.0
 46
0.0
 71
     1
 72
     5
  1
{\fArial|b0|i0|c0|p34;5.48}
 73
     1
 44
1.0
  0
LWPOLYLINE
  5
350
102
{ACAD_REACTORS
330
334
102
}
330
30D
100
AcDbEntity
  8
Drawing
100
AcDbPolyline
 90
        3
 70
     1
 43
0.0
 10
177.6183445292587
 20
24.44285998178839
 10
176.9030293546299
 20
23.63882864855259
 10
177.7971703303161
 20
23.46015477458286
  0
LWPOLYLINE
  5
351
330
30D
100
AcDbEntity
  8
Drawing
100
AcDbPolyline
 90
        2
 70
     0
 43
0.0
 10
173.9523577506531
 20
16.93857047058782
 10
178.7807301917306
 20
13.90111901161299
  0
LWPOLYLINE
  5
352
330
30D
100
AcDbEntity
  8
Drawing
100
AcDbPolyline
 90
        2
 70
     0
 43
0.0
 10
176.72419956344
 20
23.63882864855259
 10
174.1311875418438
 20
23.54949281119389
  0
LWPOLYLINE
  5
353
330
30D
100
AcDbEntity
  8
Drawing
100
AcDbPolyline
 90
        3
 70
     0
 43
0.0
 10
165.8156621034847
 20
21.13739881148558
 10
166.620388183576
 20
22.65612564059938
 10
167.6039440548572
 20
21.04806297412688
  0
LWPOLYLINE
  5
354
330
30D
100
AcDbEntity
  8
Drawing
100
AcDbPolyline
 90
        2
 70
     0
 43
0.0
 10
174.3994282384962
 20
20.42270551486035
 10
177.0818591458207
 20
19.6186741816241
  0
LWPOLYLINE
  5
355
102
{ACAD_REACTORS
330
334
102
}
330
30D
100
AcDbEntity
  8
Drawing
100
AcDbPolyline
 90
        3
 70
     1
 43
0.0
 10
177.8865852259111
 20
20.24403164089108
 10
177.1712740414156
 20
19.7080100189828
 10
178.0654150171018
 20
19.17199059632685
  0
LWPOLYLINE
  5
356
330
30D
100
AcDbEntity
  8
Drawing
100
AcDbPolyline
 90
        2
 70
     0
 43
0.0
 10
176.1877141800011
 20
27.39097560340542
 10
174.3100173330346
 20
26.85495398149715
  0
LWPOLYLINE
  5
357
330
30D
100
AcDbEntity
  8
Drawing
100
AcDbPolyline
 90
        2
 70
     0
 43
0.0
 10
174.7570878208777
 20
31.05378232239445
 10
173.6841170540007
 20
29.89240544047198
  0
LWPOLYLINE
  5
358
330
30D
100
AcDbEntity
  8
Drawing
100
AcDbPolyline
 90
        2
 70
     0
 43
0.0
 10
171.5381715301152
 20
34.26990765533901
 10
171.2699308334628
 20
32.21516140356971
  0
LWPOLYLINE
  5
359
330
30D
100
AcDbEntity
  8
Drawing
100
AcDbPolyline
 90
        2
 70
     0
 43
0.0
 10
168.2298443338901
 20
34.09123378136974
 10
168.5875039162717
 20
32.75118302547799
  0
LWPOLYLINE
  5
35A
330
30D
100
AcDbEntity
  8
Drawing
100
AcDbPolyline
 90
        2
 70
     0
 43
0.0
 10
164.2956168586321
 20
32.21516140356971
 10
164.921517137666
 20
31.50046810694448
  0
LWPOLYLINE
  5
35B
102
{ACAD_REACTORS
330
334
102
}
330
30D
100
AcDbEntity
  8
Drawing
100
AcDbPolyline
 90
        3
 70
     1
 43
0.0
 10
177.1712740414156
 20
28.5523524853279
 10
176.1877141800011
 20
27.48031144076367
 10
177.350099842473
 20
27.12296369282467
  0
LWPOLYLINE
  5
35C
102
{ACAD_REACTORS
330
334
102
}
330
30D
100
AcDbEntity
  8
Drawing
100
AcDbPolyline
 90
        3
 70
     1
 43
0.0
 10
175.2041583087199
 20
32.39383527753898
 10
174.8465027164726
 20
31.14312035900548
 10
175.5618139009681
 20
31.14312035900548
  0
ENDBLK
  5
35E
330
30D
100
AcDbEntity
  8
0
100
AcDbBlockEnd
  0
BLOCK
  5
455
330
448
100
AcDbEntity
  8
0
100
AcDbBlockBegin
  2
A$C36576122
 70
     0
 10
0.0
 20
0.0
 30
0.0
  3
A$C36576122
  1

  0
MTEXT
  5
449
330
448
100
AcDbEntity
  8
trench scale n
100
AcDbMText
 10
0.1972577083735843
 20
2.162594381103233
 30
0.0
 40
0.8
 41
0.2683285054029629
 46
0.0
 71
     1
 72
     5
  1
N
  7
verdana
 73
     1
 44
1.0
  0
MTEXT
  5
44A
330
448
100
AcDbEntity
  8
trench scale n
100
AcDbMText
 10
0.1972577083735843
 20
2.162594381103233
 30
0.0
 40
0.8
 41
0.2683285054029629
 46
0.0
 71
     1
 72
     5
  1
N
  7
verdana
 73
     1
 44
1.0
  0
MTEXT
  5
44B
330
448
100
AcDbEntity
  8
trench scale n
100
AcDbMText
 10
0.1972577083735843
 20
2.162594381103233
 30
0.0
 40
0.8
 41
0.2683285054029629
 46
0.0
 71
     1
 72
     5
  1
N
  7
verdana
 73
     1
 44
1.0
  0
MTEXT
  5
44C
330
448
100
AcDbEntity
  8
trench scale n
100
AcDbMText
 10
0.1972577083735843
 20
2.162594381103233
 30
0.0
 40
0.8
 41
0.2683285054029629
 46
0.0
 71
     1
 72
     5
  1
N
  7
verdana
 73
     1
 44
1.0
  0
LWPOLYLINE
  5
44D
102
{ACAD_REACTORS
330
44E
102
}
330
448
100
AcDbEntity
  8
trench scale n
100
AcDbPolyline
 90
        3
 70
     1
 43
0.0
 10
0.5106233673127889
 20
1.005125346485372
 10
0.000000012195045
 20
-0.0000000137850549
 10
1.005535233287688
 20
-0.0000000137850549
  0
HATCH
  5
44E
330
448
100
AcDbEntity
  8
trench scale n
100
AcDbHatch
 10
0.0
 20
0.0
 30
0.0
210
0.0
220
0.0
230
1.0
  2
SOLID
 70
     1
 71
     1
 91
        1
 92
        1
 93
        3
 72
     1
 10
0.5106233673127889
 20
1.005125346485372
 11
0.000000012195045
 21
-0.0000000137850549
 72
     1
 10
0.000000012195045
 20
-0.0000000137850549
 11
1.005535233287688
 21
-0.0000000137850549
 72
     1
 10
1.005535233287688
 20
-0.0000000137850549
 11
0.5106233673127889
 21
1.005125346485372
 97
        1
330
44D
 75
     0
 76
     1
 98
        1
 10
-46.6265582303945
 20
-116.6947228256637
  0
HATCH
  5
44F
330
448
100
AcDbEntity
  8
trench scale n
100
AcDbHatch
 10
0.0
 20
0.0
 30
0.0
210
0.0
220
0.0
230
1.0
  2
SOLID
 70
     1
 71
     1
 91
        1
 92
        1
 93
        3
 72
     1
 10
0.5106233673127889
 20
1.005125346485372
 11
0.000000012195045
 21
-0.0000000137850549
 72
     1
 10
0.000000012195045
 20
-0.0000000137850549
 11
1.005535233287688
 21
-0.0000000137850549
 72
     1
 10
1.005535233287688
 20
-0.0000000137850549
 11
0.5106233673127889
 21
1.005125346485372
 97
        1
330
450
 75
     0
 76
     1
 98
        1
 10
-46.6265582303945
 20
-116.6947228256637
  0
LWPOLYLINE
  5
450
102
{ACAD_REACTORS
330
44F
102
}
330
448
100
AcDbEntity
  8
trench scale n
100
AcDbPolyline
 90
        3
 70
     1
 43
0.0
 10
0.5106233673127889
 20
1.005125346485372
 10
0.000000012195045
 20
-0.0000000137850549
 10
1.005535233287688
 20
-0.0000000137850549
  0
LWPOLYLINE
  5
451
102
{ACAD_REACTORS
330
452
102
}
330
448
100
AcDbEntity
  8
trench scale n
100
AcDbPolyline
 90
        3
 70
     1
 43
0.0
 10
0.5106233673127889
 20
1.005125346485372
 10
0.000000012195045
 20
-0.0000000137850549
 10
1.005535233287688
 20
-0.0000000137850549
  0
HATCH
  5
452
330
448
100
AcDbEntity
  8
trench scale n
100
AcDbHatch
 10
0.0
 20
0.0
 30
0.0
210
0.0
220
0.0
230
1.0
  2
SOLID
 70
     1
 71
     1
 91
        1
 92
        1
 93
        3
 72
     1
 10
0.5106233673127889
 20
1.005125346485372
 11
0.000000012195045
 21
-0.0000000137850549
 72
     1
 10
0.000000012195045
 20
-0.0000000137850549
 11
1.005535233287688
 21
-0.0000000137850549
 72
     1
 10
1.005535233287688
 20
-0.0000000137850549
 11
0.5106233673127889
 21
1.005125346485372
 97
        1
330
451
 75
     0
 76
     1
 98
        1
 10
-46.6265582303945
 20
-116.6947228256637
  0
HATCH
  5
453
330
448
100
AcDbEntity
  8
trench scale n
100
AcDbHatch
 10
0.0
 20
0.0
 30
0.0
210
0.0
220
0.0
230
1.0
  2
SOLID
 70
     1
 71
     1
 91
        1
 92
        1
 93
        3
 72
     1
 10
0.5106233673127889
 20
1.005125346485372
 11
0.000000012195045
 21
-0.0000000137850549
 72
     1
 10
0.000000012195045
 20
-0.0000000137850549
 11
1.005535233287688
 21
-0.0000000137850549
 72
     1
 10
1.005535233287688
 20
-0.0000000137850549
 11
0.5106233673127889
 21
1.005125346485372
 97
        1
330
454
 75
     0
 76
     1
 98
        1
 10
-46.6265582303945
 20
-116.6947228256637
  0
LWPOLYLINE
  5
454
102
{ACAD_REACTORS
330
453
102
}
330
448
100
AcDbEntity
  8
trench scale n
100
AcDbPolyline
 90
        3
 70
     1
 43
0.0
 10
0.5106233673127889
 20
1.005125346485372
 10
0.000000012195045
 20
-0.0000000137850549
 10
1.005535233287688
 20
-0.0000000137850549
  0
ENDBLK
  5
456
330
448
100
AcDbEntity
  8
0
100
AcDbBlockEnd
  0
BLOCK
  5
92E
330
92C
100
AcDbEntity
  8
0
100
AcDbBlockBegin
  2
A$C1D7433BF
 70
     0
 10
0.0
 20
0.0
 30
0.0
  3
A$C1D7433BF
  1

  0
HATCH
  5
92D
330
92C
100
AcDbEntity
  8
Drawing
100
AcDbHatch
 10
0.0
 20
0.0
 30
0.0
210
0.0
220
0.0
230
1.0
  2
ANSI36
 70
     0
 71
     0
 91
        1
 92
        7
 72
     0
 73
     1
 93
       20
 10
4.242825148785073
 20
1.665526749011519
 10
6.761498265790124
 20
2.025157321085487
 10
10.85897189692628
 20
2.025157321085544
 10
10.88963553464623
 20
2.239694406196691
 10
9.833243397006527
 20
2.767624978017409
 10
9.106976404156512
 20
3.097581035590792
 10
8.248658164007793
 20
3.823483922403796
 10
7.654439444996569
 20
4.087449208313672
 10
6.99419510233713
 20
4.153439979978089
 10
5.871777341049437
 20
3.823483922403909
 10
5.145510348198741
 20
3.757493150739549
 10
3.164777320220082
 20
3.36154632150118
 10
1.712240361059912
 20
2.965597293009694
 10
0.787896497262409
 20
2.107712862868652
 10
0.1276521546021741
 20
1.381807776803043
 10
-0.0704187694298071
 20
0.8538772049827799
 10
-0.0043961192377537
 20
0.1279743181698336
 10
0.2020599111092451
 20
-0.1815514630235953
 10
0.2849094010729232
 20
-0.1326195135994794
 10
1.484277268843016
 20
0.5866394312957937
 97
        0
 75
     0
 76
     1
 52
0.0
 41
0.25
 77
     0
 78
     1
 53
45.0
 43
-486.055508313875
 44
-453.5830433801225
 45
0.4209495056751168
 46
1.543481520808761
 79
     4
 49
1.984375
 49
-0.396875
 49
0.0
 49
-0.396875
 47
0.0659912344414257
 98
        1
 10
3.494899491549631
 20
2.173703634532728
  0
ENDBLK
  5
92F
330
92C
100
AcDbEntity
  8
0
100
AcDbBlockEnd
  0
ENDSEC
  0
SECTION
  2
ENTITIES
  0
INSERT
  5
458
330
1F
100
AcDbEntity
  8
Drawing
100
AcDbBlockReference
  2
A$C36576122
 10
767.0159275357335
 20
480.8504985987502
 30
0.0
 41
10.0
 42
10.0
 43
10.0
  0
LWPOLYLINE
  5
45B
102
{ACAD_REACTORS
330
45C
102
}
330
1F
100
AcDbEntity
  8
Drawing
100
AcDbPolyline
 90
        4
 70
     1
 43
0.0
 10
762.8033241254043
 20
274.7015062641995
 10
862.4872061087539
 20
274.7015062641995
 10
862.4872061087539
 20
273.5509076136198
 10
762.8033241254043
 20
273.5509076136198
  0
HATCH
  5
45C
330
1F
100
AcDbEntity
  8
Drawing
100
AcDbHatch
 10
0.0
 20
0.0
 30
0.0
210
0.0
220
0.0
230
1.0
  2
SOLID
 70
     1
 71
     1
 91
        1
 92
        1
 93
        4
 72
     1
 10
762.8033241254043
 20
274.7015062641995
 11
862.4872061087539
 21
274.7015062641995
 72
     1
 10
862.4872061087539
 20
274.7015062641995
 11
862.4872061087539
 21
273.5509076136198
 72
     1
 10
862.4872061087539
 20
273.5509076136198
 11
762.8033241254043
 21
273.5509076136198
 72
     1
 10
762.8033241254043
 20
273.5509076136198
 11
762.8033241254043
 21
274.7015062641995
 97
        1
330
45B
 75
     0
 76
     1
 98
        1
 10
0.0
 20
0.0
  0
LWPOLYLINE
  5
45D
102
{ACAD_REACTORS
330
45E
102
}
330
1F
100
AcDbEntity
  8
Drawing
100
AcDbPolyline
 90
        4
 70
     1
 43
0.0
 10
801.348695920174
 20
339.0900715261518
 10
832.3953618402822
 20
339.0900715261518
 10
832.3953618402822
 20
338.5459022447054
 10
801.348695920174
 20
338.5459022447054
  0
HATCH
  5
45E
330
1F
100
AcDbEntity
  8
Drawing
100
AcDbHatch
 10
0.0
 20
0.0
 30
0.0
210
0.0
220
0.0
230
1.0
  2
SOLID
 70
     1
 71
     1
 91
        1
 92
        1
 93
        4
 72
     1
 10
801.348695920174
 20
339.0900715261518
 11
832.3953618402822
 21
339.0900715261518
 72
     1
 10
832.3953618402822
 20
339.0900715261518
 11
832.3953618402822
 21
338.5459022447054
 72
     1
 10
832.3953618402822
 20
338.5459022447054
 11
801.348695920174
 21
338.5459022447054
 72
     1
 10
801.348695920174
 20
338.5459022447054
 11
801.348695920174
 21
339.0900715261518
 97
        1
330
45D
 75
     0
 76
     1
 98
        1
 10
0.4408946679716337
 20
-15.41851983181607
  0
MTEXT
  5
462
330
1F
100
AcDbEntity
  8
Drawing
100
AcDbMText
 10
805.5915993113152
 20
336.1224792105453
 30
0.0
 40
3.5
 41
22.02218201290787
 46
0.0
 71
     1
 72
     5
  1
150mm
  7
verdana
 73
     1
 44
1.0
  0
TEXT
  5
463
330
1F
100
AcDbEntity
  8
Drawing
100
AcDbText
 10
793.4055323751144
 20
267.1036805463434
 30
0.0
 40
3.5
  1
metre
100
AcDbText
  0
MTEXT
  5
464
330
1F
100
AcDbEntity
  8
Drawing
100
AcDbMText
 10
761.3812543354087
 20
271.9048818502092
 30
0.0
 40
3.5
 41
3.9151
 46
0.0
 71
     1
 72
     5
  1
0
  7
verdana
 73
     1
 44
1.0
  0
MTEXT
  5
467
330
1F
100
AcDbEntity
  8
Drawing
100
AcDbMText
 10
861.9519371925272
 20
272.2538241075723
 30
0.0
 40
3.5
 41
2.9363
 46
0.0
 71
     1
 72
     5
  1
1
  7
verdana
 73
     1
 44
1.0
  0
HATCH
  5
5E4
330
1F
100
AcDbEntity
  8
Drawing
 62
     1
100
AcDbHatch
 10
0.0
 20
0.0
 30
0.0
210
0.0
220
0.0
230
1.0
  2
SOLID
 70
     1
 71
     0
 91
       12
 92
        7
 72
     0
 73
     1
 93
        3
 10
906.668386178491
 20
518.6515008494057
 10
905.8693739691888
 20
518.1725102443212
 10
906.6683861784911
 20
517.6935196392361
 97
        0
 92
        7
 72
     0
 73
     1
 93
        3
 10
902.7641605150036
 20
518.1745027671208
 10
901.8053474598945
 20
517.0029235526732
 10
903.2435670425591
 20
516.7366556493553
 97
        0
 92
        7
 72
     0
 73
     1
 93
        3
 10
895.0936600642597
 20
517.3756990571679
 10
894.9871235069656
 20
516.2573725436828
 10
896.2122739651766
 20
516.5768953472152
 97
        0
 92
        7
 72
     0
 73
     1
 93
        3
 10
888.823820072067
 20
520.5142435575714
 10
888.823820072067
 20
519.609482059576
 10
889.7826331271768
 20
519.8755894174584
 97
        0
 92
        7
 72
     0
 73
     1
 93
        3
 10
899.887721349675
 20
520.2513910934457
 10
898.3429691998499
 20
520.1981383924837
 10
899.1419774190188
 20
519.0265591780359
 97
        0
 92
        7
 72
     0
 73
     1
 93
        3
 10
905.656304844734
 20
521.8447737492246
 10
905.0703657500186
 20
521.0996757862576
 10
906.0291788051288
 20
520.9932341626564
 97
        0
 92
        7
 72
     0
 73
     1
 93
        3
 10
903.539038878065
 20
521.9376057116361
 10
903.2360662749682
 20
521.0527279349716
 10
904.2615118875594
 20
521.0294419783947
 97
        0
 92
        7
 72
     0
 73
     1
 93
        3
 10
894.190361732806
 20
522.9930782740599
 10
893.3112156778059
 20
522.1146946110085
 10
894.301800312921
 20
521.9909791790674
 97
        0
 92
        7
 72
     0
 73
     1
 93
        3
 10
891.3273852770016
 20
524.0800632396218
 10
890.3685722218922
 20
523.3349674759071
 10
891.4871901129425
 20
522.6963133357937
 97
        0
 92
        7
 72
     0
 73
     1
 93
        3
 10
894.8430318156933
 20
525.1977101840722
 10
893.7244179147762
 20
524.9316028261902
 10
894.6299626912383
 20
524.0800632396216
 97
        0
 92
        7
 72
     0
 73
     1
 93
        3
 10
899.6903613797546
 20
525.1977101840722
 10
898.6782800459985
 20
525.304151807674
 10
898.6782800459986
 20
524.1865070624755
 97
        0
 92
        7
 72
     0
 73
     1
 93
        3
 10
902.6733331122447
 20
524.5590538447067
 10
902.566800545084
 20
523.5478529223619
 10
903.3658087642533
 20
523.7075164573904
 97
        0
 75
     0
 76
     1
 47
0.0418749129345913
 98
       12
 10
906.4406992012237
 20
518.073827199777
 10
902.5011912368674
 20
517.2363291195248
 10
895.3765493576934
 20
516.6082051198455
 10
888.9643711160394
 20
520.0000733996434
 10
898.9807795298758
 20
519.8744485997075
 10
905.6025059002121
 20
521.2981955998304
 10
903.632751918034
 20
521.2981955998304
 10
894.0354397615623
 20
522.2194438397
 10
890.976034723954
 20
523.4338163197598
 10
894.454536805209
 20
524.7319385199468
 10
898.8969602784028
 20
524.8575633198826
 10
902.8364682427591
 20
523.8106902800772
450
        1
451
        0
460
0.0
461
0.0
452
        1
462
0.5400000214576721
453
        2
463
0.0
 63
     1
421
 16711680
463
1.0
 63
     1
421
 16716820
470
LINEAR
  0
HATCH
  5
5E5
330
1F
100
AcDbEntity
  8
Drawing
 62
     1
100
AcDbHatch
 10
0.0
 20
0.0
 30
0.0
210
0.0
220
0.0
230
1.0
  2
SOLID
 70
     1
 71
     0
 91
       12
 92
        7
 72
     0
 73
     1
 93
        3
 10
892.18088674572
 20
510.5702396340339
 10
891.0505578136342
 20
510.0683064264696
 10
892.0198609290107
 20
509.2845697956565
 97
        0
 92
        7
 72
     0
 73
     1
 93
        3
 10
895.2691700646006
 20
509.2845697956564
 10
894.5234261339453
 20
508.486252120515
 10
895.5887757463487
 20
508.2733666740596
 97
        0
 92
        7
 72
     0
 73
     1
 93
        3
 10
897.9858043939902
 20
509.1781281720552
 10
897.5596661450816
 20
508.379808297661
 10
898.6250157574848
 20
508.4330302090881
 97
        0
 92
        7
 72
     0
 73
     1
 93
        3
 10
901.501450932681
 20
510.1361093822251
 10
901.6079874899748
 20
509.1781281720552
 10
902.3537274304967
 20
509.6038968657131
 97
        0
 92
        7
 72
     0
 73
     1
 93
        3
 10
905.0170974713727
 20
512.2117353375935
 10
903.8452152918088
 20
512.3713988726219
 10
904.3778900980103
 20
511.3601957510251
 97
        0
 92
        7
 72
     0
 73
     1
 93
        3
 10
906.5085813425502
 20
515.1389030787828
 10
905.4965039989273
 20
515.0324592559288
 10
906.1889796509355
 20
514.3405832043886
 97
        0
 92
        7
 72
     0
 73
     1
 93
        3
 10
904.8656838856188
 20
514.0837698877332
 10
903.4841720764471
 20
514.2092526398116
 10
904.3633141413136
 20
513.3308689767599
 97
        0
 92
        7
 72
     0
 73
     1
 93
        3
 10
896.8277919175407
 20
511.4486210978326
 10
896.0742392961499
 20
510.1937891785475
 10
897.4557550954548
 20
509.942821475139
 97
        0
 92
        7
 72
     0
 73
     1
 93
        3
 10
890.4225986258522
 20
513.2053862246822
 10
889.166676260157
 20
513.5818366801687
 10
889.7293648485298
 20
512.052071802565
 97
        0
 92
        7
 72
     0
 73
     1
 93
        4
 10
892.3064801793295
 20
515.2131190549403
 10
891.6785170014155
 20
515.5895673111746
 10
891.5529275579389
 20
515.7150500632526
 10
891.9297038686343
 20
514.3347353918894
 97
        0
 92
        7
 72
     0
 73
     1
 93
        3
 10
899.3550465434735
 20
513.9674690150026
 10
898.928908294565
 20
512.9556501026951
 10
900.2605953100688
 20
513.1154126040873
 97
        0
 92
        7
 72
     0
 73
     1
 93
        3
 10
888.9154933830711
 20
516.2169832708167
 10
889.0410868166807
 20
514.9621513515316
 10
890.1714157487663
 20
515.7150500632523
 97
        0
 75
     0
 76
     1
 47
0.0418749129345913
 98
       12
 10
891.7304087734924
 20
509.9500937996758
 10
895.167000442729
 20
508.5682218793617
 10
898.016857351655
 20
508.6519715994888
 10
901.7887268130653
 20
509.6569695594856
 10
904.4709452190455
 20
512.0019647994781
 10
906.1054214090498
 20
514.8075841594053
 10
904.1775770526081
 20
514.0119607194716
 10
896.675748541806
 20
510.5363427195465
 10
889.7606547913143
 20
513.1744621997291
 10
891.8980472764383
 20
515.0588333197867
 10
899.441786199259
 20
513.4675868794096
 10
889.3415577476675
 20
515.7288319597845
450
        1
451
        0
460
0.0
461
0.0
452
        1
462
0.5400000214576721
453
        2
463
0.0
 63
     1
421
 16711680
463
1.0
 63
     1
421
 16716820
470
LINEAR
  0
LWPOLYLINE
  5
5E6
330
1F
100
AcDbEntity
  8
Drawing
100
AcDbPolyline
 90
        2
 70
     0
 43
0.0
 10
903.2127608715643
 20
521.0527279349716
 10
901.9775650557741
 20
520.0747054530194
  0
LWPOLYLINE
  5
5E7
330
1F
100
AcDbEntity
  8
Drawing
100
AcDbPolyline
 90
        3
 70
     1
 43
0.0
 10
903.5390388780648
 20
521.9376057116359
 10
904.2615118875594
 20
521.0294419783949
 10
903.2360662749683
 20
521.0527279349716
  0
HATCH
  5
5E8
330
1F
100
AcDbEntity
  8
Drawing
  6
ACAD_ISO03W100
370
   100
100
AcDbHatch
 10
0.0
 20
0.0
 30
0.0
210
0.0
220
0.0
230
1.0
  2
AR-SAND
 70
     0
 71
     1
 91
        1
 92
        7
 72
     0
 73
     1
 93
       17
 10
728.4452269136658
 20
515.5894617470525
 10
726.561632649782
 20
513.331108695287
 10
726.938349108479
 20
512.9547154203661
 10
727.3150695573087
 20
512.3273962278352
 10
728.8219433723624
 20
510.8218253274059
 10
730.0776742116628
 20
510.8218253274059
 10
731.3334010608304
 20
511.0727534442688
 10
733.9704322322413
 20
512.8292524615609
 10
738.3654881747289
 20
517.3459607643472
 10
741.6303827707203
 20
520.6080284828149
 10
741.2536663120233
 20
522.3645253008551
 10
739.9979354727227
 20
524.2464872769525
 10
738.3654881747256
 20
523.1173096514434
 10
736.733036886596
 20
521.737206108324
 10
735.1005895885983
 20
520.9844195584831
 10
732.9658523489621
 20
519.2279227404441
 10
730.4543906703598
 20
517.3459607643448
 97
        1
330
61E
 75
     0
 76
     1
 52
0.0
 41
0.25
 77
     0
 78
     4
 53
37.5
 43
-67.09207550947144
 44
42.61353063008966
 45
-0.4000078239960114
 46
12.23533093323356
 79
     6
 49
0.0
 49
-9.652000000000001
 49
0.0
 49
-10.795
 49
0.0
 49
-10.31875
 53
7.499999999999999
 43
-67.09207550947144
 44
42.61353063008966
 45
11.23808207845007
 46
17.92062751420886
 79
     6
 49
0.0
 49
-5.207000000000001
 49
0.0
 49
-8.6995
 49
0.0
 49
-3.33375
 53
327.5
 43
-74.90257550947149
 44
42.61353063008966
 45
19.77480925603645
 46
0.0359296169636423
 79
     6
 49
0.0
 49
-3.175
 49
0.0
 49
-11.43
 49
0.0
 49
-14.9225
 53
317.5
 43
-74.90257550947149
 44
42.61353063008966
 45
19.08891131180743
 46
5.573233081430406
 79
     6
 49
0.0
 49
-1.5875
 49
0.0
 49
-7.492999999999999
 49
0.0
 49
-8.5725
 47
0.1110776488874967
 98
        1
 10
731.4444624292089
 20
515.0475307335738
  0
LWPOLYLINE
  5
5EA
330
1F
100
AcDbEntity
  8
Drawing
100
AcDbPolyline
 90
        3
 70
     0
 43
0.0
 10
898.5834585198743
 20
514.9920106032442
 10
899.4725280362225
 20
516.436020026622
 10
900.583859943991
 20
514.8809329552925
  0
LWPOLYLINE
  5
5EB
330
1F
100
AcDbEntity
  8
Drawing
100
AcDbPolyline
 90
        3
 70
     0
 43
0.0
 10
892.2488466949269
 20
517.5467965061431
 10
893.1379162112751
 20
518.9908059295204
 10
894.1381189184001
 20
517.2135635622868
  0
LWPOLYLINE
  5
5F2
330
1F
100
AcDbEntity
  8
Drawing
100
AcDbPolyline
 90
        2
 70
     0
 43
0.0
 10
901.8053474598944
 20
517.0029235526732
 10
899.8877213496751
 20
517.0029235526732
  0
LWPOLYLINE
  5
5F3
330
1F
100
AcDbEntity
  8
Drawing
100
AcDbPolyline
 90
        2
 70
     0
 43
0.0
 10
896.1590056865296
 20
516.6301480481781
 10
898.3962374784967
 20
516.7899083503181
  0
LWPOLYLINE
  5
5F4
330
1F
100
AcDbEntity
  8
Drawing
100
AcDbPolyline
 90
        2
 70
     0
 43
0.0
 10
899.4615831007666
 20
513.9142163140401
 10
899.035444851859
 20
516.2573725436829
  0
LWPOLYLINE
  5
5F5
330
1F
100
AcDbEntity
  8
Drawing
100
AcDbPolyline
 90
        2
 70
     0
 43
0.0
 10
899.1419774190188
 20
519.1863194801759
 10
899.088713130506
 20
517.1626838548133
  0
LWPOLYLINE
  5
5F6
330
1F
100
AcDbEntity
  8
Drawing
100
AcDbPolyline
 90
        3
 70
     1
 43
0.0
 10
898.928908294565
 20
512.9556501026951
 10
900.260595310069
 20
513.1154126040875
 10
899.3550465434735
 20
513.9674690150028
  0
LWPOLYLINE
  5
5F7
330
1F
100
AcDbEntity
  8
Drawing
100
AcDbPolyline
 90
        3
 70
     1
 43
0.0
 10
902.7641605150036
 20
518.1745027671205
 10
903.2435670425591
 20
516.7366556493554
 10
901.8053474598944
 20
517.0029235526732
  0
LWPOLYLINE
  5
5F8
330
1F
100
AcDbEntity
  8
Drawing
100
AcDbPolyline
 90
        3
 70
     1
 43
0.0
 10
898.3429691998497
 20
520.1981383924837
 10
899.8877213496751
 20
520.2513910934459
 10
899.1419774190188
 20
519.0265591780359
  0
LWPOLYLINE
  5
5F9
330
1F
100
AcDbEntity
  8
Drawing
100
AcDbPolyline
 90
        3
 70
     1
 43
0.0
 10
895.0936600642597
 20
517.3756990571679
 10
894.9871235069656
 20
516.2573725436829
 10
896.2122739651766
 20
516.5768953472153
  0
LWPOLYLINE
  5
5FA
330
1F
100
AcDbEntity
  8
Drawing
  6
ACAD_ISO03W100
 48
0.15
100
AcDbPolyline
 90
       15
 70
   129
 43
0.0
 10
899.6746522252204
 20
512.8491447007701
 10
901.7520791812474
 20
513.7544538126477
 10
902.6043556790635
 20
514.5000048216376
 10
903.1902987639121
 20
515.1923009304129
 10
903.5099044456599
 20
517.535459359308
 10
902.4978231119028
 20
519.1330667792132
 10
900.5269287230365
 20
520.3578986946233
 10
898.7158391701112
 20
520.5709138969784
 10
895.7861357162681
 20
519.6656025858484
 10
894.9338552283186
 20
517.3224441569533
 10
894.8273226611589
 20
515.7248367370481
 10
895.9459365620758
 20
513.8077087128628
 10
897.1710870202858
 20
513.4881859093304
 10
898.928908294565
 20
512.6893821993777
 10
899.7279205038674
 20
512.7426370995928
  0
LWPOLYLINE
  5
5FB
330
1F
100
AcDbEntity
  8
Drawing
  6
ACAD_ISO03W100
 48
0.15
100
AcDbPolyline
 90
       21
 70
   129
 43
0.0
 10
890.7947144609332
 20
519.8223675060314
 10
891.7002592373963
 20
521.8447737492248
 10
892.6058040138594
 20
522.9091965829963
 10
894.0440235965232
 20
523.4946310109354
 10
896.8139262045595
 20
523.6010726345368
 10
899.7436296584017
 20
523.4414090995084
 10
902.406995709144
 20
522.9624184944233
 10
903.685414446001
 20
522.802754959395
 10
905.762841402028
 20
519.4498185245476
 10
905.656304844734
 20
516.9484238755214
 10
905.4432357202802
 20
515.4050082374125
 10
904.8040283469179
 20
513.7019290642753
 10
903.0994713611524
 20
511.6263031089071
 10
901.6079874899749
 20
510.3489948286807
 10
899.6370931011086
 20
509.6571187771402
 10
897.4531335779209
 20
509.4442333306848
 10
895.2159017859537
 20
510.0296655593712
 10
892.4992674565653
 20
511.6263031089071
 10
891.2741209884878
 20
514.2341415807874
 10
890.7947144609332
 20
517.0016435876956
 10
890.7947144609332
 20
519.0240498308896
  0
LWPOLYLINE
  5
5FC
330
1F
100
AcDbEntity
  8
Drawing
100
AcDbPolyline
 90
        3
 70
     1
 43
0.0
 10
904.3778900980103
 20
511.3601957510251
 10
903.8452152918087
 20
512.3713988726219
 10
905.0170974713726
 20
512.2117353375935
  0
LWPOLYLINE
  5
5FD
330
1F
100
AcDbEntity
  8
Drawing
100
AcDbPolyline
 90
        3
 70
     1
 43
0.0
 10
906.1889796509356
 20
514.3405832043887
 10
906.5085813425501
 20
515.1389030787828
 10
905.4965039989272
 20
515.0324592559288
  0
LWPOLYLINE
  5
5FE
330
1F
100
AcDbEntity
  8
Drawing
100
AcDbPolyline
 90
        3
 70
     1
 43
0.0
 10
905.8693739691887
 20
518.1725102443212
 10
906.6683861784911
 20
518.6515008494058
 10
906.6683861784911
 20
517.6935196392361
  0
LWPOLYLINE
  5
5FF
330
1F
100
AcDbEntity
  8
Drawing
100
AcDbPolyline
 90
        3
 70
     1
 43
0.0
 10
905.656304844734
 20
521.8447737492248
 10
905.0703657500187
 20
521.0996757862578
 10
906.0291788051288
 20
520.9932341626564
  0
LWPOLYLINE
  5
600
330
1F
100
AcDbEntity
  8
Drawing
100
AcDbPolyline
 90
        3
 70
     1
 43
0.0
 10
902.6733331122448
 20
524.5590538447065
 10
903.3658087642532
 20
523.7075164573904
 10
902.5668005450841
 20
523.547852922362
  0
LWPOLYLINE
  5
601
330
1F
100
AcDbEntity
  8
Drawing
100
AcDbPolyline
 90
        3
 70
     1
 43
0.0
 10
898.6782800459985
 20
525.304151807674
 10
898.6782800459985
 20
524.1865070624755
 10
899.6903613797547
 20
525.1977101840722
  0
LWPOLYLINE
  5
602
330
1F
100
AcDbEntity
  8
Drawing
100
AcDbPolyline
 90
        3
 70
     1
 43
0.0
 10
893.7244179147763
 20
524.9316028261902
 10
894.6299626912385
 20
524.0800632396218
 10
894.8430318156932
 20
525.1977101840722
  0
LWPOLYLINE
  5
603
330
1F
100
AcDbEntity
  8
Drawing
100
AcDbPolyline
 90
        3
 70
     1
 43
0.0
 10
890.3685722218922
 20
523.3349674759071
 10
891.3273852770014
 20
524.0800632396218
 10
891.4871901129425
 20
522.6963133357937
  0
LWPOLYLINE
  5
604
330
1F
100
AcDbEntity
  8
Drawing
100
AcDbPolyline
 90
        3
 70
     1
 43
0.0
 10
888.8238200720668
 20
520.5142435575714
 10
888.8238200720668
 20
519.609482059576
 10
889.782633127177
 20
519.8755894174584
  0
LWPOLYLINE
  5
605
330
1F
100
AcDbEntity
  8
Drawing
100
AcDbPolyline
 90
        3
 70
     1
 43
0.0
 10
901.6079874899749
 20
509.1781281720552
 10
902.353727430497
 20
509.6038968657132
 10
901.5014509326809
 20
510.1361093822253
  0
LWPOLYLINE
  5
606
330
1F
100
AcDbEntity
  8
Drawing
100
AcDbPolyline
 90
        3
 70
     1
 43
0.0
 10
897.5596661450816
 20
508.379808297661
 10
898.6250157574848
 20
508.4330302090881
 10
897.9858043939901
 20
509.1781281720552
  0
LWPOLYLINE
  5
607
330
1F
100
AcDbEntity
  8
Drawing
100
AcDbPolyline
 90
        3
 70
     1
 43
0.0
 10
894.5234261339453
 20
508.4862521205151
 10
895.5887757463486
 20
508.2733666740597
 10
895.2691700646008
 20
509.2845697956565
  0
LWPOLYLINE
  5
608
330
1F
100
AcDbEntity
  8
Drawing
100
AcDbPolyline
 90
        3
 70
     1
 43
0.0
 10
888.9154933830712
 20
516.216983270817
 10
890.1714157487665
 20
515.7150500632525
 10
889.0410868166807
 20
514.9621513515318
  0
LWPOLYLINE
  5
609
330
1F
100
AcDbEntity
  8
Drawing
100
AcDbPolyline
 90
        3
 70
     1
 43
0.0
 10
889.7293648485299
 20
512.0520718025651
 10
890.4225986258523
 20
513.2053862246822
 10
889.1666762601569
 20
513.5818366801687
  0
LWPOLYLINE
  5
60A
330
1F
100
AcDbEntity
  8
Drawing
100
AcDbPolyline
 90
        3
 70
     1
 43
0.0
 10
891.0505578136342
 20
510.0683064264696
 10
892.18088674572
 20
510.570239634034
 10
892.0198609290107
 20
509.2845697956565
  0
LWPOLYLINE
  5
60B
330
1F
100
AcDbEntity
  8
Drawing
100
AcDbPolyline
 90
        2
 70
     0
 43
0.0
 10
896.95338535115
 20
511.4486210978326
 10
897.581344538931
 20
513.0799034726043
  0
LWPOLYLINE
  5
60C
330
1F
100
AcDbEntity
  8
Drawing
100
AcDbPolyline
 90
        2
 70
     0
 43
0.0
 10
903.4460012544763
 20
514.2486649467995
 10
902.7598529084921
 20
514.579634140311
  0
LWPOLYLINE
  5
60D
330
1F
100
AcDbEntity
  8
Drawing
100
AcDbPolyline
 90
        2
 70
     0
 43
0.0
 10
892.3064801793296
 20
515.3386018070183
 10
894.9439103640632
 20
515.2131190549404
  0
LWPOLYLINE
  5
60E
330
1F
100
AcDbEntity
  8
Drawing
100
AcDbPolyline
 90
        3
 70
     1
 43
0.0
 10
904.3633141413136
 20
513.3308689767601
 10
904.8656838856184
 20
514.0837698877332
 10
903.4841720764468
 20
514.2092526398116
  0
LWPOLYLINE
  5
60F
330
1F
100
AcDbEntity
  8
Drawing
100
AcDbPolyline
 90
        3
 70
     1
 43
0.0
 10
896.0742392961499
 20
510.1937891785475
 10
896.8277919175405
 20
511.4486210978326
 10
897.4557550954548
 20
509.9428214751389
  0
LWPOLYLINE
  5
610
330
1F
100
AcDbEntity
  8
Drawing
100
AcDbPolyline
 90
        4
 70
     1
 43
0.0
 10
891.552927557939
 20
515.7150500632525
 10
891.9297038686343
 20
514.3347353918895
 10
892.3064801793296
 20
515.2131190549404
 10
891.6785170014152
 20
515.5895673111746
  0
LWPOLYLINE
  5
611
330
1F
100
AcDbEntity
  8
Drawing
100
AcDbPolyline
 90
        5
 70
     0
 43
0.0
 10
896.325426163369
 20
519.7305135245166
 10
894.3159511762822
 20
521.8637291068527
 10
894.190361732806
 20
522.9930782740599
 10
893.3112156778059
 20
522.1146946110085
 10
894.3159511762822
 20
521.9892118589306
  0
LWPOLYLINE
  5
612
330
1F
100
AcDbEntity
  8
Drawing
100
AcDbPolyline
 90
       27
 70
     1
 43
0.0
 10
889.7946394380713
 20
511.4486210978326
 10
888.6643105059854
 20
514.4602181439674
 10
888.6643105059854
 20
517.4718151901021
 10
888.6643105059854
 20
519.7305135245166
 10
888.7898999494616
 20
521.9892118589306
 10
890.1714157487665
 20
523.4950114816244
 10
891.8041104350248
 20
524.6243606488316
 10
893.5623985548916
 20
525.0008089050654
 10
894.9439103640632
 20
525.3772593605519
 10
896.325426163369
 20
525.7537098160388
 10
900.846737901579
 20
525.251776608474
 10
902.4794365779705
 20
524.8753261529874
 10
904.4889075749231
 20
523.3695287295465
 10
906.24719569479
 20
521.4872786513662
 10
907.0007483161814
 20
518.6011643573094
 10
906.7495654390957
 20
515.3386018070183
 10
905.2424601963137
 20
512.076037057475
 10
903.7353549535326
 20
509.9428214751389
 10
902.7306194550563
 20
509.3154055154961
 10
900.5955550244933
 20
508.4370240516974
 10
897.9581208496263
 20
508.0605735962109
 10
895.5718735419775
 20
508.0605735962109
 10
893.8135854221107
 20
508.4370240516974
 10
892.8088459335011
 20
508.6879895558537
 10
891.8041104350248
 20
509.1899227634182
 10
890.5481920594618
 20
510.1937891785475
 10
890.1714157487665
 20
511.3231383457543
  0
MTEXT
  5
613
330
1F
100
AcDbEntity
  8
Drawing
370
     9
100
AcDbMText
 10
835.9228531399219
 20
525.9418998557413
 30
0.0
 40
2.5
 41
18.4122985344693
 46
0.0
 71
     1
 72
     5
  1
{\fArial|b0|i0|c0|p34;NE}
 73
     1
 44
1.0
  0
MTEXT
  5
614
330
1F
100
AcDbEntity
  8
Drawing
370
     9
100
AcDbMText
 10
779.6576173436395
 20
526.4438330633058
 30
0.0
 40
2.5
 41
18.4122985344693
 46
0.0
 71
     1
 72
     5
  1
{\fArial|b0|i0|c0|p34;SW}
 73
     1
 44
1.0
  0
LWPOLYLINE
  5
615
330
1F
100
AcDbEntity
  8
Drawing
100
AcDbPolyline
 90
        5
 70
     0
 43
0.0
 10
821.7012362350631
 20
507.6841253399772
 10
821.450049367844
 20
508.4370240516974
 10
821.3244599243678
 20
508.8134745071844
 10
820.194130992282
 20
509.817338723061
 10
820.194130992282
 20
510.4447546827033
  0
LWPOLYLINE
  5
616
330
1F
100
AcDbEntity
  8
Drawing
100
AcDbPolyline
 90
        5
 70
     0
 43
0.0
 10
822.8315651671489
 20
508.5625068037758
 10
822.3291954228441
 20
510.0683064264696
 10
822.3291954228441
 20
510.0683064264696
 10
822.3291954228441
 20
510.6957223861119
 10
821.5756428014536
 20
511.1976555936764
  0
LWPOLYLINE
  5
617
330
1F
100
AcDbEntity
  8
Drawing
100
AcDbPolyline
 90
       14
 70
     0
 43
0.0
 10
819.8173546815867
 20
506.6802589248479
 10
819.6917612479772
 20
507.8096080920551
 10
819.566171804501
 20
508.6879895558537
 10
819.1893954938048
 20
509.9428214751389
 10
819.1893954938048
 20
511.0721706423461
 10
819.9429481151963
 20
511.5741038499106
 10
820.9476836136726
 20
511.4486210978326
 10
821.1988664907583
 20
511.8250715533192
 10
821.9524191121488
 20
511.8250715533192
 10
822.3291954228441
 20
511.6995866019885
 10
823.3339309213204
 20
511.1976555936764
 10
823.5851177885395
 20
511.0721706423461
 10
824.7154427304929
 20
510.1937891785475
 10
824.966629597712
 20
509.9428214751389
  0
LWPOLYLINE
  5
618
330
1F
100
AcDbEntity
  8
Drawing
100
AcDbPolyline
 90
       10
 70
     0
 43
0.0
 10
800.3505879393049
 20
516.8443992304598
 10
799.8482181950001
 20
515.9660177666611
 10
799.7226287515239
 20
515.3386018070183
 10
800.0994050622191
 20
515.2131190549404
 10
800.0994050622191
 20
514.9621513515318
 10
800.6017708163906
 20
514.5857008960453
 10
800.6017708163906
 20
514.2092526398116
 10
800.8529536934764
 20
514.0837698877332
 10
801.4809168713907
 20
514.0837698877332
 10
801.857693182086
 20
513.8328021843246
  0
LWPOLYLINE
  5
619
330
1F
100
AcDbEntity
  8
Drawing
100
AcDbPolyline
 90
       22
 70
     1
 43
0.0
 10
797.8387471980475
 20
516.96988418179
 10
797.8387471980475
 20
517.3463324380242
 10
799.5970353179143
 20
517.7227828935107
 10
800.3505879393049
 20
517.7227828935107
 10
800.7273642500002
 20
517.7227828935107
 10
801.857693182086
 20
517.7227828935107
 10
802.7368352469528
 20
517.7227828935107
 10
803.3647944347347
 20
517.7227828935107
 10
803.4903878683442
 20
516.96988418179
 10
803.4903878683442
 20
516.4679509742256
 10
803.8671641790395
 20
514.9621513515318
 10
803.3647944347347
 20
513.958284936403
 10
803.3647944347347
 20
513.3308689767601
 10
802.8624286805623
 20
513.2053862246822
 10
801.9832826255622
 20
512.5779702650394
 10
799.5970353179143
 20
512.8289357691957
 10
798.4667063858285
 20
513.3308689767601
 10
798.4667063858285
 20
514.2092526398116
 10
798.4667063858285
 20
514.5857008960453
 10
797.9643366415237
 20
515.4640845590962
 10
797.9643366415237
 20
516.216983270817
 10
797.9643366415237
 20
516.7189164783814
  0
LWPOLYLINE
  5
61A
330
1F
100
AcDbEntity
  8
Drawing
100
AcDbPolyline
 90
       13
 70
     1
 43
0.0
 10
795.2013130231796
 20
518.2247161010752
 10
796.0804590781797
 20
518.0992333489972
 10
796.5828248323512
 20
518.6011643573094
 10
797.4619708873513
 20
518.72664930864
 10
798.0899300751332
 20
519.1030975648738
 10
798.0899300751332
 20
519.6050307724382
 10
797.2107880102656
 20
520.1069639800031
 10
796.5828248323512
 20
520.1069639800031
 10
795.8292722109607
 20
519.7305135245166
 10
795.5780893338749
 20
519.3540652682824
 10
795.3269064567892
 20
519.1030975648738
 10
795.0757195895701
 20
518.72664930864
 10
795.0757195895701
 20
518.4756816052314
  0
LWPOLYLINE
  5
61B
330
1F
100
AcDbEntity
  8
Drawing
100
AcDbPolyline
 90
       80
 70
     1
 43
0.0
 10
797.2107880102656
 20
522.3656623144171
 10
798.2155235087428
 20
522.491145066495
 10
798.7178892629142
 20
522.2401795623392
 10
799.5970353179143
 20
522.3656623144171
 10
800.4761773827811
 20
522.1146946110085
 10
802.1088760591717
 20
522.6166278185734
 10
803.2392049912585
 20
522.6166278185734
 10
804.7463102340396
 20
522.867595521982
 10
806.0022286096016
 20
522.7421127699037
 10
807.1325575416874
 20
522.491145066495
 10
808.5140693508599
 20
522.2401795623392
 10
808.8908456615552
 20
521.7382463547748
 10
811.9050561471174
 20
522.491145066495
 10
812.2818324578127
 20
522.867595521982
 10
813.1609745226795
 20
522.867595521982
 10
814.4168968883757
 20
522.867595521982
 10
815.9240021311568
 20
522.6166278185734
 10
818.3102494388047
 20
522.7421127699037
 10
818.6870257495
 20
522.7421127699037
 10
819.566171804501
 20
522.7421127699037
 10
821.5756428014536
 20
522.9930782740599
 10
823.3339309213204
 20
522.2401795623392
 10
824.7154427304929
 20
522.7421127699037
 10
827.8552466496647
 20
522.7421127699037
 10
828.859982148141
 20
522.7421127699037
 10
829.2367584588362
 20
522.7421127699037
 10
829.9903110802277
 20
522.7421127699037
 10
830.6182702680087
 20
522.7421127699037
 10
830.7438637016182
 20
521.9892118589306
 10
830.367087390923
 20
519.9814812279252
 10
830.367087390923
 20
519.3540652682824
 10
830.367087390923
 20
518.0992333489972
 10
830.1159045138372
 20
517.5973001414328
 10
830.1159045138372
 20
515.8405350145832
 10
829.487941335922
 20
515.4640845590962
 10
829.3623518924458
 20
514.4602181439674
 10
829.3623518924458
 20
513.3308689767601
 10
829.1111650252267
 20
512.7034530171178
 10
829.1111650252267
 20
511.5741038499106
 10
827.9808360931409
 20
510.1937891785475
 10
826.9761005946646
 20
509.1899227634182
 10
826.222547973274
 20
508.9389572592623
 10
826.0969585297978
 20
508.4370240516974
 10
825.594588785493
 20
508.0605735962109
 10
823.2083414778442
 20
507.8096080920551
 10
822.2036019892346
 20
506.4292912214393
 10
821.9524191121488
 20
506.1783257172834
 10
820.9476836136726
 20
505.5509097576406
 10
818.4358428724142
 20
505.0489765500762
 10
817.5566968174141
 20
505.0489765500762
 10
816.9287376296331
 20
504.9234937979983
 10
816.049591574633
 20
504.2960778383559
 10
813.7889377005938
 20
503.919627382869
 10
813.4121613898985
 20
503.919627382869
 10
810.9003206486411
 20
504.5470433425118
 10
809.8955811600315
 20
505.0489765500762
 10
809.1420325287743
 20
505.4254270055627
 10
808.2628864737733
 20
505.5509097576406
 10
806.1278220432112
 20
505.9273602131276
 10
804.9974931111253
 20
506.5547761727699
 10
803.8671641790395
 20
506.9312244290041
 10
802.8624286805623
 20
507.3076748844907
 10
801.9832826255622
 20
507.3076748844907
 10
800.8529536934764
 20
507.6841253399772
 10
799.0946655736095
 20
507.6841253399772
 10
797.9643366415237
 20
507.6841253399772
 10
796.2060485216559
 20
508.1860563482893
 10
795.5780893338749
 20
509.9428214751389
 10
795.3269064567892
 20
511.8250715533192
 10
795.0757195895701
 20
512.8289357691957
 10
794.5733538353986
 20
514.3347353918895
 10
794.0709840910938
 20
516.216983270817
 10
794.0709840910938
 20
518.0992333489972
 10
794.0709840910938
 20
519.4795480203603
 10
793.8198012140081
 20
520.4834144354896
 10
793.6942077803985
 20
521.2363131472104
 10
793.3174314697033
 20
521.9892118589306
 10
794.5733538353986
 20
522.9930782740599
 10
796.3316419552655
 20
522.6166278185734
 10
796.5828248323512
 20
522.6166278185734
  0
MTEXT
  5
61C
330
1F
100
AcDbEntity
  8
Drawing
370
     9
100
AcDbMText
 10
728.4486304973123
 20
524.7498434009095
 30
0.0
 40
3.5
 41
18.4122985344693
 46
0.0
 71
     1
 72
     5
  1
{\fArial|b0|i0|c0|p34;5.59}
 73
     1
 44
1.0
  0
LWPOLYLINE
  5
61D
330
1F
100
AcDbEntity
  8
Drawing
100
AcDbPolyline
 90
        3
 70
     0
 43
0.0
 10
730.7092883614848
 20
519.7305135245166
 10
731.7140238599611
 20
521.3617958992883
 10
732.4675764813517
 20
519.6050307724382
  0
LWPOLYLINE
  5
61E
102
{ACAD_REACTORS
330
5E8
102
}
330
1F
100
AcDbEntity
  8
Drawing
100
AcDbPolyline
 90
       17
 70
     1
 43
0.0
 10
726.5616326497818
 20
513.3311086952868
 10
728.4452269136661
 20
515.5894617470527
 10
730.45439067036
 20
517.345960764345
 10
732.9658523489604
 20
519.227922740443
 10
735.100589588598
 20
520.984419558483
 10
736.7330368865958
 20
521.7372061083239
 10
738.3654881747259
 20
523.1173096514436
 10
739.9979354727227
 20
524.2464872769525
 10
741.2536663120234
 20
522.364525300855
 10
741.6303827707204
 20
520.608028482815
 10
738.3654881747259
 20
517.345960764345
 10
733.9704322322411
 20
512.8292524615609
 10
731.3334010608303
 20
511.0727534442686
 10
730.077674211663
 20
510.8218253274059
 10
728.8219433723623
 20
510.8218253274059
 10
727.3150695573083
 20
512.3273962278355
 10
726.9383491084789
 20
512.9547154203661
  0
LWPOLYLINE
  5
61F
330
1F
100
AcDbEntity
  8
Drawing
  6
ACAD_ISO03W100
 48
0.15
100
AcDbPolyline
 90
       22
 70
   129
 43
0.0
 10
724.1757444541242
 20
518.8515294655223
 10
724.301317937068
 20
520.8589565996778
 10
724.5524649029546
 20
523.6191680844219
 10
727.0639225914217
 20
526.3793773699132
 10
729.3242373041364
 20
527.5085549954225
 10
731.082258085077
 20
528.1358763872059
 10
732.589131900131
 20
528.010411229148
 10
734.2215791981278
 20
527.7594831122852
 10
737.235330818369
 20
526.8812336036391
 10
738.2399146917821
 20
525.6265930193246
 10
740.3746519314197
 20
524.2464872769525
 10
742.2582461953041
 20
520.2316352078943
 10
742.5093931611907
 20
517.9732821561284
 10
742.5093931611907
 20
514.8366773964641
 10
741.881529736607
 20
512.3273962278355
 10
740.2490824386102
 20
510.1945061348748
 10
738.2399146917821
 20
509.6926477018966
 10
734.9750161056543
 20
508.56347227564
 10
730.8311111191895
 20
509.4417195850339
 10
726.8127756255351
 20
511.5746096779945
 10
725.0547548445945
 20
514.0838930458755
 10
724.0501709711814
 20
517.9732821561284
  0
MTEXT
  5
633
330
1F
100
AcDbEntity
  8
Drawing
370
     9
100
AcDbMText
 10
907.7605204631411
 20
517.8805990680175
 30
0.0
 40
3.5
 41
22.38508081589305
 46
0.0
 71
     1
 72
     5
  1
{\fArial|b0|i0|c0|p34;5.39}
 73
     1
 44
1.0
  0
HATCH
  5
63A
330
1F
100
AcDbEntity
  8
Drawing
100
AcDbHatch
 10
0.0
 20
0.0
 30
0.0
210
0.0
220
0.0
230
1.0
  2
SOLID
 70
     1
 71
     0
 91
        1
 92
        1
 93
        4
 72
     1
 10
798.1450454009738
 20
498.8552029900307
 11
829.191711321082
 21
498.8552029900307
 72
     1
 10
829.191711321082
 20
498.8552029900307
 11
829.191711321082
 21
498.3110337085843
 72
     1
 10
829.191711321082
 20
498.3110337085843
 11
798.1450454009738
 21
498.3110337085843
 72
     1
 10
798.1450454009738
 20
498.3110337085843
 11
798.1450454009738
 21
498.8552029900307
 97
        0
 75
     0
 76
     1
 98
        1
 10
-2.762755851228576
 20
144.3466116320628
  0
MTEXT
  5
641
330
1F
100
AcDbEntity
  8
Drawing
100
AcDbMText
 10
805.0830836610265
 20
496.3716587445679
 30
0.0
 40
3.5
 41
22.02218201290787
 46
0.0
 71
     1
 72
     5
  1
150mm
  7
verdana
 73
     1
 44
1.0
  0
LWPOLYLINE
  5
643
330
1F
100
AcDbEntity
  8
Drawing
100
AcDbPolyline
 90
        2
 70
     0
 43
0.0
 10
900.3493300069406
 20
516.3485206958864
 10
907.6753349183518
 20
516.3485206958864
  0
LWPOLYLINE
  5
688
330
1F
100
AcDbEntity
  8
Drawing
  6
ACAD_ISO03W100
100
AcDbPolyline
 90
        2
 70
     0
 43
0.0
 10
907.7705489741701
 20
484.8238265785388
 10
907.8483086905943
 20
483.5807232730406
  0
LWPOLYLINE
  5
689
330
1F
100
AcDbEntity
  8
Drawing
  6
ACAD_ISO03W100
100
AcDbPolyline
 90
        2
 70
     0
 43
0.0
 10
907.6150255511874
 20
487.3100309902832
 10
907.8483086905943
 20
485.8338465022701
  0
LWPOLYLINE
  5
68A
330
1F
100
AcDbEntity
  8
Drawing
  6
ACAD_ISO03W100
100
AcDbPolyline
 90
        2
 70
     0
 43
0.0
 10
892.0627670457314
 20
483.192253902432
 10
892.1405267621566
 20
481.4052930382316
  0
LWPOLYLINE
  5
68B
330
1F
100
AcDbEntity
  8
Drawing
  6
ACAD_ISO03W100
100
AcDbPolyline
 90
        2
 70
     0
 43
0.0
 10
892.2182864785808
 20
486.3000110665519
 10
892.3738099015635
 20
484.3576620142574
  0
LWPOLYLINE
  5
68C
330
1F
100
AcDbEntity
  8
Drawing
  6
ACAD_ISO03W100
100
AcDbPolyline
 90
        2
 70
     0
 43
0.0
 10
902.0162142448816
 20
467.3193818279927
 10
903.6492002108652
 20
467.3193818279927
  0
LWPOLYLINE
  5
68D
330
1F
100
AcDbEntity
  8
Drawing
  6
ACAD_ISO03W100
100
AcDbPolyline
 90
        2
 70
     0
 43
0.0
 10
892.99589960336
 20
467.0863006454782
 10
894.6288855693437
 20
467.0863006454782
  0
LWPOLYLINE
  5
68E
330
1F
100
AcDbEntity
  8
Drawing
  6
ACAD_ISO03W100
100
AcDbPolyline
 90
        2
 70
     0
 43
0.0
 10
902.7160636631032
 20
477.7303684377565
 10
904.3490496290868
 20
477.7303684377565
  0
LWPOLYLINE
  5
68F
330
1F
100
AcDbEntity
  8
Drawing
  6
ACAD_ISO03W100
100
AcDbPolyline
 90
        2
 70
     0
 43
0.0
 10
893.0736633099185
 20
477.4195920615687
 10
895.5620261072389
 20
477.6526732440832
  0
LWPOLYLINE
  5
690
330
1F
100
AcDbEntity
  8
Drawing
  6
ACAD_ISO03W100
100
AcDbPolyline
 90
        3
 70
     1
 43
0.0
 10
905.4377095998315
 20
467.9409323811158
 10
905.5932330228142
 20
466.7755242692904
 10
903.7269599272903
 20
467.2416866343195
  0
LWPOLYLINE
  5
691
330
1F
100
AcDbEntity
  8
Drawing
  6
ACAD_ISO03W100
100
AcDbPolyline
 90
        3
 70
     1
 43
0.0
 10
906.3708461475934
 20
477.7303684377565
 10
905.9820395852038
 20
476.6426533203519
 10
904.8156198980349
 20
477.7303684377565
  0
LWPOLYLINE
  5
692
330
1F
100
AcDbEntity
  8
Drawing
  6
ACAD_ISO03W100
100
AcDbPolyline
 90
        3
 70
     1
 43
0.0
 10
891.5962007669167
 20
467.8632371874426
 10
892.684856747528
 20
467.1639914406463
 10
891.3629136373764
 20
466.4647478931027
  0
LWPOLYLINE
  5
693
330
1F
100
AcDbEntity
  8
Drawing
  6
ACAD_ISO03W100
100
AcDbPolyline
 90
        3
 70
     1
 43
0.0
 10
892.0627670457314
 20
478.1965308027855
 10
893.1514230263427
 20
477.4972850559892
 10
891.8294799161912
 20
476.7980415084456
  0
LWPOLYLINE
  5
694
330
1F
100
AcDbEntity
  8
Drawing
  6
ACAD_ISO03W100
100
AcDbPolyline
 90
        2
 70
     0
 43
0.0
 10
819.9276977356242
 20
471.695429724345
 10
823.4257964323518
 20
468.3572197158504
  0
MTEXT
  5
695
330
1F
100
AcDbEntity
  8
Drawing
370
     9
100
AcDbMText
 10
818.3608747823836
 20
475.3271984340202
 30
0.0
 40
3.5
 41
18.4122985344693
 46
0.0
 71
     1
 72
     5
  1
{\fArial|b0|i0|c0|p34;P}
 73
     1
 44
1.0
  0
MTEXT
  5
696
330
1F
100
AcDbEntity
  8
Drawing
370
     9
100
AcDbMText
 10
840.9683852656466
 20
474.4718147436118
 30
0.0
 40
2.5
 41
18.4122985344693
 46
0.0
 71
     1
 72
     5
  1
{\fArial|b0|i0|c0|p34;N}
 73
     1
 44
1.0
  0
MTEXT
  5
697
330
1F
100
AcDbEntity
  8
Drawing
370
     9
100
AcDbMText
 10
784.2441085818258
 20
473.4064924155521
 30
0.0
 40
2.5
 41
18.4122985344693
 46
0.0
 71
     1
 72
     5
  1
{\fArial|b0|i0|c0|p34;S}
 73
     1
 44
1.0
  0
HATCH
  5
698
330
1F
100
AcDbEntity
  8
Drawing
  6
ACAD_ISO03W100
 62
     1
100
AcDbHatch
 10
0.0
 20
0.0
 30
0.0
210
0.0
220
0.0
230
1.0
  2
SOLID
 70
     1
 71
     0
 91
        3
 92
        7
 72
     0
 73
     1
 93
        3
 10
899.0434412929343
 20
443.6324291313019
 10
898.7420941798409
 20
443.2560725107497
 10
899.7079461109869
 20
443.2174719631224
 97
        0
 92
        7
 72
     0
 73
     1
 93
        3
 10
900.5385801261526
 20
443.5494359382642
 10
900.2372330130594
 20
443.1730793177118
 10
901.2030849442054
 20
443.1344787700845
 97
        0
 92
        7
 72
     0
 73
     1
 93
        3
 10
902.1583108695393
 20
443.3004629569079
 10
901.8569637564459
 20
442.9241063363557
 10
902.822815687592
 20
442.8855057887283
 97
        0
 75
     0
 76
     1
 47
0.0229922300141816
 98
        3
 10
899.1144417236627
 20
443.3120266267545
 10
900.518186555203
 20
443.3350198120423
 10
902.1290352620161
 20
443.036121598814
450
        1
451
        0
460
0.0
461
0.0
452
        1
462
0.4799999892711639
453
        2
463
0.0
 63
     1
421
 16711680
463
1.0
 63
     1
421
 16056320
470
LINEAR
  0
HATCH
  5
699
330
1F
100
AcDbEntity
  8
Drawing
  6
ACAD_ISO03W100
 62
     1
100
AcDbHatch
 10
0.0
 20
0.0
 30
0.0
210
0.0
220
0.0
230
1.0
  2
SOLID
 70
     1
 71
     1
 91
        1
 92
        7
 72
     0
 73
     1
 93
        3
 10
915.9467868416676
 20
451.5493402044871
 10
916.3621038492502
 20
452.62822532295
 10
915.1576861233133
 20
452.2547658509154
 97
        1
330
6AB
 75
     0
 76
     1
 47
0.0229922300141816
 98
        1
 10
915.7982700926403
 20
452.0204442899697
450
        1
451
        0
460
0.0
461
0.0
452
        1
462
0.4799999892711639
453
        2
463
0.0
 63
     1
421
 16711680
463
1.0
 63
     1
421
 16056320
470
LINEAR
  0
HATCH
  5
69A
330
1F
100
AcDbEntity
  8
Drawing
  6
ACAD_ISO03W100
 62
     1
100
AcDbHatch
 10
0.0
 20
0.0
 30
0.0
210
0.0
220
0.0
230
1.0
  2
SOLID
 70
     1
 71
     0
 91
        6
 92
        7
 72
     0
 73
     1
 93
        3
 10
898.1297486644106
 20
451.7240642208974
 10
898.1297486644106
 20
450.8941520837905
 10
898.7111908789739
 20
451.0601340713613
 97
        0
 92
        7
 72
     0
 73
     1
 93
        3
 10
898.5865949786719
 20
449.1513368157914
 10
898.0882153675994
 20
449.3588164995076
 10
898.0882153675993
 20
448.6118953561862
 97
        0
 92
        7
 72
     0
 73
     1
 93
        3
 10
898.0051527641091
 20
447.823478715972
 10
898.1297486644106
 20
446.5786116099378
 10
898.8773160859536
 20
446.9105777843323
 97
        0
 92
        7
 72
     0
 73
     1
 93
        3
 10
905.0239886455417
 20
444.3777206284929
 10
904.4840757376568
 20
443.0913580255659
 10
905.605430860104
 20
443.1328535224586
 97
        0
 92
        7
 72
     0
 73
     1
 93
        3
 10
910.8799361077154
 20
444.8756687904582
 10
909.7170516785889
 20
445.3321192562778
 10
909.7170516785889
 20
444.2532341378148
 97
        0
 92
        7
 72
     0
 73
     1
 93
        3
 10
914.4516519985817
 20
448.236810636526
 10
913.2887675694561
 20
448.2368106365258
 10
913.6625512802273
 20
447.2824120087406
 97
        0
 75
     0
 76
     1
 47
0.0229922300141816
 98
        6
 10
898.3218496387307
 20
451.1917945238195
 10
898.1837750683716
 20
448.9845389055288
 10
898.3908869239102
 20
447.099176885007
 10
905.110438872145
 20
443.4750594166715
 10
910.0350453465115
 20
444.7166386401607
 10
913.786029943224
 20
447.9585436113592
450
        1
451
        0
460
0.0
461
0.0
452
        1
462
0.4799999892711639
453
        2
463
0.0
 63
     1
421
 16711680
463
1.0
 63
     1
421
 16056320
470
LINEAR
  0
LWPOLYLINE
  5
69B
330
1F
100
AcDbEntity
  8
Drawing
100
AcDbPolyline
 90
        2
 70
     0
 43
0.0
 10
915.1576861233133
 20
452.2635056805028
 10
913.247234272645
 20
452.6369651525372
  0
LWPOLYLINE
  5
69C
330
1F
100
AcDbEntity
  8
Drawing
100
AcDbPolyline
 90
        2
 70
     0
 43
0.0
 10
913.247234272645
 20
448.2799313810445
 10
911.5029116190898
 20
450.8111610900053
  0
LWPOLYLINE
  5
69D
330
1F
100
AcDbEntity
  8
Drawing
100
AcDbPolyline
 90
        2
 70
     0
 43
0.0
 10
909.717051678589
 20
445.3337445039036
 10
908.595700546275
 20
448.1969403872588
  0
LWPOLYLINE
  5
69E
330
1F
100
AcDbEntity
  8
Drawing
100
AcDbPolyline
 90
        2
 70
     0
 43
0.0
 10
905.0239886455419
 20
444.4208435722638
 10
904.6502049347699
 20
447.3670282501519
  0
LWPOLYLINE
  5
69F
330
1F
100
AcDbEntity
  8
Drawing
100
AcDbPolyline
 90
        2
 70
     0
 43
0.0
 10
902.1583108695394
 20
443.2589674600152
 10
902.1583108695394
 20
444.0058864040842
  0
LWPOLYLINE
  5
6A0
330
1F
100
AcDbEntity
  8
Drawing
100
AcDbPolyline
 90
        2
 70
     0
 43
0.0
 10
900.5385801261517
 20
443.5494359382645
 10
900.5385801261517
 20
444.2963548823334
  0
LWPOLYLINE
  5
6A1
330
1F
100
AcDbEntity
  8
Drawing
100
AcDbPolyline
 90
        2
 70
     0
 43
0.0
 10
899.0849745897448
 20
443.6324269320497
 10
899.0434412929334
 20
444.5038345660494
  0
LWPOLYLINE
  5
6A2
330
1F
100
AcDbEntity
  8
Drawing
100
AcDbPolyline
 90
        2
 70
     0
 43
0.0
 10
898.960378689443
 20
446.9105777843322
 10
900.2893883255491
 20
446.9105777843322
  0
LWPOLYLINE
  5
6A3
330
1F
100
AcDbEntity
  8
Drawing
100
AcDbPolyline
 90
        2
 70
     0
 43
0.0
 10
898.586594978672
 20
449.1513368157915
 10
899.9156046147772
 20
449.0683458220058
  0
LWPOLYLINE
  5
6A4
330
1F
100
AcDbEntity
  8
Drawing
100
AcDbPolyline
 90
        2
 70
     0
 43
0.0
 10
898.6696575821624
 20
451.143125065147
 10
899.9156046147772
 20
451.1016295682542
  0
LWPOLYLINE
  5
6A5
330
1F
100
AcDbEntity
  8
Drawing
100
AcDbPolyline
 90
        4
 70
     1
 43
0.0
 10
898.6696575821624
 20
443.2589674600152
 10
899.7079461109869
 20
443.2174719631224
 10
899.0434412929343
 20
443.632429131302
 10
898.7111868888404
 20
443.2174719631224
  0
LWPOLYLINE
  5
6A6
330
1F
100
AcDbEntity
  8
Drawing
100
AcDbPolyline
 90
        4
 70
     1
 43
0.0
 10
900.1647964153807
 20
443.1759742669772
 10
901.2030849442052
 20
443.1344787700844
 10
900.5385801261526
 20
443.549435938264
 10
900.2063257220588
 20
443.1344787700844
  0
LWPOLYLINE
  5
6A7
330
1F
100
AcDbEntity
  8
Drawing
100
AcDbPolyline
 90
        4
 70
     1
 43
0.0
 10
901.7845271587674
 20
442.9270012856212
 10
902.822815687592
 20
442.8855057887284
 10
902.1583108695394
 20
443.300462956908
 10
901.8260564654455
 20
442.8855057887284
  0
LWPOLYLINE
  5
6A8
330
1F
100
AcDbEntity
  8
Drawing
100
AcDbPolyline
 90
        3
 70
     1
 43
0.0
 10
898.0051527641089
 20
447.823478715972
 10
898.8773160859536
 20
446.9105777843322
 10
898.1297486644106
 20
446.5786116099378
  0
LWPOLYLINE
  5
6A9
330
1F
100
AcDbEntity
  8
Drawing
100
AcDbPolyline
 90
        3
 70
     1
 43
0.0
 10
898.0882153675992
 20
448.6118953561862
 10
898.586594978672
 20
449.1513368157915
 10
898.0882153675992
 20
449.3588164995074
  0
LWPOLYLINE
  5
6AA
330
1F
100
AcDbEntity
  8
Drawing
100
AcDbPolyline
 90
        3
 70
     1
 43
0.0
 10
898.1297486644106
 20
451.7240642208974
 10
898.1297486644106
 20
450.8941520837905
 10
898.7111908789738
 20
451.0601340713613
  0
LWPOLYLINE
  5
6AB
102
{ACAD_REACTORS
330
699
102
}
330
1F
100
AcDbEntity
  8
Drawing
100
AcDbPolyline
 90
        3
 70
     1
 43
0.0
 10
916.36210384925
 20
452.62822532295
 10
915.9467868416676
 20
451.549340204487
 10
915.1576861233133
 20
452.2547658509155
  0
LWPOLYLINE
  5
6AC
330
1F
100
AcDbEntity
  8
Drawing
100
AcDbPolyline
 90
        3
 70
     1
 43
0.0
 10
913.6625512802274
 20
447.2824120087406
 10
914.4516519985817
 20
448.2368106365259
 10
913.2887675694564
 20
448.2368106365259
  0
LWPOLYLINE
  5
6AD
330
1F
100
AcDbEntity
  8
Drawing
100
AcDbPolyline
 90
        3
 70
     1
 43
0.0
 10
909.717051678589
 20
444.2532341378149
 10
910.8799361077153
 20
444.8756687904582
 10
909.717051678589
 20
445.3321192562778
  0
LWPOLYLINE
  5
6AE
330
1F
100
AcDbEntity
  8
Drawing
100
AcDbPolyline
 90
        3
 70
     1
 43
0.0
 10
904.4840757376568
 20
443.0913580255659
 10
905.0239886455419
 20
444.3777206284929
 10
905.6054308601041
 20
443.1328535224587
  0
LWPOLYLINE
  5
6AF
330
1F
100
AcDbEntity
  8
Drawing
100
AcDbPolyline
 90
       29
 70
     0
 43
0.0
 10
917.0621527741331
 20
453.6182606388659
 10
915.9232091444
 20
450.041827364066
 10
913.9707332105316
 20
446.7092406129553
 10
912.2623217560648
 20
445.0835883246817
 10
909.8217288337972
 20
443.7017847593505
 10
907.3811359115288
 20
442.9702407897765
 10
905.2659543148619
 20
442.8889586152134
 10
904.0456598487943
 20
442.8889586152134
 10
903.8015993595271
 20
439.9160970040355
 10
903.7202485231936
 20
436.0958150062937
 10
903.0694218818606
 20
433.6573365738835
 10
902.8253613925934
 20
432.6819460806199
 10
900.8728894488594
 20
433.0070769781253
 10
898.6763570158581
 20
432.7632282551834
 10
898.2695908637914
 20
432.7632282551834
 10
897.7814738753913
 20
433.332205676378
 10
897.7001190489244
 20
437.7214672945673
 10
898.2695908637914
 20
440.9727696718622
 10
897.8628247117248
 20
447.0689635536358
 10
897.8628247117248
 20
450.4828324793091
 10
897.8628247117248
 20
452.840026537904
 10
897.6187682125909
 20
453.734134856604
 10
903.1507767083275
 20
453.652852682041
 10
907.0557245859289
 20
454.059265754109
 10
908.7641360403967
 20
453.8967014049829
 10
911.5301402882641
 20
454.3843966516145
 10
913.9707332105316
 20
453.8967014049829
 10
916.0045599807335
 20
454.059265754109
 10
916.8994471113336
 20
453.8967014049829
  0
LWPOLYLINE
  5
6B0
330
1F
100
AcDbEntity
  8
Drawing
  6
ACAD_ISO03W100
 48
0.15
100
AcDbPolyline
 90
        7
 70
   128
 43
0.0
 10
906.2421922817956
 20
462.1529329530497
 10
909.3336078552637
 20
462.2342151276133
 10
911.9369064403307
 20
461.4213889834762
 10
914.3774993625992
 20
459.7144545206395
 10
915.5164429923324
 20
458.0888022323659
 10
916.2486204699998
 20
456.3005855949658
 10
917.0621527741331
 20
453.6182606388659
  0
LWPOLYLINE
  5
6B1
330
1F
100
AcDbEntity
  8
Drawing
100
AcDbPolyline
 90
       28
 70
     0
 43
0.0
 10
892.0867557267219
 20
480.241019740716
 10
891.5172839118549
 20
477.0709995379846
 10
891.3545782490554
 20
473.0068710165531
 10
891.2732274127219
 20
468.9427402958689
 10
891.2732274127219
 20
466.8293927609637
 10
891.191872586255
 20
463.4155260345427
 10
891.5986387383217
 20
462.1962868183376
 10
892.1681105531887
 20
461.5460250233271
 10
893.3070541829228
 20
461.464742848764
 10
894.6087034754563
 20
461.464742848764
 10
895.8289979415239
 20
461.9524380953956
 10
896.9679415712579
 20
461.464742848764
 10
898.6763570158581
 20
461.8711559208321
 10
900.2220628075255
 20
461.3021784996375
 10
900.4661232967927
 20
461.3021784996375
 10
902.1745387413938
 20
461.5460250233271
 10
902.5813048934605
 20
461.5460250233271
 10
904.0456598487943
 20
461.708591571706
 10
904.5337768371945
 20
461.708591571706
 10
905.6727204669286
 20
461.708591571706
 10
906.0794866189952
 20
462.6839820649691
 10
905.5913696305951
 20
469.1865890188113
 10
905.9167809561949
 20
473.4132840886217
 10
905.9167809561949
 20
475.9330424963426
 10
906.5676036073954
 20
477.3961304354901
 10
907.1370754222625
 20
479.1030648983267
 10
907.3811359115288
 20
480.8099993611634
 10
907.7065472371295
 20
482.8420625222532
  0
LWPOLYLINE
  5
6B2
330
1F
100
AcDbEntity
  8
Drawing
100
AcDbPolyline
 90
        8
 70
     1
 43
0.0
 10
819.0864387596524
 20
454.0966306735043
 10
819.737261410853
 20
454.2591950226309
 10
819.8999710637858
 20
454.9094568176413
 10
819.6559105745195
 20
455.2345877151463
 10
818.8423782703852
 20
455.2345877151463
 10
818.5169669447854
 20
454.9094568176413
 10
818.5169669447854
 20
454.5030437455728
 10
818.7610274340517
 20
454.0153484989413
  0
LWPOLYLINE
  5
6B3
330
1F
100
AcDbEntity
  8
Drawing
100
AcDbPolyline
 90
        7
 70
     1
 43
0.0
 10
817.5407289778517
 20
461.086932873978
 10
818.1102007927187
 20
461.8997590181146
 10
817.784789467118
 20
462.4687364393097
 10
816.8085515001843
 20
462.3061720901831
 10
816.2390796853173
 20
461.8184768435515
 10
816.8899063266512
 20
461.2494972231041
 10
817.0526119894515
 20
461.2494972231041
  0
LWPOLYLINE
  5
6B4
330
1F
100
AcDbEntity
  8
Drawing
100
AcDbPolyline
 90
       12
 70
     1
 43
0.0
 10
831.8588711957249
 20
459.0548675136359
 10
833.2418753147252
 20
460.5179554527829
 10
834.1367584551921
 20
460.6805198019095
 10
834.5435246072597
 20
460.4366710789675
 10
834.0554036287261
 20
459.6238471340833
 10
834.0554036287261
 20
458.4046079178777
 10
834.0554036287261
 20
457.7543461228673
 10
832.6724034998582
 20
457.1853687016726
 10
831.7775203593914
 20
457.1853687016726
 10
831.2893993808578
 20
457.3479330507992
 10
831.2080485445243
 20
458.3233257433147
 10
832.0215768585252
 20
459.2987162365778
  0
LWPOLYLINE
  5
6B5
330
1F
100
AcDbEntity
  8
Drawing
100
AcDbPolyline
 90
       18
 70
     1
 43
0.0
 10
824.699802081855
 20
465.4761922929145
 10
826.1299376545916
 20
466.3703006116146
 10
827.7569982727258
 20
467.6708220023832
 10
828.3606894701901
 20
468.9713433931514
 10
828.6047499594564
 20
469.9467338864145
 10
828.0352781445894
 20
469.9467338864145
 10
825.1879190702551
 20
468.7274968694617
 10
824.2116811033214
 20
468.1585172490148
 10
823.6422092884544
 20
467.7521041769463
 10
823.0727374735874
 20
467.3456911048777
 10
822.8286809744544
 20
467.1018445811881
 10
822.5846204851872
 20
466.6141493345565
 10
822.3405599959209
 20
466.2890184370515
 10
821.6083825182535
 20
466.0451697141096
 10
821.6083825182535
 20
465.6387566420411
 10
822.5032696488537
 20
464.9884970462829
 10
823.3639334067233
 20
464.9884970462829
 10
824.3743867661218
 20
465.2323457692253
  0
LWPOLYLINE
  5
6B6
330
1F
100
AcDbEntity
  8
Drawing
100
AcDbPolyline
 90
       53
 70
     0
 43
0.0
 10
792.5653359205738
 20
471.734952723067
 10
794.5178078643079
 20
471.8162348976305
 10
795.5754006577084
 20
471.734952723067
 10
796.1448724725755
 20
471.734952723067
 10
796.4702837981753
 20
471.409821825562
 10
796.8770499502419
 20
467.9959528998882
 10
796.7143442874425
 20
466.6954315091201
 10
796.8770499502419
 20
465.882605364983
 10
796.8770499502419
 20
464.744648323341
 10
796.8770499502419
 20
463.8505400046409
 10
796.8770499502419
 20
463.1189982343201
 10
798.2600500791099
 20
462.8751495113777
 10
802.2463527831782
 20
462.3061720901831
 10
805.5004740194466
 20
462.2248899156201
 10
807.2902442905137
 20
461.8997590181146
 10
808.4291839301144
 20
461.8997590181146
 10
810.2189542011814
 20
461.8997590181146
 10
810.7884260160484
 20
462.1436055418042
 10
811.0324825151823
 20
462.1436055418042
 10
811.9273696457825
 20
461.8997590181146
 10
812.9849584490497
 20
461.33078159692
 10
813.229018938316
 20
461.33078159692
 10
815.0187852192506
 20
461.5746281206096
 10
815.9950231861843
 20
459.3799984111409
 10
816.0763740225178
 20
458.4858900924413
 10
816.2390796853173
 20
457.5104995991781
 10
816.4017853481176
 20
456.4538247320991
 10
816.8085515001843
 20
455.3158698897094
 10
817.2966724787178
 20
454.5030437455728
 10
817.2966724787178
 20
453.8527819505624
 10
818.4356121183185
 20
453.0399558064253
 10
820.30673322572
 20
453.0399558064253
 10
822.1778543331205
 20
452.3084140361041
 10
823.2354471265211
 20
452.3084140361041
 10
825.1065642437883
 20
451.2517391690256
 10
826.652274025589
 20
450.6014795732675
 10
828.2793346437232
 20
450.1950665011989
 10
830.394516240391
 20
449.951217778257
 10
831.7775203593914
 20
450.1950665011989
 10
832.2656373477915
 20
450.2763486757624
 10
833.4045809775256
 20
450.2763486757624
 10
835.3570529212597
 20
450.4389130248886
 10
836.0078795625935
 20
450.4389130248886
 10
836.6587022137941
 20
450.3576308503255
 10
836.6587022137941
 20
454.1779128480674
 10
836.4146417245269
 20
457.0228043525465
 10
836.74005704026
 20
460.274106729841
 10
836.4146417245269
 20
464.0943887275833
 10
836.6587022137941
 20
467.6708220023832
 10
836.4959965509937
 20
470.4344313322989
 10
836.4146417245269
 20
471.0846909280565
 10
836.4146417245269
 20
471.5723861746881
 10
839.1806499625285
 20
471.734952723067
  0
LWPOLYLINE
  5
6B7
330
1F
100
AcDbEntity
  8
Drawing
100
AcDbPolyline
 90
        6
 70
     1
 43
0.0
 10
741.6352873180944
 20
466.3707404621221
 10
741.911372616681
 20
466.3707404621221
 10
741.9573868331121
 20
466.6465839109918
 10
741.6813015345255
 20
466.9224273598609
 10
741.5432628753655
 20
466.5086621865569
 10
741.5432628753655
 20
466.4167136371832
  0
LWPOLYLINE
  5
6B8
330
1F
100
AcDbEntity
  8
Drawing
100
AcDbPolyline
 90
        9
 70
     1
 43
0.0
 10
741.2187253889427
 20
463.8393875950194
 10
741.356768038236
 20
464.1612042189493
 10
741.4027782645338
 20
464.3910744927578
 10
741.1266969560805
 20
464.5749693922533
 10
740.574534339174
 20
464.5749693922533
 10
740.3444632570184
 20
464.4830208428792
 10
740.4825059063118
 20
463.9313361443931
 10
740.6665587819028
 20
463.8393875950194
 10
740.9426440804895
 20
463.8393875950194
  0
LWPOLYLINE
  5
6B9
330
1F
100
AcDbEntity
  8
Drawing
100
AcDbPolyline
 90
       11
 70
     1
 43
0.0
 10
744.8538085856666
 20
463.9313361443931
 10
745.175904110551
 20
463.6095173212105
 10
745.5900280682976
 20
463.5175709710891
 10
746.2342231081997
 20
463.3796492466548
 10
746.694357292244
 20
463.6095173212105
 10
746.6483430758129
 20
464.2531527683234
 10
746.4182759837907
 20
464.5289962171926
 10
745.912123593182
 20
464.5289962171926
 10
745.4979996354353
 20
464.5289962171926
 10
745.2679325434132
 20
464.2991259433841
 10
744.9918512349599
 20
464.3450991184448
  0
LWPOLYLINE
  5
6BA
330
1F
100
AcDbEntity
  8
Drawing
100
AcDbPolyline
 90
        2
 70
     0
 43
0.0
 10
735.7537990131026
 20
445.7576324554109
 10
735.8824927802337
 20
444.0860465786221
  0
LWPOLYLINE
  5
6BB
330
1F
100
AcDbEntity
  8
Drawing
100
AcDbPolyline
 90
        2
 70
     0
 43
0.0
 10
734.9816284300517
 20
448.8436368126739
 10
735.2390199544465
 20
447.6863857285132
  0
LWPOLYLINE
  5
6BC
330
1F
100
AcDbEntity
  8
Drawing
100
AcDbPolyline
 90
        2
 70
     0
 43
0.0
 10
725.4581978893106
 20
444.214630276779
 10
725.4581978893106
 20
442.9287954944614
  0
LWPOLYLINE
  5
6BD
330
1F
100
AcDbEntity
  8
Drawing
100
AcDbPolyline
 90
        2
 70
     0
 43
0.0
 10
724.9434148405211
 20
447.3006346340424
 10
725.2008063649158
 20
446.2719672480387
  0
LWPOLYLINE
  5
6BE
330
1F
100
AcDbEntity
  8
Drawing
100
AcDbPolyline
 90
        2
 70
     0
 43
0.0
 10
724.6860273062597
 20
449.8723063979303
 10
724.8147210733908
 20
448.7150531145169
  0
LWPOLYLINE
  5
6BF
330
1F
100
AcDbEntity
  8
Drawing
100
AcDbPolyline
 90
        2
 70
     0
 43
0.0
 10
734.7242408957903
 20
476.2319293320778
 10
735.1103261873153
 20
475.331845644231
  0
LWPOLYLINE
  5
6C0
330
1F
100
AcDbEntity
  8
Drawing
100
AcDbPolyline
 90
        2
 70
     0
 43
0.0
 10
734.7242408957903
 20
479.1893521904365
 10
734.7242408957903
 20
478.0320989070231
  0
LWPOLYLINE
  5
6C1
330
1F
100
AcDbEntity
  8
Drawing
100
AcDbPolyline
 90
        2
 70
     0
 43
0.0
 10
734.5955431385258
 20
481.8896054532286
 10
734.5955431385258
 20
480.2180195764398
  0
LWPOLYLINE
  5
6C2
330
1F
100
AcDbEntity
  8
Drawing
100
AcDbPolyline
 90
        2
 70
     0
 43
0.0
 10
724.1712442574702
 20
478.2892663033375
 10
724.1712442574702
 20
477.3891826154907
  0
LWPOLYLINE
  5
6C3
330
1F
100
AcDbEntity
  8
Drawing
100
AcDbPolyline
 90
        2
 70
     0
 43
0.0
 10
724.0425504903391
 20
480.603770670911
 10
724.0425504903391
 20
479.575101085655
  0
LWPOLYLINE
  5
6C4
330
1F
100
AcDbEntity
  8
Drawing
100
AcDbPolyline
 90
        2
 70
     0
 43
0.0
 10
724.0425504903391
 20
483.4326076318601
 10
724.0425504903391
 20
482.0181891513856
  0
LWPOLYLINE
  5
6C5
330
1F
100
AcDbEntity
  8
Drawing
100
AcDbPolyline
 90
        2
 70
     0
 43
0.0
 10
724.0425504903391
 20
485.2327772068059
 10
724.0425504903391
 20
484.3326935189592
  0
LWPOLYLINE
  5
6C6
330
1F
100
AcDbEntity
  8
Drawing
100
AcDbPolyline
 90
       17
 70
     0
 43
0.0
 10
735.3677137215776
 20
474.9460945497597
 10
735.6251052459723
 20
473.1459249748144
 10
738.842481345307
 20
471.9886738906537
 10
741.4163806287219
 20
470.8314228064931
 10
743.6041986107442
 20
470.059920617551
 10
744.5050629609262
 20
469.4170021267658
 10
745.1485357867126
 20
468.5169184389195
 10
746.8215747100788
 20
465.9452466750316
 10
747.2076600016047
 20
464.1450771000858
 10
747.7224390602609
 20
461.7019912336075
 10
745.4059273111073
 20
457.9730683855594
 10
743.4755008534797
 20
453.986978141197
 10
741.4163806287219
 20
453.0868944533507
 10
737.941616995125
 20
452.7011433588794
 10
735.8824927802337
 20
452.7011433588794
 10
734.9816284300517
 20
452.7011433588794
 10
734.8529346629206
 20
450.7723900857766
  0
LWPOLYLINE
  5
6C7
330
1F
100
AcDbEntity
  8
Drawing
100
AcDbPolyline
 90
       10
 70
     0
 43
0.0
 10
724.0425504903391
 20
475.8461804368592
 10
723.7851589659443
 20
472.2458412869676
 10
723.9138567232088
 20
469.1598369297042
 10
724.428635781865
 20
466.0738303731885
 10
724.2999420147347
 20
463.6307445067103
 10
723.7851589659443
 20
461.4448238372937
 10
723.6564651988141
 20
458.1016520837164
 10
723.9138567232088
 20
456.1728988106136
 10
724.428635781865
 20
453.7298129441354
 10
724.428635781865
 20
452.1868085662512
  0
MTEXT
  5
6CE
330
1F
100
AcDbEntity
  8
Drawing
100
AcDbMText
 10
723.380082227981
 20
540.6670834992524
 30
0.0
 40
3.5
 41
0.0
 46
0.0
 71
     1
 72
     5
  1
{\fArial|b0|i0|c0|p34;Fill 1148}
  7
verdana
 73
     1
 44
1.0
  0
MTEXT
  5
6D4
330
1F
100
AcDbEntity
  8
Drawing
100
AcDbMText
 10
886.0293701030806
 20
539.6208530019576
 30
0.0
 40
3.5
 41
0.0
 46
0.0
 71
     1
 72
     5
  1
{\fArial|b0|i0|c0|p34;Cut 1152}
  7
verdana
 73
     1
 44
1.0
  0
MTEXT
  5
6DA
330
1F
100
AcDbEntity
  8
Drawing
100
AcDbMText
 10
721.634918772526
 20
493.9354622312001
 30
0.0
 40
3.5
 41
0.0
 46
0.0
 71
     1
 72
     5
  1
{\fArial|b0|i0|c0|p34;Fill 1138}
  7
verdana
 73
     1
 44
1.0
  0
MTEXT
  5
6E2
330
1F
100
AcDbEntity
  8
Drawing
100
AcDbMText
 10
889.0980148407714
 20
495.8045090012999
 30
0.0
 40
3.5
 41
0.0
 46
0.0
 71
     1
 72
     5
  1
{\fArial|b0|i0|c0|p34;Cut 1157}
  7
verdana
 73
     1
 44
1.0
  0
HATCH
  5
735
330
1F
100
AcDbEntity
  8
Drawing
 62
     1
100
AcDbHatch
 10
0.0
 20
0.0
 30
0.0
210
0.0
220
0.0
230
1.0
  2
SOLID
 70
     1
 71
     0
 91
       25
 92
        7
 72
     0
 73
     1
 93
        3
 10
891.7240239463549
 20
398.7716391169543
 10
892.3729752250698
 20
399.8256506892095
 10
890.8317184319553
 20
399.9067283332867
 97
        0
 92
        7
 72
     0
 73
     1
 93
        4
 10
890.1461524568197
 20
402.8394832267412
 10
891.4806697106701
 20
402.9876898044795
 10
890.2638905519801
 20
403.7984662452505
 10
890.1557313213307
 20
403.3660510893998
 97
        0
 92
        7
 72
     0
 73
     1
 93
        3
 10
890.3450099605865
 20
408.5820626405679
 10
890.3450099605865
 20
407.4469734242358
 10
891.2373114848518
 20
407.6902063564672
 97
        0
 92
        7
 72
     0
 73
     1
 93
        3
 10
894.0764668452618
 20
412.3927229084547
 10
893.2652807394684
 20
414.0142801885024
 10
892.5352100521479
 20
412.87919097217
 97
        0
 92
        7
 72
     0
 73
     1
 93
        3
 10
897.3212112684345
 20
417.4195522360033
 10
896.0233127011392
 20
416.5276959519028
 10
897.3212112684357
 20
416.0412278881873
 97
        0
 92
        7
 72
     0
 73
     1
 93
        3
 10
901.6205000232192
 20
418.4735638082585
 10
902.5128055376184
 20
417.3384745919262
 10
903.1617568163332
 20
418.3924861641813
 97
        0
 92
        7
 72
     0
 73
     1
 93
        4
 10
910.2190775327877
 20
414.7439811844484
 10
909.7441404472354
 20
415.376914381608
 10
909.4396818681038
 20
415.6292652648391
 10
908.758944138413
 20
414.4196706081403
 97
        0
 92
        7
 72
     0
 73
     1
 93
        4
 10
912.6526398403007
 20
412.7170356840157
 10
912.0036885615858
 20
411.8251772006625
 10
913.3616167699786
 20
411.6743727337261
 10
913.2706864583141
 20
411.9139774928464
 97
        0
 92
        7
 72
     0
 73
     1
 93
        4
 10
913.9505384075969
 20
406.3118820086511
 10
915.8784844443611
 20
405.9907198126882
 10
915.654030027789
 20
406.7983500723666
 10
915.5844999500285
 20
406.9340310112731
 97
        0
 92
        7
 72
     0
 73
     1
 93
        4
 10
914.6806051047837
 20
403.2309205374582
 10
916.2944874621453
 20
402.5997210937643
 10
916.3953923025641
 20
403.3561291169701
 10
916.3029773163703
 20
403.87954608858
 97
        0
 92
        7
 72
     0
 73
     1
 93
        3
 10
912.4092816144826
 20
399.9067283332867
 10
913.301587128882
 20
398.7716391169542
 10
913.9505384075968
 20
399.8256506892095
 97
        0
 92
        7
 72
     0
 73
     1
 93
        4
 10
912.3156918136176
 20
397.8236571419966
 10
912.3874580541245
 20
397.8874172510968
 10
910.786909402896
 20
398.4473285406456
 10
911.1925024557936
 20
397.1500818369068
 97
        0
 92
        7
 72
     0
 73
     1
 93
        4
 10
907.5421649797232
 20
395.3663670694532
 10
908.4291263354758
 20
394.2380760817015
 10
908.5008524435046
 20
394.2828824401972
 10
909.1645371913097
 20
394.7988235609132
 97
        0
 92
        7
 72
     0
 73
     1
 93
        4
 10
904.0243842521023
 20
392.4910695619791
 10
904.9539151129889
 20
392.5795521614503
 10
905.5953151337129
 20
392.7718758612277
 10
904.4596553836287
 20
394.2312778531208
 97
        0
 92
        7
 72
     0
 73
     1
 93
        3
 10
900.403720864529
 20
393.0151087934591
 10
901.2960263789288
 20
392.6907982171505
 10
901.2149069703224
 20
393.8258874334825
 97
        0
 92
        7
 72
     0
 73
     1
 93
        3
 10
897.6456889028591
 20
393.9069672768124
 10
897.6456889028591
 20
395.204211781299
 10
896.1855515183511
 20
394.555588429429
 97
        0
 92
        7
 72
     0
 73
     1
 93
        3
 10
894.0764668452615
 20
395.852835133168
 10
894.8065335424495
 20
395.4474469127826
 10
895.4554848211641
 20
396.5014584850377
 97
        0
 92
        7
 72
     0
 73
     1
 93
        4
 10
895.4720116909642
 20
401.1582945060749
 10
895.490160726017
 20
401.131562044587
 10
896.7533833884593
 20
401.4472101685092
 10
896.0233127011393
 20
402.3390664526103
 97
        0
 92
        7
 72
     0
 73
     1
 93
        3
 10
898.1323973742287
 20
402.4201440966868
 10
899.349180523051
 20
402.5012217407639
 10
898.700229244337
 20
403.5552333130192
 97
        0
 92
        7
 72
     0
 73
     1
 93
        3
 10
902.4316861290121
 20
403.4741556689418
 10
901.9449776576437
 20
404.6903247286039
 10
901.6205000232189
 20
403.2309227367105
 97
        0
 92
        7
 72
     0
 73
     1
 93
        4
 10
907.7044037969357
 20
411.8251772006624
 10
906.1631470038213
 20
411.9062548447396
 10
907.6980845510418
 20
410.6143257763794
 10
907.7044000727658
 20
410.6900744886059
 97
        0
 92
        7
 72
     0
 73
     1
 93
        3
 10
906.1631470038213
 20
408.6631402846453
 10
907.2176873452996
 20
408.0955945768524
 10
907.3799261625112
 20
409.1496083483602
 97
        0
 92
        7
 72
     0
 73
     1
 93
        3
 10
906.0009081866096
 20
406.4740372968054
 10
907.4610455711176
 20
405.5821810127047
 10
907.1365679366932
 20
406.8794277164435
 97
        0
 92
        7
 72
     0
 73
     1
 93
        4
 10
907.2988067539051
 20
403.6363131563486
 10
908.8400635470193
 20
403.9606237326572
 10
908.7589492212534
 20
404.1227703139143
 10
908.1351292915239
 20
404.8901632573021
 97
        0
 92
        7
 72
     0
 73
     1
 93
        4
 10
909.7323650712847
 20
402.7444546729954
 10
909.4971199580777
 20
403.2147085681147
 10
909.2772763151801
 20
403.4851495273857
 10
908.3533510855164
 20
402.1769111644558
 97
        0
 75
     0
 76
     1
 47
0.0810778775884822
 98
       25
 10
891.4806697106701
 20
399.4202624688238
 10
890.4261253790587
 20
403.3120003807877
 10
890.6694836048769
 20
407.9334392886986
 10
893.4275155665478
 20
412.87919097217
 10
897.0778570327507
 20
416.6898512400567
 10
902.5128055376185
 20
418.1492532319499
 10
909.326772018388
 20
414.8250588285255
 10
912.8148746673792
 20
412.2305676203005
 10
915.0861981576804
 20
406.4740372968054
 10
915.5729106191834
 20
403.3120003807877
 10
913.1393523018037
 20
399.582417756978
 10
911.5169761000839
 20
397.7176275446992
 10
908.3533510855164
 20
394.7988235609133
 10
904.621890210708
 20
393.0961864375363
 10
900.9715527346375
 20
393.1772662808658
 10
897.2400918598291
 20
394.4745107853519
 10
894.7254141338431
 20
395.9339127772451
 10
896.0233127011393
 20
401.6904431007407
 10
898.6191098357308
 20
402.8255323170725
 10
902.0260930761156
 20
403.6363131563485
 10
907.3799261625113
 20
411.5008666243539
 10
906.9743331096147
 20
408.7442179287219
 10
906.8932137010083
 20
406.4740372968054
 10
907.9477580326197
 20
404.1227790208114
 10
909.0834177827041
 20
402.7444546729953
450
        1
451
        0
460
0.0
461
0.0
452
        1
462
0.5899999737739563
453
        2
463
0.0
 63
     1
421
 16711680
463
1.0
 63
    20
421
 16723502
470
LINEAR
  0
LWPOLYLINE
  5
736
330
1F
100
AcDbEntity
  8
Drawing
100
AcDbPolyline
 90
        2
 70
     0
 43
0.0
 10
906.4876206481117
 20
401.5282878125864
 10
908.3533510855164
 20
402.1769111644558
  0
LWPOLYLINE
  5
737
330
1F
100
AcDbEntity
  8
Drawing
100
AcDbPolyline
 90
        2
 70
     0
 43
0.0
 10
904.9463678451316
 20
402.7444546729953
 10
906.812094292402
 20
403.7173908004257
  0
LWPOLYLINE
  5
738
330
1F
100
AcDbEntity
  8
Drawing
100
AcDbPolyline
 90
        2
 70
     0
 43
0.0
 10
894.5631793067646
 20
404.0417013767342
 10
895.8610778740599
 20
402.5822993848411
  0
LWPOLYLINE
  5
739
330
1F
100
AcDbEntity
  8
Drawing
100
AcDbPolyline
 90
        2
 70
     0
 43
0.0
 10
897.3212112684346
 20
404.9335576608351
 10
898.6191098357299
 20
403.4741556689419
  0
LWPOLYLINE
  5
73A
330
1F
100
AcDbEntity
  8
Drawing
100
AcDbPolyline
 90
        2
 70
     0
 43
0.0
 10
900.7281945088203
 20
406.0686490764197
 10
902.0260930761156
 20
404.6092470845265
  0
LWPOLYLINE
  5
73B
330
1F
100
AcDbEntity
  8
Drawing
100
AcDbPolyline
 90
        2
 70
     0
 43
0.0
 10
904.4596553836286
 20
411.6630219125082
 10
906.4065012395054
 20
411.5819442684311
  0
LWPOLYLINE
  5
73C
330
1F
100
AcDbEntity
  8
Drawing
100
AcDbPolyline
 90
        2
 70
     0
 43
0.0
 10
904.2974165664168
 20
409.3928412805913
 10
906.4876206481117
 20
408.5009849964909
  0
LWPOLYLINE
  5
73D
330
1F
100
AcDbEntity
  8
Drawing
100
AcDbPolyline
 90
        2
 70
     0
 43
0.0
 10
904.621890210708
 20
407.8523616446215
 10
905.9197887780033
 20
406.3929596527283
  0
LWPOLYLINE
  5
73E
330
1F
100
AcDbEntity
  8
Drawing
100
AcDbPolyline
 90
        2
 70
     0
 43
0.0
 10
893.5086349751532
 20
403.0687674485562
 10
891.3184308934574
 20
402.9876898044795
  0
LWPOLYLINE
  5
73F
330
1F
100
AcDbEntity
  8
Drawing
100
AcDbPolyline
 90
        2
 70
     0
 43
0.0
 10
894.9687723596612
 20
400.7985868166398
 10
892.2918558164633
 20
399.9067305325389
  0
LWPOLYLINE
  5
740
330
1F
100
AcDbEntity
  8
Drawing
100
AcDbPolyline
 90
        2
 70
     0
 43
0.0
 10
897.4834500856473
 20
398.4473285406457
 10
895.4554848211633
 20
396.5825361291145
  0
LWPOLYLINE
  5
741
330
1F
100
AcDbEntity
  8
Drawing
100
AcDbPolyline
 90
        2
 70
     0
 43
0.0
 10
899.1058222972338
 20
397.3122371250611
 10
897.40233067704
 20
395.1231341372214
  0
LWPOLYLINE
  5
742
330
1F
100
AcDbEntity
  8
Drawing
100
AcDbPolyline
 90
        2
 70
     0
 43
0.0
 10
901.6205000232189
 20
396.9879265487526
 10
901.2960263789278
 20
393.7448097894058
  0
LWPOLYLINE
  5
743
330
1F
100
AcDbEntity
  8
Drawing
100
AcDbPolyline
 90
        2
 70
     0
 43
0.0
 10
904.054062330732
 20
396.825769061346
 10
904.5407747922341
 20
394.1502002090438
  0
LWPOLYLINE
  5
744
330
1F
100
AcDbEntity
  8
Drawing
100
AcDbPolyline
 90
        2
 70
     0
 43
0.0
 10
909.5701302442062
 20
399.9067305325389
 10
910.8680288115015
 20
398.4473285406457
  0
LWPOLYLINE
  5
745
330
1F
100
AcDbEntity
  8
Drawing
100
AcDbPolyline
 90
        2
 70
     0
 43
0.0
 10
906.6498594653244
 20
397.4743924132154
 10
907.4610455711168
 20
395.3663670694528
  0
LWPOLYLINE
  5
746
330
1F
100
AcDbEntity
  8
Drawing
100
AcDbPolyline
 90
        2
 70
     0
 43
0.0
 10
911.0302636385809
 20
401.3661325244321
 10
912.3281622058762
 20
399.9067305325389
  0
LWPOLYLINE
  5
747
330
1F
100
AcDbEntity
  8
Drawing
100
AcDbPolyline
 90
        2
 70
     0
 43
0.0
 10
912.4904010230889
 20
403.0687674485562
 10
914.6806051047829
 20
403.3120003807877
  0
LWPOLYLINE
  5
748
330
1F
100
AcDbEntity
  8
Drawing
100
AcDbPolyline
 90
        2
 70
     0
 43
0.0
 10
912.1659273787977
 20
405.9064937882654
 10
914.031653826069
 20
406.230804364574
  0
LWPOLYLINE
  5
749
330
1F
100
AcDbEntity
  8
Drawing
100
AcDbPolyline
 90
        2
 70
     0
 43
0.0
 10
910.2190775327877
 20
410.8522432724845
 10
912.0036885615859
 20
411.8251772006625
  0
LWPOLYLINE
  5
74A
330
1F
100
AcDbEntity
  8
Drawing
100
AcDbPolyline
 90
        2
 70
     0
 43
0.0
 10
907.298806753905
 20
412.9602686162471
 10
908.758944138413
 20
414.4196706081403
  0
LWPOLYLINE
  5
74B
330
1F
100
AcDbEntity
  8
Drawing
100
AcDbPolyline
 90
        2
 70
     0
 43
0.0
 10
902.3505707105401
 20
417.7438628123119
 10
902.1883318933283
 20
413.6899696121937
  0
LWPOLYLINE
  5
74C
330
1F
100
AcDbEntity
  8
Drawing
100
AcDbPolyline
 90
        2
 70
     0
 43
0.0
 10
897.4023306770409
 20
416.1223055322649
 10
898.7002292443362
 20
414.6629035403717
  0
LWPOLYLINE
  5
74D
330
1F
100
AcDbEntity
  8
Drawing
100
AcDbPolyline
 90
        2
 70
     0
 43
0.0
 10
894.238701672341
 20
412.3927229084548
 10
895.5366002396363
 20
410.9333209165616
  0
LWPOLYLINE
  5
74E
330
1F
100
AcDbEntity
  8
Drawing
100
AcDbPolyline
 90
        2
 70
     0
 43
0.0
 10
894.238701672341
 20
412.3927229084548
 10
895.5366002396363
 20
410.9333209165616
  0
LWPOLYLINE
  5
74F
330
1F
100
AcDbEntity
  8
Drawing
100
AcDbPolyline
 90
        2
 70
     0
 43
0.0
 10
894.238701672341
 20
412.3927229084548
 10
895.5366002396363
 20
410.9333209165616
  0
LWPOLYLINE
  5
750
330
1F
100
AcDbEntity
  8
Drawing
100
AcDbPolyline
 90
        2
 70
     0
 43
0.0
 10
894.238701672341
 20
412.3927229084548
 10
895.5366002396363
 20
410.9333209165616
  0
LWPOLYLINE
  5
751
330
1F
100
AcDbEntity
  8
Drawing
100
AcDbPolyline
 90
        2
 70
     0
 43
0.0
 10
891.1561960663798
 20
407.5280510683129
 10
893.1841613308629
 20
407.4469734242358
  0
LWPOLYLINE
  5
752
330
1F
100
AcDbEntity
  8
Drawing
100
AcDbPolyline
 90
        3
 70
     1
 43
0.0
 10
908.3533510855164
 20
402.1769111644558
 10
909.7323650712847
 20
402.7444546729953
 10
909.326772018388
 20
403.5552333130191
  0
LWPOLYLINE
  5
753
330
1F
100
AcDbEntity
  8
Drawing
100
AcDbPolyline
 90
        3
 70
     1
 43
0.0
 10
907.298806753905
 20
403.6363131563485
 10
908.8400635470193
 20
403.9606237326571
 10
908.2722316769109
 20
405.0957129489894
  0
LWPOLYLINE
  5
754
330
1F
100
AcDbEntity
  8
Drawing
100
AcDbPolyline
 90
        3
 70
     1
 43
0.0
 10
906.0009081866096
 20
406.4740372968054
 10
907.4610455711177
 20
405.5821810127046
 10
907.1365679366932
 20
406.8794277164434
  0
LWPOLYLINE
  5
755
330
1F
100
AcDbEntity
  8
Drawing
100
AcDbPolyline
 90
        3
 70
     1
 43
0.0
 10
906.1631470038215
 20
408.6631402846452
 10
907.2176873452995
 20
408.0955945768524
 10
907.3799261625113
 20
409.1496083483603
  0
LWPOLYLINE
  5
756
330
1F
100
AcDbEntity
  8
Drawing
100
AcDbPolyline
 90
        3
 70
     1
 43
0.0
 10
906.1631470038215
 20
411.9062548447396
 10
907.7043998068016
 20
410.6090103402531
 10
907.7044037969358
 20
411.8251772006625
  0
LWPOLYLINE
  5
757
330
1F
100
AcDbEntity
  8
Drawing
100
AcDbPolyline
 90
        3
 70
     1
 43
0.0
 10
901.9449776576434
 20
404.6903247286037
 10
901.6205000232189
 20
403.2309227367105
 10
902.4316861290122
 20
403.4741556689419
  0
LWPOLYLINE
  5
758
330
1F
100
AcDbEntity
  8
Drawing
100
AcDbPolyline
 90
        3
 70
     1
 43
0.0
 10
898.7002292443372
 20
403.5552333130191
 10
898.1323973742287
 20
402.4201440966868
 10
899.349180523051
 20
402.5012217407639
  0
LWPOLYLINE
  5
759
330
1F
100
AcDbEntity
  8
Drawing
100
AcDbPolyline
 90
        3
 70
     1
 43
0.0
 10
896.0233127011393
 20
402.3390664526101
 10
895.4554848211642
 20
401.1228973929483
 10
896.7533833884595
 20
401.4472101685092
  0
LWPOLYLINE
  5
75A
330
1F
100
AcDbEntity
  8
Drawing
100
AcDbPolyline
 90
        3
 70
     1
 43
0.0
 10
896.0233127011393
 20
416.5276959519029
 10
897.3212112684355
 20
416.0412278881873
 10
897.3212112684346
 20
417.4195522360033
  0
LWPOLYLINE
  5
75B
330
1F
100
AcDbEntity
  8
Drawing
100
AcDbPolyline
 90
        3
 70
     1
 43
0.0
 10
892.5352100521482
 20
412.87919097217
 10
894.0764668452616
 20
412.3927229084548
 10
893.2652807394684
 20
414.0142801885023
  0
LWPOLYLINE
  5
75C
330
1F
100
AcDbEntity
  8
Drawing
100
AcDbPolyline
 90
        3
 70
     1
 43
0.0
 10
890.3450099605866
 20
408.582062640568
 10
890.3450099605866
 20
407.4469734242358
 10
891.237311484852
 20
407.6902063564672
  0
LWPOLYLINE
  5
75D
330
1F
100
AcDbEntity
  8
Drawing
100
AcDbPolyline
 90
        3
 70
     1
 43
0.0
 10
890.2638905519802
 20
403.7984662452505
 10
890.0205323261621
 20
402.8255323170725
 10
891.4806697106701
 20
402.9876898044795
  0
LWPOLYLINE
  5
75E
330
1F
100
AcDbEntity
  8
Drawing
100
AcDbPolyline
 90
        3
 70
     1
 43
0.0
 10
890.8317184319553
 20
399.9067283332866
 10
891.7240239463549
 20
398.7716391169543
 10
892.3729752250697
 20
399.8256506892095
  0
LWPOLYLINE
  5
75F
330
1F
100
AcDbEntity
  8
Drawing
100
AcDbPolyline
 90
        3
 70
     1
 43
0.0
 10
894.0764668452616
 20
395.852835133168
 10
894.8065335424494
 20
395.4474469127827
 10
895.4554848211642
 20
396.5014584850379
  0
LWPOLYLINE
  5
760
330
1F
100
AcDbEntity
  8
Drawing
100
AcDbPolyline
 90
        3
 70
     1
 43
0.0
 10
896.1855515183511
 20
394.5555884294291
 10
897.6456889028591
 20
393.9069672768124
 10
897.6456889028591
 20
395.204211781299
  0
LWPOLYLINE
  5
761
330
1F
100
AcDbEntity
  8
Drawing
100
AcDbPolyline
 90
        3
 70
     1
 43
0.0
 10
900.4037208645291
 20
393.0151087934592
 10
901.2960263789287
 20
392.6907982171506
 10
901.2149069703223
 20
393.8258874334825
  0
LWPOLYLINE
  5
762
330
1F
100
AcDbEntity
  8
Drawing
100
AcDbPolyline
 90
        3
 70
     1
 43
0.0
 10
903.9729429221265
 20
392.2854077975126
 10
905.595315133713
 20
392.7718758612278
 10
904.4596553836286
 20
394.231277853121
  0
LWPOLYLINE
  5
763
330
1F
100
AcDbEntity
  8
Drawing
100
AcDbPolyline
 90
        3
 70
     1
 43
0.0
 10
907.5421649797231
 20
395.3663670694532
 10
908.4344704941227
 20
394.231277853121
 10
909.1645371913096
 20
394.7988235609133
  0
LWPOLYLINE
  5
764
330
1F
100
AcDbEntity
  8
Drawing
100
AcDbPolyline
 90
        3
 70
     1
 43
0.0
 10
910.7869094028961
 20
398.4473285406457
 10
911.1925024557936
 20
397.1500818369068
 10
912.4092816144826
 20
397.8797828328534
  0
LWPOLYLINE
  5
765
330
1F
100
AcDbEntity
  8
Drawing
100
AcDbPolyline
 90
        3
 70
     1
 43
0.0
 10
912.4092816144826
 20
399.9067283332866
 10
913.3015871288821
 20
398.7716391169543
 10
913.9505384075969
 20
399.8256506892095
  0
LWPOLYLINE
  5
766
330
1F
100
AcDbEntity
  8
Drawing
100
AcDbPolyline
 90
        3
 70
     1
 43
0.0
 10
914.6806051047838
 20
403.2309205374582
 10
916.5463355421884
 20
402.5012217407639
 10
916.3029773163703
 20
403.87954608858
  0
LWPOLYLINE
  5
767
330
1F
100
AcDbEntity
  8
Drawing
100
AcDbPolyline
 90
        3
 70
     1
 43
0.0
 10
913.9505384075969
 20
406.3118820086511
 10
915.8973842634737
 20
405.9875714323426
 10
915.6540300277898
 20
406.9605053605206
  0
LWPOLYLINE
  5
768
330
1F
100
AcDbEntity
  8
Drawing
100
AcDbPolyline
 90
        3
 70
     1
 43
0.0
 10
912.0036885615859
 20
411.8251772006625
 10
913.463825946094
 20
411.6630219125082
 10
912.6526398403007
 20
412.7170356840157
  0
LWPOLYLINE
  5
769
330
1F
100
AcDbEntity
  8
Drawing
100
AcDbPolyline
 90
        3
 70
     1
 43
0.0
 10
909.4890108356008
 20
415.7169173118792
 10
908.758944138413
 20
414.4196706081403
 10
910.2190775327877
 20
414.7439811844484
  0
LWPOLYLINE
  5
76A
330
1F
100
AcDbEntity
  8
Drawing
100
AcDbPolyline
 90
        3
 70
     1
 43
0.0
 10
901.6205000232189
 20
418.4735638082585
 10
902.5128055376185
 20
417.3384745919262
 10
903.1617568163333
 20
418.3924861641813
  0
LWPOLYLINE
  5
76B
330
1F
100
AcDbEntity
  8
Drawing
100
AcDbPolyline
 90
        6
 70
     0
 43
0.0
 10
907.7855192154079
 20
411.6630219125082
 10
907.5421649797231
 20
408.7442179287219
 10
907.6232803981961
 20
407.2848159368291
 10
907.7043998068016
 20
405.4200257245503
 10
909.813484479891
 20
402.8255323170725
 10
911.273621864399
 20
401.0418197488712
  0
LWPOLYLINE
  5
76C
330
1F
100
AcDbEntity
  8
Drawing
100
AcDbPolyline
 90
        8
 70
     0
 43
0.0
 10
894.0764668452616
 20
403.5552333130191
 10
896.5100251626413
 20
404.6903247286037
 10
899.1058222972338
 20
405.257870436396
 10
901.3771457875341
 20
406.230804364574
 10
902.5939249462249
 20
406.5551149408826
 10
903.1617568163333
 20
408.4199073524138
 10
903.4862304606236
 20
411.1765560480454
 10
903.2428762249388
 20
412.9602686162471
  0
LWPOLYLINE
  5
76D
330
1F
100
AcDbEntity
  8
Drawing
  6
ACAD_ISO03W100
 48
0.15
100
AcDbPolyline
 90
       22
 70
   129
 43
0.0
 10
893.670873792365
 20
404.3660119530428
 10
893.8331086194444
 20
407.9334392886986
 10
894.9687723596612
 20
410.4468550520988
 10
896.5100251626413
 20
412.1494899762234
 10
898.1323973742287
 20
412.7170356840157
 10
900.3226014559236
 20
412.87919097217
 10
903.080637407727
 20
413.0413462603242
 10
906.5687400567181
 20
412.7170356840157
 10
908.5967053212012
 20
411.8251772006625
 10
910.8680288115024
 20
409.5549965687456
 10
911.5169761000839
 20
407.6902063564672
 10
912.1659273787977
 20
405.257870436396
 10
912.2470467874041
 20
402.257988808533
 10
911.1113830471872
 20
400.3931963970018
 10
908.0288734510927
 20
398.0419381210077
 10
906.4876206481117
 20
397.4743924132154
 10
904.054062330732
 20
396.7446914172688
 10
900.890433326032
 20
397.3122371250611
 10
898.4568750086523
 20
398.6094838288
 10
896.2666709269574
 20
399.9878081766161
 10
894.7254141338431
 20
402.257988808533
 10
894.157586253868
 20
403.5552333130191
  0
LWPOLYLINE
  5
76E
330
1F
100
AcDbEntity
  8
Drawing
100
AcDbPolyline
 90
       32
 70
     1
 43
0.0
 10
890.8317184319553
 20
410.2846975646922
 10
892.2107364078579
 20
412.7170356840157
 10
893.5086349751532
 20
414.4196706081403
 10
894.9687723596612
 20
416.0412278881873
 10
896.5911445712477
 20
417.0141618163653
 10
898.7813486529426
 20
418.3114085201042
 10
901.9449776576434
 20
418.7978765838193
 10
904.9463678451316
 20
418.3114085201042
 10
907.8666386240143
 20
416.9330841722881
 10
911.1925024557927
 20
414.1764376759089
 10
913.0582328931973
 20
412.4738005525319
 10
913.9505384075969
 20
410.1225422765379
 10
915.6540300277888
 20
406.7983500723663
 10
916.4652161335821
 20
403.87954608858
 10
916.1407424892918
 20
401.4472101685092
 10
914.437250869099
 20
399.7445730451323
 10
912.6526398403007
 20
398.1230157650849
 10
911.1925024557927
 20
396.825769061346
 10
909.326772018388
 20
394.7988235609133
 10
907.3799261625113
 20
393.5826545012515
 10
905.2708414894219
 20
392.6097205730735
 10
901.8638582490371
 20
392.2854077975126
 10
899.2680611144456
 20
393.1772662808658
 10
896.5911445712477
 20
394.1502002090438
 10
894.5631793067646
 20
395.5285245568598
 10
892.8596876865718
 20
396.3393031968831
 10
892.1296169992515
 20
396.4203808409603
 10
890.7506030134832
 20
398.7716391169543
 10
890.1016517347684
 20
400.3931963970018
 10
890.1827711433748
 20
404.852480016758
 10
890.1827711433748
 20
408.3388297083366
 10
890.6694836048769
 20
410.1225422765379
  0
MTEXT
  5
76F
330
1F
100
AcDbEntity
  8
Drawing
370
     9
100
AcDbMText
 10
840.0106522912633
 20
413.934282377421
 30
0.0
 40
2.5
 41
18.4122985344693
 46
0.0
 71
     1
 72
     5
  1
{\fArial|b0|i0|c0|p34;E}
 73
     1
 44
1.0
  0
LWPOLYLINE
  5
771
330
1F
100
AcDbEntity
  8
Drawing
100
AcDbPolyline
 90
        3
 70
     0
 43
0.0
 10
833.55935301008
 20
407.7712840005443
 10
834.7761321687699
 20
409.7171540561527
 10
836.2362695532779
 20
407.8523616446215
  0
MTEXT
  5
773
330
1F
100
AcDbEntity
  8
Drawing
370
     9
100
AcDbMText
 10
831.8934045534675
 20
406.9615851935164
 30
0.0
 40
3.5
 41
18.4122985344693
 46
0.0
 71
     1
 72
     5
  1
{\fArial|b0|i0|c0|p34;5.59}
 73
     1
 44
1.0
  0
MTEXT
  5
776
330
1F
100
AcDbEntity
  8
Drawing
370
     9
100
AcDbMText
 10
779.8051878593419
 20
413.585632673271
 30
0.0
 40
2.5
 41
18.4122985344693
 46
0.0
 71
     1
 72
     5
  1
{\fArial|b0|i0|c0|p34;W}
 73
     1
 44
1.0
  0
LWPOLYLINE
  5
777
330
1F
100
AcDbEntity
  8
Drawing
100
AcDbPolyline
 90
       41
 70
     0
 43
0.0
 10
796.1827803265816
 20
410.3714303848661
 10
797.224246654862
 20
409.0707007456713
 10
798.589258766166
 20
408.152335292341
 10
799.562683689172
 20
408.2334129364181
 10
801.1850559007585
 20
408.2334129364181
 10
801.8340031893399
 20
408.152335292341
 10
802.1584808237635
 20
408.152335292341
 10
803.6186142181382
 20
408.3955682245719
 10
804.4298003239314
 20
408.3955682245719
 10
804.9976321940399
 20
408.2334129364181
 10
805.3221058383301
 20
407.0983237200858
 10
805.8088182998331
 20
405.9632323045012
 10
807.3500750929466
 20
403.7741293166615
 10
808.485734843031
 20
403.125505964792
 10
809.1346821316124
 20
402.3147273247683
 10
811.2437707948343
 20
401.4228710406679
 10
812.0549569006275
 20
401.1796381084364
 10
812.703904189209
 20
400.936405176205
 10
813.677329112214
 20
400.2067041802584
 10
814.4885152180073
 20
400.125624336929
 10
815.218581915195
 20
400.2877818243356
 10
817.0031929439933
 20
401.5850263288222
 10
817.8143790497866
 20
402.1525720366145
 10
818.5444497371068
 20
403.2876634521991
 10
820.9780080544865
 20
403.6930516725843
 10
822.600380266073
 20
404.0984420922223
 10
823.8171594247638
 20
404.5849079566852
 10
824.3849912948722
 20
404.9902983763232
 10
825.5206510449557
 20
404.9902983763232
 10
826.8996690208573
 20
405.9632323045012
 10
828.3598064053654
 20
407.8280247160324
 10
829.3332273382371
 20
409.0441915764414
 10
830.4688910784548
 20
410.5035935683346
 10
830.6311259055333
 20
410.8279063438959
 10
831.1178383670363
 20
410.8279063438959
 10
832.4157369343316
 20
410.6657488564888
 10
833.1458076216527
 20
409.936050059795
 10
833.3080424487312
 20
409.6117372842342
 10
834.2814673717362
 20
409.530659640157
 10
835.6604853476379
 20
409.936050059795
 10
836.1471978091408
 20
409.936050059795
  0
LWPOLYLINE
  5
778
330
1F
100
AcDbEntity
  8
Drawing
100
AcDbPolyline
 90
       20
 70
     0
 43
0.0
 10
789.0984395843302
 20
410.5035935683346
 10
792.5054228247159
 20
411.152216920204
 10
794.5333920793323
 20
411.0711392761269
 10
797.7781365025053
 20
410.5846712124117
 10
799.8061017669884
 20
410.4225159242574
 10
803.7809168774816
 20
410.2603606361031
 10
805.1599348533832
 20
410.9089839879726
 10
806.5389528292858
 20
410.8279063438959
 10
807.4312583436845
 20
410.9900616320497
 10
808.8102763195861
 20
410.8279063438959
 10
811.1627152283604
 20
410.6657488564888
 10
813.7585123629519
 20
411.152216920204
 10
816.8410219590464
 20
411.0711392761269
 10
818.6256329878447
 20
410.8279063438959
 10
821.3836649495156
 20
411.2332945642812
 10
824.1417009013189
 20
411.2332945642812
 10
825.7640731129054
 20
410.9900616320497
 10
829.5766494061868
 20
410.9900616320497
 10
831.6857340792762
 20
410.7468286998188
 10
833.7136355016278
 20
410.9089839879726
  0
HATCH
  5
779
330
1F
100
AcDbEntity
  8
Drawing
 62
     1
100
AcDbHatch
 10
0.0
 20
0.0
 30
0.0
210
0.0
220
0.0
230
1.0
  2
SOLID
 70
     1
 71
     1
 91
        1
 92
        7
 72
     0
 73
     1
 93
        7
 10
745.1034300752785
 20
395.4964484585885
 10
745.5652824118532
 20
397.1890531945706
 10
742.406406355209
 20
394.6246919616897
 10
743.3188190464803
 20
393.7127336911345
 10
743.967770325195
 20
393.6316560470573
 10
744.2111245608788
 20
394.0370464666955
 10
744.211124560879
 20
394.4424346870809
 97
        2
330
780
330
782
 75
     0
 76
     1
 47
0.0810778775884813
 98
        1
 10
743.3999384550857
 20
394.4501738567633
450
        1
451
        0
460
0.0
461
0.0
452
        1
462
0.5899999737739563
453
        2
463
0.0
 63
     1
421
 16711680
463
1.0
 63
    20
421
 16723502
470
LINEAR
  0
HATCH
  5
77A
330
1F
100
AcDbEntity
  8
Drawing
 62
     1
100
AcDbHatch
 10
0.0
 20
0.0
 30
0.0
210
0.0
220
0.0
230
1.0
  2
SOLID
 70
     1
 71
     1
 91
        2
 92
        7
 72
     0
 73
     1
 93
       20
 10
738.6139372387996
 20
396.3883047426896
 10
739.9929552147017
 20
397.3612386708676
 10
740.6419064934157
 20
397.9287843786593
 10
740.6419064934156
 20
398.4152524423752
 10
740.5607870848094
 20
398.8206406627601
 10
740.0740746233072
 20
399.144953438321
 10
738.1272247772963
 20
398.8206406627602
 10
736.4237331571045
 20
398.0098620227364
 10
734.7202415369115
 20
397.9287843786593
 10
732.6922762724286
 20
397.118005738636
 10
732.2055638109254
 20
396.7126153189975
 10
731.7188513494236
 20
396.5504600308439
 10
731.3943777051322
 20
396.3072270986123
 10
731.4754971137384
 20
395.5775261026657
 10
731.5566165223449
 20
395.3342931704342
 10
733.0978693253248
 20
394.7667474626419
 10
734.3146484840142
 20
394.7667474626419
 10
735.8559052771282
 20
394.847825106719
 10
736.5048525657099
 20
395.1721356830276
 10
737.3971580801094
 20
395.1721356830276
 97
        1
330
781
 92
        7
 72
     0
 73
     1
 93
       21
 10
745.5652824118533
 20
397.1890531945707
 10
745.5901425367815
 20
397.2801610267898
 10
745.2656688924902
 20
397.8477067345825
 10
745.1034300752785
 20
398.0098620227364
 10
744.7789564309885
 20
398.3341747982979
 10
744.3733633780926
 20
398.4963300864516
 10
743.643296680904
 20
398.8206406627601
 10
743.2376996378739
 20
398.8206406627601
 10
743.0754648107948
 20
398.7395630186826
 10
742.6698717578987
 20
398.5774077305286
 10
742.2642787050024
 20
397.9287843786594
 10
741.4530925992079
 20
397.3612386708663
 10
739.9118358060955
 20
396.2261494545351
 10
740.0740746233074
 20
396.2261494545351
 10
740.0740746233073
 20
395.9829143230514
 10
740.0740746233072
 20
395.5775261026657
 10
740.4796676762039
 20
395.3342931704341
 10
740.7230219118885
 20
395.0910580389507
 10
741.534208017682
 20
394.766747462642
 10
742.3453981136087
 20
394.6856698185649
 10
742.406406355209
 20
394.6246919616897
 97
        2
330
780
330
782
 75
     0
 76
     1
 47
0.0810778775884813
 98
        2
 10
736.1803789214196
 20
396.3149640690418
 10
742.7509911665052
 20
396.7203544886798
450
        1
451
        0
460
0.0
461
0.0
452
        1
462
0.5899999737739563
453
        2
463
0.0
 63
     1
421
 16711680
463
1.0
 63
    20
421
 16723502
470
LINEAR
  0
LWPOLYLINE
  5
77B
330
1F
100
AcDbEntity
  8
Drawing
100
AcDbPolyline
 90
        7
 70
     1
 43
0.0
 10
724.0125793542543
 20
412.0440732043049
 10
725.0671236858648
 20
412.0440732043049
 10
725.1482430944711
 20
413.0980869758124
 10
724.6615306329682
 20
413.5845528402752
 10
724.0125793542543
 20
413.5845528402752
 10
723.5258668927513
 20
412.9359316876581
 10
723.7692251185695
 20
412.2062306917115
  0
LWPOLYLINE
  5
77C
330
1F
100
AcDbEntity
  8
Drawing
100
AcDbPolyline
 90
       10
 70
     1
 43
0.0
 10
736.748210791528
 20
409.936050059795
 10
737.1538038444246
 20
409.6928149283108
 10
737.7216317243997
 20
410.3414382801803
 10
737.7216317243997
 20
410.8279063438959
 10
737.7216317243997
 20
411.0711392761269
 10
737.1538038444246
 20
411.3954498524354
 10
736.748210791528
 20
411.152216920204
 10
736.748210791528
 20
410.5846712124117
 10
736.748210791528
 20
410.0982053479493
 10
736.829326210001
 20
410.0982053479493
  0
LWPOLYLINE
  5
77D
330
1F
100
AcDbEntity
  8
Drawing
100
AcDbPolyline
 90
        8
 70
     1
 43
0.0
 10
735.1258345898082
 20
409.4495819960799
 10
735.7747858685229
 20
410.4225159242574
 10
735.3691928156263
 20
411.152216920204
 10
734.8013609455179
 20
411.3143722083583
 10
734.2335290754095
 20
410.8279063438959
 10
734.0712942483301
 20
410.1792829920265
 10
734.3146484840149
 20
409.6117372842342
 10
734.3146484840149
 20
409.6117372842342
  0
LWPOLYLINE
  5
77E
330
1F
100
AcDbEntity
  8
Drawing
100
AcDbPolyline
 90
        6
 70
     1
 43
0.0
 10
737.802751133006
 20
399.6314193027839
 10
738.2083441859027
 20
399.6314193027839
 10
738.9384108830895
 20
399.8746544342676
 10
738.6950566474056
 20
400.3611202987304
 10
738.2083441859027
 20
400.6043554302142
 10
737.7216317243997
 20
399.8746544342676
  0
LWPOLYLINE
  5
77F
330
1F
100
AcDbEntity
  8
Drawing
100
AcDbPolyline
 90
        8
 70
     1
 43
0.0
 10
743.1565842194018
 20
400.1989650105762
 10
743.967770325195
 20
399.712496946861
 10
744.3733633780917
 20
399.7935767901905
 10
744.0488897338005
 20
400.6854330742913
 10
743.6432966809039
 20
400.8475883624456
 10
743.3188190464803
 20
400.8475883624456
 10
742.6698717578988
 20
400.6043554302142
 10
742.6698717578988
 20
400.4421979428076
  0
LWPOLYLINE
  5
780
102
{ACAD_REACTORS
330
77A
330
779
102
}
330
1F
100
AcDbEntity
  8
Drawing
100
AcDbPolyline
 90
       24
 70
     1
 43
0.0
 10
739.9118358060955
 20
396.2261494545351
 10
741.453092599209
 20
397.361238670867
 10
742.2642787050022
 20
397.9287843786593
 10
742.6698717578988
 20
398.5774077305287
 10
743.0754648107954
 20
398.739563018683
 10
743.2376996378739
 20
398.8206406627601
 10
743.6432966809039
 20
398.8206406627601
 10
744.3733633780917
 20
398.4963300864516
 10
744.7789564309883
 20
398.3341747982977
 10
745.1034300752785
 20
398.0098620227364
 10
745.2656688924903
 20
397.8477067345821
 10
745.5901425367815
 20
397.2801610267898
 10
745.1034300752785
 20
395.4964484585885
 10
744.211124560879
 20
394.4424346870811
 10
744.211124560879
 20
394.0370464666954
 10
743.967770325195
 20
393.6316560470573
 10
743.3188190464803
 20
393.7127336911345
 10
742.3453981136086
 20
394.6856698185648
 10
741.534208017682
 20
394.7667474626419
 10
740.7230219118887
 20
395.0910580389505
 10
740.4796676762039
 20
395.3342931704343
 10
740.0740746233073
 20
395.5775261026657
 10
740.0740746233073
 20
395.9829143230514
 10
740.0740746233073
 20
396.2261494545351
  0
LWPOLYLINE
  5
781
102
{ACAD_REACTORS
330
77A
102
}
330
1F
100
AcDbEntity
  8
Drawing
100
AcDbPolyline
 90
       20
 70
     1
 43
0.0
 10
731.5566165223449
 20
395.3342931704343
 10
733.0978693253251
 20
394.7667474626419
 10
734.3146484840149
 20
394.7667474626419
 10
735.8559052771284
 20
394.8478251067191
 10
736.5048525657098
 20
395.1721356830276
 10
737.3971580801094
 20
395.1721356830276
 10
738.6139372387993
 20
396.3883047426894
 10
739.9929552147009
 20
397.361238670867
 10
740.6419064934157
 20
397.9287843786593
 10
740.6419064934157
 20
398.4152524423749
 10
740.5607870848094
 20
398.8206406627601
 10
740.0740746233073
 20
399.144953438321
 10
738.1272247772963
 20
398.8206406627601
 10
736.4237331571044
 20
398.0098620227364
 10
734.7202415369115
 20
397.9287843786593
 10
732.6922762724284
 20
397.118005738636
 10
732.2055638109255
 20
396.7126153189975
 10
731.7188513494234
 20
396.5504600308437
 10
731.3943777051322
 20
396.3072270986123
 10
731.4754971137386
 20
395.5775261026657
  0
LWPOLYLINE
  5
782
102
{ACAD_REACTORS
330
77A
330
779
102
}
330
1F
100
AcDbEntity
  8
Drawing
  6
ACAD_ISO03W100
 48
0.15
100
AcDbPolyline
 90
       30
 70
   129
 43
0.0
 10
727.3684569682041
 20
399.8889077899685
 10
727.2870542601381
 20
405.2570743069774
 10
726.1473644754901
 20
408.8358519849831
 10
725.7403309844972
 20
411.3572642306131
 10
724.9262679926437
 20
412.1706225938638
 10
722.9725152161413
 20
415.26138613362
 10
720.8559450531097
 20
417.3761169983719
 10
719.3906324657996
 20
419.6535221748769
 10
719.5534458621973
 20
422.0935972646303
 10
721.5071986386988
 20
423.4763069220076
 10
726.3101738817545
 20
424.2896652852588
 10
732.0900295031938
 20
423.1509648962588
 10
735.9161323481326
 20
421.2802389013792
 10
740.2306713921294
 20
418.3521474741238
 10
744.2195836433307
 20
414.7733697961181
 10
744.3823970397284
 20
412.7399738879904
 10
745.033646635185
 20
411.5199363431134
 10
746.7431833072237
 20
410.543905867362
 10
747.313026204481
 20
407.6158144401066
 10
746.4989632126276
 20
405.8264256011035
 10
746.0919297216337
 20
404.52505090035
 10
746.8245900054221
 20
401.5969594730946
 10
746.9059967036205
 20
398.4248609767147
 10
745.6849002207741
 20
397.286158388462
 10
741.777390677637
 20
394.1140598920816
 10
740.4748874965921
 20
393.626045753832
 10
736.9744154345813
 20
393.626045753832
 10
731.927216106797
 20
394.4394041170831
 10
729.8920566320962
 20
397.286158388462
 10
727.8568971573964
 20
398.9942122708408
  0
MTEXT
  5
789
330
1F
100
AcDbEntity
  8
Drawing
100
AcDbMText
 10
884.0858091238229
 20
424.9448611549903
 30
0.0
 40
3.5
 41
0.0
 46
0.0
 71
     1
 72
     5
  1
{\fArial|b0|i0|c0|p34;Cut 1159}
  7
verdana
 73
     1
 44
1.0
  0
MTEXT
  5
78F
330
1F
100
AcDbEntity
  8
Drawing
100
AcDbMText
 10
720.1084798069492
 20
431.9197302415303
 30
0.0
 40
3.5
 41
0.0
 46
0.0
 71
     1
 72
     5
  1
{\fArial|b0|i0|c0|p34;Fill 1129}
  7
verdana
 73
     1
 44
1.0
  0
MTEXT
  5
79D
330
1F
100
AcDbEntity
  8
Drawing
100
AcDbMText
 10
807.7307525196076
 20
442.7040354409427
 30
0.0
 40
3.5
 41
22.02218201290787
 46
0.0
 71
     1
 72
     5
  1
150mm
  7
verdana
 73
     1
 44
1.0
  0
HATCH
  5
79E
330
1F
100
AcDbEntity
  8
Drawing
100
AcDbHatch
 10
0.0
 20
0.0
 30
0.0
210
0.0
220
0.0
230
1.0
  2
SOLID
 70
     1
 71
     0
 91
        1
 92
        1
 93
        4
 72
     1
 10
800.7927142595548
 20
445.1875796864055
 11
831.8393801796631
 21
445.1875796864055
 72
     1
 10
831.8393801796631
 20
445.1875796864055
 11
831.8393801796631
 21
444.6434104049591
 72
     1
 10
831.8393801796631
 20
444.6434104049591
 11
800.7927142595548
 21
444.6434104049591
 72
     1
 10
800.7927142595548
 20
444.6434104049591
 11
800.7927142595548
 21
445.1875796864055
 97
        0
 75
     0
 76
     1
 98
        1
 10
-0.115086992647548
 20
90.67898832843764
  0
MTEXT
  5
7DE
330
1F
100
AcDbEntity
  8
Drawing
370
     9
100
AcDbMText
 10
915.1195208387252
 20
366.3456603548751
 30
0.0
 40
3.5
 41
20.58903776694115
 46
0.0
 71
     1
 72
     5
  1
{\fArial|b0|i0|c0|p34;5.58}
 73
     1
 44
1.0
  0
LWPOLYLINE
  5
7E0
330
1F
100
AcDbEntity
  8
Drawing
100
AcDbPolyline
 90
        3
 70
     0
 43
0.0
 10
901.8473981646829
 20
361.7132691693236
 10
902.8322756761389
 20
362.7555565262968
 10
903.990954751563
 20
361.7132691693236
  0
HATCH
  5
7E1
330
1F
100
AcDbEntity
  8
Drawing
 62
     1
100
AcDbHatch
 10
0.0
 20
0.0
 30
0.0
210
0.0
220
0.0
230
1.0
  2
SOLID
 70
     1
 71
     0
 91
       17
 92
        7
 72
     0
 73
     1
 93
        3
 10
897.1621063244764
 20
360.9607597253024
 10
895.8797760191745
 20
361.0329677838926
 10
896.2332130707132
 20
360.3113556387819
 97
        0
 92
        7
 72
     0
 73
     1
 93
        3
 10
895.7533475799972
 20
363.5421807756923
 10
894.6696888371409
 20
363.5963373694478
 10
894.8466987617447
 20
363.0169970702926
 97
        0
 92
        7
 72
     0
 73
     1
 93
        3
 10
894.8585917751459
 20
367.0308958873136
 10
894.5138721004225
 20
366.303520651934
 10
895.7172260183632
 20
366.1958098846727
 97
        0
 92
        7
 72
     0
 73
     1
 93
        4
 10
896.8150681164794
 20
369.4707928196766
 10
896.6584966713898
 20
369.3017806215967
 10
896.0857593135974
 20
368.6005275913675
 10
897.4945150846186
 20
368.0589704508199
 97
        0
 92
        7
 72
     0
 73
     1
 93
        4
 10
899.5089919033685
 20
370.639388126343
 10
899.3428652567464
 20
370.5702034687608
 10
898.5527448189886
 20
370.1529909544187
 10
899.4557957536734
 20
369.6114338138717
 97
        0
 92
        7
 72
     0
 73
     1
 93
        3
 10
902.3816749540769
 20
371.9762328877439
 10
901.5151648385327
 20
371.9258128240507
 10
901.9662710483683
 20
370.8209127473117
 97
        0
 92
        7
 72
     0
 73
     1
 93
        4
 10
904.4157683769732
 20
371.9397493797363
 10
904.3542161066606
 20
371.9423127471771
 10
904.3542161066606
 20
370.9359468505803
 10
905.2125343468094
 20
371.2659029081545
 97
        0
 92
        7
 72
     0
 73
     1
 93
        4
 10
907.6181603350078
 20
369.1820374884387
 10
907.5692284524026
 20
369.2282277102536
 10
906.9330422687647
 20
368.221438032835
 10
908.0167010116211
 20
368.401957079684
 97
        0
 92
        7
 72
     0
 73
     1
 93
        3
 10
909.3893352210082
 20
366.0341912141374
 10
908.7933205336711
 20
365.3301664915756
 10
909.750553810808
 20
365.3301664915756
 97
        0
 92
        7
 72
     0
 73
     1
 93
        3
 10
910.3104439630532
 20
362.7653080120516
 10
909.3893352210083
 20
362.404272117606
 10
910.3104439630532
 20
361.9890774301525
 97
        0
 92
        7
 72
     0
 73
     1
 93
        3
 10
909.8047361532595
 20
359.4123473854264
 10
908.9016881920313
 20
359.3401415260886
 10
909.4976999059108
 20
358.527805815268
 97
        0
 92
        7
 72
     0
 73
     1
 93
        4
 10
904.7115394671437
 20
357.4988459286766
 10
904.0252238491782
 20
356.4337853116692
 10
904.6139096113664
 20
356.2096355546537
 10
904.7818266306904
 20
356.1816635121625
 97
        0
 92
        7
 72
     0
 73
     1
 93
        3
 10
901.3170939145007
 20
357.6057142072709
 10
900.828483485296
 20
356.5240448350941
 10
901.7857167624325
 20
356.524044835094
 97
        0
 92
        7
 72
     0
 73
     1
 93
        3
 10
898.9501414661147
 20
358.509752151181
 10
897.9026042848927
 20
358.0223516043897
 10
898.2999474097841
 20
357.2822239521592
 97
        0
 92
        7
 72
     0
 73
     1
 93
        3
 10
898.6030943747305
 20
365.0138479989914
 10
897.96581999121
 20
364.2610834416759
 10
898.5451595289217
 20
364.4927043205045
 97
        0
 92
        7
 72
     0
 73
     1
 93
        3
 10
900.6307842434505
 20
366.4035644749559
 10
900.1093765780896
 20
365.8824207964693
 10
900.514914551834
 20
365.8824207964693
 97
        0
 92
        7
 72
     0
 73
     1
 93
        3
 10
902.832275676139
 20
368.1407122691638
 10
902.4846725482033
 20
367.7932831501729
 10
902.8902105219477
 20
367.6195663914249
 97
        0
 75
     0
 76
     1
 47
0.0579048843000321
 98
       17
 10
896.2277984046167
 20
360.6709818123503
 10
894.8373829194164
 20
363.334606524117
 10
894.8953177652251
 20
366.5193749143704
 10
896.8071379423285
 20
368.7197600677317
 10
899.1824339124422
 20
369.9936683035338
 10
901.8473981646829
 20
371.5570993389941
 10
904.5123624169236
 20
371.441291098832
 10
907.5828646429085
 20
368.6039496283169
 10
909.3208832560443
 20
365.5928957975592
 10
910.0740273311816
 20
362.3502232872246
 10
909.4946877934698
 20
359.1075485776377
 10
904.5123624169236
 20
356.7913529848623
 10
901.3259904993218
 20
356.7913529848623
 10
898.2554882733369
 20
358.0073549013308
 10
898.429289837305
 20
364.550608440586
 10
900.4569826794831
 20
366.1140394760458
 10
902.7164089579795
 20
367.7932831501729
450
        1
451
        0
460
0.0
461
0.0
452
        1
462
0.5400000214576721
453
        2
463
0.0
 63
     1
421
 16711680
463
1.0
 63
     1
421
 16716820
470
LINEAR
  0
LWPOLYLINE
  5
7E2
330
1F
100
AcDbEntity
  8
Drawing
100
AcDbPolyline
 90
       12
 70
     1
 43
0.0
 10
901.0942540895456
 20
358.8180235787275
 10
903.1798788040745
 20
359.0496444575568
 10
904.2226911613392
 20
359.6865985754579
 10
903.6433516236274
 20
360.0340276944493
 10
903.4695500596594
 20
360.0340276944493
 10
902.7164089579795
 20
360.4972672528546
 10
902.1950012926185
 20
360.6130754930167
 10
901.3259904993218
 20
360.5551713729359
 10
901.0363222171949
 20
360.0919318145301
 10
901.0363222171949
 20
359.80240681562
 10
901.0942540895456
 20
359.3391694564669
 10
901.2680586269711
 20
359.2812631371334
  0
LWPOLYLINE
  5
7E3
330
1F
100
AcDbEntity
  8
Drawing
100
AcDbPolyline
 90
        3
 70
     1
 43
0.0
 10
898.5451595289218
 20
364.4927043205047
 10
898.6030943747304
 20
365.0138479989913
 10
897.96581999121
 20
364.2610834416759
  0
LWPOLYLINE
  5
7E4
330
1F
100
AcDbEntity
  8
Drawing
100
AcDbPolyline
 90
        3
 70
     1
 43
0.0
 10
900.5149145518338
 20
365.8824207964693
 10
900.6307842434506
 20
366.4035644749559
 10
900.1093765780896
 20
365.8824207964693
  0
LWPOLYLINE
  5
7E5
330
1F
100
AcDbEntity
  8
Drawing
100
AcDbPolyline
 90
        3
 70
     1
 43
0.0
 10
902.4846725482033
 20
367.7932831501729
 10
902.8322756761389
 20
368.1407122691638
 10
902.8902105219476
 20
367.6195663914249
  0
LWPOLYLINE
  5
7E6
330
1F
100
AcDbEntity
  8
Drawing
100
AcDbPolyline
 90
        4
 70
     0
 43
0.0
 10
902.7743408303307
 20
367.8511872702537
 10
903.2378136498832
 20
367.2721372724335
 10
903.2957484956913
 20
366.5772790344516
 10
903.527484905468
 20
365.8245166763885
  0
LWPOLYLINE
  5
7E7
330
1F
100
AcDbEntity
  8
Drawing
100
AcDbPolyline
 90
        5
 70
     0
 43
0.0
 10
900.5149145518338
 20
365.7087062369736
 10
900.6307842434506
 20
365.2454666785683
 10
900.8625206532269
 20
364.7243230000817
 10
901.0363222171949
 20
364.7243230000817
 10
901.2680586269711
 20
364.3189897610094
  0
LWPOLYLINE
  5
7E8
330
1F
100
AcDbEntity
  8
Drawing
100
AcDbPolyline
 90
        3
 70
     0
 43
0.0
 10
898.429289837305
 20
364.4927043205047
 10
898.8348278110492
 20
363.7399397631892
 10
899.3562354764102
 20
363.334606524117
  0
LWPOLYLINE
  5
7E9
330
1F
100
AcDbEntity
  8
Drawing
  6
ACAD_ISO03W100
 48
0.15
100
AcDbPolyline
 90
       16
 70
   129
 43
0.0
 10
897.618213889817
 20
362.697652406216
 10
896.6333363783609
 20
364.0873688821802
 10
896.7492060699777
 20
365.8245166763885
 10
898.2554882733369
 20
367.4458518319292
 10
900.5728493976425
 20
368.546045508236
 10
901.9632648828423
 20
369.5304287451285
 10
903.2957484956913
 20
369.1829996261371
 10
905.149636800444
 20
367.040518592857
 10
906.8876554135799
 20
364.6664188800004
 10
906.8297235412291
 20
363.3925106441978
 10
906.6559190038037
 20
362.5239378467203
 10
905.5551747741882
 20
360.7288859324311
 10
903.006077240107
 20
358.9338340181424
 10
899.5879718861864
 20
359.9761213751157
 10
897.7920154537845
 20
361.829079608738
 10
897.3285456076895
 20
363.2767002047834
  0
LWPOLYLINE
  5
7EA
330
1F
100
AcDbEntity
  8
Drawing
100
AcDbPolyline
 90
        3
 70
     0
 43
0.0
 10
902.0336020198573
 20
370.7910776873772
 10
901.8004680850589
 20
369.4515173648014
 10
901.8004680850589
 20
369.4515173648014
  0
LWPOLYLINE
  5
7EB
330
1F
100
AcDbEntity
  8
Drawing
100
AcDbPolyline
 90
        3
 70
     0
 43
0.0
 10
903.504152184514
 20
369.3439695171732
 10
904.3284005486993
 20
370.9213262197057
 10
904.3284005486993
 20
370.9213262197057
  0
LWPOLYLINE
  5
7EC
330
1F
100
AcDbEntity
  8
Drawing
100
AcDbPolyline
 90
        3
 70
     0
 43
0.0
 10
895.6484588669049
 20
366.1140394760458
 10
896.8071379423285
 20
365.4770875573971
 10
896.8071379423285
 20
365.4770875573971
  0
LWPOLYLINE
  5
7ED
330
1F
100
AcDbEntity
  8
Drawing
100
AcDbPolyline
 90
        3
 70
     0
 43
0.0
 10
897.1980019033412
 20
363.6580088091272
 10
895.7241512008658
 20
363.5325370533118
 10
895.7241512008658
 20
363.5325370533118
  0
LWPOLYLINE
  5
7EE
330
1F
100
AcDbEntity
  8
Drawing
100
AcDbPolyline
 90
        3
 70
     0
 43
0.0
 10
897.9691443166879
 20
361.471219434958
 10
897.187122022371
 20
360.9389431401222
 10
897.187122022371
 20
360.9389431401222
  0
LWPOLYLINE
  5
7EF
330
1F
100
AcDbEntity
  8
Drawing
100
AcDbPolyline
 90
        3
 70
     0
 43
0.0
 10
899.7445601047228
 20
359.3561278927899
 10
898.9375548205434
 20
358.5316017251492
 10
898.9375548205434
 20
358.5316017251492
  0
LWPOLYLINE
  5
7F0
330
1F
100
AcDbEntity
  8
Drawing
100
AcDbPolyline
 90
        3
 70
     0
 43
0.0
 10
901.5980945680334
 20
358.9794685083119
 10
901.2628758905593
 20
357.6088503413902
 10
901.2628758905593
 20
357.6088503413902
  0
LWPOLYLINE
  5
7F1
330
1F
100
AcDbEntity
  8
Drawing
100
AcDbPolyline
 90
        3
 70
     0
 43
0.0
 10
904.7185270922536
 20
359.1228641723145
 10
904.7185270922536
 20
357.5096596534075
 10
904.7185270922536
 20
357.5096596534075
  0
LWPOLYLINE
  5
7F2
330
1F
100
AcDbEntity
  8
Drawing
100
AcDbPolyline
 90
        3
 70
     0
 43
0.0
 10
906.4631794890578
 20
360.4492773632163
 10
908.9241645572264
 20
359.3504362272205
 10
908.9241645572264
 20
359.3504362272205
  0
LWPOLYLINE
  5
7F3
330
1F
100
AcDbEntity
  8
Drawing
100
AcDbPolyline
 90
        3
 70
     0
 43
0.0
 10
906.5528470732401
 20
362.9359392194887
 10
909.1401297484557
 20
362.6393634169407
 10
909.1401297484557
 20
362.6393634169407
  0
LWPOLYLINE
  5
7F4
330
1F
100
AcDbEntity
  8
Drawing
100
AcDbPolyline
 90
        3
 70
     0
 43
0.0
 10
907.1465870655942
 20
364.7619588087695
 10
908.8203195277146
 20
365.3375779726297
 10
908.8203195277146
 20
365.3375779726297
  0
LWPOLYLINE
  5
7F5
330
1F
100
AcDbEntity
  8
Drawing
100
AcDbPolyline
 90
        3
 70
     0
 43
0.0
 10
905.1719674662221
 20
366.8940725655838
 10
906.8904980389437
 20
368.2876245379751
 10
906.8904980389437
 20
368.2876245379751
  0
LWPOLYLINE
  5
7F6
330
1F
100
AcDbEntity
  8
Drawing
100
AcDbPolyline
 90
        3
 70
     0
 43
0.0
 10
899.4618080847262
 20
369.6187419300567
 10
900.4295257729854
 20
368.5301229198589
 10
900.4295257729854
 20
368.5301229198589
  0
LWPOLYLINE
  5
7F7
330
1F
100
AcDbEntity
  8
Drawing
100
AcDbPolyline
 90
        3
 70
     0
 43
0.0
 10
897.5642723974223
 20
368.0220274066818
 10
898.1650505636643
 20
367.4677409924428
 10
898.1650505636643
 20
367.4677409924428
  0
LWPOLYLINE
  5
7F8
330
1F
100
AcDbEntity
  8
Drawing
100
AcDbPolyline
 90
        3
 70
     1
 43
0.0
 10
907.5832363250955
 20
369.2503957201737
 10
906.9330422687648
 20
368.221438032835
 10
908.016701011621
 20
368.4019570796839
  0
LWPOLYLINE
  5
7F9
330
1F
100
AcDbEntity
  8
Drawing
100
AcDbPolyline
 90
        3
 70
     1
 43
0.0
 10
908.7933205336711
 20
365.3301664915756
 10
909.7505538108079
 20
365.3301664915756
 10
909.3893352210083
 20
366.0341912141374
  0
LWPOLYLINE
  5
7FA
330
1F
100
AcDbEntity
  8
Drawing
100
AcDbPolyline
 90
        3
 70
     1
 43
0.0
 10
909.3893352210083
 20
362.404272117606
 10
910.3104439630532
 20
361.9890774301524
 10
910.3104439630532
 20
362.7653080120516
  0
LWPOLYLINE
  5
7FB
330
1F
100
AcDbEntity
  8
Drawing
100
AcDbPolyline
 90
        3
 70
     1
 43
0.0
 10
908.9016881920314
 20
359.3401415260886
 10
909.4976999059107
 20
358.5278058152679
 10
909.8047361532593
 20
359.4123473854264
  0
LWPOLYLINE
  5
7FC
330
1F
100
AcDbEntity
  8
Drawing
100
AcDbPolyline
 90
        3
 70
     1
 43
0.0
 10
904.7115394671436
 20
357.4988459286768
 10
904.0252238491784
 20
356.4337853116693
 10
904.7837855638694
 20
356.1449530773087
  0
LWPOLYLINE
  5
7FD
330
1F
100
AcDbEntity
  8
Drawing
100
AcDbPolyline
 90
        3
 70
     1
 43
0.0
 10
901.3170939145006
 20
357.6057142072708
 10
900.828483485296
 20
356.5240448350941
 10
901.7857167624323
 20
356.5240448350941
  0
LWPOLYLINE
  5
7FE
330
1F
100
AcDbEntity
  8
Drawing
100
AcDbPolyline
 90
        3
 70
     1
 43
0.0
 10
897.9026042848926
 20
358.0223516043897
 10
898.2999474097841
 20
357.2822239521591
 10
898.9501414661148
 20
358.509752151181
  0
LWPOLYLINE
  5
7FF
330
1F
100
AcDbEntity
  8
Drawing
100
AcDbPolyline
 90
        3
 70
     1
 43
0.0
 10
895.8797760191745
 20
361.0329677838926
 10
896.2332130707131
 20
360.3113556387819
 10
897.1621063244764
 20
360.9607597253024
  0
LWPOLYLINE
  5
800
330
1F
100
AcDbEntity
  8
Drawing
100
AcDbPolyline
 90
        3
 70
     1
 43
0.0
 10
894.669688837141
 20
363.596337369448
 10
894.8466987617447
 20
363.0169970702926
 10
895.7533475799972
 20
363.5421807756924
  0
LWPOLYLINE
  5
801
330
1F
100
AcDbEntity
  8
Drawing
100
AcDbPolyline
 90
        3
 70
     1
 43
0.0
 10
894.8466987617447
 20
367.0424627321012
 10
894.5071418097872
 20
366.3041230721841
 10
895.7172260183632
 20
366.1958098846725
  0
LWPOLYLINE
  5
802
330
1F
100
AcDbEntity
  8
Drawing
100
AcDbPolyline
 90
        3
 70
     1
 43
0.0
 10
896.0857593135974
 20
368.6005275913675
 10
897.4945150846187
 20
368.0589704508201
 10
896.8081964931965
 20
369.4850713607783
  0
LWPOLYLINE
  5
803
330
1F
100
AcDbEntity
  8
Drawing
100
AcDbPolyline
 90
        3
 70
     1
 43
0.0
 10
898.5527448189886
 20
370.1529909544187
 10
899.4557957536734
 20
369.6114338138717
 10
899.5099780961249
 20
370.6584451652974
  0
LWPOLYLINE
  5
804
330
1F
100
AcDbEntity
  8
Drawing
100
AcDbPolyline
 90
        3
 70
     1
 43
0.0
 10
901.5151648385325
 20
371.9258128240507
 10
901.9662710483684
 20
370.8209127473118
 10
902.3816749540769
 20
371.976232887744
  0
LWPOLYLINE
  5
805
330
1F
100
AcDbEntity
  8
Drawing
100
AcDbPolyline
 90
        3
 70
     1
 43
0.0
 10
904.3542161066606
 20
371.9918057949675
 10
904.3542161066606
 20
370.9359468505803
 10
905.2125343468095
 20
371.2659029081545
  0
LWPOLYLINE
  5
806
330
1F
100
AcDbEntity
  8
Drawing
100
AcDbPolyline
 90
       33
 70
     1
 43
0.0
 10
893.9883805215953
 20
365.1947079299842
 10
895.1768209330743
 20
367.7023748472496
 10
896.8274317897234
 20
369.4841388777021
 10
898.4780426463725
 20
370.210041764515
 10
900.0626278793728
 20
370.8699538796635
 10
901.3831165646924
 20
371.9918057949675
 10
903.1657756951817
 20
371.9918057949675
 10
904.7503639016394
 20
371.9258150233035
 10
906.5990456823205
 20
370.1440509928506
 10
907.7874860937994
 20
369.0221990775466
 10
908.8438782314378
 20
367.2404372463465
 10
909.7682191217781
 20
365.3926824442295
 10
910.2964151905975
 20
363.7428999571056
 10
910.4284634644381
 20
360.7732954389375
 10
909.5041225740973
 20
358.3976100650005
 10
908.3817048128102
 20
356.8138205487934
 10
907.5233895461182
 20
356.1539084336449
 10
906.7310969296185
 20
355.8239523760707
 10
905.740730415629
 20
356.021926890316
 10
903.363849592671
 20
356.4178737195547
 10
901.6472160858306
 20
356.4178737195547
 10
900.1286535030216
 20
356.4178737195547
 10
899.4684091603621
 20
356.4178737195547
 10
898.2799687488831
 20
357.0777858347031
 10
897.6197244062236
 20
358.5295938075818
 10
897.2235795847022
 20
358.9255406368201
 10
896.6953835158832
 20
359.2554966943948
 10
896.3652613445532
 20
359.4534712086401
 10
896.0351391732237
 20
360.707304667273
 10
895.1768209330743
 20
362.0931196692344
 10
894.9127243853935
 20
362.7530317843829
 10
894.252480042734
 20
364.4028142715068
 10
894.1864544190847
 20
364.9967334157385
  0
MTEXT
  5
807
330
1F
100
AcDbEntity
  8
Drawing
370
     9
100
AcDbMText
 10
780.3406944092293
 20
369.4465423223189
 30
0.0
 40
2.5
 41
18.4122985344693
 46
0.0
 71
     1
 72
     5
  1
{\fArial|b0|i0|c0|p34;W}
 73
     1
 44
1.0
  0
MTEXT
  5
808
330
1F
100
AcDbEntity
  8
Drawing
370
     9
100
AcDbMText
 10
841.752410012038
 20
368.4566741495962
 30
0.0
 40
2.5
 41
18.4122985344693
 46
0.0
 71
     1
 72
     5
  1
{\fArial|b0|i0|c0|p34;E}
 73
     1
 44
1.0
  0
LWPOLYLINE
  5
809
330
1F
100
AcDbEntity
  8
Drawing
100
AcDbPolyline
 90
        3
 70
     0
 43
0.0
 10
814.0770417591629
 20
347.6437222639818
 10
815.7936782394612
 20
349.9534168662542
 10
817.3782634724611
 20
347.2477754347431
  0
MTEXT
  5
80A
330
1F
100
AcDbEntity
  8
Drawing
370
     9
100
AcDbMText
 10
812.7073322919113
 20
346.1516349808642
 30
0.0
 40
3.5
 41
18.4122985344693
 46
0.0
 71
     1
 72
     5
  1
{\fArial|b0|i0|c0|p34;5.59}
 73
     1
 44
1.0
  0
LWPOLYLINE
  5
80B
330
1F
100
AcDbEntity
  8
Drawing
100
AcDbPolyline
 90
        2
 70
     0
 43
0.0
 10
800.1458879131186
 20
369.9329114196701
 10
801.4003509747889
 20
368.2831311317989
  0
LWPOLYLINE
  5
80C
330
1F
100
AcDbEntity
  8
Drawing
100
AcDbPolyline
 90
        2
 70
     0
 43
0.0
 10
800.1458879131186
 20
369.9329114196701
 10
798.9574475016401
 20
368.2171381608816
  0
MTEXT
  5
80D
330
1F
100
AcDbEntity
  8
Drawing
370
     9
100
AcDbMText
 10
795.8718088819687
 20
374.7526278061409
 30
0.0
 40
3.5
 41
20.26027893418666
 46
0.0
 71
     1
 72
     5
  1
{\fArial|b0|i0|c0|p34;5.69}
 73
     1
 44
1.0
  0
LWPOLYLINE
  5
80E
330
1F
100
AcDbEntity
  8
Drawing
100
AcDbPolyline
 90
        7
 70
     0
 43
0.0
 10
829.3286842905262
 20
361.0240934666597
 10
830.583147352197
 20
363.1358135546864
 10
831.5735138661861
 20
364.7196030708935
 10
832.0356872848141
 20
366.3033925871007
 10
833.7523207916546
 20
366.1054202721077
 10
834.4125651343141
 20
366.1054202721077
 10
835.2708833744631
 20
366.3033925871007
  0
LWPOLYLINE
  5
80F
330
1F
100
AcDbEntity
  8
Drawing
100
AcDbPolyline
 90
       10
 70
     0
 43
0.0
 10
796.1183992069695
 20
366.5673578730105
 10
798.3632287826293
 20
366.2374018154362
 10
800.5420357080974
 20
366.5673578730105
 10
801.6644504959276
 20
366.501367101346
 10
801.7304731461189
 20
363.9277094124161
 10
801.9945726672571
 20
361.2880587525694
 10
802.5887913862679
 20
359.1103478928783
 10
803.8432574213956
 20
357.5265583766711
 10
804.8336239353852
 20
356.4706994322839
 10
806.0220613734067
 20
355.1508730027347
  0
LWPOLYLINE
  5
811
330
1F
100
AcDbEntity
  8
Drawing
100
AcDbPolyline
 90
       19
 70
     1
 43
0.0
 10
810.9078683197052
 20
351.5213563694176
 10
813.8129452114821
 20
351.7853216553274
 10
815.0013826495036
 20
352.1152777129016
 10
816.1898230609821
 20
351.9832939703203
 10
817.9724821914718
 20
352.5772153138048
 10
819.953215219451
 20
353.3031182006177
 10
821.6698516997488
 20
353.8970395441017
 10
824.9050477893983
 20
355.4808290603089
 10
825.3672182345684
 20
356.6026809756129
 10
825.499266508409
 20
358.780391835304
 10
824.4428773442281
 20
359.6382784646983
 10
822.7262408639298
 20
360.7601281807499
 10
820.1512891169403
 20
361.9479708677179
 10
816.9160930272909
 20
362.2119361536281
 10
815.0674082731524
 20
361.2880587525694
 10
813.3507747663119
 20
359.506294722117
 10
811.6341382860136
 20
357.1966023190969
 10
809.9835274293645
 20
355.1508730027347
 10
809.7854535318751
 20
352.4452337704759
  0
LWPOLYLINE
  5
813
330
1F
100
AcDbEntity
  8
Drawing
100
AcDbPolyline
 90
       45
 70
     1
 43
0.0
 10
805.8900130995661
 20
355.2828567453159
 10
805.3618170307471
 20
358.7144010636396
 10
805.3618170307471
 20
361.3540495242339
 10
805.3618170307471
 20
364.6536122992291
 10
805.8900130995661
 20
367.2272699881589
 10
807.078453511045
 20
370.46084199149
 10
807.8707461275452
 20
373.1004904520839
 10
809.3893087103537
 20
375.7401411119311
 10
810.2476239770452
 20
376.9939745705635
 10
813.2847491426627
 20
378.0498335149507
 10
815.1334338968012
 20
378.1158242866152
 10
816.3878969584715
 20
377.587895914048
 10
818.6327265341314
 20
376.6640185129893
 10
821.2737039047701
 20
375.4101850543568
 10
822.9243147614192
 20
374.8822544825368
 10
825.1031216868877
 20
374.1563515957239
 10
826.8197551937282
 20
372.8365251661742
 10
828.0742212288559
 20
372.1106222793612
 10
829.4607325643668
 20
370.9887703640572
 10
830.6491729758458
 20
368.4151126751274
 10
830.3190508045158
 20
364.9175775851393
 10
829.6588064618562
 20
362.0799546102992
 10
828.8004882217073
 20
359.8362507796912
 10
828.2062695026965
 20
358.3184542344013
 10
827.6780734338771
 20
357.1966023190969
 10
826.4896330223986
 20
356.0747504037929
 10
824.8390221657495
 20
355.4808290603089
 10
825.6313177557071
 20
356.9326370331871
 10
825.3011955843771
 20
359.0443571212138
 10
824.2448034467387
 20
360.100216065601
 10
823.0563630352598
 20
360.6941374090854
 10
820.6134595621105
 20
361.8819800960539
 10
819.4250191506316
 20
362.0799546102992
 10
817.4442890961103
 20
362.4759014395379
 10
815.6616269921632
 20
361.8819800960539
 10
814.0110191089715
 20
360.1662068372655
 10
811.2379904910348
 20
356.8666462615226
 10
809.8514791555243
 20
354.6889354018315
 10
809.5213569841943
 20
353.8970395441017
 10
809.4553313605455
 20
352.7091968571333
 10
810.4456978745346
 20
351.8513124269919
 10
810.643771772024
 20
351.5213563694176
 10
808.3329165727154
 20
352.8411805997146
 10
807.2105017848857
 20
353.6990672291088
 10
806.1541096472473
 20
355.0848822310702
  0
LWPOLYLINE
  5
816
330
1F
100
AcDbEntity
  8
Drawing
100
AcDbPolyline
 90
       16
 70
     1
 43
0.0
 10
729.9284206684964
 20
368.5470942184563
 10
731.5130059014967
 20
368.7450687327016
 10
732.5693980391351
 20
368.7450687327016
 10
733.2956680054439
 20
368.7450687327016
 10
733.757838450614
 20
369.2729993045216
 10
734.6821793409543
 20
369.8009276770888
 10
735.6065202312951
 20
370.2628674772443
 10
735.6065202312951
 20
370.7248050781475
 10
734.4180827932736
 20
371.3187264216315
 10
733.1636167581458
 20
371.3847193925483
 10
731.9091536964755
 20
371.252735649967
 10
730.9848128061348
 20
371.054763334974
 10
730.1264945659858
 20
370.9887703640572
 10
729.3342019494856
 20
370.1308859339158
 10
729.3342019494856
 20
369.3389900761861
 10
729.532275846975
 20
368.8110595043661
  0
LWPOLYLINE
  5
817
330
1F
100
AcDbEntity
  8
Drawing
100
AcDbPolyline
 90
       24
 70
     1
 43
0.0
 10
728.2117871616559
 20
371.4507101642128
 10
729.6643241208156
 20
370.9887703640572
 10
731.4469832513054
 20
371.1207541066385
 10
732.7674719366245
 20
371.252735649967
 10
734.286034519433
 20
371.9786407360327
 10
735.6725458549439
 20
372.0446315076967
 10
736.5968867452847
 20
372.4405783369355
 10
737.653278882923
 20
372.9025159378386
 10
737.8513527804124
 20
374.2883331390524
 10
736.7949606427741
 20
374.8162637108724
 10
736.0686936499227
 20
375.1462197684466
 10
735.2103754097737
 20
375.8721226552595
 10
734.616156690763
 20
376.1360879411693
 10
733.9559123481034
 20
376.2020787128338
 10
732.8334945868158
 20
375.8721226552595
 10
732.1072275939649
 20
375.8061318835951
 10
730.1264945659858
 20
375.4101850543568
 10
728.6739576068261
 20
375.0142360258653
 10
727.7496137430279
 20
374.1563515957239
 10
727.0893694003684
 20
373.4304465096586
 10
726.8912984763364
 20
372.9025159378386
 10
726.9573211265282
 20
372.1766130510257
 10
727.2214206476664
 20
371.780666221787
 10
727.6835910928365
 20
371.5826917075412
  0
LWPOLYLINE
  5
818
330
1F
100
AcDbEntity
  8
Drawing
  6
ACAD_ISO03W100
 48
0.15
100
AcDbPolyline
 90
       20
 70
   129
 43
0.0
 10
727.2466266468408
 20
371.9160192192569
 10
724.6080191218251
 20
370.3576244721096
 10
723.5285886355249
 20
367.8402170653519
 10
724.0083351879406
 20
365.2029350004893
 10
725.3276404371776
 20
363.2849096812681
 10
727.1266922388303
 20
361.8463917914789
 10
729.7652997638464
 20
361.8463917914789
 10
732.2839728808516
 20
361.6066380767631
 10
733.8431499195675
 20
361.4867634186578
 10
736.4817604180411
 20
360.8873791318686
 10
738.6406213906411
 20
360.7675044737632
 10
740.3197387842832
 20
361.9662686488366
 10
741.1592945076467
 20
364.2439223408785
 10
741.5191066520514
 20
366.2818223182051
 10
741.5191066520514
 20
369.7582401853203
 10
739.4801800874619
 20
373.5942886245095
 10
737.6811282858097
 20
374.0737960539411
 10
733.7232155115565
 20
374.0737960539411
 10
731.2045423945514
 20
373.7141654818672
 10
728.4459945146094
 20
372.6352781641515
  0
MTEXT
  5
820
330
1F
100
AcDbEntity
  8
Drawing
100
AcDbMText
 10
887.4139615006768
 20
379.1854131221097
 30
0.0
 40
3.5
 41
0.0
 46
0.0
 71
     1
 72
     5
  1
{\fArial|b0|i0|c0|p34;Cut 1163}
  7
verdana
 73
     1
 44
1.0
  0
LWPOLYLINE
  5
821
330
1F
100
AcDbEntity
  8
Drawing
100
AcDbPolyline
 90
        2
 70
     0
 43
0.0
 10
902.6524431614123
 20
363.1726810553012
 10
913.6254959608386
 20
364.238621428688
  0
HATCH
  5
84D
330
1F
100
AcDbEntity
  8
Drawing
 62
     1
100
AcDbHatch
 10
0.0
 20
0.0
 30
0.0
210
0.0
220
0.0
230
1.0
  2
SOLID
 70
     1
 71
     1
 91
        6
 92
        7
 72
     0
 73
     1
 93
        4
 10
888.6183393073934
 20
309.0018166029462
 10
888.1290443400296
 20
308.5416842472464
 10
888.0307495145179
 20
308.387348958135
 10
889.4278348802931
 20
308.4240839573962
 97
        2
330
866
330
870
 92
        7
 72
     0
 73
     1
 93
        3
 10
890.8540919827403
 20
312.083055179959
 10
890.2758780487897
 20
311.3127471851453
 10
891.3937543864622
 20
311.081654126925
 97
        1
330
86F
 92
        7
 72
     0
 73
     1
 93
        3
 10
893.0512970624899
 20
314.4324990726092
 10
892.3959879373455
 20
313.7777376069049
 10
893.590959466212
 20
313.431098019575
 97
        1
330
86E
 92
        7
 72
     0
 73
     1
 93
        3
 10
896.9831400094604
 20
317.7063151981384
 10
896.0194501195423
 20
317.167100261544
 10
897.0602312660214
 20
316.3582767570269
 97
        1
330
86D
 92
        7
 72
     0
 73
     1
 93
        3
 10
900.6836895135859
 20
317.4367088294675
 10
899.8741939406865
 20
318.014441475017
 10
899.7585511538967
 20
316.7049141451045
 97
        1
330
86C
 92
        7
 72
     0
 73
     1
 93
        5
 10
902.8899441254528
 20
315.1030132184848
 10
902.688160549985
 20
315.5494510532575
 10
901.4931890211177
 20
314.4710167815646
 10
903.1348235038837
 20
314.3616650832108
 10
903.1121801669162
 20
314.4710167815656
 97
        2
330
86B
330
870
 75
     0
 76
     1
 47
0.028338727995903
 98
        6
 10
888.971911847398
 20
308.5495287228665
 10
890.7020084098862
 20
311.4967563919154
 10
892.9709876879351
 20
313.9055481280452
 10
896.6297174378293
 20
317.1361632542407
 10
900.0899105628056
 20
317.3912117300132
 10
902.3588898408545
 20
314.8407265009694
450
        1
451
        0
460
0.0
461
0.0
452
        1
462
0.4600000083446503
453
        2
463
0.0
 63
     1
421
 16711680
463
1.0
 63
     1
421
 15400960
470
LINEAR
  0
HATCH
  5
84E
330
1F
100
AcDbEntity
  8
Drawing
 62
     1
100
AcDbHatch
 10
0.0
 20
0.0
 30
0.0
210
0.0
220
0.0
230
1.0
  2
SOLID
 70
     1
 71
     1
 91
        3
 92
        7
 72
     0
 73
     1
 93
        3
 10
901.6473794035047
 20
305.728000477417
 10
899.9127415362838
 20
305.8820625162302
 10
901.3389947040981
 20
304.765112734834
 97
        1
330
868
 92
        7
 72
     0
 73
     1
 93
        3
 10
902.6496129543877
 20
308.1544753894731
 10
900.5295030658319
 20
308.4240839573964
 10
902.1870418072269
 20
307.3456496857033
 97
        1
330
869
 92
        7
 72
     0
 73
     1
 93
        3
 10
902.8037994021427
 20
311.5053225344092
 10
901.4546414255212
 20
311.081654126925
 10
902.7652518065454
 20
310.5809525007822
 97
        1
330
86A
 75
     0
 76
     1
 47
0.015758906796784
 98
        3
 10
900.766404323816
 20
305.4943464409855
 10
902.0123915762147
 20
307.8266648276407
 10
902.2962870856628
 20
311.0414818212722
450
        1
451
        0
460
0.0
461
0.0
452
        1
462
0.4600000083446503
453
        2
463
0.0
 63
     1
421
 16711680
463
1.0
 63
     1
421
 15400960
470
LINEAR
  0
HATCH
  5
84F
330
1F
100
AcDbEntity
  8
Drawing
 62
     1
100
AcDbHatch
 10
0.0
 20
0.0
 30
0.0
210
0.0
220
0.0
230
1.0
  2
SOLID
 70
     1
 71
     1
 91
        5
 92
        7
 72
     0
 73
     1
 93
        4
 10
898.3322979860825
 20
303.6096474437345
 10
898.8334127942073
 20
302.0305115458986
 10
899.7470383830622
 20
302.4082501638139
 10
899.8641590752025
 20
302.5528091076737
 97
        2
330
867
330
870
 92
        7
 72
     0
 73
     1
 93
        3
 10
895.5568789723814
 20
302.3001201138217
 10
894.9786689730629
 20
301.2602013518322
 10
896.1350929063323
 20
301.1446548227221
 97
        1
330
862
 92
        7
 72
     0
 73
     1
 93
        6
 10
893.2054874448769
 20
303.1859768369982
 10
892.5501783197326
 20
302.6082441914483
 10
892.9668909204001
 20
302.3891043276263
 10
893.0127494668936
 20
302.3771511332282
 10
893.1317892440545
 20
302.3023879765196
 10
893.2825826360705
 20
302.2230890944152
 97
        2
330
863
330
870
 92
        7
 72
     0
 73
     1
 93
        3
 10
890.6999016003531
 20
303.6096474437345
 10
889.659120453874
 20
302.9933992884813
 10
890.699901600353
 20
302.6852752108548
 97
        1
330
864
 92
        7
 72
     0
 73
     1
 93
        3
 10
889.0423628589581
 20
305.4198763997901
 10
887.885938925688
 20
305.9205780259336
 10
887.9630341168813
 20
304.8806592639439
 97
        1
330
865
 75
     0
 76
     1
 47
0.015758906796784
 98
        5
 10
898.8485989963738
 20
302.7595383537121
 10
895.7415183976644
 20
301.5461023567159
 10
893.0602810631275
 20
302.6965027725937
 10
890.41058795516
 20
303.0589577175135
 10
888.2655982561755
 20
305.407035117278
450
        1
451
        0
460
0.0
461
0.0
452
        1
462
0.4600000083446503
453
        2
463
0.0
 63
     1
421
 16711680
463
1.0
 63
     1
421
 15400960
470
LINEAR
  0
LWPOLYLINE
  5
850
330
1F
100
AcDbEntity
  8
Drawing
100
AcDbPolyline
 90
        3
 70
     0
 43
0.0
 10
814.4868038858788
 20
301.4415451183831
 10
815.2958154989685
 20
302.9571797984281
 10
816.4082030241627
 20
301.4415451183831
  0
MTEXT
  5
851
330
1F
100
AcDbEntity
  8
Drawing
100
AcDbMText
 10
812.834812976452
 20
300.6444392313897
 30
0.0
 40
3.5
 41
0.0
 46
0.0
 71
     1
 72
     5
  1
{\fArial|b0|i0|c0|p34;5.38}
 73
     1
 44
1.0
  0
MTEXT
  5
852
330
1F
100
AcDbEntity
  8
Drawing
100
AcDbMText
 10
833.5656917890749
 20
316.7101791556811
 30
0.0
 40
1.0
 41
0.0
 46
0.0
 71
     1
 72
     5
  1
{\fArial|b0|i0|c0|p34;\H2.5x;SE}
 73
     1
 44
1.0
  0
MTEXT
  5
853
330
1F
100
AcDbEntity
  8
Drawing
  6
ACAD_ISO03W100
370
   100
100
AcDbMText
 10
793.4525491611505
 20
316.3958179978558
 30
0.0
 40
1.0
 41
0.0
 46
0.0
 71
     1
 72
     5
  1
{\fArial|b0|i0|c0|p34;\H2.5x;SW}
 73
     1
 44
1.0
  0
LWPOLYLINE
  5
854
330
1F
100
AcDbEntity
  8
Drawing
  6
ACAD_ISO03W100
 48
0.15
100
AcDbPolyline
 90
       16
 70
   129
 43
0.0
 10
894.2077209957599
 20
312.8918808837284
 10
892.473083128539
 20
310.8120455590019
 10
890.8540919827403
 20
308.8862700738364
 10
890.5842588135631
 20
306.6908860207473
 10
891.3552067908652
 20
304.187380089284
 10
893.5524118706155
 20
303.802224992251
 10
895.6725217591713
 20
302.9163682690746
 10
898.139560008098
 20
303.9177715213609
 10
899.6043607715094
 20
306.2286999043076
 10
900.2596698966547
 20
308.4240839573963
 10
900.9920702783604
 20
311.7749311023326
 10
900.6836895135859
 20
314.2399237233449
 10
899.527269514949
 20
315.0872649368175
 10
897.7155364565344
 20
315.0872649368175
 10
895.2099545466428
 20
313.7777376069048
 10
894.4390026347075
 20
313.0459429225421
  0
LWPOLYLINE
  5
855
330
1F
100
AcDbEntity
  8
Drawing
100
AcDbPolyline
 90
        2
 70
     0
 43
0.0
 10
899.7585511538966
 20
316.7049141451043
 10
899.4887219193517
 20
315.2028114659274
  0
LWPOLYLINE
  5
856
330
1F
100
AcDbEntity
  8
Drawing
100
AcDbPolyline
 90
        2
 70
     0
 43
0.0
 10
896.9831360748287
 20
316.3967922667302
 10
897.7540840521308
 20
315.2028114659274
  0
LWPOLYLINE
  5
857
330
1F
100
AcDbEntity
  8
Drawing
100
AcDbPolyline
 90
        2
 70
     0
 43
0.0
 10
901.4546414255212
 20
314.5480478009713
 10
900.7607847047796
 20
314.3169547427515
  0
LWPOLYLINE
  5
858
330
1F
100
AcDbEntity
  8
Drawing
100
AcDbPolyline
 90
        2
 70
     0
 43
0.0
 10
901.3775462343276
 20
311.1201696366288
 10
901.0306178739568
 20
311.1972006560354
  0
LWPOLYLINE
  5
859
330
1F
100
AcDbEntity
  8
Drawing
100
AcDbPolyline
 90
        2
 70
     0
 43
0.0
 10
899.9512891318802
 20
305.8435470065269
 10
899.6043607715094
 20
305.9976090453401
  0
LWPOLYLINE
  5
85A
330
1F
100
AcDbEntity
  8
Drawing
100
AcDbPolyline
 90
        2
 70
     0
 43
0.0
 10
898.3322979860825
 20
303.5326164243279
 10
897.9853696257117
 20
303.9177715213609
  0
LWPOLYLINE
  5
85B
330
1F
100
AcDbEntity
  8
Drawing
100
AcDbPolyline
 90
        2
 70
     0
 43
0.0
 10
895.5183313767841
 20
302.3001201138218
 10
895.4797837811877
 20
302.9163682690746
  0
LWPOLYLINE
  5
85C
330
1F
100
AcDbEntity
  8
Drawing
100
AcDbPolyline
 90
        2
 70
     0
 43
0.0
 10
893.089844658087
 20
303.1474613272944
 10
893.4753166794219
 20
303.6481629534378
  0
LWPOLYLINE
  5
85D
330
1F
100
AcDbEntity
  8
Drawing
100
AcDbPolyline
 90
        2
 70
     0
 43
0.0
 10
890.6999016003531
 20
303.6096474437345
 10
891.2781115996725
 20
304.187380089284
  0
LWPOLYLINE
  5
85E
330
1F
100
AcDbEntity
  8
Drawing
100
AcDbPolyline
 90
        2
 70
     0
 43
0.0
 10
889.0038152633617
 20
305.4198763997902
 10
890.3915208355795
 20
305.9590935356368
  0
LWPOLYLINE
  5
85F
330
1F
100
AcDbEntity
  8
Drawing
100
AcDbPolyline
 90
        2
 70
     0
 43
0.0
 10
889.3507396890993
 20
308.4240839573963
 10
890.3915208355795
 20
308.2315064088798
  0
LWPOLYLINE
  5
860
330
1F
100
AcDbEntity
  8
Drawing
100
AcDbPolyline
 90
        2
 70
     0
 43
0.0
 10
891.3937543864624
 20
311.0816541269251
 10
892.2032538939941
 20
310.696499029892
  0
LWPOLYLINE
  5
861
330
1F
100
AcDbEntity
  8
Drawing
100
AcDbPolyline
 90
        2
 70
     0
 43
0.0
 10
893.6295070618091
 20
313.3925825098718
 10
894.2077209957599
 20
312.9303963934317
  0
LWPOLYLINE
  5
862
102
{ACAD_REACTORS
330
84F
102
}
330
1F
100
AcDbEntity
  8
Drawing
100
AcDbPolyline
 90
        3
 70
     1
 43
0.0
 10
894.9786689730629
 20
301.2602013518322
 10
896.1350929063321
 20
301.1446548227223
 10
895.5568789723814
 20
302.3001201138218
  0
LWPOLYLINE
  5
863
102
{ACAD_REACTORS
330
84F
102
}
330
1F
100
AcDbEntity
  8
Drawing
100
AcDbPolyline
 90
        3
 70
     1
 43
0.0
 10
892.5501783197326
 20
302.6082441914482
 10
893.2825826360706
 20
302.2230890944152
 10
893.205487444877
 20
303.1859768369982
  0
LWPOLYLINE
  5
864
102
{ACAD_REACTORS
330
84F
102
}
330
1F
100
AcDbEntity
  8
Drawing
100
AcDbPolyline
 90
        3
 70
     1
 43
0.0
 10
889.6591204538738
 20
302.9933992884812
 10
890.6999016003531
 20
302.6852752108548
 10
890.6999016003531
 20
303.6096474437345
  0
LWPOLYLINE
  5
865
102
{ACAD_REACTORS
330
84F
102
}
330
1F
100
AcDbEntity
  8
Drawing
100
AcDbPolyline
 90
        3
 70
     1
 43
0.0
 10
887.8859389256879
 20
305.9205780259335
 10
889.0423628589581
 20
305.4198763997902
 10
887.9630341168815
 20
304.8806592639439
  0
LWPOLYLINE
  5
866
102
{ACAD_REACTORS
330
84D
102
}
330
1F
100
AcDbEntity
  8
Drawing
100
AcDbPolyline
 90
        4
 70
     1
 43
0.0
 10
888.6183393073936
 20
309.0018166029463
 10
889.427834880293
 20
308.4240839573963
 10
889.427834880293
 20
308.4240839573963
 10
887.9630341168815
 20
308.385568447693
  0
LWPOLYLINE
  5
867
102
{ACAD_REACTORS
330
84F
102
}
330
1F
100
AcDbEntity
  8
Drawing
100
AcDbPolyline
 90
        3
 70
     1
 43
0.0
 10
899.9512891318802
 20
302.4926976623383
 10
898.8334127942073
 20
302.0305115458987
 10
898.3322979860825
 20
303.6096474437345
  0
LWPOLYLINE
  5
868
102
{ACAD_REACTORS
330
84E
102
}
330
1F
100
AcDbEntity
  8
Drawing
100
AcDbPolyline
 90
        3
 70
     1
 43
0.0
 10
901.6473794035048
 20
305.728000477417
 10
901.338994704098
 20
304.765112734834
 10
899.9127415362839
 20
305.8820625162302
  0
LWPOLYLINE
  5
869
102
{ACAD_REACTORS
330
84E
102
}
330
1F
100
AcDbEntity
  8
Drawing
100
AcDbPolyline
 90
        3
 70
     1
 43
0.0
 10
902.6496129543877
 20
308.1544753894732
 10
902.1870418072269
 20
307.3456496857034
 10
900.5295030658319
 20
308.4240839573963
  0
LWPOLYLINE
  5
86A
102
{ACAD_REACTORS
330
84E
102
}
330
1F
100
AcDbEntity
  8
Drawing
100
AcDbPolyline
 90
        3
 70
     1
 43
0.0
 10
902.8037994021427
 20
311.5053225344091
 10
902.7652518065454
 20
310.5809525007821
 10
901.4546414255212
 20
311.0816541269251
  0
LWPOLYLINE
  5
86B
102
{ACAD_REACTORS
330
84D
102
}
330
1F
100
AcDbEntity
  8
Drawing
100
AcDbPolyline
 90
        3
 70
     1
 43
0.0
 10
902.688160549985
 20
315.5494510532576
 10
903.2278229537062
 20
314.3554702524548
 10
901.4931890211176
 20
314.4710167815647
  0
LWPOLYLINE
  5
86C
102
{ACAD_REACTORS
330
84D
102
}
330
1F
100
AcDbEntity
  8
Drawing
100
AcDbPolyline
 90
        3
 70
     1
 43
0.0
 10
900.6836895135859
 20
317.4367088294675
 10
899.7585511538966
 20
316.7049141451043
 10
899.8741939406866
 20
318.0144414750171
  0
LWPOLYLINE
  5
86D
102
{ACAD_REACTORS
330
84D
102
}
330
1F
100
AcDbEntity
  8
Drawing
100
AcDbPolyline
 90
        3
 70
     1
 43
0.0
 10
896.9831400094602
 20
317.7063151981383
 10
897.0602312660214
 20
316.3582767570269
 10
896.0194501195422
 20
317.167100261544
  0
LWPOLYLINE
  5
86E
102
{ACAD_REACTORS
330
84D
102
}
330
1F
100
AcDbEntity
  8
Drawing
100
AcDbPolyline
 90
        3
 70
     1
 43
0.0
 10
893.0512970624898
 20
314.4324990726091
 10
893.5909594662119
 20
313.4310980195751
 10
892.3959879373454
 20
313.7777376069048
  0
LWPOLYLINE
  5
86F
102
{ACAD_REACTORS
330
84D
102
}
330
1F
100
AcDbEntity
  8
Drawing
100
AcDbPolyline
 90
        3
 70
     1
 43
0.0
 10
890.8540919827403
 20
312.083055179959
 10
891.3937543864624
 20
311.0816541269251
 10
890.2758780487895
 20
311.3127471851453
  0
LWPOLYLINE
  5
870
102
{ACAD_REACTORS
330
84F
330
84D
102
}
330
1F
100
AcDbEntity
  8
Drawing
100
AcDbPolyline
 90
       35
 70
     1
 43
0.0
 10
889.5820252626802
 20
310.5424369910788
 10
891.7406827468333
 20
313.3925825098718
 10
893.5909594662119
 20
314.9717184077076
 10
896.0194501195422
 20
317.3211623003576
 10
897.252969244006
 20
317.9759259653138
 10
899.0261507721909
 20
318.707720649677
 10
899.5658171105454
 20
318.5536586108637
 10
899.681455962703
 20
318.4381120817538
 10
900.7993323003768
 20
317.6678018876873
 10
902.6110653587914
 20
315.8960906405873
 10
903.1121801669162
 20
314.4710167815647
 10
903.3434657404971
 20
313.3540670001685
 10
903.3049181448998
 20
313.7392220972015
 10
903.3049181448998
 20
312.4682102769921
 10
902.957989784529
 20
311.4282915150025
 10
902.726704210949
 20
310.0802508746392
 10
902.7652518065454
 20
309.2714251708694
 10
902.6496129543877
 20
308.0774443700666
 10
902.1484942116297
 20
307.037525608077
 10
901.6859230644689
 20
305.2272988512736
 10
900.8764274915695
 20
303.802224992251
 10
899.5658171105454
 20
302.1845735847119
 10
898.4479407728725
 20
301.7223874682718
 10
897.4842548175859
 20
301.2602013518322
 10
895.3641449290301
 20
300.9905949831614
 10
894.3619074435148
 20
301.5298099197553
 10
893.0127494668934
 20
302.3771511332284
 10
892.1261587028005
 20
302.6082441914482
 10
890.5071636223695
 20
302.6082441914482
 10
888.7339820941845
 20
303.2630078564048
 10
887.9630341168815
 20
304.1488645795807
 10
887.8088437344952
 20
305.6509694580104
 10
887.8088437344952
 20
306.8064325498572
 10
887.8088437344952
 20
308.0389288603633
 10
888.8881724765718
 20
309.733611287309
  0
LWPOLYLINE
  5
871
330
1F
100
AcDbEntity
  8
Drawing
100
AcDbPolyline
 90
       36
 70
     0
 43
0.0
 10
800.7996335330483
 20
315.0881358408228
 10
802.0717002531085
 20
315.0111048214162
 10
802.7270054436206
 20
314.857042782603
 10
802.9582910172005
 20
314.857042782603
 10
803.5750486121162
 20
315.0881358408228
 10
804.4230917806119
 20
315.0881358408228
 10
805.0784009057572
 20
315.0111048214162
 10
805.3482340749345
 20
314.8955582923063
 10
805.2325912881445
 20
313.4704844332837
 10
805.5409681182857
 20
312.6231432198106
 10
805.2711388837408
 20
311.3521335988535
 10
805.3096864793372
 20
310.3507303465676
 10
805.2325912881445
 20
309.1952650554681
 10
805.3867816705308
 20
307.6931601770384
 10
806.3119200302201
 20
305.6518403620153
 10
807.2370583899103
 20
305.2281697552789
 10
809.0873351092889
 20
305.112623226169
 10
811.7085598059705
 20
305.3437162843888
 10
813.9443124813163
 20
304.9585611873558
 10
816.064422369873
 20
304.8815301679492
 10
818.1845322584288
 20
304.9970766970591
 10
819.456598978489
 20
305.112623226169
 10
820.9984988677263
 20
304.9200456776525
 10
824.0822947115687
 20
305.0741077164657
 10
826.3565910478794
 20
305.2666852649822
 10
827.0889953642175
 20
305.4592628134988
 10
827.6286577679396
 20
306.6147281045983
 10
827.7828481503268
 20
307.2309740605988
 10
828.052681319504
 20
309.1182340360615
 10
827.8599433415204
 20
311.0054940115238
 10
827.3973721943596
 20
312.2765036324809
 10
827.1660905554111
 20
314.6644652340865
 10
827.2431857466047
 20
314.8955582923063
 10
829.0549148703869
 20
314.857042782603
 10
830.6353584205883
 20
314.857042782603
 10
831.1364771633464
 20
315.0111048214162
  0
LWPOLYLINE
  5
872
330
1F
100
AcDbEntity
  8
Drawing
100
AcDbPolyline
 90
       35
 70
     1
 43
0.0
 10
730.1841999085657
 20
311.1662263832859
 10
731.3020762462386
 20
314.0934051207378
 10
731.4562666286258
 20
315.2488704118373
 10
731.5719094154158
 20
316.2502714648708
 10
732.1115757537711
 20
317.1746436977505
 10
732.5355953707024
 20
318.5226865373666
 10
732.9596189222668
 20
319.8322138672793
 10
734.0389476643434
 20
320.7180683912029
 10
735.4266532365612
 20
320.7180683912029
 10
737.4311242729593
 20
320.79509941061
 10
739.3199485879352
 20
320.371431003126
 10
739.6668730136737
 20
319.9862759060925
 10
741.324415689701
 20
320.1403379449057
 10
743.3674303870632
 20
319.292996731433
 10
743.9456403863826
 20
318.5997175567732
 10
744.2154735555598
 20
317.4827677753769
 10
743.7914500039954
 20
314.1704361401444
 10
743.3288827914669
 20
311.7054435191321
 10
743.0205020266933
 20
309.5485771749991
 10
742.4422920273739
 20
307.5457706704265
 10
742.0568160714067
 20
305.9281192628873
 10
740.8618445425402
 20
304.4645320934137
 10
740.0908965652372
 20
303.8482839381609
 10
739.6668730136737
 20
303.5016443508307
 10
738.7417346539835
 20
303.5786753702373
 10
737.5853107207142
 20
303.155004763501
 10
736.1205099573028
 20
303.6942218993477
 10
735.3495619799999
 20
304.1564080157873
 10
734.3087808335206
 20
303.9253149575675
 10
732.497047775106
 20
304.503047603117
 10
730.955151820501
 20
305.0037492292604
 10
729.8372754828272
 20
306.1206968114038
 10
729.5288947180536
 20
307.3146776122067
 10
729.6445375048436
 20
309.664123704109
 10
730.1071086520044
 20
310.7425557765491
  0
MTEXT
  5
87B
330
1F
100
AcDbEntity
  8
Drawing
100
AcDbMText
 10
806.3402516907269
 20
289.6345031449263
 30
0.0
 40
3.5
 41
22.02218201290787
 46
0.0
 71
     1
 72
     5
  1
150mm
  7
verdana
 73
     1
 44
1.0
  0
HATCH
  5
87C
330
1F
100
AcDbEntity
  8
Drawing
100
AcDbHatch
 10
0.0
 20
0.0
 30
0.0
210
0.0
220
0.0
230
1.0
  2
SOLID
 70
     1
 71
     1
 91
        1
 92
        1
 93
        4
 72
     1
 10
802.0973482995856
 20
292.6020954605328
 11
833.1440142196939
 21
292.6020954605328
 72
     1
 10
833.1440142196939
 20
292.6020954605328
 11
833.1440142196939
 21
292.0579261790864
 72
     1
 10
833.1440142196939
 20
292.0579261790864
 11
802.0973482995856
 21
292.0579261790864
 72
     1
 10
802.0973482995856
 20
292.0579261790864
 11
802.0973482995856
 21
292.6020954605328
 97
        1
330
87D
 75
     0
 76
     1
 98
        1
 10
1.189547047383257
 20
-61.90649589743509
  0
LWPOLYLINE
  5
87D
102
{ACAD_REACTORS
330
87C
102
}
330
1F
100
AcDbEntity
  8
Drawing
100
AcDbPolyline
 90
        4
 70
     1
 43
0.0
 10
802.0973482995856
 20
292.6020954605328
 10
833.1440142196939
 20
292.6020954605328
 10
833.1440142196939
 20
292.0579261790864
 10
802.0973482995856
 20
292.0579261790864
  0
MTEXT
  5
884
330
1F
100
AcDbEntity
  8
Drawing
100
AcDbMText
 10
887.400952983139
 20
326.305219817637
 30
0.0
 40
3.5
 41
0.0
 46
0.0
 71
     1
 72
     5
  1
{\fArial|b0|i0|c0|p34;Cut 1167}
  7
verdana
 73
     1
 44
1.0
  0
MTEXT
  5
88A
330
1F
100
AcDbEntity
  8
Drawing
100
AcDbMText
 10
727.8283855610377
 20
330.9831741259072
 30
0.0
 40
3.5
 41
0.0
 46
0.0
 71
     1
 72
     5
  1
{\fArial|b0|i0|c0|p34;Fill 1107}
  7
verdana
 73
     1
 44
1.0
  0
MTEXT
  5
893
330
1F
100
AcDbEntity
  8
Drawing
100
AcDbMText
 10
722.8867048244563
 20
383.1597290847766
 30
0.0
 40
3.5
 41
0.0
 46
0.0
 71
     1
 72
     5
  1
{\fArial|b0|i0|c0|p34;Fill 1118}
  7
verdana
 73
     1
 44
1.0
  0
MTEXT
  5
8BD
330
1F
100
AcDbEntity
  8
Drawing
100
AcDbMText
 10
731.8801532916015
 20
519.0027993689765
 30
0.0
 40
3.5
 41
0.5146021089133228
 46
0.0
 71
     1
 72
     5
  1
{\fArial|b0|i0|c0|p34;G}
 73
     1
 44
1.0
  0
MTEXT
  5
8C6
330
1F
100
AcDbEntity
  8
Drawing
370
     9
100
AcDbMText
 10
819.5089803863808
 20
505.2015092245861
 30
0.0
 40
3.5
 41
18.4122985344693
 46
0.0
 71
     1
 72
     5
  1
{\fArial|b0|i0|c0|p34;5.40}
 73
     1
 44
1.0
  0
LWPOLYLINE
  5
8C8
330
1F
100
AcDbEntity
  8
Drawing
100
AcDbPolyline
 90
        3
 70
     0
 43
0.0
 10
816.7914016806868
 20
501.9656825614714
 10
818.0548636632774
 20
503.8592689710997
 10
819.2280782784318
 20
501.7853413372331
  0
MTEXT
  5
8CE
330
1F
100
AcDbEntity
  8
Drawing
370
     9
100
AcDbMText
 10
728.2729932168227
 20
466.1883100706399
 30
0.0
 40
3.5
 41
18.4122985344693
 46
0.0
 71
     1
 72
     5
  1
{\fArial|b0|i0|c0|p34;5.32}
 73
     1
 44
1.0
  0
LWPOLYLINE
  5
8D5
330
1F
100
AcDbEntity
  8
Drawing
100
AcDbPolyline
 90
        3
 70
     0
 43
0.0
 10
729.9821513748265
 20
460.7951208334494
 10
731.245613357417
 20
462.6887072430777
 10
732.4188279725714
 20
460.6147796092111
  0
LWPOLYLINE
  5
8D6
330
1F
100
AcDbEntity
  8
Drawing
100
AcDbPolyline
 90
        7
 70
     0
 43
0.0
 10
796.3930075141762
 20
471.5282073396616
 10
804.4250174084146
 20
471.4380364043491
 10
813.7204904467584
 20
470.8970120852477
 10
822.5647266479217
 20
470.8068411499352
 10
828.069812576979
 20
471.2576951801108
 10
833.123661668856
 20
470.9871823741735
 10
836.4628119409618
 20
471.5282073396616
  0
LWPOLYLINE
  5
8DC
330
1F
100
AcDbEntity
  8
Drawing
100
AcDbPolyline
 90
        3
 70
     0
 43
0.0
 10
847.994647917231
 20
469.1118609116358
 10
849.2581098998215
 20
471.0054473212641
 10
850.4313245149759
 20
468.9315196873975
  0
MTEXT
  5
8E6
330
1F
100
AcDbEntity
  8
Drawing
370
     9
100
AcDbMText
 10
845.1842890540969
 20
475.5599634761732
 30
0.0
 40
3.5
 41
18.4122985344693
 46
0.0
 71
     1
 72
     5
  1
{\fArial|b0|i0|c0|p34;5.40}
 73
     1
 44
1.0
  0
LWPOLYLINE
  5
8E7
330
1F
100
AcDbEntity
  8
Drawing
100
AcDbPolyline
 90
        2
 70
     0
 43
0.0
 10
847.1827456729012
 20
471.1992676459616
 10
850.2134382995959
 20
471.1992676459616
  0
MTEXT
  5
8ED
330
1F
100
AcDbEntity
  8
Drawing
370
     9
100
AcDbMText
 10
919.6070121001425
 20
448.2993699629192
 30
0.0
 40
3.5
 41
18.4122985344693
 46
0.0
 71
     1
 72
     5
  1
{\fArial|b0|i0|c0|p34;5.42}
 73
     1
 44
1.0
  0
LWPOLYLINE
  5
8EE
330
1F
100
AcDbEntity
  8
Drawing
100
AcDbPolyline
 90
        2
 70
     0
 43
0.0
 10
908.9351625160806
 20
448.7224781821542
 10
917.8829233589619
 20
446.9921218498137
  0
LWPOLYLINE
  5
8F5
330
1F
100
AcDbEntity
  8
Drawing
100
AcDbPolyline
 90
        3
 70
     0
 43
0.0
 10
922.2124855816852
 20
442.8465728895874
 10
923.4759475642758
 20
444.7401592992157
 10
924.6491621794302
 20
442.6662316653491
  0
LWPOLYLINE
  5
8FB
330
1F
100
AcDbEntity
  8
Drawing
100
AcDbPolyline
 90
        3
 70
     0
 43
0.0
 10
719.5177020883876
 20
404.3687596241425
 10
720.7811640709782
 20
406.2623460337707
 10
721.9543786861326
 20
404.1884183999042
  0
MTEXT
  5
902
330
1F
100
AcDbEntity
  8
Drawing
370
     9
100
AcDbMText
 10
718.8754550541578
 20
409.8203261579358
 30
0.0
 40
3.5
 41
18.4122985344693
 46
0.0
 71
     1
 72
     5
  1
{\fArial|b0|i0|c0|p34;5.59}
 73
     1
 44
1.0
  0
MTEXT
  5
908
330
1F
100
AcDbEntity
  8
Drawing
370
     9
100
AcDbMText
 10
919.0451683597
 20
400.3629967897364
 30
0.0
 40
3.5
 41
18.4122985344693
 46
0.0
 71
     1
 72
     5
  1
{\fArial|b0|i0|c0|p34;5.30}
 73
     1
 44
1.0
  0
LWPOLYLINE
  5
90F
330
1F
100
AcDbEntity
  8
Drawing
100
AcDbPolyline
 90
        3
 70
     0
 43
0.0
 10
920.8413500269475
 20
394.4502476137579
 10
922.104812009538
 20
396.3438340233861
 10
923.2780266246924
 20
394.2699063895196
  0
LWPOLYLINE
  5
910
330
1F
100
AcDbEntity
  8
Drawing
100
AcDbPolyline
 90
        2
 70
     0
 43
0.0
 10
904.6862698107601
 20
399.5735028963313
 10
917.1487601305031
 20
398.1899562625485
  0
MTEXT
  5
91A
330
1F
100
AcDbEntity
  8
Drawing
100
AcDbMText
 10
815.5075562770154
 20
369.6269434554413
 30
0.0
 40
3.5
 41
0.5146021089133228
 46
0.0
 71
     1
 72
     5
  1
{\fArial|b0|i0|c0|p34;G}
 73
     1
 44
1.0
  0
MTEXT
  5
920
330
1F
100
AcDbEntity
  8
Drawing
100
AcDbMText
 10
815.7664497680954
 20
357.986577036101
 30
0.0
 40
3.5
 41
0.5146021089133228
 46
0.0
 71
     1
 72
     5
  1
{\fArial|b0|i0|c0|p34;G}
 73
     1
 44
1.0
  0
MTEXT
  5
926
330
1F
100
AcDbEntity
  8
Drawing
100
AcDbMText
 10
743.5349276462729
 20
376.0938135447668
 30
0.0
 40
3.5
 41
0.5146021089133228
 46
0.0
 71
     1
 72
     5
  1
{\fArial|b0|i0|c0|p34;G}
 73
     1
 44
1.0
  0
LWPOLYLINE
  5
92A
330
1F
100
AcDbEntity
  8
Drawing
100
AcDbPolyline
 90
        2
 70
     0
 43
0.0
 10
735.5455755400914
 20
373.4017256893285
 10
742.0655837024973
 20
374.4039533349875
  0
LWPOLYLINE
  5
92B
330
1F
100
AcDbEntity
  8
Drawing
100
AcDbPolyline
 90
        2
 70
     0
 43
0.0
 10
734.6678816198668
 20
370.1444858409366
 10
742.3790451531405
 20
373.3390862998781
  0
MTEXT
  5
936
330
1F
100
AcDbEntity
  8
Drawing
370
     9
100
AcDbMText
 10
712.9100236781769
 20
370.1977357653143
 30
0.0
 40
3.5
 41
20.26027893418666
 46
0.0
 71
     1
 72
     5
  1
{\fArial|b0|i0|c0|p34;5.70}
 73
     1
 44
1.0
  0
LWPOLYLINE
  5
93D
330
1F
100
AcDbEntity
  8
Drawing
100
AcDbPolyline
 90
        3
 70
     0
 43
0.0
 10
715.5741611382299
 20
362.8465706779866
 10
716.8376231208205
 20
364.7401570876148
 10
718.0108377359749
 20
362.6662294537483
  0
LWPOLYLINE
  5
943
330
1F
100
AcDbEntity
  8
Drawing
100
AcDbPolyline
 90
        3
 70
     0
 43
0.0
 10
734.4356588288184
 20
307.7323555885875
 10
735.699120811409
 20
309.6259419982158
 10
736.8723354265634
 20
307.5520143643492
  0
MTEXT
  5
94A
330
1F
100
AcDbEntity
  8
Drawing
100
AcDbMText
 10
731.5916745808211
 20
314.0053543586871
 30
0.0
 40
3.5
 41
0.0
 46
0.0
 71
     1
 72
     5
  1
{\fArial|b0|i0|c0|p34;5.44}
 73
     1
 44
1.0
  0
MTEXT
  5
950
330
1F
100
AcDbEntity
  8
Drawing
100
AcDbMText
 10
908.4979992925498
 20
315.955142793287
 30
0.0
 40
3.5
 41
0.0
 46
0.0
 71
     1
 72
     5
  1
{\fArial|b0|i0|c0|p34;5.38}
 73
     1
 44
1.0
  0
LWPOLYLINE
  5
952
330
1F
100
AcDbEntity
  8
Drawing
100
AcDbPolyline
 90
        2
 70
     0
 43
0.0
 10
897.1340746608347
 20
309.322107961344
 10
906.1264225676529
 20
313.4550801768508
  0
LWPOLYLINE
  5
959
330
1F
100
AcDbEntity
  8
Drawing
100
AcDbPolyline
 90
        3
 70
     0
 43
0.0
 10
911.7016774058056
 20
308.9627189924604
 10
912.5106890188954
 20
310.4783536725054
 10
913.6230765440896
 20
308.9627189924604
  0
VIEWPORT
  5
309
330
55
100
AcDbEntity
 67
     1
  8
0
100
AcDbViewport
 10
100.8062472343445
 20
126.2062454223633
 30
0.0
 40
531.1832788177142
 41
295.6051935424805
 68
     1
 69
     1
 12
100.8062472343445
 22
126.2062454223633
 13
0.0
 23
0.0
 14
10.0
 24
10.0
 15
10.0
 25
10.0
 16
0.0
 26
0.0
 36
1.0
 17
0.0
 27
0.0
 37
0.0
 42
50.0
 43
0.0
 44
0.0
 45
295.6051935424805
 50
0.0
 51
0.0
 72
  1000
 90
    32800
  1

281
     0
 71
     1
 74
     0
110
0.0
120
0.0
130
0.0
111
1.0
121
0.0
131
0.0
112
0.0
122
1.0
132
0.0
 79
     0
146
0.0
170
     0
 61
     5
348
9A4
292
     1
282
     1
141
0.0
142
0.0
 63
   256
  0
VIEWPORT
  5
30B
330
55
100
AcDbEntity
 67
     1
  8
Drawing
100
AcDbViewport
 10
101.5999939441681
 20
109.0997199224016
 30
0.0
 40
162.5599903106689
 41
208.5398198423211
 68
     2
 69
     2
 12
810.0431996724437
 22
413.0480555605189
 13
0.0
 23
0.0
 14
10.0
 24
10.0
 15
10.0
 25
10.0
 16
0.0
 26
0.0
 36
1.0
 17
0.0
 27
0.0
 37
0.0
 42
50.0
 43
0.0
 44
0.0
 45
329.2509228623346
 50
0.0
 51
0.0
 72
  1000
 90
    32864
  1

281
     0
 71
     1
 74
     0
110
0.0
120
0.0
130
0.0
111
1.0
121
0.0
131
0.0
112
0.0
122
1.0
132
0.0
 79
     0
146
0.0
170
     0
 61
     5
348
9A4
292
     1
282
     1
141
0.0
142
0.0
 63
   256
  0
ENDSEC
  0
SECTION
  2
OBJECTS
  0
DICTIONARY
  5
C
330
0
100
AcDbDictionary
281
     1
  3
ACAD_COLOR
350
6B
  3
ACAD_DETAILVIEWSTYLE
350
A18
  3
ACAD_GROUP
350
D
  3
ACAD_IMAGE_DICT
350
81
  3
ACAD_IMAGE_VARS
350
82
  3
ACAD_LAYOUT
350
1A
  3
ACAD_MATERIAL
350
6A
  3
ACAD_MLEADERSTYLE
350
9DF
  3
ACAD_MLINESTYLE
350
17
  3
ACAD_PLOTSETTINGS
350
19
  3
ACAD_PLOTSTYLENAME
350
E
  3
ACAD_SCALELIST
350
9B8
  3
ACAD_SECTIONVIEWSTYLE
350
A19
  3
ACAD_TABLESTYLE
350
9DD
  3
ACAD_VISUALSTYLE
350
99F
  3
ACDB_RECOMPOSE_DATA
350
A14
  3
AcDbVariableDictionary
350
5E
  0
DICTIONARY
  5
6B
102
{ACAD_REACTORS
330
C
102
}
330
C
100
AcDbDictionary
281
     1
  0
DICTIONARY
  5
A18
102
{ACAD_REACTORS
330
C
102
}
330
C
100
AcDbDictionary
281
     1
  0
DICTIONARY
  5
D
102
{ACAD_REACTORS
330
C
102
}
330
C
100
AcDbDictionary
281
     1
  0
DICTIONARY
  5
81
102
{ACAD_REACTORS
330
C
102
}
330
C
100
AcDbDictionary
281
     1
  3
Cut 1052
350
83
  0
RASTERVARIABLES
  5
82
102
{ACAD_REACTORS
330
C
102
}
330
C
100
AcDbRasterVariables
 90
        0
 70
     1
 71
     1
 72
     1
  0
DICTIONARY
  5
1A
102
{ACAD_REACTORS
330
C
102
}
330
C
100
AcDbDictionary
281
     1
  3
Layout1
350
51
  3
Layout2
350
56
  3
Model
350
22
  0
DICTIONARY
  5
6A
102
{ACAD_REACTORS
330
C
102
}
330
C
100
AcDbDictionary
281
     1
  3
ByBlock
350
9DB
  3
ByLayer
350
9DA
  3
Global
350
9DC
  0
DICTIONARY
  5
9DF
102
{ACAD_REACTORS
330
C
102
}
330
C
100
AcDbDictionary
281
     1
  3
Standard
350
9E0
  0
DICTIONARY
  5
17
102
{ACAD_REACTORS
330
C
102
}
330
C
100
AcDbDictionary
281
     1
  3
Standard
350
18
  0
DICTIONARY
  5
19
102
{ACAD_REACTORS
330
C
102
}
330
C
100
AcDbDictionary
281
     1
  0
ACDBDICTIONARYWDFLT
  5
E
102
{ACAD_REACTORS
330
C
102
}
330
C
100
AcDbDictionary
281
     1
  3
Normal
350
F
100
AcDbDictionaryWithDefault
340
F
  0
DICTIONARY
  5
9B8
102
{ACAD_REACTORS
330
C
102
}
330
C
100
AcDbDictionary
281
     1
  3
A0
350
9B9
  3
A1
350
9BA
  3
A2
350
9BB
  3
A3
350
9BC
  3
A4
350
9BD
  3
A5
350
9BE
  3
A6
350
9BF
  3
A7
350
9C0
  3
A8
350
9C1
  3
A9
350
9C2
  3
B0
350
9C3
  3
B1
350
9C4
  3
B2
350
9C5
  3
B3
350
9C6
  3
B4
350
9C7
  3
B5
350
9C8
  3
B6
350
9C9
  3
B7
350
9CA
  3
B8
350
9CB
  3
B9
350
9CC
  3
C0
350
9CD
  3
C1
350
9CE
  3
C2
350
9CF
  3
C3
350
9D0
  3
C4
350
9D1
  3
C5
350
9D2
  3
C6
350
9D3
  3
C7
350
9D4
  3
C8
350
9D5
  3
C9
350
9D6
  3
D0
350
9D7
  3
D1
350
9D8
  3
D2
350
9D9
  0
DICTIONARY
  5
A19
102
{ACAD_REACTORS
330
C
102
}
330
C
100
AcDbDictionary
281
     1
  0
DICTIONARY
  5
9DD
102
{ACAD_REACTORS
330
C
102
}
330
C
100
AcDbDictionary
281
     1
  3
Standard
350
9DE
  0
DICTIONARY
  5
99F
102
{ACAD_REACTORS
330
C
102
}
330
C
100
AcDbDictionary
281
     1
  3
2dWireframe
350
9A4
  3
Basic
350
9A7
  3
Brighten
350
9AB
  3
ColorChange
350
9AF
  3
Conceptual
350
9A9
  3
Dim
350
9AA
  3
EdgeColorOff
350
9B2
  3
Facepattern
350
9AE
  3
Flat
350
9A0
  3
FlatWithEdges
350
9A1
  3
Gouraud
350
9A2
  3
GouraudWithEdges
350
9A3
  3
Hidden
350
9A6
  3
JitterOff
350
9B0
  3
Linepattern
350
9AD
  3
OverhangOff
350
9B1
  3
Realistic
350
9A8
  3
Shaded
350
9B7
  3
Shaded with edges
350
9B6
  3
Shades of Gray
350
9B3
  3
Sketchy
350
9B4
  3
Thicken
350
9AC
  3
Wireframe
350
9A5
  3
X-Ray
350
9B5
  0
XRECORD
  5
A14
102
{ACAD_REACTORS
330
C
102
}
330
C
100
AcDbXrecord
280
     1
 90
        1
330
9DE
  0
DICTIONARY
  5
5E
102
{ACAD_REACTORS
330
C
102
}
330
C
100
AcDbDictionary
281
     1
  3
CANNOSCALE
350
9E1
  3
CMLEADERSTYLE
350
A16
  3
CTABLESTYLE
350
A15
  3
DIMASSOC
350
5F
  3
HIDETEXT
350
63
  3
MSLTSCALE
350
A17
  3
PROJECTNAME
350
185
  0
IMAGEDEF
  5
83
102
{ACAD_REACTORS
330
81
102
}
330
81
100
AcDbRasterImageDef
 90
        0
  1
C:\Documents and Settings\Owner\My Documents\FBE PHole Scanned Images\Cut 1052.jpg
 10
1497.0
 20
1140.0
 11
0.1693333333333333
 21
0.1693333333333333
280
     1
281
     5
  0
LAYOUT
  5
51
102
{ACAD_REACTORS
330
1A
102
}
330
1A
100
AcDbPlotSettings
  1

  2
none_device
  4
Letter_(8.50_x_11.00_Inches)
  6

 40
6.349999904632568
 41
6.349999904632568
 42
6.350006103515625
 43
6.350006103515625
 44
215.8999938964844
 45
279.3999938964844
 46
0.0
 47
0.0
 48
0.0
 49
0.0
140
0.0
141
0.0
142
1.0
143
1.0
 70
   688
 72
     1
 73
     1
 74
     5
  7
monochrome.ctb
 75
    16
 76
     1
 77
     2
 78
   300
147
1.0
148
0.0
149
0.0
100
AcDbLayout
  1
Layout1
 70
     1
 71
     1
 10
-6.350006103515625
 20
-6.349999904632568
 11
273.0499877929688
 21
209.5499939918518
 12
0.0
 22
0.0
 32
0.0
 14
26.66999878883362
 24
20.31999878883363
 34
0.0
 15
240.0299890995026
 25
182.8799890995026
 35
0.0
146
0.0
 13
0.0
 23
0.0
 33
0.0
 16
1.0
 26
0.0
 36
0.0
 17
0.0
 27
1.0
 37
0.0
 76
     0
330
50
331
303
  0
LAYOUT
  5
56
102
{ACAD_REACTORS
330
1A
102
}
330
1A
100
AcDbPlotSettings
  1

  2
Dell AIO Printer A920
  4
User256
  6

 40
7.143749713897705
 41
13.49375152587891
 42
7.186080932617188
 43
3.17498779296875
 44
215.8999938964844
 45
279.3999938964844
 46
0.0
 47
0.0
 48
0.0
 49
0.0
140
0.0
141
0.0
142
1.0
143
1.0
 70
   672
 72
     1
 73
     0
 74
     5
  7
monochrome.ctb
 75
     0
 76
     1
 77
     2
 78
   300
147
1.0
148
0.0
149
0.0
100
AcDbLayout
  1
Layout2
 70
     1
 71
     2
 10
-7.143749713897707
 20
-13.49375152587891
 11
208.7562441825867
 21
265.9062423706055
 12
0.0
 22
0.0
 32
0.0
 14
20.30825657543255
 24
4.811610675799557
 34
-0.0015258207003583
 15
182.8855376838814
 25
213.3725191232394
 35
0.0000000349246037
146
0.0
 13
0.0
 23
0.0
 33
0.0
 16
1.0
 26
0.0
 36
0.0
 17
0.0
 27
1.0
 37
0.0
 76
     0
330
55
331
309
  0
LAYOUT
  5
22
102
{ACAD_REACTORS
330
1A
102
}
330
1A
100
AcDbPlotSettings
  1

  2
Dell AIO Printer A920
  4
User256
  6

 40
7.143749713897705
 41
13.49375152587891
 42
7.186080932617188
 43
3.17498779296875
 44
215.8999938964844
 45
279.3999938964844
 46
0.0
 47
0.0
 48
0.0
 49
0.0
140
0.0
141
0.0
142
1.0
143
2.464070022158671
 70
 11952
 72
     1
 73
     0
 74
     0
  7
monochrome.ctb
 75
     0
 76
     0
 77
     2
 78
   300
147
0.4058326228586397
148
-544.7058328999067
149
-265.5412434726951
100
AcDbLayout
  1
Model
 70
     1
 71
     0
 10
0.0
 20
0.0
 11
12.0
 21
9.0
 12
0.0
 22
0.0
 32
0.0
 14
0.0
 24
0.0
 34
0.0
 15
0.0
 25
0.0
 35
0.0
146
0.0
 13
0.0
 23
0.0
 33
0.0
 16
1.0
 26
0.0
 36
0.0
 17
0.0
 27
1.0
 37
0.0
 76
     0
330
1F
331
96D
  0
MATERIAL
  5
9DB
102
{ACAD_REACTORS
330
6A
102
}
330
6A
100
AcDbMaterial
  1
ByBlock
 72
     1
 94
      127
  0
MATERIAL
  5
9DA
102
{ACAD_REACTORS
330
6A
102
}
330
6A
100
AcDbMaterial
  1
ByLayer
 72
     1
 94
      127
  0
MATERIAL
  5
9DC
102
{ACAD_REACTORS
330
6A
102
}
330
6A
100
AcDbMaterial
  1
Global
 72
     1
 94
      127
  0
MLEADERSTYLE
  5
9E0
102
{ACAD_REACTORS
330
9DF
102
}
330
9DF
100
AcDbMLeaderStyle
179
     2
170
     2
171
     1
172
     0
 90
        2
 40
0.0
 41
0.0
173
     1
 91
-1056964608
340
14
 92
       -2
290
     1
 42
2.0
291
     1
 43
8.0
  3
Standard
341
0
 44
4.0
300

342
11
174
     1
178
     6
175
     1
176
     0
 93
-1056964608
 45
4.0
292
     0
297
     0
 46
4.0
343
0
 94
-1056964608
 47
1.0
 49
1.0
140
1.0
293
     1
141
0.0
294
     1
177
     0
142
1.0
295
     0
296
     0
143
3.75
271
     0
272
     9
273
     9
  0
MLINESTYLE
  5
18
102
{ACAD_REACTORS
330
17
102
}
330
17
100
AcDbMlineStyle
  2
STANDARD
 70
     0
  3

 62
   256
 51
90.0
 52
90.0
 71
     2
 49
0.5
 62
   256
  6
BYLAYER
 49
-0.5
 62
   256
  6
BYLAYER
  0
ACDBPLACEHOLDER
  5
F
102
{ACAD_REACTORS
330
E
102
}
330
E
  0
SCALE
  5
9B9
102
{ACAD_REACTORS
330
9B8
102
}
330
9B8
100
AcDbScale
 70
     0
300
1:1
140
1.0
141
1.0
290
     1
  0
SCALE
  5
9BA
102
{ACAD_REACTORS
330
9B8
102
}
330
9B8
100
AcDbScale
 70
     0
300
1:2
140
1.0
141
2.0
290
     0
  0
SCALE
  5
9BB
102
{ACAD_REACTORS
330
9B8
102
}
330
9B8
100
AcDbScale
 70
     0
300
1:4
140
1.0
141
4.0
290
     0
  0
SCALE
  5
9BC
102
{ACAD_REACTORS
330
9B8
102
}
330
9B8
100
AcDbScale
 70
     0
300
1:5
140
1.0
141
5.0
290
     0
  0
SCALE
  5
9BD
102
{ACAD_REACTORS
330
9B8
102
}
330
9B8
100
AcDbScale
 70
     0
300
1:8
140
1.0
141
8.0
290
     0
  0
SCALE
  5
9BE
102
{ACAD_REACTORS
330
9B8
102
}
330
9B8
100
AcDbScale
 70
     0
300
1:10
140
1.0
141
10.0
290
     0
  0
SCALE
  5
9BF
102
{ACAD_REACTORS
330
9B8
102
}
330
9B8
100
AcDbScale
 70
     0
300
1:16
140
1.0
141
16.0
290
     0
  0
SCALE
  5
9C0
102
{ACAD_REACTORS
330
9B8
102
}
330
9B8
100
AcDbScale
 70
     0
300
1:20
140
1.0
141
20.0
290
     0
  0
SCALE
  5
9C1
102
{ACAD_REACTORS
330
9B8
102
}
330
9B8
100
AcDbScale
 70
     0
300
1:30
140
1.0
141
30.0
290
     0
  0
SCALE
  5
9C2
102
{ACAD_REACTORS
330
9B8
102
}
330
9B8
100
AcDbScale
 70
     0
300
1:40
140
1.0
141
40.0
290
     0
  0
SCALE
  5
9C3
102
{ACAD_REACTORS
330
9B8
102
}
330
9B8
100
AcDbScale
 70
     0
300
1:50
140
1.0
141
50.0
290
     0
  0
SCALE
  5
9C4
102
{ACAD_REACTORS
330
9B8
102
}
330
9B8
100
AcDbScale
 70
     0
300
1:100
140
1.0
141
100.0
290
     0
  0
SCALE
  5
9C5
102
{ACAD_REACTORS
330
9B8
102
}
330
9B8
100
AcDbScale
 70
     0
300
2:1
140
2.0
141
1.0
290
     0
  0
SCALE
  5
9C6
102
{ACAD_REACTORS
330
9B8
102
}
330
9B8
100
AcDbScale
 70
     0
300
4:1
140
4.0
141
1.0
290
     0
  0
SCALE
  5
9C7
102
{ACAD_REACTORS
330
9B8
102
}
330
9B8
100
AcDbScale
 70
     0
300
8:1
140
8.0
141
1.0
290
     0
  0
SCALE
  5
9C8
102
{ACAD_REACTORS
330
9B8
102
}
330
9B8
100
AcDbScale
 70
     0
300
10:1
140
10.0
141
1.0
290
     0
  0
SCALE
  5
9C9
102
{ACAD_REACTORS
330
9B8
102
}
330
9B8
100
AcDbScale
 70
     0
300
100:1
140
100.0
141
1.0
290
     0
  0
SCALE
  5
9CA
102
{ACAD_REACTORS
330
9B8
102
}
330
9B8
100
AcDbScale
 70
     0
300
1/128" = 1'-0"
140
0.0078125
141
12.0
290
     0
  0
SCALE
  5
9CB
102
{ACAD_REACTORS
330
9B8
102
}
330
9B8
100
AcDbScale
 70
     0
300
1/64" = 1'-0"
140
0.015625
141
12.0
290
     0
  0
SCALE
  5
9CC
102
{ACAD_REACTORS
330
9B8
102
}
330
9B8
100
AcDbScale
 70
     0
300
1/32" = 1'-0"
140
0.03125
141
12.0
290
     0
  0
SCALE
  5
9CD
102
{ACAD_REACTORS
330
9B8
102
}
330
9B8
100
AcDbScale
 70
     0
300
1/16" = 1'-0"
140
0.0625
141
12.0
290
     0
  0
SCALE
  5
9CE
102
{ACAD_REACTORS
330
9B8
102
}
330
9B8
100
AcDbScale
 70
     0
300
3/32" = 1'-0"
140
0.09375
141
12.0
290
     0
  0
SCALE
  5
9CF
102
{ACAD_REACTORS
330
9B8
102
}
330
9B8
100
AcDbScale
 70
     0
300
1/8" = 1'-0"
140
0.125
141
12.0
290
     0
  0
SCALE
  5
9D0
102
{ACAD_REACTORS
330
9B8
102
}
330
9B8
100
AcDbScale
 70
     0
300
3/16" = 1'-0"
140
0.1875
141
12.0
290
     0
  0
SCALE
  5
9D1
102
{ACAD_REACTORS
330
9B8
102
}
330
9B8
100
AcDbScale
 70
     0
300
1/4" = 1'-0"
140
0.25
141
12.0
290
     0
  0
SCALE
  5
9D2
102
{ACAD_REACTORS
330
9B8
102
}
330
9B8
100
AcDbScale
 70
     0
300
3/8" = 1'-0"
140
0.375
141
12.0
290
     0
  0
SCALE
  5
9D3
102
{ACAD_REACTORS
330
9B8
102
}
330
9B8
100
AcDbScale
 70
     0
300
1/2" = 1'-0"
140
0.5
141
12.0
290
     0
  0
SCALE
  5
9D4
102
{ACAD_REACTORS
330
9B8
102
}
330
9B8
100
AcDbScale
 70
     0
300
3/4" = 1'-0"
140
0.75
141
12.0
290
     0
  0
SCALE
  5
9D5
102
{ACAD_REACTORS
330
9B8
102
}
330
9B8
100
AcDbScale
 70
     0
300
1" = 1'-0"
140
1.0
141
12.0
290
     0
  0
SCALE
  5
9D6
102
{ACAD_REACTORS
330
9B8
102
}
330
9B8
100
AcDbScale
 70
     0
300
1-1/2" = 1'-0"
140
1.5
141
12.0
290
     0
  0
SCALE
  5
9D7
102
{ACAD_REACTORS
330
9B8
102
}
330
9B8
100
AcDbScale
 70
     0
300
3" = 1'-0"
140
3.0
141
12.0
290
     0
  0
SCALE
  5
9D8
102
{ACAD_REACTORS
330
9B8
102
}
330
9B8
100
AcDbScale
 70
     0
300
6" = 1'-0"
140
6.0
141
12.0
290
     0
  0
SCALE
  5
9D9
102
{ACAD_REACTORS
330
9B8
102
}
330
9B8
100
AcDbScale
 70
     0
300
1'-0" = 1'-0"
140
12.0
141
12.0
290
     0
  0
TABLESTYLE
  5
9DE
102
{ACAD_REACTORS
330
9DD
102
}
102
{ACAD_XDICTIONARY
360
A12
102
}
330
9DD
100
AcDbTableStyle
  3
Standard
 70
     0
 71
     0
 40
0.06
 41
0.06
280
     0
281
     0
  7
Standard
140
4.5
170
     2
 62
     0
 63
   257
283
     0
 90
        4
 91
        0
  1

274
    -2
284
     1
 64
     0
275
    -2
285
     1
 65
     0
276
    -2
286
     1
 66
     0
277
    -2
287
     1
 67
     0
278
    -2
288
     1
 68
     0
279
    -2
289
     1
 69
     0
  7
Standard
140
6.0
170
     5
 62
     0
 63
   257
283
     0
 90
        4
 91
        0
  1

274
    -2
284
     1
 64
     0
275
    -2
285
     1
 65
     0
276
    -2
286
     1
 66
     0
277
    -2
287
     1
 67
     0
278
    -2
288
     1
 68
     0
279
    -2
289
     1
 69
     0
  7
Standard
140
4.5
170
     5
 62
     0
 63
   257
283
     0
 90
        4
 91
        0
  1

274
    -2
284
     1
 64
     0
275
    -2
285
     1
 65
     0
276
    -2
286
     1
 66
     0
277
    -2
287
     1
 67
     0
278
    -2
288
     1
 68
     0
279
    -2
289
     1
 69
     0
  0
VISUALSTYLE
  5
9A4
102
{ACAD_REACTORS
330
99F
102
}
102
{ACAD_XDICTIONARY
360
9EA
102
}
330
99F
100
AcDbVisualStyle
  2
2dWireframe
 70
     4
177
     2
291
     0
 71
     0
176
     1
 72
     2
176
     1
 73
     0
176
     1
 90
        0
176
     1
 40
0.6
176
     1
 41
30.0
176
     1
 62
     5
 63
     7
421
 16777215
176
     1
 74
     1
176
     1
 91
        4
176
     1
 64
     7
176
     1
 65
   257
176
     1
 75
     1
176
     1
175
     1
176
     1
 42
1.0
176
     1
 92
        0
176
     1
 66
   257
176
     1
 43
1.0
176
     1
 76
     1
176
     1
 77
     6
176
     1
 78
     2
176
     1
 67
     7
176
     1
 79
     5
176
     1
170
     0
176
     1
171
     0
176
     1
290
     0
176
     1
 93
        1
176
     1
 44
0.0
176
     1
173
     0
176
     1
  0
VISUALSTYLE
  5
9A7
102
{ACAD_REACTORS
330
99F
102
}
102
{ACAD_XDICTIONARY
360
9F0
102
}
330
99F
100
AcDbVisualStyle
  2
Basic
 70
     7
177
     2
291
     1
 71
     1
176
     1
 72
     0
176
     1
 73
     1
176
     1
 90
        0
176
     1
 40
0.6
176
     1
 41
30.0
176
     1
 62
     5
 63
     7
421
 16777215
176
     1
 74
     0
176
     1
 91
        4
176
     1
 64
     7
176
     1
 65
   257
176
     1
 75
     1
176
     1
175
     1
176
     1
 42
1.0
176
     1
 92
        8
176
     1
 66
     7
176
     1
 43
1.0
176
     1
 76
     1
176
     1
 77
     6
176
     1
 78
     2
176
     1
 67
     7
176
     1
 79
     5
176
     1
170
     0
176
     1
171
     0
176
     1
290
     0
176
     1
 93
        1
176
     1
 44
0.0
176
     1
173
     0
176
     1
  0
VISUALSTYLE
  5
9AB
102
{ACAD_REACTORS
330
99F
102
}
102
{ACAD_XDICTIONARY
360
9F8
102
}
330
99F
100
AcDbVisualStyle
  2
Brighten
 70
    12
177
     2
291
     1
 71
     2
176
     1
 72
     2
176
     1
 73
     0
176
     1
 90
        0
176
     1
 40
0.6
176
     1
 41
30.0
176
     1
 62
     5
 63
     7
421
 16777215
176
     1
 74
     1
176
     1
 91
        4
176
     1
 64
     7
176
     1
 65
   257
176
     1
 75
     1
176
     1
175
     1
176
     1
 42
1.0
176
     1
 92
        8
176
     1
 66
     7
176
     1
 43
1.0
176
     1
 76
     1
176
     1
 77
     6
176
     1
 78
     2
176
     1
 67
     7
176
     1
 79
     5
176
     1
170
     0
176
     1
171
     0
176
     1
290
     0
176
     1
 93
        1
176
     1
 44
50.0
176
     1
173
     0
176
     1
  0
VISUALSTYLE
  5
9AF
102
{ACAD_REACTORS
330
99F
102
}
102
{ACAD_XDICTIONARY
360
A00
102
}
330
99F
100
AcDbVisualStyle
  2
ColorChange
 70
    16
177
     2
291
     1
 71
     2
176
     1
 72
     2
176
     1
 73
     3
176
     1
 90
        0
176
     1
 40
0.6
176
     1
 41
30.0
176
     1
 62
     5
 63
     8
421
  8421504
176
     1
 74
     1
176
     1
 91
        4
176
     1
 64
     7
176
     1
 65
   257
176
     1
 75
     1
176
     1
175
     1
176
     1
 42
1.0
176
     1
 92
        8
176
     1
 66
     8
424
  8421504
176
     1
 43
1.0
176
     1
 76
     1
176
     1
 77
     6
176
     1
 78
     2
176
     1
 67
     7
176
     1
 79
     5
176
     1
170
     0
176
     1
171
     0
176
     1
290
     0
176
     1
 93
        1
176
     1
 44
0.0
176
     1
173
     0
176
     1
  0
VISUALSTYLE
  5
9A9
102
{ACAD_REACTORS
330
99F
102
}
102
{ACAD_XDICTIONARY
360
9F4
102
}
330
99F
100
AcDbVisualStyle
  2
Conceptual
 70
     9
177
     2
291
     0
 71
     3
176
     1
 72
     2
176
     1
 73
     0
176
     1
 90
        0
176
     1
 40
0.6
176
     1
 41
30.0
176
     1
 62
     5
 63
     7
421
 16777215
176
     1
 74
     2
176
     1
 91
        2
176
     1
 64
     7
176
     1
 65
   257
176
     1
 75
     1
176
     1
175
     1
176
     1
 42
179.0
176
     1
 92
        8
176
     1
 66
     7
176
     1
 43
1.0
176
     1
 76
     1
176
     1
 77
     6
176
     1
 78
     2
176
     1
 67
     7
176
     1
 79
     3
176
     1
170
     0
176
     1
171
     0
176
     1
290
     0
176
     1
 93
        1
176
     1
 44
0.0
176
     1
173
     0
176
     1
  0
VISUALSTYLE
  5
9AA
102
{ACAD_REACTORS
330
99F
102
}
102
{ACAD_XDICTIONARY
360
9F6
102
}
330
99F
100
AcDbVisualStyle
  2
Dim
 70
    11
177
     2
291
     1
 71
     2
176
     1
 72
     2
176
     1
 73
     0
176
     1
 90
        0
176
     1
 40
0.6
176
     1
 41
30.0
176
     1
 62
     5
 63
     7
421
 16777215
176
     1
 74
     1
176
     1
 91
        4
176
     1
 64
     7
176
     1
 65
   257
176
     1
 75
     1
176
     1
175
     1
176
     1
 42
1.0
176
     1
 92
        8
176
     1
 66
     7
176
     1
 43
1.0
176
     1
 76
     1
176
     1
 77
     6
176
     1
 78
     2
176
     1
 67
     7
176
     1
 79
     5
176
     1
170
     0
176
     1
171
     0
176
     1
290
     0
176
     1
 93
        1
176
     1
 44
-50.0
176
     1
173
     0
176
     1
  0
VISUALSTYLE
  5
9B2
102
{ACAD_REACTORS
330
99F
102
}
102
{ACAD_XDICTIONARY
360
A06
102
}
330
99F
100
AcDbVisualStyle
  2
EdgeColorOff
 70
    22
177
     2
291
     1
 71
     2
176
     0
 72
     2
176
     0
 73
     0
176
     0
 90
        0
176
     0
 40
0.6
176
     0
 41
30.0
176
     0
 62
     5
 63
     7
421
 16777215
176
     0
 74
     1
176
     0
 91
        4
176
     0
 64
     7
176
     0
 65
   257
176
     0
 75
     1
176
     0
175
     1
176
     0
 42
1.0
176
     0
 92
        8
176
     2
 66
     7
176
     0
 43
1.0
176
     0
 76
     1
176
     0
 77
     6
176
     0
 78
     2
176
     0
 67
     7
176
     0
 79
     5
176
     0
170
     0
176
     0
171
     0
176
     0
290
     0
176
     0
 93
        1
176
     0
 44
0.0
176
     0
173
     0
176
     0
  0
VISUALSTYLE
  5
9AE
102
{ACAD_REACTORS
330
99F
102
}
102
{ACAD_XDICTIONARY
360
9FE
102
}
330
99F
100
AcDbVisualStyle
  2
Facepattern
 70
    15
177
     2
291
     1
 71
     2
176
     1
 72
     2
176
     1
 73
     0
176
     1
 90
        0
176
     1
 40
0.6
176
     1
 41
30.0
176
     1
 62
     5
 63
     7
421
 16777215
176
     1
 74
     1
176
     1
 91
        4
176
     1
 64
     7
176
     1
 65
   257
176
     1
 75
     1
176
     1
175
     1
176
     1
 42
1.0
176
     1
 92
        8
176
     1
 66
     7
176
     1
 43
1.0
176
     1
 76
     1
176
     1
 77
     6
176
     1
 78
     2
176
     1
 67
     7
176
     1
 79
     5
176
     1
170
     0
176
     1
171
     0
176
     1
290
     0
176
     1
 93
        1
176
     1
 44
0.0
176
     1
173
     0
176
     1
  0
VISUALSTYLE
  5
9A0
102
{ACAD_REACTORS
330
99F
102
}
102
{ACAD_XDICTIONARY
360
9E2
102
}
330
99F
100
AcDbVisualStyle
  2
Flat
 70
     0
177
     2
291
     1
 71
     2
176
     1
 72
     1
176
     1
 73
     1
176
     1
 90
        2
176
     1
 40
0.6
176
     1
 41
30.0
176
     1
 62
     5
 63
     7
421
 16777215
176
     1
 74
     0
176
     1
 91
        0
176
     1
 64
     7
176
     1
 65
   257
176
     1
 75
     1
176
     1
175
     1
176
     1
 42
1.0
176
     1
 92
        8
176
     1
 66
     7
176
     1
 43
1.0
176
     1
 76
     1
176
     1
 77
     6
176
     1
 78
     2
176
     1
 67
     7
176
     1
 79
     5
176
     1
170
     0
176
     1
171
     0
176
     1
290
     0
176
     1
 93
       13
176
     1
 44
0.0
176
     1
173
     0
176
     1
  0
VISUALSTYLE
  5
9A1
102
{ACAD_REACTORS
330
99F
102
}
102
{ACAD_XDICTIONARY
360
9E4
102
}
330
99F
100
AcDbVisualStyle
  2
FlatWithEdges
 70
     1
177
     2
291
     1
 71
     2
176
     1
 72
     1
176
     1
 73
     1
176
     1
 90
        2
176
     1
 40
0.6
176
     1
 41
30.0
176
     1
 62
     5
 63
     7
421
 16777215
176
     1
 74
     1
176
     1
 91
        0
176
     1
 64
     7
176
     1
 65
   257
176
     1
 75
     1
176
     1
175
     1
176
     1
 42
1.0
176
     1
 92
        0
176
     1
 66
   257
176
     1
 43
1.0
176
     1
 76
     1
176
     1
 77
     6
176
     1
 78
     2
176
     1
 67
     7
176
     1
 79
     5
176
     1
170
     0
176
     1
171
     0
176
     1
290
     0
176
     1
 93
       13
176
     1
 44
0.0
176
     1
173
     0
176
     1
  0
VISUALSTYLE
  5
9A2
102
{ACAD_REACTORS
330
99F
102
}
102
{ACAD_XDICTIONARY
360
9E6
102
}
330
99F
100
AcDbVisualStyle
  2
Gouraud
 70
     2
177
     2
291
     1
 71
     2
176
     1
 72
     2
176
     1
 73
     1
176
     1
 90
        2
176
     1
 40
0.6
176
     1
 41
30.0
176
     1
 62
     5
 63
     7
421
 16777215
176
     1
 74
     0
176
     1
 91
        0
176
     1
 64
     7
176
     1
 65
   257
176
     1
 75
     1
176
     1
175
     1
176
     1
 42
1.0
176
     1
 92
        0
176
     1
 66
     7
176
     1
 43
1.0
176
     1
 76
     1
176
     1
 77
     6
176
     1
 78
     2
176
     1
 67
     7
176
     1
 79
     5
176
     1
170
     0
176
     1
171
     0
176
     1
290
     0
176
     1
 93
       13
176
     1
 44
0.0
176
     1
173
     0
176
     1
  0
VISUALSTYLE
  5
9A3
102
{ACAD_REACTORS
330
99F
102
}
102
{ACAD_XDICTIONARY
360
9E8
102
}
330
99F
100
AcDbVisualStyle
  2
GouraudWithEdges
 70
     3
177
     2
291
     1
 71
     2
176
     1
 72
     2
176
     1
 73
     1
176
     1
 90
        2
176
     1
 40
0.6
176
     1
 41
30.0
176
     1
 62
     5
 63
     7
421
 16777215
176
     1
 74
     1
176
     1
 91
        0
176
     1
 64
     7
176
     1
 65
   257
176
     1
 75
     1
176
     1
175
     1
176
     1
 42
1.0
176
     1
 92
        0
176
     1
 66
   257
176
     1
 43
1.0
176
     1
 76
     1
176
     1
 77
     6
176
     1
 78
     2
176
     1
 67
     7
176
     1
 79
     5
176
     1
170
     0
176
     1
171
     0
176
     1
290
     0
176
     1
 93
       13
176
     1
 44
0.0
176
     1
173
     0
176
     1
  0
VISUALSTYLE
  5
9A6
102
{ACAD_REACTORS
330
99F
102
}
102
{ACAD_XDICTIONARY
360
9EE
102
}
330
99F
100
AcDbVisualStyle
  2
Hidden
 70
     6
177
     2
291
     0
 71
     1
176
     1
 72
     2
176
     1
 73
     2
176
     1
 90
        0
176
     1
 40
0.6
176
     1
 41
30.0
176
     1
 62
     5
 63
     7
421
 16777215
176
     1
 74
     2
176
     1
 91
        2
176
     1
 64
     7
176
     1
 65
   257
176
     1
 75
     2
176
     1
175
     1
176
     1
 42
40.0
176
     1
 92
        0
176
     1
 66
   257
176
     1
 43
1.0
176
     1
 76
     1
176
     1
 77
     6
176
     1
 78
     2
176
     1
 67
     7
176
     1
 79
     3
176
     1
170
     0
176
     1
171
     0
176
     1
290
     0
176
     1
 93
        1
176
     1
 44
0.0
176
     1
173
     0
176
     1
  0
VISUALSTYLE
  5
9B0
102
{ACAD_REACTORS
330
99F
102
}
102
{ACAD_XDICTIONARY
360
A02
102
}
330
99F
100
AcDbVisualStyle
  2
JitterOff
 70
    20
177
     2
291
     1
 71
     2
176
     0
 72
     2
176
     0
 73
     0
176
     0
 90
        0
176
     0
 40
0.6
176
     0
 41
30.0
176
     0
 62
     5
 63
     7
421
 16777215
176
     0
 74
     1
176
     0
 91
        4
176
     0
 64
     7
176
     0
 65
   257
176
     0
 75
     1
176
     0
175
     1
176
     0
 42
1.0
176
     0
 92
       10
176
     2
 66
     7
176
     0
 43
1.0
176
     0
 76
     1
176
     0
 77
     6
176
     0
 78
     2
176
     0
 67
     7
176
     0
 79
     5
176
     0
170
     0
176
     0
171
     0
176
     0
290
     0
176
     0
 93
        1
176
     0
 44
0.0
176
     0
173
     0
176
     0
  0
VISUALSTYLE
  5
9AD
102
{ACAD_REACTORS
330
99F
102
}
102
{ACAD_XDICTIONARY
360
9FC
102
}
330
99F
100
AcDbVisualStyle
  2
Linepattern
 70
    14
177
     2
291
     1
 71
     2
176
     1
 72
     2
176
     1
 73
     0
176
     1
 90
        0
176
     1
 40
0.6
176
     1
 41
30.0
176
     1
 62
     5
 63
     7
421
 16777215
176
     1
 74
     1
176
     1
 91
        4
176
     1
 64
     7
176
     1
 65
   257
176
     1
 75
     7
176
     1
175
     7
176
     1
 42
1.0
176
     1
 92
        8
176
     1
 66
     7
176
     1
 43
1.0
176
     1
 76
     1
176
     1
 77
     6
176
     1
 78
     2
176
     1
 67
     7
176
     1
 79
     5
176
     1
170
     0
176
     1
171
     0
176
     1
290
     0
176
     1
 93
        1
176
     1
 44
0.0
176
     1
173
     0
176
     1
  0
VISUALSTYLE
  5
9B1
102
{ACAD_REACTORS
330
99F
102
}
102
{ACAD_XDICTIONARY
360
A04
102
}
330
99F
100
AcDbVisualStyle
  2
OverhangOff
 70
    21
177
     2
291
     1
 71
     2
176
     0
 72
     2
176
     0
 73
     0
176
     0
 90
        0
176
     0
 40
0.6
176
     0
 41
30.0
176
     0
 62
     5
 63
     7
421
 16777215
176
     0
 74
     1
176
     0
 91
        4
176
     0
 64
     7
176
     0
 65
   257
176
     0
 75
     1
176
     0
175
     1
176
     0
 42
1.0
176
     0
 92
        9
176
     2
 66
     7
176
     0
 43
1.0
176
     0
 76
     1
176
     0
 77
     6
176
     0
 78
     2
176
     0
 67
     7
176
     0
 79
     5
176
     0
170
     0
176
     0
171
     0
176
     0
290
     0
176
     0
 93
        1
176
     0
 44
0.0
176
     0
173
     0
176
     0
  0
VISUALSTYLE
  5
9A8
102
{ACAD_REACTORS
330
99F
102
}
102
{ACAD_XDICTIONARY
360
9F2
102
}
330
99F
100
AcDbVisualStyle
  2
Realistic
 70
     8
177
     2
291
     0
 71
     2
176
     1
 72
     3
176
     1
 73
     0
176
     1
 90
        2
176
     1
 40
0.6
176
     1
 41
30.0
176
     1
 62
     5
 63
     7
421
 16777215
176
     1
 74
     0
176
     1
 91
        0
176
     1
 64
     7
176
     1
 65
   257
176
     1
 75
     1
176
     1
175
     1
176
     1
 42
1.0
176
     1
 92
        8
176
     1
 66
   257
176
     1
 43
1.0
176
     1
 76
     1
176
     1
 77
     6
176
     1
 78
     2
176
     1
 67
     7
176
     1
 79
     3
176
     1
170
     0
176
     1
171
     0
176
     1
290
     0
176
     1
 93
       13
176
     1
 44
0.0
176
     1
173
     0
176
     1
  0
VISUALSTYLE
  5
9B7
102
{ACAD_REACTORS
330
99F
102
}
102
{ACAD_XDICTIONARY
360
A10
102
}
330
99F
100
AcDbVisualStyle
  2
Shaded
 70
    27
177
     2
291
     0
 71
     2
176
     1
 72
     2
176
     1
 73
     1
176
     1
 90
        2
176
     1
 40
0.6
176
     1
 41
30.0
176
     1
 62
     5
 63
     7
421
 16777215
176
     1
 74
     0
176
     1
 91
        4
176
     1
 64
     7
176
     1
 65
   257
176
     1
 75
     1
176
     1
175
     1
176
     1
 42
1.0
176
     1
 92
        8
176
     1
 66
   257
176
     1
 43
1.0
176
     1
 76
     1
176
     1
 77
     6
176
     1
 78
     2
176
     1
 67
     8
425
  7895160
176
     1
 79
     3
176
     1
170
     0
176
     1
171
     0
176
     1
290
     0
176
     1
 93
        5
176
     1
 44
0.0
176
     1
173
     0
176
     1
  0
VISUALSTYLE
  5
9B6
102
{ACAD_REACTORS
330
99F
102
}
102
{ACAD_XDICTIONARY
360
A0E
102
}
330
99F
100
AcDbVisualStyle
  2
Shaded with edges
 70
    26
177
     2
291
     0
 71
     2
176
     1
 72
     2
176
     1
 73
     1
176
     1
 90
        2
176
     1
 40
0.6
176
     1
 41
30.0
176
     1
 62
     5
 63
     7
421
 16777215
176
     1
 74
     1
176
     1
 91
       10
176
     1
 64
     7
176
     1
 65
   257
176
     1
 75
     2
176
     1
175
     1
176
     1
 42
1.0
176
     1
 92
        8
176
     1
 66
   257
176
     1
 43
1.0
176
     1
 76
     1
176
     1
 77
     6
176
     1
 78
     2
176
     1
 67
     7
176
     1
 79
     3
176
     1
170
     0
176
     1
171
     0
176
     1
290
     0
176
     1
 93
        5
176
     1
 44
0.0
176
     1
173
     0
176
     1
  0
VISUALSTYLE
  5
9B3
102
{ACAD_REACTORS
330
99F
102
}
102
{ACAD_XDICTIONARY
360
A08
102
}
330
99F
100
AcDbVisualStyle
  2
Shades of Gray
 70
    23
177
     2
291
     0
 71
     2
176
     1
 72
     2
176
     1
 73
     3
176
     1
 90
        0
176
     1
 40
0.6
176
     1
 41
30.0
176
     1
 62
     5
 63
     7
421
 16777215
176
     1
 74
     2
176
     1
 91
        2
176
     1
 64
     7
176
     1
 65
     7
176
     1
 75
     1
176
     1
175
     1
176
     1
 42
40.0
176
     1
 92
        8
176
     1
 66
     7
176
     1
 43
1.0
176
     1
 76
     1
176
     1
 77
     6
176
     1
 78
     2
176
     1
 67
     7
176
     1
 79
     3
176
     1
170
     0
176
     1
171
     0
176
     1
290
     0
176
     1
 93
        1
176
     1
 44
0.0
176
     1
173
     0
176
     1
  0
VISUALSTYLE
  5
9B4
102
{ACAD_REACTORS
330
99F
102
}
102
{ACAD_XDICTIONARY
360
A0A
102
}
330
99F
100
AcDbVisualStyle
  2
Sketchy
 70
    24
177
     2
291
     0
 71
     1
176
     1
 72
     2
176
     1
 73
     2
176
     1
 90
        0
176
     1
 40
0.6
176
     1
 41
30.0
176
     1
 62
     5
 63
     7
421
 16777215
176
     1
 74
     2
176
     1
 91
        2
176
     1
 64
     7
176
     1
 65
     7
176
     1
 75
     1
176
     1
175
     1
176
     1
 42
40.0
176
     1
 92
       11
176
     1
 66
     7
176
     1
 43
1.0
176
     1
 76
     1
176
     1
 77
     6
176
     1
 78
     2
176
     1
 67
     7
176
     1
 79
     6
176
     1
170
     0
176
     1
171
     0
176
     1
290
     0
176
     1
 93
        1
176
     1
 44
0.0
176
     1
173
     0
176
     1
  0
VISUALSTYLE
  5
9AC
102
{ACAD_REACTORS
330
99F
102
}
102
{ACAD_XDICTIONARY
360
9FA
102
}
330
99F
100
AcDbVisualStyle
  2
Thicken
 70
    13
177
     2
291
     1
 71
     2
176
     1
 72
     2
176
     1
 73
     0
176
     1
 90
        0
176
     1
 40
0.6
176
     1
 41
30.0
176
     1
 62
     5
 63
     7
421
 16777215
176
     1
 74
     1
176
     1
 91
        4
176
     1
 64
     7
176
     1
 65
   257
176
     1
 75
     1
176
     1
175
     1
176
     1
 42
1.0
176
     1
 92
       12
176
     1
 66
     7
176
     1
 43
1.0
176
     1
 76
     1
176
     1
 77
     6
176
     1
 78
     2
176
     1
 67
     7
176
     1
 79
     5
176
     1
170
     0
176
     1
171
     0
176
     1
290
     0
176
     1
 93
        1
176
     1
 44
0.0
176
     1
173
     0
176
     1
  0
VISUALSTYLE
  5
9A5
102
{ACAD_REACTORS
330
99F
102
}
102
{ACAD_XDICTIONARY
360
9EC
102
}
330
99F
100
AcDbVisualStyle
  2
Wireframe
 70
     5
177
     2
291
     0
 71
     0
176
     1
 72
     2
176
     1
 73
     0
176
     1
 90
        0
176
     1
 40
0.6
176
     1
 41
30.0
176
     1
 62
     5
 63
     7
421
 16777215
176
     1
 74
     1
176
     1
 91
        4
176
     1
 64
     7
176
     1
 65
   257
176
     1
 75
     1
176
     1
175
     1
176
     1
 42
1.0
176
     1
 92
        0
176
     1
 66
   257
176
     1
 43
1.0
176
     1
 76
     1
176
     1
 77
     6
176
     1
 78
     2
176
     1
 67
     7
176
     1
 79
     3
176
     1
170
     0
176
     1
171
     0
176
     1
290
     0
176
     1
 93
        1
176
     1
 44
0.0
176
     1
173
     0
176
     1
  0
VISUALSTYLE
  5
9B5
102
{ACAD_REACTORS
330
99F
102
}
102
{ACAD_XDICTIONARY
360
A0C
102
}
330
99F
100
AcDbVisualStyle
  2
X-Ray
 70
    25
177
     2
291
     0
 71
     2
176
     1
 72
     2
176
     1
 73
     1
176
     1
 90
        1
176
     1
 40
0.5
176
     1
 41
30.0
176
     1
 62
     5
 63
     7
421
 16777215
176
     1
 74
     1
176
     1
 91
        0
176
     1
 64
     7
176
     1
 65
   257
176
     1
 75
     1
176
     1
175
     1
176
     1
 42
1.0
176
     1
 92
        8
176
     1
 66
     7
176
     1
 43
1.0
176
     1
 76
     1
176
     1
 77
     6
176
     1
 78
     2
176
     1
 67
     7
176
     1
 79
     3
176
     1
170
     0
176
     1
171
     0
176
     1
290
     0
176
     1
 93
       13
176
     1
 44
0.0
176
     1
173
     0
176
     1
  0
DICTIONARYVAR
  5
9E1
102
{ACAD_REACTORS
330
5E
102
}
330
5E
100
DictionaryVariables
280
     0
  1
1:1
  0
DICTIONARYVAR
  5
A16
102
{ACAD_REACTORS
330
5E
102
}
330
5E
100
DictionaryVariables
280
     0
  1
Standard
  0
DICTIONARYVAR
  5
A15
102
{ACAD_REACTORS
330
5E
102
}
330
5E
100
DictionaryVariables
280
     0
  1
Standard
  0
DICTIONARYVAR
  5
5F
102
{ACAD_REACTORS
330
5E
102
}
330
5E
100
DictionaryVariables
280
     0
  1
2
  0
DICTIONARYVAR
  5
63
102
{ACAD_REACTORS
330
5E
102
}
330
5E
100
DictionaryVariables
280
     0
  1
1
  0
DICTIONARYVAR
  5
A17
102
{ACAD_REACTORS
330
5E
102
}
330
5E
100
DictionaryVariables
280
     0
  1
0
  0
DICTIONARYVAR
  5
185
102
{ACAD_REACTORS
330
5E
102
}
330
5E
100
DictionaryVariables
280
     0
  1

  0
DICTIONARY
  5
A12
330
9DE
100
AcDbDictionary
280
     1
281
     1
  3
ACAD_ROUNDTRIP_2008_TABLESTYLE_CELLSTYLEMAP
360
A13
  0
DICTIONARY
  5
9EA
330
9A4
100
AcDbDictionary
280
     1
281
     1
  3
ACAD_XREC_ROUNDTRIP
360
9EB
  0
DICTIONARY
  5
9F0
330
9A7
100
AcDbDictionary
280
     1
281
     1
  3
ACAD_XREC_ROUNDTRIP
360
9F1
  0
DICTIONARY
  5
9F8
330
9AB
100
AcDbDictionary
280
     1
281
     1
  3
ACAD_XREC_ROUNDTRIP
360
9F9
  0
DICTIONARY
  5
A00
330
9AF
100
AcDbDictionary
280
     1
281
     1
  3
ACAD_XREC_ROUNDTRIP
360
A01
  0
DICTIONARY
  5
9F4
330
9A9
100
AcDbDictionary
280
     1
281
     1
  3
ACAD_XREC_ROUNDTRIP
360
9F5
  0
DICTIONARY
  5
9F6
330
9AA
100
AcDbDictionary
280
     1
281
     1
  3
ACAD_XREC_ROUNDTRIP
360
9F7
  0
DICTIONARY
  5
A06
330
9B2
100
AcDbDictionary
280
     1
281
     1
  3
ACAD_XREC_ROUNDTRIP
360
A07
  0
DICTIONARY
  5
9FE
330
9AE
100
AcDbDictionary
280
     1
281
     1
  3
ACAD_XREC_ROUNDTRIP
360
9FF
  0
DICTIONARY
  5
9E2
330
9A0
100
AcDbDictionary
280
     1
281
     1
  3
ACAD_XREC_ROUNDTRIP
360
9E3
  0
DICTIONARY
  5
9E4
330
9A1
100
AcDbDictionary
280
     1
281
     1
  3
ACAD_XREC_ROUNDTRIP
360
9E5
  0
DICTIONARY
  5
9E6
330
9A2
100
AcDbDictionary
280
     1
281
     1
  3
ACAD_XREC_ROUNDTRIP
360
9E7
  0
DICTIONARY
  5
9E8
330
9A3
100
AcDbDictionary
280
     1
281
     1
  3
ACAD_XREC_ROUNDTRIP
360
9E9
  0
DICTIONARY
  5
9EE
330
9A6
100
AcDbDictionary
280
     1
281
     1
  3
ACAD_XREC_ROUNDTRIP
360
9EF
  0
DICTIONARY
  5
A02
330
9B0
100
AcDbDictionary
280
     1
281
     1
  3
ACAD_XREC_ROUNDTRIP
360
A03
  0
DICTIONARY
  5
9FC
330
9AD
100
AcDbDictionary
280
     1
281
     1
  3
ACAD_XREC_ROUNDTRIP
360
9FD
  0
DICTIONARY
  5
A04
330
9B1
100
AcDbDictionary
280
     1
281
     1
  3
ACAD_XREC_ROUNDTRIP
360
A05
  0
DICTIONARY
  5
9F2
330
9A8
100
AcDbDictionary
280
     1
281
     1
  3
ACAD_XREC_ROUNDTRIP
360
9F3
  0
DICTIONARY
  5
A10
330
9B7
100
AcDbDictionary
280
     1
281
     1
  3
ACAD_XREC_ROUNDTRIP
360
A11
  0
DICTIONARY
  5
A0E
330
9B6
100
AcDbDictionary
280
     1
281
     1
  3
ACAD_XREC_ROUNDTRIP
360
A0F
  0
DICTIONARY
  5
A08
330
9B3
100
AcDbDictionary
280
     1
281
     1
  3
ACAD_XREC_ROUNDTRIP
360
A09
  0
DICTIONARY
  5
A0A
330
9B4
100
AcDbDictionary
280
     1
281
     1
  3
ACAD_XREC_ROUNDTRIP
360
A0B
  0
DICTIONARY
  5
9FA
330
9AC
100
AcDbDictionary
280
     1
281
     1
  3
ACAD_XREC_ROUNDTRIP
360
9FB
  0
DICTIONARY
  5
9EC
330
9A5
100
AcDbDictionary
280
     1
281
     1
  3
ACAD_XREC_ROUNDTRIP
360
9ED
  0
DICTIONARY
  5
A0C
330
9B5
100
AcDbDictionary
280
     1
281
     1
  3
ACAD_XREC_ROUNDTRIP
360
A0D
  0
CELLSTYLEMAP
  5
A13
102
{ACAD_REACTORS
330
A12
102
}
330
A12
100
AcDbCellStyleMap
 90
        3
300
CELLSTYLE
  1
TABLEFORMAT_BEGIN
 90
        5
170
     1
 91
        0
 92
    32768
 62
   257
 93
        1
300
CONTENTFORMAT
  1
CONTENTFORMAT_BEGIN
 90
        0
 91
        0
 92
        4
 93
        0
300

 40
0.0
140
1.0
 94
        5
 62
     0
340
11
144
6.0
309
CONTENTFORMAT_END
171
     1
301
MARGIN
  1
CELLMARGIN_BEGIN
 40
1.5
 40
1.5
 40
1.5
 40
1.5
 40
1.5
 40
1.5
309
CELLMARGIN_END
 94
        6
 95
        1
302
GRIDFORMAT
  1
GRIDFORMAT_BEGIN
 90
        0
 91
        1
 62
     0
 92
       -2
340
14
 93
        0
 40
0.045
309
GRIDFORMAT_END
 95
        2
302
GRIDFORMAT
  1
GRIDFORMAT_BEGIN
 90
        0
 91
        1
 62
     0
 92
       -2
340
14
 93
        0
 40
0.045
309
GRIDFORMAT_END
 95
        4
302
GRIDFORMAT
  1
GRIDFORMAT_BEGIN
 90
        0
 91
        1
 62
     0
 92
       -2
340
14
 93
        0
 40
0.045
309
GRIDFORMAT_END
 95
        8
302
GRIDFORMAT
  1
GRIDFORMAT_BEGIN
 90
        0
 91
        1
 62
     0
 92
       -2
340
14
 93
        0
 40
0.045
309
GRIDFORMAT_END
 95
       16
302
GRIDFORMAT
  1
GRIDFORMAT_BEGIN
 90
        0
 91
        1
 62
     0
 92
       -2
340
14
 93
        0
 40
0.045
309
GRIDFORMAT_END
 95
       32
302
GRIDFORMAT
  1
GRIDFORMAT_BEGIN
 90
        0
 91
        1
 62
     0
 92
       -2
340
14
 93
        0
 40
0.045
309
GRIDFORMAT_END
309
TABLEFORMAT_END
  1
CELLSTYLE_BEGIN
 90
        1
 91
        1
300
_TITLE
309
CELLSTYLE_END
300
CELLSTYLE
  1
TABLEFORMAT_BEGIN
 90
        5
170
     1
 91
        0
 92
        0
 62
   257
 93
        1
300
CONTENTFORMAT
  1
CONTENTFORMAT_BEGIN
 90
        0
 91
        0
 92
        4
 93
        0
300

 40
0.0
140
1.0
 94
        5
 62
     0
340
11
144
4.5
309
CONTENTFORMAT_END
171
     1
301
MARGIN
  1
CELLMARGIN_BEGIN
 40
1.5
 40
1.5
 40
1.5
 40
1.5
 40
1.5
 40
1.5
309
CELLMARGIN_END
 94
        6
 95
        1
302
GRIDFORMAT
  1
GRIDFORMAT_BEGIN
 90
        0
 91
        1
 62
     0
 92
       -2
340
14
 93
        0
 40
0.045
309
GRIDFORMAT_END
 95
        2
302
GRIDFORMAT
  1
GRIDFORMAT_BEGIN
 90
        0
 91
        1
 62
     0
 92
       -2
340
14
 93
        0
 40
0.045
309
GRIDFORMAT_END
 95
        4
302
GRIDFORMAT
  1
GRIDFORMAT_BEGIN
 90
        0
 91
        1
 62
     0
 92
       -2
340
14
 93
        0
 40
0.045
309
GRIDFORMAT_END
 95
        8
302
GRIDFORMAT
  1
GRIDFORMAT_BEGIN
 90
        0
 91
        1
 62
     0
 92
       -2
340
14
 93
        0
 40
0.045
309
GRIDFORMAT_END
 95
       16
302
GRIDFORMAT
  1
GRIDFORMAT_BEGIN
 90
        0
 91
        1
 62
     0
 92
       -2
340
14
 93
        0
 40
0.045
309
GRIDFORMAT_END
 95
       32
302
GRIDFORMAT
  1
GRIDFORMAT_BEGIN
 90
        0
 91
        1
 62
     0
 92
       -2
340
14
 93
        0
 40
0.045
309
GRIDFORMAT_END
309
TABLEFORMAT_END
  1
CELLSTYLE_BEGIN
 90
        2
 91
        1
300
_HEADER
309
CELLSTYLE_END
300
CELLSTYLE
  1
TABLEFORMAT_BEGIN
 90
        5
170
     1
 91
        0
 92
        0
 62
   257
 93
        1
300
CONTENTFORMAT
  1
CONTENTFORMAT_BEGIN
 90
        0
 91
        0
 92
        4
 93
        0
300

 40
0.0
140
1.0
 94
        2
 62
     0
340
11
144
4.5
309
CONTENTFORMAT_END
171
     1
301
MARGIN
  1
CELLMARGIN_BEGIN
 40
1.5
 40
1.5
 40
1.5
 40
1.5
 40
1.5
 40
1.5
309
CELLMARGIN_END
 94
        6
 95
        1
302
GRIDFORMAT
  1
GRIDFORMAT_BEGIN
 90
        0
 91
        1
 62
     0
 92
       -2
340
14
 93
        0
 40
0.045
309
GRIDFORMAT_END
 95
        2
302
GRIDFORMAT
  1
GRIDFORMAT_BEGIN
 90
        0
 91
        1
 62
     0
 92
       -2
340
14
 93
        0
 40
0.045
309
GRIDFORMAT_END
 95
        4
302
GRIDFORMAT
  1
GRIDFORMAT_BEGIN
 90
        0
 91
        1
 62
     0
 92
       -2
340
14
 93
        0
 40
0.045
309
GRIDFORMAT_END
 95
        8
302
GRIDFORMAT
  1
GRIDFORMAT_BEGIN
 90
        0
 91
        1
 62
     0
 92
       -2
340
14
 93
        0
 40
0.045
309
GRIDFORMAT_END
 95
       16
302
GRIDFORMAT
  1
GRIDFORMAT_BEGIN
 90
        0
 91
        1
 62
     0
 92
       -2
340
14
 93
        0
 40
0.045
309
GRIDFORMAT_END
 95
       32
302
GRIDFORMAT
  1
GRIDFORMAT_BEGIN
 90
        0
 91
        1
 62
     0
 92
       -2
340
14
 93
        0
 40
0.045
309
GRIDFORMAT_END
309
TABLEFORMAT_END
  1
CELLSTYLE_BEGIN
 90
        3
 91
        2
300
_DATA
309
CELLSTYLE_END
  0
XRECORD
  5
9EB
102
{ACAD_REACTORS
330
9EA
102
}
330
9EA
100
AcDbXrecord
280
     1
102
RTVSPost2010Prop28
280
     1
102
RTVSPost2010PropOp28
 70
     1
102
RTVSPost2010Prop29
280
     1
102
RTVSPost2010PropOp29
 70
     1
102
RTVSPost2010Prop30
280
     0
102
RTVSPost2010PropOp30
 70
     1
102
RTVSPost2010Prop31
280
     0
102
RTVSPost2010PropOp31
 70
     1
102
RTVSPost2010Prop32
280
     0
102
RTVSPost2010PropOp32
 70
     1
102
RTVSPost2010Prop33
280
     0
102
RTVSPost2010PropOp33
 70
     1
102
RTVSPost2010Prop34
280
     0
102
RTVSPost2010PropOp34
 70
     1
102
RTVSPost2010Prop35
280
     0
102
RTVSPost2010PropOp35
 70
     1
102
RTVSPost2010Prop36
280
     0
102
RTVSPost2010PropOp36
 70
     1
102
RTVSPost2010Prop37
 90
       50
102
RTVSPost2010PropOp37
 70
     1
102
RTVSPost2010Prop38
140
0.0
102
RTVSPost2010PropOp38
 70
     1
102
RTVSPost2010Prop39
140
1.0
102
RTVSPost2010PropOp39
 70
     1
102
RTVSPost2010Prop40
 90
        0
102
RTVSPost2010PropOp40
 70
     1
102
RTVSPost2010Prop41ColorIndex
 90
       18
102
RTVSPost2010Prop41ColorRGB
 90
        0
102
RTVSPost2010PropOp41
 70
     1
102
RTVSPost2010Prop42
 90
       50
102
RTVSPost2010PropOp42
 70
     1
102
RTVSPost2010Prop43
 90
        3
102
RTVSPost2010PropOp43
 70
     1
102
RTVSPost2010Prop44ColorIndex
 90
        5
102
RTVSPost2010Prop44ColorRGB
 90
      255
102
RTVSPost2010PropOp44
 70
     1
102
RTVSPost2010Prop45
280
     0
102
RTVSPost2010PropOp45
 70
     1
102
RTVSPost2010Prop46
 90
       50
102
RTVSPost2010PropOp46
 70
     1
102
RTVSPost2010Prop47
 90
       50
102
RTVSPost2010PropOp47
 70
     1
102
RTVSPost2010Prop48
 90
       50
102
RTVSPost2010PropOp48
 70
     1
102
RTVSPost2010Prop49
280
     0
102
RTVSPost2010PropOp49
 70
     1
102
RTVSPost2010Prop50
 90
       50
102
RTVSPost2010PropOp50
 70
     1
102
RTVSPost2010Prop51ColorIndex
 90
      256
102
RTVSPost2010Prop51ColorRGB
 90
-16777216
102
RTVSPost2010PropOp51
 70
     0
102
RTVSPost2010Prop52
140
1.0
102
RTVSPost2010PropOp52
 70
     0
102
RTVSPost2010Prop53
 90
        2
102
RTVSPost2010PropOp53
 70
     1
102
RTVSPost2010Prop54
  1
strokes_ogs.tif
102
RTVSPost2010PropOp54
 70
     1
102
RTVSPost2010Prop55
280
     0
102
RTVSPost2010PropOp55
 70
     1
102
RTVSPost2010Prop56
140
1.0
102
RTVSPost2010PropOp56
 70
     1
102
RTVSPost2010Prop57
140
1.0
102
RTVSPost2010PropOp57
 70
     1
  0
XRECORD
  5
9F1
102
{ACAD_REACTORS
330
9F0
102
}
330
9F0
100
AcDbXrecord
280
     1
102
RTVSPost2010Prop28
280
     0
102
RTVSPost2010PropOp28
 70
     1
102
RTVSPost2010Prop29
280
     1
102
RTVSPost2010PropOp29
 70
     1
102
RTVSPost2010Prop30
280
     1
102
RTVSPost2010PropOp30
 70
     1
102
RTVSPost2010Prop31
280
     0
102
RTVSPost2010PropOp31
 70
     1
102
RTVSPost2010Prop32
280
     0
102
RTVSPost2010PropOp32
 70
     1
102
RTVSPost2010Prop33
280
     0
102
RTVSPost2010PropOp33
 70
     1
102
RTVSPost2010Prop34
280
     0
102
RTVSPost2010PropOp34
 70
     1
102
RTVSPost2010Prop35
280
     0
102
RTVSPost2010PropOp35
 70
     1
102
RTVSPost2010Prop36
280
     0
102
RTVSPost2010PropOp36
 70
     1
102
RTVSPost2010Prop37
 90
       50
102
RTVSPost2010PropOp37
 70
     1
102
RTVSPost2010Prop38
140
0.0
102
RTVSPost2010PropOp38
 70
     1
102
RTVSPost2010Prop39
140
1.0
102
RTVSPost2010PropOp39
 70
     1
102
RTVSPost2010Prop40
 90
        0
102
RTVSPost2010PropOp40
 70
     1
102
RTVSPost2010Prop41ColorIndex
 90
       18
102
RTVSPost2010Prop41ColorRGB
 90
        0
102
RTVSPost2010PropOp41
 70
     1
102
RTVSPost2010Prop42
 90
       50
102
RTVSPost2010PropOp42
 70
     1
102
RTVSPost2010Prop43
 90
        3
102
RTVSPost2010PropOp43
 70
     1
102
RTVSPost2010Prop44ColorIndex
 90
        5
102
RTVSPost2010Prop44ColorRGB
 90
      255
102
RTVSPost2010PropOp44
 70
     1
102
RTVSPost2010Prop45
280
     0
102
RTVSPost2010PropOp45
 70
     1
102
RTVSPost2010Prop46
 90
       50
102
RTVSPost2010PropOp46
 70
     1
102
RTVSPost2010Prop47
 90
       50
102
RTVSPost2010PropOp47
 70
     1
102
RTVSPost2010Prop48
 90
       50
102
RTVSPost2010PropOp48
 70
     1
102
RTVSPost2010Prop49
280
     0
102
RTVSPost2010PropOp49
 70
     1
102
RTVSPost2010Prop50
 90
       50
102
RTVSPost2010PropOp50
 70
     1
102
RTVSPost2010Prop51ColorIndex
 90
      256
102
RTVSPost2010Prop51ColorRGB
 90
-16777216
102
RTVSPost2010PropOp51
 70
     0
102
RTVSPost2010Prop52
140
1.0
102
RTVSPost2010PropOp52
 70
     0
102
RTVSPost2010Prop53
 90
        2
102
RTVSPost2010PropOp53
 70
     1
102
RTVSPost2010Prop54
  1
strokes_ogs.tif
102
RTVSPost2010PropOp54
 70
     1
102
RTVSPost2010Prop55
280
     0
102
RTVSPost2010PropOp55
 70
     1
102
RTVSPost2010Prop56
140
1.0
102
RTVSPost2010PropOp56
 70
     1
102
RTVSPost2010Prop57
140
1.0
102
RTVSPost2010PropOp57
 70
     1
  0
XRECORD
  5
9F9
102
{ACAD_REACTORS
330
9F8
102
}
330
9F8
100
AcDbXrecord
280
     1
102
RTVSPost2010Prop28
280
     0
102
RTVSPost2010PropOp28
 70
     1
102
RTVSPost2010Prop29
280
     1
102
RTVSPost2010PropOp29
 70
     1
102
RTVSPost2010Prop30
280
     1
102
RTVSPost2010PropOp30
 70
     1
102
RTVSPost2010Prop31
280
     0
102
RTVSPost2010PropOp31
 70
     1
102
RTVSPost2010Prop32
280
     0
102
RTVSPost2010PropOp32
 70
     1
102
RTVSPost2010Prop33
280
     0
102
RTVSPost2010PropOp33
 70
     1
102
RTVSPost2010Prop34
280
     0
102
RTVSPost2010PropOp34
 70
     1
102
RTVSPost2010Prop35
280
     0
102
RTVSPost2010PropOp35
 70
     1
102
RTVSPost2010Prop36
280
     0
102
RTVSPost2010PropOp36
 70
     1
102
RTVSPost2010Prop37
 90
       50
102
RTVSPost2010PropOp37
 70
     1
102
RTVSPost2010Prop38
140
0.0
102
RTVSPost2010PropOp38
 70
     1
102
RTVSPost2010Prop39
140
1.0
102
RTVSPost2010PropOp39
 70
     1
102
RTVSPost2010Prop40
 90
        0
102
RTVSPost2010PropOp40
 70
     1
102
RTVSPost2010Prop41ColorIndex
 90
       18
102
RTVSPost2010Prop41ColorRGB
 90
        0
102
RTVSPost2010PropOp41
 70
     1
102
RTVSPost2010Prop42
 90
       50
102
RTVSPost2010PropOp42
 70
     1
102
RTVSPost2010Prop43
 90
        3
102
RTVSPost2010PropOp43
 70
     1
102
RTVSPost2010Prop44ColorIndex
 90
        5
102
RTVSPost2010Prop44ColorRGB
 90
      255
102
RTVSPost2010PropOp44
 70
     1
102
RTVSPost2010Prop45
280
     0
102
RTVSPost2010PropOp45
 70
     1
102
RTVSPost2010Prop46
 90
       50
102
RTVSPost2010PropOp46
 70
     1
102
RTVSPost2010Prop47
 90
       50
102
RTVSPost2010PropOp47
 70
     1
102
RTVSPost2010Prop48
 90
       50
102
RTVSPost2010PropOp48
 70
     1
102
RTVSPost2010Prop49
280
     0
102
RTVSPost2010PropOp49
 70
     1
102
RTVSPost2010Prop50
 90
       50
102
RTVSPost2010PropOp50
 70
     1
102
RTVSPost2010Prop51ColorIndex
 90
      256
102
RTVSPost2010Prop51ColorRGB
 90
-16777216
102
RTVSPost2010PropOp51
 70
     0
102
RTVSPost2010Prop52
140
1.0
102
RTVSPost2010PropOp52
 70
     0
102
RTVSPost2010Prop53
 90
        2
102
RTVSPost2010PropOp53
 70
     1
102
RTVSPost2010Prop54
  1
strokes_ogs.tif
102
RTVSPost2010PropOp54
 70
     1
102
RTVSPost2010Prop55
280
     0
102
RTVSPost2010PropOp55
 70
     1
102
RTVSPost2010Prop56
140
1.0
102
RTVSPost2010PropOp56
 70
     1
102
RTVSPost2010Prop57
140
1.0
102
RTVSPost2010PropOp57
 70
     1
  0
XRECORD
  5
A01
102
{ACAD_REACTORS
330
A00
102
}
330
A00
100
AcDbXrecord
280
     1
102
RTVSPost2010Prop28
280
     0
102
RTVSPost2010PropOp28
 70
     1
102
RTVSPost2010Prop29
280
     1
102
RTVSPost2010PropOp29
 70
     1
102
RTVSPost2010Prop30
280
     1
102
RTVSPost2010PropOp30
 70
     1
102
RTVSPost2010Prop31
280
     0
102
RTVSPost2010PropOp31
 70
     1
102
RTVSPost2010Prop32
280
     0
102
RTVSPost2010PropOp32
 70
     1
102
RTVSPost2010Prop33
280
     0
102
RTVSPost2010PropOp33
 70
     1
102
RTVSPost2010Prop34
280
     0
102
RTVSPost2010PropOp34
 70
     1
102
RTVSPost2010Prop35
280
     0
102
RTVSPost2010PropOp35
 70
     1
102
RTVSPost2010Prop36
280
     0
102
RTVSPost2010PropOp36
 70
     1
102
RTVSPost2010Prop37
 90
       50
102
RTVSPost2010PropOp37
 70
     1
102
RTVSPost2010Prop38
140
0.0
102
RTVSPost2010PropOp38
 70
     1
102
RTVSPost2010Prop39
140
1.0
102
RTVSPost2010PropOp39
 70
     1
102
RTVSPost2010Prop40
 90
        0
102
RTVSPost2010PropOp40
 70
     1
102
RTVSPost2010Prop41ColorIndex
 90
       18
102
RTVSPost2010Prop41ColorRGB
 90
        0
102
RTVSPost2010PropOp41
 70
     1
102
RTVSPost2010Prop42
 90
       50
102
RTVSPost2010PropOp42
 70
     1
102
RTVSPost2010Prop43
 90
        3
102
RTVSPost2010PropOp43
 70
     1
102
RTVSPost2010Prop44ColorIndex
 90
        5
102
RTVSPost2010Prop44ColorRGB
 90
      255
102
RTVSPost2010PropOp44
 70
     1
102
RTVSPost2010Prop45
280
     0
102
RTVSPost2010PropOp45
 70
     1
102
RTVSPost2010Prop46
 90
       50
102
RTVSPost2010PropOp46
 70
     1
102
RTVSPost2010Prop47
 90
       50
102
RTVSPost2010PropOp47
 70
     1
102
RTVSPost2010Prop48
 90
       50
102
RTVSPost2010PropOp48
 70
     1
102
RTVSPost2010Prop49
280
     0
102
RTVSPost2010PropOp49
 70
     1
102
RTVSPost2010Prop50
 90
       50
102
RTVSPost2010PropOp50
 70
     1
102
RTVSPost2010Prop51ColorIndex
 90
      256
102
RTVSPost2010Prop51ColorRGB
 90
-16777216
102
RTVSPost2010PropOp51
 70
     0
102
RTVSPost2010Prop52
140
1.0
102
RTVSPost2010PropOp52
 70
     0
102
RTVSPost2010Prop53
 90
        2
102
RTVSPost2010PropOp53
 70
     1
102
RTVSPost2010Prop54
  1
strokes_ogs.tif
102
RTVSPost2010PropOp54
 70
     1
102
RTVSPost2010Prop55
280
     0
102
RTVSPost2010PropOp55
 70
     1
102
RTVSPost2010Prop56
140
1.0
102
RTVSPost2010PropOp56
 70
     1
102
RTVSPost2010Prop57
140
1.0
102
RTVSPost2010PropOp57
 70
     1
  0
XRECORD
  5
9F5
102
{ACAD_REACTORS
330
9F4
102
}
330
9F4
100
AcDbXrecord
280
     1
102
RTVSPost2010Prop28
280
     0
102
RTVSPost2010PropOp28
 70
     1
102
RTVSPost2010Prop29
280
     1
102
RTVSPost2010PropOp29
 70
     1
102
RTVSPost2010Prop30
280
     1
102
RTVSPost2010PropOp30
 70
     1
102
RTVSPost2010Prop31
280
     0
102
RTVSPost2010PropOp31
 70
     1
102
RTVSPost2010Prop32
280
     0
102
RTVSPost2010PropOp32
 70
     1
102
RTVSPost2010Prop33
280
     0
102
RTVSPost2010PropOp33
 70
     1
102
RTVSPost2010Prop34
280
     0
102
RTVSPost2010PropOp34
 70
     1
102
RTVSPost2010Prop35
280
     0
102
RTVSPost2010PropOp35
 70
     1
102
RTVSPost2010Prop36
280
     0
102
RTVSPost2010PropOp36
 70
     1
102
RTVSPost2010Prop37
 90
       50
102
RTVSPost2010PropOp37
 70
     1
102
RTVSPost2010Prop38
140
0.0
102
RTVSPost2010PropOp38
 70
     1
102
RTVSPost2010Prop39
140
1.0
102
RTVSPost2010PropOp39
 70
     1
102
RTVSPost2010Prop40
 90
        0
102
RTVSPost2010PropOp40
 70
     1
102
RTVSPost2010Prop41ColorIndex
 90
       18
102
RTVSPost2010Prop41ColorRGB
 90
        0
102
RTVSPost2010PropOp41
 70
     1
102
RTVSPost2010Prop42
 90
       50
102
RTVSPost2010PropOp42
 70
     1
102
RTVSPost2010Prop43
 90
        3
102
RTVSPost2010PropOp43
 70
     1
102
RTVSPost2010Prop44ColorIndex
 90
        5
102
RTVSPost2010Prop44ColorRGB
 90
      255
102
RTVSPost2010PropOp44
 70
     1
102
RTVSPost2010Prop45
280
     0
102
RTVSPost2010PropOp45
 70
     1
102
RTVSPost2010Prop46
 90
       50
102
RTVSPost2010PropOp46
 70
     1
102
RTVSPost2010Prop47
 90
       50
102
RTVSPost2010PropOp47
 70
     1
102
RTVSPost2010Prop48
 90
       50
102
RTVSPost2010PropOp48
 70
     1
102
RTVSPost2010Prop49
280
     0
102
RTVSPost2010PropOp49
 70
     1
102
RTVSPost2010Prop50
 90
       50
102
RTVSPost2010PropOp50
 70
     1
102
RTVSPost2010Prop51ColorIndex
 90
      256
102
RTVSPost2010Prop51ColorRGB
 90
-16777216
102
RTVSPost2010PropOp51
 70
     0
102
RTVSPost2010Prop52
140
1.0
102
RTVSPost2010PropOp52
 70
     0
102
RTVSPost2010Prop53
 90
        2
102
RTVSPost2010PropOp53
 70
     1
102
RTVSPost2010Prop54
  1
strokes_ogs.tif
102
RTVSPost2010PropOp54
 70
     1
102
RTVSPost2010Prop55
280
     0
102
RTVSPost2010PropOp55
 70
     1
102
RTVSPost2010Prop56
140
1.0
102
RTVSPost2010PropOp56
 70
     1
102
RTVSPost2010Prop57
140
1.0
102
RTVSPost2010PropOp57
 70
     1
  0
XRECORD
  5
9F7
102
{ACAD_REACTORS
330
9F6
102
}
330
9F6
100
AcDbXrecord
280
     1
102
RTVSPost2010Prop28
280
     0
102
RTVSPost2010PropOp28
 70
     1
102
RTVSPost2010Prop29
280
     1
102
RTVSPost2010PropOp29
 70
     1
102
RTVSPost2010Prop30
280
     1
102
RTVSPost2010PropOp30
 70
     1
102
RTVSPost2010Prop31
280
     0
102
RTVSPost2010PropOp31
 70
     1
102
RTVSPost2010Prop32
280
     0
102
RTVSPost2010PropOp32
 70
     1
102
RTVSPost2010Prop33
280
     0
102
RTVSPost2010PropOp33
 70
     1
102
RTVSPost2010Prop34
280
     0
102
RTVSPost2010PropOp34
 70
     1
102
RTVSPost2010Prop35
280
     0
102
RTVSPost2010PropOp35
 70
     1
102
RTVSPost2010Prop36
280
     0
102
RTVSPost2010PropOp36
 70
     1
102
RTVSPost2010Prop37
 90
       50
102
RTVSPost2010PropOp37
 70
     1
102
RTVSPost2010Prop38
140
0.0
102
RTVSPost2010PropOp38
 70
     1
102
RTVSPost2010Prop39
140
1.0
102
RTVSPost2010PropOp39
 70
     1
102
RTVSPost2010Prop40
 90
        0
102
RTVSPost2010PropOp40
 70
     1
102
RTVSPost2010Prop41ColorIndex
 90
       18
102
RTVSPost2010Prop41ColorRGB
 90
        0
102
RTVSPost2010PropOp41
 70
     1
102
RTVSPost2010Prop42
 90
       50
102
RTVSPost2010PropOp42
 70
     1
102
RTVSPost2010Prop43
 90
        3
102
RTVSPost2010PropOp43
 70
     1
102
RTVSPost2010Prop44ColorIndex
 90
        5
102
RTVSPost2010Prop44ColorRGB
 90
      255
102
RTVSPost2010PropOp44
 70
     1
102
RTVSPost2010Prop45
280
     0
102
RTVSPost2010PropOp45
 70
     1
102
RTVSPost2010Prop46
 90
       50
102
RTVSPost2010PropOp46
 70
     1
102
RTVSPost2010Prop47
 90
       50
102
RTVSPost2010PropOp47
 70
     1
102
RTVSPost2010Prop48
 90
       50
102
RTVSPost2010PropOp48
 70
     1
102
RTVSPost2010Prop49
280
     0
102
RTVSPost2010PropOp49
 70
     1
102
RTVSPost2010Prop50
 90
       50
102
RTVSPost2010PropOp50
 70
     1
102
RTVSPost2010Prop51ColorIndex
 90
      256
102
RTVSPost2010Prop51ColorRGB
 90
-16777216
102
RTVSPost2010PropOp51
 70
     0
102
RTVSPost2010Prop52
140
1.0
102
RTVSPost2010PropOp52
 70
     0
102
RTVSPost2010Prop53
 90
        2
102
RTVSPost2010PropOp53
 70
     1
102
RTVSPost2010Prop54
  1
strokes_ogs.tif
102
RTVSPost2010PropOp54
 70
     1
102
RTVSPost2010Prop55
280
     0
102
RTVSPost2010PropOp55
 70
     1
102
RTVSPost2010Prop56
140
1.0
102
RTVSPost2010PropOp56
 70
     1
102
RTVSPost2010Prop57
140
1.0
102
RTVSPost2010PropOp57
 70
     1
  0
XRECORD
  5
A07
102
{ACAD_REACTORS
330
A06
102
}
330
A06
100
AcDbXrecord
280
     1
102
RTVSPost2010Prop28
280
     0
102
RTVSPost2010PropOp28
 70
     0
102
RTVSPost2010Prop29
280
     1
102
RTVSPost2010PropOp29
 70
     0
102
RTVSPost2010Prop30
280
     1
102
RTVSPost2010PropOp30
 70
     0
102
RTVSPost2010Prop31
280
     0
102
RTVSPost2010PropOp31
 70
     0
102
RTVSPost2010Prop32
280
     0
102
RTVSPost2010PropOp32
 70
     0
102
RTVSPost2010Prop33
280
     0
102
RTVSPost2010PropOp33
 70
     0
102
RTVSPost2010Prop34
280
     0
102
RTVSPost2010PropOp34
 70
     0
102
RTVSPost2010Prop35
280
     0
102
RTVSPost2010PropOp35
 70
     0
102
RTVSPost2010Prop36
280
     0
102
RTVSPost2010PropOp36
 70
     0
102
RTVSPost2010Prop37
 90
       50
102
RTVSPost2010PropOp37
 70
     0
102
RTVSPost2010Prop38
140
0.0
102
RTVSPost2010PropOp38
 70
     0
102
RTVSPost2010Prop39
140
1.0
102
RTVSPost2010PropOp39
 70
     0
102
RTVSPost2010Prop40
 90
        0
102
RTVSPost2010PropOp40
 70
     0
102
RTVSPost2010Prop41ColorIndex
 90
       18
102
RTVSPost2010Prop41ColorRGB
 90
        0
102
RTVSPost2010PropOp41
 70
     0
102
RTVSPost2010Prop42
 90
       50
102
RTVSPost2010PropOp42
 70
     0
102
RTVSPost2010Prop43
 90
        3
102
RTVSPost2010PropOp43
 70
     0
102
RTVSPost2010Prop44ColorIndex
 90
        5
102
RTVSPost2010Prop44ColorRGB
 90
      255
102
RTVSPost2010PropOp44
 70
     0
102
RTVSPost2010Prop45
280
     0
102
RTVSPost2010PropOp45
 70
     0
102
RTVSPost2010Prop46
 90
       50
102
RTVSPost2010PropOp46
 70
     0
102
RTVSPost2010Prop47
 90
       50
102
RTVSPost2010PropOp47
 70
     0
102
RTVSPost2010Prop48
 90
       50
102
RTVSPost2010PropOp48
 70
     0
102
RTVSPost2010Prop49
280
     0
102
RTVSPost2010PropOp49
 70
     0
102
RTVSPost2010Prop50
 90
       50
102
RTVSPost2010PropOp50
 70
     0
102
RTVSPost2010Prop51ColorIndex
 90
      256
102
RTVSPost2010Prop51ColorRGB
 90
-16777216
102
RTVSPost2010PropOp51
 70
     0
102
RTVSPost2010Prop52
140
1.0
102
RTVSPost2010PropOp52
 70
     0
102
RTVSPost2010Prop53
 90
        2
102
RTVSPost2010PropOp53
 70
     0
102
RTVSPost2010Prop54
  1
strokes_ogs.tif
102
RTVSPost2010PropOp54
 70
     0
102
RTVSPost2010Prop55
280
     0
102
RTVSPost2010PropOp55
 70
     0
102
RTVSPost2010Prop56
140
1.0
102
RTVSPost2010PropOp56
 70
     0
102
RTVSPost2010Prop57
140
1.0
102
RTVSPost2010PropOp57
 70
     0
  0
XRECORD
  5
9FF
102
{ACAD_REACTORS
330
9FE
102
}
330
9FE
100
AcDbXrecord
280
     1
102
RTVSPost2010Prop28
280
     0
102
RTVSPost2010PropOp28
 70
     1
102
RTVSPost2010Prop29
280
     1
102
RTVSPost2010PropOp29
 70
     1
102
RTVSPost2010Prop30
280
     1
102
RTVSPost2010PropOp30
 70
     1
102
RTVSPost2010Prop31
280
     0
102
RTVSPost2010PropOp31
 70
     1
102
RTVSPost2010Prop32
280
     0
102
RTVSPost2010PropOp32
 70
     1
102
RTVSPost2010Prop33
280
     0
102
RTVSPost2010PropOp33
 70
     1
102
RTVSPost2010Prop34
280
     0
102
RTVSPost2010PropOp34
 70
     1
102
RTVSPost2010Prop35
280
     0
102
RTVSPost2010PropOp35
 70
     1
102
RTVSPost2010Prop36
280
     0
102
RTVSPost2010PropOp36
 70
     1
102
RTVSPost2010Prop37
 90
       50
102
RTVSPost2010PropOp37
 70
     1
102
RTVSPost2010Prop38
140
0.0
102
RTVSPost2010PropOp38
 70
     1
102
RTVSPost2010Prop39
140
1.0
102
RTVSPost2010PropOp39
 70
     1
102
RTVSPost2010Prop40
 90
        0
102
RTVSPost2010PropOp40
 70
     1
102
RTVSPost2010Prop41ColorIndex
 90
       18
102
RTVSPost2010Prop41ColorRGB
 90
        0
102
RTVSPost2010PropOp41
 70
     1
102
RTVSPost2010Prop42
 90
       50
102
RTVSPost2010PropOp42
 70
     1
102
RTVSPost2010Prop43
 90
        3
102
RTVSPost2010PropOp43
 70
     1
102
RTVSPost2010Prop44ColorIndex
 90
        5
102
RTVSPost2010Prop44ColorRGB
 90
      255
102
RTVSPost2010PropOp44
 70
     1
102
RTVSPost2010Prop45
280
     0
102
RTVSPost2010PropOp45
 70
     1
102
RTVSPost2010Prop46
 90
       50
102
RTVSPost2010PropOp46
 70
     1
102
RTVSPost2010Prop47
 90
       50
102
RTVSPost2010PropOp47
 70
     1
102
RTVSPost2010Prop48
 90
       50
102
RTVSPost2010PropOp48
 70
     1
102
RTVSPost2010Prop49
280
     0
102
RTVSPost2010PropOp49
 70
     1
102
RTVSPost2010Prop50
 90
       50
102
RTVSPost2010PropOp50
 70
     1
102
RTVSPost2010Prop51ColorIndex
 90
      256
102
RTVSPost2010Prop51ColorRGB
 90
-16777216
102
RTVSPost2010PropOp51
 70
     0
102
RTVSPost2010Prop52
140
1.0
102
RTVSPost2010PropOp52
 70
     0
102
RTVSPost2010Prop53
 90
        2
102
RTVSPost2010PropOp53
 70
     1
102
RTVSPost2010Prop54
  1
strokes_ogs.tif
102
RTVSPost2010PropOp54
 70
     1
102
RTVSPost2010Prop55
280
     0
102
RTVSPost2010PropOp55
 70
     1
102
RTVSPost2010Prop56
140
1.0
102
RTVSPost2010PropOp56
 70
     1
102
RTVSPost2010Prop57
140
1.0
102
RTVSPost2010PropOp57
 70
     1
  0
XRECORD
  5
9E3
102
{ACAD_REACTORS
330
9E2
102
}
330
9E2
100
AcDbXrecord
280
     1
102
RTVSPost2010Prop28
280
     0
102
RTVSPost2010PropOp28
 70
     1
102
RTVSPost2010Prop29
280
     1
102
RTVSPost2010PropOp29
 70
     1
102
RTVSPost2010Prop30
280
     1
102
RTVSPost2010PropOp30
 70
     1
102
RTVSPost2010Prop31
280
     0
102
RTVSPost2010PropOp31
 70
     1
102
RTVSPost2010Prop32
280
     0
102
RTVSPost2010PropOp32
 70
     1
102
RTVSPost2010Prop33
280
     0
102
RTVSPost2010PropOp33
 70
     1
102
RTVSPost2010Prop34
280
     0
102
RTVSPost2010PropOp34
 70
     1
102
RTVSPost2010Prop35
280
     0
102
RTVSPost2010PropOp35
 70
     1
102
RTVSPost2010Prop36
280
     0
102
RTVSPost2010PropOp36
 70
     1
102
RTVSPost2010Prop37
 90
       50
102
RTVSPost2010PropOp37
 70
     1
102
RTVSPost2010Prop38
140
0.0
102
RTVSPost2010PropOp38
 70
     1
102
RTVSPost2010Prop39
140
1.0
102
RTVSPost2010PropOp39
 70
     1
102
RTVSPost2010Prop40
 90
        0
102
RTVSPost2010PropOp40
 70
     1
102
RTVSPost2010Prop41ColorIndex
 90
       18
102
RTVSPost2010Prop41ColorRGB
 90
        0
102
RTVSPost2010PropOp41
 70
     1
102
RTVSPost2010Prop42
 90
       50
102
RTVSPost2010PropOp42
 70
     1
102
RTVSPost2010Prop43
 90
        3
102
RTVSPost2010PropOp43
 70
     1
102
RTVSPost2010Prop44ColorIndex
 90
        5
102
RTVSPost2010Prop44ColorRGB
 90
      255
102
RTVSPost2010PropOp44
 70
     1
102
RTVSPost2010Prop45
280
     0
102
RTVSPost2010PropOp45
 70
     1
102
RTVSPost2010Prop46
 90
       50
102
RTVSPost2010PropOp46
 70
     1
102
RTVSPost2010Prop47
 90
       50
102
RTVSPost2010PropOp47
 70
     1
102
RTVSPost2010Prop48
 90
       50
102
RTVSPost2010PropOp48
 70
     1
102
RTVSPost2010Prop49
280
     0
102
RTVSPost2010PropOp49
 70
     1
102
RTVSPost2010Prop50
 90
       50
102
RTVSPost2010PropOp50
 70
     1
102
RTVSPost2010Prop51ColorIndex
 90
      256
102
RTVSPost2010Prop51ColorRGB
 90
-16777216
102
RTVSPost2010PropOp51
 70
     0
102
RTVSPost2010Prop52
140
1.0
102
RTVSPost2010PropOp52
 70
     0
102
RTVSPost2010Prop53
 90
        2
102
RTVSPost2010PropOp53
 70
     1
102
RTVSPost2010Prop54
  1
strokes_ogs.tif
102
RTVSPost2010PropOp54
 70
     1
102
RTVSPost2010Prop55
280
     0
102
RTVSPost2010PropOp55
 70
     1
102
RTVSPost2010Prop56
140
1.0
102
RTVSPost2010PropOp56
 70
     1
102
RTVSPost2010Prop57
140
1.0
102
RTVSPost2010PropOp57
 70
     1
  0
XRECORD
  5
9E5
102
{ACAD_REACTORS
330
9E4
102
}
330
9E4
100
AcDbXrecord
280
     1
102
RTVSPost2010Prop28
280
     0
102
RTVSPost2010PropOp28
 70
     1
102
RTVSPost2010Prop29
280
     1
102
RTVSPost2010PropOp29
 70
     1
102
RTVSPost2010Prop30
280
     1
102
RTVSPost2010PropOp30
 70
     1
102
RTVSPost2010Prop31
280
     0
102
RTVSPost2010PropOp31
 70
     1
102
RTVSPost2010Prop32
280
     0
102
RTVSPost2010PropOp32
 70
     1
102
RTVSPost2010Prop33
280
     0
102
RTVSPost2010PropOp33
 70
     1
102
RTVSPost2010Prop34
280
     0
102
RTVSPost2010PropOp34
 70
     1
102
RTVSPost2010Prop35
280
     0
102
RTVSPost2010PropOp35
 70
     1
102
RTVSPost2010Prop36
280
     0
102
RTVSPost2010PropOp36
 70
     1
102
RTVSPost2010Prop37
 90
       50
102
RTVSPost2010PropOp37
 70
     1
102
RTVSPost2010Prop38
140
0.0
102
RTVSPost2010PropOp38
 70
     1
102
RTVSPost2010Prop39
140
1.0
102
RTVSPost2010PropOp39
 70
     1
102
RTVSPost2010Prop40
 90
        0
102
RTVSPost2010PropOp40
 70
     1
102
RTVSPost2010Prop41ColorIndex
 90
       18
102
RTVSPost2010Prop41ColorRGB
 90
        0
102
RTVSPost2010PropOp41
 70
     1
102
RTVSPost2010Prop42
 90
       50
102
RTVSPost2010PropOp42
 70
     1
102
RTVSPost2010Prop43
 90
        3
102
RTVSPost2010PropOp43
 70
     1
102
RTVSPost2010Prop44ColorIndex
 90
        5
102
RTVSPost2010Prop44ColorRGB
 90
      255
102
RTVSPost2010PropOp44
 70
     1
102
RTVSPost2010Prop45
280
     0
102
RTVSPost2010PropOp45
 70
     1
102
RTVSPost2010Prop46
 90
       50
102
RTVSPost2010PropOp46
 70
     1
102
RTVSPost2010Prop47
 90
       50
102
RTVSPost2010PropOp47
 70
     1
102
RTVSPost2010Prop48
 90
       50
102
RTVSPost2010PropOp48
 70
     1
102
RTVSPost2010Prop49
280
     0
102
RTVSPost2010PropOp49
 70
     1
102
RTVSPost2010Prop50
 90
       50
102
RTVSPost2010PropOp50
 70
     1
102
RTVSPost2010Prop51ColorIndex
 90
      256
102
RTVSPost2010Prop51ColorRGB
 90
-16777216
102
RTVSPost2010PropOp51
 70
     0
102
RTVSPost2010Prop52
140
1.0
102
RTVSPost2010PropOp52
 70
     0
102
RTVSPost2010Prop53
 90
        2
102
RTVSPost2010PropOp53
 70
     1
102
RTVSPost2010Prop54
  1
strokes_ogs.tif
102
RTVSPost2010PropOp54
 70
     1
102
RTVSPost2010Prop55
280
     0
102
RTVSPost2010PropOp55
 70
     1
102
RTVSPost2010Prop56
140
1.0
102
RTVSPost2010PropOp56
 70
     1
102
RTVSPost2010Prop57
140
1.0
102
RTVSPost2010PropOp57
 70
     1
  0
XRECORD
  5
9E7
102
{ACAD_REACTORS
330
9E6
102
}
330
9E6
100
AcDbXrecord
280
     1
102
RTVSPost2010Prop28
280
     0
102
RTVSPost2010PropOp28
 70
     1
102
RTVSPost2010Prop29
280
     1
102
RTVSPost2010PropOp29
 70
     1
102
RTVSPost2010Prop30
280
     1
102
RTVSPost2010PropOp30
 70
     1
102
RTVSPost2010Prop31
280
     0
102
RTVSPost2010PropOp31
 70
     1
102
RTVSPost2010Prop32
280
     0
102
RTVSPost2010PropOp32
 70
     1
102
RTVSPost2010Prop33
280
     0
102
RTVSPost2010PropOp33
 70
     1
102
RTVSPost2010Prop34
280
     0
102
RTVSPost2010PropOp34
 70
     1
102
RTVSPost2010Prop35
280
     0
102
RTVSPost2010PropOp35
 70
     1
102
RTVSPost2010Prop36
280
     0
102
RTVSPost2010PropOp36
 70
     1
102
RTVSPost2010Prop37
 90
       50
102
RTVSPost2010PropOp37
 70
     1
102
RTVSPost2010Prop38
140
0.0
102
RTVSPost2010PropOp38
 70
     1
102
RTVSPost2010Prop39
140
1.0
102
RTVSPost2010PropOp39
 70
     1
102
RTVSPost2010Prop40
 90
        0
102
RTVSPost2010PropOp40
 70
     1
102
RTVSPost2010Prop41ColorIndex
 90
       18
102
RTVSPost2010Prop41ColorRGB
 90
        0
102
RTVSPost2010PropOp41
 70
     1
102
RTVSPost2010Prop42
 90
       50
102
RTVSPost2010PropOp42
 70
     1
102
RTVSPost2010Prop43
 90
        3
102
RTVSPost2010PropOp43
 70
     1
102
RTVSPost2010Prop44ColorIndex
 90
        5
102
RTVSPost2010Prop44ColorRGB
 90
      255
102
RTVSPost2010PropOp44
 70
     1
102
RTVSPost2010Prop45
280
     0
102
RTVSPost2010PropOp45
 70
     1
102
RTVSPost2010Prop46
 90
       50
102
RTVSPost2010PropOp46
 70
     1
102
RTVSPost2010Prop47
 90
       50
102
RTVSPost2010PropOp47
 70
     1
102
RTVSPost2010Prop48
 90
       50
102
RTVSPost2010PropOp48
 70
     1
102
RTVSPost2010Prop49
280
     0
102
RTVSPost2010PropOp49
 70
     1
102
RTVSPost2010Prop50
 90
       50
102
RTVSPost2010PropOp50
 70
     1
102
RTVSPost2010Prop51ColorIndex
 90
      256
102
RTVSPost2010Prop51ColorRGB
 90
-16777216
102
RTVSPost2010PropOp51
 70
     0
102
RTVSPost2010Prop52
140
1.0
102
RTVSPost2010PropOp52
 70
     0
102
RTVSPost2010Prop53
 90
        2
102
RTVSPost2010PropOp53
 70
     1
102
RTVSPost2010Prop54
  1
strokes_ogs.tif
102
RTVSPost2010PropOp54
 70
     1
102
RTVSPost2010Prop55
280
     0
102
RTVSPost2010PropOp55
 70
     1
102
RTVSPost2010Prop56
140
1.0
102
RTVSPost2010PropOp56
 70
     1
102
RTVSPost2010Prop57
140
1.0
102
RTVSPost2010PropOp57
 70
     1
  0
XRECORD
  5
9E9
102
{ACAD_REACTORS
330
9E8
102
}
330
9E8
100
AcDbXrecord
280
     1
102
RTVSPost2010Prop28
280
     0
102
RTVSPost2010PropOp28
 70
     1
102
RTVSPost2010Prop29
280
     1
102
RTVSPost2010PropOp29
 70
     1
102
RTVSPost2010Prop30
280
     1
102
RTVSPost2010PropOp30
 70
     1
102
RTVSPost2010Prop31
280
     0
102
RTVSPost2010PropOp31
 70
     1
102
RTVSPost2010Prop32
280
     0
102
RTVSPost2010PropOp32
 70
     1
102
RTVSPost2010Prop33
280
     0
102
RTVSPost2010PropOp33
 70
     1
102
RTVSPost2010Prop34
280
     0
102
RTVSPost2010PropOp34
 70
     1
102
RTVSPost2010Prop35
280
     0
102
RTVSPost2010PropOp35
 70
     1
102
RTVSPost2010Prop36
280
     0
102
RTVSPost2010PropOp36
 70
     1
102
RTVSPost2010Prop37
 90
       50
102
RTVSPost2010PropOp37
 70
     1
102
RTVSPost2010Prop38
140
0.0
102
RTVSPost2010PropOp38
 70
     1
102
RTVSPost2010Prop39
140
1.0
102
RTVSPost2010PropOp39
 70
     1
102
RTVSPost2010Prop40
 90
        0
102
RTVSPost2010PropOp40
 70
     1
102
RTVSPost2010Prop41ColorIndex
 90
       18
102
RTVSPost2010Prop41ColorRGB
 90
        0
102
RTVSPost2010PropOp41
 70
     1
102
RTVSPost2010Prop42
 90
       50
102
RTVSPost2010PropOp42
 70
     1
102
RTVSPost2010Prop43
 90
        3
102
RTVSPost2010PropOp43
 70
     1
102
RTVSPost2010Prop44ColorIndex
 90
        5
102
RTVSPost2010Prop44ColorRGB
 90
      255
102
RTVSPost2010PropOp44
 70
     1
102
RTVSPost2010Prop45
280
     0
102
RTVSPost2010PropOp45
 70
     1
102
RTVSPost2010Prop46
 90
       50
102
RTVSPost2010PropOp46
 70
     1
102
RTVSPost2010Prop47
 90
       50
102
RTVSPost2010PropOp47
 70
     1
102
RTVSPost2010Prop48
 90
       50
102
RTVSPost2010PropOp48
 70
     1
102
RTVSPost2010Prop49
280
     0
102
RTVSPost2010PropOp49
 70
     1
102
RTVSPost2010Prop50
 90
       50
102
RTVSPost2010PropOp50
 70
     1
102
RTVSPost2010Prop51ColorIndex
 90
      256
102
RTVSPost2010Prop51ColorRGB
 90
-16777216
102
RTVSPost2010PropOp51
 70
     0
102
RTVSPost2010Prop52
140
1.0
102
RTVSPost2010PropOp52
 70
     0
102
RTVSPost2010Prop53
 90
        2
102
RTVSPost2010PropOp53
 70
     1
102
RTVSPost2010Prop54
  1
strokes_ogs.tif
102
RTVSPost2010PropOp54
 70
     1
102
RTVSPost2010Prop55
280
     0
102
RTVSPost2010PropOp55
 70
     1
102
RTVSPost2010Prop56
140
1.0
102
RTVSPost2010PropOp56
 70
     1
102
RTVSPost2010Prop57
140
1.0
102
RTVSPost2010PropOp57
 70
     1
  0
XRECORD
  5
9EF
102
{ACAD_REACTORS
330
9EE
102
}
330
9EE
100
AcDbXrecord
280
     1
102
RTVSPost2010Prop28
280
     0
102
RTVSPost2010PropOp28
 70
     1
102
RTVSPost2010Prop29
280
     1
102
RTVSPost2010PropOp29
 70
     1
102
RTVSPost2010Prop30
280
     1
102
RTVSPost2010PropOp30
 70
     1
102
RTVSPost2010Prop31
280
     0
102
RTVSPost2010PropOp31
 70
     1
102
RTVSPost2010Prop32
280
     0
102
RTVSPost2010PropOp32
 70
     1
102
RTVSPost2010Prop33
280
     0
102
RTVSPost2010PropOp33
 70
     1
102
RTVSPost2010Prop34
280
     0
102
RTVSPost2010PropOp34
 70
     1
102
RTVSPost2010Prop35
280
     0
102
RTVSPost2010PropOp35
 70
     1
102
RTVSPost2010Prop36
280
     0
102
RTVSPost2010PropOp36
 70
     1
102
RTVSPost2010Prop37
 90
       50
102
RTVSPost2010PropOp37
 70
     1
102
RTVSPost2010Prop38
140
0.0
102
RTVSPost2010PropOp38
 70
     1
102
RTVSPost2010Prop39
140
1.0
102
RTVSPost2010PropOp39
 70
     1
102
RTVSPost2010Prop40
 90
        0
102
RTVSPost2010PropOp40
 70
     1
102
RTVSPost2010Prop41ColorIndex
 90
       18
102
RTVSPost2010Prop41ColorRGB
 90
        0
102
RTVSPost2010PropOp41
 70
     1
102
RTVSPost2010Prop42
 90
       50
102
RTVSPost2010PropOp42
 70
     1
102
RTVSPost2010Prop43
 90
        3
102
RTVSPost2010PropOp43
 70
     1
102
RTVSPost2010Prop44ColorIndex
 90
        5
102
RTVSPost2010Prop44ColorRGB
 90
      255
102
RTVSPost2010PropOp44
 70
     1
102
RTVSPost2010Prop45
280
     0
102
RTVSPost2010PropOp45
 70
     1
102
RTVSPost2010Prop46
 90
       50
102
RTVSPost2010PropOp46
 70
     1
102
RTVSPost2010Prop47
 90
       50
102
RTVSPost2010PropOp47
 70
     1
102
RTVSPost2010Prop48
 90
       50
102
RTVSPost2010PropOp48
 70
     1
102
RTVSPost2010Prop49
280
     0
102
RTVSPost2010PropOp49
 70
     1
102
RTVSPost2010Prop50
 90
       50
102
RTVSPost2010PropOp50
 70
     1
102
RTVSPost2010Prop51ColorIndex
 90
      256
102
RTVSPost2010Prop51ColorRGB
 90
-16777216
102
RTVSPost2010PropOp51
 70
     0
102
RTVSPost2010Prop52
140
1.0
102
RTVSPost2010PropOp52
 70
     0
102
RTVSPost2010Prop53
 90
        2
102
RTVSPost2010PropOp53
 70
     1
102
RTVSPost2010Prop54
  1
strokes_ogs.tif
102
RTVSPost2010PropOp54
 70
     1
102
RTVSPost2010Prop55
280
     0
102
RTVSPost2010PropOp55
 70
     1
102
RTVSPost2010Prop56
140
1.0
102
RTVSPost2010PropOp56
 70
     1
102
RTVSPost2010Prop57
140
1.0
102
RTVSPost2010PropOp57
 70
     1
  0
XRECORD
  5
A03
102
{ACAD_REACTORS
330
A02
102
}
330
A02
100
AcDbXrecord
280
     1
102
RTVSPost2010Prop28
280
     0
102
RTVSPost2010PropOp28
 70
     0
102
RTVSPost2010Prop29
280
     1
102
RTVSPost2010PropOp29
 70
     0
102
RTVSPost2010Prop30
280
     1
102
RTVSPost2010PropOp30
 70
     0
102
RTVSPost2010Prop31
280
     0
102
RTVSPost2010PropOp31
 70
     0
102
RTVSPost2010Prop32
280
     0
102
RTVSPost2010PropOp32
 70
     0
102
RTVSPost2010Prop33
280
     0
102
RTVSPost2010PropOp33
 70
     0
102
RTVSPost2010Prop34
280
     0
102
RTVSPost2010PropOp34
 70
     0
102
RTVSPost2010Prop35
280
     0
102
RTVSPost2010PropOp35
 70
     0
102
RTVSPost2010Prop36
280
     0
102
RTVSPost2010PropOp36
 70
     0
102
RTVSPost2010Prop37
 90
       50
102
RTVSPost2010PropOp37
 70
     0
102
RTVSPost2010Prop38
140
0.0
102
RTVSPost2010PropOp38
 70
     0
102
RTVSPost2010Prop39
140
1.0
102
RTVSPost2010PropOp39
 70
     0
102
RTVSPost2010Prop40
 90
        0
102
RTVSPost2010PropOp40
 70
     0
102
RTVSPost2010Prop41ColorIndex
 90
       18
102
RTVSPost2010Prop41ColorRGB
 90
        0
102
RTVSPost2010PropOp41
 70
     0
102
RTVSPost2010Prop42
 90
       50
102
RTVSPost2010PropOp42
 70
     0
102
RTVSPost2010Prop43
 90
        3
102
RTVSPost2010PropOp43
 70
     0
102
RTVSPost2010Prop44ColorIndex
 90
        5
102
RTVSPost2010Prop44ColorRGB
 90
      255
102
RTVSPost2010PropOp44
 70
     0
102
RTVSPost2010Prop45
280
     0
102
RTVSPost2010PropOp45
 70
     0
102
RTVSPost2010Prop46
 90
       50
102
RTVSPost2010PropOp46
 70
     0
102
RTVSPost2010Prop47
 90
       50
102
RTVSPost2010PropOp47
 70
     0
102
RTVSPost2010Prop48
 90
       50
102
RTVSPost2010PropOp48
 70
     0
102
RTVSPost2010Prop49
280
     0
102
RTVSPost2010PropOp49
 70
     0
102
RTVSPost2010Prop50
 90
       50
102
RTVSPost2010PropOp50
 70
     0
102
RTVSPost2010Prop51ColorIndex
 90
      256
102
RTVSPost2010Prop51ColorRGB
 90
-16777216
102
RTVSPost2010PropOp51
 70
     0
102
RTVSPost2010Prop52
140
1.0
102
RTVSPost2010PropOp52
 70
     0
102
RTVSPost2010Prop53
 90
        2
102
RTVSPost2010PropOp53
 70
     0
102
RTVSPost2010Prop54
  1
strokes_ogs.tif
102
RTVSPost2010PropOp54
 70
     0
102
RTVSPost2010Prop55
280
     0
102
RTVSPost2010PropOp55
 70
     0
102
RTVSPost2010Prop56
140
1.0
102
RTVSPost2010PropOp56
 70
     0
102
RTVSPost2010Prop57
140
1.0
102
RTVSPost2010PropOp57
 70
     0
  0
XRECORD
  5
9FD
102
{ACAD_REACTORS
330
9FC
102
}
330
9FC
100
AcDbXrecord
280
     1
102
RTVSPost2010Prop28
280
     0
102
RTVSPost2010PropOp28
 70
     1
102
RTVSPost2010Prop29
280
     1
102
RTVSPost2010PropOp29
 70
     1
102
RTVSPost2010Prop30
280
     1
102
RTVSPost2010PropOp30
 70
     1
102
RTVSPost2010Prop31
280
     0
102
RTVSPost2010PropOp31
 70
     1
102
RTVSPost2010Prop32
280
     0
102
RTVSPost2010PropOp32
 70
     1
102
RTVSPost2010Prop33
280
     0
102
RTVSPost2010PropOp33
 70
     1
102
RTVSPost2010Prop34
280
     0
102
RTVSPost2010PropOp34
 70
     1
102
RTVSPost2010Prop35
280
     0
102
RTVSPost2010PropOp35
 70
     1
102
RTVSPost2010Prop36
280
     0
102
RTVSPost2010PropOp36
 70
     1
102
RTVSPost2010Prop37
 90
       50
102
RTVSPost2010PropOp37
 70
     1
102
RTVSPost2010Prop38
140
0.0
102
RTVSPost2010PropOp38
 70
     1
102
RTVSPost2010Prop39
140
1.0
102
RTVSPost2010PropOp39
 70
     1
102
RTVSPost2010Prop40
 90
        0
102
RTVSPost2010PropOp40
 70
     1
102
RTVSPost2010Prop41ColorIndex
 90
       18
102
RTVSPost2010Prop41ColorRGB
 90
        0
102
RTVSPost2010PropOp41
 70
     1
102
RTVSPost2010Prop42
 90
       50
102
RTVSPost2010PropOp42
 70
     1
102
RTVSPost2010Prop43
 90
        3
102
RTVSPost2010PropOp43
 70
     1
102
RTVSPost2010Prop44ColorIndex
 90
        5
102
RTVSPost2010Prop44ColorRGB
 90
      255
102
RTVSPost2010PropOp44
 70
     1
102
RTVSPost2010Prop45
280
     0
102
RTVSPost2010PropOp45
 70
     1
102
RTVSPost2010Prop46
 90
       50
102
RTVSPost2010PropOp46
 70
     1
102
RTVSPost2010Prop47
 90
       50
102
RTVSPost2010PropOp47
 70
     1
102
RTVSPost2010Prop48
 90
       50
102
RTVSPost2010PropOp48
 70
     1
102
RTVSPost2010Prop49
280
     0
102
RTVSPost2010PropOp49
 70
     1
102
RTVSPost2010Prop50
 90
       50
102
RTVSPost2010PropOp50
 70
     1
102
RTVSPost2010Prop51ColorIndex
 90
      256
102
RTVSPost2010Prop51ColorRGB
 90
-16777216
102
RTVSPost2010PropOp51
 70
     0
102
RTVSPost2010Prop52
140
1.0
102
RTVSPost2010PropOp52
 70
     0
102
RTVSPost2010Prop53
 90
        2
102
RTVSPost2010PropOp53
 70
     1
102
RTVSPost2010Prop54
  1
strokes_ogs.tif
102
RTVSPost2010PropOp54
 70
     1
102
RTVSPost2010Prop55
280
     0
102
RTVSPost2010PropOp55
 70
     1
102
RTVSPost2010Prop56
140
1.0
102
RTVSPost2010PropOp56
 70
     1
102
RTVSPost2010Prop57
140
1.0
102
RTVSPost2010PropOp57
 70
     1
  0
XRECORD
  5
A05
102
{ACAD_REACTORS
330
A04
102
}
330
A04
100
AcDbXrecord
280
     1
102
RTVSPost2010Prop28
280
     0
102
RTVSPost2010PropOp28
 70
     0
102
RTVSPost2010Prop29
280
     1
102
RTVSPost2010PropOp29
 70
     0
102
RTVSPost2010Prop30
280
     1
102
RTVSPost2010PropOp30
 70
     0
102
RTVSPost2010Prop31
280
     0
102
RTVSPost2010PropOp31
 70
     0
102
RTVSPost2010Prop32
280
     0
102
RTVSPost2010PropOp32
 70
     0
102
RTVSPost2010Prop33
280
     0
102
RTVSPost2010PropOp33
 70
     0
102
RTVSPost2010Prop34
280
     0
102
RTVSPost2010PropOp34
 70
     0
102
RTVSPost2010Prop35
280
     0
102
RTVSPost2010PropOp35
 70
     0
102
RTVSPost2010Prop36
280
     0
102
RTVSPost2010PropOp36
 70
     0
102
RTVSPost2010Prop37
 90
       50
102
RTVSPost2010PropOp37
 70
     0
102
RTVSPost2010Prop38
140
0.0
102
RTVSPost2010PropOp38
 70
     0
102
RTVSPost2010Prop39
140
1.0
102
RTVSPost2010PropOp39
 70
     0
102
RTVSPost2010Prop40
 90
        0
102
RTVSPost2010PropOp40
 70
     0
102
RTVSPost2010Prop41ColorIndex
 90
       18
102
RTVSPost2010Prop41ColorRGB
 90
        0
102
RTVSPost2010PropOp41
 70
     0
102
RTVSPost2010Prop42
 90
       50
102
RTVSPost2010PropOp42
 70
     0
102
RTVSPost2010Prop43
 90
        3
102
RTVSPost2010PropOp43
 70
     0
102
RTVSPost2010Prop44ColorIndex
 90
        5
102
RTVSPost2010Prop44ColorRGB
 90
      255
102
RTVSPost2010PropOp44
 70
     0
102
RTVSPost2010Prop45
280
     0
102
RTVSPost2010PropOp45
 70
     0
102
RTVSPost2010Prop46
 90
       50
102
RTVSPost2010PropOp46
 70
     0
102
RTVSPost2010Prop47
 90
       50
102
RTVSPost2010PropOp47
 70
     0
102
RTVSPost2010Prop48
 90
       50
102
RTVSPost2010PropOp48
 70
     0
102
RTVSPost2010Prop49
280
     0
102
RTVSPost2010PropOp49
 70
     0
102
RTVSPost2010Prop50
 90
       50
102
RTVSPost2010PropOp50
 70
     0
102
RTVSPost2010Prop51ColorIndex
 90
      256
102
RTVSPost2010Prop51ColorRGB
 90
-16777216
102
RTVSPost2010PropOp51
 70
     0
102
RTVSPost2010Prop52
140
1.0
102
RTVSPost2010PropOp52
 70
     0
102
RTVSPost2010Prop53
 90
        2
102
RTVSPost2010PropOp53
 70
     0
102
RTVSPost2010Prop54
  1
strokes_ogs.tif
102
RTVSPost2010PropOp54
 70
     0
102
RTVSPost2010Prop55
280
     0
102
RTVSPost2010PropOp55
 70
     0
102
RTVSPost2010Prop56
140
1.0
102
RTVSPost2010PropOp56
 70
     0
102
RTVSPost2010Prop57
140
1.0
102
RTVSPost2010PropOp57
 70
     0
  0
XRECORD
  5
9F3
102
{ACAD_REACTORS
330
9F2
102
}
330
9F2
100
AcDbXrecord
280
     1
102
RTVSPost2010Prop28
280
     0
102
RTVSPost2010PropOp28
 70
     1
102
RTVSPost2010Prop29
280
     1
102
RTVSPost2010PropOp29
 70
     1
102
RTVSPost2010Prop30
280
     1
102
RTVSPost2010PropOp30
 70
     1
102
RTVSPost2010Prop31
280
     0
102
RTVSPost2010PropOp31
 70
     1
102
RTVSPost2010Prop32
280
     0
102
RTVSPost2010PropOp32
 70
     1
102
RTVSPost2010Prop33
280
     0
102
RTVSPost2010PropOp33
 70
     1
102
RTVSPost2010Prop34
280
     0
102
RTVSPost2010PropOp34
 70
     1
102
RTVSPost2010Prop35
280
     0
102
RTVSPost2010PropOp35
 70
     1
102
RTVSPost2010Prop36
280
     0
102
RTVSPost2010PropOp36
 70
     1
102
RTVSPost2010Prop37
 90
       50
102
RTVSPost2010PropOp37
 70
     1
102
RTVSPost2010Prop38
140
0.0
102
RTVSPost2010PropOp38
 70
     1
102
RTVSPost2010Prop39
140
1.0
102
RTVSPost2010PropOp39
 70
     1
102
RTVSPost2010Prop40
 90
        0
102
RTVSPost2010PropOp40
 70
     1
102
RTVSPost2010Prop41ColorIndex
 90
       18
102
RTVSPost2010Prop41ColorRGB
 90
        0
102
RTVSPost2010PropOp41
 70
     1
102
RTVSPost2010Prop42
 90
       50
102
RTVSPost2010PropOp42
 70
     1
102
RTVSPost2010Prop43
 90
        3
102
RTVSPost2010PropOp43
 70
     1
102
RTVSPost2010Prop44ColorIndex
 90
        5
102
RTVSPost2010Prop44ColorRGB
 90
      255
102
RTVSPost2010PropOp44
 70
     1
102
RTVSPost2010Prop45
280
     0
102
RTVSPost2010PropOp45
 70
     1
102
RTVSPost2010Prop46
 90
       50
102
RTVSPost2010PropOp46
 70
     1
102
RTVSPost2010Prop47
 90
       50
102
RTVSPost2010PropOp47
 70
     1
102
RTVSPost2010Prop48
 90
       50
102
RTVSPost2010PropOp48
 70
     1
102
RTVSPost2010Prop49
280
     0
102
RTVSPost2010PropOp49
 70
     1
102
RTVSPost2010Prop50
 90
       50
102
RTVSPost2010PropOp50
 70
     1
102
RTVSPost2010Prop51ColorIndex
 90
      256
102
RTVSPost2010Prop51ColorRGB
 90
-16777216
102
RTVSPost2010PropOp51
 70
     0
102
RTVSPost2010Prop52
140
1.0
102
RTVSPost2010PropOp52
 70
     0
102
RTVSPost2010Prop53
 90
        2
102
RTVSPost2010PropOp53
 70
     1
102
RTVSPost2010Prop54
  1
strokes_ogs.tif
102
RTVSPost2010PropOp54
 70
     1
102
RTVSPost2010Prop55
280
     0
102
RTVSPost2010PropOp55
 70
     1
102
RTVSPost2010Prop56
140
1.0
102
RTVSPost2010PropOp56
 70
     1
102
RTVSPost2010Prop57
140
1.0
102
RTVSPost2010PropOp57
 70
     1
  0
XRECORD
  5
A11
102
{ACAD_REACTORS
330
A10
102
}
330
A10
100
AcDbXrecord
280
     1
102
RTVSPost2010Prop28
280
     0
102
RTVSPost2010PropOp28
 70
     1
102
RTVSPost2010Prop29
280
     1
102
RTVSPost2010PropOp29
 70
     1
102
RTVSPost2010Prop30
280
     1
102
RTVSPost2010PropOp30
 70
     1
102
RTVSPost2010Prop31
280
     0
102
RTVSPost2010PropOp31
 70
     1
102
RTVSPost2010Prop32
280
     0
102
RTVSPost2010PropOp32
 70
     1
102
RTVSPost2010Prop33
280
     0
102
RTVSPost2010PropOp33
 70
     1
102
RTVSPost2010Prop34
280
     0
102
RTVSPost2010PropOp34
 70
     1
102
RTVSPost2010Prop35
280
     0
102
RTVSPost2010PropOp35
 70
     1
102
RTVSPost2010Prop36
280
     0
102
RTVSPost2010PropOp36
 70
     1
102
RTVSPost2010Prop37
 90
       50
102
RTVSPost2010PropOp37
 70
     1
102
RTVSPost2010Prop38
140
0.0
102
RTVSPost2010PropOp38
 70
     1
102
RTVSPost2010Prop39
140
1.0
102
RTVSPost2010PropOp39
 70
     1
102
RTVSPost2010Prop40
 90
        0
102
RTVSPost2010PropOp40
 70
     1
102
RTVSPost2010Prop41ColorIndex
 90
       18
102
RTVSPost2010Prop41ColorRGB
 90
        0
102
RTVSPost2010PropOp41
 70
     1
102
RTVSPost2010Prop42
 90
       50
102
RTVSPost2010PropOp42
 70
     1
102
RTVSPost2010Prop43
 90
        3
102
RTVSPost2010PropOp43
 70
     1
102
RTVSPost2010Prop44ColorIndex
 90
        5
102
RTVSPost2010Prop44ColorRGB
 90
      255
102
RTVSPost2010PropOp44
 70
     1
102
RTVSPost2010Prop45
280
     0
102
RTVSPost2010PropOp45
 70
     1
102
RTVSPost2010Prop46
 90
       50
102
RTVSPost2010PropOp46
 70
     1
102
RTVSPost2010Prop47
 90
       50
102
RTVSPost2010PropOp47
 70
     1
102
RTVSPost2010Prop48
 90
       50
102
RTVSPost2010PropOp48
 70
     1
102
RTVSPost2010Prop49
280
     0
102
RTVSPost2010PropOp49
 70
     1
102
RTVSPost2010Prop50
 90
       50
102
RTVSPost2010PropOp50
 70
     1
102
RTVSPost2010Prop51ColorIndex
 90
      256
102
RTVSPost2010Prop51ColorRGB
 90
-16777216
102
RTVSPost2010PropOp51
 70
     0
102
RTVSPost2010Prop52
140
1.0
102
RTVSPost2010PropOp52
 70
     0
102
RTVSPost2010Prop53
 90
        2
102
RTVSPost2010PropOp53
 70
     1
102
RTVSPost2010Prop54
  1
strokes_ogs.tif
102
RTVSPost2010PropOp54
 70
     1
102
RTVSPost2010Prop55
280
     0
102
RTVSPost2010PropOp55
 70
     1
102
RTVSPost2010Prop56
140
1.0
102
RTVSPost2010PropOp56
 70
     1
102
RTVSPost2010Prop57
140
1.0
102
RTVSPost2010PropOp57
 70
     1
  0
XRECORD
  5
A0F
102
{ACAD_REACTORS
330
A0E
102
}
330
A0E
100
AcDbXrecord
280
     1
102
RTVSPost2010Prop28
280
     0
102
RTVSPost2010PropOp28
 70
     1
102
RTVSPost2010Prop29
280
     1
102
RTVSPost2010PropOp29
 70
     1
102
RTVSPost2010Prop30
280
     1
102
RTVSPost2010PropOp30
 70
     1
102
RTVSPost2010Prop31
280
     0
102
RTVSPost2010PropOp31
 70
     1
102
RTVSPost2010Prop32
280
     0
102
RTVSPost2010PropOp32
 70
     1
102
RTVSPost2010Prop33
280
     0
102
RTVSPost2010PropOp33
 70
     1
102
RTVSPost2010Prop34
280
     0
102
RTVSPost2010PropOp34
 70
     1
102
RTVSPost2010Prop35
280
     0
102
RTVSPost2010PropOp35
 70
     1
102
RTVSPost2010Prop36
280
     0
102
RTVSPost2010PropOp36
 70
     1
102
RTVSPost2010Prop37
 90
       50
102
RTVSPost2010PropOp37
 70
     1
102
RTVSPost2010Prop38
140
0.0
102
RTVSPost2010PropOp38
 70
     1
102
RTVSPost2010Prop39
140
1.0
102
RTVSPost2010PropOp39
 70
     1
102
RTVSPost2010Prop40
 90
        0
102
RTVSPost2010PropOp40
 70
     1
102
RTVSPost2010Prop41ColorIndex
 90
       18
102
RTVSPost2010Prop41ColorRGB
 90
        0
102
RTVSPost2010PropOp41
 70
     1
102
RTVSPost2010Prop42
 90
       50
102
RTVSPost2010PropOp42
 70
     1
102
RTVSPost2010Prop43
 90
        3
102
RTVSPost2010PropOp43
 70
     1
102
RTVSPost2010Prop44ColorIndex
 90
        5
102
RTVSPost2010Prop44ColorRGB
 90
      255
102
RTVSPost2010PropOp44
 70
     1
102
RTVSPost2010Prop45
280
     0
102
RTVSPost2010PropOp45
 70
     1
102
RTVSPost2010Prop46
 90
       50
102
RTVSPost2010PropOp46
 70
     1
102
RTVSPost2010Prop47
 90
       50
102
RTVSPost2010PropOp47
 70
     1
102
RTVSPost2010Prop48
 90
       50
102
RTVSPost2010PropOp48
 70
     1
102
RTVSPost2010Prop49
280
     0
102
RTVSPost2010PropOp49
 70
     1
102
RTVSPost2010Prop50
 90
       50
102
RTVSPost2010PropOp50
 70
     1
102
RTVSPost2010Prop51ColorIndex
 90
      256
102
RTVSPost2010Prop51ColorRGB
 90
-16777216
102
RTVSPost2010PropOp51
 70
     0
102
RTVSPost2010Prop52
140
1.0
102
RTVSPost2010PropOp52
 70
     0
102
RTVSPost2010Prop53
 90
        2
102
RTVSPost2010PropOp53
 70
     1
102
RTVSPost2010Prop54
  1
strokes_ogs.tif
102
RTVSPost2010PropOp54
 70
     1
102
RTVSPost2010Prop55
280
     0
102
RTVSPost2010PropOp55
 70
     1
102
RTVSPost2010Prop56
140
1.0
102
RTVSPost2010PropOp56
 70
     1
102
RTVSPost2010Prop57
140
1.0
102
RTVSPost2010PropOp57
 70
     1
  0
XRECORD
  5
A09
102
{ACAD_REACTORS
330
A08
102
}
330
A08
100
AcDbXrecord
280
     1
102
RTVSPost2010Prop28
280
     0
102
RTVSPost2010PropOp28
 70
     1
102
RTVSPost2010Prop29
280
     1
102
RTVSPost2010PropOp29
 70
     1
102
RTVSPost2010Prop30
280
     1
102
RTVSPost2010PropOp30
 70
     1
102
RTVSPost2010Prop31
280
     0
102
RTVSPost2010PropOp31
 70
     1
102
RTVSPost2010Prop32
280
     0
102
RTVSPost2010PropOp32
 70
     1
102
RTVSPost2010Prop33
280
     0
102
RTVSPost2010PropOp33
 70
     1
102
RTVSPost2010Prop34
280
     0
102
RTVSPost2010PropOp34
 70
     1
102
RTVSPost2010Prop35
280
     0
102
RTVSPost2010PropOp35
 70
     1
102
RTVSPost2010Prop36
280
     0
102
RTVSPost2010PropOp36
 70
     1
102
RTVSPost2010Prop37
 90
       50
102
RTVSPost2010PropOp37
 70
     1
102
RTVSPost2010Prop38
140
0.0
102
RTVSPost2010PropOp38
 70
     1
102
RTVSPost2010Prop39
140
1.0
102
RTVSPost2010PropOp39
 70
     1
102
RTVSPost2010Prop40
 90
        0
102
RTVSPost2010PropOp40
 70
     1
102
RTVSPost2010Prop41ColorIndex
 90
       18
102
RTVSPost2010Prop41ColorRGB
 90
        0
102
RTVSPost2010PropOp41
 70
     1
102
RTVSPost2010Prop42
 90
       50
102
RTVSPost2010PropOp42
 70
     1
102
RTVSPost2010Prop43
 90
        3
102
RTVSPost2010PropOp43
 70
     1
102
RTVSPost2010Prop44ColorIndex
 90
        5
102
RTVSPost2010Prop44ColorRGB
 90
      255
102
RTVSPost2010PropOp44
 70
     1
102
RTVSPost2010Prop45
280
     0
102
RTVSPost2010PropOp45
 70
     1
102
RTVSPost2010Prop46
 90
       50
102
RTVSPost2010PropOp46
 70
     1
102
RTVSPost2010Prop47
 90
       50
102
RTVSPost2010PropOp47
 70
     1
102
RTVSPost2010Prop48
 90
       50
102
RTVSPost2010PropOp48
 70
     1
102
RTVSPost2010Prop49
280
     0
102
RTVSPost2010PropOp49
 70
     1
102
RTVSPost2010Prop50
 90
       50
102
RTVSPost2010PropOp50
 70
     1
102
RTVSPost2010Prop51ColorIndex
 90
      256
102
RTVSPost2010Prop51ColorRGB
 90
-16777216
102
RTVSPost2010PropOp51
 70
     0
102
RTVSPost2010Prop52
140
1.0
102
RTVSPost2010PropOp52
 70
     0
102
RTVSPost2010Prop53
 90
        2
102
RTVSPost2010PropOp53
 70
     1
102
RTVSPost2010Prop54
  1
strokes_ogs.tif
102
RTVSPost2010PropOp54
 70
     1
102
RTVSPost2010Prop55
280
     0
102
RTVSPost2010PropOp55
 70
     1
102
RTVSPost2010Prop56
140
1.0
102
RTVSPost2010PropOp56
 70
     1
102
RTVSPost2010Prop57
140
1.0
102
RTVSPost2010PropOp57
 70
     1
  0
XRECORD
  5
A0B
102
{ACAD_REACTORS
330
A0A
102
}
330
A0A
100
AcDbXrecord
280
     1
102
RTVSPost2010Prop28
280
     0
102
RTVSPost2010PropOp28
 70
     1
102
RTVSPost2010Prop29
280
     1
102
RTVSPost2010PropOp29
 70
     1
102
RTVSPost2010Prop30
280
     1
102
RTVSPost2010PropOp30
 70
     1
102
RTVSPost2010Prop31
280
     0
102
RTVSPost2010PropOp31
 70
     1
102
RTVSPost2010Prop32
280
     0
102
RTVSPost2010PropOp32
 70
     1
102
RTVSPost2010Prop33
280
     0
102
RTVSPost2010PropOp33
 70
     1
102
RTVSPost2010Prop34
280
     0
102
RTVSPost2010PropOp34
 70
     1
102
RTVSPost2010Prop35
280
     0
102
RTVSPost2010PropOp35
 70
     1
102
RTVSPost2010Prop36
280
     0
102
RTVSPost2010PropOp36
 70
     1
102
RTVSPost2010Prop37
 90
       50
102
RTVSPost2010PropOp37
 70
     1
102
RTVSPost2010Prop38
140
0.0
102
RTVSPost2010PropOp38
 70
     1
102
RTVSPost2010Prop39
140
1.0
102
RTVSPost2010PropOp39
 70
     1
102
RTVSPost2010Prop40
 90
        0
102
RTVSPost2010PropOp40
 70
     1
102
RTVSPost2010Prop41ColorIndex
 90
       18
102
RTVSPost2010Prop41ColorRGB
 90
        0
102
RTVSPost2010PropOp41
 70
     1
102
RTVSPost2010Prop42
 90
       50
102
RTVSPost2010PropOp42
 70
     1
102
RTVSPost2010Prop43
 90
        3
102
RTVSPost2010PropOp43
 70
     1
102
RTVSPost2010Prop44ColorIndex
 90
        5
102
RTVSPost2010Prop44ColorRGB
 90
      255
102
RTVSPost2010PropOp44
 70
     1
102
RTVSPost2010Prop45
280
     0
102
RTVSPost2010PropOp45
 70
     1
102
RTVSPost2010Prop46
 90
       50
102
RTVSPost2010PropOp46
 70
     1
102
RTVSPost2010Prop47
 90
       50
102
RTVSPost2010PropOp47
 70
     1
102
RTVSPost2010Prop48
 90
       50
102
RTVSPost2010PropOp48
 70
     1
102
RTVSPost2010Prop49
280
     0
102
RTVSPost2010PropOp49
 70
     1
102
RTVSPost2010Prop50
 90
       50
102
RTVSPost2010PropOp50
 70
     1
102
RTVSPost2010Prop51ColorIndex
 90
      256
102
RTVSPost2010Prop51ColorRGB
 90
-16777216
102
RTVSPost2010PropOp51
 70
     0
102
RTVSPost2010Prop52
140
1.0
102
RTVSPost2010PropOp52
 70
     0
102
RTVSPost2010Prop53
 90
        2
102
RTVSPost2010PropOp53
 70
     1
102
RTVSPost2010Prop54
  1
strokes_ogs.tif
102
RTVSPost2010PropOp54
 70
     1
102
RTVSPost2010Prop55
280
     0
102
RTVSPost2010PropOp55
 70
     1
102
RTVSPost2010Prop56
140
1.0
102
RTVSPost2010PropOp56
 70
     1
102
RTVSPost2010Prop57
140
1.0
102
RTVSPost2010PropOp57
 70
     1
  0
XRECORD
  5
9FB
102
{ACAD_REACTORS
330
9FA
102
}
330
9FA
100
AcDbXrecord
280
     1
102
RTVSPost2010Prop28
280
     0
102
RTVSPost2010PropOp28
 70
     1
102
RTVSPost2010Prop29
280
     1
102
RTVSPost2010PropOp29
 70
     1
102
RTVSPost2010Prop30
280
     1
102
RTVSPost2010PropOp30
 70
     1
102
RTVSPost2010Prop31
280
     0
102
RTVSPost2010PropOp31
 70
     1
102
RTVSPost2010Prop32
280
     0
102
RTVSPost2010PropOp32
 70
     1
102
RTVSPost2010Prop33
280
     0
102
RTVSPost2010PropOp33
 70
     1
102
RTVSPost2010Prop34
280
     0
102
RTVSPost2010PropOp34
 70
     1
102
RTVSPost2010Prop35
280
     0
102
RTVSPost2010PropOp35
 70
     1
102
RTVSPost2010Prop36
280
     0
102
RTVSPost2010PropOp36
 70
     1
102
RTVSPost2010Prop37
 90
       50
102
RTVSPost2010PropOp37
 70
     1
102
RTVSPost2010Prop38
140
0.0
102
RTVSPost2010PropOp38
 70
     1
102
RTVSPost2010Prop39
140
1.0
102
RTVSPost2010PropOp39
 70
     1
102
RTVSPost2010Prop40
 90
        0
102
RTVSPost2010PropOp40
 70
     1
102
RTVSPost2010Prop41ColorIndex
 90
       18
102
RTVSPost2010Prop41ColorRGB
 90
        0
102
RTVSPost2010PropOp41
 70
     1
102
RTVSPost2010Prop42
 90
       50
102
RTVSPost2010PropOp42
 70
     1
102
RTVSPost2010Prop43
 90
        3
102
RTVSPost2010PropOp43
 70
     1
102
RTVSPost2010Prop44ColorIndex
 90
        5
102
RTVSPost2010Prop44ColorRGB
 90
      255
102
RTVSPost2010PropOp44
 70
     1
102
RTVSPost2010Prop45
280
     0
102
RTVSPost2010PropOp45
 70
     1
102
RTVSPost2010Prop46
 90
       50
102
RTVSPost2010PropOp46
 70
     1
102
RTVSPost2010Prop47
 90
       50
102
RTVSPost2010PropOp47
 70
     1
102
RTVSPost2010Prop48
 90
       50
102
RTVSPost2010PropOp48
 70
     1
102
RTVSPost2010Prop49
280
     0
102
RTVSPost2010PropOp49
 70
     1
102
RTVSPost2010Prop50
 90
       50
102
RTVSPost2010PropOp50
 70
     1
102
RTVSPost2010Prop51ColorIndex
 90
      256
102
RTVSPost2010Prop51ColorRGB
 90
-16777216
102
RTVSPost2010PropOp51
 70
     0
102
RTVSPost2010Prop52
140
1.0
102
RTVSPost2010PropOp52
 70
     0
102
RTVSPost2010Prop53
 90
        2
102
RTVSPost2010PropOp53
 70
     1
102
RTVSPost2010Prop54
  1
strokes_ogs.tif
102
RTVSPost2010PropOp54
 70
     1
102
RTVSPost2010Prop55
280
     0
102
RTVSPost2010PropOp55
 70
     1
102
RTVSPost2010Prop56
140
1.0
102
RTVSPost2010PropOp56
 70
     1
102
RTVSPost2010Prop57
140
1.0
102
RTVSPost2010PropOp57
 70
     1
  0
XRECORD
  5
9ED
102
{ACAD_REACTORS
330
9EC
102
}
330
9EC
100
AcDbXrecord
280
     1
102
RTVSPost2010Prop28
280
     0
102
RTVSPost2010PropOp28
 70
     1
102
RTVSPost2010Prop29
280
     1
102
RTVSPost2010PropOp29
 70
     1
102
RTVSPost2010Prop30
280
     1
102
RTVSPost2010PropOp30
 70
     1
102
RTVSPost2010Prop31
280
     0
102
RTVSPost2010PropOp31
 70
     1
102
RTVSPost2010Prop32
280
     0
102
RTVSPost2010PropOp32
 70
     1
102
RTVSPost2010Prop33
280
     0
102
RTVSPost2010PropOp33
 70
     1
102
RTVSPost2010Prop34
280
     0
102
RTVSPost2010PropOp34
 70
     1
102
RTVSPost2010Prop35
280
     0
102
RTVSPost2010PropOp35
 70
     1
102
RTVSPost2010Prop36
280
     0
102
RTVSPost2010PropOp36
 70
     1
102
RTVSPost2010Prop37
 90
       50
102
RTVSPost2010PropOp37
 70
     1
102
RTVSPost2010Prop38
140
0.0
102
RTVSPost2010PropOp38
 70
     1
102
RTVSPost2010Prop39
140
1.0
102
RTVSPost2010PropOp39
 70
     1
102
RTVSPost2010Prop40
 90
        0
102
RTVSPost2010PropOp40
 70
     1
102
RTVSPost2010Prop41ColorIndex
 90
       18
102
RTVSPost2010Prop41ColorRGB
 90
        0
102
RTVSPost2010PropOp41
 70
     1
102
RTVSPost2010Prop42
 90
       50
102
RTVSPost2010PropOp42
 70
     1
102
RTVSPost2010Prop43
 90
        3
102
RTVSPost2010PropOp43
 70
     1
102
RTVSPost2010Prop44ColorIndex
 90
        5
102
RTVSPost2010Prop44ColorRGB
 90
      255
102
RTVSPost2010PropOp44
 70
     1
102
RTVSPost2010Prop45
280
     0
102
RTVSPost2010PropOp45
 70
     1
102
RTVSPost2010Prop46
 90
       50
102
RTVSPost2010PropOp46
 70
     1
102
RTVSPost2010Prop47
 90
       50
102
RTVSPost2010PropOp47
 70
     1
102
RTVSPost2010Prop48
 90
       50
102
RTVSPost2010PropOp48
 70
     1
102
RTVSPost2010Prop49
280
     0
102
RTVSPost2010PropOp49
 70
     1
102
RTVSPost2010Prop50
 90
       50
102
RTVSPost2010PropOp50
 70
     1
102
RTVSPost2010Prop51ColorIndex
 90
      256
102
RTVSPost2010Prop51ColorRGB
 90
-16777216
102
RTVSPost2010PropOp51
 70
     0
102
RTVSPost2010Prop52
140
1.0
102
RTVSPost2010PropOp52
 70
     0
102
RTVSPost2010Prop53
 90
        2
102
RTVSPost2010PropOp53
 70
     1
102
RTVSPost2010Prop54
  1
strokes_ogs.tif
102
RTVSPost2010PropOp54
 70
     1
102
RTVSPost2010Prop55
280
     0
102
RTVSPost2010PropOp55
 70
     1
102
RTVSPost2010Prop56
140
1.0
102
RTVSPost2010PropOp56
 70
     1
102
RTVSPost2010Prop57
140
1.0
102
RTVSPost2010PropOp57
 70
     1
  0
XRECORD
  5
A0D
102
{ACAD_REACTORS
330
A0C
102
}
330
A0C
100
AcDbXrecord
280
     1
102
RTVSPost2010Prop28
280
     0
102
RTVSPost2010PropOp28
 70
     1
102
RTVSPost2010Prop29
280
     1
102
RTVSPost2010PropOp29
 70
     1
102
RTVSPost2010Prop30
280
     1
102
RTVSPost2010PropOp30
 70
     1
102
RTVSPost2010Prop31
280
     0
102
RTVSPost2010PropOp31
 70
     1
102
RTVSPost2010Prop32
280
     0
102
RTVSPost2010PropOp32
 70
     1
102
RTVSPost2010Prop33
280
     0
102
RTVSPost2010PropOp33
 70
     1
102
RTVSPost2010Prop34
280
     0
102
RTVSPost2010PropOp34
 70
     1
102
RTVSPost2010Prop35
280
     0
102
RTVSPost2010PropOp35
 70
     1
102
RTVSPost2010Prop36
280
     0
102
RTVSPost2010PropOp36
 70
     1
102
RTVSPost2010Prop37
 90
       50
102
RTVSPost2010PropOp37
 70
     1
102
RTVSPost2010Prop38
140
0.0
102
RTVSPost2010PropOp38
 70
     1
102
RTVSPost2010Prop39
140
1.0
102
RTVSPost2010PropOp39
 70
     1
102
RTVSPost2010Prop40
 90
        0
102
RTVSPost2010PropOp40
 70
     1
102
RTVSPost2010Prop41ColorIndex
 90
       18
102
RTVSPost2010Prop41ColorRGB
 90
        0
102
RTVSPost2010PropOp41
 70
     1
102
RTVSPost2010Prop42
 90
       50
102
RTVSPost2010PropOp42
 70
     1
102
RTVSPost2010Prop43
 90
        3
102
RTVSPost2010PropOp43
 70
     1
102
RTVSPost2010Prop44ColorIndex
 90
        5
102
RTVSPost2010Prop44ColorRGB
 90
      255
102
RTVSPost2010PropOp44
 70
     1
102
RTVSPost2010Prop45
280
     0
102
RTVSPost2010PropOp45
 70
     1
102
RTVSPost2010Prop46
 90
       50
102
RTVSPost2010PropOp46
 70
     1
102
RTVSPost2010Prop47
 90
       50
102
RTVSPost2010PropOp47
 70
     1
102
RTVSPost2010Prop48
 90
       50
102
RTVSPost2010PropOp48
 70
     1
102
RTVSPost2010Prop49
280
     0
102
RTVSPost2010PropOp49
 70
     1
102
RTVSPost2010Prop50
 90
       50
102
RTVSPost2010PropOp50
 70
     1
102
RTVSPost2010Prop51ColorIndex
 90
      256
102
RTVSPost2010Prop51ColorRGB
 90
-16777216
102
RTVSPost2010PropOp51
 70
     0
102
RTVSPost2010Prop52
140
1.0
102
RTVSPost2010PropOp52
 70
     0
102
RTVSPost2010Prop53
 90
        2
102
RTVSPost2010PropOp53
 70
     1
102
RTVSPost2010Prop54
  1
strokes_ogs.tif
102
RTVSPost2010PropOp54
 70
     1
102
RTVSPost2010Prop55
280
     0
102
RTVSPost2010PropOp55
 70
     1
102
RTVSPost2010Prop56
140
1.0
102
RTVSPost2010PropOp56
 70
     1
102
RTVSPost2010Prop57
140
1.0
102
RTVSPost2010PropOp57
 70
     1
  0
ENDSEC
  0
EOF
