  0
SECTION
  2
HEADER
  9
$ACADVER
  1
AC1024
  9
$ACADMAINTVER
 70
     6
  9
$DWGCODEPAGE
  3
ANSI_1252
  9
$LASTSAVEDBY
  1
Owner
  9
$INSBASE
 10
0.0
 20
0.0
 30
0.0
  9
$EXTMIN
 10
698.0927145836094
 20
360.1407812883974
 30
0.0
  9
$EXTMAX
 10
1102.655203254498
 20
570.1141146217308
 30
0.0
  9
$LIMMIN
 10
0.0
 20
0.0
  9
$LIMMAX
 10
420.0
 20
297.0
  9
$ORTHOMODE
 70
     0
  9
$REGENMODE
 70
     1
  9
$FILLMODE
 70
     1
  9
$QTEXTMODE
 70
     0
  9
$MIRRTEXT
 70
     0
  9
$LTSCALE
 40
1.0
  9
$ATTMODE
 70
     1
  9
$TEXTSIZE
 40
2.5
  9
$TRACEWID
 40
1.0
  9
$TEXTSTYLE
  7
style1
  9
$CLAYER
  8
Drawing
  9
$CELTYPE
  6
ByLayer
  9
$CECOLOR
 62
   256
  9
$CELTSCALE
 40
1.0
  9
$DISPSILH
 70
     0
  9
$DIMSCALE
 40
1.0
  9
$DIMASZ
 40
2.5
  9
$DIMEXO
 40
0.625
  9
$DIMDLI
 40
3.75
  9
$DIMRND
 40
0.0
  9
$DIMDLE
 40
0.0
  9
$DIMEXE
 40
1.25
  9
$DIMTP
 40
0.0
  9
$DIMTM
 40
0.0
  9
$DIMTXT
 40
2.5
  9
$DIMCEN
 40
2.5
  9
$DIMTSZ
 40
0.0
  9
$DIMTOL
 70
     0
  9
$DIMLIM
 70
     0
  9
$DIMTIH
 70
     0
  9
$DIMTOH
 70
     0
  9
$DIMSE1
 70
     0
  9
$DIMSE2
 70
     0
  9
$DIMTAD
 70
     1
  9
$DIMZIN
 70
     8
  9
$DIMBLK
  1

  9
$DIMASO
 70
     1
  9
$DIMSHO
 70
     1
  9
$DIMPOST
  1

  9
$DIMAPOST
  1

  9
$DIMALT
 70
     0
  9
$DIMALTD
 70
     3
  9
$DIMALTF
 40
0.03937007874016
  9
$DIMLFAC
 40
1.0
  9
$DIMTOFL
 70
     1
  9
$DIMTVP
 40
0.0
  9
$DIMTIX
 70
     0
  9
$DIMSOXD
 70
     0
  9
$DIMSAH
 70
     0
  9
$DIMBLK1
  1

  9
$DIMBLK2
  1

  9
$DIMSTYLE
  2
ISO-25
  9
$DIMCLRD
 70
     0
  9
$DIMCLRE
 70
     0
  9
$DIMCLRT
 70
     0
  9
$DIMTFAC
 40
1.0
  9
$DIMGAP
 40
0.625
  9
$DIMJUST
 70
     0
  9
$DIMSD1
 70
     0
  9
$DIMSD2
 70
     0
  9
$DIMTOLJ
 70
     0
  9
$DIMTZIN
 70
     8
  9
$DIMALTZ
 70
     0
  9
$DIMALTTZ
 70
     0
  9
$DIMUPT
 70
     0
  9
$DIMDEC
 70
     2
  9
$DIMTDEC
 70
     2
  9
$DIMALTU
 70
     2
  9
$DIMALTTD
 70
     3
  9
$DIMTXSTY
  7
Standard
  9
$DIMAUNIT
 70
     0
  9
$DIMADEC
 70
     0
  9
$DIMALTRND
 40
0.0
  9
$DIMAZIN
 70
     0
  9
$DIMDSEP
 70
    44
  9
$DIMATFIT
 70
     3
  9
$DIMFRAC
 70
     0
  9
$DIMLDRBLK
  1

  9
$DIMLUNIT
 70
     2
  9
$DIMLWD
 70
    -2
  9
$DIMLWE
 70
    -2
  9
$DIMTMOVE
 70
     0
  9
$DIMFXL
 40
1.0
  9
$DIMFXLON
 70
     0
  9
$DIMJOGANG
 40
0.7853981633974483
  9
$DIMTFILL
 70
     0
  9
$DIMTFILLCLR
 70
     0
  9
$DIMARCSYM
 70
     0
  9
$DIMLTYPE
  6

  9
$DIMLTEX1
  6

  9
$DIMLTEX2
  6

  9
$DIMTXTDIRECTION
 70
     0
  9
$LUNITS
 70
     2
  9
$LUPREC
 70
     4
  9
$SKETCHINC
 40
1.0
  9
$FILLETRAD
 40
0.0
  9
$AUNITS
 70
     0
  9
$AUPREC
 70
     0
  9
$MENU
  1
.
  9
$ELEVATION
 40
0.0
  9
$PELEVATION
 40
0.0
  9
$THICKNESS
 40
0.0
  9
$LIMCHECK
 70
     0
  9
$CHAMFERA
 40
0.0
  9
$CHAMFERB
 40
0.0
  9
$CHAMFERC
 40
0.0
  9
$CHAMFERD
 40
0.0
  9
$SKPOLY
 70
     0
  9
$TDCREATE
 40
2453286.513989051
  9
$TDUCREATE
 40
2453286.472322384
  9
$TDUPDATE
 40
2457219.626926979
  9
$TDUUPDATE
 40
2457219.585260313
  9
$TDINDWG
 40
0.1633925926
  9
$TDUSRTIMER
 40
0.1633925926
  9
$USRTIMER
 70
     1
  9
$ANGBASE
 50
0.0
  9
$ANGDIR
 70
     0
  9
$PDMODE
 70
     0
  9
$PDSIZE
 40
0.0
  9
$PLINEWID
 40
0.0
  9
$SPLFRAME
 70
     0
  9
$SPLINETYPE
 70
     6
  9
$SPLINESEGS
 70
     8
  9
$HANDSEED
  5
87F
  9
$SURFTAB1
 70
     6
  9
$SURFTAB2
 70
     6
  9
$SURFTYPE
 70
     6
  9
$SURFU
 70
     6
  9
$SURFV
 70
     6
  9
$UCSBASE
  2

  9
$UCSNAME
  2

  9
$UCSORG
 10
0.0
 20
0.0
 30
0.0
  9
$UCSXDIR
 10
1.0
 20
0.0
 30
0.0
  9
$UCSYDIR
 10
0.0
 20
1.0
 30
0.0
  9
$UCSORTHOREF
  2

  9
$UCSORTHOVIEW
 70
     0
  9
$UCSORGTOP
 10
0.0
 20
0.0
 30
0.0
  9
$UCSORGBOTTOM
 10
0.0
 20
0.0
 30
0.0
  9
$UCSORGLEFT
 10
0.0
 20
0.0
 30
0.0
  9
$UCSORGRIGHT
 10
0.0
 20
0.0
 30
0.0
  9
$UCSORGFRONT
 10
0.0
 20
0.0
 30
0.0
  9
$UCSORGBACK
 10
0.0
 20
0.0
 30
0.0
  9
$PUCSBASE
  2

  9
$PUCSNAME
  2

  9
$PUCSORG
 10
0.0
 20
0.0
 30
0.0
  9
$PUCSXDIR
 10
1.0
 20
0.0
 30
0.0
  9
$PUCSYDIR
 10
0.0
 20
1.0
 30
0.0
  9
$PUCSORTHOREF
  2

  9
$PUCSORTHOVIEW
 70
     0
  9
$PUCSORGTOP
 10
0.0
 20
0.0
 30
0.0
  9
$PUCSORGBOTTOM
 10
0.0
 20
0.0
 30
0.0
  9
$PUCSORGLEFT
 10
0.0
 20
0.0
 30
0.0
  9
$PUCSORGRIGHT
 10
0.0
 20
0.0
 30
0.0
  9
$PUCSORGFRONT
 10
0.0
 20
0.0
 30
0.0
  9
$PUCSORGBACK
 10
0.0
 20
0.0
 30
0.0
  9
$USERI1
 70
     0
  9
$USERI2
 70
     0
  9
$USERI3
 70
     0
  9
$USERI4
 70
     0
  9
$USERI5
 70
     0
  9
$USERR1
 40
0.0
  9
$USERR2
 40
0.0
  9
$USERR3
 40
0.0
  9
$USERR4
 40
0.0
  9
$USERR5
 40
0.0
  9
$WORLDVIEW
 70
     1
  9
$SHADEDGE
 70
     3
  9
$SHADEDIF
 70
    70
  9
$TILEMODE
 70
     1
  9
$MAXACTVP
 70
    64
  9
$PINSBASE
 10
0.0
 20
0.0
 30
0.0
  9
$PLIMCHECK
 70
     0
  9
$PEXTMIN
 10
14.01572692706839
 20
20.31999878883363
 30
0.0
  9
$PEXTMAX
 10
247.8463791551347
 20
191.4380026935758
 30
0.0
  9
$PLIMMIN
 10
-3.17498779296875
 20
-7.143749713897705
  9
$PLIMMAX
 10
276.2250061035156
 20
208.7562441825866
  9
$UNITMODE
 70
     0
  9
$VISRETAIN
 70
     1
  9
$PLINEGEN
 70
     0
  9
$PSLTSCALE
 70
     1
  9
$TREEDEPTH
 70
  3020
  9
$CMLSTYLE
  2
Standard
  9
$CMLJUST
 70
     0
  9
$CMLSCALE
 40
20.0
  9
$PROXYGRAPHICS
 70
     1
  9
$MEASUREMENT
 70
     1
  9
$CELWEIGHT
370
    -1
  9
$ENDCAPS
280
     0
  9
$JOINSTYLE
280
     0
  9
$LWDISPLAY
290
     0
  9
$INSUNITS
 70
     4
  9
$HYPERLINKBASE
  1

  9
$STYLESHEET
  1
Grayscale.ctb
  9
$XEDIT
290
     1
  9
$CEPSNTYPE
380
     0
  9
$PSTYLEMODE
290
     1
  9
$FINGERPRINTGUID
  2
{FDEAD578-A652-11D2-9A35-0060089B3A3F}
  9
$VERSIONGUID
  2
{1098C5C0-8595-41AF-A337-2601B16BF0D0}
  9
$EXTNAMES
290
     1
  9
$PSVPSCALE
 40
0.0
  9
$OLESTARTUP
290
     0
  9
$SORTENTS
280
   127
  9
$INDEXCTL
280
     0
  9
$HIDETEXT
280
     1
  9
$XCLIPFRAME
280
     2
  9
$HALOGAP
280
     0
  9
$OBSCOLOR
 70
   257
  9
$OBSLTYPE
280
     0
  9
$INTERSECTIONDISPLAY
280
     0
  9
$INTERSECTIONCOLOR
 70
   257
  9
$DIMASSOC
280
     2
  9
$PROJECTNAME
  1

  9
$CAMERADISPLAY
290
     0
  9
$LENSLENGTH
 40
50.0
  9
$CAMERAHEIGHT
 40
0.0
  9
$STEPSPERSEC
 40
2.0
  9
$STEPSIZE
 40
6.0
  9
$3DDWFPREC
 40
2.0
  9
$PSOLWIDTH
 40
0.25
  9
$PSOLHEIGHT
 40
4.0
  9
$LOFTANG1
 40
1.570796326794897
  9
$LOFTANG2
 40
1.570796326794897
  9
$LOFTMAG1
 40
0.0
  9
$LOFTMAG2
 40
0.0
  9
$LOFTPARAM
 70
     7
  9
$LOFTNORMALS
280
     1
  9
$LATITUDE
 40
37.795
  9
$LONGITUDE
 40
-122.394
  9
$NORTHDIRECTION
 40
0.0
  9
$TIMEZONE
 70
 -8000
  9
$LIGHTGLYPHDISPLAY
280
     1
  9
$TILEMODELIGHTSYNCH
280
     1
  9
$SOLIDHIST
280
     0
  9
$SHOWHIST
280
     1
  9
$DWFFRAME
280
     2
  9
$DGNFRAME
280
     2
  9
$REALWORLDSCALE
290
     1
  9
$INTERFERECOLOR
 62
   256
  9
$CSHADOW
280
     0
  9
$SHADOWPLANELOCATION
 40
0.0
  0
ENDSEC
  0
SECTION
  2
CLASSES
  0
CLASS
  1
ACDBDICTIONARYWDFLT
  2
AcDbDictionaryWithDefault
  3
ObjectDBX Classes
 90
        0
 91
        4
280
     0
281
     0
  0
CLASS
  1
ACDBPLACEHOLDER
  2
AcDbPlaceHolder
  3
ObjectDBX Classes
 90
        0
 91
        1
280
     0
281
     0
  0
CLASS
  1
LAYOUT
  2
AcDbLayout
  3
ObjectDBX Classes
 90
        0
 91
        1
280
     0
281
     0
  0
CLASS
  1
DICTIONARYVAR
  2
AcDbDictionaryVar
  3
ObjectDBX Classes
 90
        0
 91
        4
280
     0
281
     0
  0
CLASS
  1
RASTERVARIABLES
  2
AcDbRasterVariables
  3
ISM
 90
        0
 91
        4
280
     0
281
     0
  0
CLASS
  1
IMAGEDEF
  2
AcDbRasterImageDef
  3
ISM
 90
        0
 91
        4
280
     0
281
     0
  0
CLASS
  1
IMAGEDEF_REACTOR
  2
AcDbRasterImageDefReactor
  3
ISM
 90
        1
 91
        4
280
     0
281
     0
  0
CLASS
  1
IMAGE
  2
AcDbRasterImage
  3
ISM
 90
      127
 91
        5
280
     0
281
     1
  0
CLASS
  1
VISUALSTYLE
  2
AcDbVisualStyle
  3
ObjectDBX Classes
 90
     4095
 91
        4
280
     0
281
     0
  0
CLASS
  1
SCALE
  2
AcDbScale
  3
ObjectDBX Classes
 90
     1153
 91
        4
280
     0
281
     0
  0
CLASS
  1
MATERIAL
  2
AcDbMaterial
  3
ObjectDBX Classes
 90
     1153
 91
        4
280
     0
281
     0
  0
CLASS
  1
TABLESTYLE
  2
AcDbTableStyle
  3
ObjectDBX Classes
 90
     4095
 91
        4
280
     0
281
     0
  0
CLASS
  1
MLEADERSTYLE
  2
AcDbMLeaderStyle
  3
ACDB_MLEADERSTYLE_CLASS
 90
     4095
 91
        4
280
     0
281
     0
  0
CLASS
  1
CELLSTYLEMAP
  2
AcDbCellStyleMap
  3
ObjectDBX Classes
 90
     1152
 91
        4
280
     0
281
     0
  0
ENDSEC
  0
SECTION
  2
TABLES
  0
TABLE
  2
VPORT
  5
8
330
0
100
AcDbSymbolTable
 70
     4
  0
VPORT
  5
803
330
8
100
AcDbSymbolTableRecord
100
AcDbViewportTableRecord
  2
*Active
 70
     0
 10
0.0
 20
0.0
 11
1.0
 21
1.0
 12
943.0987702936849
 22
465.1315548908354
 13
0.0
 23
0.0
 14
10.0
 24
10.0
 15
10.0
 25
10.0
 16
0.0
 26
0.0
 36
1.0
 17
0.0
 27
0.0
 37
0.0
 40
231.5315144961042
 41
2.127208480565371
 42
50.0
 43
0.0
 44
0.0
 50
0.0
 51
0.0
 71
     0
 72
  1000
 73
     1
 74
     3
 75
     0
 76
     0
 77
     0
 78
     0
281
     0
 65
     1
110
0.0
120
0.0
130
0.0
111
1.0
121
0.0
131
0.0
112
0.0
122
1.0
132
0.0
 79
     0
146
0.0
348
809
 60
     3
 61
     5
292
     1
282
     1
141
0.0
142
0.0
 63
   256
  0
ENDTAB
  0
TABLE
  2
LTYPE
  5
5
330
0
100
AcDbSymbolTable
 70
     2
  0
LTYPE
  5
14
330
5
100
AcDbSymbolTableRecord
100
AcDbLinetypeTableRecord
  2
ByBlock
 70
     0
  3

 72
    65
 73
     0
 40
0.0
  0
LTYPE
  5
15
330
5
100
AcDbSymbolTableRecord
100
AcDbLinetypeTableRecord
  2
ByLayer
 70
     0
  3

 72
    65
 73
     0
 40
0.0
  0
LTYPE
  5
16
330
5
100
AcDbSymbolTableRecord
100
AcDbLinetypeTableRecord
  2
Continuous
 70
     0
  3
Solid line
 72
    65
 73
     0
 40
0.0
  0
LTYPE
  5
167
330
5
100
AcDbSymbolTableRecord
100
AcDbLinetypeTableRecord
  2
ACAD_ISO03W100
 70
     0
  3
ISO dash space __    __    __    __    __    __
 72
    65
 73
     2
 40
30.0
 49
12.0
 74
     0
 49
-18.0
 74
     0
  0
ENDTAB
  0
TABLE
  2
LAYER
  5
2
330
0
100
AcDbSymbolTable
 70
     2
  0
LAYER
  5
10
330
2
100
AcDbSymbolTableRecord
100
AcDbLayerTableRecord
  2
0
 70
     0
 62
    -7
  6
Continuous
370
    -3
390
F
347
841
  0
LAYER
  5
88
330
2
100
AcDbSymbolTableRecord
100
AcDbLayerTableRecord
  2
Drawing
 70
     0
 62
     1
  6
Continuous
370
    -3
390
F
347
841
  0
ENDTAB
  0
TABLE
  2
STYLE
  5
3
330
0
100
AcDbSymbolTable
 70
     3
  0
STYLE
  5
11
330
3
100
AcDbSymbolTableRecord
100
AcDbTextStyleTableRecord
  2
Standard
 70
     0
 40
0.0
 41
1.0
 50
0.0
 71
     0
 42
2.5
  3
txt
  4

  0
STYLE
  5
166
330
3
100
AcDbSymbolTableRecord
100
AcDbTextStyleTableRecord
  2

 70
     1
 40
0.0
 41
1.0
 50
0.0
 71
     0
 42
2.5
  3
ltypeshp.shx
  4

  0
STYLE
  5
7E7
330
3
100
AcDbSymbolTableRecord
100
AcDbTextStyleTableRecord
  2
style1
 70
     0
 40
0.0
 41
1.0
 50
0.0
 71
     0
 42
2.5
  3
verdana.TTF
  4

1001
ACAD
1000
Verdana
1071
       34
  0
ENDTAB
  0
TABLE
  2
VIEW
  5
6
330
0
100
AcDbSymbolTable
 70
     0
  0
ENDTAB
  0
TABLE
  2
UCS
  5
7
330
0
100
AcDbSymbolTable
 70
     0
  0
ENDTAB
  0
TABLE
  2
APPID
  5
9
330
0
100
AcDbSymbolTable
 70
     1
  0
APPID
  5
12
330
9
100
AcDbSymbolTableRecord
100
AcDbRegAppTableRecord
  2
ACAD
 70
     0
  0
ENDTAB
  0
TABLE
  2
DIMSTYLE
  5
A
330
0
100
AcDbSymbolTable
 70
     1
100
AcDbDimStyleTable
  0
DIMSTYLE
105
27
330
A
100
AcDbSymbolTableRecord
100
AcDbDimStyleTableRecord
  2
ISO-25
 70
     0
 41
2.5
 42
0.625
 43
3.75
 44
1.25
 73
     0
 74
     0
 77
     1
 78
     8
140
2.5
141
2.5
143
0.03937007874016
147
0.625
171
     3
172
     1
178
     0
271
     2
272
     2
274
     3
278
    44
283
     0
284
     8
340
11
  0
ENDTAB
  0
TABLE
  2
BLOCK_RECORD
  5
1
330
0
100
AcDbSymbolTable
 70
     3
  0
BLOCK_RECORD
  5
1F
330
1
100
AcDbSymbolTableRecord
100
AcDbBlockTableRecord
  2
*Model_Space
340
22
 70
     0
280
     1
281
     0
  0
BLOCK_RECORD
  5
50
330
1
100
AcDbSymbolTableRecord
100
AcDbBlockTableRecord
  2
*Paper_Space
340
51
 70
     0
280
     1
281
     0
  0
BLOCK_RECORD
  5
55
330
1
100
AcDbSymbolTableRecord
100
AcDbBlockTableRecord
  2
*Paper_Space0
340
56
 70
     0
280
     1
281
     0
  0
BLOCK_RECORD
  5
2F9
330
1
100
AcDbSymbolTableRecord
100
AcDbBlockTableRecord
  2
A$C500843F4
340
0
 70
     0
280
     1
281
     0
  0
BLOCK_RECORD
  5
474
330
1
100
AcDbSymbolTableRecord
100
AcDbBlockTableRecord
  2
A$C31F6467C
340
0
 70
     0
280
     1
281
     0
  0
ENDTAB
  0
ENDSEC
  0
SECTION
  2
BLOCKS
  0
BLOCK
  5
20
330
1F
100
AcDbEntity
  8
0
100
AcDbBlockBegin
  2
*Model_Space
 70
     0
 10
0.0
 20
0.0
 30
0.0
  3
*Model_Space
  1

  0
ENDBLK
  5
21
330
1F
100
AcDbEntity
  8
0
100
AcDbBlockEnd
  0
BLOCK
  5
52
330
50
100
AcDbEntity
 67
     1
  8
0
100
AcDbBlockBegin
  2
*Paper_Space
 70
     0
 10
0.0
 20
0.0
 30
0.0
  3
*Paper_Space
  1

  0
ENDBLK
  5
53
330
50
100
AcDbEntity
 67
     1
  8
0
100
AcDbBlockEnd
  0
BLOCK
  5
57
330
55
100
AcDbEntity
  8
0
100
AcDbBlockBegin
  2
*Paper_Space0
 70
     0
 10
0.0
 20
0.0
 30
0.0
  3
*Paper_Space0
  1

  0
ENDBLK
  5
58
330
55
100
AcDbEntity
  8
0
100
AcDbBlockEnd
  0
BLOCK
  5
2FB
330
2F9
100
AcDbEntity
  8
0
100
AcDbBlockBegin
  2
A$C500843F4
 70
     0
 10
0.0
 20
0.0
 30
0.0
  3
A$C500843F4
  1

  0
LWPOLYLINE
  5
2FA
330
2F9
100
AcDbEntity
  8
Drawing
  6
ACAD_ISO03W100
100
AcDbPolyline
 90
        6
 70
     1
 43
0.0
 10
0.0
 20
0.3366736916999571
 10
0.1342469013924301
 20
0.0
 10
0.8075056366951685
 20
0.0
 10
1.009483938189192
 20
0.538140269346286
 10
0.1684827210415278
 20
0.572345758412439
 10
0.1684827210415278
 20
0.572345758412439
  0
ENDBLK
  5
2FC
330
2F9
100
AcDbEntity
  8
0
100
AcDbBlockEnd
  0
BLOCK
  5
476
330
474
100
AcDbEntity
  8
0
100
AcDbBlockBegin
  2
A$C31F6467C
 70
     0
 10
0.0
 20
0.0
 30
0.0
  3
A$C31F6467C
  1

  0
LWPOLYLINE
  5
475
330
474
100
AcDbEntity
  8
Drawing
  6
ACAD_ISO03W100
100
AcDbPolyline
 90
        8
 70
     1
 43
0.0
 10
0.4438711564454252
 20
0.7539270446878845
 10
0.7989680816017426
 20
0.8426243440628696
 10
1.198452122402728
 20
0.487835146562702
 10
1.154065006758174
 20
0.1773945987500838
 10
0.4882582720899791
 20
0.0
 10
0.2663226938673233
 20
0.0443486496875494
 10
0.0
 20
0.3991378471877169
 10
0.0887742312891078
 20
0.6652297453127858
  0
ENDBLK
  5
477
330
474
100
AcDbEntity
  8
0
100
AcDbBlockEnd
  0
ENDSEC
  0
SECTION
  2
ENTITIES
  0
IMAGE
  5
85
330
1F
100
AcDbEntity
  8
0
 62
     7
160
               140
310
8C00000001000000840000000600000005000000B8C324E1BDD08540E458E1A3408276400000000000000000E9CBD0FD17D58E40E458E1A3408276400000000000000000E9CBD0FD17D58E40A242EDB4E9D081400000000000000000B8C324E1BDD08540A242EDB4E9D081400000000000000000B8C324E1BDD08540E458E1
310
A3408276400000000000000000
100
AcDbRasterImage
 90
        0
 10
698.0927145836094
 20
360.1407812883974
 30
0.0
 11
0.08466666666666667
 21
0.0
 31
0.0
 12
5.184166897848064E-18
 22
0.08466666666666667
 32
0.0
 13
3408.0
 23
2480.0
340
83
 70
     7
280
     0
281
    50
282
    50
283
     0
360
84
 71
     1
 91
        2
 14
-0.5
 24
-0.5
 14
3407.5
 24
2479.5
290
     0
  0
LWPOLYLINE
  5
8F
330
1F
100
AcDbEntity
  8
Drawing
 62
     7
100
AcDbPolyline
 90
       22
 70
     0
 43
0.0
 10
720.4900309055358
 20
544.2935012303147
 10
732.1303992664267
 20
543.4627667785875
 10
745.5376096443489
 20
542.3205066393945
 10
756.8661826412693
 20
541.4897721876673
 10
772.3520294274743
 20
540.65903773594
 10
783.5766703121649
 20
540.4513541230083
 10
792.3069473123724
 20
540.1398284355425
 10
794.5934479451148
 20
540.2436705100765
 10
798.7071254393417
 20
540.1398284355425
 10
800.6818307081136
 20
539.6206196712811
 10
813.6733136098354
 20
539.7244612096789
 10
828.7434329198401
 20
539.4129360583493
 10
846.203985947536
 20
538.5822016066221
 10
868.9650640536067
 20
538.4783595320881
 10
875.5127705878635
 20
538.7898852195539
 10
896.6971499057277
 20
537.9591507678267
 10
917.8992492465079
 20
537.8553086932927
 10
936.3991204783451
 20
537.4399414674291
 10
946.2591863360046
 20
537.0245742415655
 10
955.613053091434
 20
537.1284163160994
 10
964.1354658671817
 20
537.3360999290313
 10
969.2281276938158
 20
537.4399414674291
  0
LWPOLYLINE
  5
90
330
1F
100
AcDbEntity
  8
Drawing
 62
     7
100
AcDbPolyline
 90
        8
 70
     0
 43
0.0
 10
720.7145675344956
 20
544.3973427687125
 10
721.5460224868963
 20
546.8895461238942
 10
721.8578188235858
 20
544.3973427687125
 10
722.2735462997862
 20
545.4357608333715
 10
722.4814095515268
 20
545.5396029079055
 10
722.4814095515268
 20
544.8127099945762
 10
722.7932049154973
 20
544.7088684561784
 10
723.1050002794678
 20
544.2935012303147
  0
LWPOLYLINE
  5
97
330
1F
100
AcDbEntity
  8
Drawing
 62
     7
100
AcDbPolyline
 90
        8
 70
     0
 43
0.0
 10
726.6386843135303
 20
543.8781334683149
 10
727.470139265931
 20
546.3703368234966
 10
727.7819356026206
 20
543.8781334683149
 10
728.1976630788209
 20
544.9165515329739
 10
728.4055263305615
 20
545.0203936075079
 10
728.4055263305615
 20
544.2935006941785
 10
728.7173216945321
 20
544.1896591557808
 10
729.0291170585026
 20
543.7742919299171
  0
LWPOLYLINE
  5
9D
330
1F
100
AcDbEntity
  8
Drawing
 62
     7
100
AcDbPolyline
 90
        8
 70
     0
 43
0.0
 10
732.7706643443059
 20
543.6704498553831
 10
733.6021192967066
 20
546.1626532105648
 10
733.9139156333962
 20
543.6704498553831
 10
734.3296431095965
 20
544.7088679200422
 10
734.5375063613371
 20
544.8127099945762
 10
734.5375063613371
 20
544.0858170812468
 10
734.8493017253077
 20
543.981975542849
 10
735.1610970892782
 20
543.5666083169854
  0
LWPOLYLINE
  5
A3
330
1F
100
AcDbEntity
  8
Drawing
 62
     7
100
AcDbPolyline
 90
        8
 70
     0
 43
0.0
 10
738.7987122628515
 20
543.0473990165877
 10
739.6301672152522
 20
545.5396023717694
 10
739.9419635519417
 20
543.0473990165877
 10
740.3576910281421
 20
544.0858170812468
 10
740.5655542798827
 20
544.1896591557808
 10
740.5655542798827
 20
543.4627662424514
 10
740.8773496438532
 20
543.3589247040536
 10
741.1891450078238
 20
542.94355747819
  0
LWPOLYLINE
  5
A9
330
1F
100
AcDbEntity
  8
Drawing
 62
     7
100
AcDbPolyline
 90
        8
 70
     0
 43
0.0
 10
746.1778737495091
 20
542.4243481777922
 10
747.0093287019098
 20
544.9165515329739
 10
747.3211250385993
 20
542.4243481777922
 10
747.7368525147997
 20
543.4627662424513
 10
747.9447157665403
 20
543.5666083169853
 10
747.9447157665403
 20
542.8397154036559
 10
748.2565111305108
 20
542.7358738652581
 10
748.5683064944814
 20
542.3205066393945
  0
LWPOLYLINE
  5
AF
330
1F
100
AcDbEntity
  8
Drawing
 62
     7
100
AcDbPolyline
 90
        8
 70
     0
 43
0.0
 10
753.1413087326853
 20
541.9051388773947
 10
753.972763685086
 20
544.3973422325764
 10
754.2845600217755
 20
541.9051388773947
 10
754.7002874979759
 20
542.9435569420538
 10
754.9081507497165
 20
543.0473990165877
 10
754.9081507497165
 20
542.3205061032584
 10
755.219946113687
 20
542.2166645648606
 10
755.5317414776575
 20
541.801297338997
  0
LWPOLYLINE
  5
B5
330
1F
100
AcDbEntity
  8
Drawing
 62
     7
100
AcDbPolyline
 90
        8
 70
     0
 43
0.0
 10
759.5850841274313
 20
541.5936137260651
 10
760.416539079832
 20
544.0858170812468
 10
760.7283354165215
 20
541.5936137260651
 10
761.1440628927219
 20
542.6320317907241
 10
761.3519261444625
 20
542.7358738652581
 10
761.3519261444625
 20
542.0089809519287
 10
761.663721508433
 20
541.905139413531
 10
761.9755168724035
 20
541.4897721876673
  0
LWPOLYLINE
  5
BB
330
1F
100
AcDbEntity
  8
Drawing
 62
     7
100
AcDbPolyline
 90
        8
 70
     0
 43
0.0
 10
765.3013366820064
 20
541.1782465002015
 10
766.1327916344071
 20
543.6704498553831
 10
766.4445879710967
 20
541.1782465002015
 10
766.860315447297
 20
542.2166645648605
 10
767.0681786990376
 20
542.3205066393945
 10
767.0681786990376
 20
541.5936137260651
 10
767.3799740630081
 20
541.4897721876673
 10
767.6917694269787
 20
541.0744049618037
  0
LWPOLYLINE
  5
C1
330
1F
100
AcDbEntity
  8
Drawing
 62
     7
100
AcDbPolyline
 90
        8
 70
     0
 43
0.0
 10
771.7451120767524
 20
540.8667208127357
 10
772.5765670291531
 20
543.3589241679174
 10
772.8883633658427
 20
540.8667208127357
 10
773.304090842043
 20
541.9051388773947
 10
773.5119540937836
 20
542.0089809519287
 10
773.5119540937836
 20
541.2820880385993
 10
773.8237494577542
 20
541.1782465002016
 10
774.1355448217247
 20
540.7628792743379
  0
LWPOLYLINE
  5
C7
330
1F
100
AcDbEntity
  8
Drawing
 62
     7
100
AcDbPolyline
 90
        8
 70
     0
 43
0.0
 10
777.9810232470387
 20
540.6590371998038
 10
778.8124781994394
 20
543.1512405549855
 10
779.124274536129
 20
540.6590371998038
 10
779.5400020123293
 20
541.6974552644629
 10
779.7478652640699
 20
541.8012973389968
 10
779.7478652640699
 20
541.0744044256675
 10
780.0596606280404
 20
540.9705628872697
 10
780.371455992011
 20
540.5551956614061
  0
LWPOLYLINE
  5
CD
330
1F
100
AcDbEntity
  8
Drawing
 62
     7
100
AcDbPolyline
 90
        8
 70
     0
 43
0.0
 10
784.5287307540145
 20
540.4513535868721
 10
785.3601857064152
 20
542.9435569420538
 10
785.6719820431048
 20
540.4513535868721
 10
786.0877095193051
 20
541.4897716515311
 10
786.2955727710457
 20
541.5936137260651
 10
786.2955727710457
 20
540.8667208127357
 10
786.6073681350163
 20
540.7628792743379
 10
786.9191634989868
 20
540.3475120484743
  0
LWPOLYLINE
  5
D3
330
1F
100
AcDbEntity
  8
Drawing
 62
     7
100
AcDbPolyline
 90
        8
 70
     0
 43
0.0
 10
790.5567786725602
 20
540.2436699739403
 10
791.3882336249609
 20
542.735873329122
 10
791.7000299616504
 20
540.2436699739403
 10
792.1157574378508
 20
541.2820880385993
 10
792.3236206895914
 20
541.3859301131333
 10
792.3236206895914
 20
540.659037199804
 10
792.6354160535619
 20
540.5551956614062
 10
792.9472114175325
 20
540.1398284355425
  0
LWPOLYLINE
  5
D9
330
1F
100
AcDbEntity
  8
Drawing
 62
     7
100
AcDbPolyline
 90
        8
 70
     0
 43
0.0
 10
797.1296825210627
 20
540.3475120484743
 10
797.9611374734634
 20
542.839715403656
 10
798.272933810153
 20
540.3475120484743
 10
798.6886612863533
 20
541.3859301131333
 10
798.8965245380939
 20
541.4897721876673
 10
798.8965245380939
 20
540.7628792743379
 10
799.2083199020644
 20
540.6590377359402
 10
799.520115266035
 20
540.2436705100765
  0
LWPOLYLINE
  5
DF
330
1F
100
AcDbEntity
  8
Drawing
 62
     7
100
AcDbPolyline
 90
        8
 70
     0
 43
0.0
 10
804.612777092669
 20
539.8283027480767
 10
805.4442320450697
 20
542.3205061032584
 10
805.7560283817593
 20
539.8283027480767
 10
806.1717558579596
 20
540.8667208127357
 10
806.3796191097002
 20
540.9705628872697
 10
806.3796191097002
 20
540.2436699739403
 10
806.6914144736708
 20
540.1398284355425
 10
807.0032098376413
 20
539.7244612096789
  0
LWPOLYLINE
  5
E5
330
1F
100
AcDbEntity
  8
Drawing
 62
     7
100
AcDbPolyline
 90
        8
 70
     0
 43
0.0
 10
812.1998028037863
 20
539.8283027480767
 10
813.031257756187
 20
542.3205061032584
 10
813.3430540928765
 20
539.8283027480767
 10
813.7587815690769
 20
540.8667208127357
 10
813.9666448208175
 20
540.9705628872697
 10
813.9666448208175
 20
540.2436699739403
 10
814.278440184788
 20
540.1398284355425
 10
814.5902355487585
 20
539.7244612096789
  0
LWPOLYLINE
  5
EB
330
1F
100
AcDbEntity
  8
Drawing
 62
     7
100
AcDbPolyline
 90
        8
 70
     0
 43
0.0
 10
820.098623878874
 20
539.7244612096789
 10
820.9300788312747
 20
542.2166645648606
 10
821.2418751679643
 20
539.7244612096789
 10
821.6576026441646
 20
540.7628792743379
 10
821.8654658959052
 20
540.8667213488719
 10
821.8654658959052
 20
540.1398284355425
 10
822.1772612598758
 20
540.0359868971448
 10
822.4890566238463
 20
539.6206196712811
  0
LWPOLYLINE
  5
F1
330
1F
100
AcDbEntity
  8
Drawing
 62
     7
100
AcDbPolyline
 90
        8
 70
     0
 43
0.0
 10
827.26992308651
 20
539.6206191351449
 10
828.1013780389106
 20
542.1128224903266
 10
828.4131743756002
 20
539.6206191351449
 10
828.8289018518005
 20
540.659037199804
 10
829.0367651035411
 20
540.7628792743379
 10
829.0367651035411
 20
540.0359863610086
 10
829.3485604675117
 20
539.9321448226108
 10
829.6603558314822
 20
539.5167775967471
  0
LWPOLYLINE
  5
F7
330
1F
100
AcDbEntity
  8
Drawing
 62
     7
100
AcDbPolyline
 90
        8
 70
     0
 43
0.0
 10
834.7452368784433
 20
539.412935522213
 10
835.576691830844
 20
541.9051388773947
 10
835.8884881675335
 20
539.412935522213
 10
836.3042156437339
 20
540.4513535868721
 10
836.5120788954745
 20
540.5551956614061
 10
836.5120788954745
 20
539.8283027480767
 10
836.823874259445
 20
539.7244612096789
 10
837.1356696234155
 20
539.3090939838153
  0
LWPOLYLINE
  5
FD
330
1F
100
AcDbEntity
  8
Drawing
 62
     7
100
AcDbPolyline
 90
        8
 70
     0
 43
0.0
 10
842.7479900657609
 20
538.9975682963494
 10
843.5794450181616
 20
541.4897716515311
 10
843.8912413548511
 20
538.9975682963494
 10
844.3069688310514
 20
540.0359863610084
 10
844.514832082792
 20
540.1398284355424
 10
844.514832082792
 20
539.412935522213
 10
844.8266274467626
 20
539.3090939838153
 10
845.1384228107331
 20
538.8937267579516
  0
LWPOLYLINE
  5
103
330
1F
100
AcDbEntity
  8
Drawing
 62
     7
100
AcDbPolyline
 90
        8
 70
     0
 43
0.0
 10
850.8546753653084
 20
538.6860431450199
 10
851.6861303177091
 20
541.1782465002016
 10
851.9979266543986
 20
538.6860431450199
 10
852.413654130599
 20
539.7244612096789
 10
852.6215173823396
 20
539.8283032842129
 10
852.6215173823396
 20
539.1014103708835
 10
852.9333127463101
 20
538.9975688324857
 10
853.2451081102806
 20
538.5822016066221
  0
LWPOLYLINE
  5
109
330
1F
100
AcDbEntity
  8
Drawing
 62
     7
100
AcDbPolyline
 90
        8
 70
     0
 43
0.0
 10
857.9220414879953
 20
538.478359532088
 10
858.753496440396
 20
540.9705628872697
 10
859.0652927770856
 20
538.478359532088
 10
859.4810202532859
 20
539.516777596747
 10
859.6888835050265
 20
539.620619671281
 10
859.6888835050265
 20
538.8937267579516
 10
860.000678868997
 20
538.7898852195539
 10
860.3124742329676
 20
538.3745179936902
  0
LWPOLYLINE
  5
10F
330
1F
100
AcDbEntity
  8
Drawing
 62
     7
100
AcDbPolyline
 90
        8
 70
     0
 43
0.0
 10
865.0933406956312
 20
538.478359532088
 10
865.9247956480319
 20
540.9705628872697
 10
866.2365919847215
 20
538.478359532088
 10
866.6523194609218
 20
539.516777596747
 10
866.8601827126624
 20
539.620619671281
 10
866.8601827126624
 20
538.8937267579516
 10
867.171978076633
 20
538.7898852195539
 10
867.4837734406035
 20
538.3745179936902
  0
LWPOLYLINE
  5
115
330
1F
100
AcDbEntity
  8
Drawing
 62
     7
100
AcDbPolyline
 90
        8
 70
     0
 43
0.0
 10
871.8489114543477
 20
538.5822010704859
 10
872.6803664067484
 20
541.0744044256676
 10
872.9921627434379
 20
538.5822010704859
 10
873.4078902196383
 20
539.6206191351449
 10
873.6157534713789
 20
539.7244612096789
 10
873.6157534713789
 20
538.9975682963495
 10
873.9275488353494
 20
538.8937267579518
 10
874.2393441993199
 20
538.4783595320881
  0
LWPOLYLINE
  5
11B
330
1F
100
AcDbEntity
  8
Drawing
 62
     7
100
AcDbPolyline
 90
        8
 70
     0
 43
0.0
 10
878.3966189613236
 20
538.7898846834177
 10
879.2280739137243
 20
541.2820880385993
 10
879.5398702504139
 20
538.7898846834177
 10
879.9555977266142
 20
539.8283027480767
 10
880.1634609783548
 20
539.9321448226107
 10
880.1634609783548
 20
539.2052519092813
 10
880.4752563423253
 20
539.1014103708835
 10
880.7870517062959
 20
538.6860431450199
  0
LWPOLYLINE
  5
121
330
1F
100
AcDbEntity
  8
Drawing
 62
     7
100
AcDbPolyline
 90
        8
 70
     0
 43
0.0
 10
885.5209241662637
 20
538.374517457554
 10
886.3523791186644
 20
540.8667208127357
 10
886.664175455354
 20
538.374517457554
 10
887.0799029315543
 20
539.412935522213
 10
887.2877661832949
 20
539.516777596747
 10
887.2877661832949
 20
538.7898846834177
 10
887.5995615472655
 20
538.6860431450199
 10
887.911356911236
 20
538.2706759191562
  0
LWPOLYLINE
  5
127
330
1F
100
AcDbEntity
  8
Drawing
 62
     7
100
AcDbPolyline
 90
        8
 70
     0
 43
0.0
 10
892.38042703721
 20
538.2706759191562
 10
893.2118819896107
 20
540.7628792743379
 10
893.5236783263002
 20
538.2706759191562
 10
893.9394058025006
 20
539.3090939838153
 10
894.1472690542412
 20
539.4129360583493
 10
894.1472690542412
 20
538.6860431450199
 10
894.4590644182117
 20
538.5822016066221
 10
894.7708597821822
 20
538.1668343807585
  0
LWPOLYLINE
  5
12D
330
1F
100
AcDbEntity
  8
Drawing
 62
     7
100
AcDbPolyline
 90
        8
 70
     0
 43
0.0
 10
899.8635206360973
 20
538.0629923062245
 10
900.694975588498
 20
540.5551956614062
 10
901.0067719251875
 20
538.0629923062245
 10
901.4224994013879
 20
539.1014103708835
 10
901.6303626531285
 20
539.2052524454175
 10
901.6303626531285
 20
538.4783595320881
 10
901.942158017099
 20
538.3745179936903
 10
902.2539533810696
 20
537.9591507678267
  0
LWPOLYLINE
  5
133
330
1F
100
AcDbEntity
  8
Drawing
 62
     7
100
AcDbPolyline
 90
        8
 70
     0
 43
0.0
 10
906.2033639186136
 20
537.9591502316905
 10
907.0348188710143
 20
540.4513535868722
 10
907.3466152077038
 20
537.9591502316905
 10
907.7623426839042
 20
538.9975682963495
 10
907.9702059356448
 20
539.1014103708835
 10
907.9702059356448
 20
538.3745174575541
 10
908.2820012996153
 20
538.2706759191564
 10
908.5937966635859
 20
537.8553086932927
  0
LWPOLYLINE
  5
139
330
1F
100
AcDbEntity
  8
Drawing
 62
     7
100
AcDbPolyline
 90
        8
 70
     0
 43
0.0
 10
913.3746621535304
 20
537.9591502316905
 10
914.2061171059311
 20
540.4513535868722
 10
914.5179134426206
 20
537.9591502316905
 10
914.933640918821
 20
538.9975682963495
 10
915.1415041705616
 20
539.1014103708835
 10
915.1415041705616
 20
538.3745174575541
 10
915.4532995345321
 20
538.2706759191564
 10
915.7650948985026
 20
537.8553086932927
  0
LWPOLYLINE
  5
13F
330
1F
100
AcDbEntity
  8
Drawing
 62
     7
100
AcDbPolyline
 90
        8
 70
     0
 43
0.0
 10
919.8184385209954
 20
537.9591502316905
 10
920.6498934733961
 20
540.4513535868722
 10
920.9616898100857
 20
537.9591502316905
 10
921.377417286286
 20
538.9975682963495
 10
921.5852805380266
 20
539.1014103708835
 10
921.5852805380266
 20
538.3745174575541
 10
921.8970759019971
 20
538.2706759191564
 10
922.2088712659677
 20
537.8553086932927
  0
LWPOLYLINE
  5
145
330
1F
100
AcDbEntity
  8
Drawing
 62
     7
100
AcDbPolyline
 90
        8
 70
     0
 43
0.0
 10
927.4070701912626
 20
537.6476250803609
 10
928.2385251436633
 20
540.1398284355425
 10
928.5503214803529
 20
537.6476250803609
 10
928.9660489565532
 20
538.6860431450199
 10
929.1739122082938
 20
538.7898852195539
 10
929.1739122082938
 20
538.0629923062245
 10
929.4857075722643
 20
537.9591507678267
 10
929.7975029362349
 20
537.5437835419631
  0
LWPOLYLINE
  5
14B
330
1F
100
AcDbEntity
  8
Drawing
 62
     7
100
AcDbPolyline
 90
        8
 70
     0
 43
0.0
 10
935.4098233785801
 20
537.6476250803609
 10
936.2412783309808
 20
540.1398284355425
 10
936.5530746676703
 20
537.6476250803609
 10
936.9688021438707
 20
538.6860431450199
 10
937.1766653956113
 20
538.7898852195539
 10
937.1766653956113
 20
538.0629923062245
 10
937.4884607595818
 20
537.9591507678267
 10
937.8002561235523
 20
537.5437835419631
  0
LWPOLYLINE
  5
151
330
1F
100
AcDbEntity
  8
Drawing
 62
     7
100
AcDbPolyline
 90
        8
 70
     0
 43
0.0
 10
944.6597589944988
 20
537.2322578544972
 10
945.4912139468995
 20
539.7244612096789
 10
945.8030102835891
 20
537.2322578544972
 10
946.2187377597894
 20
538.2706759191562
 10
946.42660101153
 20
538.3745179936902
 10
946.42660101153
 20
537.6476250803609
 10
946.7383963755005
 20
537.5437835419631
 10
947.0501917394711
 20
537.1284163160994
  0
LWPOLYLINE
  5
157
330
1F
100
AcDbEntity
  8
Drawing
 62
     7
100
AcDbPolyline
 90
        8
 70
     0
 43
0.0
 10
952.6641181409664
 20
537.3360993928951
 10
953.495573093367
 20
539.8283027480768
 10
953.8073694300566
 20
537.3360993928951
 10
954.223096906257
 20
538.3745174575541
 10
954.4309601579976
 20
538.4783595320881
 10
954.4309601579976
 20
537.7514666187587
 10
954.7427555219681
 20
537.647625080361
 10
955.0545508859386
 20
537.2322578544973
  0
LWPOLYLINE
  5
15E
330
1F
100
AcDbEntity
  8
Drawing
 62
     7
100
AcDbPolyline
 90
        8
 70
     0
 43
0.0
 10
960.562939216054
 20
537.4399414674291
 10
961.3943941684547
 20
539.9321448226108
 10
961.7061905051443
 20
537.4399414674291
 10
962.1219179813446
 20
538.4783595320881
 10
962.3297812330852
 20
538.5822016066221
 10
962.3297812330852
 20
537.8553086932927
 10
962.6415765970557
 20
537.751467154895
 10
962.9533719610263
 20
537.3360999290313
  0
LWPOLYLINE
  5
164
330
1F
100
AcDbEntity
  8
Drawing
 62
     7
100
AcDbPolyline
 90
        8
 70
     0
 43
0.0
 10
967.0067146108001
 20
537.5437830058269
 10
967.8381695632008
 20
540.0359863610086
 10
968.1499658998904
 20
537.5437830058269
 10
968.5656933760907
 20
538.5822010704859
 10
968.7735566278313
 20
538.6860431450199
 10
968.7735566278313
 20
537.9591502316905
 10
969.0853519918019
 20
537.8553086932927
 10
969.3971473557724
 20
537.4399414674291
  0
LWPOLYLINE
  5
168
330
1F
100
AcDbEntity
  8
Drawing
  6
ACAD_ISO03W100
 62
     7
 48
0.15
100
AcDbPolyline
 90
       24
 70
     0
 43
0.0
 10
720.1243245337118
 20
539.6206196712811
 10
728.9585326734301
 20
538.7898852195539
 10
740.9106963982916
 20
538.3745179936902
 10
751.615678667271
 20
537.6476250803609
 10
758.5791136504472
 20
537.5437835419631
 10
771.6745276916798
 20
536.7130490902358
 10
783.9384877532309
 20
536.2976818643723
 10
789.4468760833463
 20
536.6092070157018
 10
799.5282666516657
 20
535.6746310255769
 10
804.51699636607
 20
535.7784725639747
 10
815.6701881184534
 20
535.8823146385087
 10
828.4538077684347
 20
535.5707889510429
 10
837.5998112721234
 20
535.1554217251793
 10
849.7598392214445
 20
535.363105338111
 10
861.9198671707657
 20
534.8438965738496
 10
869.6108249941128
 20
534.6362129609179
 10
876.6781911167998
 20
534.428529347986
 10
889.1713218408602
 20
533.8054785091906
 10
905.384692439955
 20
533.5977948962588
 10
923.1570408316213
 20
533.0785855958612
 10
939.8900700464274
 20
532.7670604445316
 10
956.0287805676344
 20
532.9747440574635
 10
964.7590575678419
 20
532.9747440574635
 10
969.2281276938158
 20
533.2862692087931
  0
LWPOLYLINE
  5
169
330
1F
100
AcDbEntity
  8
Drawing
 62
     7
100
AcDbPolyline
 90
        6
 70
     1
 43
0.0
 10
729.1273684914863
 20
522.1751956488736
 10
729.5430959676867
 20
522.798246487669
 10
728.8155731275158
 20
523.1097721751347
 10
728.5037767908262
 20
522.798246487669
 10
728.1919814268557
 20
522.5905628747372
 10
728.5037767908262
 20
522.2790377234076
  0
LWPOLYLINE
  5
16A
330
1F
100
AcDbEntity
  8
Drawing
 62
     7
100
AcDbPolyline
 90
        6
 70
     1
 43
0.0
 10
757.0850385909829
 20
517.2946310130443
 10
757.9164935433836
 20
518.1253654647716
 10
758.2282898800731
 20
518.5407326906351
 10
758.7479484957844
 20
518.0215233902376
 10
758.7479484957844
 20
517.7099982389079
 10
758.4361531318139
 20
517.3984725514421
  0
LWPOLYLINE
  5
16B
330
1F
100
AcDbEntity
  8
Drawing
 62
     7
100
AcDbPolyline
 90
        6
 70
     1
 43
0.0
 10
774.2337962547083
 20
524.0443481652597
 10
774.5455916186788
 20
524.2520317781916
 10
775.0652512071091
 20
524.3558738527256
 10
775.2731144588497
 20
524.1481902397937
 10
775.2731144588497
 20
523.7328230139302
 10
774.7534558431386
 20
523.7328230139302
  0
LWPOLYLINE
  5
16C
330
1F
100
AcDbEntity
  8
Drawing
 62
     7
100
AcDbPolyline
 90
        5
 70
     1
 43
0.0
 10
753.0316959412093
 20
524.0443481652597
 10
753.0316959412093
 20
524.4597153911234
 10
752.512037325498
 20
524.3558738527256
 10
752.512037325498
 20
524.0443481652597
 10
752.8238326894685
 20
523.940506626862
  0
LWPOLYLINE
  5
173
330
1F
100
AcDbEntity
  8
Drawing
 62
     7
100
AcDbPolyline
 90
        5
 70
     1
 43
0.0
 10
758.332221019584
 20
530.7940658536114
 10
758.332221019584
 20
531.209433079475
 10
757.8125624038728
 20
531.1055915410773
 10
757.8125624038728
 20
530.7940658536114
 10
758.1243577678433
 20
530.6902243152136
  0
LWPOLYLINE
  5
179
330
1F
100
AcDbEntity
  8
Drawing
 62
     7
100
AcDbPolyline
 90
        5
 70
     1
 43
0.0
 10
757.6046972066941
 20
519.8906759066238
 10
757.6046972066941
 20
520.3060431324874
 10
757.0850385909829
 20
520.2022015940896
 10
757.0850385909829
 20
519.8906759066238
 10
757.3968339549534
 20
519.786834368226
  0
LWPOLYLINE
  5
17F
330
1F
100
AcDbEntity
  8
Drawing
 62
     7
100
AcDbPolyline
 90
        5
 70
     1
 43
0.0
 10
787.433141435452
 20
515.21779434759
 10
787.433141435452
 20
515.6331615734537
 10
786.9134828197407
 20
515.5293200350559
 10
786.9134828197407
 20
515.21779434759
 10
787.2252781837112
 20
515.1139528091923
  0
LWPOLYLINE
  5
185
330
1F
100
AcDbEntity
  8
Drawing
 62
     7
100
AcDbPolyline
 90
        5
 70
     1
 43
0.0
 10
791.7982804219151
 20
524.8750826169869
 10
791.7982804219151
 20
525.2904498428505
 10
791.2786218062039
 20
525.1866083044528
 10
791.2786218062039
 20
524.8750826169869
 10
791.5904171701744
 20
524.7712410785891
  0
LWPOLYLINE
  5
18B
330
1F
100
AcDbEntity
  8
Drawing
 62
     7
100
AcDbPolyline
 90
        5
 70
     1
 43
0.0
 10
801.513099871176
 20
528.0941783493618
 10
801.513099871176
 20
528.5095455752254
 10
800.9934412554647
 20
528.4057040368276
 10
800.9934412554647
 20
528.0941783493618
 10
801.3052366194353
 20
527.990336810964
  0
LWPOLYLINE
  5
191
330
1F
100
AcDbEntity
  8
Drawing
 62
     7
100
AcDbPolyline
 90
        5
 70
     1
 43
0.0
 10
829.7825663073622
 20
526.0173422200438
 10
829.7825663073622
 20
526.4327094459074
 10
829.262907691651
 20
526.3288679075097
 10
829.262907691651
 20
526.0173422200438
 10
829.5747030556215
 20
525.913500681646
  0
LWPOLYLINE
  5
197
330
1F
100
AcDbEntity
  8
Drawing
 62
     7
100
AcDbPolyline
 90
        5
 70
     1
 43
0.0
 10
834.5634317973067
 20
520.4098846708852
 10
834.5634317973067
 20
520.8252518967488
 10
834.0437731815955
 20
520.721410358351
 10
834.0437731815955
 20
520.4098846708852
 10
834.355568545566
 20
520.3060431324874
  0
LWPOLYLINE
  5
19D
330
1F
100
AcDbEntity
  8
Drawing
 62
     7
100
AcDbPolyline
 90
        5
 70
     1
 43
0.0
 10
836.2263417021081
 20
520.3060431324873
 10
836.2263417021081
 20
520.7214103583509
 10
835.7066830863969
 20
520.6175688199531
 10
835.7066830863969
 20
520.3060431324873
 10
836.0184784503674
 20
520.2022015940895
  0
LWPOLYLINE
  5
1A3
330
1F
100
AcDbEntity
  8
Drawing
 62
     7
100
AcDbPolyline
 90
        5
 70
     1
 43
0.0
 10
819.2854482628425
 20
519.3714666062261
 10
819.2854482628425
 20
519.7868338320898
 10
818.7657896471312
 20
519.682992293692
 10
818.7657896471312
 20
519.3714666062261
 10
819.0775850111017
 20
519.2676250678284
  0
LWPOLYLINE
  5
1A5
330
1F
100
AcDbEntity
  8
Drawing
 62
     7
100
AcDbPolyline
 90
        6
 70
     1
 43
0.0
 10
800.8081917761756
 20
526.1062234141328
 10
801.5160929276898
 20
526.3634186682835
 10
801.7735113513824
 20
526.6206139224344
 10
801.3873837158435
 20
527.2636025939476
 10
800.6151284447657
 20
527.0707061533344
 10
800.6151284447657
 20
526.6206139224344
  0
LWPOLYLINE
  5
1A6
330
1F
100
AcDbEntity
  8
Drawing
 62
     7
100
AcDbPolyline
 90
        6
 70
     1
 43
0.0
 10
804.3476955883084
 20
519.4191430532591
 10
803.9615679527694
 20
518.9690513584951
 10
803.9615679527694
 20
518.326062686982
 10
804.412049707872
 20
518.326062686982
 10
804.7981773434109
 20
518.7118561043444
 10
804.4764048001547
 20
519.2905454261836
  0
LWPOLYLINE
  5
1A7
330
1F
100
AcDbEntity
  8
Drawing
 62
     7
100
AcDbPolyline
 90
        7
 70
     1
 43
0.0
 10
811.8771849676765
 20
521.0266144639738
 10
812.4563759346253
 20
521.3481085316623
 10
812.9712127820105
 20
521.2838097181246
 10
813.0999219938568
 20
521.2195109045869
 10
813.0999219938568
 20
519.9978329112345
 10
812.5850851464717
 20
519.9978329112345
 10
812.0058941795228
 20
520.7051203962853
  0
LWPOLYLINE
  5
1A8
330
1F
100
AcDbEntity
  8
Drawing
 62
     7
100
AcDbPolyline
 90
        6
 70
     1
 43
0.0
 10
826.1639074826159
 20
516.5256948356541
 10
825.6490706352307
 20
516.4613960221164
 10
825.5847165156671
 20
515.7541090732018
 10
825.7134257275134
 20
515.6255109099901
 10
826.2926166944621
 20
515.8184078867395
 10
826.1639074826159
 20
516.2042007679656
  0
LWPOLYLINE
  5
1A9
330
1F
100
AcDbEntity
  8
Drawing
 62
     7
100
AcDbPolyline
 90
        7
 70
     1
 43
0.0
 10
850.4899494942858
 20
518.0045686192935
 10
850.8117230102612
 20
518.6475567546705
 10
850.4899494942858
 20
519.0976489855706
 10
849.9751126469007
 20
518.9690513584951
 10
849.5246308917981
 20
518.7118561043444
 10
849.2672124681055
 20
518.1974650599066
 10
849.9751126469007
 20
518.1331662463689
  0
LWPOLYLINE
  5
1AF
330
1F
100
AcDbEntity
  8
Drawing
 62
     7
100
AcDbPolyline
 90
        5
 70
     1
 43
0.0
 10
838.0099777135206
 20
528.9106167295224
 10
838.0099777135206
 20
529.325983955386
 10
837.4903190978093
 20
529.2221424169883
 10
837.4903190978093
 20
528.9106167295224
 10
837.8021144617799
 20
528.8067751911246
  0
LWPOLYLINE
  5
1B0
330
1F
100
AcDbEntity
  8
Drawing
 62
     7
100
AcDbPolyline
 90
        7
 70
     1
 43
0.0
 10
821.4660217365854
 20
527.585096661636
 10
821.530375856149
 20
527.3279014074852
 10
822.4313403390731
 20
527.585096661636
 10
822.4956954313558
 20
528.0351888925361
 10
821.6590850679953
 20
528.0994877060738
 10
821.4660217365854
 20
527.9065912654606
 10
821.4660217365854
 20
527.7779936383853
  0
LWPOLYLINE
  5
1B1
330
1F
100
AcDbEntity
  8
Drawing
 62
     7
100
AcDbPolyline
 90
        7
 70
     1
 43
0.0
 10
868.5399702656835
 20
521.4124073452
 10
869.1191622053514
 20
522.1196948302509
 10
868.604325357966
 20
522.4411888979394
 10
868.0894885105808
 20
522.4411888979394
 10
867.7677149946055
 20
522.1196948302509
 10
867.7677149946055
 20
521.7982007625624
 10
868.2181977224272
 20
521.4124073452
  0
LWPOLYLINE
  5
1B2
330
1F
100
AcDbEntity
  8
Drawing
 62
     7
100
AcDbPolyline
 90
        5
 70
     1
 43
0.0
 10
882.247501813674
 20
516.4613960221164
 10
882.6979845414955
 20
516.5899936491918
 10
882.6979845414955
 20
516.9757870665542
 10
882.440566117803
 20
516.9757870665542
 10
882.1187926018276
 20
516.9757870665542
  0
LWPOLYLINE
  5
1B3
330
1F
100
AcDbEntity
  8
Drawing
 62
     7
100
AcDbPolyline
 90
        4
 70
     1
 43
0.0
 10
892.7154460684758
 20
528.4852805872999
 10
892.3936735252194
 20
527.9065912654606
 10
893.3589921277071
 20
527.3922002210229
 10
893.2946380081435
 20
528.1637865196114
  0
LWPOLYLINE
  5
1B4
330
1F
100
AcDbEntity
  8
Drawing
 62
     7
100
AcDbPolyline
 90
        7
 70
     1
 43
0.0
 10
912.7297289969349
 20
523.3413728236033
 10
911.9574737258572
 20
523.3413728236033
 10
911.5713460903182
 20
523.0841775694524
 10
911.635701182601
 20
522.6983846882263
 10
911.8931196062936
 20
522.6340853385524
 10
912.5366656655251
 20
522.6340853385524
 10
912.6010197850887
 20
523.1484763829902
  0
LWPOLYLINE
  5
1B5
330
1F
100
AcDbEntity
  8
Drawing
 62
     7
100
AcDbPolyline
 90
        6
 70
     1
 43
0.0
 10
891.8144815855517
 20
513.1585032751638
 10
890.9135171026276
 20
512.8370092074753
 10
891.1065804340374
 20
512.5155146036507
 10
891.6214172814225
 20
512.3869169765752
 10
892.2006092210904
 20
512.5155146036507
 10
892.2649643133732
 20
513.2871009022392
  0
LWPOLYLINE
  5
1BC
330
1F
100
AcDbEntity
  8
Drawing
 62
     7
100
AcDbPolyline
 90
        6
 70
     1
 43
0.0
 10
899.0221974489443
 20
508.5289860197687
 10
898.1212329660202
 20
508.2074919520802
 10
898.31429629743
 20
507.8859973482556
 10
898.8291331448152
 20
507.7573997211801
 10
899.4083250844831
 20
507.8859973482556
 10
899.0221974489443
 20
508.5289860197687
  0
LWPOLYLINE
  5
1C2
330
1F
100
AcDbEntity
  8
Drawing
 62
     7
100
AcDbPolyline
 90
        6
 70
     1
 43
0.0
 10
924.3779131553847
 20
514.5087788955916
 10
923.4769486724606
 20
514.1872848279031
 10
923.6700120038704
 20
513.8657902240785
 10
924.1848488512555
 20
513.7371925970031
 10
924.3135590358211
 20
514.1229860143654
 10
924.3779131553847
 20
514.5087788955916
  0
LWPOLYLINE
  5
1C8
330
1F
100
AcDbEntity
  8
Drawing
 62
     7
100
AcDbPolyline
 90
        6
 70
     1
 43
0.0
 10
912.9871474206277
 20
514.7016758723408
 10
912.0861829377036
 20
514.3801818046524
 10
912.2792462691134
 20
514.0586872008278
 10
912.7940831164985
 20
513.9300895737523
 10
913.3732750561664
 20
514.0586872008278
 10
912.6653748773713
 20
514.3158824549785
  0
LWPOLYLINE
  5
1C9
330
1F
100
AcDbEntity
  8
Drawing
 62
     7
100
AcDbPolyline
 90
        7
 70
     1
 43
0.0
 10
936.5954239369073
 20
509.9435609898704
 10
936.0805870895222
 20
509.8792621763326
 10
935.8875237581121
 20
509.5577675725081
 10
935.8875237581121
 20
509.3005723183572
 10
936.2092963013683
 20
509.1719746912819
 10
936.852843333319
 20
509.1076758777441
 10
936.852843333319
 20
509.6863651995834
  0
LWPOLYLINE
  5
1CA
330
1F
100
AcDbEntity
  8
Drawing
 62
     7
100
AcDbPolyline
 90
        5
 70
     1
 43
0.0
 10
932.2836658264157
 20
519.716985472826
 10
932.4123750382621
 20
519.5240890322128
 10
932.6697934619547
 20
519.6526866592883
 10
932.5410842501083
 20
519.974181263113
 10
932.4767291578257
 20
519.974181263113
  0
LWPOLYLINE
  5
1D1
330
1F
100
AcDbEntity
  8
Drawing
 62
     7
100
AcDbPolyline
 90
        5
 70
     1
 43
0.0
 10
950.1098921534879
 20
509.4934687589704
 10
950.2386013653343
 20
509.3005723183572
 10
950.4960197890268
 20
509.4291699454327
 10
950.3673105771804
 20
509.7506645492574
 10
950.3029554848979
 20
509.7506645492574
  0
LWPOLYLINE
  5
1D7
330
1F
100
AcDbEntity
  8
Drawing
 62
     7
100
AcDbPolyline
 90
        5
 70
     1
 43
0.0
 10
953.7781051774671
 20
513.1585032751639
 10
953.9068143893135
 20
512.9656068345507
 10
954.164232813006
 20
513.0942044616262
 10
954.0355236011596
 20
513.4156990654509
 10
953.9711685088771
 20
513.4156990654509
  0
LWPOLYLINE
  5
1DD
330
1F
100
AcDbEntity
  8
Drawing
 62
     7
100
AcDbPolyline
 90
        5
 70
     1
 43
0.0
 10
950.6890840931558
 20
513.7371925970031
 10
950.8177933050022
 20
513.5442961563899
 10
951.0752117286947
 20
513.6728937834654
 10
950.9465025168483
 20
513.9943883872901
 10
950.8821474245658
 20
513.9943883872901
  0
LWPOLYLINE
  5
1E3
330
1F
100
AcDbEntity
  8
Drawing
 62
     7
100
AcDbPolyline
 90
        5
 70
     1
 43
0.0
 10
943.1595947137878
 20
516.3091467469195
 10
943.2883039256342
 20
516.1162503063064
 10
943.5457223493268
 20
516.2448479333818
 10
943.4170131374804
 20
516.5663425372065
 10
943.3526580451978
 20
516.5663425372065
  0
LWPOLYLINE
  5
1E9
330
1F
100
AcDbEntity
  8
Drawing
 62
     7
100
AcDbPolyline
 90
        5
 70
     1
 43
0.0
 10
956.6097078380856
 20
526.4040658336997
 10
956.738417049932
 20
526.2111693930866
 10
956.9958354736245
 20
526.3397670201621
 10
956.8671262617781
 20
526.6612616239868
 10
956.8027711694956
 20
526.6612616239868
  0
LWPOLYLINE
  5
1EF
330
1F
100
AcDbEntity
  8
Drawing
 62
     7
100
AcDbPolyline
 90
        5
 70
     1
 43
0.0
 10
940.714119688708
 20
527.3042497593638
 10
940.8428289005544
 20
527.1113533187506
 10
941.100247324247
 20
527.2399509458261
 10
940.9715381124006
 20
527.5614455496508
 10
940.907183020118
 20
527.5614455496508
  0
LWPOLYLINE
  5
1F5
330
1F
100
AcDbEntity
  8
Drawing
 62
     7
100
AcDbPolyline
 90
        5
 70
     1
 43
0.0
 10
921.3433818467611
 20
519.6526866592883
 10
921.4720910586075
 20
519.4597902186752
 10
921.7295094823
 20
519.5883878457506
 10
921.6008002704536
 20
519.9098824495753
 10
921.5364451781711
 20
519.9098824495753
  0
LWPOLYLINE
  5
1FB
330
1F
100
AcDbEntity
  8
Drawing
 62
     7
100
AcDbPolyline
 90
        5
 70
     1
 43
0.0
 10
961.0501761331425
 20
521.0029622797161
 10
961.1788853449889
 20
520.810065839103
 10
961.4363037686815
 20
520.9386634661785
 10
961.307594556835
 20
521.2601580700032
 10
961.2432394645525
 20
521.2601580700032
  0
LWPOLYLINE
  5
201
330
1F
100
AcDbEntity
  8
Drawing
 62
     7
100
AcDbPolyline
 90
        5
 70
     1
 43
0.0
 10
958.4116368039338
 20
524.4751003552965
 10
958.5403460157802
 20
524.2822039146834
 10
958.7977644394728
 20
524.4108015417588
 10
958.6690552276264
 20
524.7322961455835
 10
958.6047001353438
 20
524.7322961455835
  0
LWPOLYLINE
  5
202
330
1F
100
AcDbEntity
  8
Drawing
 62
     7
100
AcDbPolyline
 90
       18
 70
     1
 43
0.0
 10
946.6990975532015
 20
503.5136758831474
 10
947.342643612433
 20
504.1566645546606
 10
948.3723173072033
 20
504.6710550629622
 10
949.4663460942563
 20
504.6710550629622
 10
950.6247290008732
 20
504.3495609952737
 10
951.7831119074899
 20
504.0280669275852
 10
952.2335946353114
 20
503.7708716734344
 10
952.104885423465
 20
502.6134919574835
 10
950.5603748813096
 20
502.3562967033326
 10
949.7237645179491
 20
501.9705038221065
 10
949.0802184587176
 20
501.9705038221065
 10
948.1792539757935
 20
502.0991014491819
 10
947.5357079165619
 20
502.2276990762573
 10
946.6990975532015
 20
502.2276990762573
 10
946.2486157980989
 20
502.2276990762573
 10
945.7337789507137
 20
502.2276990762573
 10
945.4763605270211
 20
502.6134919574835
 10
946.1842607058163
 20
503.385078256072
  0
LWPOLYLINE
  5
204
330
1F
100
AcDbEntity
  8
Drawing
 62
     7
100
AcDbPolyline
 90
       57
 70
     0
 43
0.0
 10
719.6990031295311
 20
512.6172485906767
 10
723.6301109854487
 20
512.6623950110182
 10
729.3234404429148
 20
512.7075408952237
 10
735.0167689276619
 20
512.5721027064712
 10
738.5863959033045
 20
512.4818109380604
 10
740.4841727133662
 20
512.436665053855
 10
746.4486125878589
 20
511.849766950776
 10
750.0634243087662
 20
511.5337446890658
 10
753.6330512844088
 20
511.3080147319025
 10
756.1182346465073
 20
510.9919930063285
 10
766.7745138454218
 20
510.9017007017814
 10
775.2241370820128
 20
510.856554817576
 10
781.8663539717908
 20
510.6759707446181
 10
787.6500538925054
 20
510.5856789762073
 10
790.858199987873
 20
510.4502407874548
 10
797.4022199169341
 20
510.0890726415391
 10
802.8696227299193
 20
509.4118827700494
 10
809.014803530909
 20
509.3215910016386
 10
815.1147986139149
 20
509.2312986970916
 10
819.6784987398531
 20
509.2312986970916
 10
826.6173608944132
 20
509.1861528128861
 10
835.0217984130205
 20
508.8249846669704
 10
842.296608545538
 20
508.2380871000277
 10
850.3395651838703
 20
507.8769189541119
 10
858.1237542371891
 20
507.3351667352384
 10
863.6815275134229
 20
507.0642908938698
 10
868.3355981026095
 20
506.9288527051174
 10
869.7363378511641
 20
507.1545826622806
 10
871.950409823517
 20
506.7482686321595
 10
875.7459624709213
 20
506.38710102238
 10
879.0444790295376
 20
506.0259328764643
 10
881.6200328548846
 20
506.1162246448752
 10
884.1052162169831
 20
506.3419546020384
 10
885.8222511278286
 20
506.1613710652167
 10
887.991138354917
 20
505.8904946877119
 10
889.3466933582065
 20
506.0259328764643
 10
891.0637292417712
 20
506.3419546020384
 10
893.2778012141241
 20
506.1613710652167
 10
896.3052063829948
 20
506.0259328764643
 10
900.299754975289
 20
506.0710787606697
 10
902.0167908588537
 20
505.800202919301
 10
904.6375294294655
 20
505.3938888891799
 10
906.0834548960036
 20
505.1681589320167
 10
908.568638258102
 20
504.9875748590588
 10
910.8730806937035
 20
505.0327207432642
 10
911.9575243072477
 20
504.7166990176902
 10
913.4938192643153
 20
504.8521366703064
 10
915.8434474179007
 20
504.897283090648
 10
918.9612230500197
 20
504.806990786101
 10
922.214553890652
 20
504.6715525973485
 10
925.738995148311
 20
504.1298009146112
 10
929.8508439307257
 20
503.904070957448
 10
932.6071386825697
 20
503.4074646227798
 10
936.3123208667255
 20
503.2268810859582
 10
940.4241696491401
 20
502.9108588242478
 10
945.0479701942406
 20
502.820567055837
 10
945.7683600856251
 20
502.7854882009137
  0
LWPOLYLINE
  5
205
330
1F
100
AcDbEntity
  8
Drawing
 62
     7
100
AcDbPolyline
 90
        9
 70
     0
 43
0.0
 10
950.1965050030501
 20
502.1082983294239
 10
952.5913179019001
 20
502.0180060248769
 10
954.3083537854648
 20
501.8374219519191
 10
955.5283526075223
 20
501.4311079217979
 10
957.9231655063722
 20
501.2053779646346
 10
960.4987193317193
 20
501.1150861962238
 10
964.0683463073617
 20
500.8442103548551
 10
967.5024180744911
 20
500.4378963247341
 10
970.1683413903677
 20
500.3476040201871
  0
LWPOLYLINE
  5
206
330
1F
100
AcDbEntity
  8
Drawing
 62
     7
100
AcDbPolyline
 90
       15
 70
     1
 43
0.0
 10
721.8031199133027
 20
497.3979901750811
 10
722.4763786486053
 20
498.4070033141394
 10
723.2169631601663
 20
498.8106082480809
 10
723.890221895469
 20
499.2142137181588
 10
724.6981321832884
 20
499.2142137181588
 10
725.1020878135575
 20
499.2814811177931
 10
725.5060434438268
 20
499.2814811177931
 10
725.8426723251185
 20
498.9451435834857
 10
724.9674362610408
 20
498.4742707137736
 10
723.890221895469
 20
497.1289200404079
 10
723.7555703429523
 20
496.9271173053689
 10
723.4189404889414
 20
496.8598499057348
 10
722.8130075298972
 20
496.8598499057348
 10
722.0724230183362
 20
497.2634548396763
 10
721.870445689561
 20
497.5997923739837
  0
LWPOLYLINE
  5
207
330
1F
100
AcDbEntity
  8
Drawing
 62
     7
100
AcDbPolyline
 90
       12
 70
     1
 43
0.0
 10
739.5771511089239
 20
503.0484635393532
 10
739.8464542139574
 20
503.7884060076022
 10
739.779128437699
 20
504.3265468130847
 10
740.1157573189909
 20
504.6628843473922
 10
740.8563428032709
 20
504.6628843473922
 10
741.260297460821
 20
504.6628843473922
 10
741.4622757623151
 20
504.6628843473922
 10
741.5296015385735
 20
504.2592788773143
 10
741.4622757623151
 20
503.5866038086996
 10
740.7216902780351
 20
503.1829983386217
 10
740.1830840679683
 20
503.1157309389874
 10
739.8464542139574
 20
503.1157309389874
  0
LWPOLYLINE
  5
208
330
1F
100
AcDbEntity
  8
Drawing
 62
     7
100
AcDbPolyline
 90
        7
 70
     1
 43
0.0
 10
733.2485184134476
 20
496.5235118352912
 10
734.3257327790195
 20
496.8598499057348
 10
734.797014185547
 20
496.9943847050032
 10
735.537598697108
 20
496.7253145703301
 10
736.1435316561524
 20
495.783568830906
 10
736.2108574324108
 20
494.9763584268866
 10
734.7296874365696
 20
495.7163014312717
  0
LWPOLYLINE
  5
209
330
1F
100
AcDbEntity
  8
Drawing
 62
     7
100
AcDbPolyline
 90
        8
 70
     1
 43
0.0
 10
746.3770642382087
 20
496.7925819699643
 10
747.8582332613307
 20
496.7253145703301
 10
747.9255590375891
 20
497.3979901750811
 10
748.5314919966333
 20
497.1961874400421
 10
749.1374249556777
 20
496.6580471706958
 10
748.8681218506442
 20
495.7163014312717
 10
748.6661435491501
 20
495.1781611619255
 10
747.9255590375891
 20
495.9181041663106
  0
LWPOLYLINE
  5
20A
330
1F
100
AcDbEntity
  8
Drawing
 62
     7
100
AcDbPolyline
 90
        5
 70
     1
 43
0.0
 10
754.4561690618405
 20
500.4922969918903
 10
755.1294277971431
 20
499.8868887867735
 10
755.5333834274123
 20
500.1559589214467
 10
755.2640793496598
 20
500.6940991907929
 10
754.7927989158513
 20
500.6940991907929
  0
LWPOLYLINE
  5
20B
330
1F
100
AcDbEntity
  8
Drawing
 62
     7
100
AcDbPolyline
 90
       10
 70
     1
 43
0.0
 10
762.0774977102211
 20
494.4382181575403
 10
762.8180822217821
 20
494.9763584268866
 10
763.4913409570847
 20
495.2454285615597
 10
763.9626223636124
 20
495.3799638969643
 10
764.2319254686457
 20
495.3126964973301
 10
764.1645996923874
 20
494.3036833582718
 10
764.0299481398707
 20
493.900077888194
 10
763.154712075793
 20
493.900077888194
 10
762.5487791167486
 20
494.1691480228671
 10
762.2794760117152
 20
494.5727534929449
  0
LWPOLYLINE
  5
20C
330
1F
100
AcDbEntity
  8
Drawing
 62
     7
100
AcDbPolyline
 90
       13
 70
     1
 43
0.0
 10
774.802087904713
 20
500.6940991907929
 10
774.1288291694103
 20
500.6268317911588
 10
775.1387177587238
 20
499.954156722544
 10
775.4080208637573
 20
499.1469457823883
 10
775.4080208637573
 20
498.8106082480809
 10
775.8119764940265
 20
498.4742707137736
 10
776.4852352293291
 20
498.3397353783689
 10
776.8218641106209
 20
498.7433408484468
 10
777.1584939646317
 20
499.2814811177931
 10
777.0911681883734
 20
499.483283852832
 10
776.2832579005541
 20
500.0886915218125
 10
775.542672416274
 20
500.4922969918903
 10
775.0713919824655
 20
500.6268317911588
  0
LWPOLYLINE
  5
20D
330
1F
100
AcDbEntity
  8
Drawing
 62
     7
100
AcDbPolyline
 90
        7
 70
     1
 43
0.0
 10
764.9051842039484
 20
504.393814212719
 10
765.4437913867343
 20
504.5283490119874
 10
765.4437913867343
 20
504.9319544820653
 10
765.1071625054425
 20
505.1337572171042
 10
764.7705326514317
 20
505.1337572171042
 10
764.5012295463982
 20
505.1337572171042
 10
764.3665779938815
 20
504.6628843473922
  0
LWPOLYLINE
  5
20E
330
1F
100
AcDbEntity
  8
Drawing
 62
     7
100
AcDbPolyline
 90
        7
 70
     1
 43
0.0
 10
758.1052710746636
 20
503.3848010736606
 10
758.5092267049328
 20
503.9229413430069
 10
758.0379452984052
 20
504.0574761422754
 10
757.6339906408551
 20
504.0574761422754
 10
757.4993381156194
 20
503.9229413430069
 10
757.3646865631026
 20
503.721138607968
 10
757.6339906408551
 20
503.5866038086996
  0
LWPOLYLINE
  5
20F
330
1F
100
AcDbEntity
  8
Drawing
 62
     7
100
AcDbPolyline
 90
        7
 70
     1
 43
0.0
 10
734.8778442203628
 20
502.4430553342365
 10
735.2817998506321
 20
502.3757879346023
 10
735.4837771794072
 20
502.77939340468
 10
735.079822521857
 20
502.9811956035828
 10
734.8105184441046
 20
502.9811956035828
 10
734.7431926678462
 20
502.8466608043143
 10
734.7431926678462
 20
502.6448580692754
  0
LWPOLYLINE
  5
210
330
1F
100
AcDbEntity
  8
Drawing
 62
     7
100
AcDbPolyline
 90
        6
 70
     1
 43
0.0
 10
770.0892767575945
 20
498.6760734488125
 10
769.617996323786
 20
498.6088055130421
 10
769.617996323786
 20
498.4070033141394
 10
770.0892767575945
 20
498.4070033141394
 10
770.4259066116053
 20
498.4070033141394
 10
770.358580835347
 20
498.6760734488125
  0
LWPOLYLINE
  5
211
330
1F
100
AcDbEntity
  8
Drawing
 62
     7
100
AcDbPolyline
 90
       12
 70
     1
 43
0.0
 10
789.821310663197
 20
507.7571911642013
 10
790.2925920697246
 20
507.6226558287967
 10
790.4272436222413
 20
507.5553884291625
 10
791.100502357544
 20
507.5553884291625
 10
791.9084126453633
 20
507.7571911642013
 10
792.1777157503967
 20
508.0935286985087
 10
791.7064353165882
 20
508.7662043032597
 10
790.359917845983
 20
508.8334717028939
 10
789.3500292566695
 20
508.4971341685865
 10
788.878747850142
 20
508.2953314335476
 10
788.8114220738836
 20
507.8917259634699
 10
789.1480519278944
 20
507.7571911642013
  0
LWPOLYLINE
  5
212
330
1F
100
AcDbEntity
  8
Drawing
 62
     7
100
AcDbPolyline
 90
        6
 70
     1
 43
0.0
 10
798.2370453408396
 20
498.7433408484468
 10
798.7756515509064
 20
498.3397353783689
 10
799.4489102862092
 20
498.3397353783689
 10
799.6508885877032
 20
498.8778756477152
 10
798.8429773271648
 20
499.2142137181588
 10
798.4390226696147
 20
499.0124109831199
  0
LWPOLYLINE
  5
219
330
1F
100
AcDbEntity
  8
Drawing
 62
     7
100
AcDbPolyline
 90
        6
 70
     1
 43
0.0
 10
806.3252382785463
 20
500.7451050435798
 10
807.0665640020226
 20
500.30742865462
 10
807.8752826193717
 20
500.2400937018256
 10
808.4481246490876
 20
500.4420980240728
 10
808.2122480614545
 20
501.0817787352797
 10
807.1337545703332
 20
501.0137714677003
  0
LWPOLYLINE
  5
21F
330
1F
100
AcDbEntity
  8
Drawing
 62
     7
100
AcDbPolyline
 90
        6
 70
     1
 43
0.0
 10
797.3282456059757
 20
506.7988075103228
 10
797.5972792678325
 20
506.5631354436103
 10
798.2705380031352
 20
506.5631354436103
 10
798.4725163046293
 20
507.1012757129566
 10
797.9347845689875
 20
507.2028161548172
 10
797.5641221936089
 20
507.1354812020228
  0
LWPOLYLINE
  5
225
330
1F
100
AcDbEntity
  8
Drawing
 62
     7
100
AcDbPolyline
 90
        6
 70
     1
 43
0.0
 10
805.7523962488303
 20
492.2235902015858
 10
806.1904524908008
 20
492.0219890537552
 10
806.9642611941999
 20
491.8199847315079
 10
806.8643843476854
 20
492.8300068788801
 10
806.2578453846735
 20
493.1666811067163
 10
805.5165206339162
 20
492.9310090400037
  0
LWPOLYLINE
  5
22B
330
1F
100
AcDbEntity
  8
Drawing
 62
     7
100
AcDbPolyline
 90
        6
 70
     1
 43
0.0
 10
832.6986535082636
 20
498.1831240991118
 10
832.8671362293051
 20
497.4761089712466
 10
833.6409449327042
 20
497.240436904534
 10
834.4845734640032
 20
498.4861311186188
 10
833.9454273948642
 20
498.7891376019895
 10
833.1704057108109
 20
498.553465535277
  0
LWPOLYLINE
  5
231
330
1F
100
AcDbEntity
  8
Drawing
 62
     7
100
AcDbPolyline
 90
        6
 70
     1
 43
0.0
 10
838.6629513657751
 20
495.3550625153787
 10
838.393378817565
 20
495.3887297237078
 10
838.8639190121773
 20
495.3550625153787
 10
839.0658973136714
 20
495.893202784725
 10
838.5955584719025
 20
495.7927383682022
 10
838.393378817565
 20
495.3887297237078
  0
LWPOLYLINE
  5
237
330
1F
100
AcDbEntity
  8
Drawing
 62
     7
100
AcDbPolyline
 90
        6
 70
     1
 43
0.0
 10
844.0144585949467
 20
493.5370225428815
 10
844.182401456916
 20
493.3350182206343
 10
844.8556601922187
 20
493.3350182206343
 10
844.755783345704
 20
493.8063618179232
 10
844.3851209703255
 20
493.9410311873759
 10
844.0144585949467
 20
493.8400290262523
  0
LWPOLYLINE
  5
23D
330
1F
100
AcDbEntity
  8
Drawing
 62
     7
100
AcDbPolyline
 90
        6
 70
     1
 43
0.0
 10
854.9321570110023
 20
497.7454482462882
 10
854.763674289961
 20
496.903762676698
 10
857.8974579594696
 20
496.3650846627509
 10
860.3236138115169
 20
496.1630798043674
 10
860.593186359727
 20
498.553465535277
 10
857.0550433815438
 20
498.2841262602353
  0
LWPOLYLINE
  5
243
330
1F
100
AcDbEntity
  8
Drawing
 62
     7
100
AcDbPolyline
 90
        6
 70
     1
 43
0.0
 10
865.8498563997771
 20
495.9943395160328
 10
866.3884626098439
 20
495.5907340459549
 10
867.0617213451467
 20
495.5907340459549
 10
867.2636996466407
 20
496.1288743153012
 10
866.658574044407
 20
496.3650846627509
 10
866.0518337285522
 20
496.263409650706
  0
LWPOLYLINE
  5
249
330
1F
100
AcDbEntity
  8
Drawing
 62
     7
100
AcDbPolyline
 90
        6
 70
     1
 43
0.0
 10
860.7279721474724
 20
491.9546541009607
 10
860.9633098487524
 20
491.6853153620552
 10
861.6365685840551
 20
491.6853153620552
 10
861.8385468855491
 20
492.2234556314015
 10
861.3008151499073
 20
492.3923304899204
 10
860.862758907937
 20
492.2576611204677
  0
LWPOLYLINE
  5
24F
330
1F
100
AcDbEntity
  8
Drawing
 62
     7
100
AcDbPolyline
 90
        6
 70
     1
 43
0.0
 10
876.8969906488085
 20
493.301350476169
 10
878.143764535409
 20
493.5370225428815
 10
879.7936857227489
 20
494.1767032540885
 10
879.995664024243
 20
494.7148435234348
 10
878.8513933255895
 20
494.6480468513773
 10
877.7057092661576
 20
494.1430355096231
  0
LWPOLYLINE
  5
255
330
1F
100
AcDbEntity
  8
Drawing
 62
     7
100
AcDbPolyline
 90
        6
 70
     1
 43
0.0
 10
889.9038785021096
 20
497.9871250383541
 10
892.2957985345078
 20
497.9871250383541
 10
893.2398427986745
 20
498.2227971050667
 10
892.6669997962397
 20
498.8961450246027
 10
891.7908882850177
 20
499.4011563663569
 10
890.6115072922901
 20
498.7951428634791
  0
LWPOLYLINE
  5
25C
330
1F
100
AcDbEntity
  8
Drawing
 62
     7
100
AcDbPolyline
 90
        6
 70
     1
 43
0.0
 10
867.9673908701106
 20
501.7578743528011
 10
869.7533108258503
 20
501.89254425839
 10
870.4597266353767
 20
502.4312228084733
 10
870.6617049368707
 20
502.9693630778196
 10
869.6859179319774
 20
502.9362336140913
 10
868.7424125541638
 20
502.532224969597
  0
LWPOLYLINE
  5
262
330
1F
100
AcDbEntity
  8
Drawing
 62
     7
100
AcDbPolyline
 90
        6
 70
     1
 43
0.0
 10
870.5957263764953
 20
503.5759143252983
 10
871.3702082014762
 20
503.4412449558455
 10
872.0434669367789
 20
503.4412449558455
 10
872.245445238273
 20
503.9793852251918
 10
871.4375339777346
 20
504.3157232956354
 10
871.0335793201845
 20
504.1139205605965
  0
LWPOLYLINE
  5
268
330
1F
100
AcDbEntity
  8
Drawing
 62
     7
100
AcDbPolyline
 90
        6
 70
     1
 43
0.0
 10
871.9772870235602
 20
499.9061671719749
 10
872.583825986572
 20
499.7041628497276
 10
873.6272072381812
 20
499.8388322191804
 10
873.8291855396752
 20
500.3769724885267
 10
873.0212742791368
 20
500.7133105589703
 10
872.6173196215867
 20
500.5115078239314
  0
LWPOLYLINE
  5
26E
330
1F
100
AcDbEntity
  8
Drawing
 62
     7
100
AcDbPolyline
 90
        6
 70
     1
 43
0.0
 10
903.5766402076931
 20
501.4885350777595
 10
904.6206955536032
 20
500.8825221110178
 10
905.293954288906
 20
500.8825221110178
 10
905.4299530573055
 20
501.7578743528011
 10
904.4527517189151
 20
501.9935464195137
 10
903.644033101566
 20
502.0945485806373
  0
LWPOLYLINE
  5
274
330
1F
100
AcDbEntity
  8
Drawing
 62
     7
100
AcDbPolyline
 90
        6
 70
     1
 43
0.0
 10
889.7947296976199
 20
502.7342292918441
 10
889.7941908112667
 20
502.4312228084733
 10
890.4674495465695
 20
502.4312228084733
 10
890.6694278480635
 20
502.9693630778196
 10
890.300178833463
 20
503.1719056808039
 10
890.0643022458298
 20
502.9362336140913
  0
LWPOLYLINE
  5
27A
330
1F
100
AcDbEntity
  8
Drawing
 62
     7
100
AcDbPolyline
 90
        6
 70
     1
 43
0.0
 10
910.012691240471
 20
493.3601190448836
 10
910.7203200306515
 20
492.6198393469696
 10
911.2245561858406
 20
492.9565135748057
 10
911.5964315418732
 20
493.6971964471362
 10
910.9224996849887
 20
494.1012050916306
 10
910.3833536158497
 20
493.8992007693835
  0
LWPOLYLINE
  5
280
330
1F
100
AcDbEntity
  8
Drawing
 62
     7
100
AcDbPolyline
 90
        6
 70
     1
 43
0.0
 10
897.5786444441667
 20
491.4074097029337
 10
898.1172506542335
 20
491.0038042328558
 10
898.7905093895363
 20
491.0038042328558
 10
898.926509130655
 20
491.9128242191044
 10
897.9830037528413
 20
492.0474935885571
 10
897.3764657625486
 20
491.84548926631
  0
LWPOLYLINE
  5
286
330
1F
100
AcDbEntity
  8
Drawing
 62
     7
100
AcDbPolyline
 90
        6
 70
     1
 43
0.0
 10
890.300178833463
 20
490.22945361606
 10
890.4344257348554
 20
489.8927799243601
 10
891.1076844701581
 20
489.8927799243601
 10
891.3096627716521
 20
490.4309201937064
 10
890.4686615545045
 20
490.4651256827725
 10
890.4686615545045
 20
490.4651256827725
  0
LWPOLYLINE
  5
28C
330
1F
100
AcDbEntity
  8
Drawing
 62
     7
100
AcDbPolyline
 90
        6
 70
     1
 43
0.0
 10
905.1940764696724
 20
496.7609300975819
 10
905.1598406500233
 20
496.457923614211
 10
905.833099385326
 20
496.457923614211
 10
906.03507768682
 20
496.9960638835573
 10
905.3962561240096
 20
497.0639371170888
 10
905.3962561240096
 20
497.0639371170888
  0
LWPOLYLINE
  5
28D
330
1F
100
AcDbEntity
  8
Drawing
 62
     7
100
AcDbPolyline
 90
        7
 70
     1
 43
0.0
 10
906.5756371167374
 20
488.8490900325226
 10
906.4408513289918
 20
488.6134185019463
 10
906.4745482622877
 20
488.4450813880281
 10
906.5756371167374
 20
488.3440792269046
 10
906.7778167710746
 20
488.3440792269046
 10
906.8789065982432
 20
488.5460835491518
 10
906.7778167710746
 20
488.7144206630699
  0
LWPOLYLINE
  5
293
330
1F
100
AcDbEntity
  8
Drawing
 62
     7
100
AcDbPolyline
 90
        6
 70
     1
 43
0.0
 10
919.0396991047369
 20
490.7344649578142
 10
919.9158106159587
 20
490.3641235216489
 10
921.2973712630237
 20
490.22945361606
 10
920.5560465122664
 20
491.1384736023085
 10
919.9158106159587
 20
491.7444871051863
 10
919.4777553467075
 20
491.3741456690211
  0
LWPOLYLINE
  5
299
330
1F
100
AcDbEntity
  8
Drawing
 62
     7
100
AcDbPolyline
 90
        6
 70
     1
 43
0.0
 10
932.0128909974612
 20
495.0775600306737
 10
932.2487666123752
 20
494.9765578695501
 10
932.7879126815144
 20
495.0438928223446
 10
932.9549820417775
 20
495.2453588638547
 10
932.5183401333043
 20
495.3132320973862
 10
932.1813737185025
 20
495.3468993057153
  0
LWPOLYLINE
  5
29F
330
1F
100
AcDbEntity
  8
Drawing
 62
     7
100
AcDbPolyline
 90
        6
 70
     1
 43
0.0
 10
938.0862676236907
 20
487.8054006768213
 10
939.6026150312202
 20
487.6033963545741
 10
941.1851423519686
 20
487.5023936573143
 10
941.3871206534626
 20
488.0405339266606
 10
939.7037048583891
 20
488.4450813880281
 10
938.4232340384926
 20
488.5124158046865
  0
LWPOLYLINE
  5
2A5
330
1F
100
AcDbEntity
  8
Drawing
 62
     7
100
AcDbPolyline
 90
        6
 70
     1
 43
0.0
 10
941.0852655054539
 20
495.0775600306737
 10
941.6918044684658
 20
494.6062164333848
 10
942.8025795866668
 20
494.7072185945084
 10
943.0045578881608
 20
495.2453588638547
 10
942.1966466276224
 20
495.5816969342983
 10
941.5233217474245
 20
495.2795643529208
  0
LWPOLYLINE
  5
2AB
330
1F
100
AcDbEntity
  8
Drawing
 62
     7
100
AcDbPolyline
 90
        6
 70
     1
 43
0.0
 10
945.1962514860722
 20
490.4987928911016
 10
945.498981108506
 20
490.2631213605254
 10
946.1722398438087
 20
490.2631213605254
 10
946.3742181453027
 20
490.8012616298716
 10
945.6006098220278
 20
490.9364692800614
 10
945.3310372738176
 20
490.8017993744725
  0
LWPOLYLINE
  5
2B2
330
1F
100
AcDbEntity
  8
Drawing
 62
     7
100
AcDbPolyline
 90
        6
 70
     1
 43
0.0
 10
952.9090915971458
 20
493.1330133622509
 10
953.987382762705
 20
492.9310090400037
 10
955.0319779676872
 20
493.2003483150454
 10
954.9645841010954
 20
493.8400290262523
 10
954.4591349652521
 20
494.5133769457883
 10
953.684113281199
 20
493.9073639790467
  0
LWPOLYLINE
  5
2B8
330
1F
100
AcDbEntity
  8
Drawing
 62
     7
100
AcDbPolyline
 90
        6
 70
     1
 43
0.0
 10
950.0111835425512
 20
490.2035459068416
 10
950.5503296116904
 20
490.0356125034762
 10
951.0557787475336
 20
490.0356125034762
 10
951.4250267894148
 20
490.33808070611
 10
950.6171155288764
 20
490.6744187765536
 10
950.2131608713263
 20
490.4726160415147
  0
LWPOLYLINE
  5
2BE
330
1F
100
AcDbEntity
  8
Drawing
 62
     7
100
AcDbPolyline
 90
        6
 70
     1
 43
0.0
 10
960.6256134498201
 20
492.2239933760023
 10
960.6250745634669
 20
491.8873196843024
 10
961.2983332987696
 20
491.8873196843024
 10
961.1310625856631
 20
492.2239933760023
 10
960.89518599803
 20
492.3586632815912
 10
960.6256134498201
 20
492.2239933760023
  0
LWPOLYLINE
  5
2C4
330
1F
100
AcDbEntity
  8
Drawing
 62
     7
100
AcDbPolyline
 90
        6
 70
     1
 43
0.0
 10
965.1746546996897
 20
491.4496432953428
 10
965.2752056405051
 20
491.0793018591775
 10
965.5453170750682
 20
491.0793018591775
 10
965.6801038355327
 20
491.3486411342191
 10
965.4442272478996
 20
491.4833105036719
 10
965.1746546996897
 20
491.4496432953428
  0
LWPOLYLINE
  5
2C5
330
1F
100
AcDbEntity
  8
Drawing
 62
     7
100
AcDbPolyline
 90
        6
 70
     1
 43
0.0
 10
947.7979763174328
 20
487.7462289336902
 10
947.7979763174328
 20
487.241217591936
 10
947.9327630778973
 20
487.1738826391415
 10
948.1686396655307
 20
487.1402154308124
 10
948.2360325594034
 20
487.2748853364013
 10
947.9327630778973
 20
487.577891819772
  0
LWPOLYLINE
  5
2C6
330
1F
100
AcDbEntity
  8
Drawing
 62
     7
100
AcDbPolyline
 90
        5
 70
     1
 43
0.0
 10
937.9248721336405
 20
490.4732883562997
 10
937.7563894125992
 20
490.3722861951761
 10
937.8237823064719
 20
490.2712840340524
 10
938.0259619608091
 20
490.2712840340524
 10
938.0259619608091
 20
490.4732883562997
  0
LWPOLYLINE
  5
2CE
330
1F
100
AcDbEntity
  8
Drawing
 62
     7
100
AcDbPolyline
 90
        5
 70
     1
 43
0.0
 10
937.4868158916702
 20
493.5033547984162
 10
937.3183331706289
 20
493.4023526372927
 10
937.3857260645016
 20
493.301350476169
 10
937.5879057188388
 20
493.301350476169
 10
937.5879057188388
 20
493.5033547984162
  0
LWPOLYLINE
  5
2D4
330
1F
100
AcDbEntity
  8
Drawing
 62
     7
100
AcDbPolyline
 90
        5
 70
     1
 43
0.0
 10
937.5542087855429
 20
490.3722861951761
 10
937.3857260645016
 20
490.2712840340525
 10
937.4531189583743
 20
490.1702818729289
 10
937.6552986127115
 20
490.1702818729289
 10
937.6552986127115
 20
490.3722861951761
  0
LWPOLYLINE
  5
2DA
330
1F
100
AcDbEntity
  8
Drawing
 62
     7
100
AcDbPolyline
 90
        5
 70
     1
 43
0.0
 10
945.5403041591462
 20
484.0428140359014
 10
945.3718214381049
 20
483.9418118747778
 10
945.4392143319776
 20
483.8408097136542
 10
945.6413939863148
 20
483.8408097136542
 10
945.6413939863148
 20
484.0428140359014
  0
LWPOLYLINE
  5
2E0
330
1F
100
AcDbEntity
  8
Drawing
 62
     7
100
AcDbPolyline
 90
        5
 70
     1
 43
0.0
 10
879.28583883445
 20
490.9782996980539
 10
879.1173561134087
 20
490.8772975369303
 10
879.1847490072814
 20
490.7762953758066
 10
879.3869286616186
 20
490.7762953758066
 10
879.3869286616186
 20
490.9782996980539
  0
LWPOLYLINE
  5
2E6
330
1F
100
AcDbEntity
  8
Drawing
 62
     7
100
AcDbPolyline
 90
        5
 70
     1
 43
0.0
 10
872.6813050806309
 20
488.7899182893915
 10
872.5128223595896
 20
488.6889161282679
 10
872.5802152534623
 20
488.5879139671442
 10
872.7823949077995
 20
488.5879139671442
 10
872.7823949077995
 20
488.7899182893915
  0
LWPOLYLINE
  5
2ED
330
1F
100
AcDbEntity
  8
Drawing
 62
     7
100
AcDbPolyline
 90
        6
 70
     1
 43
0.0
 10
883.6969261506315
 20
502.1384710020519
 10
883.8311730520239
 20
501.801797310352
 10
884.5044317873267
 20
501.801797310352
 10
884.7064100888207
 20
502.3399375796982
 10
883.865408871673
 20
502.3741430687644
 10
883.865408871673
 20
502.3741430687644
  0
LWPOLYLINE
  5
2F3
330
1F
100
AcDbEntity
  8
Drawing
 62
     7
100
AcDbPolyline
 90
        6
 70
     1
 43
0.0
 10
883.0450983614166
 20
488.2177398054711
 10
883.1793452628091
 20
487.8810661137711
 10
883.8526039981118
 20
487.8810661137711
 10
884.0545822996058
 20
488.4192063831174
 10
883.2135810824582
 20
488.4534118721836
 10
883.2135810824582
 20
488.4534118721836
  0
LWPOLYLINE
  5
2F4
330
1F
100
AcDbEntity
  8
Drawing
 62
     7
100
AcDbPolyline
 90
        9
 70
     1
 43
0.0
 10
850.7099328253771
 20
501.2783407390393
 10
851.6767581696718
 20
501.5543372171802
 10
852.3328182594689
 20
501.5888365088798
 10
852.5745253250818
 20
501.5198373893445
 10
852.5054661634781
 20
500.9333451413631
 10
852.0911121665749
 20
500.6573486632221
 10
851.8839356544829
 20
500.5193504241516
 10
851.3314643070914
 20
500.6918479549217
 10
850.986169471792
 20
501.0023442608983
  0
LWPOLYLINE
  5
2F5
330
1F
100
AcDbEntity
  8
Drawing
 62
     7
100
AcDbPolyline
 90
        9
 70
     1
 43
0.0
 10
857.650358139449
 20
503.5553111475659
 10
858.1337703252368
 20
503.5553111475659
 10
858.3409468373288
 20
503.5208118558663
 10
858.54812432214
 20
502.8653199522136
 10
858.4100059989325
 20
502.3133269959317
 10
858.1682999060386
 20
502.3133269959317
 10
857.4431806546379
 20
502.7618215409788
 10
856.9942980496519
 20
503.2448153777254
 10
857.1669449809422
 20
503.4518127363311
  0
LWPOLYLINE
  5
2F6
330
1F
100
AcDbEntity
  8
Drawing
 62
     7
100
AcDbPolyline
 90
        7
 70
     1
 43
0.0
 10
841.5596221217393
 20
502.4168259433026
 10
841.9739761186424
 20
502.4858250628379
 10
841.9739761186424
 20
502.7273217131431
 10
841.6977404449467
 20
502.8653199522136
 10
841.2143272864398
 20
502.8653199522136
 10
841.0416803551498
 20
502.7273217131431
 10
841.2833864480435
 20
502.4513252350022
  0
LWPOLYLINE
  5
2F7
330
1F
100
AcDbEntity
  8
Drawing
 62
     7
100
AcDbPolyline
 90
       32
 70
     0
 43
0.0
 10
719.0191979950285
 20
489.4616679869383
 10
724.6174996104395
 20
489.1120771659583
 10
729.6326454560578
 20
489.5781977244623
 10
740.7126177274649
 20
489.2286074396184
 10
752.2591148092499
 20
488.8790166186383
 10
761.9395116768044
 20
488.5294257976583
 10
765.7883450101184
 20
488.6459560713183
 10
768.0043390753123
 20
488.8790166186383
 10
771.7365404764926
 20
488.1798349766782
 10
777.6847359428666
 20
488.0633047030183
 10
786.4320822169462
 20
487.8302446918344
 10
795.0627975316111
 20
488.0633047030183
 10
801.1276249301189
 20
487.9467749654945
 10
808.5920277324796
 20
488.0633047030183
 10
811.391178540185
 20
488.2963652503382
 10
828.8608916631655
 20
488.1798349766782
 10
841.2238083790105
 20
487.5971841445144
 10
852.187149691003
 20
487.4806538708543
 10
862.3340713689354
 20
487.0145327762143
 10
869.331948388199
 20
485.9657608494103
 10
874.1138313422689
 20
485.9657608494103
 10
879.595501998265
 20
485.4996397547703
 10
887.293166719455
 20
485.0335191962664
 10
896.5070387766316
 20
485.0335191962664
 10
908.2116707942146
 20
485.0335191962664
 10
919.1750121062071
 20
485.0335191962664
 10
928.2722522312497
 20
484.2178072806464
 10
938.1859119903527
 20
483.4020959011625
 10
949.3825152211743
 20
482.8194445328623
 10
959.0629120887288
 20
482.1202634270385
 10
967.4027153446864
 20
482.3533234382223
 10
969.735340369295
 20
482.2367931645623
  0
LWPOLYLINE
  5
2F8
330
1F
100
AcDbEntity
  8
Drawing
 62
     7
100
AcDbPolyline
 90
        7
 70
     1
 43
0.0
 10
740.7228876951845
 20
481.4900605314384
 10
741.5408549252516
 20
482.1711089751038
 10
742.4951497027567
 20
482.4889315821478
 10
743.131345896854
 20
482.7613509596139
 10
743.631215516232
 20
482.2165122046815
 10
742.8132482861649
 20
481.7170766793269
 10
741.631739956877
 20
481.5354637610161
  0
LWPOLYLINE
  5
303
330
1F
100
AcDbEntity
  8
Drawing
 62
     7
100
AcDbPolyline
 90
        7
 70
     1
 43
0.0
 10
751.5836723196823
 20
480.7182056286175
 10
752.0835409663413
 20
481.1722379243945
 10
752.4925245813747
 20
481.2630438474137
 10
753.128720775472
 20
481.5354632248798
 10
753.62859039485
 20
480.9906244699474
 10
752.8106231647829
 20
480.4911889445927
 10
752.310754518124
 20
480.5819959398845
  0
LWPOLYLINE
  5
309
330
1F
100
AcDbEntity
  8
Drawing
 62
     7
100
AcDbPolyline
 90
        7
 70
     1
 43
0.0
 10
763.0766679083335
 20
477.766995169931
 10
763.1221104241463
 20
478.2664306952856
 10
764.0309626858387
 20
478.5842533023294
 10
764.667158879936
 20
478.4026398478824
 10
765.167028499314
 20
477.85780109295
 10
764.3490612692469
 20
477.3583655675953
 10
763.6674215866179
 20
477.5853817154839
  0
LWPOLYLINE
  5
30F
330
1F
100
AcDbEntity
  8
Drawing
 62
     7
100
AcDbPolyline
 90
        7
 70
     1
 43
0.0
 10
769.347748708556
 20
475.6330428436429
 10
769.6204038034323
 20
476.1778815985753
 10
770.2566009702484
 20
476.7681235830854
 10
770.6201420694694
 20
475.8146557619536
 10
770.7564696169075
 20
475.3606229300404
 10
770.0293874184658
 20
475.2244137774436
 10
769.347748708556
 20
475.2698170070213
  0
LWPOLYLINE
  5
315
330
1F
100
AcDbEntity
  8
Drawing
 62
     7
100
AcDbPolyline
 90
        7
 70
     1
 43
0.0
 10
783.3895162489778
 20
480.8998185469283
 10
784.843679673142
 20
481.8986895976376
 10
785.4344333514264
 20
482.5343348117254
 10
785.9343019980854
 20
481.7170766793269
 10
786.1615155498681
 20
480.8544153173506
 10
785.6616469032091
 20
480.8090120877729
 10
784.2983685106703
 20
480.9452217765059
  0
LWPOLYLINE
  5
31B
330
1F
100
AcDbEntity
  8
Drawing
 62
     7
100
AcDbPolyline
 90
        7
 70
     1
 43
0.0
 10
801.7131560798292
 20
482.6251412708808
 10
802.7128933731472
 20
482.942964414061
 10
803.3036470514315
 20
482.8975606483469
 10
803.9398432455288
 20
483.1699800258131
 10
804.4397128649068
 20
482.6251412708807
 10
803.8035156980907
 20
482.4889315821478
 10
802.9401059522108
 20
482.3527218934146
  0
LWPOLYLINE
  5
321
330
1F
100
AcDbEntity
  8
Drawing
 62
     7
100
AcDbPolyline
 90
        7
 70
     1
 43
0.0
 10
823.2983968086677
 20
482.4435283525701
 10
823.934593975484
 20
482.8975611844832
 10
824.5253476537684
 20
483.079174102794
 10
825.0252163004274
 20
482.7613509596139
 10
825.5250859198054
 20
482.2165122046815
 10
824.8434462371765
 20
482.0803025159485
 10
824.0254790071094
 20
482.1257057455261
  0
LWPOLYLINE
  5
327
330
1F
100
AcDbEntity
  8
Drawing
 62
     7
100
AcDbPolyline
 90
        7
 70
     1
 43
0.0
 10
835.872599774587
 20
477.4945752563285
 10
836.5542384844969
 20
478.4480436135964
 10
836.8723370679049
 20
478.6296559957709
 10
837.5085332620022
 20
478.902075373237
 10
838.0084028813802
 20
478.3572366183047
 10
837.1904356513131
 20
477.85780109295
 10
836.6451235161223
 20
477.5853817154839
  0
LWPOLYLINE
  5
32E
330
1F
100
AcDbEntity
  8
Drawing
 62
     7
100
AcDbPolyline
 90
        7
 70
     1
 43
0.0
 10
853.5952188775918
 20
479.3561082051503
 10
853.7315464250298
 20
479.8101405009273
 10
854.3677435918461
 20
479.8101405009273
 10
855.0039397859433
 20
480.0825598783935
 10
855.5038094053214
 20
479.5377211234611
 10
854.6858421752543
 20
479.0382855981064
 10
854.0950875242506
 20
478.9474791389511
  0
LWPOLYLINE
  5
334
102
{ACAD_REACTORS
330
577
102
}
330
1F
100
AcDbEntity
  8
Drawing
 62
     7
100
AcDbPolyline
 90
        7
 70
     1
 43
0.0
 10
829.7832890376155
 20
471.2289285023338
 10
830.9647973669034
 20
471.0019123544453
 10
832.5552883385059
 20
470.7294929769791
 10
833.555026604543
 20
469.9122348445806
 10
832.4189607910677
 20
469.7760246197113
 10
830.8284698194652
 20
469.8668316150029
 10
829.0562078118929
 20
470.139250992469
  0
LWPOLYLINE
  5
335
102
{ACAD_REACTORS
330
56F
102
}
330
1F
100
AcDbEntity
  8
Drawing
 62
     7
100
AcDbPolyline
 90
       26
 70
     1
 43
0.0
 10
844.9533406391204
 20
468.6863471098465
 10
845.5895378059365
 20
468.913363257735
 10
845.7258653533747
 20
469.503605242245
 10
846.1348489684083
 20
469.5490084718227
 10
846.4983900676291
 20
470.0030413037359
 10
847.2709138091645
 20
470.0484445333136
 10
847.7707824558236
 20
470.0484445333136
 10
847.7707824558236
 20
470.4570735995129
 10
848.1343235550444
 20
471.2289285023338
 10
848.5433071700779
 20
471.6375575685331
 10
849.7248154993658
 20
471.5013478797999
 10
851.042651376092
 20
471.5013478797999
 10
851.9515036377845
 20
471.2289285023338
 10
852.6331423476943
 20
470.5024768290906
 10
852.6331423476943
 20
470.3662671403575
 10
851.9969461535973
 20
469.5944117014004
 10
852.04238866941
 20
468.7771535690019
 10
851.3153064709682
 20
468.459330961958
 10
850.5882252452457
 20
468.0961051253364
 10
849.4521594317705
 20
468.0507018957587
 10
848.861405753486
 20
468.1415083549141
 10
848.0888810392316
 20
468.9587664873127
 10
847.7707824558236
 20
468.5501374211134
 10
846.5438325834418
 20
468.2323148140695
 10
845.8167503850002
 20
468.2323148140695
 10
845.1351116750905
 20
468.4139277323803
  0
LWPOLYLINE
  5
336
330
1F
100
AcDbEntity
  8
Drawing
 62
     7
100
AcDbPolyline
 90
        8
 70
     1
 43
0.0
 10
859.8130754096094
 20
470.2300574516245
 10
860.4038290878937
 20
471.047315584023
 10
861.539894901369
 20
471.1835252727561
 10
862.6305172263123
 20
471.1381220431784
 10
863.221271877316
 20
470.6386865178237
 10
862.2215336112788
 20
469.9122348445806
 10
860.9491412230846
 20
469.7306213901336
 10
860.1311739930175
 20
469.8668316150029
  0
LWPOLYLINE
  5
33D
330
1F
100
AcDbEntity
  8
Drawing
 62
     7
100
AcDbPolyline
 90
        8
 70
     1
 43
0.0
 10
868.7330384606885
 20
479.9009469600827
 10
869.142022075722
 20
480.5365927103066
 10
870.1417593690401
 20
480.6273991694621
 10
870.9142831105753
 20
480.3549797919959
 10
871.5050377615789
 20
479.8555442666411
 10
870.5052994955417
 20
479.129092593398
 10
869.2329071073475
 20
478.9474791389511
 10
868.9148085239394
 20
479.3561082051503
  0
LWPOLYLINE
  5
343
330
1F
100
AcDbEntity
  8
Drawing
 62
     7
100
AcDbPolyline
 90
        8
 70
     1
 43
0.0
 10
883.0020185801739
 20
474.9519938638413
 10
883.1837896161439
 20
475.4514299253321
 10
883.9563133576792
 20
475.5422363844875
 10
884.5016245201509
 20
475.0428008591329
 10
885.0923791711546
 20
474.5433653337781
 10
884.0926418778365
 20
474.3617518793311
 10
883.683658262803
 20
474.5887680272197
 10
883.3655596793949
 20
474.7249777159527
  0
LWPOLYLINE
  5
349
330
1F
100
AcDbEntity
  8
Drawing
 62
     7
100
AcDbPolyline
 90
        8
 70
     1
 43
0.0
 10
904.1431012004475
 20
481.9440928272154
 10
904.5975273312938
 20
482.0803025159485
 10
905.0973959779528
 20
481.8986895976376
 10
905.5518221087991
 20
481.6262702201715
 10
905.4154945613609
 20
481.0814314652391
 10
905.5518221087991
 20
480.5365927103066
 10
904.7792983672639
 20
480.8998185469283
 10
904.3703147522303
 20
481.4900605314384
  0
LWPOLYLINE
  5
34F
330
1F
100
AcDbEntity
  8
Drawing
 62
     7
100
AcDbPolyline
 90
        8
 70
     1
 43
0.0
 10
919.2754920385319
 20
477.4945752563285
 10
920.0025732642546
 20
477.3583655675955
 10
920.593327915258
 20
477.0859461901292
 10
920.9568680417597
 20
476.4957042056192
 10
921.1386390777297
 20
475.6784460732206
 10
920.4115568792881
 20
475.5422363844875
 10
919.5027046175956
 20
476.4957042056192
 10
919.1846070069064
 20
476.9497365013962
  0
LWPOLYLINE
  5
355
330
1F
100
AcDbEntity
  8
Drawing
 62
     7
100
AcDbPolyline
 90
        8
 70
     1
 43
0.0
 10
946.4010068279124
 20
470.4116703699352
 10
947.4461866370432
 20
470.3208639107798
 10
947.9006127678895
 20
470.2754606812022
 10
949.0821210971774
 20
469.6852181605559
 10
949.9000883272445
 20
469.5036057783811
 10
948.809465029582
 20
469.1857826352011
 10
947.7188427046385
 20
469.503605242245
 10
947.0372030220096
 20
469.7760246197113
  0
LWPOLYLINE
  5
35D
330
1F
100
AcDbEntity
  8
Drawing
 62
     7
100
AcDbPolyline
 90
        8
 70
     1
 43
0.0
 10
946.0105933922437
 20
475.9201368048274
 10
946.1014784238691
 20
476.1925561822936
 10
946.4195770072772
 20
476.3741691006044
 10
947.282986753157
 20
476.4195723301821
 10
948.1463964990369
 20
476.2833626414489
 10
947.601084363846
 20
475.8293298095358
 10
946.7376755906853
 20
475.7839265799581
 10
946.1014784238691
 20
475.511507202492
  0
LWPOLYLINE
  5
367
330
1F
100
AcDbEntity
  8
Drawing
 62
     7
100
AcDbPolyline
 90
        6
 70
     1
 43
0.0
 10
937.9906580956442
 20
472.8327161212716
 10
938.7177393213669
 20
472.3332805959169
 10
939.3993790039958
 20
472.4240870550723
 10
939.535706551434
 20
473.1051354987377
 10
938.9903953889623
 20
473.4229586419178
 10
938.5814117739287
 20
472.8781193508493
  0
LWPOLYLINE
  5
36E
330
1F
100
AcDbEntity
  8
Drawing
 62
     7
100
AcDbPolyline
 90
        6
 70
     1
 43
0.0
 10
953.395704028605
 20
474.9666684475595
 10
954.1227852543277
 20
474.4672329222049
 10
954.8044249369566
 20
474.5580393813602
 10
954.9407524843948
 20
475.2390878250256
 10
954.031900222702
 20
475.7385233503804
 10
953.3502615127923
 20
475.6931201208027
  0
LWPOLYLINE
  5
374
330
1F
100
AcDbEntity
  8
Drawing
 62
     7
100
AcDbPolyline
 90
        6
 70
     1
 43
0.0
 10
963.2567503870657
 20
477.1006207738476
 10
963.711176517912
 20
476.9190078555367
 10
964.3928162005409
 20
477.0098143146921
 10
964.5291437479791
 20
477.6908627583575
 10
964.0747176171328
 20
477.6000562992023
 10
963.5748489704738
 20
477.4638466104691
  0
LWPOLYLINE
  5
37A
330
1F
100
AcDbEntity
  8
Drawing
 62
     7
100
AcDbPolyline
 90
        6
 70
     1
 43
0.0
 10
961.5753743838379
 20
472.015457988873
 10
961.6208159269315
 20
471.6976353818291
 10
962.3024556095604
 20
471.7884418409844
 10
962.4387831569986
 20
472.4694902846499
 10
962.4387831569986
 20
472.4694902846499
 10
961.8934719945269
 20
472.3332805959169
  0
LWPOLYLINE
  5
37B
330
1F
100
AcDbEntity
  8
Drawing
 62
     7
100
AcDbPolyline
 90
        5
 70
     1
 43
0.0
 10
895.0545795562412
 20
478.7805408043586
 10
895.4635631712747
 20
478.5535246564701
 10
895.8271042704955
 20
478.7805408043586
 10
896.0543178222781
 20
479.2345731001355
 10
895.4635631712747
 20
479.1891698705579
  0
LWPOLYLINE
  5
37C
330
1F
100
AcDbEntity
  8
Drawing
 62
     7
100
AcDbPolyline
 90
        6
 70
     1
 43
0.0
 10
906.597003863368
 20
478.2811047428677
 10
906.9605449625888
 20
478.2811047428677
 10
906.9605449625888
 20
478.7805408043586
 10
906.6424463791807
 20
478.9621537226694
 10
906.4152328273981
 20
478.7351375747809
 10
906.4152328273981
 20
478.4173144316009
  0
LWPOLYLINE
  5
383
330
1F
100
AcDbEntity
  8
Drawing
 62
     7
100
AcDbPolyline
 90
        6
 70
     1
 43
0.0
 10
915.9581825478888
 20
473.2413457236071
 10
916.776148805237
 20
473.1505387283155
 10
916.6852637736115
 20
473.9223941672725
 10
916.0036250637015
 20
473.9223947034088
 10
915.7764115119189
 20
473.6953785555203
 10
915.7764115119189
 20
473.3775554123403
  0
LWPOLYLINE
  5
389
330
1F
100
AcDbEntity
  8
Drawing
 62
     7
100
AcDbPolyline
 90
        6
 70
     1
 43
0.0
 10
926.0464424581323
 20
473.1051354987377
 10
926.4099835573531
 20
473.1051354987377
 10
926.4099835573531
 20
473.6045715602286
 10
926.0918849739451
 20
473.7861844785394
 10
925.8646714221625
 20
473.5591683306509
 10
925.8646714221625
 20
473.2413451874709
  0
LWPOLYLINE
  5
38F
330
1F
100
AcDbEntity
  8
Drawing
 62
     7
100
AcDbPolyline
 90
        6
 70
     1
 43
0.0
 10
928.8184417590226
 20
477.1460240034253
 10
929.1819828582434
 20
477.1460240034253
 10
929.1819828582434
 20
477.6454600649162
 10
928.8638842748353
 20
477.827072983227
 10
928.6366707230527
 20
477.6000568353385
 10
928.6366707230527
 20
477.2822336921585
  0
LWPOLYLINE
  5
395
330
1F
100
AcDbEntity
  8
Drawing
 62
     7
100
AcDbPolyline
 90
        6
 70
     1
 43
0.0
 10
931.6358845484447
 20
466.6124725968546
 10
931.9994256476655
 20
466.6124725968546
 10
931.9994256476655
 20
467.1119086583454
 10
931.6813270642574
 20
467.2935215766563
 10
931.4541135124748
 20
467.0665054287678
 10
931.4541135124748
 20
466.7486822855877
  0
LWPOLYLINE
  5
39B
330
1F
100
AcDbEntity
  8
Drawing
 62
     7
100
AcDbPolyline
 90
        6
 70
     1
 43
0.0
 10
899.9623829366437
 20
471.9246515297176
 10
900.3259240358645
 20
471.9246515297176
 10
900.3259240358645
 20
472.4240875912085
 10
900.0078254524565
 20
472.6057005095194
 10
899.7806119006739
 20
472.3786843616308
 10
899.7806119006739
 20
472.0608612184508
  0
LWPOLYLINE
  5
3A1
330
1F
100
AcDbEntity
  8
Drawing
 62
     7
100
AcDbPolyline
 90
        6
 70
     1
 43
0.0
 10
895.1454655605855
 20
473.9677973968502
 10
894.9636945246157
 20
474.1040070855834
 10
895.5090066598063
 20
474.4672334583411
 10
895.1909080763983
 20
474.6488463766519
 10
894.9636945246157
 20
474.4218302287634
 10
894.9636945246157
 20
474.1040070855834
  0
LWPOLYLINE
  5
3A2
330
1F
100
AcDbEntity
  8
Drawing
 62
     7
100
AcDbPolyline
 90
        8
 70
     1
 43
0.0
 10
897.9725820409501
 20
466.4308596785437
 10
900.835466373466
 20
466.4762629081214
 10
902.1987447660049
 20
466.385456448966
 10
903.516580642731
 20
466.5670693672768
 10
904.516318908768
 20
467.0665048926315
 10
902.7440569011956
 20
467.1119081222092
 10
900.5628112785896
 20
466.7940855151653
 10
897.8362544935121
 20
466.4762629081214
  0
LWPOLYLINE
  5
3A3
102
{ACAD_REACTORS
330
554
102
}
330
1F
100
AcDbEntity
  8
Drawing
 62
     7
100
AcDbPolyline
 90
        9
 70
     1
 43
0.0
 10
906.6066785270295
 20
467.29352104052
 10
907.8336293721302
 20
467.3843274996754
 10
908.9242516970735
 20
467.2027145813646
 10
908.9696942128862
 20
466.7486822855876
 10
907.7881868563175
 20
466.1584403010776
 10
907.0156621420631
 20
465.4319886278344
 10
906.015924848745
 20
465.8406176940337
 10
905.2434001344907
 20
466.7940855151653
 10
905.4706136862733
 20
467.2027145813646
  0
LWPOLYLINE
  5
3A9
330
1F
100
AcDbEntity
  8
Drawing
 62
     7
100
AcDbPolyline
 90
        6
 70
     1
 43
0.0
 10
877.3940092286539
 20
472.8781193508493
 10
878.4846315535974
 20
472.9235225804269
 10
878.6209591010354
 20
473.6045715602286
 10
877.9393203911256
 20
473.6953780193841
 10
877.212238192684
 20
473.3321521827625
 10
877.212238192684
 20
473.0143290395824
  0
LWPOLYLINE
  5
3AF
330
1F
100
AcDbEntity
  8
Drawing
 62
     7
100
AcDbPolyline
 90
        6
 70
     1
 43
0.0
 10
859.2624065106156
 20
481.1869125081129
 10
859.6259476098364
 20
481.1869125081129
 10
859.6259476098364
 20
481.6863485696038
 10
858.9897504430203
 20
482.2765900179776
 10
858.4898817963613
 20
482.0949770996668
 10
858.6716518596122
 20
481.3685254264236
  0
LWPOLYLINE
  5
3B0
330
1F
100
AcDbEntity
  8
Drawing
 62
     7
100
AcDbPolyline
 90
        7
 70
     1
 43
0.0
 10
819.3400528193778
 20
473.6953780193841
 10
818.6584141094678
 20
473.6953780193841
 10
818.6584141094678
 20
473.3321521827625
 10
819.2491677877523
 20
473.1959419578932
 10
819.6581514027858
 20
473.2413457236071
 10
820.0671350178194
 20
473.4229586419178
 10
819.7490364344113
 20
473.7861844785394
  0
LWPOLYLINE
  5
3B1
330
1F
100
AcDbEntity
  8
Drawing
 62
     7
100
AcDbPolyline
 90
        6
 70
     1
 43
0.0
 10
811.0694974325194
 20
476.2379594118713
 10
811.614808594991
 20
476.0563464935606
 10
811.7511371151483
 20
476.1925561822936
 10
811.796579630961
 20
476.4649755597599
 10
811.296710984302
 20
476.6465884780706
 10
811.2058259526766
 20
476.4195723301821
  0
LWPOLYLINE
  5
3B7
330
1F
100
AcDbEntity
  8
Drawing
 62
     7
100
AcDbPolyline
 90
        6
 70
     1
 43
0.0
 10
792.2562560045711
 20
480.5058635283111
 10
792.6197971037919
 20
480.5058635283111
 10
792.6197971037919
 20
481.005299589802
 10
792.3016985203839
 20
481.1869125081129
 10
792.0744849686013
 20
480.9598963602243
 10
792.0744849686013
 20
480.6420732170443
  0
LWPOLYLINE
  5
3BD
330
1F
100
AcDbEntity
  8
Drawing
 62
     7
100
AcDbPolyline
 90
        6
 70
     1
 43
0.0
 10
804.116777922387
 20
479.5069924776018
 10
804.4803190216078
 20
479.5069924776018
 10
804.4803190216078
 20
480.0064285390927
 10
804.1622204381997
 20
480.1880414574035
 10
803.9350068864171
 20
479.961025309515
 10
803.9350068864171
 20
479.643202166335
  0
LWPOLYLINE
  5
3C3
330
1F
100
AcDbEntity
  8
Drawing
 62
     7
100
AcDbPolyline
 90
        6
 70
     1
 43
0.0
 10
823.0663478704923
 20
476.1925561822936
 10
823.4298889697131
 20
476.1925561822936
 10
823.4298889697131
 20
476.6919922437845
 10
823.1117903863051
 20
476.8736051620954
 10
822.8845768345225
 20
476.6465890142068
 10
822.8845768345225
 20
476.3287658710268
  0
LWPOLYLINE
  5
3C9
330
1F
100
AcDbEntity
  8
Drawing
 62
     7
100
AcDbPolyline
 90
        6
 70
     1
 43
0.0
 10
776.5199019635168
 20
481.6409448038899
 10
777.2924257050522
 20
481.6863480334675
 10
777.7468518358985
 20
482.4127997067106
 10
777.2015406734267
 20
482.9122352320653
 10
776.5653435066106
 20
482.5944126250215
 10
776.3381309275469
 20
481.777154492623
  0
LWPOLYLINE
  5
3CF
330
1F
100
AcDbEntity
  8
Drawing
 62
     7
100
AcDbPolyline
 90
        6
 70
     1
 43
0.0
 10
739.4913611796771
 20
476.9190078555367
 10
739.854902278898
 20
476.9190078555367
 10
739.854902278898
 20
477.4184439170276
 10
739.5368036954899
 20
477.6000568353385
 10
739.3095901437073
 20
477.3730406874499
 10
739.3095901437073
 20
477.0552175442699
  0
LWPOLYLINE
  5
3D5
330
1F
100
AcDbEntity
  8
Drawing
 62
     7
100
AcDbPolyline
 90
        6
 70
     1
 43
0.0
 10
747.2620479198765
 20
483.3208642982646
 10
747.6255890190973
 20
483.3208642982646
 10
747.6255890190973
 20
483.8203003597555
 10
747.3074904356893
 20
484.0019132780664
 10
747.0802768839067
 20
483.7748971301778
 10
747.0802768839067
 20
483.4570739869978
  0
LWPOLYLINE
  5
3D6
330
1F
100
AcDbEntity
  8
Drawing
 62
     7
100
AcDbPolyline
 90
       18
 70
     1
 43
0.0
 10
718.5423166449358
 20
473.0726268807201
 10
719.0421852915948
 20
472.7094005079623
 10
719.9964800691001
 20
472.891013426273
 10
720.7690038106355
 20
472.891013426273
 10
721.4052009774516
 20
472.8002069671177
 10
722.1777256917061
 20
472.4823843600739
 10
722.8139218858032
 20
472.3915779009184
 10
723.7227741474958
 20
472.3915779009184
 10
724.5861838933756
 20
472.6639972783846
 10
724.9951675084092
 20
472.6639972783846
 10
724.9042824767837
 20
473.2088365694532
 10
724.3135278257802
 20
474.0260947018518
 10
723.4955605957131
 20
474.0260947018518
 10
721.4960860090771
 20
473.7082720948079
 10
720.4963487157592
 20
473.7082720948079
 10
719.3148403864711
 20
473.3904494877639
 10
718.4514306405914
 20
473.2996430286086
 10
718.4059881247787
 20
473.2542397990309
  0
LWPOLYLINE
  5
3D7
330
1F
100
AcDbEntity
  8
Drawing
 62
     7
100
AcDbPolyline
 90
       77
 70
     0
 43
0.0
 10
725.0406100242219
 20
473.1180301102978
 10
726.5402159641989
 20
472.891013426273
 10
729.5848713326847
 20
472.8002069671177
 10
731.9024445027287
 20
472.9818198854285
 10
735.356083486248
 20
472.75480373754
 10
737.855426719543
 20
472.75480373754
 10
740.6274260204334
 20
472.75480373754
 10
743.2176552580729
 20
472.4369811304961
 10
745.3989008806788
 20
472.1191585234523
 10
749.8522771575161
 20
471.8921423755637
 10
753.2150301366909
 20
471.9375456051414
 10
755.6689308541731
 20
471.8921423755637
 10
760.364364375481
 20
471.5743197685199
 10
763.1363636763714
 20
471.5289165389421
 10
765.9083629772618
 20
471.8921423755637
 10
766.9535437591115
 20
471.8013359164083
 10
768.9530183457475
 20
471.4381100797867
 10
771.725017646638
 20
471.1656907023206
 10
775.4058692092209
 20
471.1202874727429
 10
778.6322946409575
 20
471.1202874727429
 10
780.1773440694662
 20
471.1202874727429
 10
782.6766873027613
 20
470.7116584065436
 10
785.039702988618
 20
470.6662551769659
 10
788.4933419721374
 20
470.7570616361213
 10
790.1747189480843
 20
470.8932713248544
 10
791.8106524354995
 20
471.1202874727429
 10
794.219111609888
 20
471.1202874727429
 10
796.855373803803
 20
470.9386745544321
 10
800.5362253663859
 20
470.8478680952767
 10
803.853535829748
 20
470.802464865699
 10
808.4886821698362
 20
470.5300454882328
 10
817.3954347235108
 20
470.1668191154751
 10
821.8033684845354
 20
469.6219803605426
 10
824.4844827538003
 20
469.4403674422318
 10
825.9386461779646
 20
469.2133512943434
 10
828.528875415604
 20
469.1225448351879
 10
831.2554322006818
 20
469.0771416056102
 10
835.1595111123845
 20
468.9863351464548
 10
837.6134118298667
 20
468.9409319168772
 10
839.5220013848773
 20
468.6231093098332
 10
841.9759030750786
 20
468.0328673253232
 10
844.6570173443436
 20
467.5334312638323
 10
847.1109180618257
 20
467.3518183455216
 10
850.246458461937
 20
467.2610118863661
 10
851.8823929220712
 20
467.124802197633
 10
853.6092114411117
 20
466.8523828201669
 10
856.3357682261894
 20
466.2167376060791
 10
858.244358753919
 20
465.7173020807244
 10
859.1532110156115
 20
465.5810923919913
 10
860.5619319239631
 20
465.5810923919913
 10
862.9703901256325
 20
465.5810923919913
 10
865.4033686290898
 20
465.9897214581906
 10
868.17536792998
 20
466.3075440652344
 10
870.9019247150577
 20
466.7161731314337
 10
873.3103838894463
 20
466.5799634427007
 10
878.4453988761936
 20
466.534560213123
 10
886.5341841998011
 20
466.3529472948121
 10
891.53287163911
 20
466.080527917346
 10
896.6861961165168
 20
466.0351246877683
 10
903.4117030475854
 20
465.7173020807244
 10
907.9105218402356
 20
465.0362531009227
 10
911.000618751815
 20
465.1270595600781
 10
914.0907166361135
 20
465.4902859328359
 10
917.7678426847385
 20
465.626495621569
 10
923.9480384533356
 20
465.7173020807244
 10
928.4014147301727
 20
465.5356891624136
 10
931.6732826777222
 20
465.2632697849474
 10
934.3543969469872
 20
465.1270595600781
 10
937.7625924419747
 20
465.1270595600781
 10
943.0339359488792
 20
465.1270595600781
 10
946.1694763489902
 20
465.0362531009227
 10
956.794223887212
 20
464.7638337234565
 10
960.7477305446712
 20
464.5368175755681
 10
964.1559270123778
 20
464.4006078868349
 10
966.1554015990137
 20
464.4460111164126
 10
968.2912047058069
 20
464.6730272643011
 10
969.6544830983457
 20
464.6730272643011
  0
LWPOLYLINE
  5
3D9
330
1F
100
AcDbEntity
  8
Drawing
 62
     7
100
AcDbPolyline
 90
       17
 70
     0
 43
0.0
 10
719.5278006860286
 20
468.9409319168772
 10
722.0271439193236
 20
468.8501254577218
 10
723.799405926896
 20
468.6685125394109
 10
727.798356072887
 20
468.1236737844786
 10
731.979076282129
 20
467.4880280342546
 10
734.5238630039557
 20
467.3064151159439
 10
737.1140912688761
 20
467.1702054272107
 10
740.6586152840209
 20
466.5799634427007
 10
742.8398609066269
 20
466.2621408356567
 10
746.3843849217716
 20
465.8535117694574
 10
750.15612151598
 20
465.8081085398798
 10
754.2005141777837
 20
465.4448827032581
 10
757.7835500855169
 20
464.8546401826119
 10
761.0099755172536
 20
464.5368175755681
 10
763.5093197232677
 20
464.3098014276795
 10
766.2358765083453
 20
463.9919788206356
 10
767.8263674799477
 20
463.8557691319025
  0
LWPOLYLINE
  5
3DA
330
1F
100
AcDbEntity
  8
Drawing
 62
     7
100
AcDbPolyline
 90
       60
 70
     0
 43
0.0
 10
770.9164653642462
 20
463.5379465248586
 10
773.0522684710394
 20
463.1293174586594
 10
775.5970551928662
 20
463.2201239178148
 10
778.3690544937566
 20
463.4471400657033
 10
781.3682663737105
 20
462.9931077699263
 10
783.3677419330655
 20
462.9023013107709
 10
786.7759374280531
 20
462.7660916220378
 10
790.0932478914152
 20
462.6298819333047
 10
793.1833457757136
 20
462.266655560547
 10
796.2734436600122
 20
461.948832953503
 10
798.5587848116481
 20
461.4464240168261
 10
801.2853415967259
 20
460.8107788027384
 10
804.420881996837
 20
460.4929561956944
 10
806.7384551668811
 20
460.265940047806
 10
808.3743896270154
 20
460.2205368182282
 10
811.4644875113138
 20
459.9481174407621
 10
814.0092732604215
 20
459.6756980632958
 10
816.2359613988401
 20
459.5394878384266
 10
817.7810098546299
 20
459.4940846088489
 10
819.8259279297977
 20
459.4940846088489
 10
822.0071735524035
 20
459.4032781496935
 10
825.5516975675483
 20
459.2670684609603
 10
829.306828874871
 20
459.3578749201158
 10
832.7604668856712
 20
459.0854555426496
 10
836.804859547475
 20
458.8130361651833
 10
841.5308918919077
 20
458.8584393947611
 10
842.7123992484767
 20
458.8130361651833
 10
844.2574486769854
 20
458.5406167877172
 10
845.6661695853368
 20
458.2227941806733
 10
847.6202016561601
 20
457.9503748032072
 10
849.5287912111708
 20
457.4509392778525
 10
852.8006601314391
 20
457.6779554257409
 10
854.6183646548243
 20
457.8595683440517
 10
856.4360691782092
 20
457.7233586553186
 10
857.8447900865608
 20
457.4509392778525
 10
859.2181302849426
 20
456.8511626472992
 10
860.1751515939422
 20
456.7040565265946
 10
862.162811535009
 20
456.6305029301062
 10
864.5702960449105
 20
456.5428741501623
 10
866.4334440568273
 20
456.4520676910068
 10
869.2963283893432
 20
456.58827737974
 10
871.0554499352825
 20
456.497471992857
 10
873.145810526263
 20
456.3158590745462
 10
876.8721046046585
 20
456.0888429266577
 10
879.8713164846126
 20
455.4986004060114
 10
884.5519063132326
 20
455.0445681102344
 10
888.0055443240328
 20
454.5905358144574
 10
892.4134780850572
 20
453.8640841412143
 10
895.7762310642322
 20
453.3646486158597
 10
899.734906750718
 20
452.9560190135242
 10
905.2334628366859
 20
452.2749705698586
 10
909.368740530115
 20
452.2749705698586
 10
914.730969068645
 20
452.0025511923925
 10
924.5920163998248
 20
451.5031156670378
 10
931.5447359099571
 20
451.321502748727
 10
937.7703741943667
 20
451.0944866008385
 10
947.3235899917008
 20
450.5496478459062
 10
952.7767035618563
 20
450.1410182435707
 10
962.455979857066
 20
449.6869859477937
 10
969.8176829822319
 20
449.5507762590606
  0
LWPOLYLINE
  5
3DB
330
1F
100
AcDbEntity
  8
Drawing
 62
     7
100
AcDbPolyline
 90
       18
 70
     1
 43
0.0
 10
770.0196135374613
 20
465.7380548404544
 10
771.3512260340786
 20
465.7380548404544
 10
772.283355462614
 20
465.3832656429541
 10
772.283355462614
 20
464.8510818467039
 10
771.8838714218132
 20
464.2745499369023
 10
771.3512260340786
 20
463.9641093890896
 10
770.9517419932777
 20
463.6980174909645
 10
770.5966460408404
 20
463.4762742425269
 10
769.6201294966604
 20
463.2988796437768
 10
769.3094196871486
 20
463.1658336947143
 10
768.8655485307032
 20
463.1214850450267
 10
768.110968537465
 20
463.564971541902
 10
767.9334200748868
 20
463.8754120897146
 10
767.9334200748868
 20
464.4519445356524
 10
767.9334200748868
 20
464.939779146079
 10
768.3772912313323
 20
465.6493575410793
 10
768.7323871837696
 20
465.871100789517
 10
769.3094196871486
 20
465.871100789517
  0
LWPOLYLINE
  5
3DC
102
{ACAD_REACTORS
330
58D
102
}
330
1F
100
AcDbEntity
  8
Drawing
 62
     7
100
AcDbPolyline
 90
       15
 70
     1
 43
0.0
 10
771.4843873810122
 20
463.653668841277
 10
773.2154839184304
 20
464.1415039878398
 10
773.7925164218095
 20
464.3632472362773
 10
774.8578062245595
 20
464.6293385982663
 10
775.390451612294
 20
464.8067331970163
 10
776.0562583469622
 20
464.7623845473289
 10
776.8108393129194
 20
464.7623845473289
 10
777.1215481497121
 20
464.7180358976414
 10
777.3878708435794
 20
464.5849899485787
 10
777.2103223810012
 20
464.3632472362773
 10
775.7899356530949
 20
463.8754120897146
 10
774.7690329659895
 20
463.831063440027
 10
773.259871034075
 20
463.3432282934643
 10
772.283355462614
 20
463.3432282934643
 10
771.7950971905241
 20
463.3875769431518
  0
LWPOLYLINE
  5
3DD
330
1F
100
AcDbEntity
  8
Drawing
 62
     7
100
AcDbPolyline
 90
       15
 70
     1
 43
0.0
 10
784.5785806598384
 20
463.831063440027
 10
785.5994833469439
 20
464.2302012872148
 10
786.265290081612
 20
464.4519445356524
 10
786.842322584991
 20
464.7623845473289
 10
787.330579884362
 20
464.7623845473289
 10
787.7744510408074
 20
464.6736872479538
 10
787.9519995033857
 20
464.5406412988913
 10
787.9519995033857
 20
464.3632472362773
 10
787.9519995033857
 20
463.831063440027
 10
787.0642581632138
 20
463.4319255928393
 10
785.9545802721002
 20
463.3875769431518
 10
785.3775477687211
 20
463.3875769431518
 10
784.6673548911275
 20
463.3875769431518
 10
784.4454193129047
 20
463.564971541902
 10
784.4454193129047
 20
463.653668841277
  0
LWPOLYLINE
  5
3DE
330
1F
100
AcDbEntity
  8
Drawing
 62
     7
100
AcDbPolyline
 90
        8
 70
     1
 43
0.0
 10
790.6596125849837
 20
463.8754120897146
 10
791.01470951014
 20
463.9641093890896
 10
791.414193550941
 20
463.6093201915894
 10
791.3698064352965
 20
463.2988796437768
 10
790.7039997006283
 20
463.1214850450267
 10
790.4820641224056
 20
463.1658336947143
 10
790.2157414285383
 20
463.5206228922144
 10
790.3045156598274
 20
463.7867147903395
  0
LWPOLYLINE
  5
3DF
330
1F
100
AcDbEntity
  8
Drawing
 62
     7
100
AcDbPolyline
 90
       10
 70
     1
 43
0.0
 10
795.1305697859129
 20
463.9641093890896
 10
796.1070863300929
 20
464.0971553381522
 10
796.5065703708938
 20
463.9197607394021
 10
796.5509574865383
 20
463.7423661406521
 10
796.5509574865383
 20
463.4762742425269
 10
795.7519894049365
 20
463.3432282934643
 10
794.9974084389793
 20
463.3432282934643
 10
794.5979253708974
 20
463.4319255928393
 10
794.2872155613857
 20
463.653668841277
 10
794.4647640239638
 20
463.7423661406521
  0
LWPOLYLINE
  5
3E0
330
1F
100
AcDbEntity
  8
Drawing
 62
     7
100
AcDbPolyline
 90
       10
 70
     1
 43
0.0
 10
799.4805051736402
 20
465.2945683435792
 10
800.2794732552419
 20
465.6937061907669
 10
800.856505758621
 20
465.871100789517
 10
801.3003759423474
 20
465.871100789517
 10
801.7442470987928
 20
465.9597980888919
 10
802.0549569083046
 20
465.9597980888919
 10
802.0993440239491
 20
465.871100789517
 10
800.7677315273319
 20
465.3832656429541
 10
800.0575376770191
 20
465.3832656429541
 10
799.5692794049291
 20
465.2502196938916
  0
LWPOLYLINE
  5
3E1
330
1F
100
AcDbEntity
  8
Drawing
 62
     7
100
AcDbPolyline
 90
        7
 70
     1
 43
0.0
 10
810.1777951803799
 20
460.9484022826105
 10
810.9323761463372
 20
461.7910260905371
 10
811.7757303708645
 20
462.2345125874124
 10
812.3971499898881
 20
462.2345125874124
 10
813.1517309558453
 20
461.9240720395998
 10
812.2196015273099
 20
461.524934192412
 10
811.1099246089153
 20
461.2144941807355
  0
LWPOLYLINE
  5
3E8
330
1F
100
AcDbEntity
  8
Drawing
 62
     7
100
AcDbPolyline
 90
        7
 70
     1
 43
0.0
 10
816.969020955838
 20
459.1301081815582
 10
817.5904405748616
 20
459.9283833397974
 10
818.3450205680998
 20
460.2831725372976
 10
819.8541815272953
 20
460.8597049832354
 10
821.0970207653424
 20
460.3275211869851
 10
819.8985686429398
 20
459.7509887410472
 10
818.7888917245452
 20
459.4405487293707
  0
LWPOLYLINE
  5
3EE
330
1F
100
AcDbEntity
  8
Drawing
 62
     7
100
AcDbPolyline
 90
        7
 70
     1
 43
0.0
 10
831.6769590278524
 20
460.3875464589342
 10
832.9121565850505
 20
461.3031909439744
 10
836.271864953602
 20
461.4041083955796
 10
837.5190532185173
 20
460.453130927061
 10
837.4840265782814
 20
458.9083649331205
 10
834.4339025833021
 20
459.1086461136458
 10
831.7097795412851
 20
459.3381922882255
  0
LWPOLYLINE
  5
3F4
330
1F
100
AcDbEntity
  8
Drawing
 62
     7
100
AcDbPolyline
 90
        7
 70
     1
 43
0.0
 10
843.0324140884113
 20
463.0771363953392
 10
842.5885429319658
 20
463.6536688412768
 10
843.431897156493
 20
464.0971553381521
 10
844.0533167755167
 20
464.0971553381521
 10
844.5859621632512
 20
463.2101823444017
 10
844.8078977414739
 20
462.4119071861625
 10
843.8757683129386
 20
462.8110450333502
  0
LWPOLYLINE
  5
3FA
330
1F
100
AcDbEntity
  8
Drawing
 62
     7
100
AcDbPolyline
 90
        7
 70
     1
 43
0.0
 10
857.2328068150316
 20
459.3962000796832
 10
857.6322908558327
 20
460.6823103844853
 10
858.8307420055162
 20
460.6823103844852
 10
859.4521616245398
 20
460.6823103844852
 10
860.206742590497
 20
460.3718698366725
 10
860.1179683592079
 20
458.7753189840579
 10
858.47564508036
 20
459.3962000796832
  0
LWPOLYLINE
  5
400
330
1F
100
AcDbEntity
  8
Drawing
 62
     7
100
AcDbPolyline
 90
        7
 70
     1
 43
0.0
 10
855.3241618150353
 20
458.7753189840579
 10
855.2797746993908
 20
459.3518508938595
 10
856.1231289239181
 20
459.7953373907347
 10
857.2328068150316
 20
459.7066400913598
 10
856.8777098898754
 20
458.0657405890576
 10
855.945581434059
 20
457.9326951761312
 10
855.6348716245473
 20
458.2431351878076
  0
LWPOLYLINE
  5
401
330
1F
100
AcDbEntity
  8
Drawing
 62
     7
100
AcDbPolyline
 90
       15
 70
     1
 43
0.0
 10
863.6689356653335
 20
457.2231167811308
 10
864.1128068217788
 20
457.8439978767561
 10
865.1337095088843
 20
458.1544378884327
 10
866.0658389374198
 20
458.4205297865577
 10
866.5540962367907
 20
458.8196676337454
 10
866.9535802775915
 20
459.6622914416722
 10
868.1964195156388
 20
459.7066400913598
 10
868.9066123932325
 20
459.1301081815582
 10
869.0841608558108
 20
458.1987865381201
 10
868.7734510462988
 20
457.3561627301934
 10
867.4418385496815
 20
457.489208679256
 10
866.7316446993689
 20
457.755300577381
 10
865.8882904748416
 20
457.0457221823807
 10
864.7786125837281
 20
456.7352816345681
 10
863.8464841279117
 20
457.0013735326932
  0
LWPOLYLINE
  5
407
330
1F
100
AcDbEntity
  8
Drawing
 62
     7
100
AcDbPolyline
 90
        7
 70
     1
 43
0.0
 10
897.3225207095284
 20
459.0414108821831
 10
897.0118118727357
 20
459.4405481932345
 10
897.855166097263
 20
459.8840346901097
 10
898.4765857162866
 20
459.8840346901097
 10
898.6985212945092
 20
459.4848973790583
 10
898.6541341788648
 20
458.5979243853078
 10
897.9883274441966
 20
458.6866216846829
  0
LWPOLYLINE
  5
40D
330
1F
100
AcDbEntity
  8
Drawing
 62
     7
100
AcDbPolyline
 90
        7
 70
     1
 43
0.0
 10
920.9288829147197
 20
459.5292460287459
 10
922.2604963840561
 20
460.3718698366725
 10
923.1926248398725
 20
460.9927509322979
 10
923.7252702276069
 20
460.9927509322979
 10
924.1247542684077
 20
460.23882388761
 10
923.1926248398723
 20
459.8396860404223
 10
922.438044846634
 20
459.6179427919847
  0
LWPOLYLINE
  5
413
330
1F
100
AcDbEntity
  8
Drawing
 62
     7
100
AcDbPolyline
 90
        7
 70
     1
 43
0.0
 10
926.432883309205
 20
458.5092270859328
 10
926.6104317717832
 20
458.9083643969842
 10
927.4537859963104
 20
459.3518508938595
 10
928.0752056153341
 20
459.3518508938595
 10
928.8297865812913
 20
459.0414103460469
 10
928.2083669622677
 20
458.5979243853078
 10
927.3206246493769
 20
458.4205297865577
  0
LWPOLYLINE
  5
419
330
1F
100
AcDbEntity
  8
Drawing
 62
     7
100
AcDbPolyline
 90
        7
 70
     1
 43
0.0
 10
937.1880851172468
 20
458.9970622324955
 10
939.2298914641767
 20
459.0857595318706
 10
940.3395683825713
 20
458.8196676337454
 10
941.449246273685
 20
458.8196676337454
 10
940.7834405117358
 20
458.3318324871827
 10
939.5849883893331
 20
458.5535757356204
 10
938.1202145457823
 20
458.6866216846829
  0
LWPOLYLINE
  5
41A
330
1F
100
AcDbEntity
  8
Drawing
 62
     7
100
AcDbPolyline
 90
        6
 70
     1
 43
0.0
 10
952.5460203212258
 20
460.6823103844853
 10
952.7235687838038
 20
460.1944752379225
 10
953.2562141715384
 20
460.1057779385475
 10
953.4781487770422
 20
460.3275211869851
 10
953.3449874301084
 20
460.7266590341728
 10
952.8567301307376
 20
460.8153563335478
  0
LWPOLYLINE
  5
41B
330
1F
100
AcDbEntity
  8
Drawing
 62
     7
100
AcDbPolyline
 90
        6
 70
     1
 43
0.0
 10
947.7078266614085
 20
453.3204366809011
 10
947.2639555049632
 20
453.1430420821511
 10
947.2639555049632
 20
452.788253420787
 10
947.6190524301194
 20
452.699556121412
 10
948.0629235865649
 20
452.8326020704745
 10
947.9297622396311
 20
453.3204366809011
  0
LWPOLYLINE
  5
41D
330
1F
100
AcDbEntity
  8
Drawing
 62
     7
100
AcDbPolyline
 90
        5
 70
     1
 43
0.0
 10
956.0162383282163
 20
455.6471878710153
 10
955.8733118547498
 20
455.504385315526
 10
955.8733118547498
 20
455.2901812142238
 10
956.1591648016831
 20
455.2187796684111
 10
956.3020912751497
 20
455.5757863252024
  0
LWPOLYLINE
  5
424
330
1F
100
AcDbEntity
  8
Drawing
 62
     7
100
AcDbPolyline
 90
        5
 70
     1
 43
0.0
 10
959.3750099683234
 20
458.1462339324187
 10
959.2320834948569
 20
458.0034313769294
 10
959.2320834948569
 20
457.7892272756272
 10
959.5179364417902
 20
457.7178257298145
 10
959.6608629152568
 20
458.0748323866059
  0
LWPOLYLINE
  5
42A
330
1F
100
AcDbEntity
  8
Drawing
 62
     7
100
AcDbPolyline
 90
        5
 70
     1
 43
0.0
 10
963.5198767261379
 20
458.7888451640525
 10
963.3769502526713
 20
458.6460426085632
 10
963.3769502526713
 20
458.4318385072611
 10
963.6628031996047
 20
458.3604369614484
 10
963.8057296730713
 20
458.7174436182397
  0
LWPOLYLINE
  5
430
330
1F
100
AcDbEntity
  8
Drawing
 62
     7
100
AcDbPolyline
 90
        5
 70
     1
 43
0.0
 10
962.8767080818973
 20
454.1477607703093
 10
962.7337816084307
 20
454.00495821482
 10
962.7337816084307
 20
453.7907541135179
 10
963.0196345553641
 20
453.7193525677052
 10
963.1625610288306
 20
454.0763592244965
  0
LWPOLYLINE
  5
436
330
1F
100
AcDbEntity
  8
Drawing
 62
     7
100
AcDbPolyline
 90
        5
 70
     1
 43
0.0
 10
920.7848699140752
 20
455.2187802045473
 10
920.6419434406087
 20
455.075977649058
 10
920.6419434406087
 20
454.8617735477559
 10
920.927796387542
 20
454.7903720019432
 10
921.0707228610086
 20
455.1473786587345
  0
LWPOLYLINE
  5
43C
330
1F
100
AcDbEntity
  8
Drawing
 62
     7
100
AcDbPolyline
 90
        5
 70
     1
 43
0.0
 10
915.0218937726997
 20
458.5746415988866
 10
914.8789672992332
 20
458.4318390433973
 10
914.8789672992332
 20
458.2176349420952
 10
915.1648202461665
 20
458.1462333962825
 10
915.3077467196331
 20
458.5032400530738
  0
LWPOLYLINE
  5
442
330
1F
100
AcDbEntity
  8
Drawing
 62
     7
100
AcDbPolyline
 90
        5
 70
     1
 43
0.0
 10
908.6616671625115
 20
459.7170625789373
 10
908.518740689045
 20
459.574260023448
 10
908.518740689045
 20
459.3600559221459
 10
908.8045936359783
 20
459.2886543763332
 10
908.9475201094449
 20
459.6456610331245
  0
LWPOLYLINE
  5
448
330
1F
100
AcDbEntity
  8
Drawing
 62
     7
100
AcDbPolyline
 90
        5
 70
     1
 43
0.0
 10
894.0831697870683
 20
457.2894180633466
 10
893.9402433136017
 20
457.1466155078573
 10
893.9402433136017
 20
456.9324114065552
 10
894.2260962605351
 20
456.8610098607425
 10
894.3690227340016
 20
457.2180165175338
  0
LWPOLYLINE
  5
44E
330
1F
100
AcDbEntity
  8
Drawing
 62
     7
100
AcDbPolyline
 90
        5
 70
     1
 43
0.0
 10
887.794405927254
 20
460.8594830228518
 10
887.6514794537875
 20
460.7166804673625
 10
887.6514794537875
 20
460.5024763660604
 10
887.9373324007208
 20
460.4310748202477
 10
888.0802588741874
 20
460.788081477039
  0
LWPOLYLINE
  5
454
330
1F
100
AcDbEntity
  8
Drawing
 62
     7
100
AcDbPolyline
 90
        5
 70
     1
 43
0.0
 10
878.0039449265848
 20
459.8598651344266
 10
877.8610184531183
 20
459.7170625789373
 10
877.8610184531183
 20
459.5028584776352
 10
878.1468714000516
 20
459.4314569318225
 10
878.2897978735182
 20
459.7884635886138
  0
LWPOLYLINE
  5
45A
330
1F
100
AcDbEntity
  8
Drawing
 62
     7
100
AcDbPolyline
 90
        5
 70
     1
 43
0.0
 10
814.2489638794458
 20
464.9293571946376
 10
814.1060374059792
 20
464.7865546391483
 10
814.1060374059792
 20
464.5723505378462
 10
814.3918903529126
 20
464.5009489920335
 10
814.5348168263791
 20
464.8579556488248
  0
LWPOLYLINE
  5
461
330
1F
100
AcDbEntity
  8
Drawing
 62
     7
100
AcDbPolyline
 90
        8
 70
     1
 43
0.0
 10
798.7565356761553
 20
462.8986330669435
 10
799.1116326013116
 20
462.9873303663185
 10
799.5111166421126
 20
462.6325411688183
 10
799.466729526468
 20
462.3221006210057
 10
798.8009227917998
 20
462.1447060222556
 10
798.5789872135772
 20
462.1890546719432
 10
798.3126645197099
 20
462.5438438694433
 10
798.401438750999
 20
462.8099357675684
  0
LWPOLYLINE
  5
467
330
1F
100
AcDbEntity
  8
Drawing
 62
     7
100
AcDbPolyline
 90
        8
 70
     1
 43
0.0
 10
804.6879838386625
 20
462.2560218353096
 10
805.0430807638188
 20
462.3447191346846
 10
805.4425648046198
 20
461.9899299371845
 10
805.3981776889752
 20
461.6794893893718
 10
804.732370954307
 20
461.5020947906218
 10
804.5104353760844
 20
461.5464434403093
 10
804.2441126822171
 20
461.9012326378095
 10
804.3328869135062
 20
462.1673245359345
  0
LWPOLYLINE
  5
46D
330
1F
100
AcDbEntity
  8
Drawing
 62
     7
100
AcDbPolyline
 90
        8
 70
     1
 43
0.0
 10
816.0506360474651
 20
461.0421993094462
 10
816.4057329726214
 20
461.1308966088212
 10
816.8052170134224
 20
460.776107411321
 10
816.7608298977779
 20
460.4656668635084
 10
816.0950231631097
 20
460.2882722647583
 10
815.873087584887
 20
460.3326209144459
 10
815.6067648910197
 20
460.6874101119461
 10
815.6955391223088
 20
460.9535020100711
  0
LWPOLYLINE
  5
473
330
1F
100
AcDbEntity
  8
Drawing
 62
     7
100
AcDbPolyline
 90
        8
 70
     1
 43
0.0
 10
877.7474428042364
 20
461.8990151785183
 10
878.1025397293927
 20
461.9877124778933
 10
878.5020237701937
 20
461.6329232803931
 10
878.4576366545491
 20
461.3224827325805
 10
877.7918299198809
 20
461.1450881338304
 10
876.9462549777647
 20
461.5734958002984
 10
876.3030863335243
 20
461.5020947906218
 10
877.0177187008576
 20
462.3589101235576
  0
LWPOLYLINE
  5
478
330
1F
100
AcDbEntity
  8
Drawing
 62
     7
 48
2.0
370
    50
100
AcDbPolyline
 90
       28
 70
     0
 43
0.0
 10
812.9164127089463
 20
459.8598645982904
 10
818.7049343979869
 20
457.3608190730232
 10
827.6378375305751
 20
453.8621551231945
 10
837.142445584311
 20
451.0775044869487
 10
842.7880398271659
 20
449.5780768501066
 10
850.0058262508733
 20
448.2928533145666
 10
856.4375156114352
 20
447.7216430926094
 10
863.2265216420235
 20
447.0790313248394
 10
866.4559313758025
 20
446.6506236583715
 10
871.386893251324
 20
445.7224067796228
 10
876.3178560995646
 20
444.9369924563636
 10
880.7485758043122
 20
444.2943806885935
 10
884.6075896151933
 20
443.5089663653342
 10
890.4775609610838
 20
442.4379469310962
 10
894.8368179154577
 20
441.2241244052328
 10
898.4785408815751
 20
440.3084884983718
 10
904.12413512443
 20
439.0232649628318
 10
908.7692450257371
 20
438.0236465382704
 10
910.9131411550181
 20
437.5952388718025
 10
915.4867873332325
 20
436.2386137904498
 10
925.205785583528
 20
435.0247918007225
 10
932.7808877045425
 20
433.8109698109953
 10
937.1401436861972
 20
433.3111605987145
 10
941.9996437840639
 20
432.6685488309446
 10
947.6330839024015
 20
432.2401411644767
 10
954.9937967995754
 20
431.954536053498
 10
962.4259714744042
 20
431.8831345076852
 10
970.4977353469203
 20
433.1742551219066
  0
LWPOLYLINE
  5
47C
330
1F
100
AcDbEntity
  8
Drawing
  6
ACAD_ISO03W100
 62
     7
 48
0.15
100
AcDbPolyline
 90
       18
 70
     0
 43
0.0
 10
718.6227468922226
 20
459.7767093387346
 10
723.1223195421356
 20
459.6132306909909
 10
730.3216359765403
 20
459.5314908309828
 10
738.8299200081011
 20
459.1227931393509
 10
743.8203548989984
 20
458.4688769399671
 10
748.565359155763
 20
457.9784399244633
 10
755.4374344204178
 20
457.1610445411995
 10
763.6184763095099
 20
456.4253890179438
 10
768.9361533428759
 20
456.1801699740558
 10
774.0902093050075
 20
456.0166913263119
 10
779.7351284808424
 20
455.6897329585519
 10
785.5436677551926
 20
455.8532121424319
 10
787.7525492987
 20
455.8532121424319
 10
808.9496887450492
 20
453.8914635442806
 10
816.9671095629068
 20
453.4827658526487
 10
821.1394410430701
 20
453.3192866687687
 10
824.8209093095301
 20
452.9923283010086
 10
830.3022074141305
 20
452.8288496532649
  0
LWPOLYLINE
  5
47D
102
{ACAD_REACTORS
330
52E
102
}
330
1F
100
AcDbEntity
  8
Drawing
 62
     7
100
AcDbPolyline
 90
        9
 70
     1
 43
0.0
 10
828.4544701901071
 20
454.9761587405107
 10
829.8100670203158
 20
454.8827504124142
 10
831.5863667846608
 20
455.3030881569162
 10
833.0821976020085
 20
455.7701303335346
 10
833.1756866025281
 20
455.9569475258637
 10
832.2875376930748
 20
456.237172510153
 10
830.3242589549716
 20
455.630018109458
 10
829.0621520980015
 20
455.3964970211488
 10
828.7349391371042
 20
455.3964970211488
  0
LWPOLYLINE
  5
484
102
{ACAD_REACTORS
330
4DA
102
}
330
1F
100
AcDbEntity
  8
Drawing
 62
     7
100
AcDbPolyline
 90
        9
 70
     1
 43
0.0
 10
845.2825681011683
 20
452.6876522895352
 10
847.4328248403109
 20
452.4074273052459
 10
849.7700605532117
 20
452.8277650497479
 10
851.8268292645536
 20
453.4816238825592
 10
851.9203182650732
 20
453.6684410748882
 10
851.0321693556199
 20
453.9486660591776
 10
849.0221456308974
 20
453.6217366427719
 10
847.9470167749665
 20
453.434919986579
 10
846.4511859576188
 20
453.3882155544628
  0
LWPOLYLINE
  5
48A
102
{ACAD_REACTORS
330
4E5
102
}
330
1F
100
AcDbEntity
  8
Drawing
 62
     7
100
AcDbPolyline
 90
        9
 70
     1
 43
0.0
 10
839.7199467931943
 20
454.8360465164341
 10
840.9820546228833
 20
454.5091165638923
 10
842.5713744407509
 20
454.1821871474867
 10
844.6281421793736
 20
454.228891579603
 10
844.7216311798933
 20
454.4157087719321
 10
843.83348227044
 20
454.6959337562215
 10
841.0287986367838
 20
455.2096798288198
 10
840.1873937412307
 20
455.2563842609362
 10
838.6915629238828
 20
455.3030881569162
  0
LWPOLYLINE
  5
490
102
{ACAD_REACTORS
330
52E
102
}
330
1F
100
AcDbEntity
  8
Drawing
 62
     7
100
AcDbPolyline
 90
        9
 70
     1
 43
0.0
 10
871.2374904144291
 20
447.1929061159391
 10
873.0638608918217
 20
446.9897383781546
 10
874.6836696155616
 20
447.0289449456223
 10
876.0087785126171
 20
446.9897383781546
 10
875.3076076042031
 20
447.456780554773
 10
874.5129467225503
 20
448.0172310594879
 10
873.3051983241961
 20
448.4062219931008
 10
872.128966995749
 20
447.8304144032949
 10
871.6969814933635
 20
447.422452826655
  0
LWPOLYLINE
  5
496
102
{ACAD_REACTORS
330
52E
102
}
330
1F
100
AcDbEntity
  8
Drawing
 62
     7
100
AcDbPolyline
 90
        9
 70
     1
 43
0.0
 10
876.1934249060959
 20
447.6142378569417
 10
878.0970292759802
 20
447.0945294137489
 10
880.0334531865782
 20
446.6682292986529
 10
881.8057745300126
 20
446.5698520603266
 10
882.4621896622626
 20
446.8649832391692
 10
881.2150004246281
 20
447.5864139969719
 10
880.0006326731456
 20
448.1110913503944
 10
878.7534444082302
 20
448.4718069973638
 10
877.4077926575786
 20
448.1766758185211
  0
LWPOLYLINE
  5
49C
102
{ACAD_REACTORS
330
52E
102
}
330
1F
100
AcDbEntity
  8
Drawing
 62
     7
100
AcDbPolyline
 90
        9
 70
     1
 43
0.0
 10
882.8560387416125
 20
446.5320914521696
 10
884.2116355718211
 20
446.4386831240731
 10
886.7288885082468
 20
446.3075136516835
 10
889.0591624709137
 20
446.2091369494933
 10
888.8294169314466
 20
447.3568678223921
 10
887.1227375875966
 20
447.9471296439413
 10
885.5145197840451
 20
448.1438835844577
 10
883.9391234666451
 20
447.7175834693615
 10
883.3483503339797
 20
447.3240755883288
  0
LWPOLYLINE
  5
4A2
102
{ACAD_REACTORS
330
52E
102
}
330
1F
100
AcDbEntity
  8
Drawing
 62
     7
100
AcDbPolyline
 90
        9
 70
     1
 43
0.0
 10
886.4425034839936
 20
444.0103936366432
 10
887.7981003142023
 20
443.9169853085467
 10
890.0856077111606
 20
443.7858163722931
 10
891.9563905948932
 20
443.7530241382298
 10
893.1379378329431
 20
444.113739249063
 10
892.9081922934757
 20
444.8679627770653
 10
890.7748433568432
 20
444.9007550111286
 10
888.9697014999762
 20
444.6384166024855
 10
886.7229724309907
 20
444.4307319172813
  0
LWPOLYLINE
  5
4A8
102
{ACAD_REACTORS
330
52E
102
}
330
1F
100
AcDbEntity
  8
Drawing
 62
     7
100
AcDbPolyline
 90
        9
 70
     1
 43
0.0
 10
895.0087207166756
 20
446.6009870974197
 10
896.3643175468843
 20
446.5075787693232
 10
898.3892588909424
 20
446.6059560076495
 10
901.047740906094
 20
446.9338788844194
 10
900.8508158800595
 20
447.5897251740952
 10
898.8417882196433
 20
447.862000867062
 10
897.7656642721253
 20
447.5897251740952
 10
897.2077116528927
 20
447.4913484719052
 10
895.2891896636727
 20
447.0213253780578
  0
LWPOLYLINE
  5
4AE
102
{ACAD_REACTORS
330
52E
102
}
330
1F
100
AcDbEntity
  8
Drawing
 62
     7
100
AcDbPolyline
 90
        9
 70
     1
 43
0.0
 10
890.6107398169605
 20
448.4045647961306
 10
891.9663366471692
 20
448.3111564680341
 10
893.8599949647775
 20
447.884856352938
 10
895.3697492825928
 20
447.7864791146117
 10
895.4025697960254
 20
448.4095331702243
 10
894.4179475840102
 20
448.7702488171937
 10
892.480528581825
 20
449.058424165078
 10
891.2184217248549
 20
448.8249030767687
 10
890.8912087639576
 20
448.8249030767687
  0
LWPOLYLINE
  5
4B4
102
{ACAD_REACTORS
330
52E
102
}
330
1F
100
AcDbEntity
  8
Drawing
 62
     7
100
AcDbPolyline
 90
        9
 70
     1
 43
0.0
 10
898.3236178640769
 20
444.7646171646454
 10
899.5379856155597
 20
444.4416626619691
 10
902.9185237898267
 20
444.2449087214528
 10
905.6754673452764
 20
444.1465320192626
 10
904.9862316995938
 20
444.8023783089386
 10
903.378013896042
 20
444.933547245192
 10
901.7697970652094
 20
445.163093955908
 10
900.4569668007097
 20
445.0319244835184
 10
899.2754195626597
 20
445.0647167175817
  0
LWPOLYLINE
  5
4BA
102
{ACAD_REACTORS
330
54A
102
}
330
1F
100
AcDbEntity
  8
Drawing
 62
     7
100
AcDbPolyline
 90
        9
 70
     1
 43
0.0
 10
904.0897465878903
 20
440.771012655298
 10
905.5010393654073
 20
439.8200357229155
 10
907.50310527559
 20
439.3281506035564
 10
910.6538979103897
 20
438.6395120798172
 10
913.1810968990914
 20
438.3443814371106
 10
913.3780209524067
 20
439.0330199608499
 10
911.0477469897397
 20
440.0495818974952
 10
909.0785015929899
 20
440.9021821276876
 10
906.7482286030419
 20
441.3940667109105
  0
LWPOLYLINE
  5
4C0
102
{ACAD_REACTORS
330
54A
102
}
330
1F
100
AcDbEntity
  8
Drawing
 62
     7
100
AcDbPolyline
 90
        9
 70
     1
 43
0.0
 10
920.7265991794442
 20
436.0817113892402
 10
922.6729701150374
 20
435.8193724444608
 10
925.6497131576783
 20
435.4586567974914
 10
927.7502415808782
 20
435.2291106229116
 10
928.3738361996953
 20
435.6226185039445
 10
926.6999773692781
 20
436.3440497978833
 10
924.9604775119957
 20
436.9998960875592
 10
923.5820052479113
 20
437.065480555686
 10
921.5142973381443
 20
436.7703499129795
  0
LWPOLYLINE
  5
4C7
102
{ACAD_REACTORS
330
54A
102
}
330
1F
100
AcDbEntity
  8
Drawing
 62
     7
100
AcDbPolyline
 90
        9
 70
     1
 43
0.0
 10
932.7170111900319
 20
436.043950244947
 10
934.0726080202406
 20
435.9505419168505
 10
935.8021627979662
 20
435.7865802103975
 10
937.0821725490333
 20
435.8193724444608
 10
937.7057661951316
 20
436.1145036233035
 10
936.4257574167833
 20
436.8031421470428
 10
935.1457476657162
 20
437.065480555686
 10
933.8000959150646
 20
436.9343116194324
 10
932.997480137029
 20
436.4642885255851
  0
LWPOLYLINE
  5
4C8
330
1F
100
AcDbEntity
  8
Drawing
 62
     7
100
AcDbPolyline
 90
       12
 70
     1
 43
0.0
 10
958.7302752464142
 20
444.6732992315625
 10
959.7148984311488
 20
444.2469985803302
 10
960.4041340768314
 20
444.1486218781401
 10
960.830803669614
 20
444.2469985803302
 10
960.830803669614
 20
444.7060914656259
 10
960.830803669614
 20
445.0668065764591
 10
960.436954590264
 20
445.3947299893652
 10
959.8790019710315
 20
445.0995993466586
 10
959.419511864816
 20
445.0995993466586
 10
959.0584832988988
 20
445.0995993466586
 10
958.6318137061161
 20
445.0995993466586
 10
958.6974547329816
 20
444.7388836996892
  0
LWPOLYLINE
  5
4C9
330
1F
100
AcDbEntity
  8
Drawing
 62
     7
100
AcDbPolyline
 90
       12
 70
     1
 43
0.0
 10
954.3979353735646
 20
440.0167896634319
 10
955.3825585582991
 20
440.0823741315587
 10
956.0389736905491
 20
440.1479585996854
 10
956.1046147174144
 20
440.5742587147815
 10
956.0389736905491
 20
440.771012655298
 10
955.4481995851646
 20
440.934974361751
 10
954.9558879927973
 20
440.934974361751
 10
954.2338318336818
 20
440.9021821276876
 10
953.8728032677647
 20
440.8038054254975
 10
953.7086997278819
 20
440.6398437190444
 10
953.9712657807819
 20
440.4102975444648
 10
954.1681898340975
 20
440.2463358380117
  0
LWPOLYLINE
  5
4CA
330
1F
100
AcDbEntity
  8
Drawing
 62
     7
100
AcDbPolyline
 90
       17
 70
     1
 43
0.0
 10
960.2400305369487
 20
438.3115886669111
 10
960.7979831561814
 20
438.7378893181435
 10
961.1590117220986
 20
438.8690582543969
 10
961.6185018283139
 20
439.0002277267866
 10
962.1108134206812
 20
439.0658121949132
 10
962.4718419865984
 20
439.13139666304
 10
962.9969740923983
 20
439.196981667303
 10
963.4236436851812
 20
439.1641894332395
 10
963.5877481977828
 20
439.0986044289767
 10
963.7518517376656
 20
438.7050965479438
 10
963.7190312242329
 20
437.9836657901412
 10
963.4236436851812
 20
437.9180813220144
 10
962.7672285529312
 20
437.9180813220144
 10
962.3405589601485
 20
437.9180813220144
 10
961.6185018283139
 20
437.9180813220144
 10
960.9292661826313
 20
438.0820424923313
 10
960.436954590264
 20
438.1476274965942
  0
LWPOLYLINE
  5
4CB
330
1F
100
AcDbEntity
  8
Drawing
 62
     7
100
AcDbPolyline
 90
        8
 70
     1
 43
0.0
 10
958.5333511930988
 20
435.4914495676909
 10
958.0738601141644
 20
435.3930723293647
 10
958.0738601141644
 20
435.2619033931113
 10
958.2051431406143
 20
435.1963183888483
 10
958.500530679666
 20
435.1963183888483
 10
958.6646342195487
 20
435.1963183888483
 10
958.7630967325659
 20
435.1963183888483
 10
958.7630967325659
 20
435.4258645634281
  0
LWPOLYLINE
  5
4CC
330
1F
100
AcDbEntity
  8
Drawing
 62
     7
100
AcDbPolyline
 90
       11
 70
     1
 43
0.0
 10
920.4412617736069
 20
446.6642307949309
 10
920.8679323391087
 20
447.1233231440905
 10
921.0648563924241
 20
447.6152077273134
 10
921.3602439314758
 20
447.8447539018932
 10
921.6556304978086
 20
447.9759233742828
 10
922.246403630474
 20
447.8119616678297
 10
923.0012812757412
 20
447.3856615527337
 10
923.2310268152083
 20
446.9921536717008
 10
923.2310268152083
 20
446.7626074971211
 10
922.5417911695257
 20
446.5986457906681
 10
921.5243474713585
 20
446.5986457906681
  0
LWPOLYLINE
  5
4CD
330
1F
100
AcDbEntity
  8
Drawing
 62
     7
100
AcDbPolyline
 90
        8
 70
     1
 43
0.0
 10
925.7283477656005
 20
445.5164993858959
 10
926.9427155170832
 20
445.9427995009921
 10
927.4678476228831
 20
445.9427995009921
 10
928.0914422417003
 20
446.0083839691188
 10
928.6165743475002
 20
446.0083839691188
 10
928.4196493214657
 20
445.6148766242223
 10
927.7304136757831
 20
445.5492916199593
 10
926.6145084373178
 20
445.5492916199593
  0
LWPOLYLINE
  5
4CE
330
1F
100
AcDbEntity
  8
Drawing
 62
     7
100
AcDbPolyline
 90
        6
 70
     1
 43
0.0
 10
924.120129962049
 20
442.8039193934308
 10
924.4483380145333
 20
442.9022966317571
 10
924.612441554416
 20
442.9022966317571
 10
924.7437245808661
 20
442.7055426912406
 10
924.2185924750662
 20
442.6727499210411
 10
924.120129962049
 20
442.7383349253041
  0
LWPOLYLINE
  5
4CF
330
1F
100
AcDbEntity
  8
Drawing
 62
     7
100
AcDbPolyline
 90
        8
 70
     1
 43
0.0
 10
940.5212975916223
 20
444.1484047429822
 10
940.4556565647569
 20
444.5091198538154
 10
940.8495056441069
 20
444.7714587985948
 10
941.2433547234567
 20
444.7714587985948
 10
941.6043832893739
 20
444.5091198538154
 10
941.6372038028068
 20
444.2467814451723
 10
941.2761752368896
 20
444.1811969770455
 10
940.6197601046396
 20
444.1811969770455
  0
LWPOLYLINE
  5
4D0
330
1F
100
AcDbEntity
  8
Drawing
 62
     7
100
AcDbPolyline
 90
       41
 70
     0
 43
0.0
 10
718.0231580068161
 20
451.5539354805658
 10
720.8209538168862
 20
451.4575430184233
 10
722.5575160626407
 20
451.4575430184233
 10
724.1976030603952
 20
451.3611510924169
 10
725.5482623687112
 20
450.8791903901128
 10
726.9953978977463
 20
450.4936221499511
 10
729.0213878329394
 20
450.6864065381
 10
730.9509015474132
 20
450.9755828522553
 10
733.459269668045
 20
450.9755828522553
 10
737.1253466009924
 20
450.6864065381
 10
740.5019958445014
 20
450.5900140759575
 10
742.5279857796944
 20
450.1080539097895
 10
743.6856936192911
 20
450.011661447647
 10
745.8081597752033
 20
450.3008377618023
 10
748.991857549993
 20
450.3008377618023
 10
751.7896523873442
 20
450.6864065381
 10
755.2627778515724
 20
450.5900140759575
 10
760.5689417822742
 20
450.5900140759575
 10
764.8138721486606
 20
450.5900140759575
 10
770.8918409815205
 20
450.6864065381
 10
779.4317218459505
 20
450.3008377618023
 10
787.2462529245652
 20
449.6260932074853
 10
798.533910440127
 20
449.4333088193364
 10
802.1035111523553
 20
449.6260932074853
 10
805.962538581303
 20
449.9152695216406
 10
812.9087895097593
 20
449.8188775956342
 10
817.5396228135842
 20
449.6260932074853
 10
824.3893975213214
 20
449.4333088193364
 10
831.4321236977778
 20
449.3369168933301
 10
835.580577843445
 20
449.2405249673238
 10
838.5713251222345
 20
448.6621723390132
 10
841.8779522122812
 20
447.7946433965474
 10
846.7017369848253
 20
447.2162907682369
 10
850.560764413773
 20
446.6379381399263
 10
854.0338898780013
 20
446.1559774376222
 10
856.5422579986331
 20
446.1559774376222
 10
859.0506261192646
 20
446.0595855116158
 10
861.7519457086158
 20
445.7704086613243
 10
865.5144978895634
 20
445.3848404211628
 10
868.5052441956337
 20
445.3848404211628
 10
872.1713211285811
 20
445.5776248093117
  0
HATCH
  5
4DA
330
1F
100
AcDbEntity
  8
Drawing
 62
     7
 48
0.075
100
AcDbHatch
 10
0.0
 20
0.0
 30
0.0
210
0.0
220
0.0
230
1.0
  2
ANSI31
 70
     0
 71
     1
 91
        1
 92
        7
 72
     0
 73
     1
 93
        9
 10
849.7700605532117
 20
452.8277650497479
 10
851.8268292645535
 20
453.4816238825592
 10
851.9203182650733
 20
453.6684410748883
 10
851.0321693556199
 20
453.9486660591776
 10
849.0221456308992
 20
453.6217366427724
 10
847.9470167749668
 20
453.434919986579
 10
846.4511859576188
 20
453.3882155544628
 10
845.2825681011683
 20
452.6876522895351
 10
847.4328248403109
 20
452.4074273052458
 97
        1
330
484
 75
     0
 76
     1
 52
0.0
 41
0.35
 77
     0
 78
     1
 53
45.0
 43
0.0
 44
0.0
 45
-0.7857724105935507
 46
0.7857724105935509
 79
     0
 47
0.1541900778627862
 98
        1
 10
847.9873671065578
 20
452.9032385499409
  0
HATCH
  5
4E5
330
1F
100
AcDbEntity
  8
Drawing
 62
     7
100
AcDbHatch
 10
0.0
 20
0.0
 30
0.0
210
0.0
220
0.0
230
1.0
  2
ANSI31
 70
     0
 71
     1
 91
        1
 92
        7
 72
     0
 73
     1
 93
        9
 10
841.0287986367844
 20
455.2096798288198
 10
840.1873937412296
 20
455.2563842609361
 10
838.6915629238825
 20
455.3030881569162
 10
839.7199467931937
 20
454.836046516434
 10
840.9820546228838
 20
454.5091165638921
 10
842.5713744407509
 20
454.1821871474866
 10
844.6281421793736
 20
454.2288915796031
 10
844.7216311798934
 20
454.415708771932
 10
843.8334822704402
 20
454.6959337562213
 97
        1
330
48A
 75
     0
 76
     1
 52
0.0
 41
0.25
 77
     0
 78
     1
 53
45.0
 43
0.0
 44
0.0
 45
-0.561266007566822
 46
0.5612660075668221
 79
     0
 47
0.0257877430529779
 98
        1
 10
842.0209370488909
 20
454.7344567500438
  0
HATCH
  5
52E
330
1F
100
AcDbEntity
  8
Drawing
 62
     7
100
AcDbHatch
 10
0.0
 20
0.0
 30
0.0
210
0.0
220
0.0
230
1.0
  2
ANSI31
 70
     0
 71
     1
 91
        8
 92
        7
 72
     0
 73
     1
 93
        9
 10
831.5863667846604
 20
455.303088156916
 10
833.0821976020086
 20
455.7701303335346
 10
833.175686602528
 20
455.9569475258637
 10
832.2875376930747
 20
456.237172510153
 10
830.3242589549717
 20
455.6300181094579
 10
829.0621520980012
 20
455.3964970211488
 10
828.7349391371042
 20
455.3964970211489
 10
828.454470190107
 20
454.9761587405107
 10
829.8100670203155
 20
454.8827504124141
 97
        1
330
47D
 92
        7
 72
     0
 73
     1
 93
        9
 10
874.6836696155597
 20
447.0289449456222
 10
876.0087785126171
 20
446.9897383781545
 10
875.3076076042067
 20
447.4567805547745
 10
874.5129467225504
 20
448.0172310594877
 10
873.305198324196
 20
448.4062219931008
 10
872.128966995749
 20
447.8304144032949
 10
871.6969814933636
 20
447.4224528266551
 10
871.2374904144291
 20
447.1929061159391
 10
873.0638608918216
 20
446.9897383781547
 97
        1
330
490
 92
        7
 72
     0
 73
     1
 93
        9
 10
880.0334531865782
 20
446.6682292986529
 10
881.8057745300126
 20
446.5698520603266
 10
882.4621896622626
 20
446.8649832391693
 10
881.2150004246289
 20
447.5864139969717
 10
880.0006326731457
 20
448.1110913503944
 10
878.7534444082303
 20
448.4718069973638
 10
877.4077926575785
 20
448.1766758185211
 10
876.1934249060959
 20
447.6142378569417
 10
878.0970292759773
 20
447.0945294137489
 97
        1
330
496
 92
        7
 72
     0
 73
     1
 93
        9
 10
886.7288885082512
 20
446.3075136516828
 10
889.0591624709135
 20
446.2091369494934
 10
888.8294169314468
 20
447.356867822392
 10
887.1227375875965
 20
447.9471296439413
 10
885.5145197840448
 20
448.1438835844577
 10
883.939123466645
 20
447.7175834693614
 10
883.3483503339801
 20
447.3240755883289
 10
882.8560387416125
 20
446.5320914521697
 10
884.2116355718205
 20
446.4386831240731
 97
        1
330
49C
 92
        7
 72
     0
 73
     1
 93
        9
 10
890.0856077111591
 20
443.7858163722933
 10
891.9563905948935
 20
443.7530241382298
 10
893.1379378329432
 20
444.113739249063
 10
892.9081922934757
 20
444.8679627770653
 10
890.7748433568435
 20
444.9007550111286
 10
888.969701499975
 20
444.6384166024854
 10
886.7229724309908
 20
444.4307319172813
 10
886.4425034839936
 20
444.0103936366431
 10
887.7981003141988
 20
443.9169853085468
 97
        1
330
4A2
 92
        7
 72
     0
 73
     1
 93
        9
 10
893.8599949647779
 20
447.8848563529381
 10
895.3697492825929
 20
447.7864791146117
 10
895.4025697960254
 20
448.4095331702243
 10
894.4179475840106
 20
448.7702488171936
 10
892.4805285818252
 20
449.0584241650779
 10
891.2184217248546
 20
448.8249030767686
 10
890.8912087639577
 20
448.8249030767687
 10
890.6107398169606
 20
448.4045647961306
 10
891.9663366471693
 20
448.3111564680339
 97
        1
330
4AE
 92
        7
 72
     0
 73
     1
 93
        9
 10
898.3892588909423
 20
446.6059560076495
 10
901.047740906094
 20
446.9338788844194
 10
900.8508158800594
 20
447.5897251740952
 10
898.8417882196433
 20
447.862000867062
 10
897.7656642721249
 20
447.5897251740952
 10
897.2077116528919
 20
447.491348471905
 10
895.289189663673
 20
447.021325378058
 10
895.0087207166756
 20
446.6009870974197
 10
896.3643175468844
 20
446.5075787693232
 97
        1
330
4A8
 92
        7
 72
     0
 73
     1
 93
        9
 10
902.9185237898308
 20
444.2449087214525
 10
905.6754673452762
 20
444.1465320192626
 10
904.9862316995936
 20
444.8023783089385
 10
903.3780138960419
 20
444.9335472451918
 10
901.7697970652096
 20
445.163093955908
 10
900.4569668007094
 20
445.0319244835183
 10
899.2754195626595
 20
445.0647167175816
 10
898.323617864077
 20
444.7646171646454
 10
899.53798561556
 20
444.441662661969
 97
        1
330
4B4
 75
     0
 76
     1
 52
0.0
 41
0.35
 77
     0
 78
     1
 53
45.0
 43
0.0
 44
0.0
 45
-0.7857724105935507
 46
0.7857724105935509
 79
     0
 47
0.1146688098354997
 98
        8
 10
830.39996178768
 20
455.3226812540624
 10
873.6675935603772
 20
447.5252022556293
 10
879.4060056276079
 20
447.4105334468288
 10
885.4887232748653
 20
447.0665270204273
 10
889.6203805079939
 20
444.199806800415
 10
892.4895865416094
 20
448.4425527260332
 10
898.4575359864308
 20
447.0665270204273
 10
901.3267420200463
 20
444.6584820356171
  0
HATCH
  5
54A
330
1F
100
AcDbEntity
  8
Drawing
 62
     7
100
AcDbHatch
 10
0.0
 20
0.0
 30
0.0
210
0.0
220
0.0
230
1.0
  2
ANSI31
 70
     0
 71
     1
 91
        3
 92
        7
 72
     0
 73
     1
 93
        9
 10
910.6538979103892
 20
438.6395120798172
 10
913.1810968990912
 20
438.3443814371106
 10
913.3780209524066
 20
439.03301996085
 10
911.047746989773
 20
440.0495818974873
 10
909.0785015929904
 20
440.9021821276876
 10
906.7482286030419
 20
441.3940667109105
 10
904.0897465878903
 20
440.7710126552979
 10
905.5010393654069
 20
439.8200357229154
 10
907.5031052755891
 20
439.3281506035567
 97
        1
330
4BA
 92
        7
 72
     0
 73
     1
 93
        9
 10
923.5820052479112
 20
437.0654805556859
 10
921.5142973381443
 20
436.7703499129794
 10
920.7265991794442
 20
436.0817113892402
 10
922.672970115038
 20
435.8193724444617
 10
925.6497131576825
 20
435.4586567974906
 10
927.7502415808783
 20
435.2291106229115
 10
928.3738361996955
 20
435.6226185039445
 10
926.6999773692771
 20
436.3440497978847
 10
924.9604775119955
 20
436.9998960875592
 97
        1
330
4C0
 92
        7
 72
     0
 73
     1
 93
        9
 10
935.8021627979659
 20
435.7865802103975
 10
937.0821725490335
 20
435.8193724444609
 10
937.7057661951317
 20
436.1145036233036
 10
936.4257574167833
 20
436.8031421470428
 10
935.145747665716
 20
437.065480555686
 10
933.8000959150645
 20
436.9343116194324
 10
932.9974801370291
 20
436.4642885255852
 10
932.7170111900318
 20
436.0439502449469
 10
934.0726080202405
 20
435.9505419168507
 97
        1
330
4C7
 75
     0
 76
     1
 52
0.0
 41
0.35
 77
     0
 78
     1
 53
45.0
 43
0.0
 44
0.0
 45
-0.7857724105935507
 46
0.7857724105935509
 79
     0
 47
0.1146688098354997
 98
        3
 10
908.8692026079328
 20
439.8423920659965
 10
924.1333803409344
 20
436.4023278019819
 10
934.6920598286282
 20
436.4023278019819
  0
HATCH
  5
554
330
1F
100
AcDbEntity
  8
Drawing
 62
     7
100
AcDbHatch
 10
0.0
 20
0.0
 30
0.0
210
0.0
220
0.0
230
1.0
  2
ANSI31
 70
     0
 71
     1
 91
        1
 92
        7
 72
     0
 73
     1
 93
        9
 10
907.7881868563176
 20
466.1584403010776
 10
908.9696942128861
 20
466.7486822855876
 10
908.9242516970735
 20
467.2027145813646
 10
907.8336293721304
 20
467.3843274996754
 10
906.6066785270252
 20
467.2935210405196
 10
905.4706136862734
 20
467.2027145813647
 10
905.2434001344907
 20
466.7940855151652
 10
906.0159248487454
 20
465.8406176940336
 10
907.0156621420631
 20
465.4319886278344
 97
        1
330
3A3
 75
     0
 76
     1
 52
0.0
 41
0.35
 77
     0
 78
     1
 53
45.0
 43
0.0
 44
0.0
 45
-0.7857724105935507
 46
0.7857724105935509
 79
     0
 47
0.1146688098354997
 98
        1
 10
907.2624468011119
 20
466.4455562438458
  0
HATCH
  5
56F
330
1F
100
AcDbEntity
  8
Drawing
 62
     7
100
AcDbHatch
 10
0.0
 20
0.0
 30
0.0
210
0.0
220
0.0
230
1.0
  2
SOLID
 70
     1
 71
     1
 91
        1
 92
        7
 72
     0
 73
     1
 93
       26
 10
850.5882252452456
 20
468.0961051253363
 10
851.3153064709691
 20
468.4593309619584
 10
852.0423886694101
 20
468.7771535690019
 10
851.9969461535973
 20
469.5944117014004
 10
852.6331423476943
 20
470.3662671403577
 10
852.6331423476942
 20
470.5024768290905
 10
851.9515036377846
 20
471.2289285023338
 10
851.0426513760921
 20
471.5013478797999
 10
849.7248154993654
 20
471.5013478797999
 10
848.5433071700779
 20
471.6375575685331
 10
848.1343235550441
 20
471.2289285023338
 10
847.7707824558236
 20
470.4570735995129
 10
847.7707824558235
 20
470.0484445333136
 10
847.2709138091652
 20
470.0484445333137
 10
846.4983900676291
 20
470.0030413037359
 10
846.1348489684082
 20
469.5490084718227
 10
845.7258653533747
 20
469.503605242245
 10
845.5895378059364
 20
468.913363257735
 10
844.9533406391204
 20
468.6863471098465
 10
845.1351116750905
 20
468.4139277323805
 10
845.816750385
 20
468.2323148140695
 10
846.5438325834417
 20
468.2323148140694
 10
847.7707824558235
 20
468.5501374211133
 10
848.0888810392316
 20
468.9587664873126
 10
848.8614057534859
 20
468.141508354914
 10
849.4521594317705
 20
468.0507018957588
 97
        1
330
335
 75
     0
 76
     1
 47
0.1146688098354996
 98
        1
 10
849.6109295531074
 20
469.312276463858
450
        1
451
        0
460
0.0
461
0.0
452
        1
462
0.6100000143051147
453
        2
463
0.0
 63
     1
421
 16711680
463
1.0
 63
    20
421
 16726072
470
LINEAR
  0
HATCH
  5
577
330
1F
100
AcDbEntity
  8
Drawing
 62
     7
100
AcDbHatch
 10
0.0
 20
0.0
 30
0.0
210
0.0
220
0.0
230
1.0
  2
SOLID
 70
     1
 71
     1
 91
        1
 92
        7
 72
     0
 73
     1
 93
        7
 10
829.7832890376155
 20
471.2289285023339
 10
829.0562078118928
 20
470.1392509924689
 10
830.8284698194644
 20
469.8668316150029
 10
832.4189607910674
 20
469.7760246197113
 10
833.5550266045427
 20
469.9122348445806
 10
832.555288338506
 20
470.7294929769791
 10
830.9647973669096
 20
471.0019123544448
 97
        1
330
334
 75
     0
 76
     1
 47
0.1146688098354996
 98
        1
 10
830.6741673967205
 20
470.5736333606635
450
        1
451
        0
460
0.0
461
0.0
452
        1
462
0.6100000143051147
453
        2
463
0.0
 63
     1
421
 16711680
463
1.0
 63
    20
421
 16726072
470
LINEAR
  0
HATCH
  5
58D
330
1F
100
AcDbEntity
  8
Drawing
 62
     7
100
AcDbHatch
 10
0.0
 20
0.0
 30
0.0
210
0.0
220
0.0
230
1.0
  2
ANSI31
 70
     0
 71
     1
 91
        1
 92
        7
 72
     0
 73
     1
 93
       15
 10
774.7690329659896
 20
463.831063440027
 10
775.789935653095
 20
463.8754120897146
 10
777.2103223810012
 20
464.3632472362773
 10
777.3878708435794
 20
464.5849899485788
 10
777.121548149712
 20
464.7180358976414
 10
776.8108393129202
 20
464.7623845473289
 10
776.0562583469613
 20
464.7623845473289
 10
775.390451612294
 20
464.8067331970163
 10
774.8578062245592
 20
464.6293385982661
 10
773.7925164218098
 20
464.3632472362775
 10
773.2154839184306
 20
464.1415039878397
 10
771.4843873810124
 20
463.6536688412769
 10
771.795097190524
 20
463.3875769431518
 10
772.2833554626135
 20
463.3432282934643
 10
773.259871034075
 20
463.3432282934643
 97
        1
330
3DC
 75
     0
 76
     1
 52
0.0
 41
0.35
 77
     0
 78
     1
 53
45.0
 43
0.0
 44
0.0
 45
-0.7857724105935507
 46
0.7857724105935509
 79
     0
 47
0.0621542553135026
 98
        1
 10
774.9066007302152
 20
464.1060085550949
  0
LWPOLYLINE
  5
731
330
1F
100
AcDbEntity
  8
Drawing
  6
ACAD_ISO03W100
 62
     7
 48
0.25
100
AcDbPolyline
 90
        2
 70
     0
 43
0.0
 10
1061.195195187996
 20
534.5678428072196
 10
1061.314682110838
 20
406.1811053090304
  0
LWPOLYLINE
  5
732
330
1F
100
AcDbEntity
  8
Drawing
 62
     7
100
AcDbPolyline
 90
       13
 70
     1
 43
0.0
 10
1015.407108351154
 20
428.5312467488178
 10
1014.718020405126
 20
427.9514424073772
 10
1014.427876662459
 20
427.3353987826102
 10
1014.500411614467
 20
425.9946024801078
 10
1014.935625261151
 20
425.6322250416137
 10
1015.443377794474
 20
425.5597486742139
 10
1016.493731902074
 20
425.5256932486585
 10
1016.901351970322
 20
425.729335236695
 10
1017.18159224273
 20
426.594811486599
 10
1017.003258954701
 20
427.5875628793996
 10
1016.544685394263
 20
428.2493971412667
 10
1016.060635087731
 20
428.5294037751909
 10
1015.729445257765
 20
428.5294037751909
  0
LWPOLYLINE
  5
733
330
1F
100
AcDbEntity
  8
Drawing
 62
     7
100
AcDbPolyline
 90
        9
 70
     1
 43
0.0
 10
1015.149216791922
 20
437.1861939850695
 10
1016.275576197484
 20
436.1229543491635
 10
1016.963908694053
 20
435.8727805759212
 10
1017.276786743891
 20
435.8936294899844
 10
1017.318501718732
 20
436.2897390639108
 10
1016.984766181474
 20
437.1444983561954
 10
1016.588454247322
 20
437.3738254146273
 10
1016.02527454454
 20
437.3738254146273
 10
1015.295227073131
 20
437.2070428991323
  0
LWPOLYLINE
  5
734
330
1F
100
AcDbEntity
  8
Drawing
 62
     7
370
    30
100
AcDbPolyline
 90
        9
 70
     0
 43
0.0
 10
979.3111705244901
 20
432.4858414975791
 10
988.8190410167772
 20
430.0548427230518
 10
1000.538041253591
 20
422.9828448885377
 10
1012.478152104078
 20
417.6788481620914
 10
1023.312702016934
 20
412.8168484137835
 10
1031.272778540348
 20
410.3858496392562
 10
1044.539568811403
 20
407.5128516873377
 10
1053.384099593406
 20
406.1868519559129
 10
1060.901947020207
 20
406.1868519559129
  0
LWPOLYLINE
  5
735
330
1F
100
AcDbEntity
  8
Drawing
 62
     7
370
    30
100
AcDbPolyline
 90
        5
 70
     0
 43
0.0
 10
970.2135791545725
 20
433.4581455953887
 10
1002.749170998118
 20
433.1488413632918
 10
1030.609438830063
 20
432.7068421859011
 10
1050.951851365941
 20
431.8228416318669
 10
1061.786401278798
 20
431.8228416318669
  0
LWPOLYLINE
  5
736
330
1F
100
AcDbEntity
  8
Drawing
 62
     7
100
AcDbPolyline
 90
       12
 70
     0
 43
0.0
 10
968.781852088393
 20
449.4765034678843
 10
976.4732837016745
 20
448.6999891824074
 10
983.0770372824991
 20
447.5352166545662
 10
993.4099687542566
 20
445.9045368749897
 10
1003.199063177103
 20
444.5844641291559
 10
1011.978168888209
 20
443.7302986350568
 10
1017.183483219078
 20
443.1090867668244
 10
1026.406384010571
 20
442.5595309447957
 10
1043.265375807804
 20
442.015970285186
 10
1052.74370507852
 20
441.9383190765637
 10
1057.172106529063
 20
441.8606678679411
 10
1058.959004186498
 20
441.5500630334512
  0
LWPOLYLINE
  5
737
330
1F
100
AcDbEntity
  8
Drawing
 62
     7
100
AcDbPolyline
 90
        7
 70
     1
 43
0.0
 10
1015.436539403013
 20
460.1793968670571
 10
1015.669705730978
 20
459.8687656415367
 10
1016.0971760207
 20
459.9464234479168
 10
1016.136038386905
 20
460.101739060677
 10
1016.0971760207
 20
460.2958824770006
 10
1015.825147326532
 20
460.3347102805645
 10
1015.51426020079
 20
460.3347102805645
  0
LWPOLYLINE
  5
738
330
1F
100
AcDbEntity
  8
Drawing
 62
     7
100
AcDbPolyline
 90
        8
 70
     1
 43
0.0
 10
978.9109751079604
 20
457.1332627590608
 10
978.9245181133747
 20
457.4850947816334
 10
979.2089251617081
 20
457.4580307798968
 10
979.4391641230159
 20
457.2144547642696
 10
979.452707128431
 20
457.025006752115
 10
979.3714451613123
 20
456.8084925389716
 10
979.2360151071689
 20
456.8084925389716
 10
979.0057761458602
 20
457.011474751247
  0
LWPOLYLINE
  5
739
330
1F
100
AcDbEntity
  8
Drawing
 62
     7
100
AcDbPolyline
 90
       16
 70
     1
 43
0.0
 10
976.1210609077552
 20
454.8734098170638
 10
976.6627929282258
 20
455.2252440388892
 10
976.7440509607113
 20
455.3470320467026
 10
977.0013719982162
 20
455.4011600501752
 10
977.3128689920104
 20
455.008732024998
 10
977.4347560407396
 20
454.2509355778747
 10
977.3670410136674
 20
453.8720395535655
 10
976.933656971145
 20
453.5337373326087
 10
976.4190109615029
 20
453.4525453273994
 10
976.0939748969267
 20
453.4660773282675
 10
975.8908258810798
 20
453.7773155474882
 10
975.6876768652319
 20
453.8855715544336
 10
975.4438948985098
 20
453.9532315587747
 10
975.2949218389522
 20
454.1562115717974
 10
975.4168088876804
 20
454.3862577858093
 10
975.9179118919083
 20
454.7245578075139
  0
LWPOLYLINE
  5
73A
102
{ACAD_REACTORS
330
7E0
102
}
330
1F
100
AcDbEntity
  8
Drawing
 62
     7
100
AcDbPolyline
 90
       19
 70
     1
 43
0.0
 10
987.7310993639367
 20
433.39636063872
 10
990.2183026049461
 20
433.7089623945147
 10
992.8991251816415
 20
434.0215663495618
 10
994.2842142231793
 20
434.2895100833133
 10
994.9246346985601
 20
434.6467698611508
 10
994.9246346985601
 20
434.8402842912486
 10
994.7161267131096
 20
435.0635722022101
 10
993.4650748657741
 20
435.2273175499494
 10
992.0948784086331
 20
435.1380015058638
 10
990.5310665504376
 20
434.8253997500696
 10
988.8183209790113
 20
434.602111839108
 10
987.3587611462253
 20
434.497911253843
 10
986.5694108922453
 20
434.3341681053561
 10
986.3757954911916
 20
434.2150807796596
 10
986.3311138033696
 20
433.9173657642967
 10
986.3460063877656
 20
433.6345352901134
 10
986.5247292044232
 20
433.5005612239851
 10
987.0906788885559
 20
433.39636063872
 10
987.5225913784861
 20
433.39636063872
  0
LWPOLYLINE
  5
73B
102
{ACAD_REACTORS
330
7E0
102
}
330
1F
100
AcDbEntity
  8
Drawing
 62
     7
100
AcDbPolyline
 90
       15
 70
     1
 43
0.0
 10
987.850964011508
 20
439.1796646626166
 10
987.850964011508
 20
439.523238491908
 10
990.0853356308116
 20
439.6520795026121
 10
991.5462686503752
 20
439.4802914883402
 10
993.30798465916
 20
439.3943996804568
 10
994.811891735998
 20
438.9649318440291
 10
996.3587610662107
 20
438.4066251961502
 10
996.5736077447818
 20
438.0630513668588
 10
995.8001691450427
 20
437.8053715447035
 10
994.4251724361275
 20
437.8053715447035
 10
992.0618943835352
 20
438.1059983704266
 10
989.9564291975212
 20
438.4925192032864
 10
988.7533051099044
 20
438.7501990254417
 10
988.0658067554468
 20
438.9649318440291
 10
987.9798704447976
 20
439.1367176590487
  0
LWPOLYLINE
  5
73C
330
1F
100
AcDbEntity
  8
Drawing
 62
     7
100
AcDbPolyline
 90
        8
 70
     1
 43
0.0
 10
1005.107042865516
 20
427.9876794914506
 10
1004.961969026866
 20
425.8858890286346
 10
1005.39718267355
 20
425.7046992097611
 10
1005.759861368224
 20
425.7046992097611
 10
1005.796130811545
 20
426.6106439056224
 10
1005.832396320233
 20
427.6615391370304
 10
1005.469717625558
 20
428.2775827617974
 10
1005.215843326212
 20
428.2775827617974
  0
LWPOLYLINE
  5
73D
102
{ACAD_REACTORS
330
7E0
102
}
330
1F
100
AcDbEntity
  8
Drawing
 62
     7
100
AcDbPolyline
 90
        9
 70
     1
 43
0.0
 10
1002.227918740338
 20
434.2583928591488
 10
1005.736796551914
 20
433.6109329118721
 10
1008.327964590153
 20
433.6109329118721
 10
1010.919136563024
 20
434.0425736098076
 10
1012.916497718312
 20
435.0137635307227
 10
1008.813809089152
 20
435.1756285175419
 10
1006.492552912742
 20
434.8518985439035
 10
1004.711124394625
 20
434.5821228327871
 10
1002.605796920752
 20
434.366303583446
  0
LWPOLYLINE
  5
73E
330
1F
100
AcDbEntity
  8
Drawing
 62
     7
100
AcDbPolyline
 90
        6
 70
     1
 43
0.0
 10
982.4221074640172
 20
459.8310352649895
 10
983.5170016126649
 20
460.0498323022679
 10
983.3856163608361
 20
460.574945631586
 10
982.2907222121885
 20
460.6187063585934
 10
982.1155366302401
 20
460.4436678490696
 10
982.1155366302401
 20
460.2248708117917
  0
LWPOLYLINE
  5
73F
330
1F
100
AcDbEntity
  8
Drawing
 62
     7
100
AcDbPolyline
 90
        8
 70
     1
 43
0.0
 10
996.7871166482691
 20
453.7047138226939
 10
997.4002543811912
 20
454.1860664250047
 10
997.5316435676523
 20
454.492382717045
 10
997.4440507766785
 20
454.7111797543233
 10
997.049891086559
 20
454.8424597360921
 10
996.5681386054657
 20
454.3611049345285
 10
996.4367494190046
 20
454.0547886424887
 10
996.480545814492
 20
453.8797501329649
  0
LWPOLYLINE
  5
740
330
1F
100
AcDbEntity
  8
Drawing
 62
     7
100
AcDbPolyline
 90
       11
 70
     1
 43
0.0
 10
1003.244537308012
 20
446.9577017350174
 10
1003.143004113731
 20
447.2790609144198
 10
1002.53380101341
 20
447.5158522359665
 10
1002.161506076657
 20
447.498937784694
 10
1001.806137929357
 20
447.2452342111281
 10
1001.721527589894
 20
447.0591840441451
 10
1001.958439688095
 20
446.9407872837454
 10
1002.516878158591
 20
446.8393049746181
 10
1002.90609201553
 20
446.8393049746181
 10
1003.210695533006
 20
446.8393049746181
 10
1003.227614453192
 20
446.9577017350174
  0
LWPOLYLINE
  5
741
330
1F
100
AcDbEntity
  8
Drawing
 62
     7
100
AcDbPolyline
 90
        4
 70
     1
 43
0.0
 10
1012.315518000129
 20
445.6800239803646
 10
1012.510278379269
 20
445.3393729576964
 10
1012.705034823777
 20
445.2420428373615
 10
1012.607656601524
 20
445.6800239803646
  0
LWPOLYLINE
  5
742
330
1F
100
AcDbEntity
  8
Drawing
 62
     7
100
AcDbPolyline
 90
        9
 70
     1
 43
0.0
 10
1008.016640720193
 20
448.1923994973143
 10
1008.101251059656
 20
448.412276367589
 10
1008.592002045508
 20
448.3446229610057
 10
1008.79506843407
 20
448.0570904848954
 10
1008.828914143709
 20
447.904867021204
 10
1008.828914143709
 20
447.8372114153684
 10
1008.473545996408
 20
447.8541258666404
 10
1008.219707108756
 20
448.0063493303318
 10
1008.084328204836
 20
448.1585727940227
  0
LWPOLYLINE
  5
743
330
1F
100
AcDbEntity
  8
Drawing
 62
     7
100
AcDbPolyline
 90
        8
 70
     1
 43
0.0
 10
1013.454621680687
 20
450.8604710977137
 10
1013.959816702819
 20
451.2875879331776
 10
1014.309566194765
 20
451.2487601296142
 10
1014.387290927175
 20
450.9769567076577
 10
1014.387290927175
 20
450.7828132913336
 10
1014.192983030784
 20
450.5498398721937
 10
1014.192983030784
 20
450.3945242594335
 10
1013.726650374855
 20
450.7051554849535
  0
LWPOLYLINE
  5
744
330
1F
100
AcDbEntity
  8
Drawing
 62
     7
100
AcDbPolyline
 90
       11
 70
     1
 43
0.0
 10
998.6703341117873
 20
457.9493789849947
 10
999.4586574266586
 20
458.3432145317964
 10
999.9404099077519
 20
458.1681760222731
 10
999.9842063032384
 20
457.9931397120021
 10
999.9842063032384
 20
457.8181012024783
 10
1000.028002698726
 20
457.5993041651999
 10
999.8528171167773
 20
457.5117849104385
 10
999.4586574266586
 20
457.5117849104385
 10
998.8455157591034
 20
457.5117849104385
 10
998.2761704870363
 20
457.5117849104385
 10
998.3199668825237
 20
457.7743426747237
  0
LWPOLYLINE
  5
745
330
1F
100
AcDbEntity
  8
Drawing
 62
     7
100
AcDbPolyline
 90
        8
 70
     1
 43
0.0
 10
1011.744736587161
 20
451.9476781877819
 10
1012.638539532813
 20
451.9476781877819
 10
1012.716264265222
 20
452.1806516069222
 10
1012.638539532813
 20
452.413625026062
 10
1012.366514773276
 20
452.7630840551464
 10
1011.93904054892
 20
452.6077684423861
 10
1011.550432625402
 20
452.4912828324422
 10
1011.667015789384
 20
452.0641659969782
  0
LWPOLYLINE
  5
746
330
1F
100
AcDbEntity
  8
Drawing
 62
     7
100
AcDbPolyline
 90
        5
 70
     1
 43
0.0
 10
1013.610067210873
 20
461.1889461507452
 10
1014.115262233006
 20
460.6841715089012
 10
1014.115262233006
 20
460.917144928041
 10
1013.882095905042
 20
461.2666039571253
 10
1013.648929577078
 20
461.2277739543086
  0
LWPOLYLINE
  5
747
330
1F
100
AcDbEntity
  8
Drawing
 62
     7
100
AcDbPolyline
 90
       21
 70
     1
 43
0.0
 10
1054.848089822502
 20
417.6643001065507
 10
1054.614482815686
 20
418.0088592009791
 10
1054.603359609321
 20
418.5423736749939
 10
1054.392002949868
 20
418.9758551473036
 10
1054.202892703142
 20
419.1981511953703
 10
1053.935916077234
 20
419.4426794873469
 10
1053.724555483147
 20
419.6205176453517
 10
1053.646689103964
 20
419.7538957140422
 10
1053.602192343874
 20
419.9206188497186
 10
1053.624438756602
 20
420.031766873752
 10
1053.769052243238
 20
420.0428818960803
 10
1053.980412837324
 20
419.998421806766
 10
1054.280763016958
 20
419.9539639167041
 10
1054.658979575776
 20
419.8428136934184
 10
1055.081696829317
 20
419.4315644650181
 10
1055.237433522316
 20
418.9647401249753
 10
1055.259683869677
 20
418.564603719651
 10
1055.215187109588
 20
418.1866973589844
 10
1055.137316795772
 20
417.719873018941
 10
1055.003826515501
 20
417.6531850842219
 10
1054.892586582591
 20
417.6531850842219
  0
HATCH
  5
748
330
1F
100
AcDbEntity
  8
Drawing
 62
     7
100
AcDbHatch
 10
0.0
 20
0.0
 30
0.0
210
0.0
220
0.0
230
1.0
  2
ANSI31
 70
     0
 71
     1
 91
        2
 92
        7
 72
     0
 73
     1
 93
       22
 10
1026.164657504
 20
413.0138376628913
 10
1029.196335204402
 20
412.1229072641098
 10
1030.903245715681
 20
412.173817761119
 10
1032.049679616775
 20
412.4029138980343
 10
1032.48277643112
 20
413.5229404337315
 10
1032.839443007178
 20
415.4320785734448
 10
1033.068729787397
 20
417.5957669989518
 10
1032.813966261084
 20
418.2321449126885
 10
1031.591106056337
 20
419.0467106655825
 10
1029.502052222905
 20
420.1158267042711
 10
1026.062754454254
 20
421.3631305821176
 10
1023.642506856223
 20
421.7958665078166
 10
1021.629883261075
 20
421.6940477130509
 10
1019.973922307353
 20
421.2613095880992
 10
1019.693685969577
 20
421.0322134511838
 10
1019.337015458885
 20
420.1921935494111
 10
1019.13320542476
 20
418.7157935346495
 10
1019.209635663045
 20
417.5194001538117
 10
1019.642732477388
 20
415.9920918412938
 10
1019.999399053448
 20
415.5084432193324
 10
1021.018449224068
 20
414.8975194544753
 10
1023.031076753843
 20
414.1847746955996
 97
        1
330
74A
 92
        7
 72
     0
 73
     1
 93
       21
 10
1040.7804759088
 20
413.3910160709687
 10
1041.340952518984
 20
414.7910492405895
 10
1041.697619095044
 20
416.6238205351646
 10
1041.570239299203
 20
417.7183929219821
 10
1040.933332450735
 20
419.0166050975863
 10
1040.143569060333
 20
419.067515594595
 10
1039.175468447267
 20
418.9656946005769
 10
1037.774274954491
 20
418.4820459786155
 10
1036.627841053397
 20
417.8711222137579
 10
1035.252120372084
 20
416.8783708209577
 10
1034.309500439746
 20
415.8092547822695
 10
1032.741027198724
 20
414.3962314211684
 10
1032.755446470402
 20
414.1801254757327
 10
1033.264973523028
 20
413.4419265679772
 10
1034.207593455365
 20
412.2455331871415
 10
1035.150217322335
 20
411.1255066514416
 10
1035.685217186427
 20
410.5145828865855
 10
1037.188317663581
 20
410.0563906127554
 10
1038.207371768835
 20
410.0563906127553
 10
1039.532135023327
 20
410.7182226753698
 10
1040.474758890297
 20
412.169168541253
 97
        1
330
749
 75
     0
 76
     1
 52
0.0
 41
10.0
 77
     0
 78
     1
 53
45.0
 43
0.0
 44
0.0
 45
-22.45064030267288
 46
22.45064030267288
 79
     0
 47
0.0651651921043475
 98
        2
 10
1026.061534718147
 20
417.0780013723642
 10
1037.866223383756
 20
414.7320542912506
  0
LWPOLYLINE
  5
749
102
{ACAD_REACTORS
330
748
102
}
330
1F
100
AcDbEntity
  8
Drawing
 62
     7
100
AcDbPolyline
 90
       22
 70
     1
 43
0.0
 10
1032.755446470402
 20
414.4092216126477
 10
1034.309500439746
 20
415.8092547822692
 10
1035.252120372083
 20
416.8783708209575
 10
1036.627841053397
 20
417.871122213758
 10
1037.774274954491
 20
418.4820459786155
 10
1039.175468447267
 20
418.965694600577
 10
1040.143569060332
 20
419.067515594595
 10
1040.933332450735
 20
419.0166050975862
 10
1041.570239299203
 20
417.7183929219826
 10
1041.697619095044
 20
416.6238205351641
 10
1041.340952518984
 20
414.7910492405903
 10
1040.7804759088
 20
413.3910160709687
 10
1040.474758890297
 20
412.1691685412533
 10
1039.532135023327
 20
410.7182226753697
 10
1038.207371768835
 20
410.0563906127553
 10
1037.188317663581
 20
410.0563906127553
 10
1035.685217186427
 20
410.5145828865856
 10
1035.150217322337
 20
411.1255066514435
 10
1034.207593455367
 20
412.2455331871405
 10
1033.264973523029
 20
413.4419265679779
 10
1032.755446470402
 20
414.1801254757328
 10
1032.729969724307
 20
414.5619531036754
  0
LWPOLYLINE
  5
74A
102
{ACAD_REACTORS
330
748
102
}
330
1F
100
AcDbEntity
  8
Drawing
 62
     7
100
AcDbPolyline
 90
       22
 70
     1
 43
0.0
 10
1019.973922307353
 20
421.2613095880992
 10
1021.629883261075
 20
421.694047713051
 10
1023.642506856223
 20
421.7958665078166
 10
1026.062754454253
 20
421.3631305821176
 10
1029.502052222905
 20
420.1158267042709
 10
1031.591106056338
 20
419.0467106655827
 10
1032.813966261084
 20
418.2321449126883
 10
1033.068729787397
 20
417.5957669989519
 10
1032.839443007178
 20
415.4320785734452
 10
1032.482776431119
 20
413.5229404337314
 10
1032.049679616775
 20
412.4029138980344
 10
1030.903245715681
 20
412.173817761119
 10
1029.196335204402
 20
412.1229072641098
 10
1026.164657503999
 20
413.0138376628919
 10
1023.03107675385
 20
414.1847746955985
 10
1021.018449224069
 20
414.8975194544749
 10
1019.999399053448
 20
415.5084432193324
 10
1019.642732477388
 20
415.9920918412935
 10
1019.209635663045
 20
417.5194001538119
 10
1019.13320542476
 20
418.7157935346494
 10
1019.337015458885
 20
420.1921935494109
 10
1019.693685969577
 20
421.0322134511838
  0
LWPOLYLINE
  5
74B
330
1F
100
AcDbEntity
  8
Drawing
 62
     7
100
AcDbPolyline
 90
       11
 70
     1
 43
0.0
 10
1049.935047870535
 20
410.5001140041362
 10
1049.696817670413
 20
410.0100435647631
 10
1049.893006321188
 20
409.4499621200856
 10
1050.383485817391
 20
409.4499621200856
 10
1050.97205570435
 20
409.7860101071914
 10
1051.000086027003
 20
410.1220580942967
 10
1051.056138803044
 20
410.6121307329221
 10
1050.887976540289
 20
410.7241452624556
 10
1050.649742405534
 20
410.7241452624556
 10
1050.257361169351
 20
410.7241452624556
 10
1049.977089419882
 20
410.5981280920108
  0
LWPOLYLINE
  5
74C
330
1F
100
AcDbEntity
  8
Drawing
 62
     7
100
AcDbPolyline
 90
        9
 70
     1
 43
0.0
 10
1050.601165431436
 20
417.4680344115276
 10
1050.374141064963
 20
417.5765213399894
 10
1050.127372712096
 20
417.3595474830653
 10
1050.127372712096
 20
417.0636710428247
 10
1050.305044981848
 20
416.9551841143629
 10
1050.43336515488
 20
416.9354590183465
 10
1050.67026151455
 20
416.9354590183465
 10
1050.719613611272
 20
417.1228463308729
 10
1050.680133507748
 20
417.4285842194953
  0
LWPOLYLINE
  5
74D
330
1F
100
AcDbEntity
  8
Drawing
 62
     7
100
AcDbPolyline
 90
       14
 70
     1
 43
0.0
 10
1055.610570470445
 20
413.3005168290177
 10
1055.134110070201
 20
413.3565251934104
 10
1055.036011810181
 20
413.2025027411431
 10
1054.923902323467
 20
412.8104463896447
 10
1054.965943872814
 20
412.6984318601111
 10
1055.176147684915
 20
412.4323926790579
 10
1055.330298720976
 20
412.4183900381462
 10
1055.428393046364
 20
412.4183900381462
 10
1055.638600793099
 20
412.4183900381462
 10
1055.778736667833
 20
412.4603957616281
 10
1055.932883769261
 20
412.71243230177
 10
1055.960914091915
 20
412.8524521131261
 10
1055.960914091915
 20
412.9644688419124
 10
1055.69465356914
 20
413.2585111055358
  0
LWPOLYLINE
  5
74E
330
1F
100
AcDbEntity
  8
Drawing
 62
     7
100
AcDbPolyline
 90
       10
 70
     1
 43
0.0
 10
1050.683285148461
 20
427.7600018724228
 10
1050.429214117486
 20
427.7600018724228
 10
1050.20690344087
 20
427.4744091370511
 10
1050.318056811861
 20
427.0301557258089
 10
1050.556247665658
 20
426.950824288247
 10
1050.842075116359
 20
426.950824288247
 10
1051.03262937325
 20
426.9825573031225
 10
1051.143786678875
 20
427.2205516158073
 10
1051.048509550429
 20
427.6172066043631
 10
1050.873835470719
 20
427.7600018724228
  0
LWPOLYLINE
  5
74F
330
1F
100
AcDbEntity
  8
Drawing
 62
     7
100
AcDbPolyline
 90
       15
 70
     1
 43
0.0
 10
1028.323031694605
 20
429.1601142151356
 10
1027.941927115457
 20
429.2394456526976
 10
1027.814893567286
 20
428.8427884648889
 10
1028.227758500792
 20
427.8273517821557
 10
1028.799413402197
 20
427.3672329631021
 10
1029.275795109789
 20
427.0657748199191
 10
1029.498105786406
 20
426.9547103674821
 10
1029.688660043295
 20
427.002308790169
 10
1029.688660043295
 20
427.5417612460368
 10
1029.62514326921
 20
428.0177476721545
 10
1029.339311883875
 20
428.5413325209587
 10
1029.339311883875
 20
428.9221199024508
 10
1029.339311883875
 20
429.2235780456334
 10
1029.069364610353
 20
429.4298393434436
 10
1028.450069177409
 20
429.2235780456334
  0
LWPOLYLINE
  5
750
330
1F
100
AcDbEntity
  8
Drawing
 62
     7
100
AcDbPolyline
 90
       10
 70
     1
 43
0.0
 10
1032.080629436819
 20
437.1097853541308
 10
1031.94876022518
 20
437.1097853541308
 10
1031.77293723275
 20
436.9926289721628
 10
1031.77293723275
 20
436.7583162082273
 10
1031.919459016197
 20
436.6118723802064
 10
1032.109934580435
 20
436.670449471564
 10
1032.329715288289
 20
436.6118723802064
 10
1032.359020431904
 20
436.7583162082273
 10
1032.285757572865
 20
436.9194070581528
 10
1032.095282008627
 20
437.1097853541308
  0
LWPOLYLINE
  5
751
330
1F
100
AcDbEntity
  8
Drawing
 62
     7
100
AcDbPolyline
 90
       12
 70
     1
 43
0.0
 10
1024.839229296597
 20
439.2500143528117
 10
1024.73493399023
 20
438.6871222633907
 10
1025.4232664868
 20
438.0199900021588
 10
1025.631853164902
 20
437.7698162289165
 10
1025.96558870216
 20
437.7698162289165
 10
1026.153313958209
 20
438.6662733493275
 10
1026.215890355104
 20
439.0623829232539
 10
1026.174175380263
 20
439.4376435831172
 10
1025.840435908372
 20
439.7503618992963
 10
1025.402408999379
 20
439.7295129852331
 10
1025.06867346212
 20
439.7086662704227
 10
1024.755795412283
 20
439.2708610676226
  0
LWPOLYLINE
  5
752
330
1F
100
AcDbEntity
  8
Drawing
 62
     7
100
AcDbPolyline
 90
       21
 70
     1
 43
0.0
 10
1042.641805011157
 20
423.2332649780641
 10
1043.308740975639
 20
423.1222005256271
 10
1043.499291297896
 20
423.1222005256271
 10
1043.928036408583
 20
423.0428690880657
 10
1044.10270655366
 20
423.0428690880657
 10
1044.150347085199
 20
422.8842084121947
 10
1044.166227262378
 20
422.0115669975211
 10
1044.372657761815
 20
421.37691769628
 10
1044.30914098773
 20
421.5355805714033
 10
1044.388537938995
 20
421.2975862587185
 10
1044.547331841525
 20
420.758136002103
 10
1044.547331841525
 20
420.3932140284222
 10
1043.832759280137
 20
421.0278611304105
 10
1043.388137926904
 20
421.519715163592
 10
1042.784718736508
 20
422.090898435083
 10
1042.340097383275
 20
422.4240873938883
 10
1042.101906529479
 20
422.7255455370713
 10
1041.879595852862
 20
423.011138272443
 10
1041.879595852862
 20
423.1856665553777
 10
1041.927236384401
 20
423.3125942163732
 10
1042.228944012283
 20
423.3125942163732
  0
LWPOLYLINE
  5
753
330
1F
100
AcDbEntity
  8
Drawing
 62
     7
100
AcDbPolyline
 90
       14
 70
     1
 43
0.0
 10
1035.452869262043
 20
427.954281642404
 10
1035.182921988521
 20
428.0177476721545
 10
1034.897094537819
 20
428.0177476721545
 10
1034.627143329663
 20
427.7797533594693
 10
1034.595382975304
 20
427.4941628233504
 10
1034.690660103749
 20
427.1768370731037
 10
1034.912970780366
 20
427.0181763972327
 10
1035.04000826317
 20
426.9547103674821
 10
1035.468749439223
 20
426.8436481142979
 10
1035.722820470199
 20
426.9547103674821
 10
1035.929250969636
 20
427.2403031028538
 10
1035.929250969636
 20
427.5734920616595
 10
1035.833973841191
 20
427.7162895289715
 10
1035.611663164575
 20
427.8590847970312
  0
LWPOLYLINE
  5
754
330
1F
100
AcDbEntity
  8
Drawing
 62
     7
100
AcDbPolyline
 90
       10
 70
     1
 43
0.0
 10
1048.412533916126
 20
426.633500737253
 10
1048.190223239509
 20
426.6493683443167
 10
1047.920272031353
 20
426.5065708770047
 10
1047.967912562892
 20
426.1575143111353
 10
1048.3013766105
 20
426.1099158884489
 10
1048.539567464297
 20
426.1099158884489
 10
1048.698361366827
 20
426.3003117784473
 10
1048.698361366827
 20
426.4589724543183
 10
1048.618964415562
 20
426.6176353294417
 10
1048.396653738945
 20
426.633500737253
  0
LWPOLYLINE
  5
755
330
1F
100
AcDbEntity
  8
Drawing
 62
     7
100
AcDbPolyline
 90
       12
 70
     1
 43
0.0
 10
1047.904391854174
 20
424.6026273717865
 10
1047.793238483182
 20
424.6502257944729
 10
1047.555047629386
 20
424.4598299044745
 10
1047.570927806565
 20
424.1583739605443
 10
1047.745597951643
 20
423.9362472549227
 10
1047.920272031353
 20
423.6982529422379
 10
1048.174343062329
 20
423.6982529422379
 10
1048.555447641476
 20
423.6982529422379
 10
1048.746001898367
 20
424.031444100296
 10
1048.730121721186
 20
424.332902243479
 10
1048.396653738945
 20
424.5867597647228
 10
1047.952032385712
 20
424.5708943569115
  0
LWPOLYLINE
  5
756
330
1F
100
AcDbEntity
  8
Drawing
 62
     7
100
AcDbPolyline
 90
       15
 70
     1
 43
0.0
 10
1036.057307522284
 20
438.6048504251852
 10
1036.335694582736
 20
437.7994005740619
 10
1036.701997074038
 20
437.3161324227898
 10
1037.141558489745
 20
436.9207288089282
 10
1037.551814761837
 20
436.7449953356025
 10
1037.844854394097
 20
436.6571285989397
 10
1037.888812109521
 20
436.8621517175706
 10
1037.610421114436
 20
437.4625762508107
 10
1037.47855583743
 20
437.7847557514095
 10
1037.405292978389
 20
438.1069352520084
 10
1037.185512270536
 20
438.3705376612492
 10
1036.98038413449
 20
438.4876940432172
 10
1036.716649645845
 20
438.57556077988
 10
1036.130566446691
 20
438.692717161848
 10
1036.01334980686
 20
438.692717161848
  0
LWPOLYLINE
  5
757
330
1F
100
AcDbEntity
  8
Drawing
 62
     7
100
AcDbPolyline
 90
       11
 70
     1
 43
0.0
 10
1046.618066025566
 20
433.7108493531927
 10
1047.013673660482
 20
433.6229804172771
 10
1047.20414922472
 20
433.7108493531927
 10
1047.350671008167
 20
433.8280057351607
 10
1047.453235076189
 20
434.2526967950747
 10
1047.394624788958
 20
434.487007359758
 10
1047.248106940144
 20
434.5895211183259
 10
1046.925762164267
 20
434.5162970050632
 10
1046.66202374099
 20
434.413785445748
 10
1046.530154529351
 20
434.2526967950747
 10
1046.500849385735
 20
433.8865828265183
  0
LWPOLYLINE
  5
758
330
1F
100
AcDbEntity
  8
Drawing
 62
     7
100
AcDbPolyline
 90
       11
 70
     1
 43
0.0
 10
1050.53016105151
 20
439.4807907186663
 10
1050.325032915463
 20
439.4368584499611
 10
1050.16385856021
 20
439.2757676000355
 10
1050.149205988401
 20
439.0414548360994
 10
1050.16385856021
 20
438.8510765401214
 10
1050.325032915463
 20
438.8364317174686
 10
1050.808548111962
 20
438.8217868948162
 10
1050.808548111962
 20
439.0707444814046
 10
1050.808548111962
 20
439.2464779547303
 10
1050.764594331172
 20
439.3782791593507
 10
1050.603419975917
 20
439.4368584499611
  0
LWPOLYLINE
  5
759
330
1F
100
AcDbEntity
  8
Drawing
 62
     7
100
AcDbPolyline
 90
        9
 70
     1
 43
0.0
 10
1043.995354037761
 20
437.4598469784104
 10
1043.951396322337
 20
437.1523123004644
 10
1044.141875821208
 20
436.9912214505383
 10
1044.347003957254
 20
436.9472891818335
 10
1044.42026288166
 20
437.1376674778115
 10
1044.449568025277
 20
437.4159125104528
 10
1044.390957738045
 20
437.518424069768
 10
1044.171177030191
 20
437.518424069768
 10
1044.010006609569
 20
437.4891366237156
  0
LWPOLYLINE
  5
75A
330
1F
100
AcDbEntity
  8
Drawing
 62
     7
100
AcDbPolyline
 90
       15
 70
     1
 43
0.0
 10
1032.113483619041
 20
448.4455004756854
 10
1033.030693694039
 20
449.4932023924079
 10
1033.554810364352
 20
450.1043614772874
 10
1034.166283747684
 20
450.2353247666905
 10
1035.825994406275
 20
449.7987819348476
 10
1037.966151247936
 20
448.9256984704137
 10
1039.320125214861
 20
448.2708842226488
 10
1038.097178448198
 20
447.7470332642878
 10
1037.092619529448
 20
447.0485660528901
 10
1035.127168244558
 20
446.5247150945287
 10
1033.773194277633
 20
446.5247150945287
 10
1032.593925867478
 20
446.8302946369685
 10
1032.200836397427
 20
447.3978007582153
 10
1032.113483619041
 20
448.1835760961307
 10
1032.331867532322
 20
448.7947351810102
  0
LWPOLYLINE
  5
75B
330
1F
100
AcDbEntity
  8
Drawing
 62
     7
100
AcDbPolyline
 90
        9
 70
     1
 43
0.0
 10
1018.428839300341
 20
450.5498398721937
 10
1018.312256136359
 20
451.1711023232341
 10
1018.389980868768
 20
451.4040757423739
 10
1018.545422464323
 20
451.4429035459378
 10
1018.739730360714
 20
451.4040757423739
 10
1018.739730360714
 20
451.2487601296142
 10
1018.817451158491
 20
450.8216410948975
 10
1018.778588792286
 20
450.5886698750099
 10
1018.50656403275
 20
450.5886698750099
  0
LWPOLYLINE
  5
75C
330
1F
100
AcDbEntity
  8
Drawing
 62
     7
100
AcDbPolyline
 90
        6
 70
     1
 43
0.0
 10
1025.36030449591
 20
447.0909874351013
 10
1026.801635175853
 20
448.575232183667
 10
1028.024578007884
 20
449.055427979143
 10
1028.068256364393
 20
448.3569607677458
 10
1027.456782981062
 20
447.5711854298301
 10
1025.185598939139
 20
447.1346425979867
  0
LWPOLYLINE
  5
75D
330
1F
100
AcDbEntity
  8
Drawing
 62
     7
100
AcDbPolyline
 90
       10
 70
     1
 43
0.0
 10
1021.149114438132
 20
457.6947605223726
 10
1020.993672842577
 20
458.5104259015365
 10
1020.799364946186
 20
458.9765200897367
 10
1020.799364946186
 20
459.2484070832896
 10
1021.226839170541
 20
459.3260890814475
 10
1021.576588662488
 20
458.5104259015365
 10
1021.537726296283
 20
457.7336015214518
 10
1021.537726296283
 20
457.0344613387773
 10
1021.4211431323
 20
456.8402563433823
 10
1021.187976804336
 20
457.3840325297409
  0
LWPOLYLINE
  5
75E
330
1F
100
AcDbEntity
  8
Drawing
 62
     7
100
AcDbPolyline
 90
        7
 70
     1
 43
0.0
 10
1017.651619518671
 20
455.675248495519
 10
1017.962506644412
 20
456.1411953337996
 10
1018.312256136359
 20
456.1411953337996
 10
1018.467701666546
 20
456.0247075246033
 10
1018.467701666546
 20
455.7140784983357
 10
1017.962506644412
 20
455.5975906891393
 10
1017.690481884876
 20
455.5975906891393
  0
LWPOLYLINE
  5
75F
330
1F
100
AcDbEntity
  8
Drawing
 62
     7
100
AcDbPolyline
 90
        7
 70
     1
 43
0.0
 10
1030.942104147253
 20
455.9469089660605
 10
1031.602744699573
 20
456.9956203396981
 10
1032.379964481242
 20
457.6170785242147
 10
1032.768576339393
 20
456.8014153443036
 10
1033.312629793098
 20
456.1411161607083
 10
1032.418826847447
 20
455.9857499651397
 10
1031.369578371609
 20
455.9469089660605
  0
LWPOLYLINE
  5
760
330
1F
100
AcDbEntity
  8
Drawing
 62
     7
100
AcDbPolyline
 90
       20
 70
     1
 43
0.0
 10
1044.255582768758
 20
449.4058942658897
 10
1045.87161507084
 20
450.2789799295759
 10
1046.614119589067
 20
450.4099410197272
 10
1047.793387999221
 20
450.0607085136543
 10
1048.099124690886
 20
449.4932023924079
 10
1048.273830247657
 20
448.7074270544921
 10
1048.273830247657
 20
448.2272312590161
 10
1047.618682442449
 20
447.8343413908059
 10
1046.788825145837
 20
447.7033803006547
 10
1045.784262292455
 20
448.0526128067276
 10
1045.522203957298
 20
448.1399209332457
 10
1044.954408930475
 20
447.9653046802094
 10
1044.255582768758
 20
447.3978007582153
 10
1044.037198855478
 20
447.1358741794082
 10
1043.207341558866
 20
447.1358741794082
 10
1042.333809840377
 20
447.3978007582153
 10
1041.984398726835
 20
447.8343413908059
 10
1042.028073148712
 20
448.1399209332457
 10
1042.639546532044
 20
448.4455004756854
 10
1043.644109385426
 20
449.10031472345
  0
LWPOLYLINE
  5
761
330
1F
100
AcDbEntity
  8
Drawing
 62
     7
100
AcDbPolyline
 90
        8
 70
     1
 43
0.0
 10
1038.597069585584
 20
458.1061527021878
 10
1038.041475854458
 20
457.8647143600277
 10
1038.065630564
 20
457.6957062009641
 10
1038.427974814903
 20
457.6474194122333
 10
1038.693692358379
 20
457.6232738186148
 10
1039.056036609282
 20
457.7198495953297
 10
1039.031881899741
 20
457.9612879374898
 10
1038.645379004665
 20
458.0820071085699
  0
LWPOLYLINE
  5
762
330
1F
100
AcDbEntity
  8
Drawing
 62
     7
100
AcDbPolyline
 90
        9
 70
     1
 43
0.0
 10
1045.626534675359
 20
457.3335486877239
 10
1045.554062677472
 20
458.0337203198386
 10
1045.723157448154
 20
458.1061527021878
 10
1046.278751179279
 20
457.9854335311078
 10
1046.520314013214
 20
457.8164253720441
 10
1046.520314013214
 20
457.6474194122333
 10
1046.157969762311
 20
457.5025546475348
 10
1045.916406928375
 20
457.3576920820896
 10
1045.650689384899
 20
457.3335486877239
  0
LWPOLYLINE
  5
763
330
1F
100
AcDbEntity
  8
Drawing
 62
     7
100
AcDbPolyline
 90
       12
 70
     1
 43
0.0
 10
1053.646142190032
 20
436.8157892748108
 10
1053.441014053987
 20
436.6107661561799
 10
1053.441014053987
 20
436.3618107688438
 10
1053.528925550201
 20
436.0982083596026
 10
1053.778011401671
 20
435.9664071549822
 10
1053.953834394101
 20
435.8931852409718
 10
1054.217572817379
 20
436.0689187142974
 10
1054.232225389186
 20
436.2739418329282
 10
1054.129661321163
 20
436.4936097742119
 10
1053.953834394101
 20
436.6547006241375
 10
1053.807316545287
 20
436.7132777154951
 10
1053.631489618224
 20
436.7425673608003
  0
LWPOLYLINE
  5
764
330
1F
100
AcDbEntity
  8
Drawing
 62
     7
100
AcDbPolyline
 90
       10
 70
     0
 43
0.0
 10
968.2244879755808
 20
464.6860839230848
 10
975.3417557708071
 20
464.1397624544787
 10
985.3697925622764
 20
463.9985968325503
 10
997.6576619806128
 20
463.8574290113692
 10
1005.143379197591
 20
463.4339255478252
 10
1017.148769537569
 20
463.8574290113692
 10
1034.289488898335
 20
463.7061578240267
 10
1047.424799486379
 20
463.141486539302
 10
1057.594069915078
 20
463.141486539302
 10
1061.407547309498
 20
463.0003187181209
  0
LWPOLYLINE
  5
765
330
1F
100
AcDbEntity
  8
Drawing
 62
     7
100
AcDbPolyline
 90
       12
 70
     1
 43
0.0
 10
1015.63512031041
 20
472.9924466857018
 10
1016.162313863418
 20
472.3340036712488
 10
1016.623606254983
 20
471.9608850833578
 10
1017.238664088615
 20
471.5658179551341
 10
1017.392425596048
 20
471.9169880026928
 10
1017.260631142429
 20
472.4656927139898
 10
1017.040964538921
 20
473.1460842687751
 10
1016.843268923859
 20
473.211927690519
 10
1016.403943586108
 20
473.211927690519
 10
1015.920684140729
 20
473.211927690519
 10
1015.525288975972
 20
473.211927690519
 10
1015.569219148968
 20
473.0582923066985
  0
LWPOLYLINE
  5
766
330
1F
100
AcDbEntity
  8
Drawing
 62
     7
100
AcDbPolyline
 90
       10
 70
     1
 43
0.0
 10
1013.429632829035
 20
467.6600246201978
 10
1013.890279940853
 20
469.0408231271193
 10
1014.492664322875
 20
469.8905461310914
 10
1015.059617338321
 20
470.1737878654998
 10
1016.051782164377
 20
470.5632447004976
 10
1016.618735179823
 20
470.5632447004976
 10
1015.76830762397
 20
469.5010914953458
 10
1014.776142797915
 20
468.7929871593254
 10
1014.280060384886
 20
468.0848850225578
 10
1013.571370099237
 20
467.6954303868123
  0
LWPOLYLINE
  5
767
330
1F
100
AcDbEntity
  8
Drawing
 62
     7
100
AcDbPolyline
 90
        7
 70
     0
 43
0.0
 10
969.3611116612506
 20
481.7195046901579
 10
996.7209085854838
 20
482.0214405944151
 10
1016.894867695795
 20
481.5298020879821
 10
1033.952526962343
 20
481.8575610922707
 10
1042.4813546283
 20
481.6936815901266
 10
1052.650341763453
 20
481.6936815901266
 10
1061.01515820405
 20
481.3659225858381
  0
LWPOLYLINE
  5
768
330
1F
100
AcDbEntity
  8
Drawing
 62
     7
100
AcDbPolyline
 90
        7
 70
     0
 43
0.0
 10
969.9294229622244
 20
500.1723773151848
 10
988.4622131207816
 20
501.8095495941906
 10
1012.502590107166
 20
501.9957559081034
 10
1024.9886784467
 20
501.8095495941906
 10
1033.188500003786
 20
501.2509350509562
 10
1050.892654818452
 20
501.2509350509562
 10
1060.95606789164
 20
501.4371391656167
  0
LWPOLYLINE
  5
769
330
1F
100
AcDbEntity
  8
Drawing
  6
ACAD_ISO03W100
 62
     7
 48
0.25
100
AcDbPolyline
 90
        2
 70
   128
 43
0.0
 10
970.9255870930219
 20
532.4960743408036
 10
1061.103730718542
 20
530.3924936864208
  0
LWPOLYLINE
  5
76A
330
1F
100
AcDbEntity
  8
Drawing
 62
     7
100
AcDbPolyline
 90
       16
 70
     0
 43
0.0
 10
970.2023898169709
 20
537.0599961970796
 10
974.9632677223399
 20
537.0440868042177
 10
980.9501928848622
 20
536.85317189062
 10
984.3395680350668
 20
536.2559604653387
 10
989.9998360643813
 20
536.4916103748177
 10
997.7827046046878
 20
536.2559604653387
 10
1003.560897507702
 20
536.0203127551121
 10
1013.348445619935
 20
535.7846628456326
 10
1020.423780656578
 20
535.7846628456326
 10
1027.734957571354
 20
535.4311901806662
 10
1035.989517737193
 20
535.4311901806662
 10
1047.192128922123
 20
534.7242426514812
 10
1053.088242764203
 20
535.0777153164471
 10
1057.687210538021
 20
534.8420676062204
 10
1059.691890109947
 20
534.6064176967415
 10
1060.989036178209
 20
534.6064176967415
  0
LWPOLYLINE
  5
76B
330
1F
100
AcDbEntity
  8
Drawing
 62
     7
100
AcDbPolyline
 90
        8
 70
     1
 43
0.0
 10
978.9906278103444
 20
471.3204187591526
 10
979.7347533972024
 20
471.6036604935611
 10
979.5575808257909
 20
471.9223057953308
 10
979.3449729531694
 20
471.9931151293066
 10
978.6362826675204
 20
471.8160906947409
 10
978.4945453973169
 20
471.6390640609224
 10
978.3173728259044
 20
471.6036604935611
 10
978.7071532699383
 20
471.3558245257667
  0
LWPOLYLINE
  5
76C
330
1F
100
AcDbEntity
  8
Drawing
 62
     7
100
AcDbPolyline
 90
        6
 70
     1
 43
0.0
 10
977.3960746676339
 20
476.2063243825522
 10
978.423674794899
 20
477.1268589197524
 10
979.0969337139713
 20
477.6579344227019
 10
979.3449729531694
 20
476.6665905515259
 10
978.9906278103444
 20
476.3479452497562
 10
977.8567257140858
 20
476.2063243825522
  0
LWPOLYLINE
  5
76D
330
1F
100
AcDbEntity
  8
Drawing
 62
     7
100
AcDbPolyline
 90
       14
 70
     1
 43
0.0
 10
978.1630171889483
 20
496.1738747954327
 10
979.1302285750453
 20
496.7823551907203
 10
979.3093409203302
 20
496.9255265309638
 10
979.4526323704113
 20
496.6033910154159
 10
979.5242780954513
 20
496.3886318057979
 10
979.5959198858591
 20
496.2096676304935
 10
979.5959198858591
 20
495.8875321149452
 10
979.0227580201681
 20
495.6727729053276
 10
978.7719999498431
 20
495.6727729053276
 10
978.2346629139884
 20
495.6011872352054
 10
977.8764342887862
 20
495.4222230599011
 10
977.6973219435013
 20
495.3864302248402
 10
977.5540304934211
 20
495.6369800702668
 10
977.6256762184612
 20
495.9233249500061
  0
LWPOLYLINE
  5
76E
330
1F
100
AcDbEntity
  8
Drawing
 62
     7
100
AcDbPolyline
 90
       15
 70
     1
 43
0.0
 10
989.0540251450029
 20
473.6217518032744
 10
989.6564095270251
 20
473.9758028716586
 10
990.1524958746859
 20
474.2236388394525
 10
990.3296684460984
 20
474.3298539400424
 10
990.365099812675
 20
474.1528273062244
 10
990.1879272412625
 20
473.5155367026845
 10
990.046189971059
 20
473.1260798676866
 10
989.9753233032734
 20
472.4887870648944
 10
989.9398880020644
 20
472.2763568637146
 10
989.9398880020644
 20
471.9931151293066
 10
988.9122878748003
 20
472.4533834975326
 10
988.5225074307664
 20
472.559598598123
 10
988.3098995581449
 20
472.8428381332782
 10
988.5933780331843
 20
473.4801309360704
 10
988.9122878748003
 20
473.5509402700462
  0
LWPOLYLINE
  5
770
330
1F
100
AcDbEntity
  8
Drawing
 62
     7
100
AcDbPolyline
 90
       23
 70
     1
 43
0.0
 10
980.5992669377683
 20
467.4262220828508
 10
982.8033064743468
 20
469.5448060380498
 10
984.2261640542265
 20
470.6877245934182
 10
984.6167550325763
 20
471.3009993592394
 10
984.9794455311485
 20
471.4125036621839
 10
985.2584345903897
 20
471.3846281362611
 10
986.7370931298228
 20
470.2138318557171
 10
988.1041576194139
 20
468.7921514433609
 10
988.8853356414802
 20
468.0116213227492
 10
989.4712181743716
 20
467.4540998080264
 10
989.8618052180882
 20
467.0080825962481
 10
989.8060081931662
 20
466.7850717911064
 10
989.0806271960219
 20
466.3948078304269
 10
988.4110471584318
 20
466.3948078304269
 10
986.8207906345215
 20
466.2833035274824
 10
986.1233101171547
 20
466.2833035274824
 10
985.4816305593413
 20
466.0602949215935
 10
984.2540645340041
 20
465.8930373675502
 10
982.8591034992687
 20
466.2554280015596
 10
981.7989324833288
 20
466.6456919622391
 10
981.3246479349136
 20
466.7293207392607
 10
980.7945624269432
 20
467.1474624251158
 10
980.5713664579916
 20
467.4540998080264
  0
LWPOLYLINE
  5
772
330
1F
100
AcDbEntity
  8
Drawing
 62
     7
100
AcDbPolyline
 90
        5
 70
     0
 43
0.0
 10
986.290705126552
 20
468.2903809804842
 10
985.6211250889619
 20
469.210293129216
 10
985.2305380452444
 20
469.5726815639727
 10
984.812046587118
 20
470.5762202904738
 10
984.4493600231781
 20
471.0222375022521
  0
LWPOLYLINE
  5
773
330
1F
100
AcDbEntity
  8
Drawing
 62
     7
100
AcDbPolyline
 90
        6
 70
     0
 43
0.0
 10
985.5653280640399
 20
467.3147177799063
 10
985.7048225936605
 20
467.9837435975736
 10
986.290705126552
 20
468.3182587056598
 10
987.4624741269681
 20
468.0952500997709
 10
988.4947446631304
 20
467.9001170198047
 10
988.9969296913232
 20
467.9001170198047
  0
LWPOLYLINE
  5
774
330
1F
100
AcDbEntity
  8
Drawing
 62
     7
100
AcDbPolyline
 90
        6
 70
     0
 43
0.0
 10
980.8782599316419
 20
467.7049839398386
 10
983.2775910227629
 20
467.7049839398386
 10
984.9236445715942
 20
467.5377263857953
 10
985.9559151077565
 20
467.1753379510386
 10
986.6533956251242
 20
466.7850717911064
 10
987.099783628395
 20
466.2833035274824
  0
LWPOLYLINE
  5
775
330
1F
100
AcDbEntity
  8
Drawing
 62
     7
100
AcDbPolyline
 90
        8
 70
     1
 43
0.0
 10
992.4203000672042
 20
475.9584884147579
 10
992.6683432410346
 20
476.4541603503461
 10
993.0226883838586
 20
476.3833510163703
 10
993.2352962564801
 20
476.2771359157804
 10
993.2352962564801
 20
475.9230848473966
 10
993.0935589862765
 20
475.7460582135781
 10
992.7037785422435
 20
475.8168697468067
 10
992.4557353684131
 20
475.993894181372
  0
LWPOLYLINE
  5
776
330
1F
100
AcDbEntity
  8
Drawing
 62
     7
100
AcDbPolyline
 90
        8
 70
     1
 43
0.0
 10
992.880951113656
 20
477.6225286560879
 10
993.1644256540621
 20
478.1182005916756
 10
993.589641399305
 20
478.1182005916756
 10
994.1211591135416
 20
477.8703646238818
 10
993.7313786695076
 20
477.516313555498
 10
993.3415982254746
 20
477.516313555498
 10
993.1644256540621
 20
477.516313555498
 10
992.880951113656
 20
477.7287459559301
  0
LWPOLYLINE
  5
777
330
1F
100
AcDbEntity
  8
Drawing
 62
     7
100
AcDbPolyline
 90
        5
 70
     1
 43
0.0
 10
1003.189062922964
 20
469.7489252638874
 10
1003.862317907404
 20
469.4656857287317
 10
1003.862317907404
 20
469.7135216965256
 10
1003.578843366997
 20
469.8905461310914
 10
1003.082757019337
 20
469.8905461310914
  0
LWPOLYLINE
  5
778
330
1F
100
AcDbEntity
  8
Drawing
 62
     7
100
AcDbPolyline
 90
       16
 70
     1
 43
0.0
 10
1001.123010951719
 20
467.0948079208437
 10
1001.902571839786
 20
467.2010230214336
 10
1002.540391523017
 20
466.9531870536397
 10
1003.036473936046
 20
466.3867057840756
 10
1003.319948476452
 20
465.9972489490777
 10
1003.355383777661
 20
465.7140094139221
 10
1003.39081907887
 20
465.6431978806939
 10
1003.213646507457
 20
465.4661734461282
 10
1002.43408561939
 20
465.4661734461282
 10
1001.725399268374
 20
465.678603647308
 10
1001.406485492126
 20
465.7848187478979
 10
1001.08757565051
 20
465.9264396151019
 10
1000.839536411312
 20
466.1742755828958
 10
1000.520626569697
 20
466.5637324178941
 10
1000.556057936274
 20
466.8469719530498
 10
1000.874967777889
 20
466.9177834862779
  0
LWPOLYLINE
  5
779
330
1F
100
AcDbEntity
  8
Drawing
 62
     7
100
AcDbPolyline
 90
        6
 70
     1
 43
0.0
 10
1007.795545845051
 20
466.0667937128441
 10
1008.5042361307
 20
465.8189577450502
 10
1008.858581273524
 20
466.173008813434
 10
1008.858581273524
 20
466.3146296806379
 10
1008.185326289084
 20
466.5270598818178
 10
1007.795545845051
 20
466.2438203466621
  0
LWPOLYLINE
  5
77A
330
1F
100
AcDbEntity
  8
Drawing
 62
     7
100
AcDbPolyline
 90
        6
 70
     1
 43
0.0
 10
1006.368025725538
 20
477.5821899660303
 10
1008.033445536033
 20
478.4319129700019
 10
1008.919308393095
 20
478.7505582717721
 10
1008.458661281276
 20
477.9716468010282
 10
1007.643665092
 20
477.5467841994158
 10
1006.757802234939
 20
477.5467841994158
  0
LWPOLYLINE
  5
77B
330
1F
100
AcDbEntity
  8
Drawing
 62
     7
100
AcDbPolyline
 90
       11
 70
     1
 43
0.0
 10
999.4228640738829
 20
476.0951741592661
 10
999.9898170893284
 20
476.3076065596987
 10
1000.379593598729
 20
476.3076065596987
 10
1000.556766170142
 20
476.3076065596987
 10
1000.875676011758
 20
475.9889590586762
 10
1000.911111312967
 20
475.2454511552941
 10
1001.300891757
 20
474.395728151322
 10
1001.300891757
 20
474.2541094833708
 10
1000.450464201147
 20
475.0330209541142
 10
999.9189464869105
 20
475.5286928897025
 10
999.6000366452945
 20
475.8827439580863
  0
LWPOLYLINE
  5
77C
330
1F
100
AcDbEntity
  8
Drawing
 62
     7
100
AcDbPolyline
 90
       12
 70
     1
 43
0.0
 10
989.5187918171559
 20
491.9145164269233
 10
990.1994203030908
 20
492.6661681624545
 10
990.1994203030908
 20
492.9883036780028
 10
990.0561288530107
 20
493.453612733047
 10
989.7695498874809
 20
493.4894055681078
 10
989.3038546420348
 20
493.3462320286116
 10
988.7665176061801
 20
493.0956821831854
 10
988.5515804310589
 20
492.7377538325762
 10
988.479934706018
 20
492.2366519424712
 10
988.5515804310589
 20
491.9145164269233
 10
988.7665176061801
 20
491.8429307568016
 10
989.4829669873197
 20
491.9145164269233
  0
LWPOLYLINE
  5
77D
330
1F
100
AcDbEntity
  8
Drawing
 62
     7
100
AcDbPolyline
 90
        8
 70
     1
 43
0.0
 10
983.5722359851252
 20
495.3864302248402
 10
983.6080568803291
 20
495.9233249500061
 10
984.288685366264
 20
496.06649629025
 10
984.5394434365899
 20
495.9949106201278
 10
984.5394434365899
 20
495.6369800702668
 10
984.3603310913049
 20
495.4222230599011
 10
984.0021064007351
 20
495.2790517196576
 10
983.715523500573
 20
495.2790517196576
  0
LWPOLYLINE
  5
77E
330
1F
100
AcDbEntity
  8
Drawing
 62
     7
100
AcDbPolyline
 90
       17
 70
     1
 43
0.0
 10
995.4295267539828
 20
488.9794951549196
 10
995.5011724790238
 20
489.5163898800855
 10
995.9668637898376
 20
489.5879755502073
 10
996.2892675852036
 20
489.6237683852681
 10
996.6474962104057
 20
489.3374235055284
 10
996.8266085556907
 20
489.2300450003457
 10
997.0773666260156
 20
489.0152879899805
 10
997.3281246963406
 20
488.9079094847979
 10
997.5430618714618
 20
488.6215668043104
 10
997.5788827666656
 20
488.2636362544489
 10
997.2923038011368
 20
487.9772935739619
 10
996.8266085556907
 20
487.6193630241004
 10
996.4325590352837
 20
487.5835701890395
 10
996.4325590352837
 20
487.941500738901
 10
996.2176218601626
 20
488.371014759632
 10
995.7877514445527
 20
488.7289453094935
 10
995.5728142694315
 20
488.8363238146761
  0
LWPOLYLINE
  5
77F
330
1F
100
AcDbEntity
  8
Drawing
 62
     7
100
AcDbPolyline
 90
        7
 70
     1
 43
0.0
 10
996.2892675852036
 20
499.3236530778016
 10
996.6116713805686
 20
499.7173742634712
 10
997.0057209009747
 20
499.7531692977849
 10
997.1490123510557
 20
499.4668244180451
 10
996.9699000057708
 20
499.2878602427407
 10
996.8624294508945
 20
499.1804817375581
 10
996.3967381400798
 20
499.216274572619
  0
LWPOLYLINE
  5
780
330
1F
100
AcDbEntity
  8
Drawing
 62
     7
100
AcDbPolyline
 90
       10
 70
     1
 43
0.0
 10
1005.514611783541
 20
497.2146996494679
 10
1005.550436613377
 20
497.6084230343903
 10
1005.228032818012
 20
497.8589728798164
 10
1004.690691847525
 20
497.680008704512
 10
1004.51157950224
 20
497.4294588590859
 10
1004.51157950224
 20
497.0357354741635
 10
1004.58322522728
 20
496.9999426391026
 10
1004.762337572565
 20
496.8567712988587
 10
1005.192207988175
 20
496.9999426391026
 10
1005.478790888337
 20
497.0357354741635
  0
LWPOLYLINE
  5
781
330
1F
100
AcDbEntity
  8
Drawing
 62
     7
100
AcDbPolyline
 90
        6
 70
     0
 43
0.0
 10
973.5345750823126
 20
537.1745090774965
 10
973.8924889369064
 20
539.7001900723034
 10
974.2951434988126
 20
540.6948174275193
 10
974.8096478616808
 20
537.23038768599
 10
975.4695565723359
 20
538.3479444610865
 10
976.3867115624771
 20
537.0627540597628
  0
LWPOLYLINE
  5
782
330
1F
100
AcDbEntity
  8
Drawing
 62
     7
100
AcDbPolyline
 90
       10
 70
     1
 43
0.0
 10
998.0458410291776
 20
510.554147160913
 10
997.5362667609597
 20
510.4814112817138
 10
997.2450803406537
 20
510.1177296864647
 10
997.3906735508062
 20
509.8267839704148
 10
997.9730463914175
 20
509.5358382543649
 10
998.1186396015701
 20
509.6085741335645
 10
998.4098260218761
 20
509.9722557288136
 10
998.4098260218761
 20
510.1904655656639
 10
998.1914342393302
 20
510.554147160913
 10
997.900247819025
 20
510.554147160913
  0
LWPOLYLINE
  5
783
330
1F
100
AcDbEntity
  8
Drawing
 62
     7
100
AcDbPolyline
 90
        5
 70
     1
 43
0.0
 10
987.3447263117359
 20
510.4814112817138
 10
986.9079466812773
 20
509.8267839704148
 10
987.563118094281
 20
509.7540480912156
 10
987.9998977247396
 20
509.681312212016
 10
987.7087113044336
 20
510.4814112817138
  0
LWPOLYLINE
  5
784
330
1F
100
AcDbEntity
  8
Drawing
 62
     7
100
AcDbPolyline
 90
        6
 70
     1
 43
0.0
 10
987.2635194294735
 20
522.9832382759054
 10
988.2377502001318
 20
523.1881690259296
 10
989.0068803771719
 20
522.6246083637369
 10
989.0068803771719
 20
521.3950194650864
 10
988.1352018706393
 20
521.5487186272306
 10
987.0071427037938
 20
522.4196754144599
  0
LWPOLYLINE
  5
785
330
1F
100
AcDbEntity
  8
Drawing
 62
     7
100
AcDbPolyline
 90
        9
 70
     1
 43
0.0
 10
996.7494622142731
 20
522.0098139144114
 10
997.0058389399528
 20
522.6758399516165
 10
997.6211446554389
 20
522.7270737387488
 10
997.7749691169938
 20
522.7270737387488
 10
997.9800736452435
 20
522.4196754144599
 10
997.9800736452435
 20
521.9585801272791
 10
997.5185923913132
 20
521.7536493772549
 10
997.0058389399528
 20
521.5487186272306
 10
996.8007383463355
 20
521.8048809651349
  0
LWPOLYLINE
  5
786
330
1F
100
AcDbEntity
  8
Drawing
 62
     7
100
AcDbPolyline
 90
        6
 70
     0
 43
0.0
 10
988.7852897383218
 20
536.5217093450568
 10
989.1432035929156
 20
539.0473903398637
 10
989.5458581548219
 20
540.0420176950796
 10
990.06036251769
 20
536.5775879535503
 10
990.7202712283452
 20
537.6951447286468
 10
991.6374262184863
 20
536.4099543273231
  0
LWPOLYLINE
  5
787
330
1F
100
AcDbEntity
  8
Drawing
 62
     7
100
AcDbPolyline
 90
        6
 70
     0
 43
0.0
 10
983.4709664112279
 20
536.6590350720538
 10
983.8288802658217
 20
539.1847160668607
 10
984.231534827728
 20
540.1793434220766
 10
984.7460391905961
 20
536.7149136805473
 10
985.4059479012512
 20
537.8324704556438
 10
986.3231028913924
 20
536.5472800543201
  0
LWPOLYLINE
  5
788
330
1F
100
AcDbEntity
  8
Drawing
 62
     7
100
AcDbPolyline
 90
        6
 70
     0
 43
0.0
 10
994.0996130654157
 20
536.4301610596448
 10
994.4575269200095
 20
538.9558420544516
 10
994.8601814819158
 20
539.9504694096676
 10
995.3746858447839
 20
536.4860396681382
 10
996.0345945554391
 20
537.6035964432348
 10
996.9517495455802
 20
536.3184060419111
  0
LWPOLYLINE
  5
789
330
1F
100
AcDbEntity
  8
Drawing
 62
     7
100
AcDbPolyline
 90
        6
 70
     0
 43
0.0
 10
1000.789649204558
 20
536.2012848479834
 10
1001.147563059152
 20
538.7269658427903
 10
1001.550217621058
 20
539.7215931980062
 10
1002.064721983927
 20
536.2571634564769
 10
1002.724630694582
 20
537.3747202315734
 10
1003.641785684723
 20
536.0895298302497
  0
LWPOLYLINE
  5
78A
330
1F
100
AcDbEntity
  8
Drawing
 62
     7
100
AcDbPolyline
 90
        6
 70
     0
 43
0.0
 10
1009.539957339653
 20
535.9724086363225
 10
1009.897871194247
 20
538.4980896311293
 10
1010.300525756154
 20
539.4927169863453
 10
1010.815030119022
 20
536.0282872448159
 10
1011.474938829677
 20
537.1458440199125
 10
1012.392093819818
 20
535.8606536185888
  0
LWPOLYLINE
  5
78B
330
1F
100
AcDbEntity
  8
Drawing
 62
     7
100
AcDbPolyline
 90
       15
 70
     1
 43
0.0
 10
1050.142355793042
 20
471.6880963962639
 10
1050.315306503673
 20
470.979585198524
 10
1050.643915214651
 20
470.4957232490668
 10
1051.128177991344
 20
470.236510547892
 10
1051.370311347007
 20
470.2192288214459
 10
1051.525965412722
 20
470.2192288214459
 10
1051.664326768153
 20
470.4957232490668
 10
1051.525965412722
 20
471.1523914667213
 10
1051.283835991691
 20
471.5671309088997
 10
1051.197360636376
 20
471.6880963962639
 10
1051.024405991113
 20
471.8263436100741
 10
1050.799569280366
 20
471.9818703510781
 10
1050.592029214536
 20
471.9818703510781
 10
1050.125059148126
 20
471.8609048637139
 10
1050.125059148126
 20
471.7399393763493
  0
HATCH
  5
78C
330
1F
100
AcDbEntity
  8
Drawing
 62
     7
100
AcDbHatch
 10
0.0
 20
0.0
 30
0.0
210
0.0
220
0.0
230
1.0
  2
SOLID
 70
     1
 71
     1
 91
        1
 92
        7
 72
     0
 73
     1
 93
       20
 10
1031.449545844602
 20
466.3672182073341
 10
1032.152467958857
 20
466.8588567137669
 10
1032.398492666162
 20
467.1397914322626
 10
1032.714805650261
 20
467.9123668564428
 10
1033.628608333426
 20
468.3688876983441
 10
1033.628608333425
 20
468.9307593345874
 10
1033.136562853447
 20
469.4223978410203
 10
1032.363344593134
 20
469.6330994297049
 10
1031.449545844602
 20
469.176578587804
 10
1030.992644503019
 20
469.4926309708311
 10
1030.922352291593
 20
469.4575155055521
 10
1030.395162673218
 20
469.0361101289299
 10
1029.727384697358
 20
468.0879507805943
 10
1028.743289802769
 20
466.8588567137667
 10
1028.040367688514
 20
466.2267497484598
 10
1028.074557910875
 20
465.20194972577
 10
1028.602705379918
 20
465.1030042767205
 10
1029.481359990053
 20
465.1030042767205
 10
1030.149137965913
 20
465.4541743242796
 10
1031.133228925871
 20
465.9106973654329
 97
        1
330
78F
 75
     0
 76
     1
 47
0.0351170113701683
 98
        1
 10
1030.53574709607
 20
467.1397914322623
450
        1
451
        0
460
0.0
461
0.0
452
        1
462
0.5199999809265137
453
        2
463
0.0
 63
     1
421
 16711680
463
1.0
 63
     1
421
 16714250
470
LINEAR
  0
LWPOLYLINE
  5
78F
102
{ACAD_REACTORS
330
78C
102
}
330
1F
100
AcDbEntity
  8
Drawing
 62
     7
100
AcDbPolyline
 90
       21
 70
     1
 43
0.0
 10
1028.075515761543
 20
465.1732396057836
 10
1028.040367688514
 20
466.2267497484598
 10
1028.743289802769
 20
466.8588567137666
 10
1029.727384697359
 20
468.0879507805961
 10
1030.395162673219
 20
469.0361101289299
 10
1030.922352291594
 20
469.4575155055521
 10
1030.99264450302
 20
469.4926309708311
 10
1031.449545844602
 20
469.1765785878041
 10
1032.363344593134
 20
469.6330994297049
 10
1033.136562853447
 20
469.4223978410204
 10
1033.628608333425
 20
468.9307593345874
 10
1033.628608333425
 20
468.3688876983441
 10
1032.714805650261
 20
467.9123668564429
 10
1032.398492666162
 20
467.1397914322623
 10
1032.152467958857
 20
466.8588567137666
 10
1031.449545844602
 20
466.3672182073341
 10
1031.133228925871
 20
465.9106973654328
 10
1030.149137965913
 20
465.4541743242793
 10
1029.481359990054
 20
465.1030042767205
 10
1028.602705379918
 20
465.1030042767205
 10
1028.040367688514
 20
465.2083550710626
  0
LWPOLYLINE
  5
790
330
1F
100
AcDbEntity
  8
Drawing
 62
     7
100
AcDbPolyline
 90
       10
 70
     1
 43
0.0
 10
1018.78024133798
 20
468.5451533907839
 10
1019.45349632242
 20
469.005419559758
 10
1019.807841465244
 20
469.005419559758
 10
1019.949578735447
 20
468.7929871593254
 10
1019.949578735447
 20
468.4389360909416
 10
1019.595233592623
 20
468.0848850225578
 10
1019.311759052216
 20
468.014075688582
 10
1018.992845275968
 20
468.014075688582
 10
1018.886543306973
 20
468.0848850225578
 10
1018.709370735562
 20
468.29731742299
  0
LWPOLYLINE
  5
791
330
1F
100
AcDbEntity
  8
Drawing
 62
     7
100
AcDbPolyline
 90
        6
 70
     1
 43
0.0
 10
1023.705779683088
 20
474.8802828653291
 10
1023.740927756117
 20
475.2665705774197
 10
1023.530047187208
 20
475.4070390362934
 10
1023.284026414534
 20
475.4070390362934
 10
1023.248878341506
 20
474.9856336596716
 10
1023.565195260237
 20
474.8802828653291
  0
LWPOLYLINE
  5
792
330
1F
100
AcDbEntity
  8
Drawing
 62
     7
100
AcDbPolyline
 90
        9
 70
     1
 43
0.0
 10
1027.993612449311
 20
477.0224208152134
 10
1028.134196872162
 20
476.2147299257534
 10
1028.415365717864
 20
475.9689106725372
 10
1029.153431970516
 20
475.7933245491312
 10
1029.434604750851
 20
476.706368432186
 10
1029.223724181941
 20
477.1628892740872
 10
1028.977703409269
 20
477.2331224038979
 10
1028.62624235214
 20
477.2331224038979
 10
1028.028756587707
 20
477.198006938619
  0
LWPOLYLINE
  5
793
330
1F
100
AcDbEntity
  8
Drawing
 62
     7
100
AcDbPolyline
 90
       18
 70
     1
 43
0.0
 10
1037.504485066273
 20
465.4484870572149
 10
1038.312847464983
 20
466.0454763579904
 10
1039.437522847792
 20
466.0454763579904
 10
1041.054247645212
 20
466.0805940225217
 10
1042.249215239445
 20
466.1859448168642
 10
1043.057577638156
 20
466.0454763579904
 10
1043.338746483858
 20
465.8347747693055
 10
1043.373894556887
 20
465.2729031330622
 10
1043.057577638156
 20
464.7461469620974
 10
1042.741264654057
 20
464.0789245315117
 10
1042.460095808355
 20
463.7628699492319
 10
1041.72202562107
 20
463.9735715379169
 10
1040.386469669353
 20
464.2545084556649
 10
1038.066822757677
 20
464.5705608386919
 10
1037.539633139302
 20
464.6056785032237
 10
1037.08273179772
 20
464.7812646266292
 10
1036.942147374869
 20
464.9919662153142
 10
1037.117879870749
 20
465.2026678039987
  0
LWPOLYLINE
  5
794
330
1F
100
AcDbEntity
  8
Drawing
 62
     7
100
AcDbPolyline
 90
       13
 70
     1
 43
0.0
 10
1046.115294737116
 20
464.6056785032237
 10
1045.974710314264
 20
465.2729031330622
 10
1046.572192144065
 20
465.729423974963
 10
1046.677632428519
 20
465.8698902345844
 10
1047.099385697073
 20
465.8698902345844
 10
1047.556287038655
 20
465.7996571047737
 10
1047.732015599902
 20
465.6943063104317
 10
1047.767163672932
 20
465.3782539274042
 10
1047.521138965626
 20
465.2377854685304
 10
1046.923657135825
 20
465.2026678039987
 10
1046.677632428519
 20
464.7110292975661
 10
1046.572192144065
 20
464.5003277088812
 10
1046.291023298363
 20
464.5705608386919
  0
LWPOLYLINE
  5
795
330
1F
100
AcDbEntity
  8
Drawing
 62
     7
100
AcDbPolyline
 90
       10
 70
     1
 43
0.0
 10
1042.890949882115
 20
479.1721285923344
 10
1043.767212235629
 20
479.2771934838469
 10
1044.082667469821
 20
479.1371076949143
 10
1044.082667469821
 20
478.7868921229573
 10
1043.521860350498
 20
477.946377389363
 10
1042.855900174901
 20
477.946377389363
 10
1042.260039413733
 20
478.1565071723879
 10
1041.734282001624
 20
478.5067205450927
 10
1041.488926181861
 20
478.9269801111421
 10
1042.295089120947
 20
479.1020867974943
  0
LWPOLYLINE
  5
796
330
1F
100
AcDbEntity
  8
Drawing
 62
     7
100
AcDbPolyline
 90
        8
 70
     1
 43
0.0
 10
1026.736426509749
 20
496.4590716653473
 10
1026.30655609414
 20
496.3874859952256
 10
1026.163264644058
 20
496.1011433147381
 10
1026.843893129993
 20
495.9937648095555
 10
1027.237942650399
 20
496.0295576446164
 10
1027.273767480237
 20
496.280107490043
 10
1027.166296925359
 20
496.4590716653473
 10
1026.736426509749
 20
496.4590716653473
  0
LWPOLYLINE
  5
797
330
1F
100
AcDbEntity
  8
Drawing
 62
     7
100
AcDbPolyline
 90
        6
 70
     1
 43
0.0
 10
1024.878437910472
 20
487.1037702590205
 10
1024.412742665025
 20
487.5332864790038
 10
1023.982872249415
 20
487.1037702590205
 10
1023.947047419579
 20
486.5668777331069
 10
1024.448567494861
 20
486.4952920629852
 10
1024.806792185431
 20
486.8532204135944
  0
LWPOLYLINE
  5
798
330
1F
100
AcDbEntity
  8
Drawing
 62
     7
100
AcDbPolyline
 90
       10
 70
     1
 43
0.0
 10
1017.300256827359
 20
494.3870590818996
 10
1017.765952072806
 20
493.5996145113071
 10
1018.518226283781
 20
493.4564431710636
 10
1019.198858704349
 20
492.9553412809586
 10
1019.306325324594
 20
492.9553412809586
 10
1019.306325324594
 20
493.7785786866115
 10
1018.983921529228
 20
494.2438877416561
 10
1018.625696838658
 20
494.4586447520213
 10
1018.160001593212
 20
494.4586447520213
 10
1017.371902552399
 20
494.3512662468387
  0
LWPOLYLINE
  5
799
330
1F
100
AcDbEntity
  8
Drawing
 62
     7
100
AcDbPolyline
 90
       10
 70
     1
 43
0.0
 10
1030.216010981608
 20
488.2133525444132
 10
1031.004106087787
 20
488.2133525444132
 10
1031.147397537869
 20
487.748043489369
 10
1031.29068898795
 20
486.8174275785335
 10
1031.29068898795
 20
486.5668777331069
 10
1031.111576642665
 20
486.5668777331069
 10
1030.359302431689
 20
486.9963917538379
 10
1030.072719531527
 20
487.2827366335777
 10
1029.786136631365
 20
487.748043489369
 10
1029.893607186242
 20
488.1059740392305
  0
LWPOLYLINE
  5
79A
330
1F
100
AcDbEntity
  8
Drawing
 62
     7
100
AcDbPolyline
 90
        7
 70
     1
 43
0.0
 10
1042.199158843489
 20
495.0410376136996
 10
1041.691469264288
 20
495.4355769213138
 10
1040.986351625041
 20
495.153762501803
 10
1041.183783619717
 20
494.7310419721629
 10
1041.888905193598
 20
494.3928629093479
 10
1042.396590838167
 20
494.3646816873223
 10
1042.453001665775
 20
494.4774087746781
  0
LWPOLYLINE
  5
79B
330
1F
100
AcDbEntity
  8
Drawing
 62
     7
100
AcDbPolyline
 90
        7
 70
     1
 43
0.0
 10
1037.23724481998
 20
487.8554219945516
 10
1036.843195299574
 20
487.8196291594908
 10
1036.80737440437
 20
487.5690793140647
 10
1036.950665854451
 20
487.4974936439429
 10
1037.129778199735
 20
487.4974936439429
 10
1037.23724481998
 20
487.6406649841864
 10
1037.23724481998
 20
487.7838363244299
  0
LWPOLYLINE
  5
79C
330
1F
100
AcDbEntity
  8
Drawing
 62
     7
100
AcDbPolyline
 90
        6
 70
     1
 43
0.0
 10
1043.362916931928
 20
491.4347164969043
 10
1043.506208382009
 20
491.2199572872863
 10
1043.792787347539
 20
491.0409931119819
 10
1043.900253967783
 20
491.0409931119819
 10
1043.828612177375
 20
491.2557523215995
 10
1043.542029277213
 20
491.4705093319652
  0
LWPOLYLINE
  5
79D
330
1F
100
AcDbEntity
  8
Drawing
 62
     7
100
AcDbPolyline
 90
       13
 70
     1
 43
0.0
 10
1047.924733904723
 20
497.0419197723012
 10
1048.291398382223
 20
497.5773673892967
 10
1048.601652032115
 20
497.6055486113227
 10
1048.996519956103
 20
497.6055486113227
 10
1049.334977052483
 20
497.5491839680184
 10
1049.447794773065
 20
497.4928215239669
 10
1049.476002154185
 20
497.3237341918119
 10
1049.532409047159
 20
497.0982822163527
 10
1049.532409047159
 20
496.9010114629194
 10
1049.109337676685
 20
496.7601053527904
 10
1048.714469752698
 20
496.7601053527904
 10
1048.376012656318
 20
496.7601053527904
 10
1048.178580661641
 20
496.8164677968419
  0
LWPOLYLINE
  5
79E
330
1F
100
AcDbEntity
  8
Drawing
 62
     7
100
AcDbPolyline
 90
        7
 70
     1
 43
0.0
 10
1044.935022995648
 20
499.2400704850833
 10
1044.709387554483
 20
499.380978794465
 10
1044.37092652347
 20
499.3246163504135
 10
1044.173494528794
 20
498.901893621521
 10
1044.173494528794
 20
498.5637167579583
 10
1044.624773280388
 20
498.4509918698549
 10
1044.991433823256
 20
498.7328062893661
  0
LWPOLYLINE
  5
79F
330
1F
100
AcDbEntity
  8
Drawing
 62
     7
100
AcDbPolyline
 90
       16
 70
     1
 43
0.0
 10
1057.094997181273
 20
474.9368850279074
 10
1058.063522734659
 20
474.8677625206286
 10
1058.374834800721
 20
474.6776723267329
 10
1058.461310156036
 20
473.7272301542642
 10
1058.478606800953
 20
472.9668759764389
 10
1058.444017445753
 20
472.6039773150932
 10
1058.305656090321
 20
472.5002935541751
 10
1058.080819379575
 20
472.5694160614538
 10
1057.579259957966
 20
472.9495942499929
 10
1057.181472536588
 20
473.43345619945
 10
1056.679913114979
 20
473.9345998753532
 10
1056.403190404117
 20
474.1419695964427
 10
1056.126471627887
 20
474.4184618248108
 10
1056.074585627771
 20
474.7640765604577
 10
1056.385897693834
 20
475.0060075351865
 10
1056.766388470294
 20
474.9541645551011
  0
LWPOLYLINE
  5
7A0
330
1F
100
AcDbEntity
  8
Drawing
 62
     7
100
AcDbPolyline
 90
        8
 70
     1
 43
0.0
 10
1055.417368205814
 20
471.7226576499032
 10
1055.763273561709
 20
472.1028358384423
 10
1056.385897693834
 20
471.8954661173533
 10
1056.662620404696
 20
471.5152879288142
 10
1056.334011693718
 20
471.2733569540854
 10
1055.659501561478
 20
471.3251999341709
 10
1055.417368205814
 20
471.4634471479811
 10
1055.417368205814
 20
471.5844126353458
  0
LWPOLYLINE
  5
7A1
330
1F
100
AcDbEntity
  8
Drawing
 62
     7
100
AcDbPolyline
 90
       12
 70
     1
 43
0.0
 10
1055.295870685713
 20
491.5945691676505
 10
1055.718942056188
 20
491.9891106745175
 10
1055.944581431985
 20
491.9891106745175
 10
1056.142013426663
 20
491.8763835871617
 10
1056.254835081878
 20
491.7636586990583
 10
1056.254835081878
 20
491.566387945625
 10
1056.085606533687
 20
491.2845735261143
 10
1055.85996715789
 20
491.1718486380108
 10
1055.718942056188
 20
491.1154839947066
 10
1055.465099233903
 20
491.1154839947066
 10
1055.154845584011
 20
491.1154839947066
 10
1055.098434756404
 20
491.538206723599
  0
LWPOLYLINE
  5
7A2
330
1F
100
AcDbEntity
  8
Drawing
 62
     7
100
AcDbPolyline
 90
        6
 70
     0
 43
0.0
 10
1049.982428716322
 20
535.1475063964975
 10
1050.340342570916
 20
537.6731873913044
 10
1050.742997132822
 20
538.6678147465203
 10
1051.25750149569
 20
535.203385004991
 10
1051.917410206345
 20
536.3209417800875
 10
1052.834565196486
 20
535.0357513787638
  0
LWPOLYLINE
  5
7A3
330
1F
100
AcDbEntity
  8
Drawing
 62
     7
100
AcDbPolyline
 90
        8
 70
     1
 43
0.0
 10
1022.931530549033
 20
518.6198574615868
 10
1023.393007868331
 20
519.7982147723577
 10
1023.905761319691
 20
519.9519117352496
 10
1024.418514771051
 20
519.8494463602373
 10
1024.982544354474
 20
519.1321865358999
 10
1024.982544354474
 20
518.7223228365991
 10
1023.546836264518
 20
518.3124613365507
 10
1023.085355010588
 20
518.5173920865749
  0
LWPOLYLINE
  5
7A4
330
1F
100
AcDbEntity
  8
Drawing
 62
     7
100
AcDbPolyline
 90
        7
 70
     1
 43
0.0
 10
1028.630271415925
 20
509.7314881586775
 10
1027.861141238884
 20
511.1660078073522
 10
1027.450940051649
 20
510.9098432701957
 10
1026.425429214295
 20
510.9098432701957
 10
1027.245835523398
 20
510.141349658726
 10
1028.014965700439
 20
509.9364189087017
 10
1028.527723086432
 20
509.8851851215694
  0
LWPOLYLINE
  5
7A5
330
1F
100
AcDbEntity
  8
Drawing
 62
     7
100
AcDbPolyline
 90
        4
 70
     1
 43
0.0
 10
1018.368021684219
 20
521.3351997960443
 10
1017.701443771304
 20
521.2327344210324
 10
1018.573122277837
 20
520.8741045088635
 10
1018.675674541963
 20
521.0278014717554
  0
LWPOLYLINE
  5
7A6
330
1F
100
AcDbEntity
  8
Drawing
 62
     7
100
AcDbPolyline
 90
        5
 70
     1
 43
0.0
 10
1038.218766464849
 20
511.9857330067019
 10
1037.706013013489
 20
511.6783368816654
 10
1038.526419322591
 20
511.5246377195211
 10
1038.628971586717
 20
511.7295684695454
 10
1038.321318728974
 20
511.9857330067019
  0
LWPOLYLINE
  5
7A7
330
1F
100
AcDbEntity
  8
Drawing
 62
     7
100
AcDbPolyline
 90
        4
 70
     1
 43
0.0
 10
1043.910334496508
 20
514.8547745033037
 10
1043.551405506702
 20
514.8547745033037
 10
1043.653957770828
 20
514.7523091282918
 10
1043.96161062857
 20
514.7010753411595
  0
LWPOLYLINE
  5
7A8
330
1F
100
AcDbEntity
  8
Drawing
 62
     7
100
AcDbPolyline
 90
        4
 70
     1
 43
0.0
 10
1046.833030743115
 20
518.5947727871352
 10
1046.679202346928
 20
518.2361428749663
 10
1046.935579072608
 20
518.2361428749663
 10
1047.089407468796
 20
518.4410736249905
  0
LWPOLYLINE
  5
7A9
330
1F
100
AcDbEntity
  8
Drawing
 62
     7
100
AcDbPolyline
 90
        6
 70
     0
 43
0.0
 10
1023.578152005393
 20
535.8350829093255
 10
1023.936065859987
 20
538.3607639041323
 10
1024.338720421893
 20
539.3553912593483
 10
1024.853224784762
 20
535.8909615178189
 10
1025.513133495417
 20
537.0085182929155
 10
1026.430288485558
 20
535.7233278915918
  0
LWPOLYLINE
  5
7AA
330
1F
100
AcDbEntity
  8
Drawing
 62
     7
100
AcDbPolyline
 90
        6
 70
     0
 43
0.0
 10
1016.457741817668
 20
536.2012848479834
 10
1016.815655672262
 20
538.7269658427903
 10
1017.218310234168
 20
539.7215931980062
 10
1017.732814597036
 20
536.2571634564769
 10
1018.392723307691
 20
537.3747202315734
 10
1019.309878297832
 20
536.0895298302497
  0
LWPOLYLINE
  5
7AB
330
1F
100
AcDbEntity
  8
Drawing
 62
     7
100
AcDbPolyline
 90
        6
 70
     0
 43
0.0
 10
1030.037807536454
 20
535.6519819399963
 10
1030.395721391048
 20
538.1776629348032
 10
1030.798375952954
 20
539.1722902900191
 10
1031.312880315822
 20
535.7078605484897
 10
1031.972789026478
 20
536.8254173235863
 10
1032.889944016619
 20
535.5402269222626
  0
LWPOLYLINE
  5
7AC
330
1F
100
AcDbEntity
  8
Drawing
 62
     7
100
AcDbPolyline
 90
        6
 70
     0
 43
0.0
 10
1037.780224118985
 20
535.2400069582585
 10
1038.138137973579
 20
537.7656879530654
 10
1038.540792535485
 20
538.7603153082813
 10
1039.055296898353
 20
535.295885566752
 10
1039.715205609008
 20
536.4134423418485
 10
1040.632360599149
 20
535.1282519405248
  0
LWPOLYLINE
  5
7AD
330
1F
100
AcDbEntity
  8
Drawing
 62
     7
100
AcDbPolyline
 90
        6
 70
     0
 43
0.0
 10
1043.369428748884
 20
535.102681231262
 10
1043.727342603478
 20
537.6283622260688
 10
1044.129997165384
 20
538.6229895812847
 10
1044.644501528252
 20
535.1585598397554
 10
1045.304410238908
 20
536.276116614852
 10
1046.221565229049
 20
534.9909262135283
  0
LWPOLYLINE
  5
7AE
330
1F
100
AcDbEntity
  8
Drawing
 62
     7
100
AcDbPolyline
 90
        6
 70
     0
 43
0.0
 10
1058.320418831842
 20
534.9644054271688
 10
1058.678332686436
 20
537.4900864219757
 10
1059.080987248342
 20
538.4847137771916
 10
1059.59549161121
 20
535.0202840356623
 10
1060.255400321866
 20
536.1378408107588
 10
1061.172555312007
 20
534.8526504094351
  0
HATCH
  5
7BA
330
1F
100
AcDbEntity
  8
Drawing
 62
     7
100
AcDbHatch
 10
0.0
 20
0.0
 30
0.0
210
0.0
220
0.0
230
1.0
  2
SOLID
 70
     1
 71
     1
 91
        1
 92
        1
 93
        4
 72
     1
 10
729.2682538118979
 20
418.4007614389231
 11
778.2068820141058
 21
418.4007614389231
 72
     1
 10
778.2068820141058
 20
418.4007614389231
 11
778.2068820141058
 21
417.3079614320798
 72
     1
 10
778.2068820141058
 20
417.3079614320798
 11
729.2682538118979
 21
417.3079614320798
 72
     1
 10
729.2682538118979
 20
417.3079614320798
 11
729.2682538118979
 21
418.4007614389231
 97
        1
330
7BB
 75
     0
 76
     1
 98
        1
 10
-46.47250397275434
 20
5.977820594264983
  0
LWPOLYLINE
  5
7BB
102
{ACAD_REACTORS
330
7BA
102
}
330
1F
100
AcDbEntity
  8
Drawing
 62
     7
100
AcDbPolyline
 90
        4
 70
     1
 43
0.0
 10
729.2682538118979
 20
418.4007614389231
 10
778.2068820141058
 20
418.4007614389231
 10
778.2068820141058
 20
417.3079614320798
 10
729.2682538118979
 20
417.3079614320798
  0
MTEXT
  5
7BC
330
1F
100
AcDbEntity
  8
Drawing
 62
     7
100
AcDbMText
 10
728.9948531027073
 20
415.6687620562769
 30
0.0
 40
5.0
 41
0.0
 46
0.0
 71
     1
 72
     5
  1
0
  7
style1
 73
     1
 44
1.0
  0
MTEXT
  5
7BD
330
1F
100
AcDbEntity
  8
Drawing
 62
     7
100
AcDbMText
 10
745.9456634348301
 20
414.8491626856066
 30
0.0
 40
5.0
 41
0.0
 46
0.0
 71
     1
 72
     5
  1
metre
  7
style1
 73
     1
 44
1.0
  0
MTEXT
  5
7BE
330
1F
100
AcDbEntity
  8
Drawing
 62
     7
100
AcDbMText
 10
777.9334823900022
 20
415.6687620562769
 30
0.0
 40
5.0
 41
0.0
 46
0.0
 71
     1
 72
     5
  1
1
  7
style1
 73
     1
 44
1.0
  0
MTEXT
  5
7C4
330
1F
100
AcDbEntity
  8
Drawing
  6
ACAD_ISO03W100
 62
     7
100
AcDbMText
 10
996.3630777631016
 20
413.2256913597321
 30
0.0
 40
5.0
 41
0.0
 46
0.0
 71
     1
 72
     5
  1
Cut\P1171
  7
style1
 73
     1
 44
1.0
  0
MTEXT
  5
7C6
330
1F
100
AcDbEntity
  8
Drawing
 62
     7
100
AcDbMText
 10
870.4236830829311
 20
433.0823398618221
 30
0.0
 40
5.0
 41
0.0
 46
0.0
 71
     1
 72
     5
  1
{\fVerdana|b0|i0|c0|p34;Cut\P1147}
  7
style1
 73
     1
 44
1.0
  0
MTEXT
  5
7CA
330
1F
100
AcDbEntity
  8
Drawing
 62
     7
100
AcDbMText
 10
714.7246538308295
 20
557.9553484384628
 30
0.0
 40
5.0
 41
0.0
 46
0.0
 71
     1
 72
     5
  1
{\fVerdana|b0|i0|c0|p34;East}
  7
style1
 73
     1
 44
1.0
  0
MTEXT
  5
7CB
330
1F
100
AcDbEntity
  8
Drawing
 62
     7
100
AcDbMText
 10
1056.770624010399
 20
552.715295724217
 30
0.0
 40
5.0
 41
0.0
 46
0.0
 71
     1
 72
     5
  1
{\fVerdana|b0|i0|c0|p34;West}
  7
style1
 73
     1
 44
1.0
  0
MTEXT
  5
7CC
330
1F
100
AcDbEntity
  8
Drawing
 62
     7
100
AcDbMText
 10
702.8763081567515
 20
519.8527892480107
 30
0.0
 40
5.0
 41
0.0
 46
0.0
 71
     1
 72
     5
  1
{\fVerdana|b0|i0|c0|p34;5.98\P   ^ }
  7
style1
 73
     1
 44
1.0
  0
MTEXT
  5
7CD
330
1F
100
AcDbEntity
  8
Drawing
 62
     7
100
AcDbMText
 10
1069.602028906554
 20
518.2914163525357
 30
0.0
 40
5.0
 41
0.0
 46
0.0
 71
     1
 72
     5
  1
1001
  7
style1
 73
     1
 44
1.0
  0
MTEXT
  5
7CE
330
1F
100
AcDbEntity
  8
Drawing
 62
     7
100
AcDbMText
 10
1068.478109691613
 20
481.6036245605241
 30
0.0
 40
5.0
 41
0.0
 46
0.0
 71
     1
 72
     5
  1
1013
  7
style1
 73
     1
 44
1.0
  0
MTEXT
  5
7CF
330
1F
100
AcDbEntity
  8
Drawing
 62
     7
100
AcDbMText
 10
1068.852750152408
 20
469.2495723003758
 30
0.0
 40
5.0
 41
0.0
 46
0.0
 71
     1
 72
     5
  1
1031
  7
style1
 73
     1
 44
1.0
  0
MTEXT
  5
7D0
330
1F
100
AcDbEntity
  8
Drawing
 62
     7
100
AcDbMText
 10
1068.852750152408
 20
459.8904419855206
 30
0.0
 40
5.0
 41
0.0
 46
0.0
 71
     1
 72
     5
  1
1100
  7
style1
 73
     1
 44
1.0
  0
MTEXT
  5
7D1
330
1F
100
AcDbEntity
  8
Drawing
 62
     7
100
AcDbMText
 10
1068.478109691613
 20
449.033850698019
 30
0.0
 40
5.0
 41
0.0
 46
0.0
 71
     1
 72
     5
  1
1130
  7
style1
 73
     1
 44
1.0
  0
MTEXT
  5
7D2
330
1F
100
AcDbEntity
  8
Drawing
 62
     7
100
AcDbMText
 10
1068.10347031454
 20
436.6797984378708
 30
0.0
 40
5.0
 41
0.0
 46
0.0
 71
     1
 72
     5
  1
1098
  7
style1
 73
     1
 44
1.0
  0
MTEXT
  5
7D3
330
1F
100
AcDbEntity
  8
Drawing
 62
     7
100
AcDbMText
 10
1068.10347031454
 20
420.2077287576731
 30
0.0
 40
5.0
 41
0.0
 46
0.0
 71
     1
 72
     5
  1
1098.5
  7
style1
 73
     1
 44
1.0
  0
MTEXT
  5
7D4
330
1F
100
AcDbEntity
  8
Drawing
 62
     7
100
AcDbMText
 10
1022.638362496925
 20
419.6295829027371
 30
0.0
 40
5.0
 41
0.0
 46
0.0
 71
     1
 72
     5
  1
G
  7
style1
 73
     1
 44
1.0
  0
MTEXT
  5
7DB
330
1F
100
AcDbEntity
  8
Drawing
 62
     7
100
AcDbMText
 10
1035.705020638945
 20
417.6512365608196
 30
0.0
 40
5.0
 41
0.0
 46
0.0
 71
     1
 72
     5
  1
G
  7
style1
 73
     1
 44
1.0
  0
HATCH
  5
7E0
330
1F
100
AcDbEntity
  8
Drawing
 62
     7
100
AcDbHatch
 10
0.0
 20
0.0
 30
0.0
210
0.0
220
0.0
230
1.0
  2
ANSI31
 70
     0
 71
     1
 91
        3
 92
        1
 93
       15
 72
     1
 10
987.850964011508
 20
439.1796646626166
 11
987.850964011508
 21
439.523238491908
 72
     1
 10
987.850964011508
 20
439.523238491908
 11
990.0853356308116
 21
439.6520795026121
 72
     1
 10
990.0853356308116
 20
439.6520795026121
 11
991.5462686503752
 21
439.4802914883402
 72
     1
 10
991.5462686503752
 20
439.4802914883402
 11
993.30798465916
 21
439.3943996804568
 72
     1
 10
993.30798465916
 20
439.3943996804568
 11
994.811891735998
 21
438.9649318440291
 72
     1
 10
994.811891735998
 20
438.9649318440291
 11
996.3587610662107
 21
438.4066251961502
 72
     1
 10
996.3587610662107
 20
438.4066251961502
 11
996.5736077447818
 21
438.0630513668588
 72
     1
 10
996.5736077447818
 20
438.0630513668588
 11
995.8001691450427
 21
437.8053715447035
 72
     1
 10
995.8001691450427
 20
437.8053715447035
 11
994.4251724361275
 21
437.8053715447035
 72
     1
 10
994.4251724361275
 20
437.8053715447035
 11
992.0618943835352
 21
438.1059983704266
 72
     1
 10
992.0618943835352
 20
438.1059983704266
 11
989.9564291975212
 21
438.4925192032864
 72
     1
 10
989.9564291975212
 20
438.4925192032864
 11
988.7533051099044
 21
438.7501990254417
 72
     1
 10
988.7533051099044
 20
438.7501990254417
 11
988.0658067554468
 21
438.9649318440291
 72
     1
 10
988.0658067554468
 20
438.9649318440291
 11
987.9798704447976
 21
439.1367176590487
 72
     1
 10
987.9798704447976
 20
439.1367176590487
 11
987.850964011508
 21
439.1796646626166
 97
        1
330
73B
 92
        1
 93
       19
 72
     1
 10
987.7310993639367
 20
433.39636063872
 11
990.2183026049461
 21
433.7089623945147
 72
     1
 10
990.2183026049461
 20
433.7089623945147
 11
992.8991251816415
 21
434.0215663495618
 72
     1
 10
992.8991251816415
 20
434.0215663495618
 11
994.2842142231793
 21
434.2895100833133
 72
     1
 10
994.2842142231793
 20
434.2895100833133
 11
994.9246346985601
 21
434.6467698611508
 72
     1
 10
994.9246346985601
 20
434.6467698611508
 11
994.9246346985601
 21
434.8402842912486
 72
     1
 10
994.9246346985601
 20
434.8402842912486
 11
994.7161267131096
 21
435.0635722022101
 72
     1
 10
994.7161267131096
 20
435.0635722022101
 11
993.4650748657741
 21
435.2273175499494
 72
     1
 10
993.4650748657741
 20
435.2273175499494
 11
992.0948784086331
 21
435.1380015058638
 72
     1
 10
992.0948784086331
 20
435.1380015058638
 11
990.5310665504376
 21
434.8253997500696
 72
     1
 10
990.5310665504376
 20
434.8253997500696
 11
988.8183209790113
 21
434.602111839108
 72
     1
 10
988.8183209790113
 20
434.602111839108
 11
987.3587611462253
 21
434.497911253843
 72
     1
 10
987.3587611462253
 20
434.497911253843
 11
986.5694108922453
 21
434.3341681053561
 72
     1
 10
986.5694108922453
 20
434.3341681053561
 11
986.3757954911916
 21
434.2150807796596
 72
     1
 10
986.3757954911916
 20
434.2150807796596
 11
986.3311138033696
 21
433.9173657642967
 72
     1
 10
986.3311138033696
 20
433.9173657642967
 11
986.3460063877656
 21
433.6345352901134
 72
     1
 10
986.3460063877656
 20
433.6345352901134
 11
986.5247292044232
 21
433.5005612239851
 72
     1
 10
986.5247292044232
 20
433.5005612239851
 11
987.0906788885559
 21
433.39636063872
 72
     1
 10
987.0906788885559
 20
433.39636063872
 11
987.5225913784861
 21
433.39636063872
 72
     1
 10
987.5225913784861
 20
433.39636063872
 11
987.7310993639367
 21
433.39636063872
 97
        1
330
73A
 92
        1
 93
        9
 72
     1
 10
1002.227918740338
 20
434.2583928591488
 11
1005.736796551914
 21
433.6109329118721
 72
     1
 10
1005.736796551914
 20
433.6109329118721
 11
1008.327964590153
 21
433.6109329118721
 72
     1
 10
1008.327964590153
 20
433.6109329118721
 11
1010.919136563024
 21
434.0425736098076
 72
     1
 10
1010.919136563024
 20
434.0425736098076
 11
1012.916497718312
 21
435.0137635307227
 72
     1
 10
1012.916497718312
 20
435.0137635307227
 11
1008.813809089152
 21
435.1756285175419
 72
     1
 10
1008.813809089152
 20
435.1756285175419
 11
1006.492552912742
 21
434.8518985439035
 72
     1
 10
1006.492552912742
 20
434.8518985439035
 11
1004.711124394625
 21
434.5821228327871
 72
     1
 10
1004.711124394625
 20
434.5821228327871
 11
1002.605796920752
 21
434.366303583446
 72
     1
 10
1002.605796920752
 20
434.366303583446
 11
1002.227918740338
 21
434.2583928591488
 97
        1
330
73D
 75
     0
 76
     1
 52
0.0
 41
0.5
 77
     0
 78
     1
 53
45.0
 43
0.0
 44
0.0
 45
-1.122532015133644
 46
1.122532015133644
 79
     0
 98
        1
 10
0.0
 20
0.0
  0
MTEXT
  5
7E1
330
1F
100
AcDbEntity
  8
Drawing
 62
     7
100
AcDbMText
 10
700.5848434218581
 20
486.8933676981623
 30
0.0
 40
5.0
 41
0.0
 46
0.0
 71
     1
 72
     5
  1
1012
  7
style1
 73
     1
 44
1.0
  0
MTEXT
  5
7E2
330
1F
100
AcDbEntity
  8
Drawing
 62
     7
100
AcDbMText
 10
700.9808028580151
 20
475.418957590452
 30
0.0
 40
5.0
 41
0.0
 46
0.0
 71
     1
 72
     5
  1
1030
  7
style1
 73
     1
 44
1.0
  0
MTEXT
  5
7E3
330
1F
100
AcDbEntity
  8
Drawing
 62
     7
100
AcDbMText
 10
700.9808028580151
 20
465.9228938246591
 30
0.0
 40
5.0
 41
0.0
 46
0.0
 71
     1
 72
     5
  1
1081
  7
style1
 73
     1
 44
1.0
  0
MTEXT
  5
7E4
330
1F
100
AcDbEntity
  8
Drawing
 62
     7
100
AcDbMText
 10
700.8580561914116
 20
457.2181690031991
 30
0.0
 40
5.0
 41
0.0
 46
0.0
 71
     1
 72
     5
  1
1131
  7
style1
 73
     1
 44
1.0
  0
MTEXT
  5
7E5
330
1F
100
AcDbEntity
  8
Drawing
 62
     7
100
AcDbMText
 10
991.380139882004
 20
470.9594784791603
 30
0.0
 40
5.0
 41
0.0
 46
0.0
 71
     1
 72
     5
  1
G
  7
style1
 73
     1
 44
1.0
  0
LINE
  5
7EA
330
1F
100
AcDbEntity
  8
Drawing
 62
     7
100
AcDbLine
 10
885.8660967581718
 20
430.3126545755719
 30
0.0
 11
905.2681047949834
 21
437.4347025272807
 31
0.0
  0
LINE
  5
7EB
330
1F
100
AcDbEntity
  8
Drawing
 62
     7
100
AcDbLine
 10
1010.36362322722
 20
408.1551727950268
 30
0.0
 11
1021.846443624611
 21
412.111865988319
 31
0.0
  0
MTEXT
  5
801
330
1F
100
AcDbEntity
  8
Drawing
 62
     7
100
AcDbMText
 10
1061.629544514593
 20
403.0631415521609
 30
0.0
 40
5.0
 41
0.0
 46
0.0
 71
     1
 72
     5
  1
South-West\Pcorner of\Pexcavation
  7
style1
 73
     1
 44
1.0
  0
VIEWPORT
  5
7F3
330
50
100
AcDbEntity
 67
     1
  8
0
100
AcDbViewport
 10
136.5250091552734
 20
100.8062472343445
 30
0.0
 40
390.658451146857
 41
228.4221935424804
 68
     1
 69
     1
 12
136.5250091552734
 22
100.8062472343445
 13
0.0
 23
0.0
 14
10.0
 24
10.0
 15
10.0
 25
10.0
 16
0.0
 26
0.0
 36
1.0
 17
0.0
 27
0.0
 37
0.0
 42
50.0
 43
0.0
 44
0.0
 45
228.4221935424804
 50
0.0
 51
0.0
 72
  1000
 90
    32800
  1

281
     0
 71
     1
 74
     0
110
0.0
120
0.0
130
0.0
111
1.0
121
0.0
131
0.0
112
0.0
122
1.0
132
0.0
 79
     0
146
0.0
170
     0
 61
     5
348
809
292
     1
282
     1
141
0.0
142
0.0
 63
   256
  0
VIEWPORT
  5
7F5
330
50
100
AcDbEntity
 67
     1
  8
Drawing
 62
     0
100
AcDbViewport
 10
130.9310530411016
 20
105.8790007412047
 30
0.0
 40
233.8306522280664
 41
171.1180039047421
 68
     2
 69
     2
 12
890.3164304251933
 22
473.1140147764929
 13
0.0
 23
0.0
 14
10.0
 24
10.0
 15
10.0
 25
10.0
 16
0.0
 26
0.0
 36
1.0
 17
0.0
 27
0.0
 37
0.0
 42
50.0
 43
0.0
 44
0.0
 45
319.2195447853368
 50
0.0
 51
0.0
 72
  1000
 90
    32864
  1

281
     0
 71
     1
 74
     0
110
0.0
120
0.0
130
0.0
111
1.0
121
0.0
131
0.0
112
0.0
122
1.0
132
0.0
 79
     0
146
0.0
170
     0
 61
     5
348
809
292
     1
282
     1
141
0.0
142
0.0
 63
   256
  0
ENDSEC
  0
SECTION
  2
OBJECTS
  0
DICTIONARY
  5
C
330
0
100
AcDbDictionary
281
     1
  3
ACAD_COLOR
350
6B
  3
ACAD_DETAILVIEWSTYLE
350
87D
  3
ACAD_GROUP
350
D
  3
ACAD_IMAGE_DICT
350
81
  3
ACAD_IMAGE_VARS
350
82
  3
ACAD_LAYOUT
350
1A
  3
ACAD_MATERIAL
350
6A
  3
ACAD_MLEADERSTYLE
350
844
  3
ACAD_MLINESTYLE
350
17
  3
ACAD_PLOTSETTINGS
350
19
  3
ACAD_PLOTSTYLENAME
350
E
  3
ACAD_SCALELIST
350
81D
  3
ACAD_SECTIONVIEWSTYLE
350
87E
  3
ACAD_TABLESTYLE
350
842
  3
ACAD_VISUALSTYLE
350
804
  3
ACDB_RECOMPOSE_DATA
350
879
  3
AcDbVariableDictionary
350
5E
  0
IMAGEDEF_REACTOR
  5
84
330
85
100
AcDbRasterImageDefReactor
 90
        2
330
85
  0
DICTIONARY
  5
6B
102
{ACAD_REACTORS
330
C
102
}
330
C
100
AcDbDictionary
281
     1
  0
DICTIONARY
  5
87D
102
{ACAD_REACTORS
330
C
102
}
330
C
100
AcDbDictionary
281
     1
  0
DICTIONARY
  5
D
102
{ACAD_REACTORS
330
C
102
}
330
C
100
AcDbDictionary
281
     1
  0
DICTIONARY
  5
81
102
{ACAD_REACTORS
330
C
102
}
330
C
100
AcDbDictionary
281
     1
  3
1147 section 1
350
83
  0
RASTERVARIABLES
  5
82
102
{ACAD_REACTORS
330
C
102
}
330
C
100
AcDbRasterVariables
 90
        0
 70
     1
 71
     1
 72
     1
  0
DICTIONARY
  5
1A
102
{ACAD_REACTORS
330
C
102
}
330
C
100
AcDbDictionary
281
     1
  3
Layout1
350
51
  3
Layout2
350
56
  3
Model
350
22
  0
DICTIONARY
  5
6A
102
{ACAD_REACTORS
330
C
102
}
330
C
100
AcDbDictionary
281
     1
  3
ByBlock
350
840
  3
ByLayer
350
83F
  3
Global
350
841
  0
DICTIONARY
  5
844
102
{ACAD_REACTORS
330
C
102
}
330
C
100
AcDbDictionary
281
     1
  3
Standard
350
845
  0
DICTIONARY
  5
17
102
{ACAD_REACTORS
330
C
102
}
330
C
100
AcDbDictionary
281
     1
  3
Standard
350
18
  0
DICTIONARY
  5
19
102
{ACAD_REACTORS
330
C
102
}
330
C
100
AcDbDictionary
281
     1
  0
ACDBDICTIONARYWDFLT
  5
E
102
{ACAD_REACTORS
330
C
102
}
330
C
100
AcDbDictionary
281
     1
  3
Normal
350
F
100
AcDbDictionaryWithDefault
340
F
  0
DICTIONARY
  5
81D
102
{ACAD_REACTORS
330
C
102
}
330
C
100
AcDbDictionary
281
     1
  3
A0
350
81E
  3
A1
350
81F
  3
A2
350
820
  3
A3
350
821
  3
A4
350
822
  3
A5
350
823
  3
A6
350
824
  3
A7
350
825
  3
A8
350
826
  3
A9
350
827
  3
B0
350
828
  3
B1
350
829
  3
B2
350
82A
  3
B3
350
82B
  3
B4
350
82C
  3
B5
350
82D
  3
B6
350
82E
  3
B7
350
82F
  3
B8
350
830
  3
B9
350
831
  3
C0
350
832
  3
C1
350
833
  3
C2
350
834
  3
C3
350
835
  3
C4
350
836
  3
C5
350
837
  3
C6
350
838
  3
C7
350
839
  3
C8
350
83A
  3
C9
350
83B
  3
D0
350
83C
  3
D1
350
83D
  3
D2
350
83E
  0
DICTIONARY
  5
87E
102
{ACAD_REACTORS
330
C
102
}
330
C
100
AcDbDictionary
281
     1
  0
DICTIONARY
  5
842
102
{ACAD_REACTORS
330
C
102
}
330
C
100
AcDbDictionary
281
     1
  3
Standard
350
843
  0
DICTIONARY
  5
804
102
{ACAD_REACTORS
330
C
102
}
330
C
100
AcDbDictionary
281
     1
  3
2dWireframe
350
809
  3
Basic
350
80C
  3
Brighten
350
810
  3
ColorChange
350
814
  3
Conceptual
350
80E
  3
Dim
350
80F
  3
EdgeColorOff
350
817
  3
Facepattern
350
813
  3
Flat
350
805
  3
FlatWithEdges
350
806
  3
Gouraud
350
807
  3
GouraudWithEdges
350
808
  3
Hidden
350
80B
  3
JitterOff
350
815
  3
Linepattern
350
812
  3
OverhangOff
350
816
  3
Realistic
350
80D
  3
Shaded
350
81C
  3
Shaded with edges
350
81B
  3
Shades of Gray
350
818
  3
Sketchy
350
819
  3
Thicken
350
811
  3
Wireframe
350
80A
  3
X-Ray
350
81A
  0
XRECORD
  5
879
102
{ACAD_REACTORS
330
C
102
}
330
C
100
AcDbXrecord
280
     1
 90
        1
330
843
  0
DICTIONARY
  5
5E
102
{ACAD_REACTORS
330
C
102
}
330
C
100
AcDbDictionary
281
     1
  3
CANNOSCALE
350
846
  3
CMLEADERSTYLE
350
87B
  3
CTABLESTYLE
350
87A
  3
DIMASSOC
350
5F
  3
HIDETEXT
350
63
  3
MSLTSCALE
350
87C
  3
PROJECTNAME
350
5AA
  0
IMAGEDEF
  5
83
102
{ACAD_REACTORS
330
81
330
84
102
}
330
81
100
AcDbRasterImageDef
 90
        0
  1
C:\Documents and Settings\Owner\Desktop\Facing the Palace 2002\Facing the Palace scanned images\1147 section 1.jpg
 10
3408.0
 20
2480.0
 11
0.08466666666666667
 21
0.08466666666666667
280
     1
281
     5
  0
LAYOUT
  5
51
102
{ACAD_REACTORS
330
1A
102
}
330
1A
100
AcDbPlotSettings
  1

  2
hp deskjet 960c
  4
Letter
  6

 40
7.143749713897705
 41
13.91709136962891
 42
7.14373779296875
 43
3.17498779296875
 44
215.8999938964844
 45
279.3999938964844
 46
0.0
 47
0.0
 48
0.0
 49
0.0
140
0.0
141
0.0
142
1.0
143
25.4
 70
   672
 72
     0
 73
     1
 74
     5
  7
Grayscale.ctb
 75
     0
 76
     0
 77
     2
 78
   300
147
1.0
148
0.0
149
0.0
100
AcDbLayout
  1
Layout1
 70
     1
 71
     1
 10
-3.17498779296875
 20
-7.143749713897705
 11
276.2250061035156
 21
208.7562441825866
 12
0.0
 22
0.0
 32
0.0
 14
14.01572692706839
 24
20.31999878883363
 34
0.0
 15
247.8463791551347
 25
191.4380026935758
 35
0.0
146
0.0
 13
0.0
 23
0.0
 33
0.0
 16
1.0
 26
0.0
 36
0.0
 17
0.0
 27
1.0
 37
0.0
 76
     0
330
50
331
7F3
  0
LAYOUT
  5
56
102
{ACAD_REACTORS
330
1A
102
}
330
1A
100
AcDbPlotSettings
  1

  2
None
  4

  6

 40
0.0
 41
0.0
 42
0.0
 43
0.0
 44
0.0
 45
0.0
 46
0.0
 47
0.0
 48
0.0
 49
0.0
140
0.0
141
0.0
142
1.0
143
1.0
 70
   688
 72
     0
 73
     0
 74
     5
  7
Grayscale.ctb
 75
    16
 76
     0
 77
     2
 78
   300
147
1.0
148
0.0
149
0.0
100
AcDbLayout
  1
Layout2
 70
     1
 71
     2
 10
0.0
 20
0.0
 11
12.0
 21
9.0
 12
0.0
 22
0.0
 32
0.0
 14
0.0
 24
0.0
 34
0.0
 15
0.0
 25
0.0
 35
0.0
146
0.0
 13
0.0
 23
0.0
 33
0.0
 16
1.0
 26
0.0
 36
0.0
 17
0.0
 27
1.0
 37
0.0
 76
     0
330
55
  0
LAYOUT
  5
22
102
{ACAD_REACTORS
330
1A
102
}
330
1A
100
AcDbPlotSettings
  1

  2
none_device
  4
ANSI_A_(8.50_x_11.00_Inches)
  6

 40
6.349999904632568
 41
19.04999923706055
 42
6.350006103515625
 43
19.04998779296875
 44
215.8999938964844
 45
279.3999938964844
 46
0.0
 47
0.0
 48
0.0
 49
0.0
140
0.0
141
0.0
142
1.0
143
78.436453180766
 70
 11952
 72
     0
 73
     1
 74
     0
  7

 75
     0
 76
     0
 77
     2
 78
   300
147
0.0127491741332998
148
0.0
149
0.0
100
AcDbLayout
  1
Model
 70
     1
 71
     0
 10
0.0
 20
0.0
 11
12.0
 21
9.0
 12
0.0
 22
0.0
 32
0.0
 14
0.0
 24
0.0
 34
0.0
 15
0.0
 25
0.0
 35
0.0
146
0.0
 13
0.0
 23
0.0
 33
0.0
 16
1.0
 26
0.0
 36
0.0
 17
0.0
 27
1.0
 37
0.0
 76
     0
330
1F
331
803
  0
MATERIAL
  5
840
102
{ACAD_REACTORS
330
6A
102
}
330
6A
100
AcDbMaterial
  1
ByBlock
 72
     1
 94
      127
  0
MATERIAL
  5
83F
102
{ACAD_REACTORS
330
6A
102
}
330
6A
100
AcDbMaterial
  1
ByLayer
 72
     1
 94
      127
  0
MATERIAL
  5
841
102
{ACAD_REACTORS
330
6A
102
}
330
6A
100
AcDbMaterial
  1
Global
 72
     1
 94
      127
  0
MLEADERSTYLE
  5
845
102
{ACAD_REACTORS
330
844
102
}
330
844
100
AcDbMLeaderStyle
179
     2
170
     2
171
     1
172
     0
 90
        2
 40
0.0
 41
0.0
173
     1
 91
-1056964608
340
14
 92
       -2
290
     1
 42
2.0
291
     1
 43
8.0
  3
Standard
341
0
 44
4.0
300

342
11
174
     1
178
     6
175
     1
176
     0
 93
-1056964608
 45
4.0
292
     0
297
     0
 46
4.0
343
0
 94
-1056964608
 47
1.0
 49
1.0
140
1.0
293
     1
141
0.0
294
     1
177
     0
142
1.0
295
     0
296
     0
143
3.75
271
     0
272
     9
273
     9
  0
MLINESTYLE
  5
18
102
{ACAD_REACTORS
330
17
102
}
330
17
100
AcDbMlineStyle
  2
STANDARD
 70
     0
  3

 62
   256
 51
90.0
 52
90.0
 71
     2
 49
0.5
 62
   256
  6
BYLAYER
 49
-0.5
 62
   256
  6
BYLAYER
  0
ACDBPLACEHOLDER
  5
F
102
{ACAD_REACTORS
330
E
102
}
330
E
  0
SCALE
  5
81E
102
{ACAD_REACTORS
330
81D
102
}
330
81D
100
AcDbScale
 70
     0
300
1:1
140
1.0
141
1.0
290
     1
  0
SCALE
  5
81F
102
{ACAD_REACTORS
330
81D
102
}
330
81D
100
AcDbScale
 70
     0
300
1:2
140
1.0
141
2.0
290
     0
  0
SCALE
  5
820
102
{ACAD_REACTORS
330
81D
102
}
330
81D
100
AcDbScale
 70
     0
300
1:4
140
1.0
141
4.0
290
     0
  0
SCALE
  5
821
102
{ACAD_REACTORS
330
81D
102
}
330
81D
100
AcDbScale
 70
     0
300
1:5
140
1.0
141
5.0
290
     0
  0
SCALE
  5
822
102
{ACAD_REACTORS
330
81D
102
}
330
81D
100
AcDbScale
 70
     0
300
1:8
140
1.0
141
8.0
290
     0
  0
SCALE
  5
823
102
{ACAD_REACTORS
330
81D
102
}
330
81D
100
AcDbScale
 70
     0
300
1:10
140
1.0
141
10.0
290
     0
  0
SCALE
  5
824
102
{ACAD_REACTORS
330
81D
102
}
330
81D
100
AcDbScale
 70
     0
300
1:16
140
1.0
141
16.0
290
     0
  0
SCALE
  5
825
102
{ACAD_REACTORS
330
81D
102
}
330
81D
100
AcDbScale
 70
     0
300
1:20
140
1.0
141
20.0
290
     0
  0
SCALE
  5
826
102
{ACAD_REACTORS
330
81D
102
}
330
81D
100
AcDbScale
 70
     0
300
1:30
140
1.0
141
30.0
290
     0
  0
SCALE
  5
827
102
{ACAD_REACTORS
330
81D
102
}
330
81D
100
AcDbScale
 70
     0
300
1:40
140
1.0
141
40.0
290
     0
  0
SCALE
  5
828
102
{ACAD_REACTORS
330
81D
102
}
330
81D
100
AcDbScale
 70
     0
300
1:50
140
1.0
141
50.0
290
     0
  0
SCALE
  5
829
102
{ACAD_REACTORS
330
81D
102
}
330
81D
100
AcDbScale
 70
     0
300
1:100
140
1.0
141
100.0
290
     0
  0
SCALE
  5
82A
102
{ACAD_REACTORS
330
81D
102
}
330
81D
100
AcDbScale
 70
     0
300
2:1
140
2.0
141
1.0
290
     0
  0
SCALE
  5
82B
102
{ACAD_REACTORS
330
81D
102
}
330
81D
100
AcDbScale
 70
     0
300
4:1
140
4.0
141
1.0
290
     0
  0
SCALE
  5
82C
102
{ACAD_REACTORS
330
81D
102
}
330
81D
100
AcDbScale
 70
     0
300
8:1
140
8.0
141
1.0
290
     0
  0
SCALE
  5
82D
102
{ACAD_REACTORS
330
81D
102
}
330
81D
100
AcDbScale
 70
     0
300
10:1
140
10.0
141
1.0
290
     0
  0
SCALE
  5
82E
102
{ACAD_REACTORS
330
81D
102
}
330
81D
100
AcDbScale
 70
     0
300
100:1
140
100.0
141
1.0
290
     0
  0
SCALE
  5
82F
102
{ACAD_REACTORS
330
81D
102
}
330
81D
100
AcDbScale
 70
     0
300
1/128" = 1'-0"
140
0.0078125
141
12.0
290
     0
  0
SCALE
  5
830
102
{ACAD_REACTORS
330
81D
102
}
330
81D
100
AcDbScale
 70
     0
300
1/64" = 1'-0"
140
0.015625
141
12.0
290
     0
  0
SCALE
  5
831
102
{ACAD_REACTORS
330
81D
102
}
330
81D
100
AcDbScale
 70
     0
300
1/32" = 1'-0"
140
0.03125
141
12.0
290
     0
  0
SCALE
  5
832
102
{ACAD_REACTORS
330
81D
102
}
330
81D
100
AcDbScale
 70
     0
300
1/16" = 1'-0"
140
0.0625
141
12.0
290
     0
  0
SCALE
  5
833
102
{ACAD_REACTORS
330
81D
102
}
330
81D
100
AcDbScale
 70
     0
300
3/32" = 1'-0"
140
0.09375
141
12.0
290
     0
  0
SCALE
  5
834
102
{ACAD_REACTORS
330
81D
102
}
330
81D
100
AcDbScale
 70
     0
300
1/8" = 1'-0"
140
0.125
141
12.0
290
     0
  0
SCALE
  5
835
102
{ACAD_REACTORS
330
81D
102
}
330
81D
100
AcDbScale
 70
     0
300
3/16" = 1'-0"
140
0.1875
141
12.0
290
     0
  0
SCALE
  5
836
102
{ACAD_REACTORS
330
81D
102
}
330
81D
100
AcDbScale
 70
     0
300
1/4" = 1'-0"
140
0.25
141
12.0
290
     0
  0
SCALE
  5
837
102
{ACAD_REACTORS
330
81D
102
}
330
81D
100
AcDbScale
 70
     0
300
3/8" = 1'-0"
140
0.375
141
12.0
290
     0
  0
SCALE
  5
838
102
{ACAD_REACTORS
330
81D
102
}
330
81D
100
AcDbScale
 70
     0
300
1/2" = 1'-0"
140
0.5
141
12.0
290
     0
  0
SCALE
  5
839
102
{ACAD_REACTORS
330
81D
102
}
330
81D
100
AcDbScale
 70
     0
300
3/4" = 1'-0"
140
0.75
141
12.0
290
     0
  0
SCALE
  5
83A
102
{ACAD_REACTORS
330
81D
102
}
330
81D
100
AcDbScale
 70
     0
300
1" = 1'-0"
140
1.0
141
12.0
290
     0
  0
SCALE
  5
83B
102
{ACAD_REACTORS
330
81D
102
}
330
81D
100
AcDbScale
 70
     0
300
1-1/2" = 1'-0"
140
1.5
141
12.0
290
     0
  0
SCALE
  5
83C
102
{ACAD_REACTORS
330
81D
102
}
330
81D
100
AcDbScale
 70
     0
300
3" = 1'-0"
140
3.0
141
12.0
290
     0
  0
SCALE
  5
83D
102
{ACAD_REACTORS
330
81D
102
}
330
81D
100
AcDbScale
 70
     0
300
6" = 1'-0"
140
6.0
141
12.0
290
     0
  0
SCALE
  5
83E
102
{ACAD_REACTORS
330
81D
102
}
330
81D
100
AcDbScale
 70
     0
300
1'-0" = 1'-0"
140
12.0
141
12.0
290
     0
  0
TABLESTYLE
  5
843
102
{ACAD_REACTORS
330
842
102
}
102
{ACAD_XDICTIONARY
360
877
102
}
330
842
100
AcDbTableStyle
  3
Standard
 70
     0
 71
     0
 40
0.06
 41
0.06
280
     0
281
     0
  7
Standard
140
4.5
170
     2
 62
     0
 63
   257
283
     0
 90
        4
 91
        0
  1

274
    -2
284
     1
 64
     0
275
    -2
285
     1
 65
     0
276
    -2
286
     1
 66
     0
277
    -2
287
     1
 67
     0
278
    -2
288
     1
 68
     0
279
    -2
289
     1
 69
     0
  7
Standard
140
6.0
170
     5
 62
     0
 63
   257
283
     0
 90
        4
 91
        0
  1

274
    -2
284
     1
 64
     0
275
    -2
285
     1
 65
     0
276
    -2
286
     1
 66
     0
277
    -2
287
     1
 67
     0
278
    -2
288
     1
 68
     0
279
    -2
289
     1
 69
     0
  7
Standard
140
4.5
170
     5
 62
     0
 63
   257
283
     0
 90
        4
 91
        0
  1

274
    -2
284
     1
 64
     0
275
    -2
285
     1
 65
     0
276
    -2
286
     1
 66
     0
277
    -2
287
     1
 67
     0
278
    -2
288
     1
 68
     0
279
    -2
289
     1
 69
     0
  0
VISUALSTYLE
  5
809
102
{ACAD_REACTORS
330
804
102
}
102
{ACAD_XDICTIONARY
360
84F
102
}
330
804
100
AcDbVisualStyle
  2
2dWireframe
 70
     4
177
     2
291
     0
 71
     0
176
     1
 72
     2
176
     1
 73
     0
176
     1
 90
        0
176
     1
 40
0.6
176
     1
 41
30.0
176
     1
 62
     5
 63
     7
421
 16777215
176
     1
 74
     1
176
     1
 91
        4
176
     1
 64
     7
176
     1
 65
   257
176
     1
 75
     1
176
     1
175
     1
176
     1
 42
1.0
176
     1
 92
        0
176
     1
 66
   257
176
     1
 43
1.0
176
     1
 76
     1
176
     1
 77
     6
176
     1
 78
     2
176
     1
 67
     7
176
     1
 79
     5
176
     1
170
     0
176
     1
171
     0
176
     1
290
     0
176
     1
 93
        1
176
     1
 44
0.0
176
     1
173
     0
176
     1
  0
VISUALSTYLE
  5
80C
102
{ACAD_REACTORS
330
804
102
}
102
{ACAD_XDICTIONARY
360
855
102
}
330
804
100
AcDbVisualStyle
  2
Basic
 70
     7
177
     2
291
     1
 71
     1
176
     1
 72
     0
176
     1
 73
     1
176
     1
 90
        0
176
     1
 40
0.6
176
     1
 41
30.0
176
     1
 62
     5
 63
     7
421
 16777215
176
     1
 74
     0
176
     1
 91
        4
176
     1
 64
     7
176
     1
 65
   257
176
     1
 75
     1
176
     1
175
     1
176
     1
 42
1.0
176
     1
 92
        8
176
     1
 66
     7
176
     1
 43
1.0
176
     1
 76
     1
176
     1
 77
     6
176
     1
 78
     2
176
     1
 67
     7
176
     1
 79
     5
176
     1
170
     0
176
     1
171
     0
176
     1
290
     0
176
     1
 93
        1
176
     1
 44
0.0
176
     1
173
     0
176
     1
  0
VISUALSTYLE
  5
810
102
{ACAD_REACTORS
330
804
102
}
102
{ACAD_XDICTIONARY
360
85D
102
}
330
804
100
AcDbVisualStyle
  2
Brighten
 70
    12
177
     2
291
     1
 71
     2
176
     1
 72
     2
176
     1
 73
     0
176
     1
 90
        0
176
     1
 40
0.6
176
     1
 41
30.0
176
     1
 62
     5
 63
     7
421
 16777215
176
     1
 74
     1
176
     1
 91
        4
176
     1
 64
     7
176
     1
 65
   257
176
     1
 75
     1
176
     1
175
     1
176
     1
 42
1.0
176
     1
 92
        8
176
     1
 66
     7
176
     1
 43
1.0
176
     1
 76
     1
176
     1
 77
     6
176
     1
 78
     2
176
     1
 67
     7
176
     1
 79
     5
176
     1
170
     0
176
     1
171
     0
176
     1
290
     0
176
     1
 93
        1
176
     1
 44
50.0
176
     1
173
     0
176
     1
  0
VISUALSTYLE
  5
814
102
{ACAD_REACTORS
330
804
102
}
102
{ACAD_XDICTIONARY
360
865
102
}
330
804
100
AcDbVisualStyle
  2
ColorChange
 70
    16
177
     2
291
     1
 71
     2
176
     1
 72
     2
176
     1
 73
     3
176
     1
 90
        0
176
     1
 40
0.6
176
     1
 41
30.0
176
     1
 62
     5
 63
     8
421
  8421504
176
     1
 74
     1
176
     1
 91
        4
176
     1
 64
     7
176
     1
 65
   257
176
     1
 75
     1
176
     1
175
     1
176
     1
 42
1.0
176
     1
 92
        8
176
     1
 66
     8
424
  8421504
176
     1
 43
1.0
176
     1
 76
     1
176
     1
 77
     6
176
     1
 78
     2
176
     1
 67
     7
176
     1
 79
     5
176
     1
170
     0
176
     1
171
     0
176
     1
290
     0
176
     1
 93
        1
176
     1
 44
0.0
176
     1
173
     0
176
     1
  0
VISUALSTYLE
  5
80E
102
{ACAD_REACTORS
330
804
102
}
102
{ACAD_XDICTIONARY
360
859
102
}
330
804
100
AcDbVisualStyle
  2
Conceptual
 70
     9
177
     2
291
     0
 71
     3
176
     1
 72
     2
176
     1
 73
     0
176
     1
 90
        0
176
     1
 40
0.6
176
     1
 41
30.0
176
     1
 62
     5
 63
     7
421
 16777215
176
     1
 74
     2
176
     1
 91
        2
176
     1
 64
     7
176
     1
 65
   257
176
     1
 75
     1
176
     1
175
     1
176
     1
 42
179.0
176
     1
 92
        8
176
     1
 66
     7
176
     1
 43
1.0
176
     1
 76
     1
176
     1
 77
     6
176
     1
 78
     2
176
     1
 67
     7
176
     1
 79
     3
176
     1
170
     0
176
     1
171
     0
176
     1
290
     0
176
     1
 93
        1
176
     1
 44
0.0
176
     1
173
     0
176
     1
  0
VISUALSTYLE
  5
80F
102
{ACAD_REACTORS
330
804
102
}
102
{ACAD_XDICTIONARY
360
85B
102
}
330
804
100
AcDbVisualStyle
  2
Dim
 70
    11
177
     2
291
     1
 71
     2
176
     1
 72
     2
176
     1
 73
     0
176
     1
 90
        0
176
     1
 40
0.6
176
     1
 41
30.0
176
     1
 62
     5
 63
     7
421
 16777215
176
     1
 74
     1
176
     1
 91
        4
176
     1
 64
     7
176
     1
 65
   257
176
     1
 75
     1
176
     1
175
     1
176
     1
 42
1.0
176
     1
 92
        8
176
     1
 66
     7
176
     1
 43
1.0
176
     1
 76
     1
176
     1
 77
     6
176
     1
 78
     2
176
     1
 67
     7
176
     1
 79
     5
176
     1
170
     0
176
     1
171
     0
176
     1
290
     0
176
     1
 93
        1
176
     1
 44
-50.0
176
     1
173
     0
176
     1
  0
VISUALSTYLE
  5
817
102
{ACAD_REACTORS
330
804
102
}
102
{ACAD_XDICTIONARY
360
86B
102
}
330
804
100
AcDbVisualStyle
  2
EdgeColorOff
 70
    22
177
     2
291
     1
 71
     2
176
     0
 72
     2
176
     0
 73
     0
176
     0
 90
        0
176
     0
 40
0.6
176
     0
 41
30.0
176
     0
 62
     5
 63
     7
421
 16777215
176
     0
 74
     1
176
     0
 91
        4
176
     0
 64
     7
176
     0
 65
   257
176
     0
 75
     1
176
     0
175
     1
176
     0
 42
1.0
176
     0
 92
        8
176
     2
 66
     7
176
     0
 43
1.0
176
     0
 76
     1
176
     0
 77
     6
176
     0
 78
     2
176
     0
 67
     7
176
     0
 79
     5
176
     0
170
     0
176
     0
171
     0
176
     0
290
     0
176
     0
 93
        1
176
     0
 44
0.0
176
     0
173
     0
176
     0
  0
VISUALSTYLE
  5
813
102
{ACAD_REACTORS
330
804
102
}
102
{ACAD_XDICTIONARY
360
863
102
}
330
804
100
AcDbVisualStyle
  2
Facepattern
 70
    15
177
     2
291
     1
 71
     2
176
     1
 72
     2
176
     1
 73
     0
176
     1
 90
        0
176
     1
 40
0.6
176
     1
 41
30.0
176
     1
 62
     5
 63
     7
421
 16777215
176
     1
 74
     1
176
     1
 91
        4
176
     1
 64
     7
176
     1
 65
   257
176
     1
 75
     1
176
     1
175
     1
176
     1
 42
1.0
176
     1
 92
        8
176
     1
 66
     7
176
     1
 43
1.0
176
     1
 76
     1
176
     1
 77
     6
176
     1
 78
     2
176
     1
 67
     7
176
     1
 79
     5
176
     1
170
     0
176
     1
171
     0
176
     1
290
     0
176
     1
 93
        1
176
     1
 44
0.0
176
     1
173
     0
176
     1
  0
VISUALSTYLE
  5
805
102
{ACAD_REACTORS
330
804
102
}
102
{ACAD_XDICTIONARY
360
847
102
}
330
804
100
AcDbVisualStyle
  2
Flat
 70
     0
177
     2
291
     1
 71
     2
176
     1
 72
     1
176
     1
 73
     1
176
     1
 90
        2
176
     1
 40
0.6
176
     1
 41
30.0
176
     1
 62
     5
 63
     7
421
 16777215
176
     1
 74
     0
176
     1
 91
        0
176
     1
 64
     7
176
     1
 65
   257
176
     1
 75
     1
176
     1
175
     1
176
     1
 42
1.0
176
     1
 92
        8
176
     1
 66
     7
176
     1
 43
1.0
176
     1
 76
     1
176
     1
 77
     6
176
     1
 78
     2
176
     1
 67
     7
176
     1
 79
     5
176
     1
170
     0
176
     1
171
     0
176
     1
290
     0
176
     1
 93
       13
176
     1
 44
0.0
176
     1
173
     0
176
     1
  0
VISUALSTYLE
  5
806
102
{ACAD_REACTORS
330
804
102
}
102
{ACAD_XDICTIONARY
360
849
102
}
330
804
100
AcDbVisualStyle
  2
FlatWithEdges
 70
     1
177
     2
291
     1
 71
     2
176
     1
 72
     1
176
     1
 73
     1
176
     1
 90
        2
176
     1
 40
0.6
176
     1
 41
30.0
176
     1
 62
     5
 63
     7
421
 16777215
176
     1
 74
     1
176
     1
 91
        0
176
     1
 64
     7
176
     1
 65
   257
176
     1
 75
     1
176
     1
175
     1
176
     1
 42
1.0
176
     1
 92
        0
176
     1
 66
   257
176
     1
 43
1.0
176
     1
 76
     1
176
     1
 77
     6
176
     1
 78
     2
176
     1
 67
     7
176
     1
 79
     5
176
     1
170
     0
176
     1
171
     0
176
     1
290
     0
176
     1
 93
       13
176
     1
 44
0.0
176
     1
173
     0
176
     1
  0
VISUALSTYLE
  5
807
102
{ACAD_REACTORS
330
804
102
}
102
{ACAD_XDICTIONARY
360
84B
102
}
330
804
100
AcDbVisualStyle
  2
Gouraud
 70
     2
177
     2
291
     1
 71
     2
176
     1
 72
     2
176
     1
 73
     1
176
     1
 90
        2
176
     1
 40
0.6
176
     1
 41
30.0
176
     1
 62
     5
 63
     7
421
 16777215
176
     1
 74
     0
176
     1
 91
        0
176
     1
 64
     7
176
     1
 65
   257
176
     1
 75
     1
176
     1
175
     1
176
     1
 42
1.0
176
     1
 92
        0
176
     1
 66
     7
176
     1
 43
1.0
176
     1
 76
     1
176
     1
 77
     6
176
     1
 78
     2
176
     1
 67
     7
176
     1
 79
     5
176
     1
170
     0
176
     1
171
     0
176
     1
290
     0
176
     1
 93
       13
176
     1
 44
0.0
176
     1
173
     0
176
     1
  0
VISUALSTYLE
  5
808
102
{ACAD_REACTORS
330
804
102
}
102
{ACAD_XDICTIONARY
360
84D
102
}
330
804
100
AcDbVisualStyle
  2
GouraudWithEdges
 70
     3
177
     2
291
     1
 71
     2
176
     1
 72
     2
176
     1
 73
     1
176
     1
 90
        2
176
     1
 40
0.6
176
     1
 41
30.0
176
     1
 62
     5
 63
     7
421
 16777215
176
     1
 74
     1
176
     1
 91
        0
176
     1
 64
     7
176
     1
 65
   257
176
     1
 75
     1
176
     1
175
     1
176
     1
 42
1.0
176
     1
 92
        0
176
     1
 66
   257
176
     1
 43
1.0
176
     1
 76
     1
176
     1
 77
     6
176
     1
 78
     2
176
     1
 67
     7
176
     1
 79
     5
176
     1
170
     0
176
     1
171
     0
176
     1
290
     0
176
     1
 93
       13
176
     1
 44
0.0
176
     1
173
     0
176
     1
  0
VISUALSTYLE
  5
80B
102
{ACAD_REACTORS
330
804
102
}
102
{ACAD_XDICTIONARY
360
853
102
}
330
804
100
AcDbVisualStyle
  2
Hidden
 70
     6
177
     2
291
     0
 71
     1
176
     1
 72
     2
176
     1
 73
     2
176
     1
 90
        0
176
     1
 40
0.6
176
     1
 41
30.0
176
     1
 62
     5
 63
     7
421
 16777215
176
     1
 74
     2
176
     1
 91
        2
176
     1
 64
     7
176
     1
 65
   257
176
     1
 75
     2
176
     1
175
     1
176
     1
 42
40.0
176
     1
 92
        0
176
     1
 66
   257
176
     1
 43
1.0
176
     1
 76
     1
176
     1
 77
     6
176
     1
 78
     2
176
     1
 67
     7
176
     1
 79
     3
176
     1
170
     0
176
     1
171
     0
176
     1
290
     0
176
     1
 93
        1
176
     1
 44
0.0
176
     1
173
     0
176
     1
  0
VISUALSTYLE
  5
815
102
{ACAD_REACTORS
330
804
102
}
102
{ACAD_XDICTIONARY
360
867
102
}
330
804
100
AcDbVisualStyle
  2
JitterOff
 70
    20
177
     2
291
     1
 71
     2
176
     0
 72
     2
176
     0
 73
     0
176
     0
 90
        0
176
     0
 40
0.6
176
     0
 41
30.0
176
     0
 62
     5
 63
     7
421
 16777215
176
     0
 74
     1
176
     0
 91
        4
176
     0
 64
     7
176
     0
 65
   257
176
     0
 75
     1
176
     0
175
     1
176
     0
 42
1.0
176
     0
 92
       10
176
     2
 66
     7
176
     0
 43
1.0
176
     0
 76
     1
176
     0
 77
     6
176
     0
 78
     2
176
     0
 67
     7
176
     0
 79
     5
176
     0
170
     0
176
     0
171
     0
176
     0
290
     0
176
     0
 93
        1
176
     0
 44
0.0
176
     0
173
     0
176
     0
  0
VISUALSTYLE
  5
812
102
{ACAD_REACTORS
330
804
102
}
102
{ACAD_XDICTIONARY
360
861
102
}
330
804
100
AcDbVisualStyle
  2
Linepattern
 70
    14
177
     2
291
     1
 71
     2
176
     1
 72
     2
176
     1
 73
     0
176
     1
 90
        0
176
     1
 40
0.6
176
     1
 41
30.0
176
     1
 62
     5
 63
     7
421
 16777215
176
     1
 74
     1
176
     1
 91
        4
176
     1
 64
     7
176
     1
 65
   257
176
     1
 75
     7
176
     1
175
     7
176
     1
 42
1.0
176
     1
 92
        8
176
     1
 66
     7
176
     1
 43
1.0
176
     1
 76
     1
176
     1
 77
     6
176
     1
 78
     2
176
     1
 67
     7
176
     1
 79
     5
176
     1
170
     0
176
     1
171
     0
176
     1
290
     0
176
     1
 93
        1
176
     1
 44
0.0
176
     1
173
     0
176
     1
  0
VISUALSTYLE
  5
816
102
{ACAD_REACTORS
330
804
102
}
102
{ACAD_XDICTIONARY
360
869
102
}
330
804
100
AcDbVisualStyle
  2
OverhangOff
 70
    21
177
     2
291
     1
 71
     2
176
     0
 72
     2
176
     0
 73
     0
176
     0
 90
        0
176
     0
 40
0.6
176
     0
 41
30.0
176
     0
 62
     5
 63
     7
421
 16777215
176
     0
 74
     1
176
     0
 91
        4
176
     0
 64
     7
176
     0
 65
   257
176
     0
 75
     1
176
     0
175
     1
176
     0
 42
1.0
176
     0
 92
        9
176
     2
 66
     7
176
     0
 43
1.0
176
     0
 76
     1
176
     0
 77
     6
176
     0
 78
     2
176
     0
 67
     7
176
     0
 79
     5
176
     0
170
     0
176
     0
171
     0
176
     0
290
     0
176
     0
 93
        1
176
     0
 44
0.0
176
     0
173
     0
176
     0
  0
VISUALSTYLE
  5
80D
102
{ACAD_REACTORS
330
804
102
}
102
{ACAD_XDICTIONARY
360
857
102
}
330
804
100
AcDbVisualStyle
  2
Realistic
 70
     8
177
     2
291
     0
 71
     2
176
     1
 72
     3
176
     1
 73
     0
176
     1
 90
        2
176
     1
 40
0.6
176
     1
 41
30.0
176
     1
 62
     5
 63
     7
421
 16777215
176
     1
 74
     0
176
     1
 91
        0
176
     1
 64
     7
176
     1
 65
   257
176
     1
 75
     1
176
     1
175
     1
176
     1
 42
1.0
176
     1
 92
        8
176
     1
 66
   257
176
     1
 43
1.0
176
     1
 76
     1
176
     1
 77
     6
176
     1
 78
     2
176
     1
 67
     7
176
     1
 79
     3
176
     1
170
     0
176
     1
171
     0
176
     1
290
     0
176
     1
 93
       13
176
     1
 44
0.0
176
     1
173
     0
176
     1
  0
VISUALSTYLE
  5
81C
102
{ACAD_REACTORS
330
804
102
}
102
{ACAD_XDICTIONARY
360
875
102
}
330
804
100
AcDbVisualStyle
  2
Shaded
 70
    27
177
     2
291
     0
 71
     2
176
     1
 72
     2
176
     1
 73
     1
176
     1
 90
        2
176
     1
 40
0.6
176
     1
 41
30.0
176
     1
 62
     5
 63
     7
421
 16777215
176
     1
 74
     0
176
     1
 91
        4
176
     1
 64
     7
176
     1
 65
   257
176
     1
 75
     1
176
     1
175
     1
176
     1
 42
1.0
176
     1
 92
        8
176
     1
 66
   257
176
     1
 43
1.0
176
     1
 76
     1
176
     1
 77
     6
176
     1
 78
     2
176
     1
 67
     8
425
  7895160
176
     1
 79
     3
176
     1
170
     0
176
     1
171
     0
176
     1
290
     0
176
     1
 93
        5
176
     1
 44
0.0
176
     1
173
     0
176
     1
  0
VISUALSTYLE
  5
81B
102
{ACAD_REACTORS
330
804
102
}
102
{ACAD_XDICTIONARY
360
873
102
}
330
804
100
AcDbVisualStyle
  2
Shaded with edges
 70
    26
177
     2
291
     0
 71
     2
176
     1
 72
     2
176
     1
 73
     1
176
     1
 90
        2
176
     1
 40
0.6
176
     1
 41
30.0
176
     1
 62
     5
 63
     7
421
 16777215
176
     1
 74
     1
176
     1
 91
       10
176
     1
 64
     7
176
     1
 65
   257
176
     1
 75
     2
176
     1
175
     1
176
     1
 42
1.0
176
     1
 92
        8
176
     1
 66
   257
176
     1
 43
1.0
176
     1
 76
     1
176
     1
 77
     6
176
     1
 78
     2
176
     1
 67
     7
176
     1
 79
     3
176
     1
170
     0
176
     1
171
     0
176
     1
290
     0
176
     1
 93
        5
176
     1
 44
0.0
176
     1
173
     0
176
     1
  0
VISUALSTYLE
  5
818
102
{ACAD_REACTORS
330
804
102
}
102
{ACAD_XDICTIONARY
360
86D
102
}
330
804
100
AcDbVisualStyle
  2
Shades of Gray
 70
    23
177
     2
291
     0
 71
     2
176
     1
 72
     2
176
     1
 73
     3
176
     1
 90
        0
176
     1
 40
0.6
176
     1
 41
30.0
176
     1
 62
     5
 63
     7
421
 16777215
176
     1
 74
     2
176
     1
 91
        2
176
     1
 64
     7
176
     1
 65
     7
176
     1
 75
     1
176
     1
175
     1
176
     1
 42
40.0
176
     1
 92
        8
176
     1
 66
     7
176
     1
 43
1.0
176
     1
 76
     1
176
     1
 77
     6
176
     1
 78
     2
176
     1
 67
     7
176
     1
 79
     3
176
     1
170
     0
176
     1
171
     0
176
     1
290
     0
176
     1
 93
        1
176
     1
 44
0.0
176
     1
173
     0
176
     1
  0
VISUALSTYLE
  5
819
102
{ACAD_REACTORS
330
804
102
}
102
{ACAD_XDICTIONARY
360
86F
102
}
330
804
100
AcDbVisualStyle
  2
Sketchy
 70
    24
177
     2
291
     0
 71
     1
176
     1
 72
     2
176
     1
 73
     2
176
     1
 90
        0
176
     1
 40
0.6
176
     1
 41
30.0
176
     1
 62
     5
 63
     7
421
 16777215
176
     1
 74
     2
176
     1
 91
        2
176
     1
 64
     7
176
     1
 65
     7
176
     1
 75
     1
176
     1
175
     1
176
     1
 42
40.0
176
     1
 92
       11
176
     1
 66
     7
176
     1
 43
1.0
176
     1
 76
     1
176
     1
 77
     6
176
     1
 78
     2
176
     1
 67
     7
176
     1
 79
     6
176
     1
170
     0
176
     1
171
     0
176
     1
290
     0
176
     1
 93
        1
176
     1
 44
0.0
176
     1
173
     0
176
     1
  0
VISUALSTYLE
  5
811
102
{ACAD_REACTORS
330
804
102
}
102
{ACAD_XDICTIONARY
360
85F
102
}
330
804
100
AcDbVisualStyle
  2
Thicken
 70
    13
177
     2
291
     1
 71
     2
176
     1
 72
     2
176
     1
 73
     0
176
     1
 90
        0
176
     1
 40
0.6
176
     1
 41
30.0
176
     1
 62
     5
 63
     7
421
 16777215
176
     1
 74
     1
176
     1
 91
        4
176
     1
 64
     7
176
     1
 65
   257
176
     1
 75
     1
176
     1
175
     1
176
     1
 42
1.0
176
     1
 92
       12
176
     1
 66
     7
176
     1
 43
1.0
176
     1
 76
     1
176
     1
 77
     6
176
     1
 78
     2
176
     1
 67
     7
176
     1
 79
     5
176
     1
170
     0
176
     1
171
     0
176
     1
290
     0
176
     1
 93
        1
176
     1
 44
0.0
176
     1
173
     0
176
     1
  0
VISUALSTYLE
  5
80A
102
{ACAD_REACTORS
330
804
102
}
102
{ACAD_XDICTIONARY
360
851
102
}
330
804
100
AcDbVisualStyle
  2
Wireframe
 70
     5
177
     2
291
     0
 71
     0
176
     1
 72
     2
176
     1
 73
     0
176
     1
 90
        0
176
     1
 40
0.6
176
     1
 41
30.0
176
     1
 62
     5
 63
     7
421
 16777215
176
     1
 74
     1
176
     1
 91
        4
176
     1
 64
     7
176
     1
 65
   257
176
     1
 75
     1
176
     1
175
     1
176
     1
 42
1.0
176
     1
 92
        0
176
     1
 66
   257
176
     1
 43
1.0
176
     1
 76
     1
176
     1
 77
     6
176
     1
 78
     2
176
     1
 67
     7
176
     1
 79
     3
176
     1
170
     0
176
     1
171
     0
176
     1
290
     0
176
     1
 93
        1
176
     1
 44
0.0
176
     1
173
     0
176
     1
  0
VISUALSTYLE
  5
81A
102
{ACAD_REACTORS
330
804
102
}
102
{ACAD_XDICTIONARY
360
871
102
}
330
804
100
AcDbVisualStyle
  2
X-Ray
 70
    25
177
     2
291
     0
 71
     2
176
     1
 72
     2
176
     1
 73
     1
176
     1
 90
        1
176
     1
 40
0.5
176
     1
 41
30.0
176
     1
 62
     5
 63
     7
421
 16777215
176
     1
 74
     1
176
     1
 91
        0
176
     1
 64
     7
176
     1
 65
   257
176
     1
 75
     1
176
     1
175
     1
176
     1
 42
1.0
176
     1
 92
        8
176
     1
 66
     7
176
     1
 43
1.0
176
     1
 76
     1
176
     1
 77
     6
176
     1
 78
     2
176
     1
 67
     7
176
     1
 79
     3
176
     1
170
     0
176
     1
171
     0
176
     1
290
     0
176
     1
 93
       13
176
     1
 44
0.0
176
     1
173
     0
176
     1
  0
DICTIONARYVAR
  5
846
102
{ACAD_REACTORS
330
5E
102
}
330
5E
100
DictionaryVariables
280
     0
  1
1:1
  0
DICTIONARYVAR
  5
87B
102
{ACAD_REACTORS
330
5E
102
}
330
5E
100
DictionaryVariables
280
     0
  1
Standard
  0
DICTIONARYVAR
  5
87A
102
{ACAD_REACTORS
330
5E
102
}
330
5E
100
DictionaryVariables
280
     0
  1
Standard
  0
DICTIONARYVAR
  5
5F
102
{ACAD_REACTORS
330
5E
102
}
330
5E
100
DictionaryVariables
280
     0
  1
2
  0
DICTIONARYVAR
  5
63
102
{ACAD_REACTORS
330
5E
102
}
330
5E
100
DictionaryVariables
280
     0
  1
1
  0
DICTIONARYVAR
  5
87C
102
{ACAD_REACTORS
330
5E
102
}
330
5E
100
DictionaryVariables
280
     0
  1
0
  0
DICTIONARYVAR
  5
5AA
102
{ACAD_REACTORS
330
5E
102
}
330
5E
100
DictionaryVariables
280
     0
  1

  0
DICTIONARY
  5
877
330
843
100
AcDbDictionary
280
     1
281
     1
  3
ACAD_ROUNDTRIP_2008_TABLESTYLE_CELLSTYLEMAP
360
878
  0
DICTIONARY
  5
84F
330
809
100
AcDbDictionary
280
     1
281
     1
  3
ACAD_XREC_ROUNDTRIP
360
850
  0
DICTIONARY
  5
855
330
80C
100
AcDbDictionary
280
     1
281
     1
  3
ACAD_XREC_ROUNDTRIP
360
856
  0
DICTIONARY
  5
85D
330
810
100
AcDbDictionary
280
     1
281
     1
  3
ACAD_XREC_ROUNDTRIP
360
85E
  0
DICTIONARY
  5
865
330
814
100
AcDbDictionary
280
     1
281
     1
  3
ACAD_XREC_ROUNDTRIP
360
866
  0
DICTIONARY
  5
859
330
80E
100
AcDbDictionary
280
     1
281
     1
  3
ACAD_XREC_ROUNDTRIP
360
85A
  0
DICTIONARY
  5
85B
330
80F
100
AcDbDictionary
280
     1
281
     1
  3
ACAD_XREC_ROUNDTRIP
360
85C
  0
DICTIONARY
  5
86B
330
817
100
AcDbDictionary
280
     1
281
     1
  3
ACAD_XREC_ROUNDTRIP
360
86C
  0
DICTIONARY
  5
863
330
813
100
AcDbDictionary
280
     1
281
     1
  3
ACAD_XREC_ROUNDTRIP
360
864
  0
DICTIONARY
  5
847
330
805
100
AcDbDictionary
280
     1
281
     1
  3
ACAD_XREC_ROUNDTRIP
360
848
  0
DICTIONARY
  5
849
330
806
100
AcDbDictionary
280
     1
281
     1
  3
ACAD_XREC_ROUNDTRIP
360
84A
  0
DICTIONARY
  5
84B
330
807
100
AcDbDictionary
280
     1
281
     1
  3
ACAD_XREC_ROUNDTRIP
360
84C
  0
DICTIONARY
  5
84D
330
808
100
AcDbDictionary
280
     1
281
     1
  3
ACAD_XREC_ROUNDTRIP
360
84E
  0
DICTIONARY
  5
853
330
80B
100
AcDbDictionary
280
     1
281
     1
  3
ACAD_XREC_ROUNDTRIP
360
854
  0
DICTIONARY
  5
867
330
815
100
AcDbDictionary
280
     1
281
     1
  3
ACAD_XREC_ROUNDTRIP
360
868
  0
DICTIONARY
  5
861
330
812
100
AcDbDictionary
280
     1
281
     1
  3
ACAD_XREC_ROUNDTRIP
360
862
  0
DICTIONARY
  5
869
330
816
100
AcDbDictionary
280
     1
281
     1
  3
ACAD_XREC_ROUNDTRIP
360
86A
  0
DICTIONARY
  5
857
330
80D
100
AcDbDictionary
280
     1
281
     1
  3
ACAD_XREC_ROUNDTRIP
360
858
  0
DICTIONARY
  5
875
330
81C
100
AcDbDictionary
280
     1
281
     1
  3
ACAD_XREC_ROUNDTRIP
360
876
  0
DICTIONARY
  5
873
330
81B
100
AcDbDictionary
280
     1
281
     1
  3
ACAD_XREC_ROUNDTRIP
360
874
  0
DICTIONARY
  5
86D
330
818
100
AcDbDictionary
280
     1
281
     1
  3
ACAD_XREC_ROUNDTRIP
360
86E
  0
DICTIONARY
  5
86F
330
819
100
AcDbDictionary
280
     1
281
     1
  3
ACAD_XREC_ROUNDTRIP
360
870
  0
DICTIONARY
  5
85F
330
811
100
AcDbDictionary
280
     1
281
     1
  3
ACAD_XREC_ROUNDTRIP
360
860
  0
DICTIONARY
  5
851
330
80A
100
AcDbDictionary
280
     1
281
     1
  3
ACAD_XREC_ROUNDTRIP
360
852
  0
DICTIONARY
  5
871
330
81A
100
AcDbDictionary
280
     1
281
     1
  3
ACAD_XREC_ROUNDTRIP
360
872
  0
CELLSTYLEMAP
  5
878
102
{ACAD_REACTORS
330
877
102
}
330
877
100
AcDbCellStyleMap
 90
        3
300
CELLSTYLE
  1
TABLEFORMAT_BEGIN
 90
        5
170
     1
 91
        0
 92
    32768
 62
   257
 93
        1
300
CONTENTFORMAT
  1
CONTENTFORMAT_BEGIN
 90
        0
 91
        0
 92
        4
 93
        0
300

 40
0.0
140
1.0
 94
        5
 62
     0
340
11
144
6.0
309
CONTENTFORMAT_END
171
     1
301
MARGIN
  1
CELLMARGIN_BEGIN
 40
1.5
 40
1.5
 40
1.5
 40
1.5
 40
1.5
 40
1.5
309
CELLMARGIN_END
 94
        6
 95
        1
302
GRIDFORMAT
  1
GRIDFORMAT_BEGIN
 90
        0
 91
        1
 62
     0
 92
       -2
340
14
 93
        0
 40
0.045
309
GRIDFORMAT_END
 95
        2
302
GRIDFORMAT
  1
GRIDFORMAT_BEGIN
 90
        0
 91
        1
 62
     0
 92
       -2
340
14
 93
        0
 40
0.045
309
GRIDFORMAT_END
 95
        4
302
GRIDFORMAT
  1
GRIDFORMAT_BEGIN
 90
        0
 91
        1
 62
     0
 92
       -2
340
14
 93
        0
 40
0.045
309
GRIDFORMAT_END
 95
        8
302
GRIDFORMAT
  1
GRIDFORMAT_BEGIN
 90
        0
 91
        1
 62
     0
 92
       -2
340
14
 93
        0
 40
0.045
309
GRIDFORMAT_END
 95
       16
302
GRIDFORMAT
  1
GRIDFORMAT_BEGIN
 90
        0
 91
        1
 62
     0
 92
       -2
340
14
 93
        0
 40
0.045
309
GRIDFORMAT_END
 95
       32
302
GRIDFORMAT
  1
GRIDFORMAT_BEGIN
 90
        0
 91
        1
 62
     0
 92
       -2
340
14
 93
        0
 40
0.045
309
GRIDFORMAT_END
309
TABLEFORMAT_END
  1
CELLSTYLE_BEGIN
 90
        1
 91
        1
300
_TITLE
309
CELLSTYLE_END
300
CELLSTYLE
  1
TABLEFORMAT_BEGIN
 90
        5
170
     1
 91
        0
 92
        0
 62
   257
 93
        1
300
CONTENTFORMAT
  1
CONTENTFORMAT_BEGIN
 90
        0
 91
        0
 92
        4
 93
        0
300

 40
0.0
140
1.0
 94
        5
 62
     0
340
11
144
4.5
309
CONTENTFORMAT_END
171
     1
301
MARGIN
  1
CELLMARGIN_BEGIN
 40
1.5
 40
1.5
 40
1.5
 40
1.5
 40
1.5
 40
1.5
309
CELLMARGIN_END
 94
        6
 95
        1
302
GRIDFORMAT
  1
GRIDFORMAT_BEGIN
 90
        0
 91
        1
 62
     0
 92
       -2
340
14
 93
        0
 40
0.045
309
GRIDFORMAT_END
 95
        2
302
GRIDFORMAT
  1
GRIDFORMAT_BEGIN
 90
        0
 91
        1
 62
     0
 92
       -2
340
14
 93
        0
 40
0.045
309
GRIDFORMAT_END
 95
        4
302
GRIDFORMAT
  1
GRIDFORMAT_BEGIN
 90
        0
 91
        1
 62
     0
 92
       -2
340
14
 93
        0
 40
0.045
309
GRIDFORMAT_END
 95
        8
302
GRIDFORMAT
  1
GRIDFORMAT_BEGIN
 90
        0
 91
        1
 62
     0
 92
       -2
340
14
 93
        0
 40
0.045
309
GRIDFORMAT_END
 95
       16
302
GRIDFORMAT
  1
GRIDFORMAT_BEGIN
 90
        0
 91
        1
 62
     0
 92
       -2
340
14
 93
        0
 40
0.045
309
GRIDFORMAT_END
 95
       32
302
GRIDFORMAT
  1
GRIDFORMAT_BEGIN
 90
        0
 91
        1
 62
     0
 92
       -2
340
14
 93
        0
 40
0.045
309
GRIDFORMAT_END
309
TABLEFORMAT_END
  1
CELLSTYLE_BEGIN
 90
        2
 91
        1
300
_HEADER
309
CELLSTYLE_END
300
CELLSTYLE
  1
TABLEFORMAT_BEGIN
 90
        5
170
     1
 91
        0
 92
        0
 62
   257
 93
        1
300
CONTENTFORMAT
  1
CONTENTFORMAT_BEGIN
 90
        0
 91
        0
 92
        4
 93
        0
300

 40
0.0
140
1.0
 94
        2
 62
     0
340
11
144
4.5
309
CONTENTFORMAT_END
171
     1
301
MARGIN
  1
CELLMARGIN_BEGIN
 40
1.5
 40
1.5
 40
1.5
 40
1.5
 40
1.5
 40
1.5
309
CELLMARGIN_END
 94
        6
 95
        1
302
GRIDFORMAT
  1
GRIDFORMAT_BEGIN
 90
        0
 91
        1
 62
     0
 92
       -2
340
14
 93
        0
 40
0.045
309
GRIDFORMAT_END
 95
        2
302
GRIDFORMAT
  1
GRIDFORMAT_BEGIN
 90
        0
 91
        1
 62
     0
 92
       -2
340
14
 93
        0
 40
0.045
309
GRIDFORMAT_END
 95
        4
302
GRIDFORMAT
  1
GRIDFORMAT_BEGIN
 90
        0
 91
        1
 62
     0
 92
       -2
340
14
 93
        0
 40
0.045
309
GRIDFORMAT_END
 95
        8
302
GRIDFORMAT
  1
GRIDFORMAT_BEGIN
 90
        0
 91
        1
 62
     0
 92
       -2
340
14
 93
        0
 40
0.045
309
GRIDFORMAT_END
 95
       16
302
GRIDFORMAT
  1
GRIDFORMAT_BEGIN
 90
        0
 91
        1
 62
     0
 92
       -2
340
14
 93
        0
 40
0.045
309
GRIDFORMAT_END
 95
       32
302
GRIDFORMAT
  1
GRIDFORMAT_BEGIN
 90
        0
 91
        1
 62
     0
 92
       -2
340
14
 93
        0
 40
0.045
309
GRIDFORMAT_END
309
TABLEFORMAT_END
  1
CELLSTYLE_BEGIN
 90
        3
 91
        2
300
_DATA
309
CELLSTYLE_END
  0
XRECORD
  5
850
102
{ACAD_REACTORS
330
84F
102
}
330
84F
100
AcDbXrecord
280
     1
102
RTVSPost2010Prop28
280
     1
102
RTVSPost2010PropOp28
 70
     1
102
RTVSPost2010Prop29
280
     1
102
RTVSPost2010PropOp29
 70
     1
102
RTVSPost2010Prop30
280
     0
102
RTVSPost2010PropOp30
 70
     1
102
RTVSPost2010Prop31
280
     0
102
RTVSPost2010PropOp31
 70
     1
102
RTVSPost2010Prop32
280
     0
102
RTVSPost2010PropOp32
 70
     1
102
RTVSPost2010Prop33
280
     0
102
RTVSPost2010PropOp33
 70
     1
102
RTVSPost2010Prop34
280
     0
102
RTVSPost2010PropOp34
 70
     1
102
RTVSPost2010Prop35
280
     0
102
RTVSPost2010PropOp35
 70
     1
102
RTVSPost2010Prop36
280
     0
102
RTVSPost2010PropOp36
 70
     1
102
RTVSPost2010Prop37
 90
       50
102
RTVSPost2010PropOp37
 70
     1
102
RTVSPost2010Prop38
140
0.0
102
RTVSPost2010PropOp38
 70
     1
102
RTVSPost2010Prop39
140
1.0
102
RTVSPost2010PropOp39
 70
     1
102
RTVSPost2010Prop40
 90
        0
102
RTVSPost2010PropOp40
 70
     1
102
RTVSPost2010Prop41ColorIndex
 90
       18
102
RTVSPost2010Prop41ColorRGB
 90
        0
102
RTVSPost2010PropOp41
 70
     1
102
RTVSPost2010Prop42
 90
       50
102
RTVSPost2010PropOp42
 70
     1
102
RTVSPost2010Prop43
 90
        3
102
RTVSPost2010PropOp43
 70
     1
102
RTVSPost2010Prop44ColorIndex
 90
        5
102
RTVSPost2010Prop44ColorRGB
 90
      255
102
RTVSPost2010PropOp44
 70
     1
102
RTVSPost2010Prop45
280
     0
102
RTVSPost2010PropOp45
 70
     1
102
RTVSPost2010Prop46
 90
       50
102
RTVSPost2010PropOp46
 70
     1
102
RTVSPost2010Prop47
 90
       50
102
RTVSPost2010PropOp47
 70
     1
102
RTVSPost2010Prop48
 90
       50
102
RTVSPost2010PropOp48
 70
     1
102
RTVSPost2010Prop49
280
     0
102
RTVSPost2010PropOp49
 70
     1
102
RTVSPost2010Prop50
 90
       50
102
RTVSPost2010PropOp50
 70
     1
102
RTVSPost2010Prop51ColorIndex
 90
      256
102
RTVSPost2010Prop51ColorRGB
 90
-16777216
102
RTVSPost2010PropOp51
 70
     0
102
RTVSPost2010Prop52
140
1.0
102
RTVSPost2010PropOp52
 70
     0
102
RTVSPost2010Prop53
 90
        2
102
RTVSPost2010PropOp53
 70
     1
102
RTVSPost2010Prop54
  1
strokes_ogs.tif
102
RTVSPost2010PropOp54
 70
     1
102
RTVSPost2010Prop55
280
     0
102
RTVSPost2010PropOp55
 70
     1
102
RTVSPost2010Prop56
140
1.0
102
RTVSPost2010PropOp56
 70
     1
102
RTVSPost2010Prop57
140
1.0
102
RTVSPost2010PropOp57
 70
     1
  0
XRECORD
  5
856
102
{ACAD_REACTORS
330
855
102
}
330
855
100
AcDbXrecord
280
     1
102
RTVSPost2010Prop28
280
     0
102
RTVSPost2010PropOp28
 70
     1
102
RTVSPost2010Prop29
280
     1
102
RTVSPost2010PropOp29
 70
     1
102
RTVSPost2010Prop30
280
     1
102
RTVSPost2010PropOp30
 70
     1
102
RTVSPost2010Prop31
280
     0
102
RTVSPost2010PropOp31
 70
     1
102
RTVSPost2010Prop32
280
     0
102
RTVSPost2010PropOp32
 70
     1
102
RTVSPost2010Prop33
280
     0
102
RTVSPost2010PropOp33
 70
     1
102
RTVSPost2010Prop34
280
     0
102
RTVSPost2010PropOp34
 70
     1
102
RTVSPost2010Prop35
280
     0
102
RTVSPost2010PropOp35
 70
     1
102
RTVSPost2010Prop36
280
     0
102
RTVSPost2010PropOp36
 70
     1
102
RTVSPost2010Prop37
 90
       50
102
RTVSPost2010PropOp37
 70
     1
102
RTVSPost2010Prop38
140
0.0
102
RTVSPost2010PropOp38
 70
     1
102
RTVSPost2010Prop39
140
1.0
102
RTVSPost2010PropOp39
 70
     1
102
RTVSPost2010Prop40
 90
        0
102
RTVSPost2010PropOp40
 70
     1
102
RTVSPost2010Prop41ColorIndex
 90
       18
102
RTVSPost2010Prop41ColorRGB
 90
        0
102
RTVSPost2010PropOp41
 70
     1
102
RTVSPost2010Prop42
 90
       50
102
RTVSPost2010PropOp42
 70
     1
102
RTVSPost2010Prop43
 90
        3
102
RTVSPost2010PropOp43
 70
     1
102
RTVSPost2010Prop44ColorIndex
 90
        5
102
RTVSPost2010Prop44ColorRGB
 90
      255
102
RTVSPost2010PropOp44
 70
     1
102
RTVSPost2010Prop45
280
     0
102
RTVSPost2010PropOp45
 70
     1
102
RTVSPost2010Prop46
 90
       50
102
RTVSPost2010PropOp46
 70
     1
102
RTVSPost2010Prop47
 90
       50
102
RTVSPost2010PropOp47
 70
     1
102
RTVSPost2010Prop48
 90
       50
102
RTVSPost2010PropOp48
 70
     1
102
RTVSPost2010Prop49
280
     0
102
RTVSPost2010PropOp49
 70
     1
102
RTVSPost2010Prop50
 90
       50
102
RTVSPost2010PropOp50
 70
     1
102
RTVSPost2010Prop51ColorIndex
 90
      256
102
RTVSPost2010Prop51ColorRGB
 90
-16777216
102
RTVSPost2010PropOp51
 70
     0
102
RTVSPost2010Prop52
140
1.0
102
RTVSPost2010PropOp52
 70
     0
102
RTVSPost2010Prop53
 90
        2
102
RTVSPost2010PropOp53
 70
     1
102
RTVSPost2010Prop54
  1
strokes_ogs.tif
102
RTVSPost2010PropOp54
 70
     1
102
RTVSPost2010Prop55
280
     0
102
RTVSPost2010PropOp55
 70
     1
102
RTVSPost2010Prop56
140
1.0
102
RTVSPost2010PropOp56
 70
     1
102
RTVSPost2010Prop57
140
1.0
102
RTVSPost2010PropOp57
 70
     1
  0
XRECORD
  5
85E
102
{ACAD_REACTORS
330
85D
102
}
330
85D
100
AcDbXrecord
280
     1
102
RTVSPost2010Prop28
280
     0
102
RTVSPost2010PropOp28
 70
     1
102
RTVSPost2010Prop29
280
     1
102
RTVSPost2010PropOp29
 70
     1
102
RTVSPost2010Prop30
280
     1
102
RTVSPost2010PropOp30
 70
     1
102
RTVSPost2010Prop31
280
     0
102
RTVSPost2010PropOp31
 70
     1
102
RTVSPost2010Prop32
280
     0
102
RTVSPost2010PropOp32
 70
     1
102
RTVSPost2010Prop33
280
     0
102
RTVSPost2010PropOp33
 70
     1
102
RTVSPost2010Prop34
280
     0
102
RTVSPost2010PropOp34
 70
     1
102
RTVSPost2010Prop35
280
     0
102
RTVSPost2010PropOp35
 70
     1
102
RTVSPost2010Prop36
280
     0
102
RTVSPost2010PropOp36
 70
     1
102
RTVSPost2010Prop37
 90
       50
102
RTVSPost2010PropOp37
 70
     1
102
RTVSPost2010Prop38
140
0.0
102
RTVSPost2010PropOp38
 70
     1
102
RTVSPost2010Prop39
140
1.0
102
RTVSPost2010PropOp39
 70
     1
102
RTVSPost2010Prop40
 90
        0
102
RTVSPost2010PropOp40
 70
     1
102
RTVSPost2010Prop41ColorIndex
 90
       18
102
RTVSPost2010Prop41ColorRGB
 90
        0
102
RTVSPost2010PropOp41
 70
     1
102
RTVSPost2010Prop42
 90
       50
102
RTVSPost2010PropOp42
 70
     1
102
RTVSPost2010Prop43
 90
        3
102
RTVSPost2010PropOp43
 70
     1
102
RTVSPost2010Prop44ColorIndex
 90
        5
102
RTVSPost2010Prop44ColorRGB
 90
      255
102
RTVSPost2010PropOp44
 70
     1
102
RTVSPost2010Prop45
280
     0
102
RTVSPost2010PropOp45
 70
     1
102
RTVSPost2010Prop46
 90
       50
102
RTVSPost2010PropOp46
 70
     1
102
RTVSPost2010Prop47
 90
       50
102
RTVSPost2010PropOp47
 70
     1
102
RTVSPost2010Prop48
 90
       50
102
RTVSPost2010PropOp48
 70
     1
102
RTVSPost2010Prop49
280
     0
102
RTVSPost2010PropOp49
 70
     1
102
RTVSPost2010Prop50
 90
       50
102
RTVSPost2010PropOp50
 70
     1
102
RTVSPost2010Prop51ColorIndex
 90
      256
102
RTVSPost2010Prop51ColorRGB
 90
-16777216
102
RTVSPost2010PropOp51
 70
     0
102
RTVSPost2010Prop52
140
1.0
102
RTVSPost2010PropOp52
 70
     0
102
RTVSPost2010Prop53
 90
        2
102
RTVSPost2010PropOp53
 70
     1
102
RTVSPost2010Prop54
  1
strokes_ogs.tif
102
RTVSPost2010PropOp54
 70
     1
102
RTVSPost2010Prop55
280
     0
102
RTVSPost2010PropOp55
 70
     1
102
RTVSPost2010Prop56
140
1.0
102
RTVSPost2010PropOp56
 70
     1
102
RTVSPost2010Prop57
140
1.0
102
RTVSPost2010PropOp57
 70
     1
  0
XRECORD
  5
866
102
{ACAD_REACTORS
330
865
102
}
330
865
100
AcDbXrecord
280
     1
102
RTVSPost2010Prop28
280
     0
102
RTVSPost2010PropOp28
 70
     1
102
RTVSPost2010Prop29
280
     1
102
RTVSPost2010PropOp29
 70
     1
102
RTVSPost2010Prop30
280
     1
102
RTVSPost2010PropOp30
 70
     1
102
RTVSPost2010Prop31
280
     0
102
RTVSPost2010PropOp31
 70
     1
102
RTVSPost2010Prop32
280
     0
102
RTVSPost2010PropOp32
 70
     1
102
RTVSPost2010Prop33
280
     0
102
RTVSPost2010PropOp33
 70
     1
102
RTVSPost2010Prop34
280
     0
102
RTVSPost2010PropOp34
 70
     1
102
RTVSPost2010Prop35
280
     0
102
RTVSPost2010PropOp35
 70
     1
102
RTVSPost2010Prop36
280
     0
102
RTVSPost2010PropOp36
 70
     1
102
RTVSPost2010Prop37
 90
       50
102
RTVSPost2010PropOp37
 70
     1
102
RTVSPost2010Prop38
140
0.0
102
RTVSPost2010PropOp38
 70
     1
102
RTVSPost2010Prop39
140
1.0
102
RTVSPost2010PropOp39
 70
     1
102
RTVSPost2010Prop40
 90
        0
102
RTVSPost2010PropOp40
 70
     1
102
RTVSPost2010Prop41ColorIndex
 90
       18
102
RTVSPost2010Prop41ColorRGB
 90
        0
102
RTVSPost2010PropOp41
 70
     1
102
RTVSPost2010Prop42
 90
       50
102
RTVSPost2010PropOp42
 70
     1
102
RTVSPost2010Prop43
 90
        3
102
RTVSPost2010PropOp43
 70
     1
102
RTVSPost2010Prop44ColorIndex
 90
        5
102
RTVSPost2010Prop44ColorRGB
 90
      255
102
RTVSPost2010PropOp44
 70
     1
102
RTVSPost2010Prop45
280
     0
102
RTVSPost2010PropOp45
 70
     1
102
RTVSPost2010Prop46
 90
       50
102
RTVSPost2010PropOp46
 70
     1
102
RTVSPost2010Prop47
 90
       50
102
RTVSPost2010PropOp47
 70
     1
102
RTVSPost2010Prop48
 90
       50
102
RTVSPost2010PropOp48
 70
     1
102
RTVSPost2010Prop49
280
     0
102
RTVSPost2010PropOp49
 70
     1
102
RTVSPost2010Prop50
 90
       50
102
RTVSPost2010PropOp50
 70
     1
102
RTVSPost2010Prop51ColorIndex
 90
      256
102
RTVSPost2010Prop51ColorRGB
 90
-16777216
102
RTVSPost2010PropOp51
 70
     0
102
RTVSPost2010Prop52
140
1.0
102
RTVSPost2010PropOp52
 70
     0
102
RTVSPost2010Prop53
 90
        2
102
RTVSPost2010PropOp53
 70
     1
102
RTVSPost2010Prop54
  1
strokes_ogs.tif
102
RTVSPost2010PropOp54
 70
     1
102
RTVSPost2010Prop55
280
     0
102
RTVSPost2010PropOp55
 70
     1
102
RTVSPost2010Prop56
140
1.0
102
RTVSPost2010PropOp56
 70
     1
102
RTVSPost2010Prop57
140
1.0
102
RTVSPost2010PropOp57
 70
     1
  0
XRECORD
  5
85A
102
{ACAD_REACTORS
330
859
102
}
330
859
100
AcDbXrecord
280
     1
102
RTVSPost2010Prop28
280
     0
102
RTVSPost2010PropOp28
 70
     1
102
RTVSPost2010Prop29
280
     1
102
RTVSPost2010PropOp29
 70
     1
102
RTVSPost2010Prop30
280
     1
102
RTVSPost2010PropOp30
 70
     1
102
RTVSPost2010Prop31
280
     0
102
RTVSPost2010PropOp31
 70
     1
102
RTVSPost2010Prop32
280
     0
102
RTVSPost2010PropOp32
 70
     1
102
RTVSPost2010Prop33
280
     0
102
RTVSPost2010PropOp33
 70
     1
102
RTVSPost2010Prop34
280
     0
102
RTVSPost2010PropOp34
 70
     1
102
RTVSPost2010Prop35
280
     0
102
RTVSPost2010PropOp35
 70
     1
102
RTVSPost2010Prop36
280
     0
102
RTVSPost2010PropOp36
 70
     1
102
RTVSPost2010Prop37
 90
       50
102
RTVSPost2010PropOp37
 70
     1
102
RTVSPost2010Prop38
140
0.0
102
RTVSPost2010PropOp38
 70
     1
102
RTVSPost2010Prop39
140
1.0
102
RTVSPost2010PropOp39
 70
     1
102
RTVSPost2010Prop40
 90
        0
102
RTVSPost2010PropOp40
 70
     1
102
RTVSPost2010Prop41ColorIndex
 90
       18
102
RTVSPost2010Prop41ColorRGB
 90
        0
102
RTVSPost2010PropOp41
 70
     1
102
RTVSPost2010Prop42
 90
       50
102
RTVSPost2010PropOp42
 70
     1
102
RTVSPost2010Prop43
 90
        3
102
RTVSPost2010PropOp43
 70
     1
102
RTVSPost2010Prop44ColorIndex
 90
        5
102
RTVSPost2010Prop44ColorRGB
 90
      255
102
RTVSPost2010PropOp44
 70
     1
102
RTVSPost2010Prop45
280
     0
102
RTVSPost2010PropOp45
 70
     1
102
RTVSPost2010Prop46
 90
       50
102
RTVSPost2010PropOp46
 70
     1
102
RTVSPost2010Prop47
 90
       50
102
RTVSPost2010PropOp47
 70
     1
102
RTVSPost2010Prop48
 90
       50
102
RTVSPost2010PropOp48
 70
     1
102
RTVSPost2010Prop49
280
     0
102
RTVSPost2010PropOp49
 70
     1
102
RTVSPost2010Prop50
 90
       50
102
RTVSPost2010PropOp50
 70
     1
102
RTVSPost2010Prop51ColorIndex
 90
      256
102
RTVSPost2010Prop51ColorRGB
 90
-16777216
102
RTVSPost2010PropOp51
 70
     0
102
RTVSPost2010Prop52
140
1.0
102
RTVSPost2010PropOp52
 70
     0
102
RTVSPost2010Prop53
 90
        2
102
RTVSPost2010PropOp53
 70
     1
102
RTVSPost2010Prop54
  1
strokes_ogs.tif
102
RTVSPost2010PropOp54
 70
     1
102
RTVSPost2010Prop55
280
     0
102
RTVSPost2010PropOp55
 70
     1
102
RTVSPost2010Prop56
140
1.0
102
RTVSPost2010PropOp56
 70
     1
102
RTVSPost2010Prop57
140
1.0
102
RTVSPost2010PropOp57
 70
     1
  0
XRECORD
  5
85C
102
{ACAD_REACTORS
330
85B
102
}
330
85B
100
AcDbXrecord
280
     1
102
RTVSPost2010Prop28
280
     0
102
RTVSPost2010PropOp28
 70
     1
102
RTVSPost2010Prop29
280
     1
102
RTVSPost2010PropOp29
 70
     1
102
RTVSPost2010Prop30
280
     1
102
RTVSPost2010PropOp30
 70
     1
102
RTVSPost2010Prop31
280
     0
102
RTVSPost2010PropOp31
 70
     1
102
RTVSPost2010Prop32
280
     0
102
RTVSPost2010PropOp32
 70
     1
102
RTVSPost2010Prop33
280
     0
102
RTVSPost2010PropOp33
 70
     1
102
RTVSPost2010Prop34
280
     0
102
RTVSPost2010PropOp34
 70
     1
102
RTVSPost2010Prop35
280
     0
102
RTVSPost2010PropOp35
 70
     1
102
RTVSPost2010Prop36
280
     0
102
RTVSPost2010PropOp36
 70
     1
102
RTVSPost2010Prop37
 90
       50
102
RTVSPost2010PropOp37
 70
     1
102
RTVSPost2010Prop38
140
0.0
102
RTVSPost2010PropOp38
 70
     1
102
RTVSPost2010Prop39
140
1.0
102
RTVSPost2010PropOp39
 70
     1
102
RTVSPost2010Prop40
 90
        0
102
RTVSPost2010PropOp40
 70
     1
102
RTVSPost2010Prop41ColorIndex
 90
       18
102
RTVSPost2010Prop41ColorRGB
 90
        0
102
RTVSPost2010PropOp41
 70
     1
102
RTVSPost2010Prop42
 90
       50
102
RTVSPost2010PropOp42
 70
     1
102
RTVSPost2010Prop43
 90
        3
102
RTVSPost2010PropOp43
 70
     1
102
RTVSPost2010Prop44ColorIndex
 90
        5
102
RTVSPost2010Prop44ColorRGB
 90
      255
102
RTVSPost2010PropOp44
 70
     1
102
RTVSPost2010Prop45
280
     0
102
RTVSPost2010PropOp45
 70
     1
102
RTVSPost2010Prop46
 90
       50
102
RTVSPost2010PropOp46
 70
     1
102
RTVSPost2010Prop47
 90
       50
102
RTVSPost2010PropOp47
 70
     1
102
RTVSPost2010Prop48
 90
       50
102
RTVSPost2010PropOp48
 70
     1
102
RTVSPost2010Prop49
280
     0
102
RTVSPost2010PropOp49
 70
     1
102
RTVSPost2010Prop50
 90
       50
102
RTVSPost2010PropOp50
 70
     1
102
RTVSPost2010Prop51ColorIndex
 90
      256
102
RTVSPost2010Prop51ColorRGB
 90
-16777216
102
RTVSPost2010PropOp51
 70
     0
102
RTVSPost2010Prop52
140
1.0
102
RTVSPost2010PropOp52
 70
     0
102
RTVSPost2010Prop53
 90
        2
102
RTVSPost2010PropOp53
 70
     1
102
RTVSPost2010Prop54
  1
strokes_ogs.tif
102
RTVSPost2010PropOp54
 70
     1
102
RTVSPost2010Prop55
280
     0
102
RTVSPost2010PropOp55
 70
     1
102
RTVSPost2010Prop56
140
1.0
102
RTVSPost2010PropOp56
 70
     1
102
RTVSPost2010Prop57
140
1.0
102
RTVSPost2010PropOp57
 70
     1
  0
XRECORD
  5
86C
102
{ACAD_REACTORS
330
86B
102
}
330
86B
100
AcDbXrecord
280
     1
102
RTVSPost2010Prop28
280
     0
102
RTVSPost2010PropOp28
 70
     0
102
RTVSPost2010Prop29
280
     1
102
RTVSPost2010PropOp29
 70
     0
102
RTVSPost2010Prop30
280
     1
102
RTVSPost2010PropOp30
 70
     0
102
RTVSPost2010Prop31
280
     0
102
RTVSPost2010PropOp31
 70
     0
102
RTVSPost2010Prop32
280
     0
102
RTVSPost2010PropOp32
 70
     0
102
RTVSPost2010Prop33
280
     0
102
RTVSPost2010PropOp33
 70
     0
102
RTVSPost2010Prop34
280
     0
102
RTVSPost2010PropOp34
 70
     0
102
RTVSPost2010Prop35
280
     0
102
RTVSPost2010PropOp35
 70
     0
102
RTVSPost2010Prop36
280
     0
102
RTVSPost2010PropOp36
 70
     0
102
RTVSPost2010Prop37
 90
       50
102
RTVSPost2010PropOp37
 70
     0
102
RTVSPost2010Prop38
140
0.0
102
RTVSPost2010PropOp38
 70
     0
102
RTVSPost2010Prop39
140
1.0
102
RTVSPost2010PropOp39
 70
     0
102
RTVSPost2010Prop40
 90
        0
102
RTVSPost2010PropOp40
 70
     0
102
RTVSPost2010Prop41ColorIndex
 90
       18
102
RTVSPost2010Prop41ColorRGB
 90
        0
102
RTVSPost2010PropOp41
 70
     0
102
RTVSPost2010Prop42
 90
       50
102
RTVSPost2010PropOp42
 70
     0
102
RTVSPost2010Prop43
 90
        3
102
RTVSPost2010PropOp43
 70
     0
102
RTVSPost2010Prop44ColorIndex
 90
        5
102
RTVSPost2010Prop44ColorRGB
 90
      255
102
RTVSPost2010PropOp44
 70
     0
102
RTVSPost2010Prop45
280
     0
102
RTVSPost2010PropOp45
 70
     0
102
RTVSPost2010Prop46
 90
       50
102
RTVSPost2010PropOp46
 70
     0
102
RTVSPost2010Prop47
 90
       50
102
RTVSPost2010PropOp47
 70
     0
102
RTVSPost2010Prop48
 90
       50
102
RTVSPost2010PropOp48
 70
     0
102
RTVSPost2010Prop49
280
     0
102
RTVSPost2010PropOp49
 70
     0
102
RTVSPost2010Prop50
 90
       50
102
RTVSPost2010PropOp50
 70
     0
102
RTVSPost2010Prop51ColorIndex
 90
      256
102
RTVSPost2010Prop51ColorRGB
 90
-16777216
102
RTVSPost2010PropOp51
 70
     0
102
RTVSPost2010Prop52
140
1.0
102
RTVSPost2010PropOp52
 70
     0
102
RTVSPost2010Prop53
 90
        2
102
RTVSPost2010PropOp53
 70
     0
102
RTVSPost2010Prop54
  1
strokes_ogs.tif
102
RTVSPost2010PropOp54
 70
     0
102
RTVSPost2010Prop55
280
     0
102
RTVSPost2010PropOp55
 70
     0
102
RTVSPost2010Prop56
140
1.0
102
RTVSPost2010PropOp56
 70
     0
102
RTVSPost2010Prop57
140
1.0
102
RTVSPost2010PropOp57
 70
     0
  0
XRECORD
  5
864
102
{ACAD_REACTORS
330
863
102
}
330
863
100
AcDbXrecord
280
     1
102
RTVSPost2010Prop28
280
     0
102
RTVSPost2010PropOp28
 70
     1
102
RTVSPost2010Prop29
280
     1
102
RTVSPost2010PropOp29
 70
     1
102
RTVSPost2010Prop30
280
     1
102
RTVSPost2010PropOp30
 70
     1
102
RTVSPost2010Prop31
280
     0
102
RTVSPost2010PropOp31
 70
     1
102
RTVSPost2010Prop32
280
     0
102
RTVSPost2010PropOp32
 70
     1
102
RTVSPost2010Prop33
280
     0
102
RTVSPost2010PropOp33
 70
     1
102
RTVSPost2010Prop34
280
     0
102
RTVSPost2010PropOp34
 70
     1
102
RTVSPost2010Prop35
280
     0
102
RTVSPost2010PropOp35
 70
     1
102
RTVSPost2010Prop36
280
     0
102
RTVSPost2010PropOp36
 70
     1
102
RTVSPost2010Prop37
 90
       50
102
RTVSPost2010PropOp37
 70
     1
102
RTVSPost2010Prop38
140
0.0
102
RTVSPost2010PropOp38
 70
     1
102
RTVSPost2010Prop39
140
1.0
102
RTVSPost2010PropOp39
 70
     1
102
RTVSPost2010Prop40
 90
        0
102
RTVSPost2010PropOp40
 70
     1
102
RTVSPost2010Prop41ColorIndex
 90
       18
102
RTVSPost2010Prop41ColorRGB
 90
        0
102
RTVSPost2010PropOp41
 70
     1
102
RTVSPost2010Prop42
 90
       50
102
RTVSPost2010PropOp42
 70
     1
102
RTVSPost2010Prop43
 90
        3
102
RTVSPost2010PropOp43
 70
     1
102
RTVSPost2010Prop44ColorIndex
 90
        5
102
RTVSPost2010Prop44ColorRGB
 90
      255
102
RTVSPost2010PropOp44
 70
     1
102
RTVSPost2010Prop45
280
     0
102
RTVSPost2010PropOp45
 70
     1
102
RTVSPost2010Prop46
 90
       50
102
RTVSPost2010PropOp46
 70
     1
102
RTVSPost2010Prop47
 90
       50
102
RTVSPost2010PropOp47
 70
     1
102
RTVSPost2010Prop48
 90
       50
102
RTVSPost2010PropOp48
 70
     1
102
RTVSPost2010Prop49
280
     0
102
RTVSPost2010PropOp49
 70
     1
102
RTVSPost2010Prop50
 90
       50
102
RTVSPost2010PropOp50
 70
     1
102
RTVSPost2010Prop51ColorIndex
 90
      256
102
RTVSPost2010Prop51ColorRGB
 90
-16777216
102
RTVSPost2010PropOp51
 70
     0
102
RTVSPost2010Prop52
140
1.0
102
RTVSPost2010PropOp52
 70
     0
102
RTVSPost2010Prop53
 90
        2
102
RTVSPost2010PropOp53
 70
     1
102
RTVSPost2010Prop54
  1
strokes_ogs.tif
102
RTVSPost2010PropOp54
 70
     1
102
RTVSPost2010Prop55
280
     0
102
RTVSPost2010PropOp55
 70
     1
102
RTVSPost2010Prop56
140
1.0
102
RTVSPost2010PropOp56
 70
     1
102
RTVSPost2010Prop57
140
1.0
102
RTVSPost2010PropOp57
 70
     1
  0
XRECORD
  5
848
102
{ACAD_REACTORS
330
847
102
}
330
847
100
AcDbXrecord
280
     1
102
RTVSPost2010Prop28
280
     0
102
RTVSPost2010PropOp28
 70
     1
102
RTVSPost2010Prop29
280
     1
102
RTVSPost2010PropOp29
 70
     1
102
RTVSPost2010Prop30
280
     1
102
RTVSPost2010PropOp30
 70
     1
102
RTVSPost2010Prop31
280
     0
102
RTVSPost2010PropOp31
 70
     1
102
RTVSPost2010Prop32
280
     0
102
RTVSPost2010PropOp32
 70
     1
102
RTVSPost2010Prop33
280
     0
102
RTVSPost2010PropOp33
 70
     1
102
RTVSPost2010Prop34
280
     0
102
RTVSPost2010PropOp34
 70
     1
102
RTVSPost2010Prop35
280
     0
102
RTVSPost2010PropOp35
 70
     1
102
RTVSPost2010Prop36
280
     0
102
RTVSPost2010PropOp36
 70
     1
102
RTVSPost2010Prop37
 90
       50
102
RTVSPost2010PropOp37
 70
     1
102
RTVSPost2010Prop38
140
0.0
102
RTVSPost2010PropOp38
 70
     1
102
RTVSPost2010Prop39
140
1.0
102
RTVSPost2010PropOp39
 70
     1
102
RTVSPost2010Prop40
 90
        0
102
RTVSPost2010PropOp40
 70
     1
102
RTVSPost2010Prop41ColorIndex
 90
       18
102
RTVSPost2010Prop41ColorRGB
 90
        0
102
RTVSPost2010PropOp41
 70
     1
102
RTVSPost2010Prop42
 90
       50
102
RTVSPost2010PropOp42
 70
     1
102
RTVSPost2010Prop43
 90
        3
102
RTVSPost2010PropOp43
 70
     1
102
RTVSPost2010Prop44ColorIndex
 90
        5
102
RTVSPost2010Prop44ColorRGB
 90
      255
102
RTVSPost2010PropOp44
 70
     1
102
RTVSPost2010Prop45
280
     0
102
RTVSPost2010PropOp45
 70
     1
102
RTVSPost2010Prop46
 90
       50
102
RTVSPost2010PropOp46
 70
     1
102
RTVSPost2010Prop47
 90
       50
102
RTVSPost2010PropOp47
 70
     1
102
RTVSPost2010Prop48
 90
       50
102
RTVSPost2010PropOp48
 70
     1
102
RTVSPost2010Prop49
280
     0
102
RTVSPost2010PropOp49
 70
     1
102
RTVSPost2010Prop50
 90
       50
102
RTVSPost2010PropOp50
 70
     1
102
RTVSPost2010Prop51ColorIndex
 90
      256
102
RTVSPost2010Prop51ColorRGB
 90
-16777216
102
RTVSPost2010PropOp51
 70
     0
102
RTVSPost2010Prop52
140
1.0
102
RTVSPost2010PropOp52
 70
     0
102
RTVSPost2010Prop53
 90
        2
102
RTVSPost2010PropOp53
 70
     1
102
RTVSPost2010Prop54
  1
strokes_ogs.tif
102
RTVSPost2010PropOp54
 70
     1
102
RTVSPost2010Prop55
280
     0
102
RTVSPost2010PropOp55
 70
     1
102
RTVSPost2010Prop56
140
1.0
102
RTVSPost2010PropOp56
 70
     1
102
RTVSPost2010Prop57
140
1.0
102
RTVSPost2010PropOp57
 70
     1
  0
XRECORD
  5
84A
102
{ACAD_REACTORS
330
849
102
}
330
849
100
AcDbXrecord
280
     1
102
RTVSPost2010Prop28
280
     0
102
RTVSPost2010PropOp28
 70
     1
102
RTVSPost2010Prop29
280
     1
102
RTVSPost2010PropOp29
 70
     1
102
RTVSPost2010Prop30
280
     1
102
RTVSPost2010PropOp30
 70
     1
102
RTVSPost2010Prop31
280
     0
102
RTVSPost2010PropOp31
 70
     1
102
RTVSPost2010Prop32
280
     0
102
RTVSPost2010PropOp32
 70
     1
102
RTVSPost2010Prop33
280
     0
102
RTVSPost2010PropOp33
 70
     1
102
RTVSPost2010Prop34
280
     0
102
RTVSPost2010PropOp34
 70
     1
102
RTVSPost2010Prop35
280
     0
102
RTVSPost2010PropOp35
 70
     1
102
RTVSPost2010Prop36
280
     0
102
RTVSPost2010PropOp36
 70
     1
102
RTVSPost2010Prop37
 90
       50
102
RTVSPost2010PropOp37
 70
     1
102
RTVSPost2010Prop38
140
0.0
102
RTVSPost2010PropOp38
 70
     1
102
RTVSPost2010Prop39
140
1.0
102
RTVSPost2010PropOp39
 70
     1
102
RTVSPost2010Prop40
 90
        0
102
RTVSPost2010PropOp40
 70
     1
102
RTVSPost2010Prop41ColorIndex
 90
       18
102
RTVSPost2010Prop41ColorRGB
 90
        0
102
RTVSPost2010PropOp41
 70
     1
102
RTVSPost2010Prop42
 90
       50
102
RTVSPost2010PropOp42
 70
     1
102
RTVSPost2010Prop43
 90
        3
102
RTVSPost2010PropOp43
 70
     1
102
RTVSPost2010Prop44ColorIndex
 90
        5
102
RTVSPost2010Prop44ColorRGB
 90
      255
102
RTVSPost2010PropOp44
 70
     1
102
RTVSPost2010Prop45
280
     0
102
RTVSPost2010PropOp45
 70
     1
102
RTVSPost2010Prop46
 90
       50
102
RTVSPost2010PropOp46
 70
     1
102
RTVSPost2010Prop47
 90
       50
102
RTVSPost2010PropOp47
 70
     1
102
RTVSPost2010Prop48
 90
       50
102
RTVSPost2010PropOp48
 70
     1
102
RTVSPost2010Prop49
280
     0
102
RTVSPost2010PropOp49
 70
     1
102
RTVSPost2010Prop50
 90
       50
102
RTVSPost2010PropOp50
 70
     1
102
RTVSPost2010Prop51ColorIndex
 90
      256
102
RTVSPost2010Prop51ColorRGB
 90
-16777216
102
RTVSPost2010PropOp51
 70
     0
102
RTVSPost2010Prop52
140
1.0
102
RTVSPost2010PropOp52
 70
     0
102
RTVSPost2010Prop53
 90
        2
102
RTVSPost2010PropOp53
 70
     1
102
RTVSPost2010Prop54
  1
strokes_ogs.tif
102
RTVSPost2010PropOp54
 70
     1
102
RTVSPost2010Prop55
280
     0
102
RTVSPost2010PropOp55
 70
     1
102
RTVSPost2010Prop56
140
1.0
102
RTVSPost2010PropOp56
 70
     1
102
RTVSPost2010Prop57
140
1.0
102
RTVSPost2010PropOp57
 70
     1
  0
XRECORD
  5
84C
102
{ACAD_REACTORS
330
84B
102
}
330
84B
100
AcDbXrecord
280
     1
102
RTVSPost2010Prop28
280
     0
102
RTVSPost2010PropOp28
 70
     1
102
RTVSPost2010Prop29
280
     1
102
RTVSPost2010PropOp29
 70
     1
102
RTVSPost2010Prop30
280
     1
102
RTVSPost2010PropOp30
 70
     1
102
RTVSPost2010Prop31
280
     0
102
RTVSPost2010PropOp31
 70
     1
102
RTVSPost2010Prop32
280
     0
102
RTVSPost2010PropOp32
 70
     1
102
RTVSPost2010Prop33
280
     0
102
RTVSPost2010PropOp33
 70
     1
102
RTVSPost2010Prop34
280
     0
102
RTVSPost2010PropOp34
 70
     1
102
RTVSPost2010Prop35
280
     0
102
RTVSPost2010PropOp35
 70
     1
102
RTVSPost2010Prop36
280
     0
102
RTVSPost2010PropOp36
 70
     1
102
RTVSPost2010Prop37
 90
       50
102
RTVSPost2010PropOp37
 70
     1
102
RTVSPost2010Prop38
140
0.0
102
RTVSPost2010PropOp38
 70
     1
102
RTVSPost2010Prop39
140
1.0
102
RTVSPost2010PropOp39
 70
     1
102
RTVSPost2010Prop40
 90
        0
102
RTVSPost2010PropOp40
 70
     1
102
RTVSPost2010Prop41ColorIndex
 90
       18
102
RTVSPost2010Prop41ColorRGB
 90
        0
102
RTVSPost2010PropOp41
 70
     1
102
RTVSPost2010Prop42
 90
       50
102
RTVSPost2010PropOp42
 70
     1
102
RTVSPost2010Prop43
 90
        3
102
RTVSPost2010PropOp43
 70
     1
102
RTVSPost2010Prop44ColorIndex
 90
        5
102
RTVSPost2010Prop44ColorRGB
 90
      255
102
RTVSPost2010PropOp44
 70
     1
102
RTVSPost2010Prop45
280
     0
102
RTVSPost2010PropOp45
 70
     1
102
RTVSPost2010Prop46
 90
       50
102
RTVSPost2010PropOp46
 70
     1
102
RTVSPost2010Prop47
 90
       50
102
RTVSPost2010PropOp47
 70
     1
102
RTVSPost2010Prop48
 90
       50
102
RTVSPost2010PropOp48
 70
     1
102
RTVSPost2010Prop49
280
     0
102
RTVSPost2010PropOp49
 70
     1
102
RTVSPost2010Prop50
 90
       50
102
RTVSPost2010PropOp50
 70
     1
102
RTVSPost2010Prop51ColorIndex
 90
      256
102
RTVSPost2010Prop51ColorRGB
 90
-16777216
102
RTVSPost2010PropOp51
 70
     0
102
RTVSPost2010Prop52
140
1.0
102
RTVSPost2010PropOp52
 70
     0
102
RTVSPost2010Prop53
 90
        2
102
RTVSPost2010PropOp53
 70
     1
102
RTVSPost2010Prop54
  1
strokes_ogs.tif
102
RTVSPost2010PropOp54
 70
     1
102
RTVSPost2010Prop55
280
     0
102
RTVSPost2010PropOp55
 70
     1
102
RTVSPost2010Prop56
140
1.0
102
RTVSPost2010PropOp56
 70
     1
102
RTVSPost2010Prop57
140
1.0
102
RTVSPost2010PropOp57
 70
     1
  0
XRECORD
  5
84E
102
{ACAD_REACTORS
330
84D
102
}
330
84D
100
AcDbXrecord
280
     1
102
RTVSPost2010Prop28
280
     0
102
RTVSPost2010PropOp28
 70
     1
102
RTVSPost2010Prop29
280
     1
102
RTVSPost2010PropOp29
 70
     1
102
RTVSPost2010Prop30
280
     1
102
RTVSPost2010PropOp30
 70
     1
102
RTVSPost2010Prop31
280
     0
102
RTVSPost2010PropOp31
 70
     1
102
RTVSPost2010Prop32
280
     0
102
RTVSPost2010PropOp32
 70
     1
102
RTVSPost2010Prop33
280
     0
102
RTVSPost2010PropOp33
 70
     1
102
RTVSPost2010Prop34
280
     0
102
RTVSPost2010PropOp34
 70
     1
102
RTVSPost2010Prop35
280
     0
102
RTVSPost2010PropOp35
 70
     1
102
RTVSPost2010Prop36
280
     0
102
RTVSPost2010PropOp36
 70
     1
102
RTVSPost2010Prop37
 90
       50
102
RTVSPost2010PropOp37
 70
     1
102
RTVSPost2010Prop38
140
0.0
102
RTVSPost2010PropOp38
 70
     1
102
RTVSPost2010Prop39
140
1.0
102
RTVSPost2010PropOp39
 70
     1
102
RTVSPost2010Prop40
 90
        0
102
RTVSPost2010PropOp40
 70
     1
102
RTVSPost2010Prop41ColorIndex
 90
       18
102
RTVSPost2010Prop41ColorRGB
 90
        0
102
RTVSPost2010PropOp41
 70
     1
102
RTVSPost2010Prop42
 90
       50
102
RTVSPost2010PropOp42
 70
     1
102
RTVSPost2010Prop43
 90
        3
102
RTVSPost2010PropOp43
 70
     1
102
RTVSPost2010Prop44ColorIndex
 90
        5
102
RTVSPost2010Prop44ColorRGB
 90
      255
102
RTVSPost2010PropOp44
 70
     1
102
RTVSPost2010Prop45
280
     0
102
RTVSPost2010PropOp45
 70
     1
102
RTVSPost2010Prop46
 90
       50
102
RTVSPost2010PropOp46
 70
     1
102
RTVSPost2010Prop47
 90
       50
102
RTVSPost2010PropOp47
 70
     1
102
RTVSPost2010Prop48
 90
       50
102
RTVSPost2010PropOp48
 70
     1
102
RTVSPost2010Prop49
280
     0
102
RTVSPost2010PropOp49
 70
     1
102
RTVSPost2010Prop50
 90
       50
102
RTVSPost2010PropOp50
 70
     1
102
RTVSPost2010Prop51ColorIndex
 90
      256
102
RTVSPost2010Prop51ColorRGB
 90
-16777216
102
RTVSPost2010PropOp51
 70
     0
102
RTVSPost2010Prop52
140
1.0
102
RTVSPost2010PropOp52
 70
     0
102
RTVSPost2010Prop53
 90
        2
102
RTVSPost2010PropOp53
 70
     1
102
RTVSPost2010Prop54
  1
strokes_ogs.tif
102
RTVSPost2010PropOp54
 70
     1
102
RTVSPost2010Prop55
280
     0
102
RTVSPost2010PropOp55
 70
     1
102
RTVSPost2010Prop56
140
1.0
102
RTVSPost2010PropOp56
 70
     1
102
RTVSPost2010Prop57
140
1.0
102
RTVSPost2010PropOp57
 70
     1
  0
XRECORD
  5
854
102
{ACAD_REACTORS
330
853
102
}
330
853
100
AcDbXrecord
280
     1
102
RTVSPost2010Prop28
280
     0
102
RTVSPost2010PropOp28
 70
     1
102
RTVSPost2010Prop29
280
     1
102
RTVSPost2010PropOp29
 70
     1
102
RTVSPost2010Prop30
280
     1
102
RTVSPost2010PropOp30
 70
     1
102
RTVSPost2010Prop31
280
     0
102
RTVSPost2010PropOp31
 70
     1
102
RTVSPost2010Prop32
280
     0
102
RTVSPost2010PropOp32
 70
     1
102
RTVSPost2010Prop33
280
     0
102
RTVSPost2010PropOp33
 70
     1
102
RTVSPost2010Prop34
280
     0
102
RTVSPost2010PropOp34
 70
     1
102
RTVSPost2010Prop35
280
     0
102
RTVSPost2010PropOp35
 70
     1
102
RTVSPost2010Prop36
280
     0
102
RTVSPost2010PropOp36
 70
     1
102
RTVSPost2010Prop37
 90
       50
102
RTVSPost2010PropOp37
 70
     1
102
RTVSPost2010Prop38
140
0.0
102
RTVSPost2010PropOp38
 70
     1
102
RTVSPost2010Prop39
140
1.0
102
RTVSPost2010PropOp39
 70
     1
102
RTVSPost2010Prop40
 90
        0
102
RTVSPost2010PropOp40
 70
     1
102
RTVSPost2010Prop41ColorIndex
 90
       18
102
RTVSPost2010Prop41ColorRGB
 90
        0
102
RTVSPost2010PropOp41
 70
     1
102
RTVSPost2010Prop42
 90
       50
102
RTVSPost2010PropOp42
 70
     1
102
RTVSPost2010Prop43
 90
        3
102
RTVSPost2010PropOp43
 70
     1
102
RTVSPost2010Prop44ColorIndex
 90
        5
102
RTVSPost2010Prop44ColorRGB
 90
      255
102
RTVSPost2010PropOp44
 70
     1
102
RTVSPost2010Prop45
280
     0
102
RTVSPost2010PropOp45
 70
     1
102
RTVSPost2010Prop46
 90
       50
102
RTVSPost2010PropOp46
 70
     1
102
RTVSPost2010Prop47
 90
       50
102
RTVSPost2010PropOp47
 70
     1
102
RTVSPost2010Prop48
 90
       50
102
RTVSPost2010PropOp48
 70
     1
102
RTVSPost2010Prop49
280
     0
102
RTVSPost2010PropOp49
 70
     1
102
RTVSPost2010Prop50
 90
       50
102
RTVSPost2010PropOp50
 70
     1
102
RTVSPost2010Prop51ColorIndex
 90
      256
102
RTVSPost2010Prop51ColorRGB
 90
-16777216
102
RTVSPost2010PropOp51
 70
     0
102
RTVSPost2010Prop52
140
1.0
102
RTVSPost2010PropOp52
 70
     0
102
RTVSPost2010Prop53
 90
        2
102
RTVSPost2010PropOp53
 70
     1
102
RTVSPost2010Prop54
  1
strokes_ogs.tif
102
RTVSPost2010PropOp54
 70
     1
102
RTVSPost2010Prop55
280
     0
102
RTVSPost2010PropOp55
 70
     1
102
RTVSPost2010Prop56
140
1.0
102
RTVSPost2010PropOp56
 70
     1
102
RTVSPost2010Prop57
140
1.0
102
RTVSPost2010PropOp57
 70
     1
  0
XRECORD
  5
868
102
{ACAD_REACTORS
330
867
102
}
330
867
100
AcDbXrecord
280
     1
102
RTVSPost2010Prop28
280
     0
102
RTVSPost2010PropOp28
 70
     0
102
RTVSPost2010Prop29
280
     1
102
RTVSPost2010PropOp29
 70
     0
102
RTVSPost2010Prop30
280
     1
102
RTVSPost2010PropOp30
 70
     0
102
RTVSPost2010Prop31
280
     0
102
RTVSPost2010PropOp31
 70
     0
102
RTVSPost2010Prop32
280
     0
102
RTVSPost2010PropOp32
 70
     0
102
RTVSPost2010Prop33
280
     0
102
RTVSPost2010PropOp33
 70
     0
102
RTVSPost2010Prop34
280
     0
102
RTVSPost2010PropOp34
 70
     0
102
RTVSPost2010Prop35
280
     0
102
RTVSPost2010PropOp35
 70
     0
102
RTVSPost2010Prop36
280
     0
102
RTVSPost2010PropOp36
 70
     0
102
RTVSPost2010Prop37
 90
       50
102
RTVSPost2010PropOp37
 70
     0
102
RTVSPost2010Prop38
140
0.0
102
RTVSPost2010PropOp38
 70
     0
102
RTVSPost2010Prop39
140
1.0
102
RTVSPost2010PropOp39
 70
     0
102
RTVSPost2010Prop40
 90
        0
102
RTVSPost2010PropOp40
 70
     0
102
RTVSPost2010Prop41ColorIndex
 90
       18
102
RTVSPost2010Prop41ColorRGB
 90
        0
102
RTVSPost2010PropOp41
 70
     0
102
RTVSPost2010Prop42
 90
       50
102
RTVSPost2010PropOp42
 70
     0
102
RTVSPost2010Prop43
 90
        3
102
RTVSPost2010PropOp43
 70
     0
102
RTVSPost2010Prop44ColorIndex
 90
        5
102
RTVSPost2010Prop44ColorRGB
 90
      255
102
RTVSPost2010PropOp44
 70
     0
102
RTVSPost2010Prop45
280
     0
102
RTVSPost2010PropOp45
 70
     0
102
RTVSPost2010Prop46
 90
       50
102
RTVSPost2010PropOp46
 70
     0
102
RTVSPost2010Prop47
 90
       50
102
RTVSPost2010PropOp47
 70
     0
102
RTVSPost2010Prop48
 90
       50
102
RTVSPost2010PropOp48
 70
     0
102
RTVSPost2010Prop49
280
     0
102
RTVSPost2010PropOp49
 70
     0
102
RTVSPost2010Prop50
 90
       50
102
RTVSPost2010PropOp50
 70
     0
102
RTVSPost2010Prop51ColorIndex
 90
      256
102
RTVSPost2010Prop51ColorRGB
 90
-16777216
102
RTVSPost2010PropOp51
 70
     0
102
RTVSPost2010Prop52
140
1.0
102
RTVSPost2010PropOp52
 70
     0
102
RTVSPost2010Prop53
 90
        2
102
RTVSPost2010PropOp53
 70
     0
102
RTVSPost2010Prop54
  1
strokes_ogs.tif
102
RTVSPost2010PropOp54
 70
     0
102
RTVSPost2010Prop55
280
     0
102
RTVSPost2010PropOp55
 70
     0
102
RTVSPost2010Prop56
140
1.0
102
RTVSPost2010PropOp56
 70
     0
102
RTVSPost2010Prop57
140
1.0
102
RTVSPost2010PropOp57
 70
     0
  0
XRECORD
  5
862
102
{ACAD_REACTORS
330
861
102
}
330
861
100
AcDbXrecord
280
     1
102
RTVSPost2010Prop28
280
     0
102
RTVSPost2010PropOp28
 70
     1
102
RTVSPost2010Prop29
280
     1
102
RTVSPost2010PropOp29
 70
     1
102
RTVSPost2010Prop30
280
     1
102
RTVSPost2010PropOp30
 70
     1
102
RTVSPost2010Prop31
280
     0
102
RTVSPost2010PropOp31
 70
     1
102
RTVSPost2010Prop32
280
     0
102
RTVSPost2010PropOp32
 70
     1
102
RTVSPost2010Prop33
280
     0
102
RTVSPost2010PropOp33
 70
     1
102
RTVSPost2010Prop34
280
     0
102
RTVSPost2010PropOp34
 70
     1
102
RTVSPost2010Prop35
280
     0
102
RTVSPost2010PropOp35
 70
     1
102
RTVSPost2010Prop36
280
     0
102
RTVSPost2010PropOp36
 70
     1
102
RTVSPost2010Prop37
 90
       50
102
RTVSPost2010PropOp37
 70
     1
102
RTVSPost2010Prop38
140
0.0
102
RTVSPost2010PropOp38
 70
     1
102
RTVSPost2010Prop39
140
1.0
102
RTVSPost2010PropOp39
 70
     1
102
RTVSPost2010Prop40
 90
        0
102
RTVSPost2010PropOp40
 70
     1
102
RTVSPost2010Prop41ColorIndex
 90
       18
102
RTVSPost2010Prop41ColorRGB
 90
        0
102
RTVSPost2010PropOp41
 70
     1
102
RTVSPost2010Prop42
 90
       50
102
RTVSPost2010PropOp42
 70
     1
102
RTVSPost2010Prop43
 90
        3
102
RTVSPost2010PropOp43
 70
     1
102
RTVSPost2010Prop44ColorIndex
 90
        5
102
RTVSPost2010Prop44ColorRGB
 90
      255
102
RTVSPost2010PropOp44
 70
     1
102
RTVSPost2010Prop45
280
     0
102
RTVSPost2010PropOp45
 70
     1
102
RTVSPost2010Prop46
 90
       50
102
RTVSPost2010PropOp46
 70
     1
102
RTVSPost2010Prop47
 90
       50
102
RTVSPost2010PropOp47
 70
     1
102
RTVSPost2010Prop48
 90
       50
102
RTVSPost2010PropOp48
 70
     1
102
RTVSPost2010Prop49
280
     0
102
RTVSPost2010PropOp49
 70
     1
102
RTVSPost2010Prop50
 90
       50
102
RTVSPost2010PropOp50
 70
     1
102
RTVSPost2010Prop51ColorIndex
 90
      256
102
RTVSPost2010Prop51ColorRGB
 90
-16777216
102
RTVSPost2010PropOp51
 70
     0
102
RTVSPost2010Prop52
140
1.0
102
RTVSPost2010PropOp52
 70
     0
102
RTVSPost2010Prop53
 90
        2
102
RTVSPost2010PropOp53
 70
     1
102
RTVSPost2010Prop54
  1
strokes_ogs.tif
102
RTVSPost2010PropOp54
 70
     1
102
RTVSPost2010Prop55
280
     0
102
RTVSPost2010PropOp55
 70
     1
102
RTVSPost2010Prop56
140
1.0
102
RTVSPost2010PropOp56
 70
     1
102
RTVSPost2010Prop57
140
1.0
102
RTVSPost2010PropOp57
 70
     1
  0
XRECORD
  5
86A
102
{ACAD_REACTORS
330
869
102
}
330
869
100
AcDbXrecord
280
     1
102
RTVSPost2010Prop28
280
     0
102
RTVSPost2010PropOp28
 70
     0
102
RTVSPost2010Prop29
280
     1
102
RTVSPost2010PropOp29
 70
     0
102
RTVSPost2010Prop30
280
     1
102
RTVSPost2010PropOp30
 70
     0
102
RTVSPost2010Prop31
280
     0
102
RTVSPost2010PropOp31
 70
     0
102
RTVSPost2010Prop32
280
     0
102
RTVSPost2010PropOp32
 70
     0
102
RTVSPost2010Prop33
280
     0
102
RTVSPost2010PropOp33
 70
     0
102
RTVSPost2010Prop34
280
     0
102
RTVSPost2010PropOp34
 70
     0
102
RTVSPost2010Prop35
280
     0
102
RTVSPost2010PropOp35
 70
     0
102
RTVSPost2010Prop36
280
     0
102
RTVSPost2010PropOp36
 70
     0
102
RTVSPost2010Prop37
 90
       50
102
RTVSPost2010PropOp37
 70
     0
102
RTVSPost2010Prop38
140
0.0
102
RTVSPost2010PropOp38
 70
     0
102
RTVSPost2010Prop39
140
1.0
102
RTVSPost2010PropOp39
 70
     0
102
RTVSPost2010Prop40
 90
        0
102
RTVSPost2010PropOp40
 70
     0
102
RTVSPost2010Prop41ColorIndex
 90
       18
102
RTVSPost2010Prop41ColorRGB
 90
        0
102
RTVSPost2010PropOp41
 70
     0
102
RTVSPost2010Prop42
 90
       50
102
RTVSPost2010PropOp42
 70
     0
102
RTVSPost2010Prop43
 90
        3
102
RTVSPost2010PropOp43
 70
     0
102
RTVSPost2010Prop44ColorIndex
 90
        5
102
RTVSPost2010Prop44ColorRGB
 90
      255
102
RTVSPost2010PropOp44
 70
     0
102
RTVSPost2010Prop45
280
     0
102
RTVSPost2010PropOp45
 70
     0
102
RTVSPost2010Prop46
 90
       50
102
RTVSPost2010PropOp46
 70
     0
102
RTVSPost2010Prop47
 90
       50
102
RTVSPost2010PropOp47
 70
     0
102
RTVSPost2010Prop48
 90
       50
102
RTVSPost2010PropOp48
 70
     0
102
RTVSPost2010Prop49
280
     0
102
RTVSPost2010PropOp49
 70
     0
102
RTVSPost2010Prop50
 90
       50
102
RTVSPost2010PropOp50
 70
     0
102
RTVSPost2010Prop51ColorIndex
 90
      256
102
RTVSPost2010Prop51ColorRGB
 90
-16777216
102
RTVSPost2010PropOp51
 70
     0
102
RTVSPost2010Prop52
140
1.0
102
RTVSPost2010PropOp52
 70
     0
102
RTVSPost2010Prop53
 90
        2
102
RTVSPost2010PropOp53
 70
     0
102
RTVSPost2010Prop54
  1
strokes_ogs.tif
102
RTVSPost2010PropOp54
 70
     0
102
RTVSPost2010Prop55
280
     0
102
RTVSPost2010PropOp55
 70
     0
102
RTVSPost2010Prop56
140
1.0
102
RTVSPost2010PropOp56
 70
     0
102
RTVSPost2010Prop57
140
1.0
102
RTVSPost2010PropOp57
 70
     0
  0
XRECORD
  5
858
102
{ACAD_REACTORS
330
857
102
}
330
857
100
AcDbXrecord
280
     1
102
RTVSPost2010Prop28
280
     0
102
RTVSPost2010PropOp28
 70
     1
102
RTVSPost2010Prop29
280
     1
102
RTVSPost2010PropOp29
 70
     1
102
RTVSPost2010Prop30
280
     1
102
RTVSPost2010PropOp30
 70
     1
102
RTVSPost2010Prop31
280
     0
102
RTVSPost2010PropOp31
 70
     1
102
RTVSPost2010Prop32
280
     0
102
RTVSPost2010PropOp32
 70
     1
102
RTVSPost2010Prop33
280
     0
102
RTVSPost2010PropOp33
 70
     1
102
RTVSPost2010Prop34
280
     0
102
RTVSPost2010PropOp34
 70
     1
102
RTVSPost2010Prop35
280
     0
102
RTVSPost2010PropOp35
 70
     1
102
RTVSPost2010Prop36
280
     0
102
RTVSPost2010PropOp36
 70
     1
102
RTVSPost2010Prop37
 90
       50
102
RTVSPost2010PropOp37
 70
     1
102
RTVSPost2010Prop38
140
0.0
102
RTVSPost2010PropOp38
 70
     1
102
RTVSPost2010Prop39
140
1.0
102
RTVSPost2010PropOp39
 70
     1
102
RTVSPost2010Prop40
 90
        0
102
RTVSPost2010PropOp40
 70
     1
102
RTVSPost2010Prop41ColorIndex
 90
       18
102
RTVSPost2010Prop41ColorRGB
 90
        0
102
RTVSPost2010PropOp41
 70
     1
102
RTVSPost2010Prop42
 90
       50
102
RTVSPost2010PropOp42
 70
     1
102
RTVSPost2010Prop43
 90
        3
102
RTVSPost2010PropOp43
 70
     1
102
RTVSPost2010Prop44ColorIndex
 90
        5
102
RTVSPost2010Prop44ColorRGB
 90
      255
102
RTVSPost2010PropOp44
 70
     1
102
RTVSPost2010Prop45
280
     0
102
RTVSPost2010PropOp45
 70
     1
102
RTVSPost2010Prop46
 90
       50
102
RTVSPost2010PropOp46
 70
     1
102
RTVSPost2010Prop47
 90
       50
102
RTVSPost2010PropOp47
 70
     1
102
RTVSPost2010Prop48
 90
       50
102
RTVSPost2010PropOp48
 70
     1
102
RTVSPost2010Prop49
280
     0
102
RTVSPost2010PropOp49
 70
     1
102
RTVSPost2010Prop50
 90
       50
102
RTVSPost2010PropOp50
 70
     1
102
RTVSPost2010Prop51ColorIndex
 90
      256
102
RTVSPost2010Prop51ColorRGB
 90
-16777216
102
RTVSPost2010PropOp51
 70
     0
102
RTVSPost2010Prop52
140
1.0
102
RTVSPost2010PropOp52
 70
     0
102
RTVSPost2010Prop53
 90
        2
102
RTVSPost2010PropOp53
 70
     1
102
RTVSPost2010Prop54
  1
strokes_ogs.tif
102
RTVSPost2010PropOp54
 70
     1
102
RTVSPost2010Prop55
280
     0
102
RTVSPost2010PropOp55
 70
     1
102
RTVSPost2010Prop56
140
1.0
102
RTVSPost2010PropOp56
 70
     1
102
RTVSPost2010Prop57
140
1.0
102
RTVSPost2010PropOp57
 70
     1
  0
XRECORD
  5
876
102
{ACAD_REACTORS
330
875
102
}
330
875
100
AcDbXrecord
280
     1
102
RTVSPost2010Prop28
280
     0
102
RTVSPost2010PropOp28
 70
     1
102
RTVSPost2010Prop29
280
     1
102
RTVSPost2010PropOp29
 70
     1
102
RTVSPost2010Prop30
280
     1
102
RTVSPost2010PropOp30
 70
     1
102
RTVSPost2010Prop31
280
     0
102
RTVSPost2010PropOp31
 70
     1
102
RTVSPost2010Prop32
280
     0
102
RTVSPost2010PropOp32
 70
     1
102
RTVSPost2010Prop33
280
     0
102
RTVSPost2010PropOp33
 70
     1
102
RTVSPost2010Prop34
280
     0
102
RTVSPost2010PropOp34
 70
     1
102
RTVSPost2010Prop35
280
     0
102
RTVSPost2010PropOp35
 70
     1
102
RTVSPost2010Prop36
280
     0
102
RTVSPost2010PropOp36
 70
     1
102
RTVSPost2010Prop37
 90
       50
102
RTVSPost2010PropOp37
 70
     1
102
RTVSPost2010Prop38
140
0.0
102
RTVSPost2010PropOp38
 70
     1
102
RTVSPost2010Prop39
140
1.0
102
RTVSPost2010PropOp39
 70
     1
102
RTVSPost2010Prop40
 90
        0
102
RTVSPost2010PropOp40
 70
     1
102
RTVSPost2010Prop41ColorIndex
 90
       18
102
RTVSPost2010Prop41ColorRGB
 90
        0
102
RTVSPost2010PropOp41
 70
     1
102
RTVSPost2010Prop42
 90
       50
102
RTVSPost2010PropOp42
 70
     1
102
RTVSPost2010Prop43
 90
        3
102
RTVSPost2010PropOp43
 70
     1
102
RTVSPost2010Prop44ColorIndex
 90
        5
102
RTVSPost2010Prop44ColorRGB
 90
      255
102
RTVSPost2010PropOp44
 70
     1
102
RTVSPost2010Prop45
280
     0
102
RTVSPost2010PropOp45
 70
     1
102
RTVSPost2010Prop46
 90
       50
102
RTVSPost2010PropOp46
 70
     1
102
RTVSPost2010Prop47
 90
       50
102
RTVSPost2010PropOp47
 70
     1
102
RTVSPost2010Prop48
 90
       50
102
RTVSPost2010PropOp48
 70
     1
102
RTVSPost2010Prop49
280
     0
102
RTVSPost2010PropOp49
 70
     1
102
RTVSPost2010Prop50
 90
       50
102
RTVSPost2010PropOp50
 70
     1
102
RTVSPost2010Prop51ColorIndex
 90
      256
102
RTVSPost2010Prop51ColorRGB
 90
-16777216
102
RTVSPost2010PropOp51
 70
     0
102
RTVSPost2010Prop52
140
1.0
102
RTVSPost2010PropOp52
 70
     0
102
RTVSPost2010Prop53
 90
        2
102
RTVSPost2010PropOp53
 70
     1
102
RTVSPost2010Prop54
  1
strokes_ogs.tif
102
RTVSPost2010PropOp54
 70
     1
102
RTVSPost2010Prop55
280
     0
102
RTVSPost2010PropOp55
 70
     1
102
RTVSPost2010Prop56
140
1.0
102
RTVSPost2010PropOp56
 70
     1
102
RTVSPost2010Prop57
140
1.0
102
RTVSPost2010PropOp57
 70
     1
  0
XRECORD
  5
874
102
{ACAD_REACTORS
330
873
102
}
330
873
100
AcDbXrecord
280
     1
102
RTVSPost2010Prop28
280
     0
102
RTVSPost2010PropOp28
 70
     1
102
RTVSPost2010Prop29
280
     1
102
RTVSPost2010PropOp29
 70
     1
102
RTVSPost2010Prop30
280
     1
102
RTVSPost2010PropOp30
 70
     1
102
RTVSPost2010Prop31
280
     0
102
RTVSPost2010PropOp31
 70
     1
102
RTVSPost2010Prop32
280
     0
102
RTVSPost2010PropOp32
 70
     1
102
RTVSPost2010Prop33
280
     0
102
RTVSPost2010PropOp33
 70
     1
102
RTVSPost2010Prop34
280
     0
102
RTVSPost2010PropOp34
 70
     1
102
RTVSPost2010Prop35
280
     0
102
RTVSPost2010PropOp35
 70
     1
102
RTVSPost2010Prop36
280
     0
102
RTVSPost2010PropOp36
 70
     1
102
RTVSPost2010Prop37
 90
       50
102
RTVSPost2010PropOp37
 70
     1
102
RTVSPost2010Prop38
140
0.0
102
RTVSPost2010PropOp38
 70
     1
102
RTVSPost2010Prop39
140
1.0
102
RTVSPost2010PropOp39
 70
     1
102
RTVSPost2010Prop40
 90
        0
102
RTVSPost2010PropOp40
 70
     1
102
RTVSPost2010Prop41ColorIndex
 90
       18
102
RTVSPost2010Prop41ColorRGB
 90
        0
102
RTVSPost2010PropOp41
 70
     1
102
RTVSPost2010Prop42
 90
       50
102
RTVSPost2010PropOp42
 70
     1
102
RTVSPost2010Prop43
 90
        3
102
RTVSPost2010PropOp43
 70
     1
102
RTVSPost2010Prop44ColorIndex
 90
        5
102
RTVSPost2010Prop44ColorRGB
 90
      255
102
RTVSPost2010PropOp44
 70
     1
102
RTVSPost2010Prop45
280
     0
102
RTVSPost2010PropOp45
 70
     1
102
RTVSPost2010Prop46
 90
       50
102
RTVSPost2010PropOp46
 70
     1
102
RTVSPost2010Prop47
 90
       50
102
RTVSPost2010PropOp47
 70
     1
102
RTVSPost2010Prop48
 90
       50
102
RTVSPost2010PropOp48
 70
     1
102
RTVSPost2010Prop49
280
     0
102
RTVSPost2010PropOp49
 70
     1
102
RTVSPost2010Prop50
 90
       50
102
RTVSPost2010PropOp50
 70
     1
102
RTVSPost2010Prop51ColorIndex
 90
      256
102
RTVSPost2010Prop51ColorRGB
 90
-16777216
102
RTVSPost2010PropOp51
 70
     0
102
RTVSPost2010Prop52
140
1.0
102
RTVSPost2010PropOp52
 70
     0
102
RTVSPost2010Prop53
 90
        2
102
RTVSPost2010PropOp53
 70
     1
102
RTVSPost2010Prop54
  1
strokes_ogs.tif
102
RTVSPost2010PropOp54
 70
     1
102
RTVSPost2010Prop55
280
     0
102
RTVSPost2010PropOp55
 70
     1
102
RTVSPost2010Prop56
140
1.0
102
RTVSPost2010PropOp56
 70
     1
102
RTVSPost2010Prop57
140
1.0
102
RTVSPost2010PropOp57
 70
     1
  0
XRECORD
  5
86E
102
{ACAD_REACTORS
330
86D
102
}
330
86D
100
AcDbXrecord
280
     1
102
RTVSPost2010Prop28
280
     0
102
RTVSPost2010PropOp28
 70
     1
102
RTVSPost2010Prop29
280
     1
102
RTVSPost2010PropOp29
 70
     1
102
RTVSPost2010Prop30
280
     1
102
RTVSPost2010PropOp30
 70
     1
102
RTVSPost2010Prop31
280
     0
102
RTVSPost2010PropOp31
 70
     1
102
RTVSPost2010Prop32
280
     0
102
RTVSPost2010PropOp32
 70
     1
102
RTVSPost2010Prop33
280
     0
102
RTVSPost2010PropOp33
 70
     1
102
RTVSPost2010Prop34
280
     0
102
RTVSPost2010PropOp34
 70
     1
102
RTVSPost2010Prop35
280
     0
102
RTVSPost2010PropOp35
 70
     1
102
RTVSPost2010Prop36
280
     0
102
RTVSPost2010PropOp36
 70
     1
102
RTVSPost2010Prop37
 90
       50
102
RTVSPost2010PropOp37
 70
     1
102
RTVSPost2010Prop38
140
0.0
102
RTVSPost2010PropOp38
 70
     1
102
RTVSPost2010Prop39
140
1.0
102
RTVSPost2010PropOp39
 70
     1
102
RTVSPost2010Prop40
 90
        0
102
RTVSPost2010PropOp40
 70
     1
102
RTVSPost2010Prop41ColorIndex
 90
       18
102
RTVSPost2010Prop41ColorRGB
 90
        0
102
RTVSPost2010PropOp41
 70
     1
102
RTVSPost2010Prop42
 90
       50
102
RTVSPost2010PropOp42
 70
     1
102
RTVSPost2010Prop43
 90
        3
102
RTVSPost2010PropOp43
 70
     1
102
RTVSPost2010Prop44ColorIndex
 90
        5
102
RTVSPost2010Prop44ColorRGB
 90
      255
102
RTVSPost2010PropOp44
 70
     1
102
RTVSPost2010Prop45
280
     0
102
RTVSPost2010PropOp45
 70
     1
102
RTVSPost2010Prop46
 90
       50
102
RTVSPost2010PropOp46
 70
     1
102
RTVSPost2010Prop47
 90
       50
102
RTVSPost2010PropOp47
 70
     1
102
RTVSPost2010Prop48
 90
       50
102
RTVSPost2010PropOp48
 70
     1
102
RTVSPost2010Prop49
280
     0
102
RTVSPost2010PropOp49
 70
     1
102
RTVSPost2010Prop50
 90
       50
102
RTVSPost2010PropOp50
 70
     1
102
RTVSPost2010Prop51ColorIndex
 90
      256
102
RTVSPost2010Prop51ColorRGB
 90
-16777216
102
RTVSPost2010PropOp51
 70
     0
102
RTVSPost2010Prop52
140
1.0
102
RTVSPost2010PropOp52
 70
     0
102
RTVSPost2010Prop53
 90
        2
102
RTVSPost2010PropOp53
 70
     1
102
RTVSPost2010Prop54
  1
strokes_ogs.tif
102
RTVSPost2010PropOp54
 70
     1
102
RTVSPost2010Prop55
280
     0
102
RTVSPost2010PropOp55
 70
     1
102
RTVSPost2010Prop56
140
1.0
102
RTVSPost2010PropOp56
 70
     1
102
RTVSPost2010Prop57
140
1.0
102
RTVSPost2010PropOp57
 70
     1
  0
XRECORD
  5
870
102
{ACAD_REACTORS
330
86F
102
}
330
86F
100
AcDbXrecord
280
     1
102
RTVSPost2010Prop28
280
     0
102
RTVSPost2010PropOp28
 70
     1
102
RTVSPost2010Prop29
280
     1
102
RTVSPost2010PropOp29
 70
     1
102
RTVSPost2010Prop30
280
     1
102
RTVSPost2010PropOp30
 70
     1
102
RTVSPost2010Prop31
280
     0
102
RTVSPost2010PropOp31
 70
     1
102
RTVSPost2010Prop32
280
     0
102
RTVSPost2010PropOp32
 70
     1
102
RTVSPost2010Prop33
280
     0
102
RTVSPost2010PropOp33
 70
     1
102
RTVSPost2010Prop34
280
     0
102
RTVSPost2010PropOp34
 70
     1
102
RTVSPost2010Prop35
280
     0
102
RTVSPost2010PropOp35
 70
     1
102
RTVSPost2010Prop36
280
     0
102
RTVSPost2010PropOp36
 70
     1
102
RTVSPost2010Prop37
 90
       50
102
RTVSPost2010PropOp37
 70
     1
102
RTVSPost2010Prop38
140
0.0
102
RTVSPost2010PropOp38
 70
     1
102
RTVSPost2010Prop39
140
1.0
102
RTVSPost2010PropOp39
 70
     1
102
RTVSPost2010Prop40
 90
        0
102
RTVSPost2010PropOp40
 70
     1
102
RTVSPost2010Prop41ColorIndex
 90
       18
102
RTVSPost2010Prop41ColorRGB
 90
        0
102
RTVSPost2010PropOp41
 70
     1
102
RTVSPost2010Prop42
 90
       50
102
RTVSPost2010PropOp42
 70
     1
102
RTVSPost2010Prop43
 90
        3
102
RTVSPost2010PropOp43
 70
     1
102
RTVSPost2010Prop44ColorIndex
 90
        5
102
RTVSPost2010Prop44ColorRGB
 90
      255
102
RTVSPost2010PropOp44
 70
     1
102
RTVSPost2010Prop45
280
     0
102
RTVSPost2010PropOp45
 70
     1
102
RTVSPost2010Prop46
 90
       50
102
RTVSPost2010PropOp46
 70
     1
102
RTVSPost2010Prop47
 90
       50
102
RTVSPost2010PropOp47
 70
     1
102
RTVSPost2010Prop48
 90
       50
102
RTVSPost2010PropOp48
 70
     1
102
RTVSPost2010Prop49
280
     0
102
RTVSPost2010PropOp49
 70
     1
102
RTVSPost2010Prop50
 90
       50
102
RTVSPost2010PropOp50
 70
     1
102
RTVSPost2010Prop51ColorIndex
 90
      256
102
RTVSPost2010Prop51ColorRGB
 90
-16777216
102
RTVSPost2010PropOp51
 70
     0
102
RTVSPost2010Prop52
140
1.0
102
RTVSPost2010PropOp52
 70
     0
102
RTVSPost2010Prop53
 90
        2
102
RTVSPost2010PropOp53
 70
     1
102
RTVSPost2010Prop54
  1
strokes_ogs.tif
102
RTVSPost2010PropOp54
 70
     1
102
RTVSPost2010Prop55
280
     0
102
RTVSPost2010PropOp55
 70
     1
102
RTVSPost2010Prop56
140
1.0
102
RTVSPost2010PropOp56
 70
     1
102
RTVSPost2010Prop57
140
1.0
102
RTVSPost2010PropOp57
 70
     1
  0
XRECORD
  5
860
102
{ACAD_REACTORS
330
85F
102
}
330
85F
100
AcDbXrecord
280
     1
102
RTVSPost2010Prop28
280
     0
102
RTVSPost2010PropOp28
 70
     1
102
RTVSPost2010Prop29
280
     1
102
RTVSPost2010PropOp29
 70
     1
102
RTVSPost2010Prop30
280
     1
102
RTVSPost2010PropOp30
 70
     1
102
RTVSPost2010Prop31
280
     0
102
RTVSPost2010PropOp31
 70
     1
102
RTVSPost2010Prop32
280
     0
102
RTVSPost2010PropOp32
 70
     1
102
RTVSPost2010Prop33
280
     0
102
RTVSPost2010PropOp33
 70
     1
102
RTVSPost2010Prop34
280
     0
102
RTVSPost2010PropOp34
 70
     1
102
RTVSPost2010Prop35
280
     0
102
RTVSPost2010PropOp35
 70
     1
102
RTVSPost2010Prop36
280
     0
102
RTVSPost2010PropOp36
 70
     1
102
RTVSPost2010Prop37
 90
       50
102
RTVSPost2010PropOp37
 70
     1
102
RTVSPost2010Prop38
140
0.0
102
RTVSPost2010PropOp38
 70
     1
102
RTVSPost2010Prop39
140
1.0
102
RTVSPost2010PropOp39
 70
     1
102
RTVSPost2010Prop40
 90
        0
102
RTVSPost2010PropOp40
 70
     1
102
RTVSPost2010Prop41ColorIndex
 90
       18
102
RTVSPost2010Prop41ColorRGB
 90
        0
102
RTVSPost2010PropOp41
 70
     1
102
RTVSPost2010Prop42
 90
       50
102
RTVSPost2010PropOp42
 70
     1
102
RTVSPost2010Prop43
 90
        3
102
RTVSPost2010PropOp43
 70
     1
102
RTVSPost2010Prop44ColorIndex
 90
        5
102
RTVSPost2010Prop44ColorRGB
 90
      255
102
RTVSPost2010PropOp44
 70
     1
102
RTVSPost2010Prop45
280
     0
102
RTVSPost2010PropOp45
 70
     1
102
RTVSPost2010Prop46
 90
       50
102
RTVSPost2010PropOp46
 70
     1
102
RTVSPost2010Prop47
 90
       50
102
RTVSPost2010PropOp47
 70
     1
102
RTVSPost2010Prop48
 90
       50
102
RTVSPost2010PropOp48
 70
     1
102
RTVSPost2010Prop49
280
     0
102
RTVSPost2010PropOp49
 70
     1
102
RTVSPost2010Prop50
 90
       50
102
RTVSPost2010PropOp50
 70
     1
102
RTVSPost2010Prop51ColorIndex
 90
      256
102
RTVSPost2010Prop51ColorRGB
 90
-16777216
102
RTVSPost2010PropOp51
 70
     0
102
RTVSPost2010Prop52
140
1.0
102
RTVSPost2010PropOp52
 70
     0
102
RTVSPost2010Prop53
 90
        2
102
RTVSPost2010PropOp53
 70
     1
102
RTVSPost2010Prop54
  1
strokes_ogs.tif
102
RTVSPost2010PropOp54
 70
     1
102
RTVSPost2010Prop55
280
     0
102
RTVSPost2010PropOp55
 70
     1
102
RTVSPost2010Prop56
140
1.0
102
RTVSPost2010PropOp56
 70
     1
102
RTVSPost2010Prop57
140
1.0
102
RTVSPost2010PropOp57
 70
     1
  0
XRECORD
  5
852
102
{ACAD_REACTORS
330
851
102
}
330
851
100
AcDbXrecord
280
     1
102
RTVSPost2010Prop28
280
     0
102
RTVSPost2010PropOp28
 70
     1
102
RTVSPost2010Prop29
280
     1
102
RTVSPost2010PropOp29
 70
     1
102
RTVSPost2010Prop30
280
     1
102
RTVSPost2010PropOp30
 70
     1
102
RTVSPost2010Prop31
280
     0
102
RTVSPost2010PropOp31
 70
     1
102
RTVSPost2010Prop32
280
     0
102
RTVSPost2010PropOp32
 70
     1
102
RTVSPost2010Prop33
280
     0
102
RTVSPost2010PropOp33
 70
     1
102
RTVSPost2010Prop34
280
     0
102
RTVSPost2010PropOp34
 70
     1
102
RTVSPost2010Prop35
280
     0
102
RTVSPost2010PropOp35
 70
     1
102
RTVSPost2010Prop36
280
     0
102
RTVSPost2010PropOp36
 70
     1
102
RTVSPost2010Prop37
 90
       50
102
RTVSPost2010PropOp37
 70
     1
102
RTVSPost2010Prop38
140
0.0
102
RTVSPost2010PropOp38
 70
     1
102
RTVSPost2010Prop39
140
1.0
102
RTVSPost2010PropOp39
 70
     1
102
RTVSPost2010Prop40
 90
        0
102
RTVSPost2010PropOp40
 70
     1
102
RTVSPost2010Prop41ColorIndex
 90
       18
102
RTVSPost2010Prop41ColorRGB
 90
        0
102
RTVSPost2010PropOp41
 70
     1
102
RTVSPost2010Prop42
 90
       50
102
RTVSPost2010PropOp42
 70
     1
102
RTVSPost2010Prop43
 90
        3
102
RTVSPost2010PropOp43
 70
     1
102
RTVSPost2010Prop44ColorIndex
 90
        5
102
RTVSPost2010Prop44ColorRGB
 90
      255
102
RTVSPost2010PropOp44
 70
     1
102
RTVSPost2010Prop45
280
     0
102
RTVSPost2010PropOp45
 70
     1
102
RTVSPost2010Prop46
 90
       50
102
RTVSPost2010PropOp46
 70
     1
102
RTVSPost2010Prop47
 90
       50
102
RTVSPost2010PropOp47
 70
     1
102
RTVSPost2010Prop48
 90
       50
102
RTVSPost2010PropOp48
 70
     1
102
RTVSPost2010Prop49
280
     0
102
RTVSPost2010PropOp49
 70
     1
102
RTVSPost2010Prop50
 90
       50
102
RTVSPost2010PropOp50
 70
     1
102
RTVSPost2010Prop51ColorIndex
 90
      256
102
RTVSPost2010Prop51ColorRGB
 90
-16777216
102
RTVSPost2010PropOp51
 70
     0
102
RTVSPost2010Prop52
140
1.0
102
RTVSPost2010PropOp52
 70
     0
102
RTVSPost2010Prop53
 90
        2
102
RTVSPost2010PropOp53
 70
     1
102
RTVSPost2010Prop54
  1
strokes_ogs.tif
102
RTVSPost2010PropOp54
 70
     1
102
RTVSPost2010Prop55
280
     0
102
RTVSPost2010PropOp55
 70
     1
102
RTVSPost2010Prop56
140
1.0
102
RTVSPost2010PropOp56
 70
     1
102
RTVSPost2010Prop57
140
1.0
102
RTVSPost2010PropOp57
 70
     1
  0
XRECORD
  5
872
102
{ACAD_REACTORS
330
871
102
}
330
871
100
AcDbXrecord
280
     1
102
RTVSPost2010Prop28
280
     0
102
RTVSPost2010PropOp28
 70
     1
102
RTVSPost2010Prop29
280
     1
102
RTVSPost2010PropOp29
 70
     1
102
RTVSPost2010Prop30
280
     1
102
RTVSPost2010PropOp30
 70
     1
102
RTVSPost2010Prop31
280
     0
102
RTVSPost2010PropOp31
 70
     1
102
RTVSPost2010Prop32
280
     0
102
RTVSPost2010PropOp32
 70
     1
102
RTVSPost2010Prop33
280
     0
102
RTVSPost2010PropOp33
 70
     1
102
RTVSPost2010Prop34
280
     0
102
RTVSPost2010PropOp34
 70
     1
102
RTVSPost2010Prop35
280
     0
102
RTVSPost2010PropOp35
 70
     1
102
RTVSPost2010Prop36
280
     0
102
RTVSPost2010PropOp36
 70
     1
102
RTVSPost2010Prop37
 90
       50
102
RTVSPost2010PropOp37
 70
     1
102
RTVSPost2010Prop38
140
0.0
102
RTVSPost2010PropOp38
 70
     1
102
RTVSPost2010Prop39
140
1.0
102
RTVSPost2010PropOp39
 70
     1
102
RTVSPost2010Prop40
 90
        0
102
RTVSPost2010PropOp40
 70
     1
102
RTVSPost2010Prop41ColorIndex
 90
       18
102
RTVSPost2010Prop41ColorRGB
 90
        0
102
RTVSPost2010PropOp41
 70
     1
102
RTVSPost2010Prop42
 90
       50
102
RTVSPost2010PropOp42
 70
     1
102
RTVSPost2010Prop43
 90
        3
102
RTVSPost2010PropOp43
 70
     1
102
RTVSPost2010Prop44ColorIndex
 90
        5
102
RTVSPost2010Prop44ColorRGB
 90
      255
102
RTVSPost2010PropOp44
 70
     1
102
RTVSPost2010Prop45
280
     0
102
RTVSPost2010PropOp45
 70
     1
102
RTVSPost2010Prop46
 90
       50
102
RTVSPost2010PropOp46
 70
     1
102
RTVSPost2010Prop47
 90
       50
102
RTVSPost2010PropOp47
 70
     1
102
RTVSPost2010Prop48
 90
       50
102
RTVSPost2010PropOp48
 70
     1
102
RTVSPost2010Prop49
280
     0
102
RTVSPost2010PropOp49
 70
     1
102
RTVSPost2010Prop50
 90
       50
102
RTVSPost2010PropOp50
 70
     1
102
RTVSPost2010Prop51ColorIndex
 90
      256
102
RTVSPost2010Prop51ColorRGB
 90
-16777216
102
RTVSPost2010PropOp51
 70
     0
102
RTVSPost2010Prop52
140
1.0
102
RTVSPost2010PropOp52
 70
     0
102
RTVSPost2010Prop53
 90
        2
102
RTVSPost2010PropOp53
 70
     1
102
RTVSPost2010Prop54
  1
strokes_ogs.tif
102
RTVSPost2010PropOp54
 70
     1
102
RTVSPost2010Prop55
280
     0
102
RTVSPost2010PropOp55
 70
     1
102
RTVSPost2010Prop56
140
1.0
102
RTVSPost2010PropOp56
 70
     1
102
RTVSPost2010Prop57
140
1.0
102
RTVSPost2010PropOp57
 70
     1
  0
ENDSEC
  0
EOF
