  0
SECTION
  2
HEADER
  9
$ACADVER
  1
AC1024
  9
$ACADMAINTVER
 70
     6
  9
$DWGCODEPAGE
  3
ANSI_1252
  9
$LASTSAVEDBY
  1
Owner
  9
$INSBASE
 10
0.0
 20
0.0
 30
0.0
  9
$EXTMIN
 10
627.878583547051
 20
425.2175425160145
 30
0.0
  9
$EXTMAX
 10
1000.221349401025
 20
1053.990915933503
 30
0.0
  9
$LIMMIN
 10
0.0
 20
0.0
  9
$LIMMAX
 10
420.0
 20
297.0
  9
$ORTHOMODE
 70
     0
  9
$REGENMODE
 70
     1
  9
$FILLMODE
 70
     1
  9
$QTEXTMODE
 70
     0
  9
$MIRRTEXT
 70
     0
  9
$LTSCALE
 40
1.0
  9
$ATTMODE
 70
     1
  9
$TEXTSIZE
 40
2.5
  9
$TRACEWID
 40
1.0
  9
$TEXTSTYLE
  7
Standard
  9
$CLAYER
  8
Drawing
  9
$CELTYPE
  6
ByLayer
  9
$CECOLOR
 62
   256
  9
$CELTSCALE
 40
0.25
  9
$DISPSILH
 70
     0
  9
$DIMSCALE
 40
1.0
  9
$DIMASZ
 40
2.5
  9
$DIMEXO
 40
0.625
  9
$DIMDLI
 40
3.75
  9
$DIMRND
 40
0.0
  9
$DIMDLE
 40
0.0
  9
$DIMEXE
 40
1.25
  9
$DIMTP
 40
0.0
  9
$DIMTM
 40
0.0
  9
$DIMTXT
 40
2.5
  9
$DIMCEN
 40
2.5
  9
$DIMTSZ
 40
0.0
  9
$DIMTOL
 70
     0
  9
$DIMLIM
 70
     0
  9
$DIMTIH
 70
     0
  9
$DIMTOH
 70
     0
  9
$DIMSE1
 70
     0
  9
$DIMSE2
 70
     0
  9
$DIMTAD
 70
     1
  9
$DIMZIN
 70
     8
  9
$DIMBLK
  1

  9
$DIMASO
 70
     1
  9
$DIMSHO
 70
     1
  9
$DIMPOST
  1

  9
$DIMAPOST
  1

  9
$DIMALT
 70
     0
  9
$DIMALTD
 70
     3
  9
$DIMALTF
 40
0.03937007874016
  9
$DIMLFAC
 40
1.0
  9
$DIMTOFL
 70
     1
  9
$DIMTVP
 40
0.0
  9
$DIMTIX
 70
     0
  9
$DIMSOXD
 70
     0
  9
$DIMSAH
 70
     0
  9
$DIMBLK1
  1

  9
$DIMBLK2
  1

  9
$DIMSTYLE
  2
ISO-25
  9
$DIMCLRD
 70
     0
  9
$DIMCLRE
 70
     0
  9
$DIMCLRT
 70
     0
  9
$DIMTFAC
 40
1.0
  9
$DIMGAP
 40
0.625
  9
$DIMJUST
 70
     0
  9
$DIMSD1
 70
     0
  9
$DIMSD2
 70
     0
  9
$DIMTOLJ
 70
     0
  9
$DIMTZIN
 70
     8
  9
$DIMALTZ
 70
     0
  9
$DIMALTTZ
 70
     0
  9
$DIMUPT
 70
     0
  9
$DIMDEC
 70
     2
  9
$DIMTDEC
 70
     2
  9
$DIMALTU
 70
     2
  9
$DIMALTTD
 70
     3
  9
$DIMTXSTY
  7
Standard
  9
$DIMAUNIT
 70
     0
  9
$DIMADEC
 70
     0
  9
$DIMALTRND
 40
0.0
  9
$DIMAZIN
 70
     0
  9
$DIMDSEP
 70
    44
  9
$DIMATFIT
 70
     3
  9
$DIMFRAC
 70
     0
  9
$DIMLDRBLK
  1

  9
$DIMLUNIT
 70
     2
  9
$DIMLWD
 70
    -2
  9
$DIMLWE
 70
    -2
  9
$DIMTMOVE
 70
     0
  9
$DIMFXL
 40
1.0
  9
$DIMFXLON
 70
     0
  9
$DIMJOGANG
 40
0.7853981633974483
  9
$DIMTFILL
 70
     0
  9
$DIMTFILLCLR
 70
     0
  9
$DIMARCSYM
 70
     0
  9
$DIMLTYPE
  6

  9
$DIMLTEX1
  6

  9
$DIMLTEX2
  6

  9
$DIMTXTDIRECTION
 70
     0
  9
$LUNITS
 70
     2
  9
$LUPREC
 70
     4
  9
$SKETCHINC
 40
1.0
  9
$FILLETRAD
 40
0.0
  9
$AUNITS
 70
     0
  9
$AUPREC
 70
     0
  9
$MENU
  1
.
  9
$ELEVATION
 40
0.0
  9
$PELEVATION
 40
0.0
  9
$THICKNESS
 40
0.0
  9
$LIMCHECK
 70
     0
  9
$CHAMFERA
 40
0.0
  9
$CHAMFERB
 40
0.0
  9
$CHAMFERC
 40
0.0
  9
$CHAMFERD
 40
0.0
  9
$SKPOLY
 70
     0
  9
$TDCREATE
 40
2453466.57028544
  9
$TDUCREATE
 40
2453466.528618773
  9
$TDUPDATE
 40
2457219.626927384
  9
$TDUUPDATE
 40
2457219.585260718
  9
$TDINDWG
 40
0.1199595255
  9
$TDUSRTIMER
 40
0.1199595255
  9
$USRTIMER
 70
     1
  9
$ANGBASE
 50
0.0
  9
$ANGDIR
 70
     0
  9
$PDMODE
 70
     0
  9
$PDSIZE
 40
0.0
  9
$PLINEWID
 40
0.0
  9
$SPLFRAME
 70
     0
  9
$SPLINETYPE
 70
     6
  9
$SPLINESEGS
 70
     8
  9
$HANDSEED
  5
367
  9
$SURFTAB1
 70
     6
  9
$SURFTAB2
 70
     6
  9
$SURFTYPE
 70
     6
  9
$SURFU
 70
     6
  9
$SURFV
 70
     6
  9
$UCSBASE
  2

  9
$UCSNAME
  2

  9
$UCSORG
 10
0.0
 20
0.0
 30
0.0
  9
$UCSXDIR
 10
1.0
 20
0.0
 30
0.0
  9
$UCSYDIR
 10
0.0
 20
1.0
 30
0.0
  9
$UCSORTHOREF
  2

  9
$UCSORTHOVIEW
 70
     0
  9
$UCSORGTOP
 10
0.0
 20
0.0
 30
0.0
  9
$UCSORGBOTTOM
 10
0.0
 20
0.0
 30
0.0
  9
$UCSORGLEFT
 10
0.0
 20
0.0
 30
0.0
  9
$UCSORGRIGHT
 10
0.0
 20
0.0
 30
0.0
  9
$UCSORGFRONT
 10
0.0
 20
0.0
 30
0.0
  9
$UCSORGBACK
 10
0.0
 20
0.0
 30
0.0
  9
$PUCSBASE
  2

  9
$PUCSNAME
  2

  9
$PUCSORG
 10
0.0
 20
0.0
 30
0.0
  9
$PUCSXDIR
 10
1.0
 20
0.0
 30
0.0
  9
$PUCSYDIR
 10
0.0
 20
1.0
 30
0.0
  9
$PUCSORTHOREF
  2

  9
$PUCSORTHOVIEW
 70
     0
  9
$PUCSORGTOP
 10
0.0
 20
0.0
 30
0.0
  9
$PUCSORGBOTTOM
 10
0.0
 20
0.0
 30
0.0
  9
$PUCSORGLEFT
 10
0.0
 20
0.0
 30
0.0
  9
$PUCSORGRIGHT
 10
0.0
 20
0.0
 30
0.0
  9
$PUCSORGFRONT
 10
0.0
 20
0.0
 30
0.0
  9
$PUCSORGBACK
 10
0.0
 20
0.0
 30
0.0
  9
$USERI1
 70
     0
  9
$USERI2
 70
     0
  9
$USERI3
 70
     0
  9
$USERI4
 70
     0
  9
$USERI5
 70
     0
  9
$USERR1
 40
0.0
  9
$USERR2
 40
0.0
  9
$USERR3
 40
0.0
  9
$USERR4
 40
0.0
  9
$USERR5
 40
0.0
  9
$WORLDVIEW
 70
     1
  9
$SHADEDGE
 70
     3
  9
$SHADEDIF
 70
    70
  9
$TILEMODE
 70
     0
  9
$MAXACTVP
 70
    64
  9
$PINSBASE
 10
0.0
 20
0.0
 30
0.0
  9
$PLIMCHECK
 70
     0
  9
$PEXTMIN
 10
18.37264112862795
 20
26.23079147338868
 30
0.0
  9
$PEXTMAX
 10
216.4072792357351
 20
196.1650949686218
 30
0.0
  9
$PLIMMIN
 10
11.22889141473024
 20
12.31370010375977
  9
$PLIMMAX
 10
227.1288853112146
 20
291.7136940002441
  9
$UNITMODE
 70
     0
  9
$VISRETAIN
 70
     1
  9
$PLINEGEN
 70
     0
  9
$PSLTSCALE
 70
     1
  9
$TREEDEPTH
 70
  3020
  9
$CMLSTYLE
  2
Standard
  9
$CMLJUST
 70
     0
  9
$CMLSCALE
 40
20.0
  9
$PROXYGRAPHICS
 70
     1
  9
$MEASUREMENT
 70
     1
  9
$CELWEIGHT
370
    -1
  9
$ENDCAPS
280
     0
  9
$JOINSTYLE
280
     0
  9
$LWDISPLAY
290
     0
  9
$INSUNITS
 70
     4
  9
$HYPERLINKBASE
  1

  9
$STYLESHEET
  1
monochrome.ctb
  9
$XEDIT
290
     1
  9
$CEPSNTYPE
380
     0
  9
$PSTYLEMODE
290
     1
  9
$FINGERPRINTGUID
  2
{FDEAD578-A652-11D2-9A35-0060089B3A3F}
  9
$VERSIONGUID
  2
{79045BA7-A2FF-4EE5-9850-7C5E1D8FCB7D}
  9
$EXTNAMES
290
     1
  9
$PSVPSCALE
 40
0.0
  9
$OLESTARTUP
290
     0
  9
$SORTENTS
280
   127
  9
$INDEXCTL
280
     0
  9
$HIDETEXT
280
     1
  9
$XCLIPFRAME
280
     2
  9
$HALOGAP
280
     0
  9
$OBSCOLOR
 70
   257
  9
$OBSLTYPE
280
     0
  9
$INTERSECTIONDISPLAY
280
     0
  9
$INTERSECTIONCOLOR
 70
   257
  9
$DIMASSOC
280
     2
  9
$PROJECTNAME
  1

  9
$CAMERADISPLAY
290
     0
  9
$LENSLENGTH
 40
50.0
  9
$CAMERAHEIGHT
 40
0.0
  9
$STEPSPERSEC
 40
2.0
  9
$STEPSIZE
 40
6.0
  9
$3DDWFPREC
 40
2.0
  9
$PSOLWIDTH
 40
0.25
  9
$PSOLHEIGHT
 40
4.0
  9
$LOFTANG1
 40
1.570796326794897
  9
$LOFTANG2
 40
1.570796326794897
  9
$LOFTMAG1
 40
0.0
  9
$LOFTMAG2
 40
0.0
  9
$LOFTPARAM
 70
     7
  9
$LOFTNORMALS
280
     1
  9
$LATITUDE
 40
37.795
  9
$LONGITUDE
 40
-122.394
  9
$NORTHDIRECTION
 40
0.0
  9
$TIMEZONE
 70
 -8000
  9
$LIGHTGLYPHDISPLAY
280
     1
  9
$TILEMODELIGHTSYNCH
280
     1
  9
$SOLIDHIST
280
     0
  9
$SHOWHIST
280
     1
  9
$DWFFRAME
280
     2
  9
$DGNFRAME
280
     2
  9
$REALWORLDSCALE
290
     1
  9
$INTERFERECOLOR
 62
   256
  9
$CSHADOW
280
     0
  9
$SHADOWPLANELOCATION
 40
0.0
  0
ENDSEC
  0
SECTION
  2
CLASSES
  0
CLASS
  1
ACDBDICTIONARYWDFLT
  2
AcDbDictionaryWithDefault
  3
ObjectDBX Classes
 90
        0
 91
        4
280
     0
281
     0
  0
CLASS
  1
ACDBPLACEHOLDER
  2
AcDbPlaceHolder
  3
ObjectDBX Classes
 90
        0
 91
        1
280
     0
281
     0
  0
CLASS
  1
LAYOUT
  2
AcDbLayout
  3
ObjectDBX Classes
 90
        0
 91
        1
280
     0
281
     0
  0
CLASS
  1
DICTIONARYVAR
  2
AcDbDictionaryVar
  3
ObjectDBX Classes
 90
        0
 91
        4
280
     0
281
     0
  0
CLASS
  1
RASTERVARIABLES
  2
AcDbRasterVariables
  3
ISM
 90
        0
 91
        4
280
     0
281
     0
  0
CLASS
  1
IMAGEDEF
  2
AcDbRasterImageDef
  3
ISM
 90
        0
 91
        4
280
     0
281
     0
  0
CLASS
  1
IMAGEDEF_REACTOR
  2
AcDbRasterImageDefReactor
  3
ISM
 90
        1
 91
        4
280
     0
281
     0
  0
CLASS
  1
IMAGE
  2
AcDbRasterImage
  3
ISM
 90
      127
 91
        5
280
     0
281
     1
  0
CLASS
  1
VISUALSTYLE
  2
AcDbVisualStyle
  3
ObjectDBX Classes
 90
     4095
 91
        4
280
     0
281
     0
  0
CLASS
  1
SCALE
  2
AcDbScale
  3
ObjectDBX Classes
 90
     1153
 91
        4
280
     0
281
     0
  0
CLASS
  1
MATERIAL
  2
AcDbMaterial
  3
ObjectDBX Classes
 90
     1153
 91
        4
280
     0
281
     0
  0
CLASS
  1
TABLESTYLE
  2
AcDbTableStyle
  3
ObjectDBX Classes
 90
     4095
 91
        4
280
     0
281
     0
  0
CLASS
  1
MLEADERSTYLE
  2
AcDbMLeaderStyle
  3
ACDB_MLEADERSTYLE_CLASS
 90
     4095
 91
        4
280
     0
281
     0
  0
CLASS
  1
CELLSTYLEMAP
  2
AcDbCellStyleMap
  3
ObjectDBX Classes
 90
     1152
 91
        4
280
     0
281
     0
  0
ENDSEC
  0
SECTION
  2
TABLES
  0
TABLE
  2
VPORT
  5
8
330
0
100
AcDbSymbolTable
 70
    25
  0
VPORT
  5
2E6
330
8
100
AcDbSymbolTableRecord
100
AcDbViewportTableRecord
  2
*Active
 70
     0
 10
0.0
 20
0.0
 11
1.0
 21
1.0
 12
751.7825310475484
 22
489.7819541483979
 13
0.0
 23
0.0
 14
10.0
 24
10.0
 15
10.0
 25
10.0
 16
0.0
 26
0.0
 36
1.0
 17
0.0
 27
0.0
 37
0.0
 40
212.9650464886716
 41
1.710247349823321
 42
50.0
 43
0.0
 44
0.0
 50
0.0
 51
0.0
 71
     0
 72
  1000
 73
     1
 74
     3
 75
     0
 76
     0
 77
     0
 78
     0
281
     0
 65
     1
110
0.0
120
0.0
130
0.0
111
1.0
121
0.0
131
0.0
112
0.0
122
1.0
132
0.0
 79
     0
146
0.0
348
2F1
 60
     3
 61
     5
292
     1
282
     1
141
0.0
142
0.0
 63
   256
  0
ENDTAB
  0
TABLE
  2
LTYPE
  5
5
330
0
100
AcDbSymbolTable
 70
     2
  0
LTYPE
  5
14
330
5
100
AcDbSymbolTableRecord
100
AcDbLinetypeTableRecord
  2
ByBlock
 70
     0
  3

 72
    65
 73
     0
 40
0.0
  0
LTYPE
  5
15
330
5
100
AcDbSymbolTableRecord
100
AcDbLinetypeTableRecord
  2
ByLayer
 70
     0
  3

 72
    65
 73
     0
 40
0.0
  0
LTYPE
  5
16
330
5
100
AcDbSymbolTableRecord
100
AcDbLinetypeTableRecord
  2
Continuous
 70
     0
  3
Solid line
 72
    65
 73
     0
 40
0.0
  0
LTYPE
  5
110
330
5
100
AcDbSymbolTableRecord
100
AcDbLinetypeTableRecord
  2
ACAD_ISO03W100
 70
     0
  3
ISO dash space __    __    __    __    __    __
 72
    65
 73
     2
 40
30.0
 49
12.0
 74
     0
 49
-18.0
 74
     0
  0
ENDTAB
  0
TABLE
  2
LAYER
  5
2
330
0
100
AcDbSymbolTable
 70
     3
  0
LAYER
  5
10
330
2
100
AcDbSymbolTableRecord
100
AcDbLayerTableRecord
  2
0
 70
     0
 62
    -7
  6
Continuous
370
    -3
390
F
347
329
  0
LAYER
  5
89
330
2
100
AcDbSymbolTableRecord
100
AcDbLayerTableRecord
  2
Drawing
 70
     0
 62
     1
  6
Continuous
370
    -3
390
F
347
329
  0
LAYER
  5
296
330
2
100
AcDbSymbolTableRecord
100
AcDbLayerTableRecord
  2
trench scale n
 70
     0
 62
     7
  6
Continuous
370
    -3
390
F
347
329
  0
ENDTAB
  0
TABLE
  2
STYLE
  5
3
330
0
100
AcDbSymbolTable
 70
     4
  0
STYLE
  5
11
330
3
100
AcDbSymbolTableRecord
100
AcDbTextStyleTableRecord
  2
Standard
 70
     0
 40
0.0
 41
1.0
 50
0.0
 71
     0
 42
2.5
  3
txt
  4

  0
STYLE
  5
10F
330
3
100
AcDbSymbolTableRecord
100
AcDbTextStyleTableRecord
  2

 70
     1
 40
0.0
 41
1.0
 50
0.0
 71
     0
 42
2.5
  3
ltypeshp.shx
  4

  0
STYLE
  5
297
330
3
100
AcDbSymbolTableRecord
100
AcDbTextStyleTableRecord
  2
style1
 70
     0
 40
0.0
 41
1.0
 50
0.0
 71
     0
 42
2.5
  3
verdana.TTF
  4

1001
ACAD
1000
Verdana
1071
       34
  0
STYLE
  5
298
330
3
100
AcDbSymbolTableRecord
100
AcDbTextStyleTableRecord
  2
verdana
 70
     0
 40
1.0
 41
1.0
 50
0.0
 71
     0
 42
1.0
  3
verdana.TTF
  4

1001
ACAD
1000
Verdana
1071
       34
  0
ENDTAB
  0
TABLE
  2
VIEW
  5
6
330
0
100
AcDbSymbolTable
 70
     0
  0
ENDTAB
  0
TABLE
  2
UCS
  5
7
330
0
100
AcDbSymbolTable
 70
     0
  0
ENDTAB
  0
TABLE
  2
APPID
  5
9
330
0
100
AcDbSymbolTable
 70
     1
  0
APPID
  5
12
330
9
100
AcDbSymbolTableRecord
100
AcDbRegAppTableRecord
  2
ACAD
 70
     0
  0
ENDTAB
  0
TABLE
  2
DIMSTYLE
  5
A
330
0
100
AcDbSymbolTable
 70
     1
100
AcDbDimStyleTable
  0
DIMSTYLE
105
27
330
A
100
AcDbSymbolTableRecord
100
AcDbDimStyleTableRecord
  2
ISO-25
 70
     0
 41
2.5
 42
0.625
 43
3.75
 44
1.25
 73
     0
 74
     0
 77
     1
 78
     8
140
2.5
141
2.5
143
0.03937007874016
147
0.625
171
     3
172
     1
178
     0
271
     2
272
     2
274
     3
278
    44
283
     0
284
     8
340
11
  0
ENDTAB
  0
TABLE
  2
BLOCK_RECORD
  5
1
330
0
100
AcDbSymbolTable
 70
    13
  0
BLOCK_RECORD
  5
1F
330
1
100
AcDbSymbolTableRecord
100
AcDbBlockTableRecord
  2
*Model_Space
340
22
 70
     0
280
     1
281
     0
  0
BLOCK_RECORD
  5
2E1
330
1
100
AcDbSymbolTableRecord
100
AcDbBlockTableRecord
  2
*Paper_Space
340
2E2
 70
     0
280
     1
281
     0
  0
BLOCK_RECORD
  5
2D6
330
1
100
AcDbSymbolTableRecord
100
AcDbBlockTableRecord
  2
*Paper_Space0
340
2D7
 70
     0
280
     1
281
     0
  0
BLOCK_RECORD
  5
2C9
330
1
100
AcDbSymbolTableRecord
100
AcDbBlockTableRecord
  2
*Paper_Space12
340
2CA
 70
     0
280
     1
281
     0
  0
ENDTAB
  0
ENDSEC
  0
SECTION
  2
BLOCKS
  0
BLOCK
  5
20
330
1F
100
AcDbEntity
  8
0
100
AcDbBlockBegin
  2
*Model_Space
 70
     0
 10
0.0
 20
0.0
 30
0.0
  3
*Model_Space
  1

  0
ENDBLK
  5
21
330
1F
100
AcDbEntity
  8
0
100
AcDbBlockEnd
  0
BLOCK
  5
2E3
330
2E1
100
AcDbEntity
 67
     1
  8
0
 48
0.25
100
AcDbBlockBegin
  2
*Paper_Space
 70
     0
 10
0.0
 20
0.0
 30
0.0
  3
*Paper_Space
  1

  0
ENDBLK
  5
2E4
330
2E1
100
AcDbEntity
 67
     1
  8
0
 48
0.25
100
AcDbBlockEnd
  0
BLOCK
  5
2D8
330
2D6
100
AcDbEntity
  8
0
 48
0.25
100
AcDbBlockBegin
  2
*Paper_Space0
 70
     0
 10
0.0
 20
0.0
 30
0.0
  3
*Paper_Space0
  1

  0
VIEWPORT
  5
2DE
330
2D6
100
AcDbEntity
  8
0
 48
0.25
100
AcDbViewport
 10
136.5250091552734
 20
100.8062472343445
 30
0.0
 40
390.658451146857
 41
228.4221935424805
 68
     1
 69
     1
 12
136.5250091552734
 22
100.8062472343445
 13
0.0
 23
0.0
 14
10.0
 24
10.0
 15
10.0
 25
10.0
 16
0.0
 26
0.0
 36
1.0
 17
0.0
 27
0.0
 37
0.0
 42
50.0
 43
0.0
 44
0.0
 45
228.4221935424805
 50
0.0
 51
0.0
 72
  1000
 90
    32800
  1

281
     0
 71
     1
 74
     0
110
0.0
120
0.0
130
0.0
111
1.0
121
0.0
131
0.0
112
0.0
122
1.0
132
0.0
 79
     0
146
0.0
170
     0
 61
     5
348
2F1
292
     1
282
     1
141
0.0
142
0.0
 63
   256
  0
VIEWPORT
  5
2E0
330
2D6
100
AcDbEntity
  8
Drawing
 48
0.25
100
AcDbViewport
 10
136.5297409487883
 20
100.8014036579132
 30
0.0
 40
209.8463317871094
 41
161.2900051116943
 68
     2
 69
     2
 12
814.0499664740379
 22
739.6042292247587
 13
0.0
 23
0.0
 14
10.0
 24
10.0
 15
10.0
 25
10.0
 16
0.0
 26
0.0
 36
1.0
 17
0.0
 27
0.0
 37
0.0
 42
50.0
 43
0.0
 44
0.0
 45
638.2286121154958
 50
0.0
 51
0.0
 72
  1000
 90
    32864
  1

281
     0
 71
     1
 74
     0
110
0.0
120
0.0
130
0.0
111
1.0
121
0.0
131
0.0
112
0.0
122
1.0
132
0.0
 79
     0
146
0.0
170
     0
 61
     5
348
2F1
292
     1
282
     1
141
0.0
142
0.0
 63
   256
  0
ENDBLK
  5
2D9
330
2D6
100
AcDbEntity
  8
0
 48
0.25
100
AcDbBlockEnd
  0
BLOCK
  5
2CB
330
2C9
100
AcDbEntity
  8
0
 48
0.25
100
AcDbBlockBegin
  2
*Paper_Space12
 70
     0
 10
0.0
 20
0.0
 30
0.0
  3
*Paper_Space12
  1

  0
VIEWPORT
  5
2D1
330
2C9
100
AcDbEntity
  8
0
 48
0.25
100
AcDbViewport
 10
134.1035723009653
 20
95.55980102112085
 30
0.0
 40
390.658450964944
 41
228.422193436114
 68
     1
 69
     1
 12
134.1035723009653
 22
95.55980102112085
 13
0.0
 23
0.0
 14
10.0
 24
10.0
 15
10.0
 25
10.0
 16
0.0
 26
0.0
 36
1.0
 17
0.0
 27
0.0
 37
0.0
 42
50.0
 43
0.0
 44
0.0
 45
228.422193436114
 50
0.0
 51
0.0
 72
  1000
 90
    32800
  1

281
     0
 71
     1
 74
     0
110
0.0
120
0.0
130
0.0
111
1.0
121
0.0
131
0.0
112
0.0
122
1.0
132
0.0
 79
     0
146
0.0
170
     0
 61
     5
348
2F1
292
     1
282
     1
141
0.0
142
0.0
 63
   256
  0
VIEWPORT
  5
2D3
330
2C9
100
AcDbEntity
  8
Drawing
 48
0.25
100
AcDbViewport
 10
131.1539573669434
 20
100.806253194809
 30
0.0
 40
209.8463317871094
 41
161.2900051116943
 68
     2
 69
     2
 12
809.9779216371128
 22
643.694780646151
 13
0.0
 23
0.0
 14
10.0
 24
10.0
 15
10.0
 25
10.0
 16
0.0
 26
0.0
 36
1.0
 17
0.0
 27
0.0
 37
0.0
 42
50.0
 43
0.0
 44
0.0
 45
425.5563660904542
 50
0.0
 51
0.0
 72
  1000
 90
    32864
  1

281
     0
 71
     1
 74
     0
110
0.0
120
0.0
130
0.0
111
1.0
121
0.0
131
0.0
112
0.0
122
1.0
132
0.0
 79
     0
146
0.0
170
     0
 61
     5
348
2F1
292
     1
282
     1
141
0.0
142
0.0
 63
   256
  0
ENDBLK
  5
2CC
330
2C9
100
AcDbEntity
  8
0
 48
0.25
100
AcDbBlockEnd
  0
ENDSEC
  0
SECTION
  2
ENTITIES
  0
IMAGE
  5
85
330
1F
100
AcDbEntity
  8
0
 62
     7
160
               140
310
8C00000001000000840000000600000005000000D8D15A3E176A8540E6680703DD078340000000000000000020B3D552C5418F40E6680703DD078340000000000000000020B3D552C5418F40EC9DAAB2F67790400000000000000000D8D15A3E176A8540EC9DAAB2F67790400000000000000000D8D15A3E176A8540E66807
310
03DD0783400000000000000000
100
AcDbRasterImage
 90
        0
 10
685.2613494010247
 20
608.9829159335029
 30
0.0
 11
0.127
 21
0.0
 31
0.0
 12
7.776250346772096E-18
 22
0.127
 32
0.0
 13
2480.0
 23
3504.0
340
83
 70
     7
280
     0
281
    50
282
    50
283
     0
360
84
 71
     1
 91
        2
 14
-0.5
 24
-0.5
 14
2479.5
 24
3503.5
290
     0
  0
IMAGE
  5
88
330
1F
100
AcDbEntity
  8
0
 62
     7
160
               140
310
8C0000000100000084000000060000000500000004254E825BFF85405A7CDC0D7B937A4000000000000000007237D14226618E405A7CDC0D7B937A4000000000000000007237D14226618E405C1B138D3E9F8240000000000000000004254E825BFF85405C1B138D3E9F8240000000000000000004254E825BFF85405A7CDC
310
0D7B937A400000000000000000
100
AcDbRasterImage
 90
        0
 10
703.9196821312948
 20
425.2175425160145
 30
0.0
 11
0.127
 21
0.0
 31
0.0
 12
7.776250346772096E-18
 22
0.127
 32
0.0
 13
2112.0
 23
1344.0
340
86
 70
     7
280
     0
281
    50
282
    50
283
     0
360
87
 71
     1
 91
        2
 14
-0.5
 24
-0.5
 14
2111.5
 24
1343.5
290
     0
  0
LWPOLYLINE
  5
8A
330
1F
100
AcDbEntity
  8
Drawing
 62
     7
100
AcDbPolyline
 90
       18
 70
     1
 43
0.0
 10
747.112613779273
 20
657.0350110735565
 10
747.981781990206
 20
654.9724464790131
 10
748.4163660956724
 20
654.2125563434734
 10
750.1547025175396
 20
653.9954439336391
 10
751.6214253489757
 20
653.9954439336391
 10
752.83623529542
 20
654.399820497857
 10
753.0651895991832
 20
655.5436440456451
 10
752.6072809916554
 20
657.1831241342531
 10
752.1875284837806
 20
657.7931626999648
 10
751.8059379775059
 20
659.4707712298293
 10
751.1190750662136
 20
660.3858307278354
 10
749.7835053432818
 20
660.1951951193105
 10
749.0966424319895
 20
659.6232816959769
 10
748.5624157232073
 20
659.3945176461948
 10
747.608436506549
 20
659.3945176461948
 10
746.7689373927465
 20
659.4707712298293
 10
746.8834115936538
 20
657.8694195824778
 10
747.0742097977654
 20
657.2212525755103
  0
LWPOLYLINE
  5
8B
330
1F
100
AcDbEntity
  8
Drawing
 62
     7
100
AcDbPolyline
 90
       23
 70
     1
 43
0.0
 10
761.1315366145304
 20
642.410777823254
 10
764.6421751741964
 20
644.4696608690481
 10
766.5882897071647
 20
645.0797027336382
 10
767.8093793272405
 20
645.8803802067532
 10
768.6107223413901
 20
646.7191828222462
 10
769.6791757589558
 20
645.6134877157153
 10
770.3660386702481
 20
643.4783477874075
 10
770.5949929740127
 20
641.2669542754666
 10
770.8621092793774
 20
639.7037277704924
 10
770.7476291765215
 20
638.4455221978133
 10
768.1909698335139
 20
637.4160806749162
 10
765.6724724921091
 20
636.2722571271281
 10
764.5276950713392
 20
635.7003437037952
 10
763.9171502613012
 20
635.6622185614171
 10
762.8868529433885
 20
636.2341286858716
 10
762.3907882362078
 20
636.6916600843142
 10
761.093374612929
 20
637.3779522336597
 10
760.6736280070013
 20
637.7973551908458
 10
760.5973099057469
 20
638.7505431301083
 10
760.2920375007279
 20
639.4749637207103
 10
759.9486030941075
 20
640.5806621261211
 10
760.1012392966177
 20
641.3432111579796
 10
760.6736280070013
 20
642.1820137734726
  0
LWPOLYLINE
  5
8C
330
1F
100
AcDbEntity
  8
Drawing
 62
     7
100
AcDbPolyline
 90
       27
 70
     1
 43
0.0
 10
774.5635401412064
 20
643.5164762286647
 10
775.2885650541002
 20
645.6134877157153
 10
777.1965175854684
 20
646.4904187724649
 10
778.7610416121634
 20
646.8335648471373
 10
780.7453181467358
 20
646.7191828222462
 10
782.3479982730837
 20
646.6048007973559
 10
783.5309317935066
 20
646.1853978401698
 10
784.5993852110723
 20
645.2322131997857
 10
785.667838628638
 20
643.5164762286647
 10
786.3165454402774
 20
641.3813363003569
 10
787.0034083515698
 20
639.8181097953834
 10
786.7362920462051
 20
639.1318176460379
 10
785.2862481223647
 20
637.3398270912824
 10
784.217794704799
 20
636.6154032018012
 10
782.8440688822143
 20
636.1578751022378
 10
780.401883740114
 20
636.2722571271281
 10
777.9978605996166
 20
636.3103855683853
 10
776.2043822691571
 20
636.3866391520191
 10
774.3727478390433
 20
636.7679136679487
 10
773.6858790258025
 20
637.2254417675122
 10
773.4569247220379
 20
637.5685911410637
 10
772.808223812347
 20
638.1405012655182
 10
772.846379912
 20
638.8649251549994
 10
773.0753342157645
 20
639.9324951191529
 10
773.8766772299141
 20
640.8094261759024
 10
774.1819496349317
 20
641.6482287913955
 10
774.4872220399507
 20
642.9064376629531
  0
LWPOLYLINE
  5
8D
330
1F
100
AcDbEntity
  8
Drawing
 62
     7
100
AcDbPolyline
 90
        6
 70
     0
 43
0.0
 10
774.1056315336773
 20
641.5719752077609
 10
780.707156145133
 20
640.6569157097549
 10
782.8822249818672
 20
640.3137696350825
 10
784.5230671098179
 20
640.0087487027874
 10
786.0494291349114
 20
639.7418562117489
 10
786.9270902503154
 20
639.5893457456013
  0
LWPOLYLINE
  5
8E
330
1F
100
AcDbEntity
  8
Drawing
 62
     7
100
AcDbPolyline
 90
       22
 70
     1
 43
0.0
 10
770.028990172339
 20
632.0508798499559
 10
771.9369427037072
 20
633.1947033977433
 10
773.2343504250375
 20
633.1947033977433
 10
774.1501735420429
 20
633.7666168210769
 10
774.6844002508251
 20
633.804741963455
 10
775.5620554642805
 20
633.5759779136729
 10
776.0962880750126
 20
633.0040677892184
 10
776.8976251872123
 20
631.5933484515133
 10
777.2028975922312
 20
630.8307994196548
 10
776.5160346809389
 20
629.7632327543797
 10
775.6765355671364
 20
629.0006837225212
 10
775.2567830592616
 20
628.2762598330401
 10
774.8751925529882
 20
628.047495783258
 10
774.4936020467148
 20
627.971238900745
 10
773.3106685262919
 20
628.5431523240786
 10
771.4027159949237
 20
628.8481732563737
 10
770.639534982377
 20
629.1913193310461
 10
769.9908281707376
 20
629.5344654057192
 10
769.4947634635569
 20
630.0301252454183
 10
769.1131670553336
 20
630.6401638111292
 10
769.2276471581908
 20
631.2502023768402
 10
769.8381919682288
 20
631.7458589176608
  0
LWPOLYLINE
  5
8F
330
1F
100
AcDbEntity
  8
Drawing
 62
     7
100
AcDbPolyline
 90
        4
 70
     0
 43
0.0
 10
771.3263978936693
 20
632.8134288818144
 10
773.6541029329123
 20
631.7839873589173
 10
775.905489870901
 20
631.1358203519492
 10
777.2792156934856
 20
630.7545458360203
  0
LWPOLYLINE
  5
90
330
1F
100
AcDbEntity
  8
Drawing
 62
     7
100
AcDbPolyline
 90
        2
 70
     1
 43
0.0
 10
773.0817142225274
 20
631.4789664266223
 10
772.1277409078189
 20
630.1063788290521
  0
LWPOLYLINE
  5
91
330
1F
100
AcDbEntity
  8
Drawing
 62
     7
100
AcDbPolyline
 90
        2
 70
     0
 43
0.0
 10
774.2264916432973
 20
631.9364978250649
 10
775.1041468567528
 20
632.8134288818144
  0
LWPOLYLINE
  5
92
330
1F
100
AcDbEntity
  8
Drawing
 62
     7
100
AcDbPolyline
 90
        3
 70
     0
 43
0.0
 10
772.1277409078189
 20
630.8689278609113
 10
772.089578906216
 20
630.1063788290521
 10
772.8146038191112
 20
630.1445072703093
  0
LWPOLYLINE
  5
93
330
1F
100
AcDbEntity
  8
Drawing
 62
     7
100
AcDbPolyline
 90
        2
 70
     0
 43
0.0
 10
775.1041468567528
 20
632.7753004405579
 10
775.1041468567528
 20
632.0508798499559
  0
LWPOLYLINE
  5
94
330
1F
100
AcDbEntity
  8
Drawing
 62
     7
100
AcDbPolyline
 90
        2
 70
     0
 43
0.0
 10
775.0659907570998
 20
632.7753004405579
 10
774.0738554407885
 20
632.6990468569234
  0
LWPOLYLINE
  5
95
330
1F
100
AcDbEntity
  8
Drawing
 62
     7
100
AcDbPolyline
 90
       32
 70
     1
 43
0.0
 10
778.4812951361469
 20
629.9821727430726
 10
778.4812951361469
 20
631.5676996687848
 10
778.4384056734752
 20
632.4675942209135
 10
779.1246075664894
 20
633.324636337333
 10
780.4541277917974
 20
634.0531244455042
 10
781.09744022214
 20
634.4816455037139
 10
781.7836421151555
 20
634.6101995119623
 10
782.5127334708427
 20
634.5673470762531
 10
784.3569036404242
 20
633.924567138378
 10
785.3433199682495
 20
633.4103412087507
 10
787.8308084701221
 20
632.0390731627037
 10
790.1467391213055
 20
630.7963624237836
 10
791.7335843187502
 20
629.8536154359465
 10
792.4197862117658
 20
628.9108684481093
 10
792.4197862117658
 20
627.7967150163154
 10
791.1331554491308
 20
625.3969951110137
 10
790.4898430187882
 20
623.9828779281368
 10
789.6749727377551
 20
623.1258358117173
 10
787.7021400821045
 20
621.9688266453363
 10
786.6728401935561
 20
621.0689320932076
 10
785.3433199682495
 20
619.0548841092857
 10
784.4855661264933
 20
617.0836852621937
 10
784.0995786682874
 20
615.8409745232736
 10
783.7564747708047
 20
615.112489713981
 10
782.7700584429808
 20
614.8982275354365
 10
782.5985123961887
 20
614.855375099728
 10
781.9980835265692
 20
616.6980166396932
 10
780.9258882733993
 20
620.3832997196241
 10
780.1110238943147
 20
622.9972785045911
 10
779.2961595152315
 20
625.5255524181405
 10
778.9530556177488
 20
626.9396728998959
 10
778.6528470848889
 20
628.996573319527
  0
LWPOLYLINE
  5
96
330
1F
100
AcDbEntity
  8
Drawing
 62
     7
100
AcDbPolyline
 90
       18
 70
     1
 43
0.0
 10
772.1237157786677
 20
620.4482645399794
 10
771.5661763717198
 20
621.3910115278165
 10
771.3946244229792
 20
622.1194996359877
 10
770.7084225299636
 20
621.5624212706518
 10
769.8506686882074
 20
621.3910115278165
 10
769.2073562578648
 20
621.3910115278165
 10
768.8213628977105
 20
620.4911169756879
 10
768.9500312857281
 20
619.6340748592684
 10
769.1215773325202
 20
619.076999792811
 10
769.5933437160706
 20
618.9912949213933
 10
770.5797600438959
 20
618.5199214274751
 10
771.3946244229792
 20
618.3056592489306
 10
772.0808263159947
 20
618.2628068132215
 10
772.5097032368735
 20
618.2628068132215
 10
773.1101321064916
 20
618.5199214274751
 10
773.1530215691646
 20
619.076999792811
 10
772.4239302134774
 20
620.0625959174781
 10
772.0379427552716
 20
620.7053791542323
  0
LWPOLYLINE
  5
97
330
1F
100
AcDbEntity
  8
Drawing
 62
     7
100
AcDbPolyline
 90
       11
 70
     1
 43
0.0
 10
772.8528071343549
 20
620.1054483531873
 10
773.4103465413014
 20
620.79108402565
 10
773.8392234621801
 20
620.7053791542323
 10
774.5254253551957
 20
620.7053791542323
 10
775.0400752994692
 20
620.79108402565
 10
775.3402897342789
 20
620.3197105317311
 10
775.3402897342789
 20
619.891189473522
 10
774.9971917387461
 20
619.4198159796031
 10
774.4825358925227
 20
619.3769635438939
 10
773.2387945925607
 20
619.719779730686
 10
772.8099176716819
 20
620.0625959174781
  0
LWPOLYLINE
  5
99
330
1F
100
AcDbEntity
  8
Drawing
 62
     7
100
AcDbPolyline
 90
       21
 70
     1
 43
0.0
 10
792.738066512165
 20
639.3939267628057
 10
791.9168634399598
 20
641.0349705199685
 10
791.8484303424389
 20
642.0606249299947
 10
791.8484303424389
 20
642.3341316730418
 10
792.9433658047292
 20
642.607638416089
 10
794.1751733640099
 20
642.607638416089
 10
795.4754140208142
 20
642.470886694005
 10
796.2966170930181
 20
642.1290007910363
 10
797.1178201652233
 20
641.0349705199685
 10
797.5284187503516
 20
639.5990576448105
 10
797.5284187503516
 20
638.9836649987947
 10
797.0493870677024
 20
637.616127984679
 10
795.8860126059412
 20
636.6588494356952
 10
795.2016757287793
 20
635.9750809286377
 10
794.5857719491382
 20
635.9067050675953
 10
794.038307168968
 20
635.9067050675953
 10
793.4908364868479
 20
636.1802118106425
 10
792.8749327072069
 20
636.932356178743
 10
792.4643341220799
 20
637.5477488247582
 10
792.6012003171218
 20
638.6417790958267
 10
792.738066512165
 20
639.1887958808002
  0
LWPOLYLINE
  5
9A
330
1F
100
AcDbEntity
  8
Drawing
 62
     7
100
AcDbPolyline
 90
       16
 70
     1
 43
0.0
 10
788.2214466640635
 20
614.6414889933674
 10
788.2214466640635
 20
616.4192877714934
 10
788.2898797615844
 20
617.4449421815195
 10
788.7689173461822
 20
618.538972452588
 10
789.3848211258232
 20
618.7441033345929
 10
789.5901204183874
 20
618.8124791956352
 10
790.7534889781987
 20
618.6073483136297
 10
791.5746920504039
 20
618.538972452588
 10
793.0117989022501
 20
618.1970865496194
 10
794.038307168968
 20
618.1970865496194
 10
794.72264404613
 20
617.5133180425619
 10
793.0117989022501
 20
614.5047339724042
 10
791.0956603677546
 20
612.5901834721942
 10
790.7534889781987
 20
612.3166734302679
 10
789.0426497362687
 20
613.1371969582885
 10
788.7004842486613
 20
614.0260963473515
  0
LWPOLYLINE
  5
9B
330
1F
100
AcDbEntity
  8
Drawing
 62
     7
100
AcDbPolyline
 90
       15
 70
     1
 43
0.0
 10
794.5173388516173
 20
616.2141568894885
 10
796.0228788009845
 20
617.2398112995147
 10
798.2811887250346
 20
617.2398112995147
 10
798.4864939195486
 20
617.1714354384724
 10
798.8286594071546
 20
616.9663045564669
 10
798.2811887250346
 20
614.983374896336
 10
798.0074563349494
 20
613.7525896043044
 10
796.7072156781464
 20
613.5474587222996
 10
795.9544457034635
 20
612.795314354199
 10
795.8175795084203
 20
612.2482975692255
 10
795.4069809232919
 20
611.906414965136
 10
794.654210948609
 20
612.0431666872207
 10
793.764568876933
 20
613.6158345833412
 10
793.8330019744553
 20
615.5303883824304
 10
794.380472656574
 20
616.0774051674039
  0
LWPOLYLINE
  5
9C
330
1F
100
AcDbEntity
  8
Drawing
 62
     7
100
AcDbPolyline
 90
       36
 70
     1
 43
0.0
 10
800.2116630934138
 20
636.4598973536963
 10
799.9379307033287
 20
638.4428270138278
 10
799.9379307033287
 20
639.5368572848963
 10
799.9379307033287
 20
642.2035587509638
 10
800.0063638008496
 20
643.5027199040371
 10
800.0063638008496
 20
644.1181092511745
 10
800.6222616785421
 20
644.4599951541425
 10
801.4434706526959
 20
644.5283710151848
 10
802.6068392125071
 20
644.5283710151848
 10
803.7702136742682
 20
644.3916192931001
 10
804.6598498439944
 20
644.3232401331793
 10
805.2757536236354
 20
643.5710957650795
 10
805.4126198186773
 20
642.9557031190636
 10
806.1653897933616
 20
642.2035587509638
 10
806.9865928655654
 20
641.998427868959
 10
807.4656245482147
 20
641.6565419659903
 10
808.0130952303348
 20
639.1265955208853
 10
808.4236997174116
 20
636.1180147496068
 10
808.6289990099758
 20
633.2461824015338
 10
809.1080365945736
 20
631.4000077623655
 10
809.450202082181
 20
629.7589607063242
 10
809.450202082181
 20
629.075192199266
 10
808.5605659124549
 20
628.2546719701238
 10
805.8232184038056
 20
627.1606384001768
 10
804.7282829415153
 20
626.5452490530402
 10
802.333106822422
 20
626.066608129109
 10
801.9225023353451
 20
625.9298564070243
 10
801.032866165619
 20
626.408494032077
 10
800.416962385978
 20
626.408494032077
 10
799.8010586063369
 20
626.6820007751248
 10
799.3904600212086
 20
628.938440477182
 10
799.4588931187295
 20
630.0324707482505
 10
799.5957593137728
 20
631.8786453874181
 10
800.0063638008496
 20
633.3145615614546
 10
800.2800961909347
 20
633.7248233254656
 10
799.6641924112937
 20
635.0923603395806
  0
LWPOLYLINE
  5
9D
330
1F
100
AcDbEntity
  8
Drawing
 62
     7
100
AcDbPolyline
 90
       31
 70
     1
 43
0.0
 10
800.2835547329919
 20
617.2824328137069
 10
799.5307847583076
 20
621.3850471549324
 10
799.5307847583076
 20
623.5047318360264
 10
799.5307847583076
 20
624.5303829471741
 10
800.557287123077
 20
625.4192823362371
 10
801.5153563903241
 20
625.4192823362371
 10
802.8840301446494
 20
625.6927923781634
 10
805.3476393612636
 20
625.1457755931899
 10
807.1269176026658
 20
623.5731076970687
 10
808.632457552033
 20
622.2739465439954
 10
810.1379975014002
 20
620.2910168838639
 10
810.7538953790913
 20
618.9234798697482
 10
810.7538953790913
 20
618.1029563417276
 10
810.7538953790913
 20
616.9405502096174
 10
807.9481206748696
 20
613.8635869795389
 10
805.9635431409047
 20
611.6755264374026
 10
805.5529445557763
 20
610.9233820693028
 10
804.6633024841017
 20
610.6498753262549
 10
804.2527038989733
 20
611.1968888123499
 10
803.9105325094174
 20
611.9490364793289
 10
803.1577625347345
 20
611.9490364793289
 10
802.473431559521
 20
609.8293517982343
 10
802.473431559521
 20
608.5985665062033
 10
801.173190902718
 20
608.3934356241978
 10
800.4204209280338
 20
608.5301906451609
 10
800.0782495384792
 20
611.4020196943554
 10
799.941383343436
 20
612.0857882014129
 10
799.0517471737098
 20
613.3165734934439
 10
799.0517471737098
 20
615.0259964105283
 10
800.0782495384792
 20
616.1884025426384
 10
800.1466826360002
 20
617.0773019317014
  0
LWPOLYLINE
  5
9E
330
1F
100
AcDbEntity
  8
Drawing
 62
     7
100
AcDbPolyline
 90
       24
 70
     1
 43
0.0
 10
811.4184961391243
 20
625.3516850105937
 10
811.3105140820094
 20
628.4418998368415
 10
811.3789471795303
 20
629.6726851288724
 10
810.6946103023683
 20
631.655614789004
 10
810.6946103023683
 20
632.2710074350198
 10
810.7630433998906
 20
633.6385444491355
 10
811.8579788621796
 20
633.6385444491355
 10
813.5003909085385
 20
632.4761383170246
 10
815.8271339301109
 20
630.5615845179354
 10
817.401106976999
 20
630.1513227539251
 10
819.1119462189304
 20
629.6726851288724
 10
820.0700154861788
 20
629.6726851288724
 10
820.8227854608617
 20
629.3991750869461
 10
820.8227854608617
 20
628.5786548578046
 10
821.3018230454595
 20
626.45897017671
 10
821.3018230454595
 20
625.7752016696525
 10
819.1119462189304
 20
623.2452552245475
 10
817.6748393670855
 20
621.7409631894686
 10
815.484962540555
 20
619.3477717653268
 10
814.0478556887101
 20
618.3904965152221
 10
813.3635188115468
 20
617.9118588901695
 10
812.6791878363347
 20
617.9118588901695
 10
811.7895457646587
 20
620.2366711543898
 10
811.3789471795303
 20
624.9546781416311
  0
LWPOLYLINE
  5
A0
330
1F
100
AcDbEntity
  8
Drawing
 62
     7
100
AcDbPolyline
 90
       23
 70
     1
 43
0.0
 10
806.4965009306738
 20
647.4682097498733
 10
806.0387693816119
 20
649.4500507799985
 10
806.0387693816119
 20
650.4409712950608
 10
807.411952224898
 20
651.5843395975733
 10
807.9459664635206
 20
652.1179134514064
 10
809.3954378983171
 20
652.5752601126355
 10
810.0057407284489
 20
653.0326100727439
 10
810.7686207416032
 20
654.0997544815309
 10
812.3706693594195
 20
653.7186317140272
 10
813.3624092451541
 20
653.2612817539189
 10
813.667563611195
 20
650.8983179562899
 10
813.8201348922662
 20
648.6878052449897
 10
813.9727120752859
 20
646.4010653410862
 10
814.125289258307
 20
644.4954482046865
 10
814.125289258307
 20
643.7332026696777
 10
814.125289258307
 20
642.8947299420656
 10
813.3624092451541
 20
642.4373832808365
 10
813.0572548791133
 20
642.361159387111
 10
810.5397549670715
 20
643.0471810283943
 10
808.8614236596945
 20
644.2667765235108
 10
807.9459664635206
 20
644.7241231847399
 10
807.1830923523162
 20
645.2576970385737
 10
806.4965009306738
 20
646.7059642148652
  0
LWPOLYLINE
  5
A1
330
1F
100
AcDbEntity
  8
Drawing
 62
     7
100
AcDbPolyline
 90
        5
 70
     0
 43
0.0
 10
809.700592264358
 20
652.7277111989642
 10
810.6966936903314
 20
650.8010571124094
 10
811.7506991369851
 20
648.9956896040899
 10
812.8423472137356
 20
647.8673377979087
 10
813.8201348922662
 20
647.1633108760943
  0
LWPOLYLINE
  5
A2
330
1F
100
AcDbEntity
  8
Drawing
 62
     7
100
AcDbPolyline
 90
        2
 70
     0
 43
0.0
 10
811.2236964136582
 20
650.1616552264331
 10
812.4282723807046
 20
651.1019511473164
  0
LWPOLYLINE
  5
A3
330
1F
100
AcDbEntity
  8
Drawing
 62
     7
100
AcDbPolyline
 90
        3
 70
     0
 43
0.0
 10
811.5248374544449
 20
651.1771754807628
 10
812.4659150108027
 20
651.1019511473164
 10
812.3153444904101
 20
650.2368795598795
  0
LWPOLYLINE
  5
A4
330
1F
100
AcDbEntity
  8
Drawing
 62
     7
100
AcDbPolyline
 90
       10
 70
     1
 43
0.0
 10
816.7117475413215
 20
651.1435335146843
 10
817.1449741985407
 20
653.3078850148315
 10
818.3363593097911
 20
653.5243211545101
 10
820.3941977354798
 20
652.3339273345975
 10
821.5855828467302
 20
650.9270973750058
 10
821.1523502875625
 20
648.9791787156587
 10
819.527738519093
 20
648.4380900159019
 10
817.6865134220138
 20
648.3298735955022
 10
816.7117475413215
 20
648.8709622952583
 10
816.386821646458
 20
650.3860086752497
  0
LWPOLYLINE
  5
A5
330
1F
100
AcDbEntity
  8
Drawing
 62
     7
100
AcDbPolyline
 90
       18
 70
     1
 43
0.0
 10
810.6465271246625
 20
639.9971135572334
 10
813.5708306686865
 20
641.9450322165812
 10
814.8705165422939
 20
642.486120916338
 10
816.386821646458
 20
642.3779011970591
 10
817.6865134220138
 20
638.6985033169206
 10
818.8778926313144
 20
636.2094959578167
 10
819.4194318547875
 20
633.7204918975913
 10
819.8526585120067
 20
632.2054422187214
 10
819.8526585120067
 20
631.4479206781652
 10
819.4194318547875
 20
631.3397009588864
 10
818.3363593097911
 20
631.3397009588864
 10
815.5203624300711
 20
633.1794031978345
 10
813.354217340077
 20
633.7204918975913
 10
811.1880663481356
 20
634.8026659982256
 10
809.3468412510565
 20
636.7505846575734
 10
809.238534586751
 20
638.1574146171645
 10
809.3468412510565
 20
639.2395920166773
 10
810.6465271246625
 20
639.9971135572334
  0
LWPOLYLINE
  5
A6
330
1F
100
AcDbEntity
  8
Drawing
 62
     7
100
AcDbPolyline
 90
        5
 70
     1
 43
0.0
 10
809.8883745725798
 20
634.9108857175038
 10
809.021915356193
 20
634.8026659982256
 10
809.021915356193
 20
633.7204918975913
 10
809.5634545796661
 20
633.7204918975913
 10
810.2133004674433
 20
634.6944495778253
  0
LWPOLYLINE
  5
A7
330
1F
100
AcDbEntity
  8
Drawing
 62
     7
100
AcDbPolyline
 90
       21
 70
     1
 43
0.0
 10
822.1271161682548
 20
647.4641323356673
 10
825.1597263765843
 20
646.1655187964759
 10
827.8674106900503
 20
645.6244333955983
 10
829.2754091299103
 20
641.620379656503
 10
831.441560121853
 20
638.4820671772427
 10
833.2827852189321
 20
636.2094959578167
 10
834.9073969874016
 20
634.4780134381474
 10
834.9073969874016
 20
633.828708317991
 10
831.549866786157
 20
631.8807896586432
 10
828.9504891369952
 20
630.6903958387306
 10
825.9178789286657
 20
629.9328742981745
 10
823.5351146081148
 20
629.3917855984178
 10
822.8852687203362
 20
629.3917855984178
 10
820.8274302946475
 20
633.5040557579127
 10
819.6360451833971
 20
636.4259320974952
 10
818.4446659740952
 20
640.8628548170684
 10
818.119740079233
 20
645.5162136763195
 10
818.3363593097911
 20
647.139479775589
 10
819.527738519093
 20
647.4641323356673
 10
820.2858910711757
 20
647.7887848957455
 10
821.1523502875625
 20
647.6805684753458
  0
LWPOLYLINE
  5
A8
330
1F
100
AcDbEntity
  8
Drawing
 62
     7
100
AcDbPolyline
 90
       12
 70
     1
 43
0.0
 10
827.0009514736635
 20
650.0613561151715
 10
828.8421765707426
 20
650.9270973750058
 10
830.3584816749067
 20
650.9270973750058
 10
831.549866786157
 20
651.1435335146843
 10
831.8747867790721
 20
650.0613561151715
 10
831.7664801147666
 20
648.1134374558237
 10
830.6834075697702
 20
646.7066074962327
 10
828.625563242133
 20
647.0312600563109
 10
828.0840240186599
 20
647.2476961959887
 10
826.3511055858849
 20
647.2476961959887
 10
825.1597263765843
 20
648.7627425759802
 10
826.1344922572753
 20
649.5202674154148
  0
LWPOLYLINE
  5
A9
330
1F
100
AcDbEntity
  8
Drawing
 62
     7
100
AcDbPolyline
 90
       21
 70
     1
 43
0.0
 10
833.0661718903225
 20
647.8970013161452
 10
832.5246326668494
 20
650.710661235328
 10
831.8747867790721
 20
652.4421437549972
 10
832.4163260025452
 20
653.8489737145883
 10
834.474164428234
 20
654.2818426950662
 10
836.3153895253131
 20
654.2818426950662
 10
837.9400012937826
 20
653.4161014352319
 10
839.3479997336426
 20
652.2257076153187
 10
840.2144589500294
 20
649.844919975493
 10
840.539384844893
 20
647.3559126163891
 10
840.9726115021122
 20
644.7586921357633
 10
840.7559981735026
 20
641.9450322165812
 10
839.9978456214199
 20
639.4560248574767
 10
838.698153845864
 20
637.8327620570863
 10
837.398467972258
 20
636.9670207972513
 10
836.6403154201753
 20
636.8588010779731
 10
835.5572428751789
 20
637.2916733573295
 10
833.7160118761512
 20
640.3217661173117
 10
832.6329393311548
 20
642.2696847766595
 10
832.6329393311548
 20
644.7586921357633
 10
832.9578593240685
 20
646.598391075833
  0
LWPOLYLINE
  5
AA
330
1F
100
AcDbEntity
  8
Drawing
 62
     7
100
AcDbPolyline
 90
       31
 70
     1
 43
0.0
 10
827.7821334303621
 20
625.661232004612
 10
830.4898177438281
 20
624.7954907447777
 10
832.0061228479935
 20
622.5229228242308
 10
834.2805746022918
 20
621.6571815643958
 10
835.5802663778463
 20
621.3325290043176
 10
836.9882648177063
 20
620.7914403045609
 10
838.8294899147854
 20
619.9256990447266
 10
840.5624083475604
 20
620.0339154651263
 10
840.9956409067281
 20
618.0859968057784
 10
839.8042557954777
 20
615.0559040457963
 10
837.3131848106214
 20
613.7572938054841
 10
836.013498937014
 20
612.5668966866924
 10
834.3888871685444
 20
609.64502034711
 10
833.6307346164631
 20
608.8874988065538
 10
832.7642754000749
 20
608.0217575467195
 10
832.2227361766031
 20
608.0217575467195
 10
830.1648918489645
 20
609.3203677870317
 10
828.1070534232758
 20
609.3203677870317
 10
826.1575216618926
 20
609.64502034711
 10
825.0744432149463
 20
610.6189813262231
 10
825.3993691098099
 20
614.190162785962
 10
823.8830640056444
 20
616.2462978657095
 10
822.5833722300899
 20
617.7613442457002
 10
822.1501455728708
 20
618.7353052248134
 10
822.4750655657845
 20
619.8174793254477
 10
821.7169130137031
 20
621.6571815643958
 10
821.7169130137031
 20
623.6050969248645
 10
822.3667589014804
 20
624.4708381846995
 10
823.8830640056444
 20
624.4708381846995
 10
824.9661365506422
 20
625.0119268844562
 10
825.832595767029
 20
625.7694517238908
  0
LWPOLYLINE
  5
AB
330
1F
100
AcDbEntity
  8
Drawing
 62
     7
100
AcDbPolyline
 90
        4
 70
     0
 43
0.0
 10
825.9409024313331
 20
625.8776681442905
 10
825.1827498792518
 20
626.9598455438033
 10
825.0744432149463
 20
628.0420229433169
 10
824.6412165577271
 20
629.6652857437073
  0
LWPOLYLINE
  5
AC
330
1F
100
AcDbEntity
  8
Drawing
 62
     7
100
AcDbPolyline
 90
        2
 70
     0
 43
0.0
 10
831.3562769602149
 20
623.4968805044648
 10
832.8725820643804
 20
625.2283630241341
  0
LWPOLYLINE
  5
AD
330
1F
100
AcDbEntity
  8
Drawing
 62
     7
100
AcDbPolyline
 90
        2
 70
     0
 43
0.0
 10
833.1975020572941
 20
631.1803321236987
 10
832.8725820643804
 20
632.2625095232115
  0
LWPOLYLINE
  5
AE
330
1F
100
AcDbEntity
  8
Drawing
 62
     7
100
AcDbPolyline
 90
       32
 70
     1
 43
0.0
 10
833.2995821655072
 20
631.1186859754234
 10
834.4753153082688
 20
632.1332528537775
 10
836.3992503172649
 20
632.9876261772422
 10
837.3077727234777
 20
634.6963662264125
 10
838.5369480135496
 20
635.6041385011333
 10
839.6057968616919
 20
637.3662775015605
 10
839.8730135001892
 20
637.9002604163657
 10
841.1556309375701
 20
638.0604539712558
 10
841.7969426072355
 20
638.2206508250244
 10
843.1330080938751
 20
637.6332689589631
 10
844.4690676785649
 20
636.1381181170593
 10
845.8051331652046
 20
634.1089876592303
 10
846.4464448348699
 20
632.453643262437
 10
846.7136555714187
 20
630.0507234446916
 10
846.5533291294892
 20
627.2206186146541
 10
846.3395546383022
 20
623.9633254734454
 10
846.2861124909919
 20
622.4681779304208
 10
845.591364575966
 20
621.0264260397739
 10
844.3087412366367
 20
620.545842076225
 10
843.2398923884944
 20
620.3856452224557
 10
842.010711196474
 20
621.0264260397739
 10
840.9418623483316
 20
621.5070100033229
 10
838.7507166027881
 20
621.079821692151
 10
837.2008884288584
 20
621.5070100033229
 10
835.971707236838
 20
622.147787521762
 10
834.7959740940764
 20
623.1089554488599
 10
833.8340095405533
 20
623.8031319185552
 10
832.9254871343392
 20
625.1380859066896
 10
832.4445019066034
 20
627.1138207121417
 10
832.1772911700559
 20
628.5021736515323
 10
832.7117126431522
 20
630.1575180483255
 10
833.2995821655072
 20
631.0652903230464
  0
LWPOLYLINE
  5
AF
330
1F
100
AcDbEntity
  8
Drawing
 62
     7
100
AcDbPolyline
 90
       45
 70
     1
 43
0.0
 10
849.3030235152419
 20
631.2250814147214
 10
851.6544957027136
 20
633.2542118725512
 10
854.2731786267354
 20
636.3513114588704
 10
855.1817010329482
 20
638.0600515080414
 10
855.7161225060445
 20
638.5406354715903
 10
856.4643184703291
 20
638.5406354715903
 10
857.1056301399944
 20
639.0212194351393
 10
857.4797251711625
 20
639.9289917098595
 10
858.3348054300664
 20
639.7687948560908
 10
860.9534942560354
 20
638.2736440141871
 10
862.7705390684623
 20
636.8318954224194
 10
864.3203731443405
 20
635.8173285440653
 10
865.1754534032443
 20
634.9629552206006
 10
866.2443022513867
 20
634.161984147272
 10
866.8321717737417
 20
633.7347958361001
 10
867.4200353941483
 20
633.4678076775767
 10
868.5423322915494
 20
632.9338247627709
 10
869.3439645011945
 20
632.1328503905631
 10
870.0921604654791
 20
631.3318793172339
 10
869.8783918762406
 20
628.6619680420865
 10
869.6111811396918
 20
626.3658428279757
 10
868.7026587334776
 20
623.8027294553408
 10
868.1147892111226
 20
622.307578613437
 10
867.366593246838
 20
620.3852427592412
 10
866.725281577174
 20
619.1570866736199
 10
865.4426641397931
 20
617.5017389779475
 10
864.6944681755085
 20
616.4871753984719
 10
864.21247371451
 20
615.7208953346822
 10
863.5177198975357
 20
614.2257477916576
 10
863.2505032590384
 20
614.0121519866327
 10
861.4869005939204
 20
616.0946846945972
 10
859.8836243707333
 20
617.4830376339878
 10
858.8147755225909
 20
619.4587724394405
 10
856.997730710164
 20
621.1675124886108
 10
854.8065849646205
 20
622.395671873112
 10
852.5620029737165
 20
623.5704323063562
 10
851.9741334513615
 20
623.7840248125026
 10
851.0121688978384
 20
624.3180077273078
 10
849.943320049696
 20
624.6383981359666
 10
848.9279133488626
 20
625.1189820995155
 10
848.0193850407
 20
625.4393725081743
 10
847.6987321568422
 20
625.973352124101
 10
847.3246371256741
 20
628.1626794356994
 10
848.3934859738165
 20
629.7646248812364
 10
849.1951240854114
 20
630.8859896621029
  0
LWPOLYLINE
  5
B0
330
1F
100
AcDbEntity
  8
Drawing
 62
     7
100
AcDbPolyline
 90
       31
 70
     1
 43
0.0
 10
840.964974380232
 20
613.6383659255962
 10
842.8889034872782
 20
615.7742942859384
 10
844.3318532685371
 20
616.4684707556337
 10
845.9885716390345
 20
617.3762397314754
 10
847.4315214202934
 20
618.711197018489
 10
849.1416819381011
 20
620.313142464026
 10
850.3174150808627
 20
621.3277093423801
 10
850.7984003085985
 20
621.7014954034166
 10
852.348234384478
 20
621.8616922571853
 10
852.8826558575743
 20
621.3277093423801
 10
854.1652791969036
 20
620.4199403665384
 10
854.7531428173102
 20
619.832558500477
 10
855.9288818620216
 20
618.1772141036831
 10
856.8374042682344
 20
616.5218697068899
 10
857.3183835940217
 20
615.3471092736456
 10
857.3183835940217
 20
613.3713744681936
 10
856.6236356789959
 20
612.0898161324369
 10
854.6997006700012
 20
610.1140846258634
 10
853.2567567906908
 20
609.7936942172046
 10
851.1724953397666
 20
609.7936942172046
 10
849.7829936077665
 20
609.7936942172046
 10
849.0882397907922
 20
610.0606856746072
 10
848.126275237269
 20
610.2208792294973
 10
847.2177469291064
 20
610.7014631930463
 10
846.8436518979383
 20
611.2888450591076
 10
846.0954559336537
 20
611.7160300714004
 10
845.4007021166794
 20
612.0898161324369
 10
843.7974258934923
 20
612.5704000959859
 10
842.8354613399692
 20
612.8373915533884
 10
841.9803810810654
 20
613.104383010791
 10
840.964974380232
 20
613.5315680230838
  0
LWPOLYLINE
  5
B1
330
1F
100
AcDbEntity
  8
Drawing
 62
     7
100
AcDbPolyline
 90
       11
 70
     0
 43
0.0
 10
840.8046479383038
 20
613.58496697434
 10
840.1633362686384
 20
614.0121519866327
 10
841.4994017552781
 20
615.560701779792
 10
843.2095622730858
 20
616.8422601155494
 10
845.133491380132
 20
618.2840120061962
 10
846.3626666702025
 20
619.832558500477
 10
847.9125007460807
 20
621.1675124886108
 10
848.3934859738165
 20
621.6480964521597
 10
849.5157769692692
 20
622.0218858120754
 10
851.4931541255742
 20
621.9684868608192
 10
851.8672491567422
 20
621.808293305929
  0
LWPOLYLINE
  5
B2
330
1F
100
AcDbEntity
  8
Drawing
 62
     7
100
AcDbPolyline
 90
        2
 70
     0
 43
0.0
 10
847.0039783398679
 20
618.4976045123426
 10
846.148898080964
 20
619.1917809820379
  0
LWPOLYLINE
  5
B3
330
1F
100
AcDbEntity
  8
Drawing
 62
     7
100
AcDbPolyline
 90
        3
 70
     0
 43
0.0
 10
846.8436518979383
 20
619.1383820307817
 10
846.2023402282744
 20
619.1383820307817
 10
846.2023402282744
 20
618.4976045123426
  0
LWPOLYLINE
  5
B4
330
1F
100
AcDbEntity
  8
Drawing
 62
     7
100
AcDbPolyline
 90
       31
 70
     1
 43
0.0
 10
866.0829606742459
 20
616.3616761520004
 10
866.9380409331498
 20
618.4442055610864
 10
867.8465633393639
 20
619.7257605979639
 10
868.2741005178409
 20
620.7937264275749
 10
869.2895131206228
 20
621.3277093423801
 10
870.0911453302679
 20
621.2209114398677
 10
873.1373713347152
 20
619.9393564029895
 10
876.076713044542
 20
618.4976045123426
 10
878.5350636246858
 20
616.9490547191826
 10
879.3901438835883
 20
616.4684707556337
 10
880.4055564863702
 20
615.2937103223894
 10
881.100304401396
 20
614.1189498891451
 10
880.7796515175382
 20
612.3568075898395
 10
880.4589986336805
 20
610.9684546504488
 10
879.283259588969
 20
609.4733038085458
 10
877.84031570966
 20
608.5121358814479
 10
877.6265412184716
 20
606.5898033261305
 10
877.2524461873036
 20
605.6820310514104
 10
876.6111345176396
 20
605.3616439416301
 10
875.7026121114254
 20
605.3616439416301
 10
875.0613004417601
 20
605.4150395940071
 10
874.2596623301665
 20
606.4296064723619
 10
874.1527780355473
 20
608.3519423265577
 10
872.8701605981664
 20
609.6335006623144
 10
871.1065579330498
 20
610.5412696381561
 10
869.7704924464101
 20
611.3956396627416
 10
868.3275426651498
 20
612.8373915533884
 10
867.2586938170075
 20
613.1577819620472
 10
866.2432871161755
 20
614.1189498891451
 10
865.9226342323177
 20
614.5995338526941
 10
866.029518526937
 20
615.9344878408285
  0
LWPOLYLINE
  5
B5
330
1F
100
AcDbEntity
  8
Drawing
 62
     7
100
AcDbPolyline
 90
       31
 70
     1
 43
0.0
 10
870.8582983544252
 20
627.7937163354795
 10
871.9271472025689
 20
628.9150811163461
 10
873.2097705418983
 20
628.8616821650899
 10
874.0114086534918
 20
629.9296446958217
 10
875.8818956132291
 20
630.3034340557367
 10
877.698940425656
 20
630.8908126229196
 10
879.3022166488431
 20
631.3713965864686
 10
879.9969704658188
 20
631.3713965864686
 10
881.3864780997674
 20
632.8665474283716
 10
882.2950005059802
 20
632.9733453308847
 10
883.3104072068136
 20
633.026744282141
 10
883.8982767291686
 20
631.1578040803222
 10
883.8448286799098
 20
626.6189559022353
 10
883.6845022379816
 20
623.9490479259664
 10
883.8982767291686
 20
619.9975783150624
 10
883.7379443852906
 20
617.3276670399143
 10
883.2035229121943
 20
615.4587301369747
 10
883.150080764884
 20
614.8179526185356
 10
882.6156533898393
 20
614.6043601123893
 10
881.0658193139611
 20
616.3131034604394
 10
879.72975972927
 20
617.0606755825117
 10
877.2714032471777
 20
618.6626243269279
 10
875.7750113186098
 20
619.303401845367
 10
874.919931059706
 20
620.6383558335015
 10
874.0114086534918
 20
621.7063216631118
 10
874.0114086534918
 20
622.5072960353195
 10
872.9425598053494
 20
623.5752585660514
 10
871.7668207606393
 20
625.1238083592107
 10
871.4461678767816
 20
626.0315773350524
 10
871.0186247963547
 20
626.8325484083816
 10
871.0186247963547
 20
627.8471152867357
  0
LWPOLYLINE
  5
B6
330
1F
100
AcDbEntity
  8
Drawing
 62
     7
100
AcDbPolyline
 90
       37
 70
     1
 43
0.0
 10
875.5511562986967
 20
651.723700732794
 10
876.6923925501251
 20
649.5631561387906
 10
877.4732380957362
 20
646.9224861253924
 10
878.2540836413473
 20
644.2818194108727
 10
878.8547308830762
 20
642.3013210244228
 10
880.2362236704162
 20
640.1407731315403
 10
880.5365502422555
 20
639.4806081023503
 10
880.1160954024604
 20
637.3200602094678
 10
879.2751857228714
 20
635.9397136489431
 10
877.8336288015535
 20
635.5796212338362
 10
876.6923925501251
 20
634.7994232003575
 10
875.0105731909457
 20
633.5391063452423
 10
874.4099259492168
 20
633.0589842247259
 10
872.9683631259504
 20
632.7589083117637
 10
871.0462872308594
 20
631.738650867466
 10
870.3255058192262
 20
631.738650867466
 10
868.3433657901573
 20
633.2390304322794
 10
866.661546430978
 20
635.4595915284267
 10
864.8595929018943
 20
637.4400932137557
 10
864.0787532582317
 20
638.2202879483559
 10
863.5381642485322
 20
640.1407731315403
 10
862.8774528728254
 20
641.4010932855347
 10
861.3758259155811
 20
642.1212748168693
 10
860.7751786738522
 20
643.2615619665758
 10
861.0755052456916
 20
644.7619415313891
 10
861.0755052456916
 20
645.7221857724205
 10
862.276799729148
 20
647.1625488350899
 10
864.6193363659827
 20
648.722941603168
 10
865.6404384475068
 20
649.9232452550184
 10
867.6225843785242
 20
651.4836413219757
 10
869.7849227114752
 20
652.6839416749469
 10
870.5657682570863
 20
653.644185915979
 10
871.1063513648373
 20
654.1243080364948
 10
872.0673893123835
 20
654.3643674473137
 10
872.607978322083
 20
654.004278331086
 10
873.4488820997235
 20
653.8242321235325
 10
875.4310280307409
 20
651.9037469403474
  0
LWPOLYLINE
  5
BA
330
1F
100
AcDbEntity
  8
Drawing
 62
     7
100
AcDbPolyline
 90
       11
 70
     1
 43
0.0
 10
871.1664154988152
 20
631.4985914566478
 10
872.8482348579946
 20
632.4588323988007
 10
874.2297276453346
 20
632.6988951084982
 10
874.5901183511519
 20
631.738650867466
 10
874.4099259492168
 20
630.8384231285786
 10
873.3287538317677
 20
630.8384231285786
 10
872.7881707240167
 20
630.1182415972439
 10
872.1875234822878
 20
629.9381953896905
 10
871.6469344725883
 20
630.0582283939791
 10
871.286543766771
 20
630.8984396307226
 10
871.1664154988152
 20
631.5586046599133
  0
LWPOLYLINE
  5
BB
330
1F
100
AcDbEntity
  8
Drawing
 62
     7
100
AcDbPolyline
 90
        8
 70
     1
 43
0.0
 10
875.6112263346231
 20
632.3388026933912
 10
876.0917453083962
 20
633.4190766398328
 10
876.9927191219631
 20
633.8991987603486
 10
877.4131739617583
 20
633.4790898430977
 10
877.5333022297141
 20
632.6388786063542
 10
877.4131739617583
 20
631.738650867466
 10
876.8125208180809
 20
631.738650867466
 10
875.8514828705361
 20
631.9787135771635
  0
LWPOLYLINE
  5
BC
330
1F
100
AcDbEntity
  8
Drawing
 62
     7
100
AcDbPolyline
 90
        7
 70
     1
 43
0.0
 10
884.2728439162493
 20
637.1336867523617
 10
885.1738177298162
 20
637.5537923707334
 10
884.6932987560431
 20
638.5140366117655
 10
884.6332287201167
 20
639.1742016409562
 10
884.0325814783878
 20
639.4742775539185
 10
883.4319342366589
 20
637.8538682836963
 10
883.912453210432
 20
637.1936999556272
  0
LWPOLYLINE
  5
BD
330
1F
100
AcDbEntity
  8
Drawing
 62
     7
100
AcDbPolyline
 90
       14
 70
     1
 43
0.0
 10
886.0747915433831
 20
636.7735943372554
 10
886.1949198113389
 20
637.9738979891058
 10
887.0958936249071
 20
638.1539441966586
 10
887.5163484647023
 20
638.2139606988032
 10
888.056931572452
 20
638.1539441966586
 10
888.8978412520423
 20
637.4337626653246
 10
889.378360225814
 20
636.8336108393994
 10
889.6786867976534
 20
636.413505221027
 10
889.7988150656092
 20
635.8133533951018
 10
888.4773864122471
 20
635.8733665983673
 10
886.9757653569513
 20
635.7533368929578
 10
885.8945932395009
 20
635.5732906854043
 10
885.5342025336836
 20
635.693323689693
 10
885.834529105523
 20
636.5335349264365
  0
LWPOLYLINE
  5
BE
102
{ACAD_REACTORS
330
E4
102
}
330
1F
100
AcDbEntity
  8
Drawing
 62
     7
100
AcDbPolyline
 90
       13
 70
     1
 43
0.0
 10
892.9822613820329
 20
643.7953700408043
 10
893.2825879538723
 20
646.1959773445051
 10
891.3004420228535
 20
647.9964295234022
 10
889.7387509316313
 20
648.4765516439179
 10
889.0179754219466
 20
648.4165384406531
 10
888.4173222782692
 20
646.7961291704303
 10
888.8377771180644
 20
645.3557628088824
 10
889.9189492355135
 20
644.0354294516233
 10
891.3605061568328
 20
642.1749607705822
 10
891.5406985587665
 20
641.8148683554753
 10
892.3215441043776
 20
641.7548551522104
 10
892.7419989441728
 20
643.0751885094696
 10
892.7419989441728
 20
643.495294127842
  0
LWPOLYLINE
  5
BF
330
1F
100
AcDbEntity
  8
Drawing
 62
     7
100
AcDbPolyline
 90
       19
 70
     1
 43
0.0
 10
827.4759757330071
 20
655.8064327314471
 10
826.1798192248443
 20
661.4184424732664
 10
824.7756511498228
 20
664.87198921361
 10
823.2634715079398
 20
666.3829152939704
 10
821.7512918660582
 20
666.0591435345336
 10
819.5019588062873
 20
665.1676149390617
 10
817.4307819760793
 20
665.1957576741677
 10
815.3785326960015
 20
665.9512207143482
 10
814.1903936566473
 20
659.7995935727199
 10
813.9743705229284
 20
656.3460468323769
 10
818.1868688460459
 20
654.4034294712728
 10
820.1311006573164
 20
653.6479664310923
 10
821.7512918660582
 20
651.7053457711097
 10
822.8314193385522
 20
650.6261142703715
 10
825.2077033192104
 20
650.4102653311209
 10
827.5839872998672
 20
650.518188151307
 10
827.6919988667273
 20
651.8132685912951
 10
828.9881553748901
 20
652.0291142316673
 10
827.8000104335861
 20
654.943043572202
  0
LWPOLYLINE
  5
C0
330
1F
100
AcDbEntity
  8
Drawing
 62
     7
100
AcDbPolyline
 90
       28
 70
     1
 43
0.0
 10
829.026311474543
 20
671.5119163963175
 10
831.2426703457968
 20
672.1104385761121
 10
835.3159771060045
 20
672.6491058988233
 10
838.0115447183748
 20
672.768809015231
 10
839.8085937279211
 20
672.9483636898422
 10
841.7853452776417
 20
672.5892510417414
 10
843.1630844254805
 20
671.8710290444183
 10
843.7620968273636
 20
670.8535459571985
 10
844.2413114704286
 20
669.0579893144516
 10
844.3611151311952
 20
666.8434684654003
 10
843.7620968273636
 20
664.0902802936378
 10
843.103179644123
 20
662.2348687938088
 10
841.0066244336358
 20
659.960496386554
 10
838.4308604820321
 20
657.5664208628916
 10
837.4724311959008
 20
656.4890862174684
 10
836.274400490186
 20
656.01027045296
 10
835.3758759854136
 20
656.01027045296
 10
833.9382379581671
 20
656.84819556669
 10
832.6204035916858
 20
657.6861239792993
 10
831.7817838682708
 20
658.164939743807
 10
830.404044720432
 20
659.4816806220456
 10
829.6253238764261
 20
660.2597574764513
 10
828.7867041530099
 20
662.2348687938088
 10
827.1094588042301
 20
664.8085022909609
 10
824.9529988123854
 20
666.7237653489933
 10
824.0544802095615
 20
667.8609515526207
 10
823.8148728880283
 20
669.2375439890627
 10
824.5935937320355
 20
670.3747301926901
  0
LWPOLYLINE
  5
C1
330
1F
100
AcDbEntity
  8
Drawing
 62
     7
100
AcDbPolyline
 90
       11
 70
     1
 43
0.0
 10
837.6521396380249
 20
676.2402191843166
 10
838.730366682973
 20
676.2402191843166
 10
839.5689864063879
 20
676.000812951502
 10
839.5689864063879
 20
675.46214562879
 10
839.5689864063879
 20
674.9234783060781
 10
838.790265562382
 20
674.8037751896711
 10
837.7120385174339
 20
674.8037751896711
 10
836.5739066911283
 20
674.7439203325885
 10
836.3942041509526
 20
675.6417003034012
 10
836.5140078117192
 20
676.1205160679096
 10
836.8734187940177
 20
676.1205160679096
  0
LWPOLYLINE
  5
C2
330
1F
100
AcDbEntity
  8
Drawing
 62
     7
100
AcDbPolyline
 90
       29
 70
     1
 43
0.0
 10
844.7205261134936
 20
669.656508195367
 10
844.7205261134936
 20
671.3323617217063
 10
845.7388542790327
 20
672.0505837190294
 10
848.3745230119939
 20
672.4695479253337
 10
851.6092100487867
 20
672.7089574570275
 10
853.9453666788586
 20
672.7089574570275
 10
856.4013328716442
 20
672.7089574570275
 10
857.299857376418
 20
672.5293994835372
 10
857.5993635773589
 20
672.4096963671302
 10
857.6592683587164
 20
671.8710290444183
 10
857.9587745596587
 20
670.1353239598754
 10
857.1800537156514
 20
667.0230231400114
 10
857.1800537156514
 20
665.8259853781806
 10
856.9404463941182
 20
663.9705738783516
 10
855.6825168089958
 20
661.8757594445865
 10
854.4245813219236
 20
661.2173857065884
 10
852.927044415268
 20
659.5415321802491
 10
850.6507807626567
 20
658.5240490930294
 10
849.5126489363511
 20
658.2846428602147
 10
848.8537317531104
 20
657.2073082147908
 10
848.3146182306364
 20
657.2073082147908
 10
847.2363911856883
 20
657.9853817703174
 10
846.8769802033898
 20
658.6437555083155
 10
846.5774740024476
 20
659.6612352966567
 10
845.3794432967343
 20
660.9779794737738
 10
844.7205261134936
 20
662.7136845583166
 10
844.4809187919604
 20
664.7486507327567
 10
844.3611151311952
 20
666.963171581808
 10
844.4809187919604
 20
668.8185797827584
  0
LWPOLYLINE
  5
C3
330
1F
100
AcDbEntity
  8
Drawing
 62
     7
100
AcDbPolyline
 90
        9
 70
     0
 43
0.0
 10
844.600722452727
 20
669.1776924308592
 10
845.7388542790327
 20
670.3747301926901
 10
848.3146182306364
 20
670.4345817508936
 10
850.5908818832477
 20
670.4345817508936
 10
851.9686151291367
 20
670.1951755180789
 10
853.8854677994495
 20
670.1951755180789
 10
854.9636948443977
 20
669.8959144281816
 10
856.6409401931774
 20
669.656508195367
 10
857.8988756802496
 20
669.1776924308592
  0
LWPOLYLINE
  5
C4
330
1F
100
AcDbEntity
  8
Drawing
 62
     7
100
AcDbPolyline
 90
        2
 70
     0
 43
0.0
 10
851.8488114683714
 20
670.3747301926901
 10
852.447829772203
 20
672.1702901343156
  0
LWPOLYLINE
  5
C5
330
1F
100
AcDbEntity
  8
Drawing
 62
     7
100
AcDbPolyline
 90
        3
 70
     0
 43
0.0
 10
852.8671396339105
 20
671.3323617217063
 10
852.3879249908455
 20
672.1702901343156
 10
851.4894063880215
 20
671.6316228116036
  0
LWPOLYLINE
  5
C6
330
1F
100
AcDbEntity
  8
Drawing
 62
     7
100
AcDbPolyline
 90
       22
 70
     1
 43
0.0
 10
858.8134711918829
 20
671.8079082973168
 10
859.2926799329994
 20
673.1845040326373
 10
859.95159711624
 20
674.0224291463674
 10
861.9283486659606
 20
673.8428744717562
 10
865.3427441448775
 20
673.7830229135527
 10
867.7388055563069
 20
672.9450945009442
 10
869.5957534452609
 20
671.9276114137238
 10
870.673980490209
 20
670.6707220936894
 10
871.2729987940406
 20
669.7729421228767
 10
871.3328976734497
 20
668.5759043610451
 10
871.3928024548072
 20
667.737979247315
 10
869.7155571060275
 20
666.1818288373834
 10
868.0383117572478
 20
665.5234583982638
 10
865.821952885994
 20
665.5234583982638
 10
863.905106117631
 20
665.044642633756
 10
861.5689435856107
 20
665.044642633756
 10
859.95159711624
 20
665.2840488665706
 10
859.2926799329994
 20
665.5833099564679
 10
858.8733700712919
 20
666.0621257209757
 10
858.573863870351
 20
668.3364981282305
 10
858.5139590889935
 20
669.9525000963663
 10
858.573863870351
 20
671.5685020645014
  0
LWPOLYLINE
  5
C7
330
1F
100
AcDbEntity
  8
Drawing
 62
     7
100
AcDbPolyline
 90
       22
 70
     1
 43
0.0
 10
855.4589804943234
 20
660.3761914039603
 10
857.4357320440454
 20
662.7702669276221
 10
860.1912044377718
 20
662.7702669276221
 10
863.6654987960978
 20
662.9498249011124
 10
865.7021492252275
 20
663.6081953402313
 10
867.5591030161313
 20
664.8052331020622
 10
872.3512258389887
 20
664.6855299856552
 10
875.2864066748407
 20
664.505975311044
 10
876.9636520236204
 20
664.1468626629432
 10
877.3230571039703
 20
663.4286406656202
 10
876.3047289384313
 20
661.273971374773
 10
876.0651275188466
 20
658.0419674385021
 10
875.8854190767238
 20
657.3237421422998
 10
873.7888638662353
 20
655.9471497058578
 10
868.757133721846
 20
655.6478886159612
 10
865.222940484111
 20
654.9296666186381
 10
861.5689435856107
 20
654.5107024123338
 10
858.8134711918829
 20
654.3311477377226
 10
858.3342565488178
 20
654.3311477377226
 10
857.0164221823366
 20
656.9047812348747
 10
856.057998798155
 20
659.0594505257218
 10
855.6985878158566
 20
660.3163398457568
  0
LWPOLYLINE
  5
C8
330
1F
100
AcDbEntity
  8
Drawing
 62
     7
100
AcDbPolyline
 90
       13
 70
     1
 43
0.0
 10
841.8447365894444
 20
650.4837148677691
 10
845.7383408094779
 20
654.4339441002417
 10
846.0977517917777
 20
655.690833420276
 10
845.2591320683614
 20
658.7432826819365
 10
844.4804112243555
 20
661.7957286447179
 10
843.0427731971076
 20
661.5563224119032
 10
841.425426727737
 20
660.4789877664793
 10
838.2506444723017
 20
657.2469838302084
 10
837.8912334900033
 20
655.1521660975648
 10
838.8496627761333
 20
653.2369030395316
 10
839.568478838783
 20
651.8603106030896
 10
840.3471996827889
 20
651.2617917221742
 10
841.5452303885036
 20
650.6034212830552
  0
LWPOLYLINE
  5
C9
330
1F
100
AcDbEntity
  8
Drawing
 62
     7
100
AcDbPolyline
 90
        7
 70
     0
 43
0.0
 10
841.6650340492702
 20
650.7829759576657
 10
841.3655278483293
 20
652.5785326004127
 10
841.4853315090945
 20
653.5361641294289
 10
842.5635585540426
 20
654.8529050076675
 10
844.2408039028223
 20
655.6309818620725
 10
845.0794236262386
 20
655.7506849784802
 10
846.2175554525443
 20
655.6309818620725
  0
LWPOLYLINE
  5
CA
330
1F
100
AcDbEntity
  8
Drawing
 62
     7
100
AcDbPolyline
 90
        7
 70
     0
 43
0.0
 10
845.918049251602
 20
655.7506849784802
 10
844.0011965812905
 20
656.7083165074964
 10
843.2823746166923
 20
657.9652058275308
 10
842.9229695363424
 20
658.5637247084469
 10
842.9828684157501
 20
659.7009109120743
 10
843.4021782774589
 20
660.6585424410905
 10
844.5403101037646
 20
661.4366192954956
  0
LWPOLYLINE
  5
CB
330
1F
100
AcDbEntity
  8
Drawing
 62
     7
100
AcDbPolyline
 90
        2
 70
     0
 43
0.0
 10
842.9828684157501
 20
658.683431123733
 10
844.3606075635889
 20
658.5637247084469
  0
LWPOLYLINE
  5
CC
330
1F
100
AcDbEntity
  8
Drawing
 62
     7
100
AcDbPolyline
 90
        3
 70
     0
 43
0.0
 10
843.4021782774589
 20
658.1447638010211
 10
844.3606075635889
 20
658.5038731502427
 10
843.7016903803483
 20
658.9228373565477
  0
LWPOLYLINE
  5
CD
330
1F
100
AcDbEntity
  8
Drawing
 62
     7
100
AcDbPolyline
 90
        2
 70
     0
 43
0.0
 10
841.6051351698611
 20
653.4763125712254
 10
843.2224757372833
 20
653.1770514813281
  0
LWPOLYLINE
  5
CE
330
1F
100
AcDbEntity
  8
Drawing
 62
     7
100
AcDbPolyline
 90
        3
 70
     0
 43
0.0
 10
843.0427731971076
 20
653.9551283357332
 10
843.2224757372833
 20
653.1171999231246
 10
842.5036537726851
 20
652.87779369031
  0
LWPOLYLINE
  5
CF
330
1F
100
AcDbEntity
  8
Drawing
 62
     7
100
AcDbPolyline
 90
       34
 70
     1
 43
0.0
 10
842.4010011754294
 20
648.9765956935519
 10
844.1980501849744
 20
650.5327461034842
 10
844.9168662476241
 20
652.5677122779243
 10
846.234700614104
 20
653.5253438069406
 10
846.773814136578
 20
654.6625300105679
 10
847.1931299002354
 20
655.6800130977877
 10
848.5708631461243
 20
656.3982350951107
 10
850.4877158164372
 20
656.9967539760262
 10
852.4644673661578
 20
656.6376413279254
 10
853.7823017326391
 20
655.5603066825015
 10
855.8189580637172
 20
654.3632689206706
 10
857.0169887694319
 20
653.2260827170433
 10
858.1551146937891
 20
652.3881576033132
 10
858.933835537795
 20
650.891858751585
 10
859.5328538416265
 20
649.9940787807723
 10
859.4729549622175
 20
648.9167441353484
 10
857.1367924301985
 20
646.7620748445013
 10
855.2798386392947
 20
644.3081477626354
 10
853.6025991924635
 20
642.4527362628064
 10
852.6441699063334
 20
640.058660739144
 10
851.9852527230928
 20
638.083546122908
 10
850.9070256781447
 20
635.3902095093483
 10
849.8287986331966
 20
634.253023305721
 10
849.229780329365
 20
633.8340590994167
 10
848.5109642667153
 20
633.8340590994167
 10
847.7322434227094
 20
634.0734686311098
 10
846.1148969533388
 20
636.826656802873
 10
843.898538082085
 20
639.6995480910432
 10
842.5807037156037
 20
641.7345142654833
 10
842.2811975146628
 20
643.5300709082296
 10
841.6222803314222
 20
645.9241497307705
 10
841.6222803314222
 20
647.779557931721
 10
841.6222803314222
 20
648.3780768126364
 10
841.9217865323631
 20
648.8568925771449
  0
LWPOLYLINE
  5
D2
330
1F
100
AcDbEntity
  8
Drawing
 62
     7
100
AcDbPolyline
 90
       15
 70
     1
 43
0.0
 10
859.9689311401653
 20
652.6858385302612
 10
860.3283421224651
 20
651.4289459113477
 10
861.0471640870633
 20
651.069836562126
 10
861.8258790291206
 20
650.8902785886364
 10
862.6645046544841
 20
650.5910207976176
 10
863.4432254984913
 20
650.3516112659245
 10
863.9823390209654
 20
650.2917597077203
 10
864.4615536640304
 20
650.2917597077203
 10
864.701155083615
 20
650.5311692394141
 10
864.701155083615
 20
651.1296881203295
 10
863.6229280386669
 20
651.4887974695519
 10
862.2451947927766
 20
652.4464289985681
 10
861.7060812703025
 20
653.2245058529732
 10
861.5263728281784
 20
653.643466760399
 10
860.1486395822894
 20
653.1646542947697
  0
LWPOLYLINE
  5
D3
330
1F
100
AcDbEntity
  8
Drawing
 62
     7
100
AcDbPolyline
 90
       10
 70
     1
 43
0.0
 10
861.2268666272375
 20
640.3563416660927
 10
860.7476519841725
 20
641.6730825443312
 10
860.0887348009319
 20
641.9124920760244
 10
859.1902102961594
 20
642.151898308839
 10
858.9506029746262
 20
642.151898308839
 10
858.6510967736854
 20
641.7329341025347
 10
858.7110015550429
 20
641.1942667798228
 10
859.3100139569246
 20
640.7154510153143
 10
860.3882410018728
 20
640.4161932242962
 10
861.107062966471
 20
640.236638549685
  0
LWPOLYLINE
  5
D4
330
1F
100
AcDbEntity
  8
Drawing
 62
     7
100
AcDbPolyline
 90
       12
 70
     1
 43
0.0
 10
855.4763145182501
 20
639.1593039042618
 10
856.3748390230226
 20
640.4161932242962
 10
857.2134587464375
 20
640.8950089888046
 10
857.273363527795
 20
641.3139731951089
 10
856.9139525454966
 20
642.151898308839
 10
856.4347379024316
 20
642.2716014252467
 10
855.7159218397819
 20
642.5110109569398
 10
854.9970998751837
 20
642.3913078405328
 10
854.8772962144185
 20
641.5533794279236
 10
854.3381826919444
 20
640.236638549685
 10
854.2782838125354
 20
639.7578227851773
 10
854.2183790311778
 20
639.3388585788723
  0
LWPOLYLINE
  5
D5
330
1F
100
AcDbEntity
  8
Drawing
 62
     7
100
AcDbPolyline
 90
       12
 70
     0
 43
0.0
 10
857.0936550856723
 20
644.1270129250756
 10
858.4114894521522
 20
643.5883456023637
 10
859.0105077559838
 20
643.6481971605672
 10
859.0704066353928
 20
644.7255318059911
 10
859.4298176176912
 20
645.3240506869065
 10
858.770900434452
 20
646.0422726842296
 10
858.3515905727431
 20
646.0422726842296
 10
857.9322807110357
 20
646.2816822159227
 10
857.1535598670298
 20
645.802866451415
 10
856.79414888473
 20
644.6058286895834
 10
857.0936550856723
 20
644.3065675996868
 10
857.0936550856723
 20
644.1868644832791
  0
LWPOLYLINE
  5
D6
330
1F
100
AcDbEntity
  8
Drawing
 62
     7
100
AcDbPolyline
 90
       10
 70
     1
 43
0.0
 10
883.8696640808903
 20
657.533844434668
 10
885.1874984473716
 20
657.533844434668
 10
886.0261240727364
 20
657.1747317865672
 10
885.7266119698456
 20
656.8156191384664
 10
884.2889739425991
 20
656.4565097892441
 10
883.8696640808903
 20
656.2769518157545
 10
882.671633375177
 20
656.217100257551
 10
882.0726150713454
 20
656.6959160220595
 10
882.1325198527029
 20
657.5936959928715
 10
882.7914370359422
 20
657.7732506674827
  0
HATCH
  5
E4
330
1F
100
AcDbEntity
  8
Drawing
 62
     7
100
AcDbHatch
 10
0.0
 20
0.0
 30
0.0
210
0.0
220
0.0
230
1.0
  2
SOLID
 70
     1
 71
     1
 91
        1
 92
        7
 72
     0
 73
     1
 93
       13
 10
889.9189492355176
 20
644.0354294516189
 10
891.360506156833
 20
642.1749607705827
 10
891.5406985587667
 20
641.8148683554754
 10
892.3215441043776
 20
641.7548551522106
 10
892.7419989441728
 20
643.0751885094695
 10
892.7419989441728
 20
643.495294127842
 10
892.9822613820327
 20
643.7953700408041
 10
893.2825879538723
 20
646.195977344505
 10
891.3004420228538
 20
647.9964295234022
 10
889.7387509316316
 20
648.4765516439178
 10
889.0179754219466
 20
648.4165384406531
 10
888.4173222782695
 20
646.7961291704302
 10
888.8377771180643
 20
645.3557628088824
 97
        1
330
BE
 75
     0
 76
     1
 47
0.0399012785705818
 98
        1
 10
890.398937033885
 20
645.5036053615177
450
        1
451
        0
460
0.0
461
0.0
452
        1
462
0.550000011920929
453
        2
463
0.0
 63
     1
421
 16711680
463
1.0
 63
     1
421
 16718362
470
LINEAR
  0
LWPOLYLINE
  5
E5
330
1F
100
AcDbEntity
  8
Drawing
 62
     7
100
AcDbPolyline
 90
       20
 70
     1
 43
0.0
 10
867.4849332242775
 20
678.3291946025922
 10
870.1260789658199
 20
678.4045937766159
 10
873.8991417814741
 20
677.5752061612393
 10
876.9930496311022
 20
677.3490119380481
 10
880.0115010640152
 20
676.8966201927879
 10
882.8035655409362
 20
676.0672358762904
 10
883.6336392423423
 20
675.690240006174
 10
883.7845638796693
 20
673.5790796279182
 10
883.7845638796693
 20
672.0711060440908
 10
881.9734918395316
 20
670.7139275094303
 10
879.9360387453517
 20
670.6385283354073
 10
878.3513536612058
 20
671.1663192546905
 10
874.6537531642152
 20
672.0711060440908
 10
872.3899131140433
 20
672.7496920125416
 10
870.2769977011985
 20
673.2774829318255
 10
868.5413938816741
 20
674.2576655963696
 10
866.9567087975283
 20
675.2378482609138
 10
866.8057841601999
 20
675.614840832151
 10
867.0321652142434
 20
677.876802857332
 10
867.1076275329069
 20
678.3291946025922
  0
LWPOLYLINE
  5
E6
330
1F
100
AcDbEntity
  8
Drawing
 62
     7
100
AcDbPolyline
 90
        8
 70
     0
 43
0.0
 10
881.0679558194634
 20
670.7893266834533
 10
882.12441647686
 20
671.1663192546905
 10
882.12441647686
 20
673.3528821058485
 10
880.8415747654199
 20
675.3132474349368
 10
875.7856702383269
 20
676.5196276215506
 10
873.219986815448
 20
676.9720193668109
 10
869.4469299017424
 20
677.726004509286
 10
867.9377012343116
 20
678.4045937766159
  0
LWPOLYLINE
  5
E7
330
1F
100
AcDbEntity
  8
Drawing
 62
     7
100
AcDbPolyline
 90
        2
 70
     0
 43
0.0
 10
881.9734918395316
 20
674.0314713731791
 10
883.0299465949797
 20
674.2576655963696
  0
LWPOLYLINE
  5
E8
330
1F
100
AcDbEntity
  8
Drawing
 62
     7
100
AcDbPolyline
 90
        3
 70
     0
 43
0.0
 10
882.5771844868941
 20
674.7100573416299
 10
883.0299465949797
 20
674.3330647703926
 10
882.7281032222727
 20
673.6544755030627
  0
LWPOLYLINE
  5
E9
330
1F
100
AcDbEntity
  8
Drawing
 62
     7
100
AcDbPolyline
 90
        9
 70
     1
 43
0.0
 10
852.1663068095659
 20
679.3093772671364
 10
853.071836927687
 20
677.801403683309
 10
854.2792222224107
 20
677.952202031355
 10
854.9583712864883
 20
678.6307879998064
 10
854.5056032764528
 20
680.1387615836345
 10
853.449148521006
 20
681.1943434222017
 10
852.3926878636094
 20
681.6467351674619
 10
851.7135387995318
 20
681.4205409442714
 10
851.4116954268247
 20
680.5911533288947
  0
LWPOLYLINE
  5
EA
330
1F
100
AcDbEntity
  8
Drawing
 62
     7
100
AcDbPolyline
 90
       16
 70
     1
 43
0.0
 10
845.9784852083612
 20
678.7061871738294
 10
847.336783336515
 20
680.2141607576575
 10
847.4877079738435
 20
681.5713359934389
 10
848.0159383025411
 20
681.7221343414856
 10
848.9214743226107
 20
680.9681491990111
 10
850.5816217254201
 20
679.5355714903276
 10
851.4871518435398
 20
678.2537954285692
 10
852.3926878636094
 20
676.7458218447418
 10
852.3926878636094
 20
676.0672358762904
 10
851.7890011181953
 20
675.0116540377226
 10
850.0533913967224
 20
673.8806730251324
 10
847.9404759838776
 20
674.7100573416299
 10
845.2238738256201
 20
675.690240006174
 10
843.7901074768529
 20
676.5196276215506
 10
844.242875486887
 20
677.0474185408345
 10
845.2238738256201
 20
678.2537954285692
  0
LWPOLYLINE
  5
ED
330
1F
100
AcDbEntity
  8
Drawing
 62
     7
100
AcDbPolyline
 90
       10
 70
     1
 43
0.0
 10
766.9119466830152
 20
689.5824883367688
 10
766.9828645010243
 20
688.6613457062417
 10
767.9756844434078
 20
688.0944894641202
 10
768.7557568337124
 20
688.6613457062417
 10
769.1103400218094
 20
689.4407751009583
 10
769.1103400218094
 20
689.9367747251745
 10
768.2593498134956
 20
690.7870574389171
 10
767.8338547093381
 20
691.0704872094175
 10
767.6211071572593
 20
690.9287706747277
 10
766.9828645010243
 20
690.0784879609851
  0
LWPOLYLINE
  5
EE
330
1F
100
AcDbEntity
  8
Drawing
 62
     7
100
AcDbPolyline
 90
        7
 70
     1
 43
0.0
 10
797.6894239164048
 20
691.7790566873496
 10
798.1858368385701
 20
692.4876261652817
 10
798.6822438587883
 20
691.637343451539
 10
798.8949914108671
 20
690.0784879609851
 10
797.5475941823352
 20
690.7870574389171
 10
796.7675158900806
 20
691.4247702989439
 10
797.3348466302564
 20
691.8499133052549
  0
LWPOLYLINE
  5
EF
330
1F
100
AcDbEntity
  8
Drawing
 62
     7
100
AcDbPolyline
 90
        8
 70
     1
 43
0.0
 10
801.7316274058976
 20
688.0944894641202
 10
801.9443749579764
 20
688.8739188588368
 10
802.7953651662915
 20
689.369918483053
 10
804.1427682967719
 20
689.369918483053
 10
803.788185108675
 20
688.8030622409315
 10
803.4336078225265
 20
687.8819196104043
 10
802.7953651662915
 20
687.7402063745931
 10
802.0862046920461
 20
687.9527762283096
  0
LWPOLYLINE
  5
F0
330
1F
100
AcDbEntity
  8
Drawing
 62
     7
100
AcDbPolyline
 90
       11
 70
     1
 43
0.0
 10
792.3707351144394
 20
672.1516547679323
 10
794.3563809011562
 20
672.8602242458644
 10
796.058361317785
 20
673.9939367301074
 10
798.7531616767974
 20
674.5607929722289
 10
801.5188798538188
 20
675.1276492143504
 10
802.9371949003598
 20
675.2693624501617
 10
802.3698700621339
 20
672.5767944753641
 10
799.887817255199
 20
671.6556551437161
 10
795.987443499776
 20
671.4430819911211
 10
793.2926431407623
 20
671.868224997432
 10
792.3707351144394
 20
672.2225113858376
  0
LWPOLYLINE
  5
F1
330
1F
100
AcDbEntity
  8
Drawing
 62
     7
100
AcDbPolyline
 90
        8
 70
     0
 43
0.0
 10
792.2998172964303
 20
672.0807948511479
 10
792.7253124005865
 20
670.6636558952837
 10
794.2854630831471
 20
669.7425132647566
 10
795.4910305776093
 20
668.8922305510132
 10
797.9730892864927
 20
668.7505140163241
 10
801.0224669316535
 20
668.9630871689185
 10
803.7172731926144
 20
669.8133698826618
 10
802.440787880143
 20
672.5059378574588
  0
LWPOLYLINE
  5
F2
330
1F
100
AcDbEntity
  8
Drawing
 62
     7
100
AcDbPolyline
 90
        5
 70
     0
 43
0.0
 10
803.0790305363794
 20
675.1276492143504
 10
803.5045256405356
 20
673.4979371058912
 10
803.788185108675
 20
672.4350812395535
 10
803.7172731926144
 20
671.1596555194999
 10
803.6463553746053
 20
669.8133698826618
  0
LWPOLYLINE
  5
F3
330
1F
100
AcDbEntity
  8
Drawing
 62
     7
100
AcDbPolyline
 90
        2
 70
     0
 43
0.0
 10
798.044001202552
 20
671.7265117616214
 10
798.8240794948065
 20
673.4979371058912
  0
LWPOLYLINE
  5
F4
330
1F
100
AcDbEntity
  8
Drawing
 62
     7
100
AcDbPolyline
 90
        3
 70
     0
 43
0.0
 10
797.8312536504732
 20
673.001937481675
 10
798.8240794948065
 20
673.6396503417018
 10
799.3204865150246
 20
672.5767944753641
  0
LWPOLYLINE
  5
F5
330
1F
100
AcDbEntity
  8
Drawing
 62
     7
100
AcDbPolyline
 90
        2
 70
     0
 43
0.0
 10
797.6894239164048
 20
671.5847985258108
 10
799.3204865150246
 20
669.9550864173509
  0
LWPOLYLINE
  5
F6
330
1F
100
AcDbEntity
  8
Drawing
 62
     7
100
AcDbPolyline
 90
        3
 70
     0
 43
0.0
 10
797.9730892864927
 20
669.7425132647566
 10
799.249574598964
 20
669.8842265005671
 10
799.4623221510428
 20
670.8762257489996
  0
LWPOLYLINE
  5
F8
330
1F
100
AcDbEntity
  8
Drawing
 62
     7
100
AcDbPolyline
 90
        8
 70
     1
 43
0.0
 10
867.221924675347
 20
707.7665054205295
 10
868.8752494252262
 20
707.7665054205295
 10
869.8926804945322
 20
707.5123564983242
 10
870.0198556894775
 20
706.6228435178034
 10
869.00243052212
 20
705.860403348945
 10
867.8578183559202
 20
704.9708903684236
 10
866.8403872866143
 20
706.1145522711504
 10
866.4588498978801
 20
707.1311380633349
  0
LWPOLYLINE
  5
F9
330
1F
100
AcDbEntity
  8
Drawing
 62
     7
100
AcDbPolyline
 90
       10
 70
     1
 43
0.0
 10
802.6290423442774
 20
662.7738297167343
 10
801.8858807424067
 20
663.7143862490436
 10
800.4491043996995
 20
663.3678654213509
 10
799.7554837569132
 20
663.2688594705812
 10
800.0032062581877
 20
662.8233326921188
 10
800.3004697185452
 20
661.9322758363162
 10
800.9940903613315
 20
661.4372460824693
 10
801.7867929222866
 20
661.2887371563152
 10
802.3317788839186
 20
661.5362520332383
 10
802.7776770254304
 20
662.476811864426
  0
LWPOLYLINE
  5
FA
102
{ACAD_REACTORS
330
104
102
}
330
1F
100
AcDbEntity
  8
Drawing
 62
     7
100
AcDbPolyline
 90
        9
 70
     1
 43
0.0
 10
761.9693713787419
 20
628.8713742710261
 10
761.9138399415201
 20
626.5964476521317
 10
762.191503029575
 20
625.5977021965384
 10
762.9134176153975
 20
625.3757569292513
 10
764.1351210381581
 20
625.5977021965384
 10
764.5793784378757
 20
625.6531860392008
 10
763.8574638520531
 20
627.6506835481457
 10
763.0244804898398
 20
628.5384580195357
 10
762.2470344667954
 20
629.2597743651795
  0
HATCH
  5
104
330
1F
100
AcDbEntity
  8
Drawing
 62
     7
100
AcDbHatch
 10
0.0
 20
0.0
 30
0.0
210
0.0
220
0.0
230
1.0
  2
SOLID
 70
     1
 71
     1
 91
        1
 92
        7
 72
     0
 73
     1
 93
        9
 10
761.9138399415202
 20
626.5964476521317
 10
762.1915030295751
 20
625.5977021965384
 10
762.9134176153976
 20
625.3757569292513
 10
764.1351210381566
 20
625.5977021965383
 10
764.5793784378757
 20
625.6531860392008
 10
763.8574638520531
 20
627.6506835481456
 10
763.0244804898405
 20
628.5384580195345
 10
762.2470344667953
 20
629.2597743651795
 10
761.969371378742
 20
628.8713742710262
 97
        1
330
FA
 75
     0
 76
     1
 47
0.0369906505148041
 98
        1
 10
762.7468233037348
 20
626.6519347936733
450
        1
451
        0
460
0.0
461
0.0
452
        1
462
0.550000011920929
453
        2
463
0.0
 63
     1
421
 16711680
463
1.0
 63
     1
421
 16718362
470
LINEAR
  0
LWPOLYLINE
  5
105
330
1F
100
AcDbEntity
  8
Drawing
 62
     7
100
AcDbPolyline
 90
       12
 70
     1
 43
0.0
 10
740.6261358577672
 20
629.4723145289863
 10
740.3484786716622
 20
628.3625947903099
 10
740.181878458051
 20
627.9187075546149
 10
740.1263470208291
 20
627.5857913031246
 10
740.5706044205467
 20
627.3638493347166
 10
741.4591192199819
 20
627.2528750516335
 10
741.7923078433073
 20
627.419333177379
 10
742.1255023685826
 20
628.3071109476475
 10
742.1810338058044
 20
628.8619691675465
 10
742.1810338058044
 20
629.2503725605784
 10
741.5701820944241
 20
629.4723145289863
 10
740.681667294989
 20
629.4168306863239
  0
LWPOLYLINE
  5
106
330
1F
100
AcDbEntity
  8
Drawing
 62
     7
100
AcDbPolyline
 90
       10
 70
     1
 43
0.0
 10
743.9580575027248
 20
621.70427965713
 10
745.4018925763198
 20
622.2036507354874
 10
745.9572128504783
 20
622.037195908621
 10
746.2904014738051
 20
621.70427965713
 10
746.2904014738051
 20
620.539072776912
 10
746.2904014738051
 20
619.8732402739306
 10
746.2348700365847
 20
619.651298305522
 10
744.1246518143876
 20
620.095185541217
 10
743.402737228565
 20
620.5945599184536
 10
743.1806114796818
 20
621.5933053740468
  0
LWPOLYLINE
  5
108
330
1F
100
AcDbEntity
  8
Drawing
 62
     7
100
AcDbPolyline
 90
       15
 70
     1
 43
0.0
 10
753.9210194055981
 20
614.4757434254443
 10
754.476339679758
 20
614.5867144096483
 10
754.5318711169784
 20
613.698939938259
 10
755.0316599539165
 20
613.0331074352769
 10
755.8091118789093
 20
612.7556783253281
 10
756.5310264647319
 20
612.7001911837865
 10
756.8086895527867
 20
612.422762073837
 10
756.8086895527867
 20
611.8124167123965
 10
755.5314487908558
 20
611.035609926332
 10
754.0320881819889
 20
611.4240133193646
 10
753.4767679078291
 20
611.9233876966005
 10
752.9214476336706
 20
612.422762073837
 10
752.976979070891
 20
613.3105365452263
 10
753.254636256996
 20
614.0318528908708
 10
753.7544250939354
 20
614.4202562839034
  0
LWPOLYLINE
  5
109
330
1F
100
AcDbEntity
  8
Drawing
 62
     7
100
AcDbPolyline
 90
        6
 70
     1
 43
0.0
 10
772.7638470585516
 20
613.6922498120371
 10
773.9300190440918
 20
613.4703045447507
 10
773.9300190440918
 20
612.3051009634112
 10
773.3746987699319
 20
611.6392684604298
 10
772.5972527468889
 20
611.5837813188882
 10
772.4306584352248
 20
613.2483625763427
  0
LWPOLYLINE
  5
10A
330
1F
100
AcDbEntity
  8
Drawing
 62
     7
100
AcDbPolyline
 90
       11
 70
     1
 43
0.0
 10
912.7099918416939
 20
659.7676802191368
 10
913.768134554527
 20
659.3945275428316
 10
913.9548663158453
 20
658.6482221902206
 10
913.8926184607731
 20
657.5909579234617
 10
913.768134554527
 20
656.7824621075727
 10
912.7099918416939
 20
656.8446558697299
 10
911.6518491288593
 20
657.3421894725911
 10
911.6518491288593
 20
658.8969906410912
 10
911.5273593206648
 20
659.4567213049882
 10
911.589607175737
 20
659.6432959937015
 10
912.2120444128127
 20
659.7054864569802
  0
LWPOLYLINE
  5
10B
330
1F
100
AcDbEntity
  8
Drawing
 62
     7
100
AcDbPolyline
 90
        9
 70
     1
 43
0.0
 10
941.2495444825408
 20
631.937744801254
 10
940.6893551005373
 20
633.4303522075968
 10
940.129159816584
 20
633.5547364330314
 10
939.5067225795083
 20
632.0621257278101
 10
939.6312123877028
 20
631.1292456864865
 10
940.129159816584
 20
630.6317120836245
 10
940.7515970536597
 20
630.1963656451621
 10
941.4362762438577
 20
630.382943632754
 10
941.4985181969814
 20
631.1292456864865
  0
LWPOLYLINE
  5
10C
330
1F
100
AcDbEntity
  8
Drawing
 62
     7
100
AcDbPolyline
 90
       12
 70
     1
 43
0.0
 10
917.2305246819169
 20
617.2944473303232
 10
918.4165567255127
 20
615.6214407363952
 10
918.8351524514042
 20
614.9940632636722
 10
919.1839871412699
 20
614.5061063059886
 10
917.8584271236768
 20
613.7393116171045
 10
916.8119289560268
 20
613.5998944009441
 10
915.9747316022967
 20
613.8090202251847
 10
915.5561358764066
 20
614.3666890898276
 10
915.3468350624867
 20
615.6214407363952
 10
915.4166020004595
 20
617.0156128980018
 10
915.7654307883768
 20
617.8521161949661
 10
916.6723950800797
 20
618.3400764515288
  0
LWPOLYLINE
  5
10D
330
1F
100
AcDbEntity
  8
Drawing
  6
ACAD_ISO03W100
 62
     7
 48
0.25
100
AcDbPolyline
 90
       28
 70
   128
 43
0.0
 10
729.6516330305926
 20
615.2031066159425
 10
743.7561813405241
 20
614.2530262205166
 10
759.6039941996555
 20
613.9363338550008
 10
773.708542509587
 20
612.986253459575
 10
787.3376593256985
 20
610.7693970043283
 10
798.5896068688185
 20
610.1360122732967
 10
810.7924173995771
 20
608.0775052996864
 10
808.9934325507911
 20
608.8605898521216
 10
811.2121285938097
 20
608.0688556394537
 10
817.8682108209168
 20
607.59381709118
 10
825.475156035664
 20
606.4853905129955
 10
832.6066697565898
 20
606.1686948486013
 10
844.9679653212197
 20
604.9019220876596
 10
858.4386030054097
 20
605.8520024830855
 10
872.5431513153399
 20
605.6936563003276
 10
876.0296686098427
 20
605.0602682704175
 10
897.2657365426498
 20
605.6936563003276
 10
901.7031227267385
 20
605.3769639348118
 10
910.8948533587627
 20
606.3270443302376
 10
916.2831084324384
 20
606.9604290612692
 10
918.4227242621159
 20
607.2932232542441
 10
923.494021071946
 20
606.5014890415762
 10
931.2594513205645
 20
606.3431428588183
 10
937.2816170199817
 20
606.1847966760604
 10
943.6207409832446
 20
605.8681010116661
 10
947.8996480354103
 20
605.8681010116661
 10
953.9218196367774
 20
604.6013282507238
 10
955.0311617563375
 20
604.6013282507238
  0
LWPOLYLINE
  5
111
330
1F
100
AcDbEntity
  8
Drawing
 62
     7
 48
0.25
100
AcDbPolyline
 90
        2
 70
     0
 43
0.0
 10
780.0176137490398
 20
640.8405741896026
 10
780.0792005858339
 20
643.6097685213394
  0
LWPOLYLINE
  5
112
330
1F
100
AcDbEntity
  8
Drawing
 62
     7
 48
0.25
100
AcDbPolyline
 90
        3
 70
     0
 43
0.0
 10
779.4017276752456
 20
642.9328550844436
 10
780.1407933245778
 20
643.6713058066139
 10
780.756679398372
 20
642.9328550844436
  0
LWPOLYLINE
  5
113
330
1F
100
AcDbEntity
  8
Drawing
 62
     7
 48
0.25
100
AcDbPolyline
 90
        2
 70
     0
 43
0.0
 10
779.9560269122444
 20
640.4098098938039
 10
778.7858356995016
 20
638.563681438939
  0
LWPOLYLINE
  5
114
330
1F
100
AcDbEntity
  8
Drawing
 62
     7
 48
0.25
100
AcDbPolyline
 90
        3
 70
     0
 43
0.0
 10
778.4778956135801
 20
639.7944337421825
 10
778.6626620259121
 20
638.563681438939
 10
780.2023801613732
 20
638.9944424358587
  0
LWPOLYLINE
  5
116
330
1F
100
AcDbEntity
  8
Drawing
 62
     7
 48
0.25
100
AcDbPolyline
 90
       10
 70
     0
 43
0.0
 10
634.3018148200729
 20
551.2610532286801
 10
634.8760744482599
 20
549.0424318732714
 10
635.7566039108303
 20
547.3593373079498
 10
636.4074295221251
 20
546.2117728315943
 10
637.0199691908917
 20
546.0587675336253
 10
638.6661761903954
 20
546.5177900252886
 10
640.0443933960939
 20
547.9713716953397
 10
640.5803670817529
 20
549.0041780746203
 10
639.7381235617106
 20
550.5725145428664
 10
639.3935677847992
 20
551.2228027289075
  0
LWPOLYLINE
  5
117
330
1F
100
AcDbEntity
  8
Drawing
 62
     7
 48
0.25
100
AcDbPolyline
 90
       11
 70
     1
 43
0.0
 10
647.203475120343
 20
549.2336909698909
 10
648.1988565085505
 20
548.4686479856541
 10
649.0793859711209
 20
548.5069017843052
 10
649.6536396973595
 20
548.9659275748477
 10
649.4622217886133
 20
549.6544662606607
 10
648.4285603598262
 20
550.381255446247
 10
648.1222905254428
 20
550.4577597446707
 10
647.7777347485301
 20
550.4577597446707
 10
647.1269091372353
 20
550.5725145428664
 10
646.7440674177944
 20
549.9987339541283
 10
646.7823533603225
 20
549.5779619622376
  0
LWPOLYLINE
  5
118
330
1F
100
AcDbEntity
  8
Drawing
 62
     7
 48
0.25
100
AcDbPolyline
 90
        8
 70
     1
 43
0.0
 10
634.5315186713485
 20
543.648883782718
 10
635.2971962082804
 20
544.2609148712288
 10
635.4120481339176
 20
545.3702288478123
 10
635.2589102657523
 20
545.5614879444317
 10
633.9189790025819
 20
544.9494535570425
 10
633.7275551918858
 20
544.8729492586187
 10
633.7275551918858
 20
543.7253880811418
 10
634.2635288775448
 20
543.6106299840669
  0
LWPOLYLINE
  5
119
330
1F
100
AcDbEntity
  8
Drawing
 62
     7
 48
0.25
100
AcDbPolyline
 90
       14
 70
     1
 43
0.0
 10
660.762057745125
 20
536.6545580497257
 10
663.0162126971488
 20
539.5923184907656
 10
664.7803347337688
 20
540.8653492248056
 10
666.3484412434489
 20
542.0404527414455
 10
668.1125573781203
 20
541.5508265510855
 10
669.6806638878004
 20
540.5715741703648
 10
670.3667123301441
 20
539.1026923004056
 10
670.9547530090178
 20
537.8296615663662
 10
670.5627278570853
 20
535.1856761797665
 10
668.1125573781203
 20
532.5416907931667
 10
665.2703676491726
 20
532.5416907931667
 10
664.0942862914251
 20
532.5416907931667
 10
662.1341546298138
 20
534.598122772007
 10
661.2520906605289
 20
536.0670046419662
  0
LWPOLYLINE
  5
11A
330
1F
100
AcDbEntity
  8
Drawing
 62
     7
 48
0.25
100
AcDbPolyline
 90
       11
 70
     0
 43
0.0
 10
660.8600655085963
 20
530.1914804610071
 10
663.9962785279552
 20
530.974881705808
 10
664.2903018183663
 20
532.5416907931667
 10
667.818539989659
 20
532.3458396572469
 10
666.7404663953814
 20
529.4080759173278
 10
665.6623928011052
 20
528.5267474551281
 10
664.5843192068289
 20
527.3516439384875
 10
663.31023598756
 20
528.0371212647674
 10
661.9381391028726
 20
528.3308963192083
 10
661.0560810355362
 20
529.2122247814079
 10
660.9580732720663
 20
530.2894043795275
  0
LWPOLYLINE
  5
11B
330
1F
100
AcDbEntity
  8
Drawing
 62
     7
 48
0.25
100
AcDbPolyline
 90
       10
 70
     1
 43
0.0
 10
658.9979416104536
 20
530.7790338687666
 10
661.1540887990075
 20
530.387331596927
 10
663.5062456125527
 20
531.1707328417278
 10
664.1922940548964
 20
532.639614711687
 10
661.54611395094
 20
534.9898250438466
 10
661.0560810355362
 20
533.7167943098066
 10
659.2919589989162
 20
532.9333897661272
 10
658.5079086950511
 20
532.9333897661272
 10
658.5079086950511
 20
531.8562101680077
 10
658.5079086950511
 20
531.3665839776477
  0
LWPOLYLINE
  5
11C
330
1F
100
AcDbEntity
  8
Drawing
 62
     7
 48
0.25
100
AcDbPolyline
 90
        9
 70
     1
 43
0.0
 10
664.87834249724
 20
537.4379592945265
 10
666.3484412434489
 20
537.4379592945265
 10
666.3484412434489
 20
536.3607796964063
 10
666.2504334799789
 20
534.7939739079268
 10
664.6823269702988
 20
534.5001988534859
 10
664.1922940548964
 20
535.5773784516061
 10
663.8982707644852
 20
536.4587069138058
 10
663.7022611394925
 20
537.2421081586067
 10
664.6823269702988
 20
537.4379592945265
  0
LWPOLYLINE
  5
11E
330
1F
100
AcDbEntity
  8
Drawing
 62
     7
 48
0.25
100
AcDbPolyline
 90
        7
 70
     1
 43
0.0
 10
678.1092371150719
 20
538.9068411644857
 10
678.3052526420131
 20
539.7881696266854
 10
677.0311635207956
 20
541.5508265510855
 10
675.071031859183
 20
540.5715741703648
 10
676.2471132169305
 20
539.1026923004056
 10
677.4231945746767
 20
537.9275854848865
 10
678.2072448785432
 20
538.9068411644857
  0
LWPOLYLINE
  5
11F
330
1F
100
AcDbEntity
  8
Drawing
 62
     7
 48
0.25
100
AcDbPolyline
 90
        6
 70
     1
 43
0.0
 10
677.1693694582393
 20
545.8509315709982
 10
677.324118558455
 20
546.8559811839928
 10
676.5503612534756
 20
546.9332937077245
 10
676.3182376031507
 20
546.6240469116774
 10
676.3182376031507
 20
546.0828658433143
 10
677.1693694582393
 20
545.8509315709982
  0
LWPOLYLINE
  5
120
330
1F
100
AcDbEntity
  8
Drawing
 62
     7
 48
0.25
100
AcDbPolyline
 90
        5
 70
     1
 43
0.0
 10
676.2408630530429
 20
548.170277593035
 10
675.3123507458979
 20
549.0207021585668
 10
675.0028525454652
 20
549.0207021585668
 10
675.4671057480634
 20
548.0929650693033
 10
675.9313589506603
 20
547.7837182732562
  0
LWPOLYLINE
  5
121
330
1F
100
AcDbEntity
  8
Drawing
 62
     7
 48
0.25
100
AcDbPolyline
 90
        7
 70
     1
 43
0.0
 10
682.0440310364936
 20
543.6862105964242
 10
682.8177883414744
 20
543.6862105964242
 10
683.4367965462382
 20
543.995457392472
 10
683.7462947466709
 20
544.6912602094194
 10
683.7462947466709
 20
545.0778162303191
 10
682.1214114885513
 20
544.3047008896406
 10
682.1214114885513
 20
543.9181448687402
  0
LWPOLYLINE
  5
122
330
1F
100
AcDbEntity
  8
Drawing
 62
     7
 48
0.25
100
AcDbPolyline
 90
        7
 70
     1
 43
0.0
 10
698.3702912853335
 20
548.4795210902037
 10
699.6083017929111
 20
548.9433896348351
 10
699.6856763430203
 20
549.4072614783456
 10
698.7571699378238
 20
549.871130022977
 10
697.9060380827352
 20
549.871130022977
 10
697.441784880137
 20
549.3299489546139
 10
698.1381617330601
 20
548.4022118653504
  0
LWPOLYLINE
  5
123
330
1F
100
AcDbEntity
  8
Drawing
 62
     7
 48
0.25
100
AcDbPolyline
 90
        8
 70
     1
 43
0.0
 10
713.2264114743209
 20
549.0980146822978
 10
714.4644219818986
 20
547.8610307969873
 10
715.0834242847138
 20
547.2425372048931
 10
716.3214347922915
 20
547.938343320719
 10
716.3214347922915
 20
548.7887678862508
 10
715.5476833892606
 20
549.1753239071511
 10
714.0001687793017
 20
549.1753239071511
 10
713.6132901268113
 20
549.1753239071511
  0
LWPOLYLINE
  5
124
330
1F
100
AcDbEntity
  8
Drawing
 62
     7
 48
0.25
100
AcDbPolyline
 90
       14
 70
     1
 43
0.0
 10
717.6368257519268
 20
542.6811609834297
 10
718.1784535046329
 20
543.4542763241088
 10
718.5653321571233
 20
544.3820134133716
 10
720.4223449675162
 20
544.0727666173245
 10
721.3508513727127
 20
543.5315888478399
 10
721.582980924986
 20
543.3769638003771
 10
721.5414016949696
 20
541.8610003320775
 10
720.1902213171913
 20
540.2845057365403
 10
719.3390894621027
 20
539.7433246681771
 10
717.9463239523595
 20
539.7433246681771
 10
716.8630684469474
 20
540.2071932128085
 10
716.1666856920758
 20
540.5937525325874
 10
715.8571815896933
 20
541.2895553495348
 10
717.0951920972723
 20
542.3719141873826
  0
LWPOLYLINE
  5
125
330
1F
100
AcDbEntity
  8
Drawing
 62
     7
 48
0.25
100
AcDbPolyline
 90
       15
 70
     1
 43
0.0
 10
710.6014193669237
 20
531.0873536798688
 10
710.567542180225
 20
532.7121405622688
 10
710.19488722459
 20
534.1338319708875
 10
707.4168988957997
 20
534.4384768309988
 10
706.705466171227
 20
534.0661323800009
 10
706.8748580066701
 20
532.6782907668255
 10
706.8409808199715
 20
530.4103577710027
 10
706.7732205446257
 20
528.2101243660672
 10
707.8234369400832
 20
527.2284802982115
 10
708.6365012247518
 20
526.5853341847887
 10
709.7544719936079
 20
527.059231320995
 10
711.0418286959573
 20
527.4992786617579
 10
711.4822439269394
 20
527.9054762070775
 10
711.0079515092586
 20
529.9026108393532
 10
710.9063199491613
 20
530.3426581801161
  0
LWPOLYLINE
  5
126
330
1F
100
AcDbEntity
  8
Drawing
 62
     7
 48
0.25
100
AcDbPolyline
 90
        9
 70
     1
 43
0.0
 10
713.6843023760032
 20
533.4229862665782
 10
712.9389924647319
 20
533.3891364711349
 10
712.7696006292888
 20
532.7121405622688
 10
712.9389924647319
 20
532.5428915850523
 10
713.4471561671628
 20
532.509041789609
 10
713.5149164425086
 20
532.509041789609
 10
713.8536942114449
 20
532.5428915850523
 10
713.8875713981449
 20
532.7121405622688
 10
713.8198170247463
 20
533.3214368802483
  0
LWPOLYLINE
  5
127
330
1F
100
AcDbEntity
  8
Drawing
 62
     7
 48
0.25
100
AcDbPolyline
 90
       14
 70
     1
 43
0.0
 10
715.1410509137957
 20
533.1521879030317
 10
715.750852078271
 20
533.5245356529081
 10
716.157384220606
 20
533.4906858574648
 10
716.2590216826504
 20
532.9490891303719
 10
716.2590216826504
 20
532.7798401531554
 10
716.1235070339073
 20
532.509041789609
 10
716.02187547381
 20
532.4074924032791
 10
715.9202380117656
 20
532.4074924032791
 10
715.750852078271
 20
532.4074924032791
 10
715.6153374295266
 20
532.4074924032791
 10
715.378197122636
 20
532.5428915850523
 10
715.2426824738916
 20
532.6782907668255
 10
715.2426824738916
 20
532.7798401531554
 10
715.2426824738916
 20
533.0506385167018
  0
LWPOLYLINE
  5
128
330
1F
100
AcDbEntity
  8
Drawing
 62
     7
 48
0.25
100
AcDbPolyline
 90
        8
 70
     1
 43
0.0
 10
714.0927113380874
 20
530.9141196570533
 10
714.5684497332497
 20
531.2249202250191
 10
714.518129716909
 20
531.7551127280742
 10
714.2024993915668
 20
532.1299049471468
 10
713.7506933992033
 20
531.712280085638
 10
713.7506933992033
 20
531.712280085638
 10
713.6611490304592
 20
531.3300093083092
 10
713.6764409800651
 20
530.9004062178508
  0
LWPOLYLINE
  5
129
330
1F
100
AcDbEntity
  8
Drawing
 62
     7
 48
0.25
100
AcDbPolyline
 90
        9
 70
     1
 43
0.0
 10
722.6925886322463
 20
537.7872610770535
 10
723.2202169621576
 20
536.5891016964281
 10
723.8437755695243
 20
536.2536189172254
 10
724.8510670906164
 20
536.6849539190575
 10
725.7144572935742
 20
537.691408854424
 10
724.3234387607065
 20
538.8416388248565
 10
723.5559788352055
 20
538.9374943463645
 10
722.3568267591997
 20
538.9374943463645
 10
722.4047918979275
 20
538.2185960788863
  0
LWPOLYLINE
  5
12A
330
1F
100
AcDbEntity
  8
Drawing
 62
     7
 48
0.25
100
AcDbPolyline
 90
        8
 70
     1
 43
0.0
 10
712.8531722257437
 20
524.0100182594449
 10
713.332835416926
 20
523.8662399255004
 10
713.6685972899738
 20
524.9206176733035
 10
713.332835416926
 20
525.543660419273
 10
712.2775787571061
 20
525.543660419273
 10
711.9897820227859
 20
525.3519559740141
 10
712.1336833409202
 20
524.6330610054151
 10
712.613340630154
 20
524.1058704820744
  0
LWPOLYLINE
  5
12B
330
1F
100
AcDbEntity
  8
Drawing
 62
     7
 48
0.25
100
AcDbPolyline
 90
        7
 70
     1
 43
0.0
 10
709.1597798183213
 20
524.6809871167295
 10
708.3443606560411
 20
525.0164731948114
 10
708.2484244766345
 20
524.4892826714706
 10
708.2484244766345
 20
524.0100182594449
 10
708.7280876678167
 20
523.9141660368155
 10
709.0638495408646
 20
523.9141660368155
 10
709.1597798183213
 20
524.3455043375268
  0
LWPOLYLINE
  5
12C
330
1F
100
AcDbEntity
  8
Drawing
 62
     7
 48
0.25
100
AcDbPolyline
 90
        8
 70
     1
 43
0.0
 10
709.6874081482313
 20
520.9427306409088
 10
709.9272397438224
 20
520.0321312270503
 10
710.4069029350046
 20
520.0321312270503
 10
710.5987634899182
 20
520.5593217503911
 10
710.5987634899182
 20
521.5657733868791
 10
709.8792746050933
 20
521.7095550197021
 10
709.3516462751834
 20
521.4699211642496
 10
709.3996114139125
 20
521.2302906076757
  0
LWPOLYLINE
  5
12D
330
1F
100
AcDbEntity
  8
Drawing
 62
     7
 48
0.25
100
AcDbPolyline
 90
       14
 70
     1
 43
0.0
 10
698.5469012042834
 20
518.9159258926384
 10
699.2184308523276
 20
519.8265286053754
 10
699.3143611297844
 20
520.8329802418634
 10
699.0745295341947
 20
521.1205402086302
 10
698.3550406493698
 20
521.1205402086302
 10
697.8753774581876
 20
521.0726140973159
 10
697.3957142670067
 20
519.8265286053754
 10
697.0599523939588
 20
519.6348241601165
 10
696.5802951047251
 20
519.4431164159791
 10
696.5802951047251
 20
518.8200736700089
 10
697.2518188508209
 20
518.2928864455466
 10
697.7794471807308
 20
518.2449570353531
 10
698.067243915051
 20
518.2449570353531
 10
698.4989360655557
 20
518.7242214473795
  0
LWPOLYLINE
  5
12E
330
1F
100
AcDbEntity
  8
Drawing
 62
     7
 48
0.25
100
AcDbPolyline
 90
        6
 70
     1
 43
0.0
 10
695.620968722362
 20
516.5675365415805
 10
694.7575785194042
 20
517.2864315101801
 10
694.7575785194042
 20
516.5196104302661
 10
695.2372417105851
 20
515.8007154616664
 10
695.620968722362
 20
515.704863239037
 10
696.0526667748152
 20
515.8486415729808
  0
LWPOLYLINE
  5
12F
330
1F
100
AcDbEntity
  8
Drawing
 62
     7
 48
0.25
100
AcDbPolyline
 90
       10
 70
     1
 43
0.0
 10
675.9520275757161
 20
530.1945055328736
 10
676.3107952455846
 20
530.1945055328736
 10
676.6396636423149
 20
530.1945055328736
 10
676.9685379409937
 20
530.4633575579237
 10
677.5066835438486
 20
529.9853995019052
 10
677.7458659250599
 20
529.447695451805
 10
677.0582298584611
 20
529.0892227861932
 10
676.6695629154544
 20
528.7904994135417
 10
676.1912040549789
 20
529.3580781101218
 10
676.0417194931836
 20
529.9555281543039
  0
LWPOLYLINE
  5
130
330
1F
100
AcDbEntity
  8
Drawing
 62
     7
 48
0.25
100
AcDbPolyline
 90
        8
 70
     1
 43
0.0
 10
663.555249494287
 20
522.1061726209648
 10
663.9332693214749
 20
522.588801889374
 10
663.9332693214749
 20
522.8196244395317
 10
663.7442594078809
 20
523.00848195238
 10
663.2822312400192
 20
523.0294628215954
 10
662.7571997676257
 20
523.0294628215954
 10
662.6731914269519
 20
522.2320776295298
 10
663.2612321058243
 20
522.0222392474661
  0
LWPOLYLINE
  5
131
330
1F
100
AcDbEntity
  8
Drawing
 62
     7
 48
0.25
100
AcDbPolyline
 90
       23
 70
     1
 43
0.0
 10
657.191856717139
 20
518.9585902922549
 10
658.7459520001246
 20
520.3645097612955
 10
659.4809984222541
 20
520.910091533988
 10
660.174040674048
 20
521.3087874288992
 10
660.6150697077148
 20
521.8963342389011
 10
660.6360688419097
 20
522.6727385617512
 10
659.123977729261
 20
523.8478354806334
 10
657.191856717139
 20
524.7921098493587
 10
654.6717009280917
 20
525.1278532399874
 10
652.2775517481066
 20
525.1068690718935
 10
651.1224813284523
 20
524.7291573450761
 10
651.1224813284523
 20
524.3514489171373
 10
650.9964747193901
 20
522.1481409571527
 10
651.0804771581154
 20
518.7277677420973
 10
651.4164987169149
 20
517.2588957687742
 10
651.7525202757145
 20
515.7480554592626
 10
652.3195559184448
 20
515.0346036406957
 10
652.8655865250319
 20
514.6359110446629
 10
653.7476445923669
 20
514.9506702671977
 10
654.7137050984286
 20
516.3985580724261
 10
655.5117548250898
 20
517.4687341508379
 10
656.8558351583395
 20
518.7277677420973
 10
657.0658501080754
 20
518.853672750663
  0
LWPOLYLINE
  5
14A
330
1F
100
AcDbEntity
  8
Drawing
 62
     7
 48
0.25
100
AcDbPolyline
 90
       23
 70
     1
 43
0.0
 10
654.3138421583533
 20
512.6925514358272
 10
656.6449821318581
 20
514.9168435639058
 10
657.233016908782
 20
516.8053923013556
 10
658.1150749761184
 20
517.8545875105519
 10
658.7259207855502
 20
518.5294655392236
 10
659.4819722438231
 20
519.0330789757274
 10
660.0700070207483
 20
519.075047311916
 10
660.6160376273353
 20
518.5714338754121
 10
661.3720890856082
 20
517.3753527884353
 10
661.6661064740708
 20
516.4520625878047
 10
661.6871056082643
 20
515.0881081560735
 10
661.603103169539
 20
513.3674327633773
 10
660.7000459680091
 20
511.9615099954582
 10
659.9440004116848
 20
510.933302253235
 10
659.1039465146866
 20
510.0309929218199
 10
657.7178620111001
 20
509.6323003257871
 10
656.686567263823
 20
509.1003528192061
 10
655.7835100622931
 20
508.8275619328599
 10
654.3344222541762
 20
509.2472386969873
 10
653.5993758320453
 20
509.8977413101501
 10
653.1163485299901
 20
510.6111931287177
 10
653.6833841727205
 20
511.8492425518832
 10
653.9984006953766
 20
512.4367893618851
  0
LWPOLYLINE
  5
14B
330
1F
100
AcDbEntity
  8
Drawing
 62
     7
 48
0.25
100
AcDbPolyline
 90
       11
 70
     1
 43
0.0
 10
661.9158887555116
 20
511.9331759253811
 10
662.5249285685788
 20
513.2131936847352
 10
662.9449525661037
 20
513.7797596255216
 10
663.7430022927649
 20
513.4440162348928
 10
664.2890328993519
 20
512.9613869664829
 10
663.4279798681603
 20
511.3666132834732
 10
662.6929393479779
 20
509.792820469679
 10
662.482924398242
 20
509.5619979195214
 10
661.2438456379125
 20
509.6459345918985
 10
660.6348117267937
 20
509.9606938144333
 10
661.2018473695241
 20
511.3036607791907
  0
LWPOLYLINE
  5
14C
330
1F
100
AcDbEntity
  8
Drawing
 62
     7
 48
0.25
100
AcDbPolyline
 90
       14
 70
     1
 43
0.0
 10
668.4883875822654
 20
521.1923106159652
 10
670.7464437225137
 20
521.1385916734648
 10
673.3270826839109
 20
520.8700002598407
 10
673.8647148172097
 20
520.3328108348348
 10
671.9830023506613
 20
517.4320011353166
 10
669.6711794559149
 20
514.6386260219213
 10
668.3270991226652
 20
513.1345022296621
 10
666.7141968208177
 20
512.704750689657
 10
665.9615094734193
 20
514.5849070794209
 10
664.4561406805694
 20
518.5063733875713
 10
663.5421648735708
 20
520.117935064832
 10
663.5421648735708
 20
521.0848727309644
 10
664.5636623856715
 20
521.2997485009666
 10
665.9615094734193
 20
521.1923106159652
  0
LWPOLYLINE
  5
14D
330
1F
100
AcDbEntity
  8
Drawing
 62
     7
 48
0.25
100
AcDbPolyline
 90
       27
 70
     1
 43
0.0
 10
638.3271741473998
 20
519.5270299962042
 10
641.0691015683972
 20
520.2790918923338
 10
644.4561887297439
 20
522.3204051095995
 10
645.6389806033919
 20
522.6427154657247
 10
646.3379070982407
 20
521.4609053284685
 10
646.8217724770413
 20
519.688186823706
 10
647.6282265789393
 20
519.2584352837009
 10
649.4024114384385
 20
519.204719640079
 10
650.2626263928862
 20
519.0435628125772
 10
649.7787551121371
 20
516.5187824116852
 10
648.918546059638
 20
513.7791262407902
 10
648.7034908455382
 20
513.1345022296621
 10
649.1873621262873
 20
511.7915319660255
 10
648.9723069121876
 20
510.5560028862689
 10
648.1658587122381
 20
509.5890652201364
 10
646.98306683859
 20
509.5353462776361
 10
646.122851884141
 20
508.675846496505
 10
645.0475876175421
 20
508.6221275540046
 10
643.2196360035434
 20
509.4816273351357
 10
639.2949108069495
 20
509.8576599326397
 10
636.5529833859521
 20
509.9113788751401
 10
635.370191512304
 20
510.5560028862689
 10
634.3486880982548
 20
513.2419401146628
 10
633.8110559649547
 20
514.1551588382949
 10
634.7787926245044
 20
516.7336548828089
 10
636.929327059652
 20
518.5600923300717
 10
638.0583580807504
 20
519.3658731687024
  0
LWPOLYLINE
  5
16A
330
1F
100
AcDbEntity
  8
Drawing
 62
     7
 48
0.25
100
AcDbPolyline
 90
       20
 70
     1
 43
0.0
 10
643.3818864808156
 20
506.5709012059226
 10
646.3926299684624
 20
507.6452767570558
 10
648.9195080773086
 20
507.8064335845576
 10
652.5754113053047
 20
508.343619710685
 10
653.4893871123033
 20
508.2361818256836
 10
654.9947559051532
 20
507.1080906309284
 10
656.6076582070007
 20
505.818839309793
 10
658.1667937543486
 20
504.4758723450349
 10
658.2205546068997
 20
501.413902519137
 10
657.5216340139993
 20
498.0833412796143
 10
656.6076582070007
 20
497.2238414984833
 10
654.8872342000525
 20
495.7197177062234
 10
653.1668042911544
 20
495.1288126375957
 10
650.0485331964585
 20
495.4511262925993
 10
647.7367103017107
 20
496.25690713123
 10
643.3818864808156
 20
496.7403743148563
 10
641.6614565719176
 20
498.781687532122
 10
640.6937199123679
 20
502.2734023002674
 10
641.0700635860678
 20
504.3147155175331
 10
642.5754323789176
 20
506.0874340222956
  0
LWPOLYLINE
  5
16C
330
1F
100
AcDbEntity
  8
Drawing
 62
     7
 48
0.25
100
AcDbPolyline
 90
        8
 70
     1
 43
0.0
 10
657.3735246062981
 20
507.2193684108619
 10
657.1584693921984
 20
508.1863060769937
 10
656.6746040133978
 20
508.1863060769937
 10
656.3520211922489
 20
508.078868191993
 10
656.3520211922489
 20
507.2193684108619
 10
656.5670764063486
 20
506.7896168708568
 10
657.1047085396488
 20
506.7359012272349
 10
657.3197637537471
 20
507.004492640859
  0
LWPOLYLINE
  5
16D
330
1F
100
AcDbEntity
  8
Drawing
 62
     7
 48
0.25
100
AcDbPolyline
 90
        8
 70
     1
 43
0.0
 10
657.9649234940964
 20
505.6615256761017
 10
658.2875004132968
 20
506.5210254572327
 10
657.9649234940964
 20
506.6284633422335
 10
657.3735246062981
 20
506.5747443997331
 10
657.2122361466979
 20
506.1987118022291
 10
657.2122361466979
 20
505.7689635611031
 10
657.5885798203979
 20
505.7152446186021
 10
657.8573958870472
 20
505.7152446186021
  0
LWPOLYLINE
  5
16E
330
1F
100
AcDbEntity
  8
Drawing
 62
     7
 48
0.25
100
AcDbPolyline
 90
       22
 70
     1
 43
0.0
 10
663.7175944027406
 20
502.7607126777049
 10
664.90038627639
 20
503.7276503438374
 10
666.2982333641378
 20
504.3722743549656
 10
667.6960804518856
 20
505.2317741360966
 10
668.5025286518351
 20
505.6078067336013
 10
667.1584483185868
 20
507.0582115833601
 10
665.6530736237885
 20
507.5953977094875
 10
664.4165149956409
 20
508.3474629044956
 10
662.7498518412424
 20
508.3474629044956
 10
661.1907162938944
 20
508.8309300881226
 10
659.5240590414458
 20
508.9920869156244
 10
658.8251325465969
 20
508.9920869156244
 10
658.1262119536966
 20
508.9920869156244
 10
658.0724451991971
 20
507.8639924219901
 10
658.6100773324972
 20
506.7896168708568
 10
659.4702922869462
 20
505.1243362510958
 10
660.2229796343447
 20
504.2648364699648
 10
661.0294278342942
 20
503.0830263327086
 10
661.3520106554431
 20
502.1160886665768
 10
661.7821151816927
 20
501.7937750115731
 10
662.481035774593
 20
501.9012128965739
 10
663.341250729042
 20
502.5458369077027
  0
LWPOLYLINE
  5
16F
330
1F
100
AcDbEntity
  8
Drawing
 62
     7
 48
0.25
100
AcDbPolyline
 90
       27
 70
     1
 43
0.0
 10
667.1046815640873
 20
503.9425261138396
 10
669.2014492447354
 20
505.6615256761017
 10
670.5455354799321
 20
506.5747443997331
 10
671.8896158131818
 20
506.9507736983587
 10
672.85735837468
 20
506.9507736983587
 10
673.7175674271791
 20
506.6821822847346
 10
674.3089663149788
 20
506.3598686297309
 10
674.7390708412283
 20
505.6078067336013
 10
675.1154145149283
 20
504.8020258949707
 10
675.1154145149283
 20
503.4053366888338
 10
675.4917581886268
 20
502.1160886665768
 10
676.083151174478
 20
501.3103078279461
 10
676.3519731430758
 20
500.7731217018188
 10
676.3519731430758
 20
499.9673408631888
 10
675.7605742552776
 20
499.21527566818
 10
675.330469729028
 20
498.8392463695545
 10
673.0186468342802
 20
498.4094948295494
 10
670.6530630869827
 20
497.6574329334198
 10
667.9111297640368
 20
497.4425604622961
 10
666.5670494307872
 20
497.4425604622961
 10
665.1692023430394
 20
497.4962794047971
 10
664.5240426026901
 20
497.872308703422
 10
664.1476989289902
 20
499.21527566818
 10
664.0939380764405
 20
499.9673408631888
 10
664.1476989289902
 20
501.6326214829498
 10
665.599306869289
 20
503.0830263327086
 10
666.2982333641378
 20
503.4053366888338
  0
LWPOLYLINE
  5
170
330
1F
100
AcDbEntity
  8
Drawing
 62
     7
 48
0.25
100
AcDbPolyline
 90
        9
 70
     1
 43
0.0
 10
671.6207997465324
 20
509.2606816281277
 10
672.3197203394313
 20
508.9920869156244
 10
673.1261744413293
 20
509.0995248006258
 10
673.5562789675803
 20
509.6367109267525
 10
673.5562789675803
 20
510.3350538803817
 10
672.6960640131313
 20
510.8185243628872
 10
671.1906952202814
 20
510.8722433053883
 10
670.8143515465829
 20
510.3887728228828
 10
671.0294008587327
 20
509.6367109267525
  0
LWPOLYLINE
  5
171
330
1F
100
AcDbEntity
  8
Drawing
 62
     7
 48
0.25
100
AcDbPolyline
 90
        6
 70
     1
 43
0.0
 10
675.330469729028
 20
507.9714303069915
 10
676.1369179289761
 20
508.6697732606207
 10
675.7605742552776
 20
509.4755540992507
 10
675.1691753674779
 20
509.4755540992507
 10
674.093911100879
 20
508.5623353756193
 10
674.8465984482775
 20
507.7565545369893
  0
LWPOLYLINE
  5
172
330
1F
100
AcDbEntity
  8
Drawing
 62
     7
 48
0.25
100
AcDbPolyline
 90
       33
 70
     1
 43
0.0
 10
684.909332797343
 20
503.716420960377
 10
685.662014242793
 20
501.6751077431113
 10
686.6297568042912
 20
499.6875167672251
 10
686.9523337234916
 20
498.6668601585922
 10
688.0276038920404
 20
497.6462035499594
 10
688.6727636323897
 20
496.9478605963301
 10
688.941579699039
 20
495.0139852640659
 10
688.5114692708396
 20
493.1875511156815
 10
688.5114692708396
 20
492.704080633176
 10
687.3286773971915
 20
492.5429238056742
 10
683.5114857095953
 20
492.650361690675
 10
680.1243985482486
 20
492.9189564031782
 10
676.468489418304
 20
493.509861471806
 10
675.3932251517051
 20
494.4230801954381
 10
674.8018262639055
 20
494.9602663215648
 10
675.3932251517051
 20
496.4106744702028
 10
676.3609677132033
 20
498.1296740324648
 10
677.0598883061023
 20
499.9561081808492
 10
677.5437595868514
 20
501.5676731569883
 10
677.5437595868514
 20
504.4147639140055
 10
678.1351525727011
 20
506.4023581887708
 10
678.2426801797517
 20
507.5841683260264
 10
678.83407906755
 20
508.6048249346592
 10
679.1028951342007
 20
508.980857532164
 10
679.4792388078993
 20
508.980857532164
 10
680.2319202533492
 20
508.8734196471625
 10
681.1458960603493
 20
508.0676388085319
 10
681.9523501622473
 20
507.4767337399041
 10
682.1136386218475
 20
506.7246685448953
 10
683.1889028884464
 20
505.757734177642
 10
684.2104063024942
 20
505.2742636951365
 10
684.5329891236445
 20
504.7907965115102
 10
684.6942775832433
 20
504.2536070865037
  0
LWPOLYLINE
  5
173
330
1F
100
AcDbEntity
  8
Drawing
 62
     7
 48
0.25
100
AcDbPolyline
 90
        8
 70
     1
 43
0.0
 10
685.9308303094438
 20
501.6213888006102
 10
686.522229197242
 20
502.8569211792459
 10
686.9523337234916
 20
503.0717969492482
 10
687.4362050042407
 20
502.4271729381193
 10
687.8125486779406
 20
501.3527973869861
 10
687.2749165446405
 20
500.7618923183583
 10
686.522229197242
 20
500.6007354908565
 10
686.0383579164929
 20
501.2990784444857
  0
LWPOLYLINE
  5
174
330
1F
100
AcDbEntity
  8
Drawing
 62
     7
 48
0.25
100
AcDbPolyline
 90
       11
 70
     1
 43
0.0
 10
687.7050210708915
 20
502.6957643517441
 10
688.4039475657389
 20
503.3403883628723
 10
689.1566290111889
 20
503.1792348342496
 10
688.8878129445395
 20
500.923045846981
 10
688.6189968778901
 20
500.4395786633547
 10
688.135125597141
 20
500.1709839508514
 10
687.9738371375408
 20
500.1709839508514
 10
687.3286773971915
 20
500.6544544333569
 10
687.5437326112913
 20
501.1916405594843
 10
687.5974934638409
 20
502.2660161106175
 10
687.5974934638409
 20
502.5346075242423
  0
LWPOLYLINE
  5
175
330
1F
100
AcDbEntity
  8
Drawing
 62
     7
 48
0.25
100
AcDbPolyline
 90
        7
 70
     1
 43
0.0
 10
684.8018051902939
 20
510.0015141407968
 10
685.1781488639938
 20
510.3775434394217
 10
685.2319097165434
 20
510.8610106230487
 10
684.6405108287452
 20
510.9147295655491
 10
684.2641730569937
 20
510.6998570944253
 10
684.0491178428954
 20
510.646138151925
 10
684.102878695445
 20
510.055229784418
  0
LWPOLYLINE
  5
176
330
1F
100
AcDbEntity
  8
Drawing
 62
     7
 48
0.25
100
AcDbPolyline
 90
        9
 70
     1
 43
0.0
 10
693.1888818148334
 20
511.1833242780523
 10
692.7050105340843
 20
512.3651377141871
 10
691.6297403655369
 20
512.2576998291856
 10
691.2534025937855
 20
511.989105116683
 10
691.2534025937855
 20
511.0758863930509
 10
691.2534025937855
 20
510.646138151925
 10
691.4684519059367
 20
510.2701055544209
 10
692.973826600735
 20
510.1089487269191
 10
693.2426426673844
 20
510.3238244969213
  0
LWPOLYLINE
  5
177
330
1F
100
AcDbEntity
  8
Drawing
 62
     7
 48
0.25
100
AcDbPolyline
 90
       13
 70
     1
 43
0.0
 10
695.231882740982
 20
512.1502619441849
 10
696.1996253024802
 20
512.5262945416889
 10
697.2211287165294
 20
512.6874480703116
 10
698.1888653760791
 20
512.4725755991885
 10
697.3824171761296
 20
510.7535760369264
 10
697.2748895690804
 20
510.1626676694195
 10
696.8985458953805
 20
509.8940762557954
 10
696.3609137620804
 20
509.8940762557954
 10
695.4469379550817
 20
510.0015141407968
 10
694.9093058217829
 20
510.0015141407968
 10
694.532962148083
 20
510.0015141407968
 10
694.2641460814336
 20
510.6998570944253
 10
694.8017782147324
 20
511.989105116683
  0
LWPOLYLINE
  5
178
330
1F
100
AcDbEntity
  8
Drawing
 62
     7
 48
0.25
100
AcDbPolyline
 90
        6
 70
     1
 43
0.0
 10
698.2627164626922
 20
514.2596574222787
 10
699.1229314171412
 20
514.1522195372772
 10
699.4992750908411
 20
513.937343767275
 10
699.3917474837906
 20
513.4001576411476
 10
698.155188855643
 20
513.1315629286444
 10
697.9939003960428
 20
513.8299058822736
  0
LWPOLYLINE
  5
179
330
1F
100
AcDbEntity
  8
Drawing
 62
     7
 48
0.25
100
AcDbPolyline
 90
        8
 70
     1
 43
0.0
 10
702.2412025118372
 20
507.9745642418588
 10
703.2627059258864
 20
508.0820021268595
 10
703.9078656662357
 20
507.5448160007322
 10
704.553025406585
 20
507.5448160007322
 10
705.0368907853856
 20
507.2225023457285
 10
704.1229149783856
 20
505.7720974959697
 10
702.993889859237
 20
507.0613455182267
 10
702.2949633643882
 20
508.0282831843592
  0
LWPOLYLINE
  5
17A
330
1F
100
AcDbEntity
  8
Drawing
 62
     7
 48
0.25
100
AcDbPolyline
 90
       10
 70
     1
 43
0.0
 10
707.2411860730829
 20
503.6233463937032
 10
708.1014010275319
 20
502.8175655550726
 10
707.8325849608811
 20
502.2803794289452
 10
707.0798976134827
 20
501.7431900039393
 10
706.5422654801826
 20
502.065503658943
 10
706.0046333468838
 20
502.065503658943
 10
705.5207620661347
 20
502.6026897850704
 10
706.112160953933
 20
503.5159085087018
 10
706.5422654801826
 20
504.1068168762087
 10
707.0798976134827
 20
503.6770653362036
  0
LWPOLYLINE
  5
17B
330
1F
100
AcDbEntity
  8
Drawing
 62
     7
 48
0.25
100
AcDbPolyline
 90
        7
 70
     1
 43
0.0
 10
713.316439802876
 20
513.7761869397732
 10
714.122893904774
 20
514.367092008401
 10
714.2304156098746
 20
513.2927197561462
 10
714.7680536451232
 20
512.4332199750152
 10
713.5314950169757
 20
512.8092492736407
 10
712.7788076695758
 20
513.2390008136458
 10
713.0476237362266
 20
513.7224679972721
  0
LWPOLYLINE
  5
17C
330
1F
100
AcDbEntity
  8
Drawing
 62
     7
 48
0.25
100
AcDbPolyline
 90
       11
 70
     1
 43
0.0
 10
719.3575094446267
 20
513.6128066679546
 10
720.6478289253253
 20
514.203711736583
 10
722.0456760130744
 20
513.6128066679546
 10
722.3682529322734
 20
513.3979308979524
 10
722.5295472938235
 20
512.9144637143261
 10
722.5295472938235
 20
511.1954641520639
 10
722.3682529322734
 20
510.5508401409351
 10
721.6155714868235
 20
510.5508401409351
 10
720.5940680727756
 20
511.5714934506895
 10
719.8413807253758
 20
512.2161207606969
 10
719.4112761991262
 20
513.3979308979524
  0
LWPOLYLINE
  5
17D
330
1F
100
AcDbEntity
  8
Drawing
 62
     7
 48
0.25
100
AcDbPolyline
 90
       30
 70
     1
 43
0.0
 10
723.8198667745207
 20
515.7078355288422
 10
724.3037321533213
 20
517.4268350911043
 10
725.1639471077704
 20
518.3937727572368
 10
726.1316896692686
 20
518.125181343612
 10
727.4757700025182
 20
517.5342729761057
 10
729.7338261427651
 20
517.1582436774802
 10
731.3467284446126
 20
517.1045247349791
 10
732.529520318262
 20
516.6210542524736
 10
733.5510237323099
 20
516.0301491838459
 10
734.08865586561
 20
515.5466820002196
 10
733.8198397989606
 20
511.9475260481935
 10
733.4434961252607
 20
509.3153077623001
 10
733.3359685182115
 20
506.7368084189069
 10
733.228440911161
 20
505.6087139252733
 10
732.7983363849114
 20
504.5880606155189
 10
732.2607042516127
 20
504.4269037880171
 10
731.2392008375634
 20
504.5880606155189
 10
730.2714641780137
 20
505.1789656841467
 10
729.6263044376644
 20
505.5012793391504
 10
729.3037216165155
 20
505.5549949827723
 10
728.2822182024663
 20
504.856652029143
 10
728.1209297428661
 20
503.6748418918875
 10
726.7768494096179
 20
502.6541852832547
 10
725.5940516340199
 20
502.2781526857506
 10
723.9811552341209
 20
502.1169991571273
 10
723.1209402796733
 20
504.2120280180149
 10
722.7983633604729
 20
506.8442463039084
 10
723.1209402796733
 20
510.7657126120588
 10
723.4972839533718
 20
513.8276824379575
 10
723.658572412972
 20
514.9020546902123
  0
LWPOLYLINE
  5
17F
330
1F
100
AcDbEntity
  8
Drawing
 62
     7
 48
0.25
100
AcDbPolyline
 90
       11
 70
     1
 43
0.0
 10
737.1045635585458
 20
500.6168901003768
 10
738.3735002783726
 20
500.5565173193212
 10
739.2194561242725
 20
500.7980183401789
 10
738.6756269446266
 20
497.9603755720663
 10
738.6152027917644
 20
496.5717389290982
 10
737.346266071939
 20
496.8132399499552
 10
736.4398860731769
 20
497.6584984712746
 10
735.2917976590732
 20
497.5981223913406
 10
735.593930227277
 20
499.7716348779365
 10
735.9564810463919
 20
500.5565173193212
 10
736.862861045154
 20
500.5565173193212
  0
LWPOLYLINE
  5
180
330
1F
100
AcDbEntity
  8
Drawing
 62
     7
 48
0.25
100
AcDbPolyline
 90
        4
 70
     0
 43
0.0
 10
737.8296710987254
 20
496.6924910889663
 10
736.0773293521136
 20
496.8132399499552
 10
735.5335001724663
 20
497.2358692106149
 10
735.593930227277
 20
497.6584984712746
  0
LWPOLYLINE
  5
181
330
1F
100
AcDbEntity
  8
Drawing
 62
     7
 48
0.25
100
AcDbPolyline
 90
        8
 70
     0
 43
0.0
 10
739.4007344848048
 20
494.5189753034919
 10
736.742012739431
 20
492.8284648586113
 10
736.3794560183676
 20
492.0435857161044
 10
736.742012739431
 20
491.2587032747196
 10
737.2254177662173
 20
490.8964533928731
 10
737.7692469458646
 20
490.836077312939
 10
738.9777536108807
 20
491.3190793546536
 10
739.0381777637415
 20
491.5002075944557
  0
LWPOLYLINE
  5
182
330
1F
100
AcDbEntity
  8
Drawing
 62
     7
 48
0.25
100
AcDbPolyline
 90
       12
 70
     0
 43
0.0
 10
730.2160566817199
 20
496.149112967317
 10
731.9683984283317
 20
497.356621370483
 10
733.4186076067397
 20
498.5641264747705
 10
734.0832909940584
 20
497.5981223913406
 10
734.1437151469192
 20
497.054744269692
 10
733.297759301018
 20
495.7868597865919
 10
731.0620125276212
 20
494.4586025224364
 10
730.1556325288591
 20
493.9152211019086
 10
729.8535058626051
 20
493.7340961609856
 10
729.0075500167038
 20
494.2170982027002
 10
728.5241449899174
 20
494.700103543294
 10
729.7326575568834
 20
495.6661076267239
  0
LWPOLYLINE
  5
183
330
1F
100
AcDbEntity
  8
Drawing
 62
     7
 48
0.25
100
AcDbPolyline
 90
       11
 70
     1
 43
0.0
 10
732.8747784270938
 20
491.017202253862
 10
732.0892467340534
 20
491.4398315145217
 10
731.5454175544062
 20
491.3190793546536
 10
730.8807400690373
 20
490.4134480522793
 10
731.001588374759
 20
489.7493210696411
 10
732.0288225811926
 20
489.3870678889154
 10
732.7539301213708
 20
489.3266918089814
 10
733.599885967272
 20
489.4474439688494
 10
733.6603101201329
 20
490.0511981704321
 10
733.6603101201329
 20
490.7153251530703
 10
732.7539301213708
 20
491.1983304936641
  0
LWPOLYLINE
  5
184
330
1F
100
AcDbEntity
  8
Drawing
 62
     7
 48
0.25
100
AcDbPolyline
 90
       11
 70
     1
 43
0.0
 10
724.1735115527424
 20
486.6097979018584
 10
725.9258473974057
 20
486.5494251208028
 10
726.771803243307
 20
486.1871719400771
 10
726.8926574509771
 20
485.5230416585604
 10
726.469676577053
 20
484.5570342762521
 10
724.7173407323896
 20
483.8325312136798
 10
723.1462773463102
 20
483.9532800746687
 10
722.7837206252468
 20
484.6174103561861
 10
722.1794672927388
 20
485.8249187593514
 10
722.5420181118536
 20
486.7305500617264
 10
723.6901065259574
 20
486.7305500617264
  0
LWPOLYLINE
  5
185
330
1F
100
AcDbEntity
  8
Drawing
 62
     7
 48
0.25
100
AcDbPolyline
 90
       18
 70
     1
 43
0.0
 10
723.6901065259574
 20
495.847235866526
 10
725.9862715502666
 20
494.5189753034919
 10
727.1343599643703
 20
494.2774742826343
 10
728.2824424765256
 20
493.9152211019086
 10
728.5241449899174
 20
492.285086736962
 10
727.6177649911567
 20
489.507816749905
 10
727.1947841172312
 20
487.5758052841667
 10
725.3215940648977
 20
486.6701739817924
 10
721.6356381130915
 20
487.3946803432431
 10
719.2186188811108
 20
487.3946803432431
 10
718.1913846746786
 20
487.3946803432431
 10
717.4058529816382
 20
487.9380584648918
 10
717.466277134499
 20
490.5342002121474
 10
717.4058529816382
 20
494.4586025224364
 10
717.8288338555637
 20
496.3906139881746
 10
719.7624480607581
 20
496.6924910889663
 10
721.5147898073699
 20
496.6924910889663
 10
722.7837206252468
 20
496.0283608074489
  0
LWPOLYLINE
  5
186
330
1F
100
AcDbEntity
  8
Drawing
 62
     7
 48
0.25
100
AcDbPolyline
 90
       13
 70
     1
 43
0.0
 10
711.0007511315973
 20
492.7077159976217
 10
712.8739411839308
 20
492.6473399176877
 10
713.2364920030457
 20
491.1983304936641
 10
713.9011753903644
 20
489.0851907881237
 10
714.1428779037562
 20
488.360684426673
 10
714.3845804171494
 20
487.1531793223855
 10
712.5718145176768
 20
486.4890490408688
 10
710.3964977990893
 20
486.8513022215945
 10
709.5505419531894
 20
486.7909261416605
 10
709.1879852321247
 20
489.7493210696411
 10
708.8254344130098
 20
492.345462816896
 10
708.8858585658706
 20
493.0699658794683
 10
709.7922444665812
 20
493.0699658794683
  0
LWPOLYLINE
  5
187
330
1F
100
AcDbEntity
  8
Drawing
 62
     7
 48
0.25
100
AcDbPolyline
 90
       10
 70
     1
 43
0.0
 10
712.0884094908918
 20
484.0136561546028
 10
713.0552195444632
 20
482.9872759912388
 10
713.5386245712496
 20
482.4438978695902
 10
713.5386245712496
 20
481.5382665672159
 10
712.8739411839308
 20
480.6930113447756
 10
710.8799028258757
 20
481.5382665672159
 10
710.1547952856961
 20
482.3231457097222
 10
710.1547952856961
 20
483.4702780329541
 10
711.0007511315973
 20
484.4966614951965
 10
711.6654345189147
 20
484.2551571754604
  0
LWPOLYLINE
  5
188
330
1F
100
AcDbEntity
  8
Drawing
 62
     7
 48
0.25
100
AcDbPolyline
 90
        8
 70
     1
 43
0.0
 10
712.9947953916023
 20
484.7985385959882
 10
714.3241562642886
 20
485.5230416585604
 10
714.8075553891265
 20
484.4966614951965
 10
714.8075553891265
 20
484.0740322345368
 10
714.8075553891265
 20
483.6514062727562
 10
714.6867070834035
 20
483.4099019530201
 10
714.2033020566184
 20
483.4099019530201
 10
712.9343653367916
 20
484.7985385959882
  0
LWPOLYLINE
  5
189
330
1F
100
AcDbEntity
  8
Drawing
 62
     7
 48
0.25
100
AcDbPolyline
 90
        2
 70
     0
 43
0.0
 10
713.5386245712496
 20
485.1607884778347
 10
714.6262829305426
 20
483.7117790538111
  0
LWPOLYLINE
  5
18A
330
1F
100
AcDbEntity
  8
Drawing
 62
     7
 48
0.25
100
AcDbPolyline
 90
        9
 70
     1
 43
0.0
 10
716.0160679560911
 20
493.2510941192704
 10
717.0433021625233
 20
492.0435857161044
 10
716.4390488300153
 20
491.5002075944557
 10
715.8347895955587
 20
491.077578333796
 10
714.5658528757333
 20
491.077578333796
 10
714.3845804171494
 20
492.224710657028
 10
714.5054287228725
 20
493.2510941192704
 10
714.9284095967967
 20
493.7340961609856
 10
715.7743654426979
 20
493.432219060194
  0
LWPOLYLINE
  5
18B
330
1F
100
AcDbEntity
  8
Drawing
 62
     7
 48
0.25
100
AcDbPolyline
 90
       10
 70
     1
 43
0.0
 10
724.9590432457828
 20
483.7117790538111
 10
726.2279740636598
 20
483.4702780329541
 10
727.0739358115095
 20
482.7457749703819
 10
727.6177649911567
 20
482.4438978695902
 10
727.557334936346
 20
481.2363894664242
 10
726.1675499107989
 20
481.2363894664242
 10
724.8986131909735
 20
482.0816446888645
 10
723.6296823730966
 20
481.9005197479416
 10
723.4484040125642
 20
482.0816446888645
 10
723.9318090393506
 20
483.4099019530201
  0
LWPOLYLINE
  5
18C
330
1F
100
AcDbEntity
  8
Drawing
 62
     7
 48
0.25
100
AcDbPolyline
 90
       10
 70
     1
 43
0.0
 10
726.3488282713299
 20
478.2779945384436
 10
727.3156324229528
 20
479.3647507817415
 10
728.8262716561715
 20
478.7006205002241
 10
729.0075500167038
 20
478.1572423785755
 10
728.5241449899174
 20
476.587484093563
 10
727.7990374497392
 20
475.8026016521775
 10
726.8322332981163
 20
476.3459830727053
 10
725.8049990916841
 20
476.8289851144199
 10
725.7445749388232
 20
477.4327393160033
 10
726.5905307847231
 20
478.3987466983116
  0
LWPOLYLINE
  5
18D
330
1F
100
AcDbEntity
  8
Drawing
 62
     7
 48
0.25
100
AcDbPolyline
 90
        7
 70
     0
 43
0.0
 10
741.1642958362793
 20
532.4815060482031
 10
738.7622498486637
 20
531.7100599402011
 10
737.8185872386864
 20
530.0814529561419
 10
737.9043779679293
 20
527.509967029094
 10
738.9338254052011
 20
525.7099272100481
 10
739.534336902105
 20
525.5384976739399
 10
741.2500806635737
 20
524.7670515659372
  0
LWPOLYLINE
  5
18E
330
1F
100
AcDbEntity
  8
Drawing
 62
     7
 48
0.25
100
AcDbPolyline
 90
        7
 70
     1
 43
0.0
 10
732.4997744957943
 20
523.738457854894
 10
733.615012662309
 20
524.7670515659372
 10
733.0145011654051
 20
525.452779607007
 10
731.3845422312295
 20
524.1670382929219
 10
731.2129666746935
 20
523.9098873910023
 10
731.298757403935
 20
523.738457854894
 10
731.8992629988904
 20
523.738457854894
  0
LWPOLYLINE
  5
18F
330
1F
100
AcDbEntity
  8
Drawing
 62
     7
 48
0.25
100
AcDbPolyline
 90
        9
 70
     1
 43
0.0
 10
719.2738021033467
 20
510.0232867409258
 10
719.3265714284819
 20
509.601485498847
 10
719.8014894527457
 20
509.5487595188674
 10
720.3027950905528
 20
510.1287354020059
 10
720.3027950905528
 20
510.392362003025
 10
720.0653360784202
 20
510.7878019045535
 10
719.4321100787508
 20
510.7878019045535
 10
718.9571861525385
 20
510.7087145840237
 10
718.87803511581
 20
510.4714493235549
  0
LWPOLYLINE
  5
190
330
1F
100
AcDbEntity
  8
Drawing
 62
     7
 48
0.25
100
AcDbPolyline
 90
        9
 70
     1
 43
0.0
 10
705.7649374961177
 20
511.8423083086297
 10
706.0815534469259
 20
512.4486488311977
 10
705.4747091588499
 20
512.738636772767
 10
705.0789421713132
 20
512.5277361517276
 10
704.9206341959091
 20
512.2641095507086
 10
705.2900194718525
 20
511.6577690281405
 10
705.4219398337148
 20
511.4205037676717
 10
705.5538601955784
 20
511.4995943870808
 10
705.6330171342554
 20
511.6314076875903
  0
LWPOLYLINE
  5
191
330
1F
100
AcDbEntity
  8
Drawing
 62
     7
 48
0.25
100
AcDbPolyline
 90
        7
 70
     1
 43
0.0
 10
706.7675487717304
 20
510.7350759245739
 10
706.6092407963249
 20
511.1832418060821
 10
706.2926248455167
 20
511.1568804655319
 10
706.1870920971962
 20
510.9196152050631
 10
706.1607044836544
 20
510.6032626240644
 10
706.2662431339234
 20
510.4714493235549
 10
706.6092407963249
 20
510.655988604044
  0
LWPOLYLINE
  5
192
330
1F
100
AcDbEntity
  8
Drawing
 62
     7
 48
0.25
100
AcDbPolyline
 90
        9
 70
     1
 43
0.0
 10
707.7437724338013
 20
511.3414164471419
 10
707.7437724338013
 20
512.0004829496895
 10
707.6382396854794
 20
512.2641095507086
 10
707.3743930598064
 20
512.2641095507086
 10
707.110546434132
 20
511.9477569697098
 10
707.110546434132
 20
511.5786817076107
 10
707.1897033728089
 20
511.262329126612
 10
707.2952361211294
 20
511.1568804655319
 10
707.6910090106146
 20
511.1041544855522
  0
LWPOLYLINE
  5
193
330
1F
100
AcDbEntity
  8
Drawing
 62
     7
 48
0.25
100
AcDbPolyline
 90
       14
 70
     1
 43
0.0
 10
701.2334329328839
 20
489.0308021732253
 10
703.0858481250818
 20
488.8625395607725
 10
703.9699541686875
 20
488.8625395607725
 10
704.3909578897299
 20
488.4839503321923
 10
704.0541572736754
 20
486.8854621116452
 10
703.5068518461255
 20
486.5068728830656
 10
701.2755315344036
 20
486.1282836544853
 10
699.8441200632494
 20
485.7076304222316
 10
698.8758109146559
 20
486.4648088793915
 10
697.9075017660637
 20
487.0116607204245
 10
697.48649804502
 20
487.558509262579
 10
697.7812059615046
 20
488.8625395607725
 10
698.2443082840666
 20
489.3673240992529
 10
699.8020214617297
 20
489.2831960919054
  0
LWPOLYLINE
  5
194
330
1F
100
AcDbEntity
  8
Drawing
 62
     7
 48
0.25
100
AcDbPolyline
 90
       10
 70
     1
 43
0.0
 10
700.0967234762645
 20
482.8471792060442
 10
700.7282261068538
 20
483.5202263569774
 10
700.5598257988265
 20
483.8146842793309
 10
699.970421769757
 20
483.8146842793309
 10
699.6757197552222
 20
483.7305529731049
 10
699.5494180487133
 20
482.8051152023701
 10
699.2126174326588
 20
482.6368525899174
 10
699.2547160341785
 20
482.3844586712373
 10
699.128414327671
 20
482.1741320551104
 10
699.7178183567419
 20
482.3423946675638
  0
LWPOLYLINE
  5
195
330
1F
100
AcDbEntity
  8
Drawing
 62
     7
 48
0.25
100
AcDbPolyline
 90
        7
 70
     0
 43
0.0
 10
700.3493268892796
 20
474.7285460922885
 10
701.3176360378732
 20
475.9905090879294
 10
703.1279467266015
 20
476.9159501575427
 10
704.0120586721557
 20
477.5048660022491
 10
704.7277644077328
 20
477.5048660022491
 10
704.9382633172797
 20
475.7801824718019
 10
704.9382633172797
 20
474.5182194761616
  0
LWPOLYLINE
  5
196
330
1F
100
AcDbEntity
  8
Drawing
 62
     7
 48
0.25
100
AcDbPolyline
 90
       11
 70
     1
 43
0.0
 10
692.4344592944578
 20
484.7821893526183
 10
693.0238633235274
 20
485.960024340911
 10
692.8554630155002
 20
486.8433981079717
 10
691.9292524684276
 20
486.0441556471378
 10
691.2135467328492
 20
485.0766472749719
 10
690.9609433198341
 20
484.4877314302648
 10
690.9188447183144
 20
484.0670781980111
 10
690.9609433198341
 20
483.8988155855577
 10
691.5924518523718
 20
483.9408828881103
 10
692.3081575879503
 20
484.0670781980111
 10
692.4344592944578
 20
484.3194688178114
  0
LWPOLYLINE
  5
197
330
1F
100
AcDbEntity
  8
Drawing
 62
     7
 48
0.25
100
AcDbPolyline
 90
        6
 70
     1
 43
0.0
 10
683.4447877850514
 20
488.8274427891401
 10
682.8974823575002
 20
488.1964596418804
 10
682.7711806509926
 20
487.4392811847198
 10
683.6973911980665
 20
487.5234124909466
 10
683.9499946110816
 20
487.9440690220794
 10
683.6552925965468
 20
488.9115740953661
  0
LWPOLYLINE
  5
198
330
1F
100
AcDbEntity
  8
Drawing
 62
     7
 48
0.25
100
AcDbPolyline
 90
        8
 70
     1
 43
0.0
 10
681.0871716687718
 20
483.485129585345
 10
680.8766668572764
 20
484.2423080425055
 10
680.413564534713
 20
484.3685033524056
 10
679.6978587991359
 20
484.3685033524056
 10
679.4452553861208
 20
483.8637188139252
 10
679.6557542956677
 20
483.1486043604388
 10
679.9083577086828
 20
483.1065403567654
 10
680.4977617377524
 20
483.1065403567654
  0
LWPOLYLINE
  5
199
330
1F
100
AcDbEntity
  8
Drawing
 62
     7
 48
0.25
100
AcDbPolyline
 90
       12
 70
     1
 43
0.0
 10
675.6562218967372
 20
490.972779551841
 10
677.0455347663731
 20
490.1735370910071
 10
677.8033391034699
 20
489.9632104748802
 10
679.2347505746254
 20
488.7853754865868
 10
680.1188625201783
 20
488.4488535605598
 10
681.0871716687718
 20
488.3647222543331
 10
681.466070886346
 20
490.0473417811062
 10
681.002968563784
 20
490.972779551841
 10
678.5611493425151
 20
491.4355000866473
 10
676.9192330598642
 20
491.4355000866473
 10
675.8246222047644
 20
491.4355000866473
 10
675.48782158871
 20
491.2251734705205
  0
LWPOLYLINE
  5
19A
330
1F
100
AcDbEntity
  8
Drawing
 62
     7
 48
0.25
100
AcDbPolyline
 90
       12
 70
     1
 43
0.0
 10
676.8771344583458
 20
486.8503653400127
 10
677.7612405019502
 20
487.775806409626
 10
678.1822442229925
 20
488.4067862580072
 10
678.2243428245122
 20
489.121900711493
 10
677.845443606938
 20
489.9211431723276
 10
676.6245310453294
 20
490.1735370910071
 10
676.0772256177795
 20
489.6266852499741
 10
675.2352181756949
 20
488.9115740953661
 10
675.0668178676676
 20
488.4067862580072
 10
675.2773167772145
 20
487.5234124909466
 10
675.8667208062841
 20
487.1448232623663
 10
676.7508327518369
 20
486.8503653400127
  0
LWPOLYLINE
  5
19B
330
1F
100
AcDbEntity
  8
Drawing
 62
     7
 48
0.25
100
AcDbPolyline
 90
       11
 70
     1
 43
0.0
 10
670.6462758457449
 20
492.1926785438079
 10
671.8250898058338
 20
492.4871364661614
 10
672.0355887153808
 20
492.61333507494
 10
672.4986969398913
 20
492.4871364661614
 10
672.2881921283958
 20
491.519631392874
 10
671.4882832878295
 20
491.2672374741946
 10
670.7304789507327
 20
490.8465842419402
 10
670.3094752296904
 20
490.8886515444935
 10
670.0568718166753
 20
491.3093047767472
 10
670.0989763201435
 20
491.9402879240069
 10
670.3515738312101
 20
492.1085472375811
  0
LWPOLYLINE
  5
19C
330
1F
100
AcDbEntity
  8
Drawing
 62
     7
 48
0.25
100
AcDbPolyline
 90
       15
 70
     1
 43
0.0
 10
677.9717394114971
 20
478.3952070013515
 10
679.4873539876405
 20
478.8999948387104
 10
680.4556631362327
 20
479.4047793771908
 10
681.2976705783187
 20
479.9516312182245
 10
681.8870746073883
 20
479.1944527610639
 10
682.6448848464349
 20
478.2269476877772
 10
681.8449760058686
 20
477.7642271529702
 10
680.2451642266858
 20
477.5959645405175
 10
679.0242516650785
 20
477.3856379243907
 10
678.0138439149653
 20
477.1332440057105
 10
676.9613316613838
 20
476.9649813932578
 10
676.3719276323143
 20
476.9229173895837
 10
676.3719276323143
 20
477.848358459197
 10
676.7929313533566
 20
478.3952070013515
 10
677.5928401939229
 20
478.3952070013515
  0
LWPOLYLINE
  5
19D
330
1F
100
AcDbEntity
  8
Drawing
 62
     7
 48
0.25
100
AcDbPolyline
 90
        9
 70
     1
 43
0.0
 10
674.3437996173996
 20
476.4918067115102
 10
674.3017010158799
 20
477.2910491723441
 10
673.7122969868103
 20
477.4172444822443
 10
673.5438907768332
 20
476.5338707151843
 10
673.4596935737952
 20
475.7346282543503
 10
673.4596935737952
 20
475.3981030294441
 10
673.7122969868103
 20
475.1457124096432
 10
674.2595965124117
 20
475.2719077195433
 10
674.3437996173996
 20
475.902890866803
  0
LWPOLYLINE
  5
19F
330
1F
100
AcDbEntity
  8
Drawing
 62
     7
 48
0.25
100
AcDbPolyline
 90
       12
 70
     1
 43
0.0
 10
665.5869245804918
 20
478.3847528544101
 10
667.0183360516473
 20
479.5625845438244
 10
668.1129469067484
 20
479.8149784625038
 10
668.9128498453649
 20
479.2260593189182
 10
669.8390603924388
 20
479.1419313115707
 10
670.344267218469
 20
478.8054060866645
 10
668.4918520262711
 20
477.711705703477
 10
667.3130380661821
 20
477.0807225562173
 10
665.2501239644373
 20
477.2069178661174
 10
664.7028185368874
 20
477.2910491723441
 10
664.7449171384071
 20
477.7958337108245
 10
665.292222565957
 20
478.2164902419574
  0
LWPOLYLINE
  5
1A0
330
1F
100
AcDbEntity
  8
Drawing
 62
     7
 48
0.25
100
AcDbPolyline
 90
       11
 70
     1
 43
0.0
 10
659.5665707793876
 20
480.9507461482446
 10
660.9137850475038
 20
481.6237932991777
 10
660.9558836490235
 20
482.0444465314321
 10
660.4085782214736
 20
482.5492310699125
 10
658.6824647357832
 20
482.2968404501116
 10
658.0930607067137
 20
481.7499886090786
 10
657.5036566776428
 20
481.5817259966252
 10
657.9246603986865
 20
481.0348741555921
 10
658.0088576017245
 20
480.7404162332386
 10
658.514064427756
 20
480.1094363848574
 10
658.9350681487983
 20
480.6983522295645
  0
LWPOLYLINE
  5
1A1
330
1F
100
AcDbEntity
  8
Drawing
 62
     7
 48
0.25
100
AcDbPolyline
 90
        7
 70
     1
 43
0.0
 10
667.2170723770316
 20
488.7938964905465
 10
668.0812593430926
 20
488.4950048750761
 10
668.1477329935785
 20
488.1961099607265
 10
667.4829728809239
 20
487.9636379711653
 10
666.3196456347548
 20
488.2625295866357
 10
666.0869790051313
 20
488.7274768646373
 10
666.7849788940018
 20
488.8603194153349
  0
LWPOLYLINE
  5
1A3
330
1F
100
AcDbEntity
  8
Drawing
 62
     7
 48
0.25
100
AcDbPolyline
 90
        8
 70
     1
 43
0.0
 10
669.0783936101241
 20
488.5946343139403
 10
669.4107736664507
 20
489.2588437685487
 10
669.0783936101241
 20
489.6241583088076
 10
668.7792533300146
 20
489.7570008595046
 10
668.3139200707662
 20
489.6905779347168
 10
668.2142066440631
 20
489.3916863192457
 10
668.2474464202817
 20
488.8603194153349
 10
668.7460135537974
 20
488.5614245009853
  0
LWPOLYLINE
  5
1A4
330
1F
100
AcDbEntity
  8
Drawing
 62
     7
 48
0.25
100
AcDbPolyline
 90
       11
 70
     1
 43
0.0
 10
668.9786801834209
 20
495.0374567867811
 10
669.5437268693711
 20
495.6020335036462
 10
669.7763934989946
 20
495.7680858672988
 10
670.075533779104
 20
495.5024007659035
 10
669.8096332752118
 20
494.9378240490377
 10
669.8096332752118
 20
494.5060898828696
 10
669.7099198485087
 20
494.20719496852
 10
669.0783936101241
 20
494.0411426048681
 10
668.6130662528255
 20
494.1739851555657
 10
668.6130662528255
 20
494.6721422465222
 10
668.7127796795287
 20
494.8714044231285
  0
LWPOLYLINE
  5
1A6
330
1F
100
AcDbEntity
  8
Drawing
 62
     7
 48
0.25
100
AcDbPolyline
 90
       13
 70
     1
 43
0.0
 10
664.7906985560419
 20
494.4396669580819
 10
665.355745241992
 20
494.3068244073842
 10
665.6548855221015
 20
493.9747229789588
 10
665.7213591725874
 20
493.443356075048
 10
665.7213591725874
 20
492.9451989840915
 10
665.1895522628545
 20
492.9119891711372
 10
664.8239383322591
 20
492.7791466204396
 10
664.4583184997152
 20
492.7459368074846
 10
664.2588916463089
 20
493.2108807866077
 10
664.2588916463089
 20
493.9415098671254
 10
664.2588916463089
 20
494.074352417823
 10
664.2588916463089
 20
494.240404781475
 10
664.2921255205777
 20
494.2736145944293
  0
LWPOLYLINE
  5
1A7
330
1F
100
AcDbEntity
  8
Drawing
 62
     7
 48
0.25
100
AcDbPolyline
 90
        9
 70
     1
 43
0.0
 10
660.4032841733081
 20
495.4027713270399
 10
661.0680442859614
 20
495.6020335036462
 10
661.5001377689912
 20
495.2367189633873
 10
661.6330909719115
 20
494.9710338619927
 10
661.2674711393677
 20
494.4396669580819
 10
660.8021437820692
 20
494.4064571451269
 10
660.3700502990393
 20
494.4064571451269
 10
660.0376702427127
 20
494.7385618724315
 10
660.0709041169814
 20
495.3031385892966
  0
LWPOLYLINE
  5
1A8
330
1F
100
AcDbEntity
  8
Drawing
 62
     7
 48
0.25
100
AcDbPolyline
 90
        8
 70
     1
 43
0.0
 10
659.0737698499499
 20
491.5503604489654
 10
659.4061440043281
 20
492.2145699035738
 10
659.3396703538422
 20
492.3806222672258
 10
658.9408166470296
 20
492.5798844438327
 10
658.4754833877826
 20
492.5798844438327
 10
658.2760565343763
 20
492.2809895294831
 10
658.442243611564
 20
491.8160455503607
 10
658.8411032203264
 20
491.5835735607988
  0
LWPOLYLINE
  5
1A9
330
1F
100
AcDbEntity
  8
Drawing
 62
     7
 48
0.25
100
AcDbPolyline
 90
        7
 70
     1
 43
0.0
 10
658.6749102411889
 20
488.9599488541991
 10
658.1431033314545
 20
489.1260012178511
 10
658.07662968097
 20
488.8603194153349
 10
658.07662968097
 20
488.4950048750761
 10
658.3092963105935
 20
488.2625295866357
 10
658.7413897936233
 20
488.2625295866357
 10
658.8743370945951
 20
488.7938964905465
  0
LWPOLYLINE
  5
1AA
330
1F
100
AcDbEntity
  8
Drawing
 62
     7
 48
0.25
100
AcDbPolyline
 90
       11
 70
     1
 43
0.0
 10
653.5499352060922
 20
488.7180321746118
 10
654.2146953187455
 20
487.9541932811391
 10
655.0788822848051
 20
487.5888787408803
 10
655.4112623411318
 20
487.389616564274
 10
655.0788822848051
 20
486.4265154941945
 10
654.8462156551816
 20
486.1940435046333
 10
653.6828884090125
 20
487.0575118369695
 10
653.2840288002515
 20
487.4892493020167
 10
653.0513680725765
 20
487.8545638422756
 10
653.0513680725765
 20
488.186665270701
 10
653.4169820031718
 20
488.6184027357476
  0
LWPOLYLINE
  5
1AB
330
1F
100
AcDbEntity
  8
Drawing
 62
     7
 48
0.25
100
AcDbPolyline
 90
       10
 70
     1
 43
0.0
 10
652.652508463814
 20
485.8951485902837
 10
653.1510814992796
 20
486.3933056812402
 10
653.1510814992796
 20
487.2567740135764
 10
653.0181282963592
 20
487.522459114971
 10
651.9877483511607
 20
487.688511478623
 10
651.655368294834
 20
487.522459114971
 10
651.6886080710512
 20
486.5925678578464
 10
651.9212747006748
 20
486.0612009539356
 10
652.0209881273779
 20
485.7290962266317
 10
652.2536547570014
 20
485.762306039586
  0
LWPOLYLINE
  5
1AC
330
1F
100
AcDbEntity
  8
Drawing
 62
     7
 48
0.25
100
AcDbPolyline
 90
        7
 70
     1
 43
0.0
 10
653.4140782443117
 20
493.8640159050594
 10
654.2450254341541
 20
493.8308060921051
 10
654.3779786370744
 20
493.3990719259363
 10
653.8461717273415
 20
492.7680722842828
 10
653.4473121185804
 20
492.7680722842828
 10
652.9819847612819
 20
493.0337573856775
 10
653.2478852651741
 20
493.7643864661952
  0
LWPOLYLINE
  5
1AD
330
1F
100
AcDbEntity
  8
Drawing
 62
     7
 48
0.25
100
AcDbPolyline
 90
        7
 70
     1
 43
0.0
 10
655.2089258269168
 20
495.8234311570513
 10
655.6077854356779
 20
495.8234311570513
 10
655.6742590861638
 20
495.2256446272306
 10
655.30863925362
 20
494.8271202740174
 10
654.9097855468074
 20
494.8603300869717
 10
654.8100721201042
 20
495.4249068038375
 10
654.8433118963214
 20
495.757011531142
  0
LWPOLYLINE
  5
20C
330
1F
100
AcDbEntity
  8
Drawing
 62
     7
 48
0.25
100
AcDbPolyline
 90
        5
 70
     1
 43
0.0
 10
642.4056097012042
 20
495.9226251439129
 10
643.2384927302862
 20
495.7561868114403
 10
643.3217810331955
 20
496.0058426607092
 10
642.8636953671992
 20
496.4635488997284
 10
642.4056097012042
 20
496.3387226245335
  0
LWPOLYLINE
  5
20D
330
1F
100
AcDbEntity
  8
Drawing
 62
     7
 48
0.25
100
AcDbPolyline
 90
       10
 70
     1
 43
0.0
 10
638.865850925655
 20
495.1320389410693
 10
638.6159860169298
 20
496.5883784738025
 10
638.1162561994809
 20
497.0044759544239
 10
637.4499497762147
 20
496.0890634763854
 10
637.2417290189449
 20
495.0488214242723
 10
637.1167965645816
 20
493.8005322812887
 10
637.5748822305779
 20
493.342822743391
 10
638.2828328052981
 20
493.2179964681954
 10
638.6576301683851
 20
493.5508731331406
 10
638.7409184712931
 20
494.8407743334012
  0
LWPOLYLINE
  5
20E
330
1F
100
AcDbEntity
  8
Drawing
 62
     7
 48
0.25
100
AcDbPolyline
 90
       10
 70
     1
 43
0.0
 10
633.7852585463036
 20
494.7575535177256
 10
633.7852585463036
 20
495.8810130866352
 10
633.4521053346705
 20
496.1306722347833
 10
633.0356638201295
 20
495.3400893308189
 10
632.4526456997712
 20
494.4246768527805
 10
631.8279834279604
 20
494.0501881305583
 10
631.8279834279604
 20
493.2179964681954
 10
632.6608664570424
 20
493.0515581357228
 10
633.2022404259453
 20
493.342822743391
 10
633.7019702433956
 20
494.0918001878353
  0
LWPOLYLINE
  5
20F
330
1F
100
AcDbEntity
  8
Drawing
 62
     7
 48
0.25
100
AcDbPolyline
 90
        9
 70
     0
 43
0.0
 10
634.1604926536095
 20
486.7986653113427
 10
634.2437809565174
 20
488.1717873272789
 10
633.0777447158023
 20
488.2133960856774
 10
632.7445915041692
 20
487.4644219401115
 10
632.7029473527152
 20
486.299350313925
 10
633.3037775548598
 20
485.7950045263257
 10
633.936478281076
 20
485.6653288992836
 10
634.1188485021555
 20
486.6322269788702
 10
634.1604926536095
 20
486.7986653113427
  0
LWPOLYLINE
  5
210
330
1F
100
AcDbEntity
  8
Drawing
 62
     7
 48
0.25
100
AcDbPolyline
 90
        9
 70
     1
 43
0.0
 10
633.2544962815257
 20
481.8810563629774
 10
634.0799664627868
 20
481.586489577623
 10
634.1978933038029
 20
480.2314817052181
 10
633.9620396217722
 20
479.1710406181675
 10
632.7827948194129
 20
478.9942998871795
 10
632.0162851076855
 20
478.9942998871795
 10
631.8983641686193
 20
480.2314817052181
 10
631.8983641686193
 20
481.6454009553669
 10
632.546947039332
 20
482.1167084717094
  0
LWPOLYLINE
  5
211
330
1F
100
AcDbEntity
  8
Drawing
  6
ACAD_ISO03W100
 62
     7
 48
0.25
100
AcDbPolyline
 90
       12
 70
   128
 43
0.0
 10
630.6425415792539
 20
550.9470362538768
 10
630.6425415792539
 20
543.830929110829
 10
631.8634600428111
 20
536.9181384664412
 10
631.0495163677563
 20
528.9887587309911
 10
631.6599726485599
 20
522.2792878841433
 10
631.2529978600576
 20
512.3167365643242
 10
632.0669474370623
 20
504.3873601277525
 10
631.8634600428111
 20
498.6944750730892
 10
631.4564852543087
 20
489.5451930467931
 10
632.0669474370623
 20
483.4456716959291
 10
631.4564852543087
 20
478.9726889321118
 10
631.4564852543087
 20
476.532881051542
  0
LWPOLYLINE
  5
212
330
1F
100
AcDbEntity
  8
Drawing
  6
ACAD_ISO03W100
 62
     7
 48
0.25
100
AcDbPolyline
 90
        8
 70
   128
 43
0.0
 10
741.5424455063437
 20
547.8972755784448
 10
741.3389581120925
 20
530.6153006169163
 10
741.7459329005949
 20
508.4537065953684
 10
741.3389581120925
 20
503.167454538028
 10
741.1354707178414
 20
500.5243301587968
 10
740.1180396485354
 20
497.4745694833647
 10
739.5075833677304
 20
487.7153346622064
 10
739.5075833677304
 20
474.0930731709722
  0
LWPOLYLINE
  5
213
330
1F
100
AcDbEntity
  8
Drawing
 62
     7
 48
0.25
100
AcDbPolyline
 90
        4
 70
     0
 43
0.0
 10
733.0671878632545
 20
548.3928100607493
 10
738.5210017853362
 20
546.1117112396066
 10
740.1698292501517
 20
545.3513427666392
 10
740.2966621320609
 20
548.1393539030942
  0
LWPOLYLINE
  5
215
330
1F
100
AcDbEntity
  8
Drawing
 62
     7
 48
0.25
100
AcDbPolyline
 90
        8
 70
     1
 43
0.0
 10
714.4213495588112
 20
534.0342223252962
 10
714.2984532768203
 20
533.5123693878666
 10
714.5442399388523
 20
533.2053955193176
 10
715.0972466490427
 20
533.3588824535921
 10
714.8514658889578
 20
533.8807353910217
 10
714.9129110789797
 20
534.2491046930568
 10
714.4213495588112
 20
534.2184053268745
 10
714.390624012826
 20
534.0649216914785
  0
LWPOLYLINE
  5
230
330
1F
100
AcDbEntity
  8
Drawing
 62
     7
 48
0.25
100
AcDbPolyline
 90
       11
 70
     1
 43
0.0
 10
634.8713197660356
 20
468.7518543888146
 10
644.8537696344849
 20
472.8794982774459
 10
656.2131094621193
 20
469.095824590869
 10
659.311109534646
 20
465.3121523682693
 10
661.032222762173
 20
460.8405382775834
 10
650.0171062028815
 20
457.7448064590928
 10
644.509546366143
 20
457.0568645910068
 10
642.4442129844581
 20
453.6171625704614
 10
633.1502065385087
 20
454.3051029745705
 10
627.986869970113
 20
459.80862767142
 10
627.986869970113
 20
463.2483296919651
  0
LWPOLYLINE
  5
231
330
1F
100
AcDbEntity
  8
Drawing
 62
     7
 48
0.25
100
AcDbPolyline
 90
       12
 70
     0
 43
0.0
 10
644.8537696344849
 20
450.177459085939
 10
658.2784428438038
 20
453.961132772516
 10
664.4744461030425
 20
453.961132772516
 10
666.8840027530694
 20
453.961132772516
 10
666.8840027530694
 20
450.177459085939
 10
666.8840027530694
 20
445.7058464592305
 10
660.3437762254887
 20
445.7058464592305
 10
650.3613263570385
 20
443.6420237829261
 10
644.8537696344849
 20
444.6739343890898
 10
643.4768796753008
 20
448.113637873612
 10
645.1979897886429
 20
450.5214292879936
 10
645.1979897886429
 20
450.5214292879936
  0
LWPOLYLINE
  5
232
330
1F
100
AcDbEntity
  8
Drawing
 62
     7
 48
0.25
100
AcDbPolyline
 90
        8
 70
     1
 43
0.0
 10
665.5071127938843
 20
470.8156770651187
 10
663.7859995663578
 20
466.6880331764875
 10
663.7859995663578
 20
464.2802417621057
 10
665.5071127938843
 20
464.2802417621057
 10
667.5724461755692
 20
465.6561225703238
 10
667.9166694439111
 20
467.7199437826509
 10
667.9166694439111
 20
470.4717068630642
 10
667.5724461755692
 20
470.4717068630642
  0
LWPOLYLINE
  5
233
330
1F
100
AcDbEntity
  8
Drawing
 62
     7
 48
0.25
100
AcDbPolyline
 90
       13
 70
     1
 43
0.0
 10
674.112672703149
 20
457.0568645910068
 10
668.9493361347534
 20
456.0249539848431
 10
668.9493361347534
 20
454.649073176625
 10
669.6377826714381
 20
452.5852519642979
 10
669.6377826714381
 20
449.4895186818301
 10
668.6051159805954
 20
445.3618747931986
 10
669.6377826714381
 20
443.2980535808716
 10
671.7031160531221
 20
443.2980535808716
 10
676.5222293531758
 20
445.3618747931986
 10
678.5875658490456
 20
448.801578277721
 10
678.5875658490456
 20
453.2731923684068
 10
678.2433425807028
 20
454.9930433786796
 10
677.2106758898606
 20
458.0887766611472
  0
LWPOLYLINE
  5
234
330
1F
100
AcDbEntity
  8
Drawing
 62
     7
 48
0.25
100
AcDbPolyline
 90
        9
 70
     0
 43
0.0
 10
647.2633262845118
 20
437.4505586819677
 10
642.0999897161162
 20
445.7058464592305
 10
639.346209797747
 20
446.049816661285
 10
636.5924298793782
 20
447.0817272674485
 10
634.8713197660356
 20
443.9859939849807
 10
634.8713197660356
 20
442.2661429747081
 10
635.9039864568783
 20
441.2342323685445
 10
638.3135431069052
 20
438.1384990860768
 10
639.6904330660893
 20
436.4186480758041
  0
LINE
  5
239
330
1F
100
AcDbEntity
  8
Drawing
  6
ACAD_ISO03W100
 62
     7
 48
0.25
100
AcDbLine
 10
739.1707084822425
 20
468.0639139847055
 30
0.0
 11
739.1707084822425
 21
435.7307076716951
 31
0.0
  0
LINE
  5
23A
330
1F
100
AcDbEntity
  8
Drawing
  6
ACAD_ISO03W100
 62
     7
 48
0.25
100
AcDbLine
 10
739.1707084822425
 20
435.7307076716951
 30
0.0
 11
630.0522064659821
 21
436.0746778737497
 31
0.0
  0
LINE
  5
23B
330
1F
100
AcDbEntity
  8
Drawing
  6
ACAD_ISO03W100
 62
     7
 48
0.25
100
AcDbLine
 10
630.0522064659821
 20
436.0746778737497
 30
0.0
 11
631.0848731568245
 21
476.6631719640228
 31
0.0
  0
LWPOLYLINE
  5
23C
330
1F
100
AcDbEntity
  8
Drawing
  6
ACAD_ISO03W100
 62
     7
 48
0.25
100
AcDbPolyline
 90
       10
 70
     0
 43
0.0
 10
696.4871290900753
 20
436.0746778737497
 10
698.8966857401022
 20
442.2661429747081
 10
699.9293524309444
 20
442.2661429747081
 10
701.6504656584714
 20
443.2980535808716
 10
705.7811355360247
 20
443.2980535808716
 10
705.7811355360247
 20
442.6101131767627
 10
707.5022456493668
 20
441.578202570599
 10
707.5022456493668
 20
439.8583515603264
 10
708.1906921860516
 20
438.4824692881312
 10
710.2560255677365
 20
436.0746778737497
  0
LWPOLYLINE
  5
23D
330
1F
100
AcDbEntity
  8
Drawing
  6
ACAD_ISO03W100
 62
     7
 48
0.25
100
AcDbPolyline
 90
        8
 70
     1
 43
0.0
 10
722.6137324582476
 20
445.3448897309563
 10
719.7482467422467
 20
450.212645775389
 10
714.3038269960286
 20
447.9219373930623
 10
714.3038269960286
 20
447.4924284733933
 10
716.1663927114294
 20
446.34707428223
 10
716.1663927114294
 20
445.2017200910666
 10
719.4616981706461
 20
444.3427051796827
 10
720.8944410286465
 20
444.7722126353746
  0
LWPOLYLINE
  5
23F
330
1F
100
AcDbEntity
  8
Drawing
  6
ACAD_ISO03W100
 62
     7
 48
0.25
100
AcDbPolyline
 90
        7
 70
     0
 43
0.0
 10
700.4062275017934
 20
474.694594173465
 10
699.9764046443936
 20
471.8312086955568
 10
701.1225958166094
 20
471.5448694157773
 10
702.9851615320101
 20
472.117546511359
 10
704.4179043900106
 20
472.6902236069407
 10
705.4208243906107
 20
473.5492399823017
 10
704.8477272474104
 20
474.694594173465
  0
LWPOLYLINE
  5
246
330
1F
100
AcDbEntity
  8
Drawing
 62
     7
 48
0.25
100
AcDbPolyline
 90
       14
 70
     1
 43
0.0
 10
695.7167708247896
 20
457.8357916017496
 10
696.3883004728339
 20
458.7463943144866
 10
696.4842307502906
 20
459.7528459509746
 10
696.2443991547009
 20
460.0404059177415
 10
695.524910269876
 20
460.0404059177415
 10
695.0452470786938
 20
459.9924798064271
 10
694.565583887513
 20
458.7463943144866
 10
694.2298220144651
 20
458.5546898692277
 10
693.7501647252313
 20
458.3629821250904
 10
693.7501647252313
 20
457.7399393791201
 10
694.4216884713271
 20
457.2127521546578
 10
694.949316801237
 20
457.1648227444643
 10
695.2371135355572
 20
457.1648227444643
 10
695.6688056860619
 20
457.6440871564907
  0
LWPOLYLINE
  5
24C
330
1F
100
AcDbEntity
  8
Drawing
 62
     7
 48
0.25
100
AcDbPolyline
 90
       14
 70
     1
 43
0.0
 10
701.0403477560837
 20
459.6090177528858
 10
701.711877404128
 20
460.5196204656228
 10
701.8078076815848
 20
461.5260721021108
 10
701.567976085995
 20
461.8136320688777
 10
700.8484872011702
 20
461.8136320688777
 10
700.368824009988
 20
461.7657059575633
 10
699.8891608188071
 20
460.5196204656228
 10
699.5533989457592
 20
460.3279160203639
 10
699.0737416565255
 20
460.1362082762266
 10
699.0737416565255
 20
459.5131655302563
 10
699.7452654026213
 20
458.985978305794
 10
700.2728937325312
 20
458.9380488956005
 10
700.5606904668514
 20
458.9380488956005
 10
700.992382617356
 20
459.4173133076269
  0
LWPOLYLINE
  5
252
330
1F
100
AcDbEntity
  8
Drawing
 62
     7
 48
0.25
100
AcDbPolyline
 90
       14
 70
     1
 43
0.0
 10
727.6582355267371
 20
452.5161131483416
 10
728.3297651747814
 20
453.4267158610787
 10
728.4256954522382
 20
454.4331674975667
 10
728.1858638566484
 20
454.7207274643335
 10
727.4663749718236
 20
454.7207274643335
 10
726.9867117806414
 20
454.6728013530191
 10
726.5070485894605
 20
453.4267158610787
 10
726.1712867164126
 20
453.2350114158198
 10
725.6916294271789
 20
453.0433036716824
 10
725.6916294271789
 20
452.4202609257122
 10
726.3631531732747
 20
451.8930737012499
 10
726.8907815031846
 20
451.8451442910563
 10
727.1785782375048
 20
451.8451442910563
 10
727.6102703880094
 20
452.3244087030827
  0
MTEXT
  5
262
330
1F
100
AcDbEntity
  8
Drawing
  6
ACAD_ISO03W100
 62
     7
 48
0.25
100
AcDbMText
 10
640.1623036424646
 20
517.071809148435
 30
0.0
 40
3.75
 41
0.0
 46
0.0
 71
     1
 72
     5
  1
{\fVerdana|b0|i0|c0|p34;G}
 73
     1
 44
1.0
  0
MTEXT
  5
269
330
1F
100
AcDbEntity
  8
Drawing
  6
ACAD_ISO03W100
 62
     7
 48
0.25
100
AcDbMText
 10
652.320357051181
 20
523.1883317979841
 30
0.0
 40
3.75
 41
0.0
 46
0.0
 71
     1
 72
     5
  1
{\fVerdana|b0|i0|c0|p34;G}
 73
     1
 44
1.0
  0
MTEXT
  5
26F
330
1F
100
AcDbEntity
  8
Drawing
  6
ACAD_ISO03W100
 62
     7
 48
0.25
100
AcDbMText
 10
665.9949497941361
 20
520.3611782891705
 30
0.0
 40
3.75
 41
0.0
 46
0.0
 71
     1
 72
     5
  1
{\fVerdana|b0|i0|c0|p34;G}
 73
     1
 44
1.0
  0
MTEXT
  5
275
330
1F
100
AcDbEntity
  8
Drawing
  6
ACAD_ISO03W100
 62
     7
 48
0.25
100
AcDbMText
 10
645.9545964812455
 20
504.3406383232809
 30
0.0
 40
3.75
 41
0.0
 46
0.0
 71
     1
 72
     5
  1
{\fVerdana|b0|i0|c0|p34;G}
 73
     1
 44
1.0
  0
MTEXT
  5
27B
330
1F
100
AcDbEntity
  8
Drawing
  6
ACAD_ISO03W100
 62
     7
 48
0.25
100
AcDbMText
 10
668.3526397014934
 20
504.5762346930116
 30
0.0
 40
3.75
 41
0.0
 46
0.0
 71
     1
 72
     5
  1
{\fVerdana|b0|i0|c0|p34;G}
 73
     1
 44
1.0
  0
MTEXT
  5
27C
330
1F
100
AcDbEntity
  8
Drawing
  6
ACAD_ISO03W100
 62
     7
 48
0.25
100
AcDbMText
 10
684.8533268408446
 20
536.4825906687552
 30
0.0
 40
3.75
 41
0.0
 46
0.0
 71
     1
 72
     5
  1
{\fVerdana|b0|i0|c0|p34;5.52\P  ^ }
 73
     1
 44
1.0
  0
MTEXT
  5
27D
330
1F
100
AcDbEntity
  8
Drawing
  6
ACAD_ISO03W100
 62
     7
 48
0.25
100
AcDbMText
 10
854.6380579324771
 20
632.6993800643647
 30
0.0
 40
3.75
 41
0.0
 46
0.0
 71
     1
 72
     5
  1
{\fVerdana|b0|i0|c0|p34;5.72\P  ^ }
 73
     1
 44
1.0
  0
LWPOLYLINE
  5
284
330
1F
100
AcDbEntity
  8
Drawing
  6
ACAD_ISO03W100
 62
     7
 48
0.25
100
AcDbPolyline
 90
       28
 70
   128
 43
0.0
 10
631.8668161901433
 20
555.6243203621432
 10
645.9713645000747
 20
554.6742399667173
 10
661.8191773592062
 20
554.3575476012015
 10
675.9237256691376
 20
553.4074672057757
 10
689.5528424852491
 20
551.190610750529
 10
700.8047900283691
 20
550.5572260194974
 10
713.0076005591277
 20
548.4987190458871
 10
711.2086157103417
 20
549.2818035983223
 10
713.4273117533603
 20
548.4900693856544
 10
720.0833939804675
 20
548.0150308373807
 10
727.6903391952146
 20
546.9066042591962
 10
734.8218529161404
 20
546.589908594802
 10
749.2347842403419
 20
549.5771835596095
 10
760.6537861649604
 20
546.2732162292862
 10
774.7583344748905
 20
546.1148700465283
 10
778.2448517693933
 20
545.4814820166182
 10
799.4809197022005
 20
546.1148700465283
 10
803.9183058862891
 20
545.7981776810125
 10
813.1100365183133
 20
546.7482580764383
 10
818.4982915919891
 20
547.3816428074699
 10
820.6379074216666
 20
547.7144370004448
 10
825.7092042314966
 20
546.9227027877769
 10
833.4746344801151
 20
546.764356605019
 10
839.4968001795323
 20
546.6060104222611
 10
844.952352475646
 20
549.5771835596095
 10
850.114831194961
 20
546.2893147578668
 10
856.137002796328
 20
545.0225419969245
 10
857.2463449158881
 20
545.0225419969245
  0
LINE
  5
285
330
1F
100
AcDbEntity
  8
Drawing
  6
ACAD_ISO03W100
 62
     7
 48
0.25
100
AcDbLine
 10
859.7657838012381
 20
546.1612023599153
 30
0.0
 11
956.0530983172316
 21
547.8691922277737
 31
0.0
  0
LINE
  5
287
330
1F
100
AcDbEntity
  8
Drawing
  6
ACAD_ISO03W100
 62
     7
 48
0.25
100
AcDbLine
 10
708.7827173425783
 20
615.6194769938483
 30
0.0
 11
627.878583547051
 21
614.4808161059577
 31
0.0
  0
LINE
  5
288
330
1F
100
AcDbEntity
  8
Drawing
  6
ACAD_ISO03W100
 62
     7
 48
0.25
100
AcDbLine
 10
709.922213018142
 20
615.050146549903
 30
0.0
 11
727.0146356948621
 21
615.050146549903
 31
0.0
  0
LWPOLYLINE
  5
28B
102
{ACAD_REACTORS
330
28D
102
}
330
1F
100
AcDbEntity
  8
Drawing
 62
     7
 48
0.25
100
AcDbPolyline
 90
        4
 70
     1
 43
0.0
 10
802.2212942267543
 20
503.4614424876588
 10
888.822900171732
 20
503.4614424876588
 10
888.822900171732
 20
500.0454612879645
 10
802.2212942267543
 20
500.0454612879645
  0
HATCH
  5
28D
330
1F
100
AcDbEntity
  8
Drawing
 62
     7
 48
0.25
100
AcDbHatch
 10
0.0
 20
0.0
 30
0.0
210
0.0
220
0.0
230
1.0
  2
SOLID
 70
     1
 71
     1
 91
        1
 92
        1
 93
        4
 72
     1
 10
802.2212942267543
 20
503.4614424876588
 11
888.822900171732
 21
503.4614424876588
 72
     1
 10
888.822900171732
 20
503.4614424876588
 11
888.822900171732
 21
500.0454612879645
 72
     1
 10
888.822900171732
 20
500.0454612879645
 11
802.2212942267543
 21
500.0454612879645
 72
     1
 10
802.2212942267543
 20
500.0454612879645
 11
802.2212942267543
 21
503.4614424876588
 97
        1
330
28B
 75
     0
 76
     1
 98
        1
 10
-400.9201540052579
 20
-225.9510618264481
  0
MTEXT
  5
28E
330
1F
100
AcDbEntity
  8
Drawing
 62
     7
 48
0.25
100
AcDbMText
 10
801.0818016653752
 20
496.0601525722795
 30
0.0
 40
7.5
 41
0.0
 46
0.0
 71
     1
 72
     5
  1
0
  7
style1
 73
     1
 44
1.0
  0
MTEXT
  5
28F
330
1F
100
AcDbEntity
  8
Drawing
 62
     7
 48
0.25
100
AcDbMText
 10
888.2531538910425
 20
496.6294815522475
 30
0.0
 40
7.5
 41
0.0
 46
0.0
 71
     1
 72
     5
  1
1
  7
style1
 73
     1
 44
1.0
  0
MTEXT
  5
290
330
1F
100
AcDbEntity
  8
Drawing
 62
     7
 48
0.25
100
AcDbMText
 10
830.1347481428384
 20
496.629862186292
 30
0.0
 40
7.5
 41
0.0
 46
0.0
 71
     1
 72
     5
  1
metre
  7
style1
 73
     1
 44
1.0
  0
MTEXT
  5
291
330
1F
100
AcDbEntity
  8
Drawing
 62
     7
 48
0.25
100
AcDbMText
 10
725.876279810821
 20
674.2635080173382
 30
0.0
 40
7.5
 41
0.0
 46
0.0
 71
     1
 72
     5
  1
1126
  7
style1
 73
     1
 44
1.0
  0
MTEXT
  5
292
330
1F
100
AcDbEntity
  8
Drawing
 62
     7
 48
0.25
100
AcDbMText
 10
710.4896859441544
 20
469.8709667905711
 30
0.0
 40
7.5
 41
0.0
 46
0.0
 71
     1
 72
     5
  1
1178
  7
style1
 73
     1
 44
1.0
  0
MTEXT
  5
293
330
1F
100
AcDbEntity
  8
Drawing
 62
     7
 48
0.25
100
AcDbMText
 10
661.4091698811294
 20
586.583262750301
 30
0.0
 40
7.5
 41
0.0
 46
0.0
 71
     1
 72
     5
  1
foundations of Building 4 cut through spreads of stones
  7
style1
 73
     1
 44
1.0
  0
LWPOLYLINE
  5
2A9
102
{ACAD_REACTORS
330
2AA
102
}
330
1F
100
AcDbEntity
  8
trench scale n
 62
     7
100
AcDbPolyline
 90
        3
 70
     1
 43
0.0
 10
914.2464632870963
 20
508.2757238648422
 10
908.5019505420235
 20
496.9680635617996
 10
919.814221779315
 20
496.9680635617996
  0
HATCH
  5
2AA
330
1F
100
AcDbEntity
  8
trench scale n
 62
     7
100
AcDbHatch
 10
0.0
 20
0.0
 30
0.0
210
0.0
220
0.0
230
1.0
  2
SOLID
 70
     1
 71
     1
 91
        1
 92
        1
 93
        3
 72
     1
 10
914.2464632870963
 20
508.2757238648422
 11
908.5019505420235
 21
496.9680635617996
 72
     1
 10
908.5019505420235
 20
496.9680635617996
 11
919.814221779315
 21
496.9680635617996
 72
     1
 10
919.814221779315
 20
496.9680635617996
 11
914.2464632870963
 21
508.2757238648422
 97
        1
330
2A9
 75
     0
 76
     1
 98
        1
 10
383.9531703128901
 20
-815.8475680718354
  0
HATCH
  5
2AB
330
1F
100
AcDbEntity
  8
trench scale n
 62
     7
100
AcDbHatch
 10
0.0
 20
0.0
 30
0.0
210
0.0
220
0.0
230
1.0
  2
SOLID
 70
     1
 71
     1
 91
        1
 92
        1
 93
        3
 72
     1
 10
914.2464632870963
 20
508.2757238648422
 11
908.5019505420235
 21
496.9680635617996
 72
     1
 10
908.5019505420235
 20
496.9680635617996
 11
919.814221779315
 21
496.9680635617996
 72
     1
 10
919.814221779315
 20
496.9680635617996
 11
914.2464632870963
 21
508.2757238648422
 97
        1
330
2AC
 75
     0
 76
     1
 98
        1
 10
383.9531703128901
 20
-815.8475680718354
  0
LWPOLYLINE
  5
2AC
102
{ACAD_REACTORS
330
2AB
102
}
330
1F
100
AcDbEntity
  8
trench scale n
 62
     7
100
AcDbPolyline
 90
        3
 70
     1
 43
0.0
 10
914.2464632870963
 20
508.2757238648422
 10
908.5019505420235
 20
496.9680635617996
 10
919.814221779315
 20
496.9680635617996
  0
LWPOLYLINE
  5
2AD
102
{ACAD_REACTORS
330
2AE
102
}
330
1F
100
AcDbEntity
  8
trench scale n
 62
     7
100
AcDbPolyline
 90
        3
 70
     1
 43
0.0
 10
914.2464632870963
 20
508.2757238648422
 10
908.5019505420235
 20
496.9680635617996
 10
919.814221779315
 20
496.9680635617996
  0
HATCH
  5
2AE
330
1F
100
AcDbEntity
  8
trench scale n
 62
     7
100
AcDbHatch
 10
0.0
 20
0.0
 30
0.0
210
0.0
220
0.0
230
1.0
  2
SOLID
 70
     1
 71
     1
 91
        1
 92
        1
 93
        3
 72
     1
 10
914.2464632870963
 20
508.2757238648422
 11
908.5019505420235
 21
496.9680635617996
 72
     1
 10
908.5019505420235
 20
496.9680635617996
 11
919.814221779315
 21
496.9680635617996
 72
     1
 10
919.814221779315
 20
496.9680635617996
 11
914.2464632870963
 21
508.2757238648422
 97
        1
330
2AD
 75
     0
 76
     1
 98
        1
 10
383.9531703128901
 20
-815.8475680718354
  0
LWPOLYLINE
  5
2B0
330
1F
100
AcDbEntity
  8
trench scale n
 62
     7
100
AcDbPolyline
 90
        3
 70
     1
 43
0.0
 10
914.2464632870963
 20
508.2757238648422
 10
908.5019505420235
 20
496.9680635617996
 10
919.814221779315
 20
496.9680635617996
  0
MTEXT
  5
2B1
330
1F
100
AcDbEntity
  8
trench scale n
 62
     7
100
AcDbMText
 10
910.7210996240317
 20
521.2972505042931
 30
0.0
 40
9.0
 41
3.018695685783332
 46
0.0
 71
     1
 72
     5
  1
N
  7
verdana
 73
     1
 44
1.0
  0
MTEXT
  5
2B2
330
1F
100
AcDbEntity
  8
trench scale n
 62
     7
100
AcDbMText
 10
910.7210996240317
 20
521.2972505042931
 30
0.0
 40
9.0
 41
3.018695685783332
 46
0.0
 71
     1
 72
     5
  1
N
  7
verdana
 73
     1
 44
1.0
  0
MTEXT
  5
2B3
330
1F
100
AcDbEntity
  8
trench scale n
 62
     7
100
AcDbMText
 10
910.7210996240317
 20
521.2972505042931
 30
0.0
 40
9.0
 41
3.018695685783332
 46
0.0
 71
     1
 72
     5
  1
N
  7
verdana
 73
     1
 44
1.0
  0
VIEWPORT
  5
2E9
330
2E1
100
AcDbEntity
 67
     1
  8
0
 48
0.25
100
AcDbViewport
 10
119.1788883629724
 20
152.0136970520019
 30
0.0
 40
505.5579988500373
 41
295.6051935424805
 68
     1
 69
     1
 12
119.1788883629724
 22
152.0136970520019
 13
0.0
 23
0.0
 14
10.0
 24
10.0
 15
10.0
 25
10.0
 16
0.0
 26
0.0
 36
1.0
 17
0.0
 27
0.0
 37
0.0
 42
50.0
 43
0.0
 44
0.0
 45
295.6051935424805
 50
0.0
 51
0.0
 72
  1000
 90
    32800
  1

281
     0
 71
     1
 74
     0
110
0.0
120
0.0
130
0.0
111
1.0
121
0.0
131
0.0
112
0.0
122
1.0
132
0.0
 79
     0
146
0.0
170
     0
 61
     5
348
2F1
292
     1
282
     1
141
0.0
142
0.0
 63
   256
  0
VIEWPORT
  5
2EB
330
2E1
100
AcDbEntity
 67
     1
  8
Drawing
 62
     7
 48
0.25
100
AcDbViewport
 10
116.6073627995878
 20
144.5643145334285
 30
0.0
 40
163.0786146220282
 41
103.2015608703866
 68
     2
 69
     2
 12
811.3302205344826
 22
577.4410063414034
 13
0.0
 23
0.0
 14
10.0
 24
10.0
 15
10.0
 25
10.0
 16
0.0
 26
0.0
 36
1.0
 17
0.0
 27
0.0
 37
0.0
 42
50.0
 43
0.0
 44
0.0
 45
313.8550080510398
 50
0.0
 51
0.0
 72
  1000
 90
    32864
  1

281
     0
 71
     1
 74
     0
110
0.0
120
0.0
130
0.0
111
1.0
121
0.0
131
0.0
112
0.0
122
1.0
132
0.0
 79
     0
146
0.0
170
     0
 61
     5
348
2F1
292
     1
282
     1
141
0.0
142
0.0
 63
   256
  0
ENDSEC
  0
SECTION
  2
OBJECTS
  0
DICTIONARY
  5
C
330
0
100
AcDbDictionary
281
     1
  3
ACAD_COLOR
350
6B
  3
ACAD_DETAILVIEWSTYLE
350
365
  3
ACAD_GROUP
350
D
  3
ACAD_IMAGE_DICT
350
81
  3
ACAD_IMAGE_VARS
350
82
  3
ACAD_LAYOUT
350
1A
  3
ACAD_MATERIAL
350
6A
  3
ACAD_MLEADERSTYLE
350
32C
  3
ACAD_MLINESTYLE
350
17
  3
ACAD_PLOTSETTINGS
350
19
  3
ACAD_PLOTSTYLENAME
350
E
  3
ACAD_SCALELIST
350
305
  3
ACAD_SECTIONVIEWSTYLE
350
366
  3
ACAD_TABLESTYLE
350
32A
  3
ACAD_VISUALSTYLE
350
2EC
  3
ACDB_RECOMPOSE_DATA
350
361
  3
AcDbVariableDictionary
350
5E
  0
IMAGEDEF_REACTOR
  5
84
330
85
100
AcDbRasterImageDefReactor
 90
        2
330
85
  0
IMAGEDEF_REACTOR
  5
87
330
88
100
AcDbRasterImageDefReactor
 90
        2
330
88
  0
DICTIONARY
  5
6B
102
{ACAD_REACTORS
330
C
102
}
330
C
100
AcDbDictionary
281
     1
  0
DICTIONARY
  5
365
102
{ACAD_REACTORS
330
C
102
}
330
C
100
AcDbDictionary
281
     1
  0
DICTIONARY
  5
D
102
{ACAD_REACTORS
330
C
102
}
330
C
100
AcDbDictionary
281
     1
  0
DICTIONARY
  5
81
102
{ACAD_REACTORS
330
C
102
}
330
C
100
AcDbDictionary
281
     1
  3
stones1126
350
83
  3
stones1126_1
350
86
  0
RASTERVARIABLES
  5
82
102
{ACAD_REACTORS
330
C
102
}
330
C
100
AcDbRasterVariables
 90
        0
 70
     1
 71
     1
 72
     1
  0
DICTIONARY
  5
1A
102
{ACAD_REACTORS
330
C
102
}
330
C
100
AcDbDictionary
281
     1
  3
Layout4
350
2CA
  3
Layout5
350
2D7
  3
Layout6
350
2E2
  3
Model
350
22
  0
DICTIONARY
  5
6A
102
{ACAD_REACTORS
330
C
102
}
330
C
100
AcDbDictionary
281
     1
  3
ByBlock
350
328
  3
ByLayer
350
327
  3
Global
350
329
  0
DICTIONARY
  5
32C
102
{ACAD_REACTORS
330
C
102
}
330
C
100
AcDbDictionary
281
     1
  3
Standard
350
32D
  0
DICTIONARY
  5
17
102
{ACAD_REACTORS
330
C
102
}
330
C
100
AcDbDictionary
281
     1
  3
Standard
350
18
  0
DICTIONARY
  5
19
102
{ACAD_REACTORS
330
C
102
}
330
C
100
AcDbDictionary
281
     1
  0
ACDBDICTIONARYWDFLT
  5
E
102
{ACAD_REACTORS
330
C
102
}
330
C
100
AcDbDictionary
281
     1
  3
Normal
350
F
100
AcDbDictionaryWithDefault
340
F
  0
DICTIONARY
  5
305
102
{ACAD_REACTORS
330
C
102
}
330
C
100
AcDbDictionary
281
     1
  3
A0
350
306
  3
A1
350
307
  3
A2
350
308
  3
A3
350
309
  3
A4
350
30A
  3
A5
350
30B
  3
A6
350
30C
  3
A7
350
30D
  3
A8
350
30E
  3
A9
350
30F
  3
B0
350
310
  3
B1
350
311
  3
B2
350
312
  3
B3
350
313
  3
B4
350
314
  3
B5
350
315
  3
B6
350
316
  3
B7
350
317
  3
B8
350
318
  3
B9
350
319
  3
C0
350
31A
  3
C1
350
31B
  3
C2
350
31C
  3
C3
350
31D
  3
C4
350
31E
  3
C5
350
31F
  3
C6
350
320
  3
C7
350
321
  3
C8
350
322
  3
C9
350
323
  3
D0
350
324
  3
D1
350
325
  3
D2
350
326
  0
DICTIONARY
  5
366
102
{ACAD_REACTORS
330
C
102
}
330
C
100
AcDbDictionary
281
     1
  0
DICTIONARY
  5
32A
102
{ACAD_REACTORS
330
C
102
}
330
C
100
AcDbDictionary
281
     1
  3
Standard
350
32B
  0
DICTIONARY
  5
2EC
102
{ACAD_REACTORS
330
C
102
}
330
C
100
AcDbDictionary
281
     1
  3
2dWireframe
350
2F1
  3
Basic
350
2F4
  3
Brighten
350
2F8
  3
ColorChange
350
2FC
  3
Conceptual
350
2F6
  3
Dim
350
2F7
  3
EdgeColorOff
350
2FF
  3
Facepattern
350
2FB
  3
Flat
350
2ED
  3
FlatWithEdges
350
2EE
  3
Gouraud
350
2EF
  3
GouraudWithEdges
350
2F0
  3
Hidden
350
2F3
  3
JitterOff
350
2FD
  3
Linepattern
350
2FA
  3
OverhangOff
350
2FE
  3
Realistic
350
2F5
  3
Shaded
350
304
  3
Shaded with edges
350
303
  3
Shades of Gray
350
300
  3
Sketchy
350
301
  3
Thicken
350
2F9
  3
Wireframe
350
2F2
  3
X-Ray
350
302
  0
XRECORD
  5
361
102
{ACAD_REACTORS
330
C
102
}
330
C
100
AcDbXrecord
280
     1
 90
        1
330
32B
  0
DICTIONARY
  5
5E
102
{ACAD_REACTORS
330
C
102
}
330
C
100
AcDbDictionary
281
     1
  3
CANNOSCALE
350
32E
  3
CMLEADERSTYLE
350
363
  3
CTABLESTYLE
350
362
  3
DIMASSOC
350
5F
  3
HIDETEXT
350
63
  3
MSLTSCALE
350
364
  3
PROJECTNAME
350
22B
  0
IMAGEDEF
  5
83
102
{ACAD_REACTORS
330
81
330
84
102
}
330
81
100
AcDbRasterImageDef
 90
        0
  1
C:\Documents and Settings\Owner\My Documents\Facing the Palace 2002\Facing the Palace scanned images\stones1126.jpg
 10
2480.0
 20
3504.0
 11
0.08466666666666667
 21
0.08466666666666667
280
     1
281
     5
  0
IMAGEDEF
  5
86
102
{ACAD_REACTORS
330
81
330
87
102
}
330
81
100
AcDbRasterImageDef
 90
        0
  1
C:\Documents and Settings\Owner\My Documents\Facing the Palace 2002\Facing the Palace scanned images\stones1126.2.jpg
 10
2112.0
 20
1344.0
 11
0.08466666666666667
 21
0.08466666666666667
280
     1
281
     5
  0
LAYOUT
  5
2CA
102
{ACAD_REACTORS
330
1A
102
}
330
1A
100
AcDbPlotSettings
  1

  2
hp deskjet 960c
  4
Letter
  6

 40
7.143749713897705
 41
13.91709136962891
 42
7.14373779296875
 43
3.17498779296875
 44
215.8999938964844
 45
279.3999938964844
 46
0.0
 47
0.0
 48
0.0
 49
0.0
140
0.0
141
0.0
142
1.0
143
1.0
 70
   688
 72
     1
 73
     1
 74
     5
  7

 75
    16
 76
     0
 77
     2
 78
   300
147
1.0
148
0.0
149
0.0
100
AcDbLayout
  1
Layout4
 70
     1
 71
     1
 10
-3.17498779296875
 20
-7.143749713897705
 11
276.2250061035156
 21
208.7562441825867
 12
0.0
 22
0.0
 32
0.0
 14
26.23079147338868
 24
20.1612506389618
 34
0.0
 15
236.077123260498
 25
181.4512557506561
 35
0.0
146
0.0
 13
0.0
 23
0.0
 33
0.0
 16
1.0
 26
0.0
 36
0.0
 17
0.0
 27
1.0
 37
0.0
 76
     0
330
2C9
331
2D1
  0
LAYOUT
  5
2D7
102
{ACAD_REACTORS
330
1A
102
}
330
1A
100
AcDbPlotSettings
  1

  2
hp deskjet 960c
  4
Letter
  6

 40
7.143749713897705
 41
13.91709136962891
 42
7.14373779296875
 43
3.17498779296875
 44
215.8999938964844
 45
279.3999938964844
 46
-13.4
 47
-64.18
 48
0.0
 49
0.0
140
0.0
141
0.0
142
1.0
143
1.0
 70
   692
 72
     1
 73
     1
 74
     0
  7

 75
    16
 76
     0
 77
     2
 78
   300
147
1.0
148
58.80421641815508
149
13.40484953689575
100
AcDbLayout
  1
Layout5
 70
     1
 71
     2
 10
2.200795788876178
 20
-7.148599250793458
 11
281.6007896853606
 21
208.7513946456909
 12
0.0
 22
0.0
 32
0.0
 14
31.60657505523361
 24
20.15640110206604
 34
0.0
 15
241.452906842343
 25
181.4464062137604
 35
0.0
146
0.0
 13
0.0
 23
0.0
 33
0.0
 16
1.0
 26
0.0
 36
0.0
 17
0.0
 27
1.0
 37
0.0
 76
     0
330
2D6
331
2DE
  0
LAYOUT
  5
2E2
102
{ACAD_REACTORS
330
1A
102
}
330
1A
100
AcDbPlotSettings
  1

  2
hp deskjet 960c
  4
Letter
  6

 40
7.143749713897705
 41
13.91709136962891
 42
7.14373779296875
 43
3.17498779296875
 44
215.8999938964844
 45
279.3999938964844
 46
0.0
 47
0.0
 48
0.0
 49
0.0
140
0.0
141
0.0
142
1.0
143
1.0
 70
   688
 72
     1
 73
     0
 74
     5
  7

 75
    16
 76
     0
 77
     2
 78
   300
147
1.0
148
-18.37264112862795
149
-26.23079147338868
100
AcDbLayout
  1
Layout6
 70
     1
 71
     3
 10
11.22889141473024
 20
12.31370010375977
 11
227.1288853112146
 21
291.7136940002441
 12
0.0
 22
0.0
 32
0.0
 14
18.37264112862795
 24
26.23079147338868
 34
0.0
 15
216.4072792357351
 25
196.1650949686218
 35
0.0
146
0.0
 13
0.0
 23
0.0
 33
0.0
 16
1.0
 26
0.0
 36
0.0
 17
0.0
 27
1.0
 37
0.0
 76
     0
330
2E1
331
2E9
  0
LAYOUT
  5
22
102
{ACAD_REACTORS
330
1A
102
}
330
1A
100
AcDbPlotSettings
  1

  2
Dell AIO Printer A920
  4
User256
  6

 40
7.143749713897705
 41
13.49375152587891
 42
7.186080932617188
 43
3.17498779296875
 44
215.8999938964844
 45
279.3999938964844
 46
0.0
 47
0.0
 48
0.0
 49
0.0
140
0.0
141
0.0
142
1.0
143
1.412818688136214
 70
 11952
 72
     1
 73
     1
 74
     0
  7
monochrome.ctb
 75
     0
 76
     0
 77
     2
 78
   300
147
0.7078049068838386
148
-645.9580147434303
149
-449.1616570930728
100
AcDbLayout
  1
Model
 70
     1
 71
     0
 10
0.0
 20
0.0
 11
12.0
 21
9.0
 12
0.0
 22
0.0
 32
0.0
 14
0.0
 24
0.0
 34
0.0
 15
0.0
 25
0.0
 35
0.0
146
0.0
 13
0.0
 23
0.0
 33
0.0
 16
1.0
 26
0.0
 36
0.0
 17
0.0
 27
1.0
 37
0.0
 76
     0
330
1F
331
2E6
  0
MATERIAL
  5
328
102
{ACAD_REACTORS
330
6A
102
}
330
6A
100
AcDbMaterial
  1
ByBlock
 72
     1
 94
      127
  0
MATERIAL
  5
327
102
{ACAD_REACTORS
330
6A
102
}
330
6A
100
AcDbMaterial
  1
ByLayer
 72
     1
 94
      127
  0
MATERIAL
  5
329
102
{ACAD_REACTORS
330
6A
102
}
330
6A
100
AcDbMaterial
  1
Global
 72
     1
 94
      127
  0
MLEADERSTYLE
  5
32D
102
{ACAD_REACTORS
330
32C
102
}
330
32C
100
AcDbMLeaderStyle
179
     2
170
     2
171
     1
172
     0
 90
        2
 40
0.0
 41
0.0
173
     1
 91
-1056964608
340
14
 92
       -2
290
     1
 42
2.0
291
     1
 43
8.0
  3
Standard
341
0
 44
4.0
300

342
11
174
     1
178
     6
175
     1
176
     0
 93
-1056964608
 45
4.0
292
     0
297
     0
 46
4.0
343
0
 94
-1056964608
 47
1.0
 49
1.0
140
1.0
293
     1
141
0.0
294
     1
177
     0
142
1.0
295
     0
296
     0
143
3.75
271
     0
272
     9
273
     9
  0
MLINESTYLE
  5
18
102
{ACAD_REACTORS
330
17
102
}
330
17
100
AcDbMlineStyle
  2
STANDARD
 70
     0
  3

 62
   256
 51
90.0
 52
90.0
 71
     2
 49
0.5
 62
   256
  6
BYLAYER
 49
-0.5
 62
   256
  6
BYLAYER
  0
ACDBPLACEHOLDER
  5
F
102
{ACAD_REACTORS
330
E
102
}
330
E
  0
SCALE
  5
306
102
{ACAD_REACTORS
330
305
102
}
330
305
100
AcDbScale
 70
     0
300
1:1
140
1.0
141
1.0
290
     1
  0
SCALE
  5
307
102
{ACAD_REACTORS
330
305
102
}
330
305
100
AcDbScale
 70
     0
300
1:2
140
1.0
141
2.0
290
     0
  0
SCALE
  5
308
102
{ACAD_REACTORS
330
305
102
}
330
305
100
AcDbScale
 70
     0
300
1:4
140
1.0
141
4.0
290
     0
  0
SCALE
  5
309
102
{ACAD_REACTORS
330
305
102
}
330
305
100
AcDbScale
 70
     0
300
1:5
140
1.0
141
5.0
290
     0
  0
SCALE
  5
30A
102
{ACAD_REACTORS
330
305
102
}
330
305
100
AcDbScale
 70
     0
300
1:8
140
1.0
141
8.0
290
     0
  0
SCALE
  5
30B
102
{ACAD_REACTORS
330
305
102
}
330
305
100
AcDbScale
 70
     0
300
1:10
140
1.0
141
10.0
290
     0
  0
SCALE
  5
30C
102
{ACAD_REACTORS
330
305
102
}
330
305
100
AcDbScale
 70
     0
300
1:16
140
1.0
141
16.0
290
     0
  0
SCALE
  5
30D
102
{ACAD_REACTORS
330
305
102
}
330
305
100
AcDbScale
 70
     0
300
1:20
140
1.0
141
20.0
290
     0
  0
SCALE
  5
30E
102
{ACAD_REACTORS
330
305
102
}
330
305
100
AcDbScale
 70
     0
300
1:30
140
1.0
141
30.0
290
     0
  0
SCALE
  5
30F
102
{ACAD_REACTORS
330
305
102
}
330
305
100
AcDbScale
 70
     0
300
1:40
140
1.0
141
40.0
290
     0
  0
SCALE
  5
310
102
{ACAD_REACTORS
330
305
102
}
330
305
100
AcDbScale
 70
     0
300
1:50
140
1.0
141
50.0
290
     0
  0
SCALE
  5
311
102
{ACAD_REACTORS
330
305
102
}
330
305
100
AcDbScale
 70
     0
300
1:100
140
1.0
141
100.0
290
     0
  0
SCALE
  5
312
102
{ACAD_REACTORS
330
305
102
}
330
305
100
AcDbScale
 70
     0
300
2:1
140
2.0
141
1.0
290
     0
  0
SCALE
  5
313
102
{ACAD_REACTORS
330
305
102
}
330
305
100
AcDbScale
 70
     0
300
4:1
140
4.0
141
1.0
290
     0
  0
SCALE
  5
314
102
{ACAD_REACTORS
330
305
102
}
330
305
100
AcDbScale
 70
     0
300
8:1
140
8.0
141
1.0
290
     0
  0
SCALE
  5
315
102
{ACAD_REACTORS
330
305
102
}
330
305
100
AcDbScale
 70
     0
300
10:1
140
10.0
141
1.0
290
     0
  0
SCALE
  5
316
102
{ACAD_REACTORS
330
305
102
}
330
305
100
AcDbScale
 70
     0
300
100:1
140
100.0
141
1.0
290
     0
  0
SCALE
  5
317
102
{ACAD_REACTORS
330
305
102
}
330
305
100
AcDbScale
 70
     0
300
1/128" = 1'-0"
140
0.0078125
141
12.0
290
     0
  0
SCALE
  5
318
102
{ACAD_REACTORS
330
305
102
}
330
305
100
AcDbScale
 70
     0
300
1/64" = 1'-0"
140
0.015625
141
12.0
290
     0
  0
SCALE
  5
319
102
{ACAD_REACTORS
330
305
102
}
330
305
100
AcDbScale
 70
     0
300
1/32" = 1'-0"
140
0.03125
141
12.0
290
     0
  0
SCALE
  5
31A
102
{ACAD_REACTORS
330
305
102
}
330
305
100
AcDbScale
 70
     0
300
1/16" = 1'-0"
140
0.0625
141
12.0
290
     0
  0
SCALE
  5
31B
102
{ACAD_REACTORS
330
305
102
}
330
305
100
AcDbScale
 70
     0
300
3/32" = 1'-0"
140
0.09375
141
12.0
290
     0
  0
SCALE
  5
31C
102
{ACAD_REACTORS
330
305
102
}
330
305
100
AcDbScale
 70
     0
300
1/8" = 1'-0"
140
0.125
141
12.0
290
     0
  0
SCALE
  5
31D
102
{ACAD_REACTORS
330
305
102
}
330
305
100
AcDbScale
 70
     0
300
3/16" = 1'-0"
140
0.1875
141
12.0
290
     0
  0
SCALE
  5
31E
102
{ACAD_REACTORS
330
305
102
}
330
305
100
AcDbScale
 70
     0
300
1/4" = 1'-0"
140
0.25
141
12.0
290
     0
  0
SCALE
  5
31F
102
{ACAD_REACTORS
330
305
102
}
330
305
100
AcDbScale
 70
     0
300
3/8" = 1'-0"
140
0.375
141
12.0
290
     0
  0
SCALE
  5
320
102
{ACAD_REACTORS
330
305
102
}
330
305
100
AcDbScale
 70
     0
300
1/2" = 1'-0"
140
0.5
141
12.0
290
     0
  0
SCALE
  5
321
102
{ACAD_REACTORS
330
305
102
}
330
305
100
AcDbScale
 70
     0
300
3/4" = 1'-0"
140
0.75
141
12.0
290
     0
  0
SCALE
  5
322
102
{ACAD_REACTORS
330
305
102
}
330
305
100
AcDbScale
 70
     0
300
1" = 1'-0"
140
1.0
141
12.0
290
     0
  0
SCALE
  5
323
102
{ACAD_REACTORS
330
305
102
}
330
305
100
AcDbScale
 70
     0
300
1-1/2" = 1'-0"
140
1.5
141
12.0
290
     0
  0
SCALE
  5
324
102
{ACAD_REACTORS
330
305
102
}
330
305
100
AcDbScale
 70
     0
300
3" = 1'-0"
140
3.0
141
12.0
290
     0
  0
SCALE
  5
325
102
{ACAD_REACTORS
330
305
102
}
330
305
100
AcDbScale
 70
     0
300
6" = 1'-0"
140
6.0
141
12.0
290
     0
  0
SCALE
  5
326
102
{ACAD_REACTORS
330
305
102
}
330
305
100
AcDbScale
 70
     0
300
1'-0" = 1'-0"
140
12.0
141
12.0
290
     0
  0
TABLESTYLE
  5
32B
102
{ACAD_REACTORS
330
32A
102
}
102
{ACAD_XDICTIONARY
360
35F
102
}
330
32A
100
AcDbTableStyle
  3
Standard
 70
     0
 71
     0
 40
0.06
 41
0.06
280
     0
281
     0
  7
Standard
140
4.5
170
     2
 62
     0
 63
   257
283
     0
 90
        4
 91
        0
  1

274
    -2
284
     1
 64
     0
275
    -2
285
     1
 65
     0
276
    -2
286
     1
 66
     0
277
    -2
287
     1
 67
     0
278
    -2
288
     1
 68
     0
279
    -2
289
     1
 69
     0
  7
Standard
140
6.0
170
     5
 62
     0
 63
   257
283
     0
 90
        4
 91
        0
  1

274
    -2
284
     1
 64
     0
275
    -2
285
     1
 65
     0
276
    -2
286
     1
 66
     0
277
    -2
287
     1
 67
     0
278
    -2
288
     1
 68
     0
279
    -2
289
     1
 69
     0
  7
Standard
140
4.5
170
     5
 62
     0
 63
   257
283
     0
 90
        4
 91
        0
  1

274
    -2
284
     1
 64
     0
275
    -2
285
     1
 65
     0
276
    -2
286
     1
 66
     0
277
    -2
287
     1
 67
     0
278
    -2
288
     1
 68
     0
279
    -2
289
     1
 69
     0
  0
VISUALSTYLE
  5
2F1
102
{ACAD_REACTORS
330
2EC
102
}
102
{ACAD_XDICTIONARY
360
337
102
}
330
2EC
100
AcDbVisualStyle
  2
2dWireframe
 70
     4
177
     2
291
     0
 71
     0
176
     1
 72
     2
176
     1
 73
     0
176
     1
 90
        0
176
     1
 40
0.6
176
     1
 41
30.0
176
     1
 62
     5
 63
     7
421
 16777215
176
     1
 74
     1
176
     1
 91
        4
176
     1
 64
     7
176
     1
 65
   257
176
     1
 75
     1
176
     1
175
     1
176
     1
 42
1.0
176
     1
 92
        0
176
     1
 66
   257
176
     1
 43
1.0
176
     1
 76
     1
176
     1
 77
     6
176
     1
 78
     2
176
     1
 67
     7
176
     1
 79
     5
176
     1
170
     0
176
     1
171
     0
176
     1
290
     0
176
     1
 93
        1
176
     1
 44
0.0
176
     1
173
     0
176
     1
  0
VISUALSTYLE
  5
2F4
102
{ACAD_REACTORS
330
2EC
102
}
102
{ACAD_XDICTIONARY
360
33D
102
}
330
2EC
100
AcDbVisualStyle
  2
Basic
 70
     7
177
     2
291
     1
 71
     1
176
     1
 72
     0
176
     1
 73
     1
176
     1
 90
        0
176
     1
 40
0.6
176
     1
 41
30.0
176
     1
 62
     5
 63
     7
421
 16777215
176
     1
 74
     0
176
     1
 91
        4
176
     1
 64
     7
176
     1
 65
   257
176
     1
 75
     1
176
     1
175
     1
176
     1
 42
1.0
176
     1
 92
        8
176
     1
 66
     7
176
     1
 43
1.0
176
     1
 76
     1
176
     1
 77
     6
176
     1
 78
     2
176
     1
 67
     7
176
     1
 79
     5
176
     1
170
     0
176
     1
171
     0
176
     1
290
     0
176
     1
 93
        1
176
     1
 44
0.0
176
     1
173
     0
176
     1
  0
VISUALSTYLE
  5
2F8
102
{ACAD_REACTORS
330
2EC
102
}
102
{ACAD_XDICTIONARY
360
345
102
}
330
2EC
100
AcDbVisualStyle
  2
Brighten
 70
    12
177
     2
291
     1
 71
     2
176
     1
 72
     2
176
     1
 73
     0
176
     1
 90
        0
176
     1
 40
0.6
176
     1
 41
30.0
176
     1
 62
     5
 63
     7
421
 16777215
176
     1
 74
     1
176
     1
 91
        4
176
     1
 64
     7
176
     1
 65
   257
176
     1
 75
     1
176
     1
175
     1
176
     1
 42
1.0
176
     1
 92
        8
176
     1
 66
     7
176
     1
 43
1.0
176
     1
 76
     1
176
     1
 77
     6
176
     1
 78
     2
176
     1
 67
     7
176
     1
 79
     5
176
     1
170
     0
176
     1
171
     0
176
     1
290
     0
176
     1
 93
        1
176
     1
 44
50.0
176
     1
173
     0
176
     1
  0
VISUALSTYLE
  5
2FC
102
{ACAD_REACTORS
330
2EC
102
}
102
{ACAD_XDICTIONARY
360
34D
102
}
330
2EC
100
AcDbVisualStyle
  2
ColorChange
 70
    16
177
     2
291
     1
 71
     2
176
     1
 72
     2
176
     1
 73
     3
176
     1
 90
        0
176
     1
 40
0.6
176
     1
 41
30.0
176
     1
 62
     5
 63
     8
421
  8421504
176
     1
 74
     1
176
     1
 91
        4
176
     1
 64
     7
176
     1
 65
   257
176
     1
 75
     1
176
     1
175
     1
176
     1
 42
1.0
176
     1
 92
        8
176
     1
 66
     8
424
  8421504
176
     1
 43
1.0
176
     1
 76
     1
176
     1
 77
     6
176
     1
 78
     2
176
     1
 67
     7
176
     1
 79
     5
176
     1
170
     0
176
     1
171
     0
176
     1
290
     0
176
     1
 93
        1
176
     1
 44
0.0
176
     1
173
     0
176
     1
  0
VISUALSTYLE
  5
2F6
102
{ACAD_REACTORS
330
2EC
102
}
102
{ACAD_XDICTIONARY
360
341
102
}
330
2EC
100
AcDbVisualStyle
  2
Conceptual
 70
     9
177
     2
291
     0
 71
     3
176
     1
 72
     2
176
     1
 73
     0
176
     1
 90
        0
176
     1
 40
0.6
176
     1
 41
30.0
176
     1
 62
     5
 63
     7
421
 16777215
176
     1
 74
     2
176
     1
 91
        2
176
     1
 64
     7
176
     1
 65
   257
176
     1
 75
     1
176
     1
175
     1
176
     1
 42
179.0
176
     1
 92
        8
176
     1
 66
     7
176
     1
 43
1.0
176
     1
 76
     1
176
     1
 77
     6
176
     1
 78
     2
176
     1
 67
     7
176
     1
 79
     3
176
     1
170
     0
176
     1
171
     0
176
     1
290
     0
176
     1
 93
        1
176
     1
 44
0.0
176
     1
173
     0
176
     1
  0
VISUALSTYLE
  5
2F7
102
{ACAD_REACTORS
330
2EC
102
}
102
{ACAD_XDICTIONARY
360
343
102
}
330
2EC
100
AcDbVisualStyle
  2
Dim
 70
    11
177
     2
291
     1
 71
     2
176
     1
 72
     2
176
     1
 73
     0
176
     1
 90
        0
176
     1
 40
0.6
176
     1
 41
30.0
176
     1
 62
     5
 63
     7
421
 16777215
176
     1
 74
     1
176
     1
 91
        4
176
     1
 64
     7
176
     1
 65
   257
176
     1
 75
     1
176
     1
175
     1
176
     1
 42
1.0
176
     1
 92
        8
176
     1
 66
     7
176
     1
 43
1.0
176
     1
 76
     1
176
     1
 77
     6
176
     1
 78
     2
176
     1
 67
     7
176
     1
 79
     5
176
     1
170
     0
176
     1
171
     0
176
     1
290
     0
176
     1
 93
        1
176
     1
 44
-50.0
176
     1
173
     0
176
     1
  0
VISUALSTYLE
  5
2FF
102
{ACAD_REACTORS
330
2EC
102
}
102
{ACAD_XDICTIONARY
360
353
102
}
330
2EC
100
AcDbVisualStyle
  2
EdgeColorOff
 70
    22
177
     2
291
     1
 71
     2
176
     0
 72
     2
176
     0
 73
     0
176
     0
 90
        0
176
     0
 40
0.6
176
     0
 41
30.0
176
     0
 62
     5
 63
     7
421
 16777215
176
     0
 74
     1
176
     0
 91
        4
176
     0
 64
     7
176
     0
 65
   257
176
     0
 75
     1
176
     0
175
     1
176
     0
 42
1.0
176
     0
 92
        8
176
     2
 66
     7
176
     0
 43
1.0
176
     0
 76
     1
176
     0
 77
     6
176
     0
 78
     2
176
     0
 67
     7
176
     0
 79
     5
176
     0
170
     0
176
     0
171
     0
176
     0
290
     0
176
     0
 93
        1
176
     0
 44
0.0
176
     0
173
     0
176
     0
  0
VISUALSTYLE
  5
2FB
102
{ACAD_REACTORS
330
2EC
102
}
102
{ACAD_XDICTIONARY
360
34B
102
}
330
2EC
100
AcDbVisualStyle
  2
Facepattern
 70
    15
177
     2
291
     1
 71
     2
176
     1
 72
     2
176
     1
 73
     0
176
     1
 90
        0
176
     1
 40
0.6
176
     1
 41
30.0
176
     1
 62
     5
 63
     7
421
 16777215
176
     1
 74
     1
176
     1
 91
        4
176
     1
 64
     7
176
     1
 65
   257
176
     1
 75
     1
176
     1
175
     1
176
     1
 42
1.0
176
     1
 92
        8
176
     1
 66
     7
176
     1
 43
1.0
176
     1
 76
     1
176
     1
 77
     6
176
     1
 78
     2
176
     1
 67
     7
176
     1
 79
     5
176
     1
170
     0
176
     1
171
     0
176
     1
290
     0
176
     1
 93
        1
176
     1
 44
0.0
176
     1
173
     0
176
     1
  0
VISUALSTYLE
  5
2ED
102
{ACAD_REACTORS
330
2EC
102
}
102
{ACAD_XDICTIONARY
360
32F
102
}
330
2EC
100
AcDbVisualStyle
  2
Flat
 70
     0
177
     2
291
     1
 71
     2
176
     1
 72
     1
176
     1
 73
     1
176
     1
 90
        2
176
     1
 40
0.6
176
     1
 41
30.0
176
     1
 62
     5
 63
     7
421
 16777215
176
     1
 74
     0
176
     1
 91
        0
176
     1
 64
     7
176
     1
 65
   257
176
     1
 75
     1
176
     1
175
     1
176
     1
 42
1.0
176
     1
 92
        8
176
     1
 66
     7
176
     1
 43
1.0
176
     1
 76
     1
176
     1
 77
     6
176
     1
 78
     2
176
     1
 67
     7
176
     1
 79
     5
176
     1
170
     0
176
     1
171
     0
176
     1
290
     0
176
     1
 93
       13
176
     1
 44
0.0
176
     1
173
     0
176
     1
  0
VISUALSTYLE
  5
2EE
102
{ACAD_REACTORS
330
2EC
102
}
102
{ACAD_XDICTIONARY
360
331
102
}
330
2EC
100
AcDbVisualStyle
  2
FlatWithEdges
 70
     1
177
     2
291
     1
 71
     2
176
     1
 72
     1
176
     1
 73
     1
176
     1
 90
        2
176
     1
 40
0.6
176
     1
 41
30.0
176
     1
 62
     5
 63
     7
421
 16777215
176
     1
 74
     1
176
     1
 91
        0
176
     1
 64
     7
176
     1
 65
   257
176
     1
 75
     1
176
     1
175
     1
176
     1
 42
1.0
176
     1
 92
        0
176
     1
 66
   257
176
     1
 43
1.0
176
     1
 76
     1
176
     1
 77
     6
176
     1
 78
     2
176
     1
 67
     7
176
     1
 79
     5
176
     1
170
     0
176
     1
171
     0
176
     1
290
     0
176
     1
 93
       13
176
     1
 44
0.0
176
     1
173
     0
176
     1
  0
VISUALSTYLE
  5
2EF
102
{ACAD_REACTORS
330
2EC
102
}
102
{ACAD_XDICTIONARY
360
333
102
}
330
2EC
100
AcDbVisualStyle
  2
Gouraud
 70
     2
177
     2
291
     1
 71
     2
176
     1
 72
     2
176
     1
 73
     1
176
     1
 90
        2
176
     1
 40
0.6
176
     1
 41
30.0
176
     1
 62
     5
 63
     7
421
 16777215
176
     1
 74
     0
176
     1
 91
        0
176
     1
 64
     7
176
     1
 65
   257
176
     1
 75
     1
176
     1
175
     1
176
     1
 42
1.0
176
     1
 92
        0
176
     1
 66
     7
176
     1
 43
1.0
176
     1
 76
     1
176
     1
 77
     6
176
     1
 78
     2
176
     1
 67
     7
176
     1
 79
     5
176
     1
170
     0
176
     1
171
     0
176
     1
290
     0
176
     1
 93
       13
176
     1
 44
0.0
176
     1
173
     0
176
     1
  0
VISUALSTYLE
  5
2F0
102
{ACAD_REACTORS
330
2EC
102
}
102
{ACAD_XDICTIONARY
360
335
102
}
330
2EC
100
AcDbVisualStyle
  2
GouraudWithEdges
 70
     3
177
     2
291
     1
 71
     2
176
     1
 72
     2
176
     1
 73
     1
176
     1
 90
        2
176
     1
 40
0.6
176
     1
 41
30.0
176
     1
 62
     5
 63
     7
421
 16777215
176
     1
 74
     1
176
     1
 91
        0
176
     1
 64
     7
176
     1
 65
   257
176
     1
 75
     1
176
     1
175
     1
176
     1
 42
1.0
176
     1
 92
        0
176
     1
 66
   257
176
     1
 43
1.0
176
     1
 76
     1
176
     1
 77
     6
176
     1
 78
     2
176
     1
 67
     7
176
     1
 79
     5
176
     1
170
     0
176
     1
171
     0
176
     1
290
     0
176
     1
 93
       13
176
     1
 44
0.0
176
     1
173
     0
176
     1
  0
VISUALSTYLE
  5
2F3
102
{ACAD_REACTORS
330
2EC
102
}
102
{ACAD_XDICTIONARY
360
33B
102
}
330
2EC
100
AcDbVisualStyle
  2
Hidden
 70
     6
177
     2
291
     0
 71
     1
176
     1
 72
     2
176
     1
 73
     2
176
     1
 90
        0
176
     1
 40
0.6
176
     1
 41
30.0
176
     1
 62
     5
 63
     7
421
 16777215
176
     1
 74
     2
176
     1
 91
        2
176
     1
 64
     7
176
     1
 65
   257
176
     1
 75
     2
176
     1
175
     1
176
     1
 42
40.0
176
     1
 92
        0
176
     1
 66
   257
176
     1
 43
1.0
176
     1
 76
     1
176
     1
 77
     6
176
     1
 78
     2
176
     1
 67
     7
176
     1
 79
     3
176
     1
170
     0
176
     1
171
     0
176
     1
290
     0
176
     1
 93
        1
176
     1
 44
0.0
176
     1
173
     0
176
     1
  0
VISUALSTYLE
  5
2FD
102
{ACAD_REACTORS
330
2EC
102
}
102
{ACAD_XDICTIONARY
360
34F
102
}
330
2EC
100
AcDbVisualStyle
  2
JitterOff
 70
    20
177
     2
291
     1
 71
     2
176
     0
 72
     2
176
     0
 73
     0
176
     0
 90
        0
176
     0
 40
0.6
176
     0
 41
30.0
176
     0
 62
     5
 63
     7
421
 16777215
176
     0
 74
     1
176
     0
 91
        4
176
     0
 64
     7
176
     0
 65
   257
176
     0
 75
     1
176
     0
175
     1
176
     0
 42
1.0
176
     0
 92
       10
176
     2
 66
     7
176
     0
 43
1.0
176
     0
 76
     1
176
     0
 77
     6
176
     0
 78
     2
176
     0
 67
     7
176
     0
 79
     5
176
     0
170
     0
176
     0
171
     0
176
     0
290
     0
176
     0
 93
        1
176
     0
 44
0.0
176
     0
173
     0
176
     0
  0
VISUALSTYLE
  5
2FA
102
{ACAD_REACTORS
330
2EC
102
}
102
{ACAD_XDICTIONARY
360
349
102
}
330
2EC
100
AcDbVisualStyle
  2
Linepattern
 70
    14
177
     2
291
     1
 71
     2
176
     1
 72
     2
176
     1
 73
     0
176
     1
 90
        0
176
     1
 40
0.6
176
     1
 41
30.0
176
     1
 62
     5
 63
     7
421
 16777215
176
     1
 74
     1
176
     1
 91
        4
176
     1
 64
     7
176
     1
 65
   257
176
     1
 75
     7
176
     1
175
     7
176
     1
 42
1.0
176
     1
 92
        8
176
     1
 66
     7
176
     1
 43
1.0
176
     1
 76
     1
176
     1
 77
     6
176
     1
 78
     2
176
     1
 67
     7
176
     1
 79
     5
176
     1
170
     0
176
     1
171
     0
176
     1
290
     0
176
     1
 93
        1
176
     1
 44
0.0
176
     1
173
     0
176
     1
  0
VISUALSTYLE
  5
2FE
102
{ACAD_REACTORS
330
2EC
102
}
102
{ACAD_XDICTIONARY
360
351
102
}
330
2EC
100
AcDbVisualStyle
  2
OverhangOff
 70
    21
177
     2
291
     1
 71
     2
176
     0
 72
     2
176
     0
 73
     0
176
     0
 90
        0
176
     0
 40
0.6
176
     0
 41
30.0
176
     0
 62
     5
 63
     7
421
 16777215
176
     0
 74
     1
176
     0
 91
        4
176
     0
 64
     7
176
     0
 65
   257
176
     0
 75
     1
176
     0
175
     1
176
     0
 42
1.0
176
     0
 92
        9
176
     2
 66
     7
176
     0
 43
1.0
176
     0
 76
     1
176
     0
 77
     6
176
     0
 78
     2
176
     0
 67
     7
176
     0
 79
     5
176
     0
170
     0
176
     0
171
     0
176
     0
290
     0
176
     0
 93
        1
176
     0
 44
0.0
176
     0
173
     0
176
     0
  0
VISUALSTYLE
  5
2F5
102
{ACAD_REACTORS
330
2EC
102
}
102
{ACAD_XDICTIONARY
360
33F
102
}
330
2EC
100
AcDbVisualStyle
  2
Realistic
 70
     8
177
     2
291
     0
 71
     2
176
     1
 72
     3
176
     1
 73
     0
176
     1
 90
        2
176
     1
 40
0.6
176
     1
 41
30.0
176
     1
 62
     5
 63
     7
421
 16777215
176
     1
 74
     0
176
     1
 91
        0
176
     1
 64
     7
176
     1
 65
   257
176
     1
 75
     1
176
     1
175
     1
176
     1
 42
1.0
176
     1
 92
        8
176
     1
 66
   257
176
     1
 43
1.0
176
     1
 76
     1
176
     1
 77
     6
176
     1
 78
     2
176
     1
 67
     7
176
     1
 79
     3
176
     1
170
     0
176
     1
171
     0
176
     1
290
     0
176
     1
 93
       13
176
     1
 44
0.0
176
     1
173
     0
176
     1
  0
VISUALSTYLE
  5
304
102
{ACAD_REACTORS
330
2EC
102
}
102
{ACAD_XDICTIONARY
360
35D
102
}
330
2EC
100
AcDbVisualStyle
  2
Shaded
 70
    27
177
     2
291
     0
 71
     2
176
     1
 72
     2
176
     1
 73
     1
176
     1
 90
        2
176
     1
 40
0.6
176
     1
 41
30.0
176
     1
 62
     5
 63
     7
421
 16777215
176
     1
 74
     0
176
     1
 91
        4
176
     1
 64
     7
176
     1
 65
   257
176
     1
 75
     1
176
     1
175
     1
176
     1
 42
1.0
176
     1
 92
        8
176
     1
 66
   257
176
     1
 43
1.0
176
     1
 76
     1
176
     1
 77
     6
176
     1
 78
     2
176
     1
 67
     8
425
  7895160
176
     1
 79
     3
176
     1
170
     0
176
     1
171
     0
176
     1
290
     0
176
     1
 93
        5
176
     1
 44
0.0
176
     1
173
     0
176
     1
  0
VISUALSTYLE
  5
303
102
{ACAD_REACTORS
330
2EC
102
}
102
{ACAD_XDICTIONARY
360
35B
102
}
330
2EC
100
AcDbVisualStyle
  2
Shaded with edges
 70
    26
177
     2
291
     0
 71
     2
176
     1
 72
     2
176
     1
 73
     1
176
     1
 90
        2
176
     1
 40
0.6
176
     1
 41
30.0
176
     1
 62
     5
 63
     7
421
 16777215
176
     1
 74
     1
176
     1
 91
       10
176
     1
 64
     7
176
     1
 65
   257
176
     1
 75
     2
176
     1
175
     1
176
     1
 42
1.0
176
     1
 92
        8
176
     1
 66
   257
176
     1
 43
1.0
176
     1
 76
     1
176
     1
 77
     6
176
     1
 78
     2
176
     1
 67
     7
176
     1
 79
     3
176
     1
170
     0
176
     1
171
     0
176
     1
290
     0
176
     1
 93
        5
176
     1
 44
0.0
176
     1
173
     0
176
     1
  0
VISUALSTYLE
  5
300
102
{ACAD_REACTORS
330
2EC
102
}
102
{ACAD_XDICTIONARY
360
355
102
}
330
2EC
100
AcDbVisualStyle
  2
Shades of Gray
 70
    23
177
     2
291
     0
 71
     2
176
     1
 72
     2
176
     1
 73
     3
176
     1
 90
        0
176
     1
 40
0.6
176
     1
 41
30.0
176
     1
 62
     5
 63
     7
421
 16777215
176
     1
 74
     2
176
     1
 91
        2
176
     1
 64
     7
176
     1
 65
     7
176
     1
 75
     1
176
     1
175
     1
176
     1
 42
40.0
176
     1
 92
        8
176
     1
 66
     7
176
     1
 43
1.0
176
     1
 76
     1
176
     1
 77
     6
176
     1
 78
     2
176
     1
 67
     7
176
     1
 79
     3
176
     1
170
     0
176
     1
171
     0
176
     1
290
     0
176
     1
 93
        1
176
     1
 44
0.0
176
     1
173
     0
176
     1
  0
VISUALSTYLE
  5
301
102
{ACAD_REACTORS
330
2EC
102
}
102
{ACAD_XDICTIONARY
360
357
102
}
330
2EC
100
AcDbVisualStyle
  2
Sketchy
 70
    24
177
     2
291
     0
 71
     1
176
     1
 72
     2
176
     1
 73
     2
176
     1
 90
        0
176
     1
 40
0.6
176
     1
 41
30.0
176
     1
 62
     5
 63
     7
421
 16777215
176
     1
 74
     2
176
     1
 91
        2
176
     1
 64
     7
176
     1
 65
     7
176
     1
 75
     1
176
     1
175
     1
176
     1
 42
40.0
176
     1
 92
       11
176
     1
 66
     7
176
     1
 43
1.0
176
     1
 76
     1
176
     1
 77
     6
176
     1
 78
     2
176
     1
 67
     7
176
     1
 79
     6
176
     1
170
     0
176
     1
171
     0
176
     1
290
     0
176
     1
 93
        1
176
     1
 44
0.0
176
     1
173
     0
176
     1
  0
VISUALSTYLE
  5
2F9
102
{ACAD_REACTORS
330
2EC
102
}
102
{ACAD_XDICTIONARY
360
347
102
}
330
2EC
100
AcDbVisualStyle
  2
Thicken
 70
    13
177
     2
291
     1
 71
     2
176
     1
 72
     2
176
     1
 73
     0
176
     1
 90
        0
176
     1
 40
0.6
176
     1
 41
30.0
176
     1
 62
     5
 63
     7
421
 16777215
176
     1
 74
     1
176
     1
 91
        4
176
     1
 64
     7
176
     1
 65
   257
176
     1
 75
     1
176
     1
175
     1
176
     1
 42
1.0
176
     1
 92
       12
176
     1
 66
     7
176
     1
 43
1.0
176
     1
 76
     1
176
     1
 77
     6
176
     1
 78
     2
176
     1
 67
     7
176
     1
 79
     5
176
     1
170
     0
176
     1
171
     0
176
     1
290
     0
176
     1
 93
        1
176
     1
 44
0.0
176
     1
173
     0
176
     1
  0
VISUALSTYLE
  5
2F2
102
{ACAD_REACTORS
330
2EC
102
}
102
{ACAD_XDICTIONARY
360
339
102
}
330
2EC
100
AcDbVisualStyle
  2
Wireframe
 70
     5
177
     2
291
     0
 71
     0
176
     1
 72
     2
176
     1
 73
     0
176
     1
 90
        0
176
     1
 40
0.6
176
     1
 41
30.0
176
     1
 62
     5
 63
     7
421
 16777215
176
     1
 74
     1
176
     1
 91
        4
176
     1
 64
     7
176
     1
 65
   257
176
     1
 75
     1
176
     1
175
     1
176
     1
 42
1.0
176
     1
 92
        0
176
     1
 66
   257
176
     1
 43
1.0
176
     1
 76
     1
176
     1
 77
     6
176
     1
 78
     2
176
     1
 67
     7
176
     1
 79
     3
176
     1
170
     0
176
     1
171
     0
176
     1
290
     0
176
     1
 93
        1
176
     1
 44
0.0
176
     1
173
     0
176
     1
  0
VISUALSTYLE
  5
302
102
{ACAD_REACTORS
330
2EC
102
}
102
{ACAD_XDICTIONARY
360
359
102
}
330
2EC
100
AcDbVisualStyle
  2
X-Ray
 70
    25
177
     2
291
     0
 71
     2
176
     1
 72
     2
176
     1
 73
     1
176
     1
 90
        1
176
     1
 40
0.5
176
     1
 41
30.0
176
     1
 62
     5
 63
     7
421
 16777215
176
     1
 74
     1
176
     1
 91
        0
176
     1
 64
     7
176
     1
 65
   257
176
     1
 75
     1
176
     1
175
     1
176
     1
 42
1.0
176
     1
 92
        8
176
     1
 66
     7
176
     1
 43
1.0
176
     1
 76
     1
176
     1
 77
     6
176
     1
 78
     2
176
     1
 67
     7
176
     1
 79
     3
176
     1
170
     0
176
     1
171
     0
176
     1
290
     0
176
     1
 93
       13
176
     1
 44
0.0
176
     1
173
     0
176
     1
  0
DICTIONARYVAR
  5
32E
102
{ACAD_REACTORS
330
5E
102
}
330
5E
100
DictionaryVariables
280
     0
  1
1:1
  0
DICTIONARYVAR
  5
363
102
{ACAD_REACTORS
330
5E
102
}
330
5E
100
DictionaryVariables
280
     0
  1
Standard
  0
DICTIONARYVAR
  5
362
102
{ACAD_REACTORS
330
5E
102
}
330
5E
100
DictionaryVariables
280
     0
  1
Standard
  0
DICTIONARYVAR
  5
5F
102
{ACAD_REACTORS
330
5E
102
}
330
5E
100
DictionaryVariables
280
     0
  1
2
  0
DICTIONARYVAR
  5
63
102
{ACAD_REACTORS
330
5E
102
}
330
5E
100
DictionaryVariables
280
     0
  1
1
  0
DICTIONARYVAR
  5
364
102
{ACAD_REACTORS
330
5E
102
}
330
5E
100
DictionaryVariables
280
     0
  1
0
  0
DICTIONARYVAR
  5
22B
102
{ACAD_REACTORS
330
5E
102
}
330
5E
100
DictionaryVariables
280
     0
  1

  0
DICTIONARY
  5
35F
330
32B
100
AcDbDictionary
280
     1
281
     1
  3
ACAD_ROUNDTRIP_2008_TABLESTYLE_CELLSTYLEMAP
360
360
  0
DICTIONARY
  5
337
330
2F1
100
AcDbDictionary
280
     1
281
     1
  3
ACAD_XREC_ROUNDTRIP
360
338
  0
DICTIONARY
  5
33D
330
2F4
100
AcDbDictionary
280
     1
281
     1
  3
ACAD_XREC_ROUNDTRIP
360
33E
  0
DICTIONARY
  5
345
330
2F8
100
AcDbDictionary
280
     1
281
     1
  3
ACAD_XREC_ROUNDTRIP
360
346
  0
DICTIONARY
  5
34D
330
2FC
100
AcDbDictionary
280
     1
281
     1
  3
ACAD_XREC_ROUNDTRIP
360
34E
  0
DICTIONARY
  5
341
330
2F6
100
AcDbDictionary
280
     1
281
     1
  3
ACAD_XREC_ROUNDTRIP
360
342
  0
DICTIONARY
  5
343
330
2F7
100
AcDbDictionary
280
     1
281
     1
  3
ACAD_XREC_ROUNDTRIP
360
344
  0
DICTIONARY
  5
353
330
2FF
100
AcDbDictionary
280
     1
281
     1
  3
ACAD_XREC_ROUNDTRIP
360
354
  0
DICTIONARY
  5
34B
330
2FB
100
AcDbDictionary
280
     1
281
     1
  3
ACAD_XREC_ROUNDTRIP
360
34C
  0
DICTIONARY
  5
32F
330
2ED
100
AcDbDictionary
280
     1
281
     1
  3
ACAD_XREC_ROUNDTRIP
360
330
  0
DICTIONARY
  5
331
330
2EE
100
AcDbDictionary
280
     1
281
     1
  3
ACAD_XREC_ROUNDTRIP
360
332
  0
DICTIONARY
  5
333
330
2EF
100
AcDbDictionary
280
     1
281
     1
  3
ACAD_XREC_ROUNDTRIP
360
334
  0
DICTIONARY
  5
335
330
2F0
100
AcDbDictionary
280
     1
281
     1
  3
ACAD_XREC_ROUNDTRIP
360
336
  0
DICTIONARY
  5
33B
330
2F3
100
AcDbDictionary
280
     1
281
     1
  3
ACAD_XREC_ROUNDTRIP
360
33C
  0
DICTIONARY
  5
34F
330
2FD
100
AcDbDictionary
280
     1
281
     1
  3
ACAD_XREC_ROUNDTRIP
360
350
  0
DICTIONARY
  5
349
330
2FA
100
AcDbDictionary
280
     1
281
     1
  3
ACAD_XREC_ROUNDTRIP
360
34A
  0
DICTIONARY
  5
351
330
2FE
100
AcDbDictionary
280
     1
281
     1
  3
ACAD_XREC_ROUNDTRIP
360
352
  0
DICTIONARY
  5
33F
330
2F5
100
AcDbDictionary
280
     1
281
     1
  3
ACAD_XREC_ROUNDTRIP
360
340
  0
DICTIONARY
  5
35D
330
304
100
AcDbDictionary
280
     1
281
     1
  3
ACAD_XREC_ROUNDTRIP
360
35E
  0
DICTIONARY
  5
35B
330
303
100
AcDbDictionary
280
     1
281
     1
  3
ACAD_XREC_ROUNDTRIP
360
35C
  0
DICTIONARY
  5
355
330
300
100
AcDbDictionary
280
     1
281
     1
  3
ACAD_XREC_ROUNDTRIP
360
356
  0
DICTIONARY
  5
357
330
301
100
AcDbDictionary
280
     1
281
     1
  3
ACAD_XREC_ROUNDTRIP
360
358
  0
DICTIONARY
  5
347
330
2F9
100
AcDbDictionary
280
     1
281
     1
  3
ACAD_XREC_ROUNDTRIP
360
348
  0
DICTIONARY
  5
339
330
2F2
100
AcDbDictionary
280
     1
281
     1
  3
ACAD_XREC_ROUNDTRIP
360
33A
  0
DICTIONARY
  5
359
330
302
100
AcDbDictionary
280
     1
281
     1
  3
ACAD_XREC_ROUNDTRIP
360
35A
  0
CELLSTYLEMAP
  5
360
102
{ACAD_REACTORS
330
35F
102
}
330
35F
100
AcDbCellStyleMap
 90
        3
300
CELLSTYLE
  1
TABLEFORMAT_BEGIN
 90
        5
170
     1
 91
        0
 92
    32768
 62
   257
 93
        1
300
CONTENTFORMAT
  1
CONTENTFORMAT_BEGIN
 90
        0
 91
        0
 92
        4
 93
        0
300

 40
0.0
140
1.0
 94
        5
 62
     0
340
11
144
6.0
309
CONTENTFORMAT_END
171
     1
301
MARGIN
  1
CELLMARGIN_BEGIN
 40
1.5
 40
1.5
 40
1.5
 40
1.5
 40
1.5
 40
1.5
309
CELLMARGIN_END
 94
        6
 95
        1
302
GRIDFORMAT
  1
GRIDFORMAT_BEGIN
 90
        0
 91
        1
 62
     0
 92
       -2
340
14
 93
        0
 40
0.045
309
GRIDFORMAT_END
 95
        2
302
GRIDFORMAT
  1
GRIDFORMAT_BEGIN
 90
        0
 91
        1
 62
     0
 92
       -2
340
14
 93
        0
 40
0.045
309
GRIDFORMAT_END
 95
        4
302
GRIDFORMAT
  1
GRIDFORMAT_BEGIN
 90
        0
 91
        1
 62
     0
 92
       -2
340
14
 93
        0
 40
0.045
309
GRIDFORMAT_END
 95
        8
302
GRIDFORMAT
  1
GRIDFORMAT_BEGIN
 90
        0
 91
        1
 62
     0
 92
       -2
340
14
 93
        0
 40
0.045
309
GRIDFORMAT_END
 95
       16
302
GRIDFORMAT
  1
GRIDFORMAT_BEGIN
 90
        0
 91
        1
 62
     0
 92
       -2
340
14
 93
        0
 40
0.045
309
GRIDFORMAT_END
 95
       32
302
GRIDFORMAT
  1
GRIDFORMAT_BEGIN
 90
        0
 91
        1
 62
     0
 92
       -2
340
14
 93
        0
 40
0.045
309
GRIDFORMAT_END
309
TABLEFORMAT_END
  1
CELLSTYLE_BEGIN
 90
        1
 91
        1
300
_TITLE
309
CELLSTYLE_END
300
CELLSTYLE
  1
TABLEFORMAT_BEGIN
 90
        5
170
     1
 91
        0
 92
        0
 62
   257
 93
        1
300
CONTENTFORMAT
  1
CONTENTFORMAT_BEGIN
 90
        0
 91
        0
 92
        4
 93
        0
300

 40
0.0
140
1.0
 94
        5
 62
     0
340
11
144
4.5
309
CONTENTFORMAT_END
171
     1
301
MARGIN
  1
CELLMARGIN_BEGIN
 40
1.5
 40
1.5
 40
1.5
 40
1.5
 40
1.5
 40
1.5
309
CELLMARGIN_END
 94
        6
 95
        1
302
GRIDFORMAT
  1
GRIDFORMAT_BEGIN
 90
        0
 91
        1
 62
     0
 92
       -2
340
14
 93
        0
 40
0.045
309
GRIDFORMAT_END
 95
        2
302
GRIDFORMAT
  1
GRIDFORMAT_BEGIN
 90
        0
 91
        1
 62
     0
 92
       -2
340
14
 93
        0
 40
0.045
309
GRIDFORMAT_END
 95
        4
302
GRIDFORMAT
  1
GRIDFORMAT_BEGIN
 90
        0
 91
        1
 62
     0
 92
       -2
340
14
 93
        0
 40
0.045
309
GRIDFORMAT_END
 95
        8
302
GRIDFORMAT
  1
GRIDFORMAT_BEGIN
 90
        0
 91
        1
 62
     0
 92
       -2
340
14
 93
        0
 40
0.045
309
GRIDFORMAT_END
 95
       16
302
GRIDFORMAT
  1
GRIDFORMAT_BEGIN
 90
        0
 91
        1
 62
     0
 92
       -2
340
14
 93
        0
 40
0.045
309
GRIDFORMAT_END
 95
       32
302
GRIDFORMAT
  1
GRIDFORMAT_BEGIN
 90
        0
 91
        1
 62
     0
 92
       -2
340
14
 93
        0
 40
0.045
309
GRIDFORMAT_END
309
TABLEFORMAT_END
  1
CELLSTYLE_BEGIN
 90
        2
 91
        1
300
_HEADER
309
CELLSTYLE_END
300
CELLSTYLE
  1
TABLEFORMAT_BEGIN
 90
        5
170
     1
 91
        0
 92
        0
 62
   257
 93
        1
300
CONTENTFORMAT
  1
CONTENTFORMAT_BEGIN
 90
        0
 91
        0
 92
        4
 93
        0
300

 40
0.0
140
1.0
 94
        2
 62
     0
340
11
144
4.5
309
CONTENTFORMAT_END
171
     1
301
MARGIN
  1
CELLMARGIN_BEGIN
 40
1.5
 40
1.5
 40
1.5
 40
1.5
 40
1.5
 40
1.5
309
CELLMARGIN_END
 94
        6
 95
        1
302
GRIDFORMAT
  1
GRIDFORMAT_BEGIN
 90
        0
 91
        1
 62
     0
 92
       -2
340
14
 93
        0
 40
0.045
309
GRIDFORMAT_END
 95
        2
302
GRIDFORMAT
  1
GRIDFORMAT_BEGIN
 90
        0
 91
        1
 62
     0
 92
       -2
340
14
 93
        0
 40
0.045
309
GRIDFORMAT_END
 95
        4
302
GRIDFORMAT
  1
GRIDFORMAT_BEGIN
 90
        0
 91
        1
 62
     0
 92
       -2
340
14
 93
        0
 40
0.045
309
GRIDFORMAT_END
 95
        8
302
GRIDFORMAT
  1
GRIDFORMAT_BEGIN
 90
        0
 91
        1
 62
     0
 92
       -2
340
14
 93
        0
 40
0.045
309
GRIDFORMAT_END
 95
       16
302
GRIDFORMAT
  1
GRIDFORMAT_BEGIN
 90
        0
 91
        1
 62
     0
 92
       -2
340
14
 93
        0
 40
0.045
309
GRIDFORMAT_END
 95
       32
302
GRIDFORMAT
  1
GRIDFORMAT_BEGIN
 90
        0
 91
        1
 62
     0
 92
       -2
340
14
 93
        0
 40
0.045
309
GRIDFORMAT_END
309
TABLEFORMAT_END
  1
CELLSTYLE_BEGIN
 90
        3
 91
        2
300
_DATA
309
CELLSTYLE_END
  0
XRECORD
  5
338
102
{ACAD_REACTORS
330
337
102
}
330
337
100
AcDbXrecord
280
     1
102
RTVSPost2010Prop28
280
     1
102
RTVSPost2010PropOp28
 70
     1
102
RTVSPost2010Prop29
280
     1
102
RTVSPost2010PropOp29
 70
     1
102
RTVSPost2010Prop30
280
     0
102
RTVSPost2010PropOp30
 70
     1
102
RTVSPost2010Prop31
280
     0
102
RTVSPost2010PropOp31
 70
     1
102
RTVSPost2010Prop32
280
     0
102
RTVSPost2010PropOp32
 70
     1
102
RTVSPost2010Prop33
280
     0
102
RTVSPost2010PropOp33
 70
     1
102
RTVSPost2010Prop34
280
     0
102
RTVSPost2010PropOp34
 70
     1
102
RTVSPost2010Prop35
280
     0
102
RTVSPost2010PropOp35
 70
     1
102
RTVSPost2010Prop36
280
     0
102
RTVSPost2010PropOp36
 70
     1
102
RTVSPost2010Prop37
 90
       50
102
RTVSPost2010PropOp37
 70
     1
102
RTVSPost2010Prop38
140
0.0
102
RTVSPost2010PropOp38
 70
     1
102
RTVSPost2010Prop39
140
1.0
102
RTVSPost2010PropOp39
 70
     1
102
RTVSPost2010Prop40
 90
        0
102
RTVSPost2010PropOp40
 70
     1
102
RTVSPost2010Prop41ColorIndex
 90
       18
102
RTVSPost2010Prop41ColorRGB
 90
        0
102
RTVSPost2010PropOp41
 70
     1
102
RTVSPost2010Prop42
 90
       50
102
RTVSPost2010PropOp42
 70
     1
102
RTVSPost2010Prop43
 90
        3
102
RTVSPost2010PropOp43
 70
     1
102
RTVSPost2010Prop44ColorIndex
 90
        5
102
RTVSPost2010Prop44ColorRGB
 90
      255
102
RTVSPost2010PropOp44
 70
     1
102
RTVSPost2010Prop45
280
     0
102
RTVSPost2010PropOp45
 70
     1
102
RTVSPost2010Prop46
 90
       50
102
RTVSPost2010PropOp46
 70
     1
102
RTVSPost2010Prop47
 90
       50
102
RTVSPost2010PropOp47
 70
     1
102
RTVSPost2010Prop48
 90
       50
102
RTVSPost2010PropOp48
 70
     1
102
RTVSPost2010Prop49
280
     0
102
RTVSPost2010PropOp49
 70
     1
102
RTVSPost2010Prop50
 90
       50
102
RTVSPost2010PropOp50
 70
     1
102
RTVSPost2010Prop51ColorIndex
 90
      256
102
RTVSPost2010Prop51ColorRGB
 90
-16777216
102
RTVSPost2010PropOp51
 70
     0
102
RTVSPost2010Prop52
140
1.0
102
RTVSPost2010PropOp52
 70
     0
102
RTVSPost2010Prop53
 90
        2
102
RTVSPost2010PropOp53
 70
     1
102
RTVSPost2010Prop54
  1
strokes_ogs.tif
102
RTVSPost2010PropOp54
 70
     1
102
RTVSPost2010Prop55
280
     0
102
RTVSPost2010PropOp55
 70
     1
102
RTVSPost2010Prop56
140
1.0
102
RTVSPost2010PropOp56
 70
     1
102
RTVSPost2010Prop57
140
1.0
102
RTVSPost2010PropOp57
 70
     1
  0
XRECORD
  5
33E
102
{ACAD_REACTORS
330
33D
102
}
330
33D
100
AcDbXrecord
280
     1
102
RTVSPost2010Prop28
280
     0
102
RTVSPost2010PropOp28
 70
     1
102
RTVSPost2010Prop29
280
     1
102
RTVSPost2010PropOp29
 70
     1
102
RTVSPost2010Prop30
280
     1
102
RTVSPost2010PropOp30
 70
     1
102
RTVSPost2010Prop31
280
     0
102
RTVSPost2010PropOp31
 70
     1
102
RTVSPost2010Prop32
280
     0
102
RTVSPost2010PropOp32
 70
     1
102
RTVSPost2010Prop33
280
     0
102
RTVSPost2010PropOp33
 70
     1
102
RTVSPost2010Prop34
280
     0
102
RTVSPost2010PropOp34
 70
     1
102
RTVSPost2010Prop35
280
     0
102
RTVSPost2010PropOp35
 70
     1
102
RTVSPost2010Prop36
280
     0
102
RTVSPost2010PropOp36
 70
     1
102
RTVSPost2010Prop37
 90
       50
102
RTVSPost2010PropOp37
 70
     1
102
RTVSPost2010Prop38
140
0.0
102
RTVSPost2010PropOp38
 70
     1
102
RTVSPost2010Prop39
140
1.0
102
RTVSPost2010PropOp39
 70
     1
102
RTVSPost2010Prop40
 90
        0
102
RTVSPost2010PropOp40
 70
     1
102
RTVSPost2010Prop41ColorIndex
 90
       18
102
RTVSPost2010Prop41ColorRGB
 90
        0
102
RTVSPost2010PropOp41
 70
     1
102
RTVSPost2010Prop42
 90
       50
102
RTVSPost2010PropOp42
 70
     1
102
RTVSPost2010Prop43
 90
        3
102
RTVSPost2010PropOp43
 70
     1
102
RTVSPost2010Prop44ColorIndex
 90
        5
102
RTVSPost2010Prop44ColorRGB
 90
      255
102
RTVSPost2010PropOp44
 70
     1
102
RTVSPost2010Prop45
280
     0
102
RTVSPost2010PropOp45
 70
     1
102
RTVSPost2010Prop46
 90
       50
102
RTVSPost2010PropOp46
 70
     1
102
RTVSPost2010Prop47
 90
       50
102
RTVSPost2010PropOp47
 70
     1
102
RTVSPost2010Prop48
 90
       50
102
RTVSPost2010PropOp48
 70
     1
102
RTVSPost2010Prop49
280
     0
102
RTVSPost2010PropOp49
 70
     1
102
RTVSPost2010Prop50
 90
       50
102
RTVSPost2010PropOp50
 70
     1
102
RTVSPost2010Prop51ColorIndex
 90
      256
102
RTVSPost2010Prop51ColorRGB
 90
-16777216
102
RTVSPost2010PropOp51
 70
     0
102
RTVSPost2010Prop52
140
1.0
102
RTVSPost2010PropOp52
 70
     0
102
RTVSPost2010Prop53
 90
        2
102
RTVSPost2010PropOp53
 70
     1
102
RTVSPost2010Prop54
  1
strokes_ogs.tif
102
RTVSPost2010PropOp54
 70
     1
102
RTVSPost2010Prop55
280
     0
102
RTVSPost2010PropOp55
 70
     1
102
RTVSPost2010Prop56
140
1.0
102
RTVSPost2010PropOp56
 70
     1
102
RTVSPost2010Prop57
140
1.0
102
RTVSPost2010PropOp57
 70
     1
  0
XRECORD
  5
346
102
{ACAD_REACTORS
330
345
102
}
330
345
100
AcDbXrecord
280
     1
102
RTVSPost2010Prop28
280
     0
102
RTVSPost2010PropOp28
 70
     1
102
RTVSPost2010Prop29
280
     1
102
RTVSPost2010PropOp29
 70
     1
102
RTVSPost2010Prop30
280
     1
102
RTVSPost2010PropOp30
 70
     1
102
RTVSPost2010Prop31
280
     0
102
RTVSPost2010PropOp31
 70
     1
102
RTVSPost2010Prop32
280
     0
102
RTVSPost2010PropOp32
 70
     1
102
RTVSPost2010Prop33
280
     0
102
RTVSPost2010PropOp33
 70
     1
102
RTVSPost2010Prop34
280
     0
102
RTVSPost2010PropOp34
 70
     1
102
RTVSPost2010Prop35
280
     0
102
RTVSPost2010PropOp35
 70
     1
102
RTVSPost2010Prop36
280
     0
102
RTVSPost2010PropOp36
 70
     1
102
RTVSPost2010Prop37
 90
       50
102
RTVSPost2010PropOp37
 70
     1
102
RTVSPost2010Prop38
140
0.0
102
RTVSPost2010PropOp38
 70
     1
102
RTVSPost2010Prop39
140
1.0
102
RTVSPost2010PropOp39
 70
     1
102
RTVSPost2010Prop40
 90
        0
102
RTVSPost2010PropOp40
 70
     1
102
RTVSPost2010Prop41ColorIndex
 90
       18
102
RTVSPost2010Prop41ColorRGB
 90
        0
102
RTVSPost2010PropOp41
 70
     1
102
RTVSPost2010Prop42
 90
       50
102
RTVSPost2010PropOp42
 70
     1
102
RTVSPost2010Prop43
 90
        3
102
RTVSPost2010PropOp43
 70
     1
102
RTVSPost2010Prop44ColorIndex
 90
        5
102
RTVSPost2010Prop44ColorRGB
 90
      255
102
RTVSPost2010PropOp44
 70
     1
102
RTVSPost2010Prop45
280
     0
102
RTVSPost2010PropOp45
 70
     1
102
RTVSPost2010Prop46
 90
       50
102
RTVSPost2010PropOp46
 70
     1
102
RTVSPost2010Prop47
 90
       50
102
RTVSPost2010PropOp47
 70
     1
102
RTVSPost2010Prop48
 90
       50
102
RTVSPost2010PropOp48
 70
     1
102
RTVSPost2010Prop49
280
     0
102
RTVSPost2010PropOp49
 70
     1
102
RTVSPost2010Prop50
 90
       50
102
RTVSPost2010PropOp50
 70
     1
102
RTVSPost2010Prop51ColorIndex
 90
      256
102
RTVSPost2010Prop51ColorRGB
 90
-16777216
102
RTVSPost2010PropOp51
 70
     0
102
RTVSPost2010Prop52
140
1.0
102
RTVSPost2010PropOp52
 70
     0
102
RTVSPost2010Prop53
 90
        2
102
RTVSPost2010PropOp53
 70
     1
102
RTVSPost2010Prop54
  1
strokes_ogs.tif
102
RTVSPost2010PropOp54
 70
     1
102
RTVSPost2010Prop55
280
     0
102
RTVSPost2010PropOp55
 70
     1
102
RTVSPost2010Prop56
140
1.0
102
RTVSPost2010PropOp56
 70
     1
102
RTVSPost2010Prop57
140
1.0
102
RTVSPost2010PropOp57
 70
     1
  0
XRECORD
  5
34E
102
{ACAD_REACTORS
330
34D
102
}
330
34D
100
AcDbXrecord
280
     1
102
RTVSPost2010Prop28
280
     0
102
RTVSPost2010PropOp28
 70
     1
102
RTVSPost2010Prop29
280
     1
102
RTVSPost2010PropOp29
 70
     1
102
RTVSPost2010Prop30
280
     1
102
RTVSPost2010PropOp30
 70
     1
102
RTVSPost2010Prop31
280
     0
102
RTVSPost2010PropOp31
 70
     1
102
RTVSPost2010Prop32
280
     0
102
RTVSPost2010PropOp32
 70
     1
102
RTVSPost2010Prop33
280
     0
102
RTVSPost2010PropOp33
 70
     1
102
RTVSPost2010Prop34
280
     0
102
RTVSPost2010PropOp34
 70
     1
102
RTVSPost2010Prop35
280
     0
102
RTVSPost2010PropOp35
 70
     1
102
RTVSPost2010Prop36
280
     0
102
RTVSPost2010PropOp36
 70
     1
102
RTVSPost2010Prop37
 90
       50
102
RTVSPost2010PropOp37
 70
     1
102
RTVSPost2010Prop38
140
0.0
102
RTVSPost2010PropOp38
 70
     1
102
RTVSPost2010Prop39
140
1.0
102
RTVSPost2010PropOp39
 70
     1
102
RTVSPost2010Prop40
 90
        0
102
RTVSPost2010PropOp40
 70
     1
102
RTVSPost2010Prop41ColorIndex
 90
       18
102
RTVSPost2010Prop41ColorRGB
 90
        0
102
RTVSPost2010PropOp41
 70
     1
102
RTVSPost2010Prop42
 90
       50
102
RTVSPost2010PropOp42
 70
     1
102
RTVSPost2010Prop43
 90
        3
102
RTVSPost2010PropOp43
 70
     1
102
RTVSPost2010Prop44ColorIndex
 90
        5
102
RTVSPost2010Prop44ColorRGB
 90
      255
102
RTVSPost2010PropOp44
 70
     1
102
RTVSPost2010Prop45
280
     0
102
RTVSPost2010PropOp45
 70
     1
102
RTVSPost2010Prop46
 90
       50
102
RTVSPost2010PropOp46
 70
     1
102
RTVSPost2010Prop47
 90
       50
102
RTVSPost2010PropOp47
 70
     1
102
RTVSPost2010Prop48
 90
       50
102
RTVSPost2010PropOp48
 70
     1
102
RTVSPost2010Prop49
280
     0
102
RTVSPost2010PropOp49
 70
     1
102
RTVSPost2010Prop50
 90
       50
102
RTVSPost2010PropOp50
 70
     1
102
RTVSPost2010Prop51ColorIndex
 90
      256
102
RTVSPost2010Prop51ColorRGB
 90
-16777216
102
RTVSPost2010PropOp51
 70
     0
102
RTVSPost2010Prop52
140
1.0
102
RTVSPost2010PropOp52
 70
     0
102
RTVSPost2010Prop53
 90
        2
102
RTVSPost2010PropOp53
 70
     1
102
RTVSPost2010Prop54
  1
strokes_ogs.tif
102
RTVSPost2010PropOp54
 70
     1
102
RTVSPost2010Prop55
280
     0
102
RTVSPost2010PropOp55
 70
     1
102
RTVSPost2010Prop56
140
1.0
102
RTVSPost2010PropOp56
 70
     1
102
RTVSPost2010Prop57
140
1.0
102
RTVSPost2010PropOp57
 70
     1
  0
XRECORD
  5
342
102
{ACAD_REACTORS
330
341
102
}
330
341
100
AcDbXrecord
280
     1
102
RTVSPost2010Prop28
280
     0
102
RTVSPost2010PropOp28
 70
     1
102
RTVSPost2010Prop29
280
     1
102
RTVSPost2010PropOp29
 70
     1
102
RTVSPost2010Prop30
280
     1
102
RTVSPost2010PropOp30
 70
     1
102
RTVSPost2010Prop31
280
     0
102
RTVSPost2010PropOp31
 70
     1
102
RTVSPost2010Prop32
280
     0
102
RTVSPost2010PropOp32
 70
     1
102
RTVSPost2010Prop33
280
     0
102
RTVSPost2010PropOp33
 70
     1
102
RTVSPost2010Prop34
280
     0
102
RTVSPost2010PropOp34
 70
     1
102
RTVSPost2010Prop35
280
     0
102
RTVSPost2010PropOp35
 70
     1
102
RTVSPost2010Prop36
280
     0
102
RTVSPost2010PropOp36
 70
     1
102
RTVSPost2010Prop37
 90
       50
102
RTVSPost2010PropOp37
 70
     1
102
RTVSPost2010Prop38
140
0.0
102
RTVSPost2010PropOp38
 70
     1
102
RTVSPost2010Prop39
140
1.0
102
RTVSPost2010PropOp39
 70
     1
102
RTVSPost2010Prop40
 90
        0
102
RTVSPost2010PropOp40
 70
     1
102
RTVSPost2010Prop41ColorIndex
 90
       18
102
RTVSPost2010Prop41ColorRGB
 90
        0
102
RTVSPost2010PropOp41
 70
     1
102
RTVSPost2010Prop42
 90
       50
102
RTVSPost2010PropOp42
 70
     1
102
RTVSPost2010Prop43
 90
        3
102
RTVSPost2010PropOp43
 70
     1
102
RTVSPost2010Prop44ColorIndex
 90
        5
102
RTVSPost2010Prop44ColorRGB
 90
      255
102
RTVSPost2010PropOp44
 70
     1
102
RTVSPost2010Prop45
280
     0
102
RTVSPost2010PropOp45
 70
     1
102
RTVSPost2010Prop46
 90
       50
102
RTVSPost2010PropOp46
 70
     1
102
RTVSPost2010Prop47
 90
       50
102
RTVSPost2010PropOp47
 70
     1
102
RTVSPost2010Prop48
 90
       50
102
RTVSPost2010PropOp48
 70
     1
102
RTVSPost2010Prop49
280
     0
102
RTVSPost2010PropOp49
 70
     1
102
RTVSPost2010Prop50
 90
       50
102
RTVSPost2010PropOp50
 70
     1
102
RTVSPost2010Prop51ColorIndex
 90
      256
102
RTVSPost2010Prop51ColorRGB
 90
-16777216
102
RTVSPost2010PropOp51
 70
     0
102
RTVSPost2010Prop52
140
1.0
102
RTVSPost2010PropOp52
 70
     0
102
RTVSPost2010Prop53
 90
        2
102
RTVSPost2010PropOp53
 70
     1
102
RTVSPost2010Prop54
  1
strokes_ogs.tif
102
RTVSPost2010PropOp54
 70
     1
102
RTVSPost2010Prop55
280
     0
102
RTVSPost2010PropOp55
 70
     1
102
RTVSPost2010Prop56
140
1.0
102
RTVSPost2010PropOp56
 70
     1
102
RTVSPost2010Prop57
140
1.0
102
RTVSPost2010PropOp57
 70
     1
  0
XRECORD
  5
344
102
{ACAD_REACTORS
330
343
102
}
330
343
100
AcDbXrecord
280
     1
102
RTVSPost2010Prop28
280
     0
102
RTVSPost2010PropOp28
 70
     1
102
RTVSPost2010Prop29
280
     1
102
RTVSPost2010PropOp29
 70
     1
102
RTVSPost2010Prop30
280
     1
102
RTVSPost2010PropOp30
 70
     1
102
RTVSPost2010Prop31
280
     0
102
RTVSPost2010PropOp31
 70
     1
102
RTVSPost2010Prop32
280
     0
102
RTVSPost2010PropOp32
 70
     1
102
RTVSPost2010Prop33
280
     0
102
RTVSPost2010PropOp33
 70
     1
102
RTVSPost2010Prop34
280
     0
102
RTVSPost2010PropOp34
 70
     1
102
RTVSPost2010Prop35
280
     0
102
RTVSPost2010PropOp35
 70
     1
102
RTVSPost2010Prop36
280
     0
102
RTVSPost2010PropOp36
 70
     1
102
RTVSPost2010Prop37
 90
       50
102
RTVSPost2010PropOp37
 70
     1
102
RTVSPost2010Prop38
140
0.0
102
RTVSPost2010PropOp38
 70
     1
102
RTVSPost2010Prop39
140
1.0
102
RTVSPost2010PropOp39
 70
     1
102
RTVSPost2010Prop40
 90
        0
102
RTVSPost2010PropOp40
 70
     1
102
RTVSPost2010Prop41ColorIndex
 90
       18
102
RTVSPost2010Prop41ColorRGB
 90
        0
102
RTVSPost2010PropOp41
 70
     1
102
RTVSPost2010Prop42
 90
       50
102
RTVSPost2010PropOp42
 70
     1
102
RTVSPost2010Prop43
 90
        3
102
RTVSPost2010PropOp43
 70
     1
102
RTVSPost2010Prop44ColorIndex
 90
        5
102
RTVSPost2010Prop44ColorRGB
 90
      255
102
RTVSPost2010PropOp44
 70
     1
102
RTVSPost2010Prop45
280
     0
102
RTVSPost2010PropOp45
 70
     1
102
RTVSPost2010Prop46
 90
       50
102
RTVSPost2010PropOp46
 70
     1
102
RTVSPost2010Prop47
 90
       50
102
RTVSPost2010PropOp47
 70
     1
102
RTVSPost2010Prop48
 90
       50
102
RTVSPost2010PropOp48
 70
     1
102
RTVSPost2010Prop49
280
     0
102
RTVSPost2010PropOp49
 70
     1
102
RTVSPost2010Prop50
 90
       50
102
RTVSPost2010PropOp50
 70
     1
102
RTVSPost2010Prop51ColorIndex
 90
      256
102
RTVSPost2010Prop51ColorRGB
 90
-16777216
102
RTVSPost2010PropOp51
 70
     0
102
RTVSPost2010Prop52
140
1.0
102
RTVSPost2010PropOp52
 70
     0
102
RTVSPost2010Prop53
 90
        2
102
RTVSPost2010PropOp53
 70
     1
102
RTVSPost2010Prop54
  1
strokes_ogs.tif
102
RTVSPost2010PropOp54
 70
     1
102
RTVSPost2010Prop55
280
     0
102
RTVSPost2010PropOp55
 70
     1
102
RTVSPost2010Prop56
140
1.0
102
RTVSPost2010PropOp56
 70
     1
102
RTVSPost2010Prop57
140
1.0
102
RTVSPost2010PropOp57
 70
     1
  0
XRECORD
  5
354
102
{ACAD_REACTORS
330
353
102
}
330
353
100
AcDbXrecord
280
     1
102
RTVSPost2010Prop28
280
     0
102
RTVSPost2010PropOp28
 70
     0
102
RTVSPost2010Prop29
280
     1
102
RTVSPost2010PropOp29
 70
     0
102
RTVSPost2010Prop30
280
     1
102
RTVSPost2010PropOp30
 70
     0
102
RTVSPost2010Prop31
280
     0
102
RTVSPost2010PropOp31
 70
     0
102
RTVSPost2010Prop32
280
     0
102
RTVSPost2010PropOp32
 70
     0
102
RTVSPost2010Prop33
280
     0
102
RTVSPost2010PropOp33
 70
     0
102
RTVSPost2010Prop34
280
     0
102
RTVSPost2010PropOp34
 70
     0
102
RTVSPost2010Prop35
280
     0
102
RTVSPost2010PropOp35
 70
     0
102
RTVSPost2010Prop36
280
     0
102
RTVSPost2010PropOp36
 70
     0
102
RTVSPost2010Prop37
 90
       50
102
RTVSPost2010PropOp37
 70
     0
102
RTVSPost2010Prop38
140
0.0
102
RTVSPost2010PropOp38
 70
     0
102
RTVSPost2010Prop39
140
1.0
102
RTVSPost2010PropOp39
 70
     0
102
RTVSPost2010Prop40
 90
        0
102
RTVSPost2010PropOp40
 70
     0
102
RTVSPost2010Prop41ColorIndex
 90
       18
102
RTVSPost2010Prop41ColorRGB
 90
        0
102
RTVSPost2010PropOp41
 70
     0
102
RTVSPost2010Prop42
 90
       50
102
RTVSPost2010PropOp42
 70
     0
102
RTVSPost2010Prop43
 90
        3
102
RTVSPost2010PropOp43
 70
     0
102
RTVSPost2010Prop44ColorIndex
 90
        5
102
RTVSPost2010Prop44ColorRGB
 90
      255
102
RTVSPost2010PropOp44
 70
     0
102
RTVSPost2010Prop45
280
     0
102
RTVSPost2010PropOp45
 70
     0
102
RTVSPost2010Prop46
 90
       50
102
RTVSPost2010PropOp46
 70
     0
102
RTVSPost2010Prop47
 90
       50
102
RTVSPost2010PropOp47
 70
     0
102
RTVSPost2010Prop48
 90
       50
102
RTVSPost2010PropOp48
 70
     0
102
RTVSPost2010Prop49
280
     0
102
RTVSPost2010PropOp49
 70
     0
102
RTVSPost2010Prop50
 90
       50
102
RTVSPost2010PropOp50
 70
     0
102
RTVSPost2010Prop51ColorIndex
 90
      256
102
RTVSPost2010Prop51ColorRGB
 90
-16777216
102
RTVSPost2010PropOp51
 70
     0
102
RTVSPost2010Prop52
140
1.0
102
RTVSPost2010PropOp52
 70
     0
102
RTVSPost2010Prop53
 90
        2
102
RTVSPost2010PropOp53
 70
     0
102
RTVSPost2010Prop54
  1
strokes_ogs.tif
102
RTVSPost2010PropOp54
 70
     0
102
RTVSPost2010Prop55
280
     0
102
RTVSPost2010PropOp55
 70
     0
102
RTVSPost2010Prop56
140
1.0
102
RTVSPost2010PropOp56
 70
     0
102
RTVSPost2010Prop57
140
1.0
102
RTVSPost2010PropOp57
 70
     0
  0
XRECORD
  5
34C
102
{ACAD_REACTORS
330
34B
102
}
330
34B
100
AcDbXrecord
280
     1
102
RTVSPost2010Prop28
280
     0
102
RTVSPost2010PropOp28
 70
     1
102
RTVSPost2010Prop29
280
     1
102
RTVSPost2010PropOp29
 70
     1
102
RTVSPost2010Prop30
280
     1
102
RTVSPost2010PropOp30
 70
     1
102
RTVSPost2010Prop31
280
     0
102
RTVSPost2010PropOp31
 70
     1
102
RTVSPost2010Prop32
280
     0
102
RTVSPost2010PropOp32
 70
     1
102
RTVSPost2010Prop33
280
     0
102
RTVSPost2010PropOp33
 70
     1
102
RTVSPost2010Prop34
280
     0
102
RTVSPost2010PropOp34
 70
     1
102
RTVSPost2010Prop35
280
     0
102
RTVSPost2010PropOp35
 70
     1
102
RTVSPost2010Prop36
280
     0
102
RTVSPost2010PropOp36
 70
     1
102
RTVSPost2010Prop37
 90
       50
102
RTVSPost2010PropOp37
 70
     1
102
RTVSPost2010Prop38
140
0.0
102
RTVSPost2010PropOp38
 70
     1
102
RTVSPost2010Prop39
140
1.0
102
RTVSPost2010PropOp39
 70
     1
102
RTVSPost2010Prop40
 90
        0
102
RTVSPost2010PropOp40
 70
     1
102
RTVSPost2010Prop41ColorIndex
 90
       18
102
RTVSPost2010Prop41ColorRGB
 90
        0
102
RTVSPost2010PropOp41
 70
     1
102
RTVSPost2010Prop42
 90
       50
102
RTVSPost2010PropOp42
 70
     1
102
RTVSPost2010Prop43
 90
        3
102
RTVSPost2010PropOp43
 70
     1
102
RTVSPost2010Prop44ColorIndex
 90
        5
102
RTVSPost2010Prop44ColorRGB
 90
      255
102
RTVSPost2010PropOp44
 70
     1
102
RTVSPost2010Prop45
280
     0
102
RTVSPost2010PropOp45
 70
     1
102
RTVSPost2010Prop46
 90
       50
102
RTVSPost2010PropOp46
 70
     1
102
RTVSPost2010Prop47
 90
       50
102
RTVSPost2010PropOp47
 70
     1
102
RTVSPost2010Prop48
 90
       50
102
RTVSPost2010PropOp48
 70
     1
102
RTVSPost2010Prop49
280
     0
102
RTVSPost2010PropOp49
 70
     1
102
RTVSPost2010Prop50
 90
       50
102
RTVSPost2010PropOp50
 70
     1
102
RTVSPost2010Prop51ColorIndex
 90
      256
102
RTVSPost2010Prop51ColorRGB
 90
-16777216
102
RTVSPost2010PropOp51
 70
     0
102
RTVSPost2010Prop52
140
1.0
102
RTVSPost2010PropOp52
 70
     0
102
RTVSPost2010Prop53
 90
        2
102
RTVSPost2010PropOp53
 70
     1
102
RTVSPost2010Prop54
  1
strokes_ogs.tif
102
RTVSPost2010PropOp54
 70
     1
102
RTVSPost2010Prop55
280
     0
102
RTVSPost2010PropOp55
 70
     1
102
RTVSPost2010Prop56
140
1.0
102
RTVSPost2010PropOp56
 70
     1
102
RTVSPost2010Prop57
140
1.0
102
RTVSPost2010PropOp57
 70
     1
  0
XRECORD
  5
330
102
{ACAD_REACTORS
330
32F
102
}
330
32F
100
AcDbXrecord
280
     1
102
RTVSPost2010Prop28
280
     0
102
RTVSPost2010PropOp28
 70
     1
102
RTVSPost2010Prop29
280
     1
102
RTVSPost2010PropOp29
 70
     1
102
RTVSPost2010Prop30
280
     1
102
RTVSPost2010PropOp30
 70
     1
102
RTVSPost2010Prop31
280
     0
102
RTVSPost2010PropOp31
 70
     1
102
RTVSPost2010Prop32
280
     0
102
RTVSPost2010PropOp32
 70
     1
102
RTVSPost2010Prop33
280
     0
102
RTVSPost2010PropOp33
 70
     1
102
RTVSPost2010Prop34
280
     0
102
RTVSPost2010PropOp34
 70
     1
102
RTVSPost2010Prop35
280
     0
102
RTVSPost2010PropOp35
 70
     1
102
RTVSPost2010Prop36
280
     0
102
RTVSPost2010PropOp36
 70
     1
102
RTVSPost2010Prop37
 90
       50
102
RTVSPost2010PropOp37
 70
     1
102
RTVSPost2010Prop38
140
0.0
102
RTVSPost2010PropOp38
 70
     1
102
RTVSPost2010Prop39
140
1.0
102
RTVSPost2010PropOp39
 70
     1
102
RTVSPost2010Prop40
 90
        0
102
RTVSPost2010PropOp40
 70
     1
102
RTVSPost2010Prop41ColorIndex
 90
       18
102
RTVSPost2010Prop41ColorRGB
 90
        0
102
RTVSPost2010PropOp41
 70
     1
102
RTVSPost2010Prop42
 90
       50
102
RTVSPost2010PropOp42
 70
     1
102
RTVSPost2010Prop43
 90
        3
102
RTVSPost2010PropOp43
 70
     1
102
RTVSPost2010Prop44ColorIndex
 90
        5
102
RTVSPost2010Prop44ColorRGB
 90
      255
102
RTVSPost2010PropOp44
 70
     1
102
RTVSPost2010Prop45
280
     0
102
RTVSPost2010PropOp45
 70
     1
102
RTVSPost2010Prop46
 90
       50
102
RTVSPost2010PropOp46
 70
     1
102
RTVSPost2010Prop47
 90
       50
102
RTVSPost2010PropOp47
 70
     1
102
RTVSPost2010Prop48
 90
       50
102
RTVSPost2010PropOp48
 70
     1
102
RTVSPost2010Prop49
280
     0
102
RTVSPost2010PropOp49
 70
     1
102
RTVSPost2010Prop50
 90
       50
102
RTVSPost2010PropOp50
 70
     1
102
RTVSPost2010Prop51ColorIndex
 90
      256
102
RTVSPost2010Prop51ColorRGB
 90
-16777216
102
RTVSPost2010PropOp51
 70
     0
102
RTVSPost2010Prop52
140
1.0
102
RTVSPost2010PropOp52
 70
     0
102
RTVSPost2010Prop53
 90
        2
102
RTVSPost2010PropOp53
 70
     1
102
RTVSPost2010Prop54
  1
strokes_ogs.tif
102
RTVSPost2010PropOp54
 70
     1
102
RTVSPost2010Prop55
280
     0
102
RTVSPost2010PropOp55
 70
     1
102
RTVSPost2010Prop56
140
1.0
102
RTVSPost2010PropOp56
 70
     1
102
RTVSPost2010Prop57
140
1.0
102
RTVSPost2010PropOp57
 70
     1
  0
XRECORD
  5
332
102
{ACAD_REACTORS
330
331
102
}
330
331
100
AcDbXrecord
280
     1
102
RTVSPost2010Prop28
280
     0
102
RTVSPost2010PropOp28
 70
     1
102
RTVSPost2010Prop29
280
     1
102
RTVSPost2010PropOp29
 70
     1
102
RTVSPost2010Prop30
280
     1
102
RTVSPost2010PropOp30
 70
     1
102
RTVSPost2010Prop31
280
     0
102
RTVSPost2010PropOp31
 70
     1
102
RTVSPost2010Prop32
280
     0
102
RTVSPost2010PropOp32
 70
     1
102
RTVSPost2010Prop33
280
     0
102
RTVSPost2010PropOp33
 70
     1
102
RTVSPost2010Prop34
280
     0
102
RTVSPost2010PropOp34
 70
     1
102
RTVSPost2010Prop35
280
     0
102
RTVSPost2010PropOp35
 70
     1
102
RTVSPost2010Prop36
280
     0
102
RTVSPost2010PropOp36
 70
     1
102
RTVSPost2010Prop37
 90
       50
102
RTVSPost2010PropOp37
 70
     1
102
RTVSPost2010Prop38
140
0.0
102
RTVSPost2010PropOp38
 70
     1
102
RTVSPost2010Prop39
140
1.0
102
RTVSPost2010PropOp39
 70
     1
102
RTVSPost2010Prop40
 90
        0
102
RTVSPost2010PropOp40
 70
     1
102
RTVSPost2010Prop41ColorIndex
 90
       18
102
RTVSPost2010Prop41ColorRGB
 90
        0
102
RTVSPost2010PropOp41
 70
     1
102
RTVSPost2010Prop42
 90
       50
102
RTVSPost2010PropOp42
 70
     1
102
RTVSPost2010Prop43
 90
        3
102
RTVSPost2010PropOp43
 70
     1
102
RTVSPost2010Prop44ColorIndex
 90
        5
102
RTVSPost2010Prop44ColorRGB
 90
      255
102
RTVSPost2010PropOp44
 70
     1
102
RTVSPost2010Prop45
280
     0
102
RTVSPost2010PropOp45
 70
     1
102
RTVSPost2010Prop46
 90
       50
102
RTVSPost2010PropOp46
 70
     1
102
RTVSPost2010Prop47
 90
       50
102
RTVSPost2010PropOp47
 70
     1
102
RTVSPost2010Prop48
 90
       50
102
RTVSPost2010PropOp48
 70
     1
102
RTVSPost2010Prop49
280
     0
102
RTVSPost2010PropOp49
 70
     1
102
RTVSPost2010Prop50
 90
       50
102
RTVSPost2010PropOp50
 70
     1
102
RTVSPost2010Prop51ColorIndex
 90
      256
102
RTVSPost2010Prop51ColorRGB
 90
-16777216
102
RTVSPost2010PropOp51
 70
     0
102
RTVSPost2010Prop52
140
1.0
102
RTVSPost2010PropOp52
 70
     0
102
RTVSPost2010Prop53
 90
        2
102
RTVSPost2010PropOp53
 70
     1
102
RTVSPost2010Prop54
  1
strokes_ogs.tif
102
RTVSPost2010PropOp54
 70
     1
102
RTVSPost2010Prop55
280
     0
102
RTVSPost2010PropOp55
 70
     1
102
RTVSPost2010Prop56
140
1.0
102
RTVSPost2010PropOp56
 70
     1
102
RTVSPost2010Prop57
140
1.0
102
RTVSPost2010PropOp57
 70
     1
  0
XRECORD
  5
334
102
{ACAD_REACTORS
330
333
102
}
330
333
100
AcDbXrecord
280
     1
102
RTVSPost2010Prop28
280
     0
102
RTVSPost2010PropOp28
 70
     1
102
RTVSPost2010Prop29
280
     1
102
RTVSPost2010PropOp29
 70
     1
102
RTVSPost2010Prop30
280
     1
102
RTVSPost2010PropOp30
 70
     1
102
RTVSPost2010Prop31
280
     0
102
RTVSPost2010PropOp31
 70
     1
102
RTVSPost2010Prop32
280
     0
102
RTVSPost2010PropOp32
 70
     1
102
RTVSPost2010Prop33
280
     0
102
RTVSPost2010PropOp33
 70
     1
102
RTVSPost2010Prop34
280
     0
102
RTVSPost2010PropOp34
 70
     1
102
RTVSPost2010Prop35
280
     0
102
RTVSPost2010PropOp35
 70
     1
102
RTVSPost2010Prop36
280
     0
102
RTVSPost2010PropOp36
 70
     1
102
RTVSPost2010Prop37
 90
       50
102
RTVSPost2010PropOp37
 70
     1
102
RTVSPost2010Prop38
140
0.0
102
RTVSPost2010PropOp38
 70
     1
102
RTVSPost2010Prop39
140
1.0
102
RTVSPost2010PropOp39
 70
     1
102
RTVSPost2010Prop40
 90
        0
102
RTVSPost2010PropOp40
 70
     1
102
RTVSPost2010Prop41ColorIndex
 90
       18
102
RTVSPost2010Prop41ColorRGB
 90
        0
102
RTVSPost2010PropOp41
 70
     1
102
RTVSPost2010Prop42
 90
       50
102
RTVSPost2010PropOp42
 70
     1
102
RTVSPost2010Prop43
 90
        3
102
RTVSPost2010PropOp43
 70
     1
102
RTVSPost2010Prop44ColorIndex
 90
        5
102
RTVSPost2010Prop44ColorRGB
 90
      255
102
RTVSPost2010PropOp44
 70
     1
102
RTVSPost2010Prop45
280
     0
102
RTVSPost2010PropOp45
 70
     1
102
RTVSPost2010Prop46
 90
       50
102
RTVSPost2010PropOp46
 70
     1
102
RTVSPost2010Prop47
 90
       50
102
RTVSPost2010PropOp47
 70
     1
102
RTVSPost2010Prop48
 90
       50
102
RTVSPost2010PropOp48
 70
     1
102
RTVSPost2010Prop49
280
     0
102
RTVSPost2010PropOp49
 70
     1
102
RTVSPost2010Prop50
 90
       50
102
RTVSPost2010PropOp50
 70
     1
102
RTVSPost2010Prop51ColorIndex
 90
      256
102
RTVSPost2010Prop51ColorRGB
 90
-16777216
102
RTVSPost2010PropOp51
 70
     0
102
RTVSPost2010Prop52
140
1.0
102
RTVSPost2010PropOp52
 70
     0
102
RTVSPost2010Prop53
 90
        2
102
RTVSPost2010PropOp53
 70
     1
102
RTVSPost2010Prop54
  1
strokes_ogs.tif
102
RTVSPost2010PropOp54
 70
     1
102
RTVSPost2010Prop55
280
     0
102
RTVSPost2010PropOp55
 70
     1
102
RTVSPost2010Prop56
140
1.0
102
RTVSPost2010PropOp56
 70
     1
102
RTVSPost2010Prop57
140
1.0
102
RTVSPost2010PropOp57
 70
     1
  0
XRECORD
  5
336
102
{ACAD_REACTORS
330
335
102
}
330
335
100
AcDbXrecord
280
     1
102
RTVSPost2010Prop28
280
     0
102
RTVSPost2010PropOp28
 70
     1
102
RTVSPost2010Prop29
280
     1
102
RTVSPost2010PropOp29
 70
     1
102
RTVSPost2010Prop30
280
     1
102
RTVSPost2010PropOp30
 70
     1
102
RTVSPost2010Prop31
280
     0
102
RTVSPost2010PropOp31
 70
     1
102
RTVSPost2010Prop32
280
     0
102
RTVSPost2010PropOp32
 70
     1
102
RTVSPost2010Prop33
280
     0
102
RTVSPost2010PropOp33
 70
     1
102
RTVSPost2010Prop34
280
     0
102
RTVSPost2010PropOp34
 70
     1
102
RTVSPost2010Prop35
280
     0
102
RTVSPost2010PropOp35
 70
     1
102
RTVSPost2010Prop36
280
     0
102
RTVSPost2010PropOp36
 70
     1
102
RTVSPost2010Prop37
 90
       50
102
RTVSPost2010PropOp37
 70
     1
102
RTVSPost2010Prop38
140
0.0
102
RTVSPost2010PropOp38
 70
     1
102
RTVSPost2010Prop39
140
1.0
102
RTVSPost2010PropOp39
 70
     1
102
RTVSPost2010Prop40
 90
        0
102
RTVSPost2010PropOp40
 70
     1
102
RTVSPost2010Prop41ColorIndex
 90
       18
102
RTVSPost2010Prop41ColorRGB
 90
        0
102
RTVSPost2010PropOp41
 70
     1
102
RTVSPost2010Prop42
 90
       50
102
RTVSPost2010PropOp42
 70
     1
102
RTVSPost2010Prop43
 90
        3
102
RTVSPost2010PropOp43
 70
     1
102
RTVSPost2010Prop44ColorIndex
 90
        5
102
RTVSPost2010Prop44ColorRGB
 90
      255
102
RTVSPost2010PropOp44
 70
     1
102
RTVSPost2010Prop45
280
     0
102
RTVSPost2010PropOp45
 70
     1
102
RTVSPost2010Prop46
 90
       50
102
RTVSPost2010PropOp46
 70
     1
102
RTVSPost2010Prop47
 90
       50
102
RTVSPost2010PropOp47
 70
     1
102
RTVSPost2010Prop48
 90
       50
102
RTVSPost2010PropOp48
 70
     1
102
RTVSPost2010Prop49
280
     0
102
RTVSPost2010PropOp49
 70
     1
102
RTVSPost2010Prop50
 90
       50
102
RTVSPost2010PropOp50
 70
     1
102
RTVSPost2010Prop51ColorIndex
 90
      256
102
RTVSPost2010Prop51ColorRGB
 90
-16777216
102
RTVSPost2010PropOp51
 70
     0
102
RTVSPost2010Prop52
140
1.0
102
RTVSPost2010PropOp52
 70
     0
102
RTVSPost2010Prop53
 90
        2
102
RTVSPost2010PropOp53
 70
     1
102
RTVSPost2010Prop54
  1
strokes_ogs.tif
102
RTVSPost2010PropOp54
 70
     1
102
RTVSPost2010Prop55
280
     0
102
RTVSPost2010PropOp55
 70
     1
102
RTVSPost2010Prop56
140
1.0
102
RTVSPost2010PropOp56
 70
     1
102
RTVSPost2010Prop57
140
1.0
102
RTVSPost2010PropOp57
 70
     1
  0
XRECORD
  5
33C
102
{ACAD_REACTORS
330
33B
102
}
330
33B
100
AcDbXrecord
280
     1
102
RTVSPost2010Prop28
280
     0
102
RTVSPost2010PropOp28
 70
     1
102
RTVSPost2010Prop29
280
     1
102
RTVSPost2010PropOp29
 70
     1
102
RTVSPost2010Prop30
280
     1
102
RTVSPost2010PropOp30
 70
     1
102
RTVSPost2010Prop31
280
     0
102
RTVSPost2010PropOp31
 70
     1
102
RTVSPost2010Prop32
280
     0
102
RTVSPost2010PropOp32
 70
     1
102
RTVSPost2010Prop33
280
     0
102
RTVSPost2010PropOp33
 70
     1
102
RTVSPost2010Prop34
280
     0
102
RTVSPost2010PropOp34
 70
     1
102
RTVSPost2010Prop35
280
     0
102
RTVSPost2010PropOp35
 70
     1
102
RTVSPost2010Prop36
280
     0
102
RTVSPost2010PropOp36
 70
     1
102
RTVSPost2010Prop37
 90
       50
102
RTVSPost2010PropOp37
 70
     1
102
RTVSPost2010Prop38
140
0.0
102
RTVSPost2010PropOp38
 70
     1
102
RTVSPost2010Prop39
140
1.0
102
RTVSPost2010PropOp39
 70
     1
102
RTVSPost2010Prop40
 90
        0
102
RTVSPost2010PropOp40
 70
     1
102
RTVSPost2010Prop41ColorIndex
 90
       18
102
RTVSPost2010Prop41ColorRGB
 90
        0
102
RTVSPost2010PropOp41
 70
     1
102
RTVSPost2010Prop42
 90
       50
102
RTVSPost2010PropOp42
 70
     1
102
RTVSPost2010Prop43
 90
        3
102
RTVSPost2010PropOp43
 70
     1
102
RTVSPost2010Prop44ColorIndex
 90
        5
102
RTVSPost2010Prop44ColorRGB
 90
      255
102
RTVSPost2010PropOp44
 70
     1
102
RTVSPost2010Prop45
280
     0
102
RTVSPost2010PropOp45
 70
     1
102
RTVSPost2010Prop46
 90
       50
102
RTVSPost2010PropOp46
 70
     1
102
RTVSPost2010Prop47
 90
       50
102
RTVSPost2010PropOp47
 70
     1
102
RTVSPost2010Prop48
 90
       50
102
RTVSPost2010PropOp48
 70
     1
102
RTVSPost2010Prop49
280
     0
102
RTVSPost2010PropOp49
 70
     1
102
RTVSPost2010Prop50
 90
       50
102
RTVSPost2010PropOp50
 70
     1
102
RTVSPost2010Prop51ColorIndex
 90
      256
102
RTVSPost2010Prop51ColorRGB
 90
-16777216
102
RTVSPost2010PropOp51
 70
     0
102
RTVSPost2010Prop52
140
1.0
102
RTVSPost2010PropOp52
 70
     0
102
RTVSPost2010Prop53
 90
        2
102
RTVSPost2010PropOp53
 70
     1
102
RTVSPost2010Prop54
  1
strokes_ogs.tif
102
RTVSPost2010PropOp54
 70
     1
102
RTVSPost2010Prop55
280
     0
102
RTVSPost2010PropOp55
 70
     1
102
RTVSPost2010Prop56
140
1.0
102
RTVSPost2010PropOp56
 70
     1
102
RTVSPost2010Prop57
140
1.0
102
RTVSPost2010PropOp57
 70
     1
  0
XRECORD
  5
350
102
{ACAD_REACTORS
330
34F
102
}
330
34F
100
AcDbXrecord
280
     1
102
RTVSPost2010Prop28
280
     0
102
RTVSPost2010PropOp28
 70
     0
102
RTVSPost2010Prop29
280
     1
102
RTVSPost2010PropOp29
 70
     0
102
RTVSPost2010Prop30
280
     1
102
RTVSPost2010PropOp30
 70
     0
102
RTVSPost2010Prop31
280
     0
102
RTVSPost2010PropOp31
 70
     0
102
RTVSPost2010Prop32
280
     0
102
RTVSPost2010PropOp32
 70
     0
102
RTVSPost2010Prop33
280
     0
102
RTVSPost2010PropOp33
 70
     0
102
RTVSPost2010Prop34
280
     0
102
RTVSPost2010PropOp34
 70
     0
102
RTVSPost2010Prop35
280
     0
102
RTVSPost2010PropOp35
 70
     0
102
RTVSPost2010Prop36
280
     0
102
RTVSPost2010PropOp36
 70
     0
102
RTVSPost2010Prop37
 90
       50
102
RTVSPost2010PropOp37
 70
     0
102
RTVSPost2010Prop38
140
0.0
102
RTVSPost2010PropOp38
 70
     0
102
RTVSPost2010Prop39
140
1.0
102
RTVSPost2010PropOp39
 70
     0
102
RTVSPost2010Prop40
 90
        0
102
RTVSPost2010PropOp40
 70
     0
102
RTVSPost2010Prop41ColorIndex
 90
       18
102
RTVSPost2010Prop41ColorRGB
 90
        0
102
RTVSPost2010PropOp41
 70
     0
102
RTVSPost2010Prop42
 90
       50
102
RTVSPost2010PropOp42
 70
     0
102
RTVSPost2010Prop43
 90
        3
102
RTVSPost2010PropOp43
 70
     0
102
RTVSPost2010Prop44ColorIndex
 90
        5
102
RTVSPost2010Prop44ColorRGB
 90
      255
102
RTVSPost2010PropOp44
 70
     0
102
RTVSPost2010Prop45
280
     0
102
RTVSPost2010PropOp45
 70
     0
102
RTVSPost2010Prop46
 90
       50
102
RTVSPost2010PropOp46
 70
     0
102
RTVSPost2010Prop47
 90
       50
102
RTVSPost2010PropOp47
 70
     0
102
RTVSPost2010Prop48
 90
       50
102
RTVSPost2010PropOp48
 70
     0
102
RTVSPost2010Prop49
280
     0
102
RTVSPost2010PropOp49
 70
     0
102
RTVSPost2010Prop50
 90
       50
102
RTVSPost2010PropOp50
 70
     0
102
RTVSPost2010Prop51ColorIndex
 90
      256
102
RTVSPost2010Prop51ColorRGB
 90
-16777216
102
RTVSPost2010PropOp51
 70
     0
102
RTVSPost2010Prop52
140
1.0
102
RTVSPost2010PropOp52
 70
     0
102
RTVSPost2010Prop53
 90
        2
102
RTVSPost2010PropOp53
 70
     0
102
RTVSPost2010Prop54
  1
strokes_ogs.tif
102
RTVSPost2010PropOp54
 70
     0
102
RTVSPost2010Prop55
280
     0
102
RTVSPost2010PropOp55
 70
     0
102
RTVSPost2010Prop56
140
1.0
102
RTVSPost2010PropOp56
 70
     0
102
RTVSPost2010Prop57
140
1.0
102
RTVSPost2010PropOp57
 70
     0
  0
XRECORD
  5
34A
102
{ACAD_REACTORS
330
349
102
}
330
349
100
AcDbXrecord
280
     1
102
RTVSPost2010Prop28
280
     0
102
RTVSPost2010PropOp28
 70
     1
102
RTVSPost2010Prop29
280
     1
102
RTVSPost2010PropOp29
 70
     1
102
RTVSPost2010Prop30
280
     1
102
RTVSPost2010PropOp30
 70
     1
102
RTVSPost2010Prop31
280
     0
102
RTVSPost2010PropOp31
 70
     1
102
RTVSPost2010Prop32
280
     0
102
RTVSPost2010PropOp32
 70
     1
102
RTVSPost2010Prop33
280
     0
102
RTVSPost2010PropOp33
 70
     1
102
RTVSPost2010Prop34
280
     0
102
RTVSPost2010PropOp34
 70
     1
102
RTVSPost2010Prop35
280
     0
102
RTVSPost2010PropOp35
 70
     1
102
RTVSPost2010Prop36
280
     0
102
RTVSPost2010PropOp36
 70
     1
102
RTVSPost2010Prop37
 90
       50
102
RTVSPost2010PropOp37
 70
     1
102
RTVSPost2010Prop38
140
0.0
102
RTVSPost2010PropOp38
 70
     1
102
RTVSPost2010Prop39
140
1.0
102
RTVSPost2010PropOp39
 70
     1
102
RTVSPost2010Prop40
 90
        0
102
RTVSPost2010PropOp40
 70
     1
102
RTVSPost2010Prop41ColorIndex
 90
       18
102
RTVSPost2010Prop41ColorRGB
 90
        0
102
RTVSPost2010PropOp41
 70
     1
102
RTVSPost2010Prop42
 90
       50
102
RTVSPost2010PropOp42
 70
     1
102
RTVSPost2010Prop43
 90
        3
102
RTVSPost2010PropOp43
 70
     1
102
RTVSPost2010Prop44ColorIndex
 90
        5
102
RTVSPost2010Prop44ColorRGB
 90
      255
102
RTVSPost2010PropOp44
 70
     1
102
RTVSPost2010Prop45
280
     0
102
RTVSPost2010PropOp45
 70
     1
102
RTVSPost2010Prop46
 90
       50
102
RTVSPost2010PropOp46
 70
     1
102
RTVSPost2010Prop47
 90
       50
102
RTVSPost2010PropOp47
 70
     1
102
RTVSPost2010Prop48
 90
       50
102
RTVSPost2010PropOp48
 70
     1
102
RTVSPost2010Prop49
280
     0
102
RTVSPost2010PropOp49
 70
     1
102
RTVSPost2010Prop50
 90
       50
102
RTVSPost2010PropOp50
 70
     1
102
RTVSPost2010Prop51ColorIndex
 90
      256
102
RTVSPost2010Prop51ColorRGB
 90
-16777216
102
RTVSPost2010PropOp51
 70
     0
102
RTVSPost2010Prop52
140
1.0
102
RTVSPost2010PropOp52
 70
     0
102
RTVSPost2010Prop53
 90
        2
102
RTVSPost2010PropOp53
 70
     1
102
RTVSPost2010Prop54
  1
strokes_ogs.tif
102
RTVSPost2010PropOp54
 70
     1
102
RTVSPost2010Prop55
280
     0
102
RTVSPost2010PropOp55
 70
     1
102
RTVSPost2010Prop56
140
1.0
102
RTVSPost2010PropOp56
 70
     1
102
RTVSPost2010Prop57
140
1.0
102
RTVSPost2010PropOp57
 70
     1
  0
XRECORD
  5
352
102
{ACAD_REACTORS
330
351
102
}
330
351
100
AcDbXrecord
280
     1
102
RTVSPost2010Prop28
280
     0
102
RTVSPost2010PropOp28
 70
     0
102
RTVSPost2010Prop29
280
     1
102
RTVSPost2010PropOp29
 70
     0
102
RTVSPost2010Prop30
280
     1
102
RTVSPost2010PropOp30
 70
     0
102
RTVSPost2010Prop31
280
     0
102
RTVSPost2010PropOp31
 70
     0
102
RTVSPost2010Prop32
280
     0
102
RTVSPost2010PropOp32
 70
     0
102
RTVSPost2010Prop33
280
     0
102
RTVSPost2010PropOp33
 70
     0
102
RTVSPost2010Prop34
280
     0
102
RTVSPost2010PropOp34
 70
     0
102
RTVSPost2010Prop35
280
     0
102
RTVSPost2010PropOp35
 70
     0
102
RTVSPost2010Prop36
280
     0
102
RTVSPost2010PropOp36
 70
     0
102
RTVSPost2010Prop37
 90
       50
102
RTVSPost2010PropOp37
 70
     0
102
RTVSPost2010Prop38
140
0.0
102
RTVSPost2010PropOp38
 70
     0
102
RTVSPost2010Prop39
140
1.0
102
RTVSPost2010PropOp39
 70
     0
102
RTVSPost2010Prop40
 90
        0
102
RTVSPost2010PropOp40
 70
     0
102
RTVSPost2010Prop41ColorIndex
 90
       18
102
RTVSPost2010Prop41ColorRGB
 90
        0
102
RTVSPost2010PropOp41
 70
     0
102
RTVSPost2010Prop42
 90
       50
102
RTVSPost2010PropOp42
 70
     0
102
RTVSPost2010Prop43
 90
        3
102
RTVSPost2010PropOp43
 70
     0
102
RTVSPost2010Prop44ColorIndex
 90
        5
102
RTVSPost2010Prop44ColorRGB
 90
      255
102
RTVSPost2010PropOp44
 70
     0
102
RTVSPost2010Prop45
280
     0
102
RTVSPost2010PropOp45
 70
     0
102
RTVSPost2010Prop46
 90
       50
102
RTVSPost2010PropOp46
 70
     0
102
RTVSPost2010Prop47
 90
       50
102
RTVSPost2010PropOp47
 70
     0
102
RTVSPost2010Prop48
 90
       50
102
RTVSPost2010PropOp48
 70
     0
102
RTVSPost2010Prop49
280
     0
102
RTVSPost2010PropOp49
 70
     0
102
RTVSPost2010Prop50
 90
       50
102
RTVSPost2010PropOp50
 70
     0
102
RTVSPost2010Prop51ColorIndex
 90
      256
102
RTVSPost2010Prop51ColorRGB
 90
-16777216
102
RTVSPost2010PropOp51
 70
     0
102
RTVSPost2010Prop52
140
1.0
102
RTVSPost2010PropOp52
 70
     0
102
RTVSPost2010Prop53
 90
        2
102
RTVSPost2010PropOp53
 70
     0
102
RTVSPost2010Prop54
  1
strokes_ogs.tif
102
RTVSPost2010PropOp54
 70
     0
102
RTVSPost2010Prop55
280
     0
102
RTVSPost2010PropOp55
 70
     0
102
RTVSPost2010Prop56
140
1.0
102
RTVSPost2010PropOp56
 70
     0
102
RTVSPost2010Prop57
140
1.0
102
RTVSPost2010PropOp57
 70
     0
  0
XRECORD
  5
340
102
{ACAD_REACTORS
330
33F
102
}
330
33F
100
AcDbXrecord
280
     1
102
RTVSPost2010Prop28
280
     0
102
RTVSPost2010PropOp28
 70
     1
102
RTVSPost2010Prop29
280
     1
102
RTVSPost2010PropOp29
 70
     1
102
RTVSPost2010Prop30
280
     1
102
RTVSPost2010PropOp30
 70
     1
102
RTVSPost2010Prop31
280
     0
102
RTVSPost2010PropOp31
 70
     1
102
RTVSPost2010Prop32
280
     0
102
RTVSPost2010PropOp32
 70
     1
102
RTVSPost2010Prop33
280
     0
102
RTVSPost2010PropOp33
 70
     1
102
RTVSPost2010Prop34
280
     0
102
RTVSPost2010PropOp34
 70
     1
102
RTVSPost2010Prop35
280
     0
102
RTVSPost2010PropOp35
 70
     1
102
RTVSPost2010Prop36
280
     0
102
RTVSPost2010PropOp36
 70
     1
102
RTVSPost2010Prop37
 90
       50
102
RTVSPost2010PropOp37
 70
     1
102
RTVSPost2010Prop38
140
0.0
102
RTVSPost2010PropOp38
 70
     1
102
RTVSPost2010Prop39
140
1.0
102
RTVSPost2010PropOp39
 70
     1
102
RTVSPost2010Prop40
 90
        0
102
RTVSPost2010PropOp40
 70
     1
102
RTVSPost2010Prop41ColorIndex
 90
       18
102
RTVSPost2010Prop41ColorRGB
 90
        0
102
RTVSPost2010PropOp41
 70
     1
102
RTVSPost2010Prop42
 90
       50
102
RTVSPost2010PropOp42
 70
     1
102
RTVSPost2010Prop43
 90
        3
102
RTVSPost2010PropOp43
 70
     1
102
RTVSPost2010Prop44ColorIndex
 90
        5
102
RTVSPost2010Prop44ColorRGB
 90
      255
102
RTVSPost2010PropOp44
 70
     1
102
RTVSPost2010Prop45
280
     0
102
RTVSPost2010PropOp45
 70
     1
102
RTVSPost2010Prop46
 90
       50
102
RTVSPost2010PropOp46
 70
     1
102
RTVSPost2010Prop47
 90
       50
102
RTVSPost2010PropOp47
 70
     1
102
RTVSPost2010Prop48
 90
       50
102
RTVSPost2010PropOp48
 70
     1
102
RTVSPost2010Prop49
280
     0
102
RTVSPost2010PropOp49
 70
     1
102
RTVSPost2010Prop50
 90
       50
102
RTVSPost2010PropOp50
 70
     1
102
RTVSPost2010Prop51ColorIndex
 90
      256
102
RTVSPost2010Prop51ColorRGB
 90
-16777216
102
RTVSPost2010PropOp51
 70
     0
102
RTVSPost2010Prop52
140
1.0
102
RTVSPost2010PropOp52
 70
     0
102
RTVSPost2010Prop53
 90
        2
102
RTVSPost2010PropOp53
 70
     1
102
RTVSPost2010Prop54
  1
strokes_ogs.tif
102
RTVSPost2010PropOp54
 70
     1
102
RTVSPost2010Prop55
280
     0
102
RTVSPost2010PropOp55
 70
     1
102
RTVSPost2010Prop56
140
1.0
102
RTVSPost2010PropOp56
 70
     1
102
RTVSPost2010Prop57
140
1.0
102
RTVSPost2010PropOp57
 70
     1
  0
XRECORD
  5
35E
102
{ACAD_REACTORS
330
35D
102
}
330
35D
100
AcDbXrecord
280
     1
102
RTVSPost2010Prop28
280
     0
102
RTVSPost2010PropOp28
 70
     1
102
RTVSPost2010Prop29
280
     1
102
RTVSPost2010PropOp29
 70
     1
102
RTVSPost2010Prop30
280
     1
102
RTVSPost2010PropOp30
 70
     1
102
RTVSPost2010Prop31
280
     0
102
RTVSPost2010PropOp31
 70
     1
102
RTVSPost2010Prop32
280
     0
102
RTVSPost2010PropOp32
 70
     1
102
RTVSPost2010Prop33
280
     0
102
RTVSPost2010PropOp33
 70
     1
102
RTVSPost2010Prop34
280
     0
102
RTVSPost2010PropOp34
 70
     1
102
RTVSPost2010Prop35
280
     0
102
RTVSPost2010PropOp35
 70
     1
102
RTVSPost2010Prop36
280
     0
102
RTVSPost2010PropOp36
 70
     1
102
RTVSPost2010Prop37
 90
       50
102
RTVSPost2010PropOp37
 70
     1
102
RTVSPost2010Prop38
140
0.0
102
RTVSPost2010PropOp38
 70
     1
102
RTVSPost2010Prop39
140
1.0
102
RTVSPost2010PropOp39
 70
     1
102
RTVSPost2010Prop40
 90
        0
102
RTVSPost2010PropOp40
 70
     1
102
RTVSPost2010Prop41ColorIndex
 90
       18
102
RTVSPost2010Prop41ColorRGB
 90
        0
102
RTVSPost2010PropOp41
 70
     1
102
RTVSPost2010Prop42
 90
       50
102
RTVSPost2010PropOp42
 70
     1
102
RTVSPost2010Prop43
 90
        3
102
RTVSPost2010PropOp43
 70
     1
102
RTVSPost2010Prop44ColorIndex
 90
        5
102
RTVSPost2010Prop44ColorRGB
 90
      255
102
RTVSPost2010PropOp44
 70
     1
102
RTVSPost2010Prop45
280
     0
102
RTVSPost2010PropOp45
 70
     1
102
RTVSPost2010Prop46
 90
       50
102
RTVSPost2010PropOp46
 70
     1
102
RTVSPost2010Prop47
 90
       50
102
RTVSPost2010PropOp47
 70
     1
102
RTVSPost2010Prop48
 90
       50
102
RTVSPost2010PropOp48
 70
     1
102
RTVSPost2010Prop49
280
     0
102
RTVSPost2010PropOp49
 70
     1
102
RTVSPost2010Prop50
 90
       50
102
RTVSPost2010PropOp50
 70
     1
102
RTVSPost2010Prop51ColorIndex
 90
      256
102
RTVSPost2010Prop51ColorRGB
 90
-16777216
102
RTVSPost2010PropOp51
 70
     0
102
RTVSPost2010Prop52
140
1.0
102
RTVSPost2010PropOp52
 70
     0
102
RTVSPost2010Prop53
 90
        2
102
RTVSPost2010PropOp53
 70
     1
102
RTVSPost2010Prop54
  1
strokes_ogs.tif
102
RTVSPost2010PropOp54
 70
     1
102
RTVSPost2010Prop55
280
     0
102
RTVSPost2010PropOp55
 70
     1
102
RTVSPost2010Prop56
140
1.0
102
RTVSPost2010PropOp56
 70
     1
102
RTVSPost2010Prop57
140
1.0
102
RTVSPost2010PropOp57
 70
     1
  0
XRECORD
  5
35C
102
{ACAD_REACTORS
330
35B
102
}
330
35B
100
AcDbXrecord
280
     1
102
RTVSPost2010Prop28
280
     0
102
RTVSPost2010PropOp28
 70
     1
102
RTVSPost2010Prop29
280
     1
102
RTVSPost2010PropOp29
 70
     1
102
RTVSPost2010Prop30
280
     1
102
RTVSPost2010PropOp30
 70
     1
102
RTVSPost2010Prop31
280
     0
102
RTVSPost2010PropOp31
 70
     1
102
RTVSPost2010Prop32
280
     0
102
RTVSPost2010PropOp32
 70
     1
102
RTVSPost2010Prop33
280
     0
102
RTVSPost2010PropOp33
 70
     1
102
RTVSPost2010Prop34
280
     0
102
RTVSPost2010PropOp34
 70
     1
102
RTVSPost2010Prop35
280
     0
102
RTVSPost2010PropOp35
 70
     1
102
RTVSPost2010Prop36
280
     0
102
RTVSPost2010PropOp36
 70
     1
102
RTVSPost2010Prop37
 90
       50
102
RTVSPost2010PropOp37
 70
     1
102
RTVSPost2010Prop38
140
0.0
102
RTVSPost2010PropOp38
 70
     1
102
RTVSPost2010Prop39
140
1.0
102
RTVSPost2010PropOp39
 70
     1
102
RTVSPost2010Prop40
 90
        0
102
RTVSPost2010PropOp40
 70
     1
102
RTVSPost2010Prop41ColorIndex
 90
       18
102
RTVSPost2010Prop41ColorRGB
 90
        0
102
RTVSPost2010PropOp41
 70
     1
102
RTVSPost2010Prop42
 90
       50
102
RTVSPost2010PropOp42
 70
     1
102
RTVSPost2010Prop43
 90
        3
102
RTVSPost2010PropOp43
 70
     1
102
RTVSPost2010Prop44ColorIndex
 90
        5
102
RTVSPost2010Prop44ColorRGB
 90
      255
102
RTVSPost2010PropOp44
 70
     1
102
RTVSPost2010Prop45
280
     0
102
RTVSPost2010PropOp45
 70
     1
102
RTVSPost2010Prop46
 90
       50
102
RTVSPost2010PropOp46
 70
     1
102
RTVSPost2010Prop47
 90
       50
102
RTVSPost2010PropOp47
 70
     1
102
RTVSPost2010Prop48
 90
       50
102
RTVSPost2010PropOp48
 70
     1
102
RTVSPost2010Prop49
280
     0
102
RTVSPost2010PropOp49
 70
     1
102
RTVSPost2010Prop50
 90
       50
102
RTVSPost2010PropOp50
 70
     1
102
RTVSPost2010Prop51ColorIndex
 90
      256
102
RTVSPost2010Prop51ColorRGB
 90
-16777216
102
RTVSPost2010PropOp51
 70
     0
102
RTVSPost2010Prop52
140
1.0
102
RTVSPost2010PropOp52
 70
     0
102
RTVSPost2010Prop53
 90
        2
102
RTVSPost2010PropOp53
 70
     1
102
RTVSPost2010Prop54
  1
strokes_ogs.tif
102
RTVSPost2010PropOp54
 70
     1
102
RTVSPost2010Prop55
280
     0
102
RTVSPost2010PropOp55
 70
     1
102
RTVSPost2010Prop56
140
1.0
102
RTVSPost2010PropOp56
 70
     1
102
RTVSPost2010Prop57
140
1.0
102
RTVSPost2010PropOp57
 70
     1
  0
XRECORD
  5
356
102
{ACAD_REACTORS
330
355
102
}
330
355
100
AcDbXrecord
280
     1
102
RTVSPost2010Prop28
280
     0
102
RTVSPost2010PropOp28
 70
     1
102
RTVSPost2010Prop29
280
     1
102
RTVSPost2010PropOp29
 70
     1
102
RTVSPost2010Prop30
280
     1
102
RTVSPost2010PropOp30
 70
     1
102
RTVSPost2010Prop31
280
     0
102
RTVSPost2010PropOp31
 70
     1
102
RTVSPost2010Prop32
280
     0
102
RTVSPost2010PropOp32
 70
     1
102
RTVSPost2010Prop33
280
     0
102
RTVSPost2010PropOp33
 70
     1
102
RTVSPost2010Prop34
280
     0
102
RTVSPost2010PropOp34
 70
     1
102
RTVSPost2010Prop35
280
     0
102
RTVSPost2010PropOp35
 70
     1
102
RTVSPost2010Prop36
280
     0
102
RTVSPost2010PropOp36
 70
     1
102
RTVSPost2010Prop37
 90
       50
102
RTVSPost2010PropOp37
 70
     1
102
RTVSPost2010Prop38
140
0.0
102
RTVSPost2010PropOp38
 70
     1
102
RTVSPost2010Prop39
140
1.0
102
RTVSPost2010PropOp39
 70
     1
102
RTVSPost2010Prop40
 90
        0
102
RTVSPost2010PropOp40
 70
     1
102
RTVSPost2010Prop41ColorIndex
 90
       18
102
RTVSPost2010Prop41ColorRGB
 90
        0
102
RTVSPost2010PropOp41
 70
     1
102
RTVSPost2010Prop42
 90
       50
102
RTVSPost2010PropOp42
 70
     1
102
RTVSPost2010Prop43
 90
        3
102
RTVSPost2010PropOp43
 70
     1
102
RTVSPost2010Prop44ColorIndex
 90
        5
102
RTVSPost2010Prop44ColorRGB
 90
      255
102
RTVSPost2010PropOp44
 70
     1
102
RTVSPost2010Prop45
280
     0
102
RTVSPost2010PropOp45
 70
     1
102
RTVSPost2010Prop46
 90
       50
102
RTVSPost2010PropOp46
 70
     1
102
RTVSPost2010Prop47
 90
       50
102
RTVSPost2010PropOp47
 70
     1
102
RTVSPost2010Prop48
 90
       50
102
RTVSPost2010PropOp48
 70
     1
102
RTVSPost2010Prop49
280
     0
102
RTVSPost2010PropOp49
 70
     1
102
RTVSPost2010Prop50
 90
       50
102
RTVSPost2010PropOp50
 70
     1
102
RTVSPost2010Prop51ColorIndex
 90
      256
102
RTVSPost2010Prop51ColorRGB
 90
-16777216
102
RTVSPost2010PropOp51
 70
     0
102
RTVSPost2010Prop52
140
1.0
102
RTVSPost2010PropOp52
 70
     0
102
RTVSPost2010Prop53
 90
        2
102
RTVSPost2010PropOp53
 70
     1
102
RTVSPost2010Prop54
  1
strokes_ogs.tif
102
RTVSPost2010PropOp54
 70
     1
102
RTVSPost2010Prop55
280
     0
102
RTVSPost2010PropOp55
 70
     1
102
RTVSPost2010Prop56
140
1.0
102
RTVSPost2010PropOp56
 70
     1
102
RTVSPost2010Prop57
140
1.0
102
RTVSPost2010PropOp57
 70
     1
  0
XRECORD
  5
358
102
{ACAD_REACTORS
330
357
102
}
330
357
100
AcDbXrecord
280
     1
102
RTVSPost2010Prop28
280
     0
102
RTVSPost2010PropOp28
 70
     1
102
RTVSPost2010Prop29
280
     1
102
RTVSPost2010PropOp29
 70
     1
102
RTVSPost2010Prop30
280
     1
102
RTVSPost2010PropOp30
 70
     1
102
RTVSPost2010Prop31
280
     0
102
RTVSPost2010PropOp31
 70
     1
102
RTVSPost2010Prop32
280
     0
102
RTVSPost2010PropOp32
 70
     1
102
RTVSPost2010Prop33
280
     0
102
RTVSPost2010PropOp33
 70
     1
102
RTVSPost2010Prop34
280
     0
102
RTVSPost2010PropOp34
 70
     1
102
RTVSPost2010Prop35
280
     0
102
RTVSPost2010PropOp35
 70
     1
102
RTVSPost2010Prop36
280
     0
102
RTVSPost2010PropOp36
 70
     1
102
RTVSPost2010Prop37
 90
       50
102
RTVSPost2010PropOp37
 70
     1
102
RTVSPost2010Prop38
140
0.0
102
RTVSPost2010PropOp38
 70
     1
102
RTVSPost2010Prop39
140
1.0
102
RTVSPost2010PropOp39
 70
     1
102
RTVSPost2010Prop40
 90
        0
102
RTVSPost2010PropOp40
 70
     1
102
RTVSPost2010Prop41ColorIndex
 90
       18
102
RTVSPost2010Prop41ColorRGB
 90
        0
102
RTVSPost2010PropOp41
 70
     1
102
RTVSPost2010Prop42
 90
       50
102
RTVSPost2010PropOp42
 70
     1
102
RTVSPost2010Prop43
 90
        3
102
RTVSPost2010PropOp43
 70
     1
102
RTVSPost2010Prop44ColorIndex
 90
        5
102
RTVSPost2010Prop44ColorRGB
 90
      255
102
RTVSPost2010PropOp44
 70
     1
102
RTVSPost2010Prop45
280
     0
102
RTVSPost2010PropOp45
 70
     1
102
RTVSPost2010Prop46
 90
       50
102
RTVSPost2010PropOp46
 70
     1
102
RTVSPost2010Prop47
 90
       50
102
RTVSPost2010PropOp47
 70
     1
102
RTVSPost2010Prop48
 90
       50
102
RTVSPost2010PropOp48
 70
     1
102
RTVSPost2010Prop49
280
     0
102
RTVSPost2010PropOp49
 70
     1
102
RTVSPost2010Prop50
 90
       50
102
RTVSPost2010PropOp50
 70
     1
102
RTVSPost2010Prop51ColorIndex
 90
      256
102
RTVSPost2010Prop51ColorRGB
 90
-16777216
102
RTVSPost2010PropOp51
 70
     0
102
RTVSPost2010Prop52
140
1.0
102
RTVSPost2010PropOp52
 70
     0
102
RTVSPost2010Prop53
 90
        2
102
RTVSPost2010PropOp53
 70
     1
102
RTVSPost2010Prop54
  1
strokes_ogs.tif
102
RTVSPost2010PropOp54
 70
     1
102
RTVSPost2010Prop55
280
     0
102
RTVSPost2010PropOp55
 70
     1
102
RTVSPost2010Prop56
140
1.0
102
RTVSPost2010PropOp56
 70
     1
102
RTVSPost2010Prop57
140
1.0
102
RTVSPost2010PropOp57
 70
     1
  0
XRECORD
  5
348
102
{ACAD_REACTORS
330
347
102
}
330
347
100
AcDbXrecord
280
     1
102
RTVSPost2010Prop28
280
     0
102
RTVSPost2010PropOp28
 70
     1
102
RTVSPost2010Prop29
280
     1
102
RTVSPost2010PropOp29
 70
     1
102
RTVSPost2010Prop30
280
     1
102
RTVSPost2010PropOp30
 70
     1
102
RTVSPost2010Prop31
280
     0
102
RTVSPost2010PropOp31
 70
     1
102
RTVSPost2010Prop32
280
     0
102
RTVSPost2010PropOp32
 70
     1
102
RTVSPost2010Prop33
280
     0
102
RTVSPost2010PropOp33
 70
     1
102
RTVSPost2010Prop34
280
     0
102
RTVSPost2010PropOp34
 70
     1
102
RTVSPost2010Prop35
280
     0
102
RTVSPost2010PropOp35
 70
     1
102
RTVSPost2010Prop36
280
     0
102
RTVSPost2010PropOp36
 70
     1
102
RTVSPost2010Prop37
 90
       50
102
RTVSPost2010PropOp37
 70
     1
102
RTVSPost2010Prop38
140
0.0
102
RTVSPost2010PropOp38
 70
     1
102
RTVSPost2010Prop39
140
1.0
102
RTVSPost2010PropOp39
 70
     1
102
RTVSPost2010Prop40
 90
        0
102
RTVSPost2010PropOp40
 70
     1
102
RTVSPost2010Prop41ColorIndex
 90
       18
102
RTVSPost2010Prop41ColorRGB
 90
        0
102
RTVSPost2010PropOp41
 70
     1
102
RTVSPost2010Prop42
 90
       50
102
RTVSPost2010PropOp42
 70
     1
102
RTVSPost2010Prop43
 90
        3
102
RTVSPost2010PropOp43
 70
     1
102
RTVSPost2010Prop44ColorIndex
 90
        5
102
RTVSPost2010Prop44ColorRGB
 90
      255
102
RTVSPost2010PropOp44
 70
     1
102
RTVSPost2010Prop45
280
     0
102
RTVSPost2010PropOp45
 70
     1
102
RTVSPost2010Prop46
 90
       50
102
RTVSPost2010PropOp46
 70
     1
102
RTVSPost2010Prop47
 90
       50
102
RTVSPost2010PropOp47
 70
     1
102
RTVSPost2010Prop48
 90
       50
102
RTVSPost2010PropOp48
 70
     1
102
RTVSPost2010Prop49
280
     0
102
RTVSPost2010PropOp49
 70
     1
102
RTVSPost2010Prop50
 90
       50
102
RTVSPost2010PropOp50
 70
     1
102
RTVSPost2010Prop51ColorIndex
 90
      256
102
RTVSPost2010Prop51ColorRGB
 90
-16777216
102
RTVSPost2010PropOp51
 70
     0
102
RTVSPost2010Prop52
140
1.0
102
RTVSPost2010PropOp52
 70
     0
102
RTVSPost2010Prop53
 90
        2
102
RTVSPost2010PropOp53
 70
     1
102
RTVSPost2010Prop54
  1
strokes_ogs.tif
102
RTVSPost2010PropOp54
 70
     1
102
RTVSPost2010Prop55
280
     0
102
RTVSPost2010PropOp55
 70
     1
102
RTVSPost2010Prop56
140
1.0
102
RTVSPost2010PropOp56
 70
     1
102
RTVSPost2010Prop57
140
1.0
102
RTVSPost2010PropOp57
 70
     1
  0
XRECORD
  5
33A
102
{ACAD_REACTORS
330
339
102
}
330
339
100
AcDbXrecord
280
     1
102
RTVSPost2010Prop28
280
     0
102
RTVSPost2010PropOp28
 70
     1
102
RTVSPost2010Prop29
280
     1
102
RTVSPost2010PropOp29
 70
     1
102
RTVSPost2010Prop30
280
     1
102
RTVSPost2010PropOp30
 70
     1
102
RTVSPost2010Prop31
280
     0
102
RTVSPost2010PropOp31
 70
     1
102
RTVSPost2010Prop32
280
     0
102
RTVSPost2010PropOp32
 70
     1
102
RTVSPost2010Prop33
280
     0
102
RTVSPost2010PropOp33
 70
     1
102
RTVSPost2010Prop34
280
     0
102
RTVSPost2010PropOp34
 70
     1
102
RTVSPost2010Prop35
280
     0
102
RTVSPost2010PropOp35
 70
     1
102
RTVSPost2010Prop36
280
     0
102
RTVSPost2010PropOp36
 70
     1
102
RTVSPost2010Prop37
 90
       50
102
RTVSPost2010PropOp37
 70
     1
102
RTVSPost2010Prop38
140
0.0
102
RTVSPost2010PropOp38
 70
     1
102
RTVSPost2010Prop39
140
1.0
102
RTVSPost2010PropOp39
 70
     1
102
RTVSPost2010Prop40
 90
        0
102
RTVSPost2010PropOp40
 70
     1
102
RTVSPost2010Prop41ColorIndex
 90
       18
102
RTVSPost2010Prop41ColorRGB
 90
        0
102
RTVSPost2010PropOp41
 70
     1
102
RTVSPost2010Prop42
 90
       50
102
RTVSPost2010PropOp42
 70
     1
102
RTVSPost2010Prop43
 90
        3
102
RTVSPost2010PropOp43
 70
     1
102
RTVSPost2010Prop44ColorIndex
 90
        5
102
RTVSPost2010Prop44ColorRGB
 90
      255
102
RTVSPost2010PropOp44
 70
     1
102
RTVSPost2010Prop45
280
     0
102
RTVSPost2010PropOp45
 70
     1
102
RTVSPost2010Prop46
 90
       50
102
RTVSPost2010PropOp46
 70
     1
102
RTVSPost2010Prop47
 90
       50
102
RTVSPost2010PropOp47
 70
     1
102
RTVSPost2010Prop48
 90
       50
102
RTVSPost2010PropOp48
 70
     1
102
RTVSPost2010Prop49
280
     0
102
RTVSPost2010PropOp49
 70
     1
102
RTVSPost2010Prop50
 90
       50
102
RTVSPost2010PropOp50
 70
     1
102
RTVSPost2010Prop51ColorIndex
 90
      256
102
RTVSPost2010Prop51ColorRGB
 90
-16777216
102
RTVSPost2010PropOp51
 70
     0
102
RTVSPost2010Prop52
140
1.0
102
RTVSPost2010PropOp52
 70
     0
102
RTVSPost2010Prop53
 90
        2
102
RTVSPost2010PropOp53
 70
     1
102
RTVSPost2010Prop54
  1
strokes_ogs.tif
102
RTVSPost2010PropOp54
 70
     1
102
RTVSPost2010Prop55
280
     0
102
RTVSPost2010PropOp55
 70
     1
102
RTVSPost2010Prop56
140
1.0
102
RTVSPost2010PropOp56
 70
     1
102
RTVSPost2010Prop57
140
1.0
102
RTVSPost2010PropOp57
 70
     1
  0
XRECORD
  5
35A
102
{ACAD_REACTORS
330
359
102
}
330
359
100
AcDbXrecord
280
     1
102
RTVSPost2010Prop28
280
     0
102
RTVSPost2010PropOp28
 70
     1
102
RTVSPost2010Prop29
280
     1
102
RTVSPost2010PropOp29
 70
     1
102
RTVSPost2010Prop30
280
     1
102
RTVSPost2010PropOp30
 70
     1
102
RTVSPost2010Prop31
280
     0
102
RTVSPost2010PropOp31
 70
     1
102
RTVSPost2010Prop32
280
     0
102
RTVSPost2010PropOp32
 70
     1
102
RTVSPost2010Prop33
280
     0
102
RTVSPost2010PropOp33
 70
     1
102
RTVSPost2010Prop34
280
     0
102
RTVSPost2010PropOp34
 70
     1
102
RTVSPost2010Prop35
280
     0
102
RTVSPost2010PropOp35
 70
     1
102
RTVSPost2010Prop36
280
     0
102
RTVSPost2010PropOp36
 70
     1
102
RTVSPost2010Prop37
 90
       50
102
RTVSPost2010PropOp37
 70
     1
102
RTVSPost2010Prop38
140
0.0
102
RTVSPost2010PropOp38
 70
     1
102
RTVSPost2010Prop39
140
1.0
102
RTVSPost2010PropOp39
 70
     1
102
RTVSPost2010Prop40
 90
        0
102
RTVSPost2010PropOp40
 70
     1
102
RTVSPost2010Prop41ColorIndex
 90
       18
102
RTVSPost2010Prop41ColorRGB
 90
        0
102
RTVSPost2010PropOp41
 70
     1
102
RTVSPost2010Prop42
 90
       50
102
RTVSPost2010PropOp42
 70
     1
102
RTVSPost2010Prop43
 90
        3
102
RTVSPost2010PropOp43
 70
     1
102
RTVSPost2010Prop44ColorIndex
 90
        5
102
RTVSPost2010Prop44ColorRGB
 90
      255
102
RTVSPost2010PropOp44
 70
     1
102
RTVSPost2010Prop45
280
     0
102
RTVSPost2010PropOp45
 70
     1
102
RTVSPost2010Prop46
 90
       50
102
RTVSPost2010PropOp46
 70
     1
102
RTVSPost2010Prop47
 90
       50
102
RTVSPost2010PropOp47
 70
     1
102
RTVSPost2010Prop48
 90
       50
102
RTVSPost2010PropOp48
 70
     1
102
RTVSPost2010Prop49
280
     0
102
RTVSPost2010PropOp49
 70
     1
102
RTVSPost2010Prop50
 90
       50
102
RTVSPost2010PropOp50
 70
     1
102
RTVSPost2010Prop51ColorIndex
 90
      256
102
RTVSPost2010Prop51ColorRGB
 90
-16777216
102
RTVSPost2010PropOp51
 70
     0
102
RTVSPost2010Prop52
140
1.0
102
RTVSPost2010PropOp52
 70
     0
102
RTVSPost2010Prop53
 90
        2
102
RTVSPost2010PropOp53
 70
     1
102
RTVSPost2010Prop54
  1
strokes_ogs.tif
102
RTVSPost2010PropOp54
 70
     1
102
RTVSPost2010Prop55
280
     0
102
RTVSPost2010PropOp55
 70
     1
102
RTVSPost2010Prop56
140
1.0
102
RTVSPost2010PropOp56
 70
     1
102
RTVSPost2010Prop57
140
1.0
102
RTVSPost2010PropOp57
 70
     1
  0
ENDSEC
  0
EOF
