  0
SECTION
  2
HEADER
  9
$ACADVER
  1
AC1024
  9
$ACADMAINTVER
 70
     6
  9
$DWGCODEPAGE
  3
ANSI_1252
  9
$INSBASE
 10
0.0
 20
0.0
 30
0.0
  9
$EXTMIN
 10
-15.39500245031377
 20
-18.9169634538539
 30
0.0
  9
$EXTMAX
 10
1058.61852927978
 20
7414.824874878253
 30
0.0
  9
$LIMMIN
 10
0.0
 20
0.0
  9
$LIMMAX
 10
420.0
 20
297.0
  9
$ORTHOMODE
 70
     1
  9
$REGENMODE
 70
     1
  9
$FILLMODE
 70
     1
  9
$QTEXTMODE
 70
     0
  9
$MIRRTEXT
 70
     1
  9
$LTSCALE
 40
1.0
  9
$ATTMODE
 70
     1
  9
$TEXTSIZE
 40
0.18
  9
$TRACEWID
 40
1.0
  9
$TEXTSTYLE
  7
Swisslt
  9
$CLAYER
  8
1-Continuous
  9
$CELTYPE
  6
BYLAYER
  9
$CECOLOR
 62
   256
  9
$CELTSCALE
 40
0.1
  9
$DISPSILH
 70
     0
  9
$DIMSCALE
 40
1.0
  9
$DIMASZ
 40
2.5
  9
$DIMEXO
 40
0.625
  9
$DIMDLI
 40
3.75
  9
$DIMRND
 40
0.0
  9
$DIMDLE
 40
0.0
  9
$DIMEXE
 40
1.25
  9
$DIMTP
 40
0.0
  9
$DIMTM
 40
0.0
  9
$DIMTXT
 40
2.5
  9
$DIMCEN
 40
2.5
  9
$DIMTSZ
 40
0.0
  9
$DIMTOL
 70
     0
  9
$DIMLIM
 70
     0
  9
$DIMTIH
 70
     0
  9
$DIMTOH
 70
     0
  9
$DIMSE1
 70
     0
  9
$DIMSE2
 70
     0
  9
$DIMTAD
 70
     1
  9
$DIMZIN
 70
     8
  9
$DIMBLK
  1

  9
$DIMASO
 70
     1
  9
$DIMSHO
 70
     1
  9
$DIMPOST
  1

  9
$DIMAPOST
  1

  9
$DIMALT
 70
     0
  9
$DIMALTD
 70
     4
  9
$DIMALTF
 40
0.0394
  9
$DIMLFAC
 40
1.0
  9
$DIMTOFL
 70
     1
  9
$DIMTVP
 40
0.0
  9
$DIMTIX
 70
     0
  9
$DIMSOXD
 70
     0
  9
$DIMSAH
 70
     0
  9
$DIMBLK1
  1

  9
$DIMBLK2
  1

  9
$DIMSTYLE
  2
STANDARD
  9
$DIMCLRD
 70
     0
  9
$DIMCLRE
 70
     0
  9
$DIMCLRT
 70
     0
  9
$DIMTFAC
 40
1.0
  9
$DIMGAP
 40
0.625
  9
$DIMJUST
 70
     0
  9
$DIMSD1
 70
     0
  9
$DIMSD2
 70
     0
  9
$DIMTOLJ
 70
     1
  9
$DIMTZIN
 70
     0
  9
$DIMALTZ
 70
     0
  9
$DIMALTTZ
 70
     0
  9
$DIMUPT
 70
     0
  9
$DIMDEC
 70
     4
  9
$DIMTDEC
 70
     4
  9
$DIMALTU
 70
     8
  9
$DIMALTTD
 70
     4
  9
$DIMTXSTY
  7
STANDARD
  9
$DIMAUNIT
 70
     0
  9
$DIMADEC
 70
     0
  9
$DIMALTRND
 40
0.0
  9
$DIMAZIN
 70
     0
  9
$DIMDSEP
 70
    46
  9
$DIMATFIT
 70
     3
  9
$DIMFRAC
 70
     0
  9
$DIMLDRBLK
  1

  9
$DIMLUNIT
 70
     6
  9
$DIMLWD
 70
    -2
  9
$DIMLWE
 70
    -2
  9
$DIMTMOVE
 70
     0
  9
$DIMFXL
 40
1.0
  9
$DIMFXLON
 70
     0
  9
$DIMJOGANG
 40
0.7853981633974483
  9
$DIMTFILL
 70
     0
  9
$DIMTFILLCLR
 70
     0
  9
$DIMARCSYM
 70
     0
  9
$DIMLTYPE
  6

  9
$DIMLTEX1
  6

  9
$DIMLTEX2
  6

  9
$DIMTXTDIRECTION
 70
     0
  9
$LUNITS
 70
     2
  9
$LUPREC
 70
     4
  9
$SKETCHINC
 40
1.0
  9
$FILLETRAD
 40
10.0
  9
$AUNITS
 70
     0
  9
$AUPREC
 70
     0
  9
$MENU
  1
acad
  9
$ELEVATION
 40
0.0
  9
$PELEVATION
 40
0.0
  9
$THICKNESS
 40
0.0
  9
$LIMCHECK
 70
     0
  9
$CHAMFERA
 40
10.0
  9
$CHAMFERB
 40
10.0
  9
$CHAMFERC
 40
20.0
  9
$CHAMFERD
 40
0.0
  9
$SKPOLY
 70
     0
  9
$TDCREATE
 40
2451500.642376505
  9
$TDUCREATE
 40
2451500.600709838
  9
$TDUPDATE
 40
2457219.626929896
  9
$TDUUPDATE
 40
2457219.585263229
  9
$TDINDWG
 40
2.4438821181
  9
$TDUSRTIMER
 40
2.4438821181
  9
$USRTIMER
 70
     1
  9
$ANGBASE
 50
0.0
  9
$ANGDIR
 70
     0
  9
$PDMODE
 70
     0
  9
$PDSIZE
 40
0.0
  9
$PLINEWID
 40
0.0
  9
$SPLFRAME
 70
     0
  9
$SPLINETYPE
 70
     6
  9
$SPLINESEGS
 70
     8
  9
$HANDSEED
  5
4378
  9
$SURFTAB1
 70
     6
  9
$SURFTAB2
 70
     6
  9
$SURFTYPE
 70
     6
  9
$SURFU
 70
     6
  9
$SURFV
 70
     6
  9
$UCSBASE
  2

  9
$UCSNAME
  2

  9
$UCSORG
 10
0.0
 20
0.0
 30
0.0
  9
$UCSXDIR
 10
1.0
 20
0.0
 30
0.0
  9
$UCSYDIR
 10
0.0
 20
1.0
 30
0.0
  9
$UCSORTHOREF
  2

  9
$UCSORTHOVIEW
 70
     0
  9
$UCSORGTOP
 10
0.0
 20
0.0
 30
0.0
  9
$UCSORGBOTTOM
 10
0.0
 20
0.0
 30
0.0
  9
$UCSORGLEFT
 10
0.0
 20
0.0
 30
0.0
  9
$UCSORGRIGHT
 10
0.0
 20
0.0
 30
0.0
  9
$UCSORGFRONT
 10
0.0
 20
0.0
 30
0.0
  9
$UCSORGBACK
 10
0.0
 20
0.0
 30
0.0
  9
$PUCSBASE
  2

  9
$PUCSNAME
  2

  9
$PUCSORG
 10
0.0
 20
0.0
 30
0.0
  9
$PUCSXDIR
 10
1.0
 20
0.0
 30
0.0
  9
$PUCSYDIR
 10
0.0
 20
1.0
 30
0.0
  9
$PUCSORTHOREF
  2

  9
$PUCSORTHOVIEW
 70
     0
  9
$PUCSORGTOP
 10
0.0
 20
0.0
 30
0.0
  9
$PUCSORGBOTTOM
 10
0.0
 20
0.0
 30
0.0
  9
$PUCSORGLEFT
 10
0.0
 20
0.0
 30
0.0
  9
$PUCSORGRIGHT
 10
0.0
 20
0.0
 30
0.0
  9
$PUCSORGFRONT
 10
0.0
 20
0.0
 30
0.0
  9
$PUCSORGBACK
 10
0.0
 20
0.0
 30
0.0
  9
$USERI1
 70
     0
  9
$USERI2
 70
     0
  9
$USERI3
 70
     0
  9
$USERI4
 70
     0
  9
$USERI5
 70
     0
  9
$USERR1
 40
0.0
  9
$USERR2
 40
0.0
  9
$USERR3
 40
0.0
  9
$USERR4
 40
0.0
  9
$USERR5
 40
0.0
  9
$WORLDVIEW
 70
     1
  9
$SHADEDGE
 70
     3
  9
$SHADEDIF
 70
    70
  9
$TILEMODE
 70
     1
  9
$MAXACTVP
 70
    48
  9
$PINSBASE
 10
0.0
 20
0.0
 30
0.0
  9
$PLIMCHECK
 70
     0
  9
$PEXTMIN
 10
4.25308529373947
 20
457.0587439744781
 30
0.0
  9
$PEXTMAX
 10
95.38610095965653
 20
505.9621541202739
 30
0.0
  9
$PLIMMIN
 10
75.28681675818261
 20
477.7922382499529
  9
$PLIMMAX
 10
96.28414952185449
 20
507.4933033134295
  9
$UNITMODE
 70
     0
  9
$VISRETAIN
 70
     1
  9
$PLINEGEN
 70
     0
  9
$PSLTSCALE
 70
     0
  9
$TREEDEPTH
 70
  3020
  9
$CMLSTYLE
  2
STANDARD
  9
$CMLJUST
 70
     0
  9
$CMLSCALE
 40
20.0
  9
$PROXYGRAPHICS
 70
     1
  9
$MEASUREMENT
 70
     0
  9
$CELWEIGHT
370
     0
  9
$ENDCAPS
280
     0
  9
$JOINSTYLE
280
     0
  9
$LWDISPLAY
290
     0
  9
$INSUNITS
 70
     0
  9
$HYPERLINKBASE
  1

  9
$STYLESHEET
  1

  9
$XEDIT
290
     1
  9
$CEPSNTYPE
380
     0
  9
$PSTYLEMODE
290
     1
  9
$FINGERPRINTGUID
  2
{F22C99D1-3D68-11D5-A95B-EE2ADD637D72}
  9
$VERSIONGUID
  2
{1A7BA1E8-1622-4FEC-8201-1627C4CB21E0}
  9
$EXTNAMES
290
     1
  9
$PSVPSCALE
 40
0.0
  9
$OLESTARTUP
290
     0
  9
$SORTENTS
280
   127
  9
$INDEXCTL
280
     0
  9
$HIDETEXT
280
     1
  9
$XCLIPFRAME
280
     2
  9
$HALOGAP
280
     0
  9
$OBSCOLOR
 70
   257
  9
$OBSLTYPE
280
     0
  9
$INTERSECTIONDISPLAY
280
     0
  9
$INTERSECTIONCOLOR
 70
   257
  9
$DIMASSOC
280
     1
  9
$PROJECTNAME
  1

  9
$CAMERADISPLAY
290
     0
  9
$LENSLENGTH
 40
50.0
  9
$CAMERAHEIGHT
 40
0.0
  9
$STEPSPERSEC
 40
2.0
  9
$STEPSIZE
 40
6.0
  9
$3DDWFPREC
 40
2.0
  9
$PSOLWIDTH
 40
0.25
  9
$PSOLHEIGHT
 40
4.0
  9
$LOFTANG1
 40
1.570796326794897
  9
$LOFTANG2
 40
1.570796326794897
  9
$LOFTMAG1
 40
0.0
  9
$LOFTMAG2
 40
0.0
  9
$LOFTPARAM
 70
     7
  9
$LOFTNORMALS
280
     1
  9
$LATITUDE
 40
37.795
  9
$LONGITUDE
 40
-122.394
  9
$NORTHDIRECTION
 40
0.0
  9
$TIMEZONE
 70
 -8000
  9
$LIGHTGLYPHDISPLAY
280
     1
  9
$TILEMODELIGHTSYNCH
280
     1
  9
$SOLIDHIST
280
     0
  9
$SHOWHIST
280
     1
  9
$DWFFRAME
280
     2
  9
$DGNFRAME
280
     2
  9
$REALWORLDSCALE
290
     1
  9
$INTERFERECOLOR
 62
   256
  9
$CSHADOW
280
     0
  9
$SHADOWPLANELOCATION
 40
0.0
  0
ENDSEC
  0
SECTION
  2
CLASSES
  0
CLASS
  1
LWPOLYLINE
  2
AcDbPolyline
  3
ObjectDBX Classes
 90
        0
 91
        1
280
     0
281
     1
  0
CLASS
  1
DICTIONARYVAR
  2
AcDbDictionaryVar
  3
ObjectDBX Classes
 90
        0
 91
        4
280
     0
281
     0
  0
CLASS
  1
HATCH
  2
AcDbHatch
  3
ObjectDBX Classes
 90
        0
 91
        1
280
     0
281
     1
  0
CLASS
  1
SORTENTSTABLE
  2
AcDbSortentsTable
  3
ObjectDBX Classes
 90
        0
 91
        4
280
     0
281
     0
  0
CLASS
  1
ACDBDICTIONARYWDFLT
  2
AcDbDictionaryWithDefault
  3
ObjectDBX Classes
 90
        0
 91
        4
280
     0
281
     0
  0
CLASS
  1
ACDBPLACEHOLDER
  2
AcDbPlaceHolder
  3
ObjectDBX Classes
 90
        0
 91
        1
280
     0
281
     0
  0
CLASS
  1
LAYOUT
  2
AcDbLayout
  3
ObjectDBX Classes
 90
        0
 91
        1
280
     0
281
     0
  0
CLASS
  1
PLOTSETTINGS
  2
AcDbPlotSettings
  3
ObjectDBX Classes
 90
        0
 91
        4
280
     0
281
     0
  0
CLASS
  1
VISUALSTYLE
  2
AcDbVisualStyle
  3
ObjectDBX Classes
 90
     4095
 91
        4
280
     0
281
     0
  0
CLASS
  1
SCALE
  2
AcDbScale
  3
ObjectDBX Classes
 90
     1153
 91
        4
280
     0
281
     0
  0
CLASS
  1
MATERIAL
  2
AcDbMaterial
  3
ObjectDBX Classes
 90
     1153
 91
        4
280
     0
281
     0
  0
CLASS
  1
TABLESTYLE
  2
AcDbTableStyle
  3
ObjectDBX Classes
 90
     4095
 91
        4
280
     0
281
     0
  0
CLASS
  1
MLEADERSTYLE
  2
AcDbMLeaderStyle
  3
ACDB_MLEADERSTYLE_CLASS
 90
     4095
 91
        4
280
     0
281
     0
  0
CLASS
  1
CELLSTYLEMAP
  2
AcDbCellStyleMap
  3
ObjectDBX Classes
 90
     1152
 91
        4
280
     0
281
     0
  0
ENDSEC
  0
SECTION
  2
TABLES
  0
TABLE
  2
VPORT
  5
8
330
0
100
AcDbSymbolTable
 70
     3
  0
VPORT
  5
42FB
330
8
100
AcDbSymbolTableRecord
100
AcDbViewportTableRecord
  2
*Active
 70
     0
 10
0.0
 20
0.0
 11
1.0
 21
1.0
 12
8.126790345064364
 22
1.828959772977214
 13
0.0
 23
0.0
 14
0.25
 24
0.25
 15
10.0
 25
10.0
 16
0.0
 26
0.0
 36
1.0
 17
0.0
 27
0.0
 37
0.0
 40
52.04838315582492
 41
2.127208480565371
 42
50.0
 43
0.0
 44
0.0
 50
0.0
 51
0.0
 71
     0
 72
   100
 73
     1
 74
     1
 75
     0
 76
     0
 77
     0
 78
     0
281
     0
 65
     1
110
0.0
120
0.0
130
0.0
111
1.0
121
0.0
131
0.0
112
0.0
122
1.0
132
0.0
 79
     0
146
0.0
348
4301
 60
     3
 61
     5
292
     1
282
     1
141
0.0
142
0.0
 63
   256
  0
ENDTAB
  0
TABLE
  2
LTYPE
  5
5
330
0
100
AcDbSymbolTable
 70
     1
  0
LTYPE
  5
12
330
5
100
AcDbSymbolTableRecord
100
AcDbLinetypeTableRecord
  2
BYBLOCK
 70
     0
  3

 72
    65
 73
     0
 40
0.0
  0
LTYPE
  5
13
330
5
100
AcDbSymbolTableRecord
100
AcDbLinetypeTableRecord
  2
BYLAYER
 70
     0
  3

 72
    65
 73
     0
 40
0.0
  0
LTYPE
  5
14
330
5
100
AcDbSymbolTableRecord
100
AcDbLinetypeTableRecord
  2
CONTINUOUS
 70
     0
  3
Solid line
 72
    65
 73
     0
 40
0.0
  0
ENDTAB
  0
TABLE
  2
LAYER
  5
2
102
{ACAD_XDICTIONARY
360
401B
102
}
330
0
100
AcDbSymbolTable
 70
     8
  0
LAYER
  5
E
330
2
100
AcDbSymbolTableRecord
100
AcDbLayerTableRecord
  2
0
 70
     0
 62
     7
  6
CONTINUOUS
370
     0
390
2F3D
347
433A
  0
LAYER
  5
5E
330
2
100
AcDbSymbolTableRecord
100
AcDbLayerTableRecord
  2
1-Continuous
 70
     0
 62
     7
  6
CONTINUOUS
370
     0
390
2F3D
347
433A
  0
LAYER
  5
61
330
2
100
AcDbSymbolTableRecord
100
AcDbLayerTableRecord
  2
7-Text
 70
     0
 62
     7
  6
CONTINUOUS
370
     0
390
2F3D
347
433A
  0
LAYER
  5
679
330
2
100
AcDbSymbolTableRecord
100
AcDbLayerTableRecord
  2
Defpoints
 70
     0
 62
     7
  6
CONTINUOUS
290
     0
370
     0
390
2F3D
347
433A
  0
LAYER
  5
1884
330
2
100
AcDbSymbolTableRecord
100
AcDbLayerTableRecord
  2
Layout
 70
     0
 62
     7
  6
CONTINUOUS
370
     0
390
2F3D
347
433A
  0
LAYER
  5
3FF1
330
2
100
AcDbSymbolTableRecord
100
AcDbLayerTableRecord
  2
Tooled area
 70
     0
 62
     7
  6
CONTINUOUS
370
    30
390
2F3D
347
433A
  0
LAYER
  5
3FF2
330
2
100
AcDbSymbolTableRecord
100
AcDbLayerTableRecord
  2
Layer1
 70
     0
 62
     7
  6
CONTINUOUS
370
    -3
390
2F3D
347
433A
  0
LAYER
  5
4019
330
2
100
AcDbSymbolTableRecord
100
AcDbLayerTableRecord
  2
HATCH
 70
     0
 62
     7
  6
CONTINUOUS
370
     0
390
2F3D
347
433A
  0
ENDTAB
  0
TABLE
  2
STYLE
  5
3
330
0
100
AcDbSymbolTable
 70
     3
  0
STYLE
  5
F
330
3
100
AcDbSymbolTableRecord
100
AcDbTextStyleTableRecord
  2
STANDARD
 70
     0
 40
0.0
 41
1.0
 50
0.0
 71
     0
 42
2.5
  3
txt
  4

  0
STYLE
  5
1D93
330
3
100
AcDbSymbolTableRecord
100
AcDbTextStyleTableRecord
  2
Swisslt
 70
     0
 40
0.18
 41
1.0
 50
0.0
 71
     0
 42
0.18
  3
swissel.ttf
  4

1001
ACAD
1000
Swis721 LtEx BT
1071
       34
  0
STYLE
  5
401A
330
3
100
AcDbSymbolTableRecord
100
AcDbTextStyleTableRecord
  2
BOX-PAPERSPACE
 70
     0
 40
0.3
 41
1.0
 50
0.0
 71
     0
 42
0.3
  3
swissel.ttf
  4

1001
ACAD
1000
Swis721 LtEx BT
1071
       34
  0
ENDTAB
  0
TABLE
  2
VIEW
  5
6
330
0
100
AcDbSymbolTable
 70
     0
  0
ENDTAB
  0
TABLE
  2
UCS
  5
7
330
0
100
AcDbSymbolTable
 70
     0
  0
ENDTAB
  0
TABLE
  2
APPID
  5
9
330
0
100
AcDbSymbolTable
 70
     6
  0
APPID
  5
10
330
9
100
AcDbSymbolTableRecord
100
AcDbRegAppTableRecord
  2
ACAD
 70
     0
  0
APPID
  5
F5
330
9
100
AcDbSymbolTableRecord
100
AcDbRegAppTableRecord
  2
CONTENTBLOCKICON
 70
     0
  0
APPID
  5
F6
330
9
100
AcDbSymbolTableRecord
100
AcDbRegAppTableRecord
  2
CONTENTBLOCKDESCRIPTION
 70
     0
  0
APPID
  5
796
330
9
100
AcDbSymbolTableRecord
100
AcDbRegAppTableRecord
  2
DRAWINGVARIABLESXDATA
 70
     0
  0
APPID
  5
1E31
330
9
100
AcDbSymbolTableRecord
100
AcDbRegAppTableRecord
  2
CONTENTTABDATA
 70
     0
  0
APPID
  5
1E32
330
9
100
AcDbSymbolTableRecord
100
AcDbRegAppTableRecord
  2
CONTENTCURRENTTAB
 70
     0
  0
ENDTAB
  0
TABLE
  2
DIMSTYLE
  5
A
330
0
100
AcDbSymbolTable
 70
     1
100
AcDbDimStyleTable
  0
DIMSTYLE
105
1D
330
A
100
AcDbSymbolTableRecord
100
AcDbDimStyleTableRecord
  2
STANDARD
 70
     0
178
     0
340
F
  0
ENDTAB
  0
TABLE
  2
BLOCK_RECORD
  5
1
330
0
100
AcDbSymbolTable
 70
     4
  0
BLOCK_RECORD
  5
18
102
{ACAD_XDICTIONARY
360
3E9
102
}
330
1
100
AcDbSymbolTableRecord
100
AcDbBlockTableRecord
  2
*MODEL_SPACE
340
2F40
 70
     0
280
     1
281
     0
  0
BLOCK_RECORD
  5
3A2A
102
{ACAD_XDICTIONARY
360
3A71
102
}
330
1
100
AcDbSymbolTableRecord
100
AcDbBlockTableRecord
  2
*PAPER_SPACE
340
3A75
 70
     0
280
     1
281
     0
  0
BLOCK_RECORD
  5
30AB
102
{ACAD_XDICTIONARY
360
3111
102
}
330
1
100
AcDbSymbolTableRecord
100
AcDbBlockTableRecord
  2
*PAPER_SPACE0
340
3115
 70
     0
280
     1
281
     0
  0
BLOCK_RECORD
  5
400D
330
1
100
AcDbSymbolTableRecord
100
AcDbBlockTableRecord
  2
North-arrow
340
0
310
2800000020000000200000000100040000000000000200000000000000000000000000000000000000000000000080000080000000808000800000008000800080800000C0C0C000808080000000FF0000FF000000FFFF00FF000000FF00FF00FFFF0000FFFFFF00FFFFFFFFFFFFFFFFFFFFFFFFFFFFFFFFFFFFFFFFFFF0FF
310
FFFFFFFFFFFFFFFFFFFFFFFFFFFFF0FFFFFFFFFFFFFFFFFFFFFFFFFFFFFFF0FFFFFFFFFFFFFFFFFFFFFFFFFFFFFFF0FFFFFFFFFFFFFFFFFFFFFFFFFFFFFFF0FFFFFFFFFFFFFFFFFFFFFFFFFFFFFFF0FFFFFFFFFFFFFFFFFFFFFFFFFFFFFFF0FFFFFFFFFFFFFFFFFFFFFFFFFFFFF000000FFFFFFFFFFFFFFFFFFFFFFFFFF0FF
310
FF0FFFFFFFFFFFFFFFFFFFFFFFFFF0FFFF0FFFFFFFFFFFFFFFFFFFFFFFFFF0FFFF0FFFFFFFFFFFFFFFFFFFFFFFFFF0FFFF0FFFFFFFFFFFFFFFFFFFFFFFFFF0FFFF0FFFFFFFFFFFFFFFFFFFFFFFFFF0FFFF0FFFFFFFFFFFFFFFFFFFFFFFFFF000000FFFFFFFFFFFFFFFFFFFFFFFFFFFFFFFFFFFFFFFFFFFFFFFFFFFFFFFFFFF
310
F0FFFFFFFFFFFFFFFFFFFFFFFFFFFFFFF0FFFFFFFFFFFFFFFFFFFFFFFFFFFFFFF0FFFFFFFFFFFFFFFFFFFFFFFFFFFFFFF0FFFFFFFFFFFFFFFFFFFFFFFFFFFFFFF0FFFFFFFFFFFFFFFFFFFFFFFFFFFFFFF0FFFFFFFFFFFFFFFFFFFFFFFFFFFFFFF00FFFFFFFFFFFFFFFFFFFFFFFFFFFFF0000FFFFFFFFFFFFFFFFFFFFFFFFFF
310
FF000FFFFFFFFFFFFFFFFFFFFFFFFFFFFF000FFFFFFFFFFFFFFFFFFFFFFFFFFFFFF00FFFFFFFFFFFFFFFFFFFFFFFFFFFFFF00FFFFFFFFFFFFFFFFFFFFFFFFFFFFFF0FFFFFFFFFFFFFFFFFFFFFFFFFFFFFFF0FFFFFFFFFFFFFFFFFFFFFFFFFFFFFFF0FFFFFFFFFFFFFFFFFFFF
102
{BLKREFS
331
4022
102
}
 70
     0
280
     1
281
     0
  0
BLOCK_RECORD
  5
4023
330
1
100
AcDbSymbolTableRecord
100
AcDbBlockTableRecord
  2
Section arrows
340
0
310
28000000200000002000000001000800000000000004000000000000000000000000000000000000000000004000000080000000FF000000002000004020000080200000FF200000004000004040000080400000FF400000006000004060000080600000FF600000008000004080000080800000FF80000000A0000040A000
310
0080A00000FFA0000000C0000040C0000080C00000FFC0000000FF000040FF000080FF0000FFFF0000000020004000200080002000FF002000002020004020200080202000FF202000004020004040200080402000FF402000006020004060200080602000FF602000008020004080200080802000FF80200000A0200040A0
310
200080A02000FFA0200000C0200040C0200080C02000FFC0200000FF200040FF200080FF2000FFFF2000000040004000400080004000FF004000002040004020400080204000FF204000004040004040400080404000FF404000006040004060400080604000FF604000008040004080400080804000FF80400000A0400040
310
A0400080A04000FFA0400000C0400040C0400080C04000FFC0400000FF400040FF400080FF4000FFFF4000000060004000600080006000FF006000002060004020600080206000FF206000004060004040600080406000FF406000006060004060600080606000FF606000008060004080600080806000FF80600000A06000
310
40A0600080A06000FFA0600000C0600040C0600080C06000FFC0600000FF600040FF600080FF6000FFFF6000000080004000800080008000FF008000002080004020800080208000FF208000004080004040800080408000FF408000006080004060800080608000FF608000008080004080800080808000FF80800000A080
310
0040A0800080A08000FFA0800000C0800040C0800080C08000FFC0800000FF800040FF800080FF8000FFFF80000000A0004000A0008000A000FF00A0000020A0004020A0008020A000FF20A0000040A0004040A0008040A000FF40A0000060A0004060A0008060A000FF60A0000080A0004080A0008080A000FF80A00000A0
310
A00040A0A00080A0A000FFA0A00000C0A00040C0A00080C0A000FFC0A00000FFA00040FFA00080FFA000FFFFA0000000C0004000C0008000C000FF00C0000020C0004020C0008020C000FF20C0000040C0004040C0008040C000FF40C0000060C0004060C0008060C000FF60C0000080C0004080C0008080C000FF80C00000
310
A0C00040A0C00080A0C000FFA0C00000C0C00040C0C00080C0C000FFC0C00000FFC00040FFC00080FFC000FFFFC0000000FF004000FF008000FF00FF00FF000020FF004020FF008020FF00FF20FF000040FF004040FF008040FF00FF40FF000060FF004060FF008060FF00FF60FF000080FF004080FF008080FF00FF80FF00
310
00A0FF0040A0FF0080A0FF00FFA0FF0000C0FF0040C0FF0080C0FF00FFC0FF0000FFFF0040FFFF0080FFFF00FFFFFF00FFFFFFFFFFFFFFFFFFFFFFFFFFFFFFFFFFFFFFFFFFFFFFFFFFFFFFFFFFFFFFFFFFFFFFFFFFFF0000000000000000000000000000000000000000FFFFFFFFFFFFFFFFFFFFFFFF0000FFFFFFFFFFFFFF
310
FF00FFFFFFFFFFFFFF0000FFFFFFFFFFFFFFFFFFFFFFFFFF0000FFFFFFFFFFFFFF00FFFFFFFFFFFF0000FFFFFFFFFFFFFFFFFFFFFFFFFFFF00FF00FFFFFFFFFFFF00FFFFFFFFFF00FF00FFFFFFFFFFFFFFFFFFFFFFFFFFFF00FFFF00FFFFFFFFFF00FFFFFFFF00FFFF00FFFFFFFFFFFFFFFFFFFFFFFFFFFFFF00FFFF00FFFF
310
FFFF00FFFFFF0000FF00FFFFFFFFFFFFFFFFFFFFFFFFFFFFFFFF00FFFFFF00FFFFFF00FFFFFF00FFFF00FFFFFFFFFFFFFFFFFFFFFFFFFFFFFFFF00FFFFFFFF00FFFF00FFFF00FFFFFF00FFFFFFFFFFFFFFFFFFFFFFFFFFFFFFFFFF00FFFFFFFF00FF00FF00FFFFFFFF00FFFFFFFFFFFFFFFFFFFFFFFFFFFFFFFFFF00FFFFFF
310
FFFF000000FFFFFFFF00FFFFFFFFFFFFFFFFFFFFFFFFFFFFFFFFFFFF00FFFFFFFFFFFF00FFFFFFFFFF00FFFFFFFFFFFFFFFFFFFFFFFFFFFFFFFFFFFFFF00FFFFFFFFFF00FFFFFFFFFF00FFFFFFFFFFFFFFFFFFFFFFFFFFFFFFFFFFFFFF00FFFFFFFFFF00FFFFFFFF00FFFFFFFFFFFFFFFFFFFFFFFFFFFFFFFFFFFFFFFF00FF
310
FFFFFFFF00FFFFFFFF00FFFFFFFFFFFFFFFFFFFFFFFFFFFFFFFFFFFFFFFFFF00FFFFFFFF00FFFFFFFF00FFFFFFFFFFFFFFFFFFFFFFFFFFFFFFFFFFFFFFFFFF00FFFFFFFF00FFFFFF00FFFFFFFFFFFFFFFFFFFFFFFFFFFFFFFFFFFFFFFFFFFFFF00FFFFFF00FFFFFF00FFFFFFFFFFFFFFFFFFFFFFFFFFFFFFFFFFFFFFFFFFFF
310
FF00FFFFFF00FFFFFF00FFFFFFFFFFFFFFFFFFFFFFFFFFFFFFFFFFFFFFFFFFFFFF00FFFFFF00FFFF00FFFFFFFFFFFFFFFFFFFFFFFFFFFFFFFFFFFFFFFFFFFFFFFFFF00FFFF00FFFF00FFFFFFFFFFFFFFFFFFFFFFFFFFFFFFFFFFFFFFFFFFFFFFFFFF00FFFF00FFFF00FFFFFFFFFFFFFFFFFFFFFFFFFFFFFFFFFFFFFFFFFFFF
310
FFFFFF00FFFF00FF00FFFFFFFFFFFFFFFFFFFFFFFFFFFFFFFFFFFFFFFFFFFFFFFFFFFFFF00FF00FF00FFFFFFFFFFFFFFFFFFFFFFFFFFFFFFFFFFFFFFFFFFFFFFFFFFFFFF00FF00FF00FFFFFFFFFFFFFFFFFFFFFFFFFFFFFFFFFFFFFFFFFFFFFFFFFFFFFF00FF00FF00FFFFFFFFFFFFFFFFFFFFFFFFFFFFFFFFFFFFFFFFFFFF
310
FFFFFFFFFFFF000000FFFFFFFFFFFFFFFFFFFFFFFFFFFFFFFFFFFFFFFFFFFFFFFFFFFFFFFFFF000000FFFFFFFFFFFFFFFFFFFFFFFFFFFFFFFFFFFFFFFFFFFFFFFFFFFFFFFFFF000000FFFFFFFFFFFFFFFFFFFFFFFFFFFFFFFFFFFFFFFFFFFFFFFFFFFFFFFFFFFF00FFFFFFFFFFFFFFFFFFFFFFFFFFFFFFFFFFFFFFFFFFFFFF
310
FFFFFFFFFFFFFFFF00FFFFFFFFFFFFFFFFFFFFFFFFFFFFFFFFFFFFFFFFFFFFFFFFFFFFFFFFFFFFFFFFFFFFFFFFFFFFFFFFFFFFFFFFFFFFFF
102
{BLKREFS
331
402C
331
4035
331
4037
331
4038
331
4039
331
403B
331
403C
102
}
 70
     0
280
     1
281
     0
  0
BLOCK_RECORD
  5
402B
330
1
100
AcDbSymbolTableRecord
100
AcDbBlockTableRecord
  2
A$C08900545
340
0
 70
     0
280
     1
281
     0
  0
ENDTAB
  0
ENDSEC
  0
SECTION
  2
BLOCKS
  0
BLOCK
  5
19
330
18
100
AcDbEntity
  8
0
370
    -1
100
AcDbBlockBegin
  2
*MODEL_SPACE
 70
     0
 10
0.0
 20
0.0
 30
0.0
  3
*MODEL_SPACE
  1

  0
ENDBLK
  5
1A
330
18
100
AcDbEntity
  8
0
370
    -1
100
AcDbBlockEnd
  0
BLOCK
  5
3A73
330
3A2A
100
AcDbEntity
 67
     1
  8
0
370
    -1
100
AcDbBlockBegin
  2
*PAPER_SPACE
 70
     0
 10
0.0
 20
0.0
 30
0.0
  3
*PAPER_SPACE
  1

  0
ENDBLK
  5
3A74
330
3A2A
100
AcDbEntity
 67
     1
  8
0
370
    -1
100
AcDbBlockEnd
  0
BLOCK
  5
3113
330
30AB
100
AcDbEntity
  8
0
370
    -1
100
AcDbBlockBegin
  2
*PAPER_SPACE0
 70
     0
 10
0.0
 20
0.0
 30
0.0
  3
*PAPER_SPACE0
  1

  0
VIEWPORT
  5
30AC
330
30AB
100
AcDbEntity
  8
0
100
AcDbViewport
 10
50.78859714646413
 20
482.5891788849064
 30
0.0
 40
102.868141255253
 41
90.34719804757302
 68
     1
 69
     1
 12
50.78859714646413
 22
482.5891788849064
 13
0.0
 23
0.0
 14
0.5
 24
0.5
 15
10.0
 25
10.0
 16
0.0
 26
0.0
 36
1.0
 17
0.0
 27
0.0
 37
0.0
 42
50.0
 43
0.0
 44
0.0
 45
90.34719804757302
 50
0.0
 51
0.0
 72
   100
 90
    32800
  1

281
     0
 71
     1
 74
     0
110
0.0
120
0.0
130
0.0
111
1.0
121
0.0
131
0.0
112
0.0
122
1.0
132
0.0
 79
     0
146
0.0
170
     0
 61
     5
348
4301
292
     1
282
     1
141
0.0
142
0.0
 63
   256
  0
VIEWPORT
  5
30BB
330
30AB
100
AcDbEntity
  8
Layout
 48
0.5
100
AcDbViewport
 10
53.72587888201582
 20
492.8799339107171
 30
0.0
 40
39.2796566706434
 41
26.13444041911365
 69
    -1
 12
23.16568811685801
 22
15.68609846772222
 13
0.0
 23
0.0
 14
10.0
 24
10.0
 15
10.0
 25
10.0
 16
0.0
 26
0.0
 36
1.0
 17
0.0
 27
0.0
 37
0.0
 42
50.0
 43
0.0
 44
0.0
 45
35.62640897847624
 50
0.0
 51
0.0
 72
   100
 90
   164384
  1

281
     0
 71
     1
 74
     0
110
0.0
120
0.0
130
0.0
111
1.0
121
0.0
131
0.0
112
0.0
122
1.0
132
0.0
 79
     0
146
0.0
170
     0
 61
     5
348
4301
292
     1
282
     1
141
0.0
142
0.0
 63
   256
  0
VIEWPORT
  5
30BD
330
30AB
100
AcDbEntity
  8
Layout
 48
0.1
100
AcDbViewport
 10
53.72587888201582
 20
492.8799339107171
 30
0.0
 40
39.27965667064341
 41
26.13444041911362
 68
     2
 69
     3
 12
57.52278205857122
 22
48.23290347551913
 13
0.0
 23
0.0
 14
0.25
 24
0.25
 15
10.0
 25
10.0
 16
0.0
 26
0.0
 36
1.0
 17
0.0
 27
0.0
 37
0.0
 42
50.0
 43
0.0
 44
0.0
 45
43.55740106459346
 50
0.0
 51
0.0
 72
   100
 90
    32800
  1

281
     0
 71
     1
 74
     0
110
0.0
120
0.0
130
0.0
111
1.0
121
0.0
131
0.0
112
0.0
122
1.0
132
0.0
 79
     0
146
0.0
170
     0
 61
     5
348
4301
292
     1
282
     1
141
0.0
142
0.0
 63
   256
  0
VIEWPORT
  5
30C5
330
30AB
100
AcDbEntity
  8
Layout
 48
0.1
100
AcDbViewport
 10
47.28808941862097
 20
467.4040333751955
 30
0.0
 40
27.01698194404425
 41
17.15704141801263
 69
    -1
 12
214.8317549297023
 22
78.54602710947385
 13
0.0
 23
0.0
 14
10.0
 24
10.0
 15
10.0
 25
10.0
 16
0.0
 26
0.0
 36
1.0
 17
0.0
 27
0.0
 37
0.0
 42
50.0
 43
0.0
 44
0.0
 45
259.0781751362616
 50
0.0
 51
0.0
 72
   100
 90
   164384
  1

281
     0
 71
     1
 74
     0
110
0.0
120
0.0
130
0.0
111
1.0
121
0.0
131
0.0
112
0.0
122
1.0
132
0.0
 79
     0
146
0.0
170
     0
 61
     5
348
4301
292
     1
282
     1
141
0.0
142
0.0
 63
   256
  0
VIEWPORT
  5
30C6
330
30AB
100
AcDbEntity
  8
Layout
 48
0.1
100
AcDbViewport
 10
47.28808941862097
 20
467.4040333751955
 30
0.0
 40
27.01698194404425
 41
17.15704141801263
 69
    -1
 12
208.3067458143732
 22
114.7088455048707
 13
0.0
 23
0.0
 14
0.25
 24
0.25
 15
10.0
 25
10.0
 16
0.0
 26
0.0
 36
1.0
 17
0.0
 27
0.0
 37
0.0
 42
50.0
 43
0.0
 44
0.0
 45
352.5082325719769
 50
0.0
 51
0.0
 72
   100
 90
   163872
  1

281
     0
 71
     1
 74
     0
110
0.0
120
0.0
130
0.0
111
1.0
121
0.0
131
0.0
112
0.0
122
1.0
132
0.0
 79
     0
146
0.0
170
     0
 61
     5
348
4301
292
     1
282
     1
141
0.0
142
0.0
 63
   256
  0
VIEWPORT
  5
30C7
330
30AB
100
AcDbEntity
  8
Layout
 48
0.1
100
AcDbViewport
 10
47.28808941862097
 20
467.4040333751955
 30
0.0
 40
27.01698194404427
 41
17.15704141801263
 68
     3
 69
     6
 12
130.0124820246822
 22
39.19221297555197
 13
0.0
 23
0.0
 14
0.25
 24
0.25
 15
10.0
 25
10.0
 16
0.0
 26
0.0
 36
1.0
 17
0.0
 27
0.0
 37
0.0
 42
50.0
 43
0.0
 44
0.0
 45
28.59506903002105
 50
0.0
 51
0.0
 72
   100
 90
    32800
  1

281
     0
 71
     1
 74
     0
110
0.0
120
0.0
130
0.0
111
1.0
121
0.0
131
0.0
112
0.0
122
1.0
132
0.0
 79
     0
146
0.0
170
     0
 61
     5
348
4301
292
     1
282
     1
141
0.0
142
0.0
 63
   256
  0
VIEWPORT
  5
30CA
330
30AB
100
AcDbEntity
  8
Layout
 48
0.1
100
AcDbViewport
 10
17.94947732112281
 20
477.3526441138475
 30
0.0
 40
27.36278405476667
 41
37.4526335732189
 69
    -1
 12
19.45629346482244
 22
4.131117493225554
 13
0.0
 23
0.0
 14
10.0
 24
10.0
 15
10.0
 25
10.0
 16
0.0
 26
0.0
 36
1.0
 17
0.0
 27
0.0
 37
0.0
 42
50.0
 43
0.0
 44
0.0
 45
64.59458350782997
 50
0.0
 51
0.0
 72
   100
 90
   164384
  1

281
     0
 71
     1
 74
     0
110
0.0
120
0.0
130
0.0
111
1.0
121
0.0
131
0.0
112
0.0
122
1.0
132
0.0
 79
     0
146
0.0
170
     0
 61
     5
348
4301
292
     1
282
     1
141
0.0
142
0.0
 63
   256
  0
VIEWPORT
  5
30CD
330
30AB
100
AcDbEntity
  8
Layout
 48
0.1
100
AcDbViewport
 10
86.07947512550393
 20
492.8058812346018
 30
0.0
 40
18.58325166830521
 41
25.98633506688305
 69
    -1
 12
156.5736056244203
 22
112.0526464210261
 13
0.0
 23
0.0
 14
10.0
 24
10.0
 15
10.0
 25
10.0
 16
0.0
 26
0.0
 36
1.0
 17
0.0
 27
0.0
 37
0.0
 42
50.0
 43
0.0
 44
0.0
 45
245.2095258621329
 50
0.0
 51
0.0
 72
   100
 90
   164384
  1

281
     0
 71
     1
 74
     0
110
0.0
120
0.0
130
0.0
111
1.0
121
0.0
131
0.0
112
0.0
122
1.0
132
0.0
 79
     0
146
0.0
170
     0
 61
     5
348
4301
292
     1
282
     1
141
0.0
142
0.0
 63
   256
  0
VIEWPORT
  5
3107
330
30AB
100
AcDbEntity
  8
Layout
 48
0.1
100
AcDbViewport
 10
17.94947732112281
 20
477.3526441138475
 30
0.0
 40
27.36278405476668
 41
37.45263357321892
 68
     4
 69
     9
 12
210.0
 22
162.1077598215022
 13
0.0
 23
0.0
 14
0.25
 24
0.25
 15
10.0
 25
10.0
 16
0.0
 26
0.0
 36
1.0
 17
0.0
 27
0.0
 37
0.0
 42
50.0
 43
0.0
 44
0.0
 45
593.4165487582003
 50
0.0
 51
0.0
 72
   100
 90
    32800
  1

281
     0
 71
     1
 74
     0
110
0.0
120
0.0
130
0.0
111
1.0
121
0.0
131
0.0
112
0.0
122
1.0
132
0.0
 79
     0
146
0.0
170
     0
 61
     5
348
4301
292
     1
282
     1
141
0.0
142
0.0
 63
   256
  0
VIEWPORT
  5
3108
330
30AB
100
AcDbEntity
  8
Layout
 48
0.1
100
AcDbViewport
 10
86.07947512550393
 20
492.8058812346018
 30
0.0
 40
18.58325166830519
 41
25.9863350668831
 68
     5
 69
    10
 12
189.669676904447
 22
178.469724513822
 13
0.0
 23
0.0
 14
0.25
 24
0.25
 15
10.0
 25
10.0
 16
0.0
 26
0.0
 36
1.0
 17
0.0
 27
0.0
 37
0.0
 42
50.0
 43
0.0
 44
0.0
 45
674.8184773065559
 50
0.0
 51
0.0
 72
   100
 90
    32800
  1

281
     0
 71
     1
 74
     0
110
0.0
120
0.0
130
0.0
111
1.0
121
0.0
131
0.0
112
0.0
122
1.0
132
0.0
 79
     0
146
0.0
170
     0
 61
     5
348
4301
292
     1
282
     1
141
0.0
142
0.0
 63
   256
  0
LWPOLYLINE
  5
3109
330
30AB
100
AcDbEntity
  8
Layout
 48
0.1
100
AcDbPolyline
 90
        4
 70
     1
 43
0.03
 10
34.08605054669412
 20
505.9471541202739
 10
73.36570721733753
 20
505.9471541202739
 10
73.36570721733753
 20
479.8127137011602
 10
34.08605054669411
 20
479.8127137011602
  0
LWPOLYLINE
  5
310B
330
30AB
100
AcDbEntity
  8
Layout
 48
0.1
100
AcDbPolyline
 90
        4
 70
     1
 43
0.03
 10
76.78784929135134
 20
505.7990487680433
 10
95.37110095965653
 20
505.7990487680433
 10
95.37110095965653
 20
479.8127137011602
 10
76.78784929135134
 20
479.8127137011602
  0
LWPOLYLINE
  5
310D
330
30AB
100
AcDbEntity
  8
Layout
 48
0.1
100
AcDbPolyline
 90
        4
 70
     1
 43
0.03
 10
33.77959844659885
 20
475.9825540842018
 10
60.7965803906431
 20
475.9825540842018
 10
60.7965803906431
 20
458.8255126661891
 10
33.77959844659885
 20
458.8255126661891
  0
LWPOLYLINE
  5
3110
330
30AB
100
AcDbEntity
  8
Layout
 48
0.1
100
AcDbPolyline
 90
        4
 70
     1
 43
0.03
 10
31.63086934850615
 20
458.6263273272381
 10
31.63086934850615
 20
496.078960900457
 10
4.268085293739469
 20
496.078960900457
 10
4.268085293739469
 20
458.6263273272381
  0
LWPOLYLINE
  5
3949
330
30AB
100
AcDbEntity
  8
Layout
100
AcDbPolyline
 90
        2
 70
     0
 43
0.0
 10
49.88208315294021
 20
457.2729293134292
 10
49.88208315294023
 20
458.5880069749211
  0
LWPOLYLINE
  5
3953
330
30AB
100
AcDbEntity
  8
Layout
 48
0.1
100
AcDbPolyline
 90
        4
 70
     1
 43
0.03
 10
45.9482579414775
 20
458.5880069749211
 10
60.77054661279238
 20
458.5880069749211
 10
60.77054661279234
 20
457.2729293134292
 10
45.9482579414775
 20
457.2729293134292
  0
MTEXT
  5
3956
330
30AB
100
AcDbEntity
  8
Layout
100
AcDbMText
 10
46.07787384358114
 20
458.3268902875953
 30
0.0
 40
0.16
 41
8.2194
 46
0.0
 71
     1
 72
     5
  1
{\fTimes New Roman|b0|i0|c0|p16;© \fTimes New Roman|b1|i0|c0|p18;ARCHAEOLOGY SOUTH EAST}
 73
     1
 44
1.0
  0
LWPOLYLINE
  5
3958
330
30AB
100
AcDbEntity
  8
Layout
 48
0.1
100
AcDbPolyline
 90
        2
 70
     0
 43
0.0
 10
59.53063273536612
 20
458.5880069749211
 10
59.53063273536612
 20
457.2729293134292
  0
LWPOLYLINE
  5
3959
330
30AB
100
AcDbEntity
  8
Layout
 48
0.1
100
AcDbPolyline
 90
        2
 70
     0
 43
0.0
 10
49.8820831529402
 20
457.2729293134292
 10
45.9482579414775
 20
457.2729293134292
  0
MTEXT
  5
395B
330
30AB
100
AcDbEntity
  8
Layout
 48
0.1
100
AcDbMText
 10
60.15058273536612
 20
457.9304681441752
 30
0.0
 40
0.2
 41
1.2399
 46
0.0
 71
     5
 72
     5
  1
Fig. 
  7
Swisslt
 73
     1
 44
1.0
  0
LWPOLYLINE
  5
395D
330
30AB
100
AcDbEntity
  8
Layout
 48
0.1
100
AcDbPolyline
 90
        2
 70
     0
 43
0.0
 10
59.53063273536612
 20
458.5880069749211
 10
59.53063273536612
 20
457.2729293134292
  0
LWPOLYLINE
  5
395E
330
30AB
100
AcDbEntity
  8
Layout
 48
0.1
100
AcDbPolyline
 90
        2
 70
     0
 43
0.0
 10
59.53063273536612
 20
457.9304681441752
 10
45.9482579414775
 20
457.9304681441752
  0
LWPOLYLINE
  5
395F
330
30AB
100
AcDbEntity
  8
Layout
 48
0.1
100
AcDbPolyline
 90
        2
 70
     0
 43
0.0
 10
45.9482579414775
 20
457.9304681441752
 10
49.88208315294023
 20
457.9304681441752
  0
LWPOLYLINE
  5
3960
330
30AB
100
AcDbEntity
  8
Layout
 48
0.1
100
AcDbPolyline
 90
        2
 70
     0
 43
0.0
 10
47.91517054720886
 20
457.9304681441752
 10
47.91517054720886
 20
457.2729293134292
  0
MTEXT
  5
3961
330
30AB
100
AcDbEntity
  8
Layout
 48
0.1
100
AcDbMText
 10
46.9317079414775
 20
457.6016987288022
 30
0.0
 40
0.18
 41
1.9669
 46
0.0
 71
     5
 72
     5
  1
Ref: 1
  7
Swisslt
 73
     1
 44
1.0
  0
MTEXT
  5
3962
330
30AB
100
AcDbEntity
  8
Layout
 48
0.1
100
AcDbMText
 10
48.89862054720886
 20
457.6016987288022
 30
0.0
 40
0.18
 41
1.9669
 46
0.0
 71
     5
 72
     5
  1
 2004
  7
Swisslt
 73
     1
 44
1.0
  0
MTEXT
  5
3963
330
30AB
100
AcDbEntity
  8
Layout
 48
0.1
100
AcDbMText
 10
54.70633315294023
 20
458.2592375595481
 30
0.0
 40
0.2
 41
9.6485
 46
0.0
 71
     5
 72
     5
  1
S
  7
Swisslt
 73
     1
 44
1.0
  0
MTEXT
  5
3964
330
30AB
100
AcDbEntity
  8
Layout
 48
0.1
100
AcDbMText
 10
54.70633315294022
 20
457.6016987288022
 30
0.0
 40
0.2
 41
9.6485
 46
0.0
 71
     5
 72
     5
  1
S
  7
Swisslt
 73
     1
 44
1.0
  0
LWPOLYLINE
  5
3965
330
30AB
100
AcDbEntity
  8
Layout
100
AcDbPolyline
 90
        2
 70
     0
 43
0.0
 10
62.45120997963465
 20
478.2601303484004
 10
62.45120997963467
 20
479.5752080098922
  0
LWPOLYLINE
  5
3966
330
30AB
100
AcDbEntity
  8
Layout
 48
0.1
100
AcDbPolyline
 90
        4
 70
     1
 43
0.03
 10
58.51738476817194
 20
479.5752080098922
 10
73.33967343948682
 20
479.5752080098922
 10
73.33967343948677
 20
478.2601303484004
 10
58.51738476817194
 20
478.2601303484004
  0
MTEXT
  5
3967
330
30AB
100
AcDbEntity
  8
Layout
100
AcDbMText
 10
58.64700067027557
 20
479.3140913225664
 30
0.0
 40
0.16
 41
8.2194
 46
0.0
 71
     1
 72
     5
  1
{\fTimes New Roman|b0|i0|c0|p16;© \fTimes New Roman|b1|i0|c0|p18;ARCHAEOLOGY SOUTH EAST}
 73
     1
 44
1.0
  0
LWPOLYLINE
  5
3968
330
30AB
100
AcDbEntity
  8
Layout
 48
0.1
100
AcDbPolyline
 90
        2
 70
     0
 43
0.0
 10
72.09975956206056
 20
479.5752080098922
 10
72.09975956206056
 20
478.2601303484004
  0
LWPOLYLINE
  5
3969
330
30AB
100
AcDbEntity
  8
Layout
 48
0.1
100
AcDbPolyline
 90
        2
 70
     0
 43
0.0
 10
62.45120997963464
 20
478.2601303484004
 10
58.51738476817194
 20
478.2601303484004
  0
MTEXT
  5
396A
330
30AB
100
AcDbEntity
  8
Layout
 48
0.1
100
AcDbMText
 10
72.71970956206056
 20
478.9176691791463
 30
0.0
 40
0.2
 41
1.2399
 46
0.0
 71
     5
 72
     5
  1
Fig. 
  7
Swisslt
 73
     1
 44
1.0
  0
LWPOLYLINE
  5
396B
330
30AB
100
AcDbEntity
  8
Layout
 48
0.1
100
AcDbPolyline
 90
        2
 70
     0
 43
0.0
 10
72.09975956206056
 20
479.5752080098922
 10
72.09975956206056
 20
478.2601303484004
  0
LWPOLYLINE
  5
396C
330
30AB
100
AcDbEntity
  8
Layout
 48
0.1
100
AcDbPolyline
 90
        2
 70
     0
 43
0.0
 10
72.09975956206056
 20
478.9176691791463
 10
58.51738476817194
 20
478.9176691791463
  0
LWPOLYLINE
  5
396D
330
30AB
100
AcDbEntity
  8
Layout
 48
0.1
100
AcDbPolyline
 90
        2
 70
     0
 43
0.0
 10
58.51738476817194
 20
478.9176691791463
 10
62.45120997963466
 20
478.9176691791463
  0
LWPOLYLINE
  5
396E
330
30AB
100
AcDbEntity
  8
Layout
 48
0.1
100
AcDbPolyline
 90
        2
 70
     0
 43
0.0
 10
60.4842973739033
 20
478.9176691791463
 10
60.4842973739033
 20
478.2601303484004
  0
MTEXT
  5
396F
330
30AB
100
AcDbEntity
  8
Layout
 48
0.1
100
AcDbMText
 10
59.50083476817193
 20
478.5888997637733
 30
0.0
 40
0.18
 41
1.9669
 46
0.0
 71
     5
 72
     5
  1
Ref: 1
  7
Swisslt
 73
     1
 44
1.0
  0
MTEXT
  5
3970
330
30AB
100
AcDbEntity
  8
Layout
 48
0.1
100
AcDbMText
 10
61.46774737390329
 20
478.5888997637733
 30
0.0
 40
0.18
 41
1.9669
 46
0.0
 71
     5
 72
     5
  1
 2004
  7
Swisslt
 73
     1
 44
1.0
  0
MTEXT
  5
3971
330
30AB
100
AcDbEntity
  8
Layout
 48
0.1
100
AcDbMText
 10
67.27545997963466
 20
479.2464385945192
 30
0.0
 40
0.2
 41
9.6485
 46
0.0
 71
     5
 72
     5
  1
S
  7
Swisslt
 73
     1
 44
1.0
  0
MTEXT
  5
3972
330
30AB
100
AcDbEntity
  8
Layout
 48
0.1
100
AcDbMText
 10
67.27545997963466
 20
478.5888997637733
 30
0.0
 40
0.2
 41
9.6485
 46
0.0
 71
     5
 72
     5
  1
S
  7
Swisslt
 73
     1
 44
1.0
  0
LWPOLYLINE
  5
3981
330
30AB
100
AcDbEntity
  8
Layout
100
AcDbPolyline
 90
        2
 70
     0
 43
0.0
 10
84.45660372195366
 20
478.2601303484004
 10
84.45660372195367
 20
479.5752080098922
  0
LWPOLYLINE
  5
3982
330
30AB
100
AcDbEntity
  8
Layout
 48
0.1
100
AcDbPolyline
 90
        4
 70
     1
 43
0.03
 10
80.52277851049094
 20
479.5752080098922
 10
95.34506718180582
 20
479.5752080098922
 10
95.34506718180577
 20
478.2601303484004
 10
80.52277851049094
 20
478.2601303484004
  0
MTEXT
  5
3983
330
30AB
100
AcDbEntity
  8
Layout
100
AcDbMText
 10
80.65239441259457
 20
479.3140913225664
 30
0.0
 40
0.16
 41
8.2194
 46
0.0
 71
     1
 72
     5
  1
{\fTimes New Roman|b0|i0|c0|p16;© \fTimes New Roman|b1|i0|c0|p18;ARCHAEOLOGY SOUTH EAST}
 73
     1
 44
1.0
  0
LWPOLYLINE
  5
3984
330
30AB
100
AcDbEntity
  8
Layout
 48
0.1
100
AcDbPolyline
 90
        2
 70
     0
 43
0.0
 10
94.10515330437956
 20
479.5752080098922
 10
94.10515330437956
 20
478.2601303484004
  0
LWPOLYLINE
  5
3985
330
30AB
100
AcDbEntity
  8
Layout
 48
0.1
100
AcDbPolyline
 90
        2
 70
     0
 43
0.0
 10
84.45660372195364
 20
478.2601303484004
 10
80.52277851049094
 20
478.2601303484004
  0
MTEXT
  5
3986
330
30AB
100
AcDbEntity
  8
Layout
 48
0.1
100
AcDbMText
 10
94.72510330437956
 20
478.9176691791463
 30
0.0
 40
0.2
 41
1.2399
 46
0.0
 71
     5
 72
     5
  1
Fig. 
  7
Swisslt
 73
     1
 44
1.0
  0
LWPOLYLINE
  5
3987
330
30AB
100
AcDbEntity
  8
Layout
 48
0.1
100
AcDbPolyline
 90
        2
 70
     0
 43
0.0
 10
94.10515330437956
 20
479.5752080098922
 10
94.10515330437956
 20
478.2601303484004
  0
LWPOLYLINE
  5
3988
330
30AB
100
AcDbEntity
  8
Layout
 48
0.1
100
AcDbPolyline
 90
        2
 70
     0
 43
0.0
 10
94.10515330437956
 20
478.9176691791463
 10
80.52277851049094
 20
478.9176691791463
  0
LWPOLYLINE
  5
3989
330
30AB
100
AcDbEntity
  8
Layout
 48
0.1
100
AcDbPolyline
 90
        2
 70
     0
 43
0.0
 10
80.52277851049094
 20
478.9176691791463
 10
84.45660372195366
 20
478.9176691791463
  0
LWPOLYLINE
  5
398A
330
30AB
100
AcDbEntity
  8
Layout
 48
0.1
100
AcDbPolyline
 90
        2
 70
     0
 43
0.0
 10
82.4896911162223
 20
478.9176691791463
 10
82.4896911162223
 20
478.2601303484004
  0
MTEXT
  5
398B
330
30AB
100
AcDbEntity
  8
Layout
 48
0.1
100
AcDbMText
 10
81.50622851049093
 20
478.5888997637733
 30
0.0
 40
0.18
 41
1.9669
 46
0.0
 71
     5
 72
     5
  1
Ref: 1
  7
Swisslt
 73
     1
 44
1.0
  0
MTEXT
  5
398C
330
30AB
100
AcDbEntity
  8
Layout
 48
0.1
100
AcDbMText
 10
83.4731411162223
 20
478.5888997637733
 30
0.0
 40
0.18
 41
1.9669
 46
0.0
 71
     5
 72
     5
  1
 2004
  7
Swisslt
 73
     1
 44
1.0
  0
MTEXT
  5
398D
330
30AB
100
AcDbEntity
  8
Layout
 48
0.1
100
AcDbMText
 10
89.28085372195366
 20
479.2464385945192
 30
0.0
 40
0.2
 41
9.6485
 46
0.0
 71
     5
 72
     5
  1
S
  7
Swisslt
 73
     1
 44
1.0
  0
MTEXT
  5
398E
330
30AB
100
AcDbEntity
  8
Layout
 48
0.1
100
AcDbMText
 10
89.28085372195366
 20
478.5888997637733
 30
0.0
 40
0.2
 41
9.6485
 46
0.0
 71
     5
 72
     5
  1
S
  7
Swisslt
 73
     1
 44
1.0
  0
LWPOLYLINE
  5
398F
330
30AB
100
AcDbEntity
  8
Layout
100
AcDbPolyline
 90
        2
 70
     0
 43
0.0
 10
20.71637211080326
 20
457.0737439744782
 10
20.71637211080328
 20
458.38882163597
  0
LWPOLYLINE
  5
3990
330
30AB
100
AcDbEntity
  8
Layout
 48
0.1
100
AcDbPolyline
 90
        4
 70
     1
 43
0.03
 10
16.78254689934055
 20
458.38882163597
 10
31.60483557065542
 20
458.38882163597
 10
31.60483557065538
 20
457.0737439744782
 10
16.78254689934055
 20
457.0737439744782
  0
MTEXT
  5
3991
330
30AB
100
AcDbEntity
  8
Layout
100
AcDbMText
 10
16.91216280144418
 20
458.1277049486442
 30
0.0
 40
0.16
 41
8.2194
 46
0.0
 71
     1
 72
     5
  1
{\fTimes New Roman|b0|i0|c0|p16;© \fTimes New Roman|b1|i0|c0|p18;ARCHAEOLOGY SOUTH EAST}
 73
     1
 44
1.0
  0
LWPOLYLINE
  5
3992
330
30AB
100
AcDbEntity
  8
Layout
 48
0.1
100
AcDbPolyline
 90
        2
 70
     0
 43
0.0
 10
30.36492169322916
 20
458.38882163597
 10
30.36492169322916
 20
457.0737439744782
  0
LWPOLYLINE
  5
3993
330
30AB
100
AcDbEntity
  8
Layout
 48
0.1
100
AcDbPolyline
 90
        2
 70
     0
 43
0.0
 10
20.71637211080325
 20
457.0737439744782
 10
16.78254689934055
 20
457.0737439744782
  0
MTEXT
  5
3994
330
30AB
100
AcDbEntity
  8
Layout
 48
0.1
100
AcDbMText
 10
30.98487169322917
 20
457.7312828052241
 30
0.0
 40
0.2
 41
1.2399
 46
0.0
 71
     5
 72
     5
  1
Fig. 
  7
Swisslt
 73
     1
 44
1.0
  0
LWPOLYLINE
  5
3995
330
30AB
100
AcDbEntity
  8
Layout
 48
0.1
100
AcDbPolyline
 90
        2
 70
     0
 43
0.0
 10
30.36492169322916
 20
458.38882163597
 10
30.36492169322916
 20
457.0737439744782
  0
LWPOLYLINE
  5
3996
330
30AB
100
AcDbEntity
  8
Layout
 48
0.1
100
AcDbPolyline
 90
        2
 70
     0
 43
0.0
 10
30.36492169322916
 20
457.7312828052241
 10
16.78254689934055
 20
457.7312828052241
  0
LWPOLYLINE
  5
3997
330
30AB
100
AcDbEntity
  8
Layout
 48
0.1
100
AcDbPolyline
 90
        2
 70
     0
 43
0.0
 10
16.78254689934055
 20
457.7312828052241
 10
20.71637211080327
 20
457.7312828052241
  0
LWPOLYLINE
  5
3998
330
30AB
100
AcDbEntity
  8
Layout
 48
0.1
100
AcDbPolyline
 90
        2
 70
     0
 43
0.0
 10
18.7494595050719
 20
457.7312828052241
 10
18.7494595050719
 20
457.0737439744782
  0
MTEXT
  5
3999
330
30AB
100
AcDbEntity
  8
Layout
 48
0.1
100
AcDbMText
 10
17.76599689934054
 20
457.4025133898512
 30
0.0
 40
0.18
 41
1.9669
 46
0.0
 71
     5
 72
     5
  1
Ref: 1
  7
Swisslt
 73
     1
 44
1.0
  0
MTEXT
  5
399A
330
30AB
100
AcDbEntity
  8
Layout
 48
0.1
100
AcDbMText
 10
19.7329095050719
 20
457.4025133898512
 30
0.0
 40
0.18
 41
1.9669
 46
0.0
 71
     5
 72
     5
  1
 2004
  7
Swisslt
 73
     1
 44
1.0
  0
MTEXT
  5
399B
330
30AB
100
AcDbEntity
  8
Layout
 48
0.1
100
AcDbMText
 10
25.54062211080328
 20
458.0600522205971
 30
0.0
 40
0.2
 41
9.6485
 46
0.0
 71
     5
 72
     5
  1
S
  7
Swisslt
 73
     1
 44
1.0
  0
MTEXT
  5
399C
330
30AB
100
AcDbEntity
  8
Layout
 48
0.1
100
AcDbMText
 10
25.54062211080327
 20
457.4025133898512
 30
0.0
 40
0.2
 41
9.6485
 46
0.0
 71
     5
 72
     5
  1
S
  7
Swisslt
 73
     1
 44
1.0
  0
ENDBLK
  5
3114
330
30AB
100
AcDbEntity
  8
0
370
    -1
100
AcDbBlockEnd
  0
BLOCK
  5
4017
330
400D
100
AcDbEntity
  8
0
 48
0.1
370
    -1
100
AcDbBlockBegin
  2
North-arrow
 70
     0
 10
0.0
 20
0.0
 30
0.0
  3
North-arrow
  1

  0
HATCH
  5
400E
330
400D
100
AcDbEntity
  8
1-Continuous
370
    -1
100
AcDbHatch
 10
0.0
 20
0.0
 30
0.0
210
0.0
220
0.0
230
1.0
  2
SOLID
 70
     1
 71
     0
 91
        2
 92
        5
 93
        3
 72
     1
 10
0.0000000000000142
 20
2.734237713036663
 11
-0.1370075152672996
 21
2.032111918509244
 72
     1
 10
-0.1370075152673138
 20
2.03211191850923
 11
0.0
 21
2.03211191850923
 72
     1
 10
0.0000000000000142
 20
2.03211191850923
 11
0.0000000000000142
 21
2.734237713036649
 97
        0
 92
        5
 93
        3
 72
     1
 10
0.0000000000000142
 20
2.734237713036435
 11
0.0000000000000142
 21
2.03211191850923
 72
     1
 10
0.0000000000000142
 20
2.03211191850923
 11
0.1370075152672001
 21
2.03211191850923
 72
     1
 10
0.1370075152672001
 20
2.03211191850923
 11
0.0000000000000142
 21
2.734237713036435
 97
        0
 75
     0
 76
     1
 47
0.0804985106670354
 98
        2
 10
-9.005862729035343
 20
-23.81367843176556
 10
-8.997593836820599
 20
-23.81213015879379
  0
LINE
  5
400F
330
400D
100
AcDbEntity
  8
1-Continuous
370
    -1
100
AcDbLine
 10
0.0
 20
2.734237713036663
 30
0.0
 11
0.1370075152673138
 21
2.03211191850923
 31
0.0
  0
LINE
  5
4010
330
400D
100
AcDbEntity
  8
1-Continuous
370
    -1
100
AcDbLine
 10
0.0
 20
2.734237713036663
 30
0.0
 11
-0.1370075152671859
 21
2.03211191850923
 31
0.0
  0
LINE
  5
4011
330
400D
100
AcDbEntity
  8
1-Continuous
370
    -1
100
AcDbLine
 10
0.0
 20
2.03211191850923
 30
0.0
 11
0.0
 21
1.394187559958766
 31
0.0
  0
LINE
  5
4012
330
400D
100
AcDbEntity
  8
1-Continuous
370
    -1
100
AcDbLine
 10
0.0
 20
0.749527342060631
 30
0.0
 11
0.0
 21
0.0
 31
0.0
  0
LINE
  5
4013
330
400D
100
AcDbEntity
  8
1-Continuous
370
    -1
100
AcDbLine
 10
0.0
 20
2.03211191850923
 30
0.0
 11
0.1370075152672001
 21
2.03211191850923
 31
0.0
  0
LINE
  5
4014
330
400D
100
AcDbEntity
  8
1-Continuous
370
    -1
100
AcDbLine
 10
0.0
 20
2.734237713036649
 30
0.0
 11
0.0
 21
1.394187559958766
 31
0.0
  0
LINE
  5
4015
330
400D
100
AcDbEntity
  8
1-Continuous
370
    -1
100
AcDbLine
 10
0.0
 20
2.03211191850923
 30
0.0
 11
-0.1370075152671859
 21
2.03211191850923
 31
0.0
  0
MTEXT
  5
4016
330
400D
100
AcDbEntity
  8
1-Continuous
370
    -1
100
AcDbMText
 10
-0.1898001949256667
 20
1.184357368266959
 30
0.0
 40
0.3367067869316744
 41
1.082263156963004
 46
0.0
 71
     1
 72
     5
  1
N
  7
BOX-PAPERSPACE
 73
     1
 44
1.0
  0
ENDBLK
  5
4018
330
400D
100
AcDbEntity
  8
0
 48
0.1
370
    -1
100
AcDbBlockEnd
  0
BLOCK
  5
4029
330
4023
100
AcDbEntity
  8
0
 48
0.1
100
AcDbBlockBegin
  2
Section arrows
 70
     0
 10
0.0
 20
0.0
 30
0.0
  3
Section arrows
  1

  0
LINE
  5
4024
102
{ACAD_REACTORS
330
4027
102
}
330
4023
100
AcDbEntity
  8
7-Text
100
AcDbLine
 10
-0.0393403477556262
 20
-0.1222264877001678
 30
0.0
 11
0.0393403477556262
 21
-0.1222264877001678
 31
0.0
  0
LINE
  5
4025
102
{ACAD_REACTORS
330
4027
102
}
330
4023
100
AcDbEntity
  8
7-Text
100
AcDbLine
 10
0.0
 20
0.0
 30
0.0
 11
0.0393403477556262
 21
-0.1222264877001678
 31
0.0
  0
LINE
  5
4026
102
{ACAD_REACTORS
330
4027
102
}
330
4023
100
AcDbEntity
  8
7-Text
100
AcDbLine
 10
0.0
 20
0.0
 30
0.0
 11
-0.0393403477556262
 21
-0.1222264877001678
 31
0.0
  0
HATCH
  5
4027
330
4023
100
AcDbEntity
  8
7-Text
100
AcDbHatch
 10
0.0
 20
0.0
 30
0.0
210
0.0
220
0.0
230
1.0
  2
SOLID
 70
     1
 71
     1
 91
        1
 92
        7
 72
     0
 73
     1
 93
        3
 10
0.0
 20
-0.0000000000000004
 10
-0.0393403477556262
 20
-0.1222264877001678
 10
0.0393403477556262
 20
-0.1222264877001678
 97
        3
330
4026
330
4024
330
4025
 75
     0
 76
     1
 47
0.0289976501372831
 98
        1
 10
0.0014570861563499
 20
-0.0902147848750374
  0
LINE
  5
4028
330
4023
100
AcDbEntity
  8
7-Text
100
AcDbLine
 10
0.0
 20
-0.1222264877001678
 30
0.0
 11
0.0
 21
-0.0218682134938319
 31
0.0
  0
ENDBLK
  5
402A
330
4023
100
AcDbEntity
  8
0
 48
0.1
100
AcDbBlockEnd
  0
BLOCK
  5
402D
330
402B
100
AcDbEntity
  8
0
 48
0.1
370
     0
100
AcDbBlockBegin
  2
A$C08900545
 70
     0
 10
0.0
 20
0.0
 30
0.0
  3
A$C08900545
  1

  0
INSERT
  5
402C
330
402B
100
AcDbEntity
  8
1-Continuous
 48
0.1
100
AcDbBlockReference
  2
Section arrows
 10
18.26147172497167
 20
56.73654584488054
 30
0.0
 41
464.1918996194781
 42
464.1918996194781
 43
464.1918996194781
  0
ENDBLK
  5
402E
330
402B
100
AcDbEntity
  8
0
 48
0.1
370
     0
100
AcDbBlockEnd
  0
ENDSEC
  0
SECTION
  2
ENTITIES
  0
MTEXT
  5
3697
330
18
100
AcDbEntity
  8
7-Text
 48
0.1
100
AcDbMText
 10
1.764890569254616
 20
0.2154756005381477
 30
0.0
 40
0.1
 41
0.2372
 46
0.0
 71
     1
 72
     5
  1

  7
Swisslt
 73
     1
 44
1.0
  0
MTEXT
  5
3D7C
330
18
100
AcDbEntity
  8
1-Continuous
 48
0.1
100
AcDbMText
 10
3.443542087882362
 20
3.072615261425376
 30
0.0
 40
0.05
 41
0.1517
 46
0.0
 71
     1
 72
     5
  1

  7
Swisslt
 73
     1
 44
1.0
  0
LWPOLYLINE
  5
3E24
330
18
100
AcDbEntity
  8
1-Continuous
 48
0.1
370
    13
100
AcDbPolyline
 90
      383
 70
   128
 43
0.0
 10
-8.334393326439756
 20
6.602632853242675
 10
-8.42652780479375
 20
6.68997256274065
 10
-8.455906542081589
 20
6.791329970749889
 10
-8.44030285652991
 20
6.893059525988519
 10
-8.424615001720067
 20
7.020234095425536
 10
-8.449706505034166
 20
7.127187324316907
 10
-8.51537536025262
 20
7.274987246738746
 10
-8.57598888033466
 20
7.412592329629604
 10
-8.631496563725392
 20
7.555269581508504
 10
-8.671669903190562
 20
7.718252343191214
 10
-8.696576234136703
 20
7.881184603319028
 10
-8.7164608976497
 20
8.0237440182365
 10
-8.726133887780078
 20
8.17644777113006
 10
-8.731004050548531
 20
8.24262164189749
 10
-8.720472533984895
 20
8.34945703382743
 10
-8.730162357966906
 20
8.497071783881317
 10
-8.734864182219034
 20
8.614135683045507
 10
-8.71917632740919
 20
8.741310252482524
 10
-8.698534140572733
 20
8.827755965350494
 10
-8.657232933048181
 20
9.005736393926114
 10
-8.652009259395445
 20
9.04643158279189
 10
-8.672011759869868
 20
9.153367977831628
 10
-8.712269268593204
 20
9.290905725315955
 10
-8.732238101364361
 20
9.408020126035048
 10
-8.741961593049638
 20
9.545456870409577
 10
-8.746528746488703
 20
9.703232792291182
 10
-8.730554716201109
 20
9.9169204100027
 10
-8.709542184628734
 20
10.11532418534356
 10
-8.704082837053143
 20
10.22726541396481
 10
-8.698505652516122
 20
10.3748296624638
 10
-8.682632625338323
 20
10.55798326313725
 10
-8.656817266404026
 20
10.66985715635197
 10
-8.61071323151755
 20
10.76130770280146
 10
-8.549190683447353
 20
10.89850877325313
 10
-8.48734829219614
 20
11.13240089765866
 10
-8.456174588796046
 20
11.32568200245658
 10
-8.435448232701425
 20
11.43757272952293
 10
-8.383985853349152
 20
11.61043048755561
 10
-8.34777364866428
 20
11.78842774998286
 10
-8.327114627976188
 20
11.8799624656905
 10
-8.275618580920652
 20
12.06299822940253
 10
-8.229497712182546
 20
12.1595377786917
 10
-8.127212639840039
 20
12.31187118684934
 10
-8.009761562088297
 20
12.43362007641403
 10
-7.917856501644735
 20
12.52491911819882
 10
-7.871870303719689
 20
12.58074664477057
 10
-7.774640566513594
 20
12.7432748924592
 10
-7.529021722078519
 20
13.14958709475497
 10
-7.46256167583334
 20
13.24097030579792
 10
-7.360327105045731
 20
13.37803670543654
 10
-7.288811723664138
 20
13.45922507694851
 10
-7.171528984428723
 20
13.53008393811643
 10
-7.049106740798733
 20
13.61619297395175
 10
-6.952112677515494
 20
13.70747518188491
 10
-6.809048247049046
 20
13.8800299305882
 10
-6.655822644754877
 20
14.04746200874855
 10
-6.523070890780842
 20
14.1793384024377
 10
-6.196566684163183
 20
14.42253317223769
 10
-5.778494094134611
 20
14.65524692702894
 10
-5.329550810035329
 20
14.98963973550394
 10
-4.967793928275849
 20
15.12075860586961
 10
-4.779332484691492
 20
15.17102578175598
 10
-4.453434296732604
 20
15.23101644932761
 10
-4.24972267848085
 20
15.2761441208194
 10
-4.076545077267156
 20
15.32137279542098
 10
-3.65870816116144
 20
15.48284051045677
 10
-3.434489026886286
 20
15.57370187209911
 10
-3.189947548955693
 20
15.65431789265558
 10
-2.894583378034865
 20
15.71440956333701
 10
-2.202462157987222
 20
15.71720916235467
 10
-1.581671146953216
 20
15.69479942109679
 10
-1.342521681191684
 20
15.68383022439071
 10
-1.154329579233448
 20
15.65267335484225
 10
-0.9001151111724752
 20
15.58058562250515
 10
-0.6661388175087826
 20
15.54418824545232
 10
-0.5389810819233993
 20
15.5234113878028
 10
-0.0656701501302166
 20
15.53202384528033
 10
0.0209102335508149
 20
15.55209368116128
 10
0.2043163419987586
 20
15.61255569657863
 10
0.372371272669513
 20
15.64762319935249
 10
0.6777451107533707
 20
15.65679117393389
 10
1.079708999681287
 20
15.63510528829622
 10
1.532613418560866
 20
15.62851807266125
 10
1.909283797955091
 20
15.65271738183882
 10
2.067076553688329
 20
15.66237353811757
 10
2.336810538042819
 20
15.66657034682072
 10
2.545308149804864
 20
15.6200791333467
 10
2.895860160935406
 20
15.44080249819538
 10
3.083799755119156
 20
15.33331058605177
 10
3.413911585632828
 20
15.12865627210859
 10
3.505328464379048
 20
15.07237423154277
 10
3.754201421825858
 20
14.92396829046216
 10
4.2110501416341
 20
14.57131204787754
 10
4.332916868160218
 20
14.48948399000354
 10
4.403994569399366
 20
14.43835828768392
 10
4.541128304444509
 20
14.35647972825502
 10
4.90672848402286
 20
14.110995554633
 10
5.089326567592444
 20
13.92718543374588
 10
5.236453135948985
 20
13.78929417537727
 10
5.358252527068572
 20
13.68711010614456
 10
5.546107951994159
 20
13.55417317980256
 10
5.84573626702467
 20
13.36488687748821
 10
6.059036706148639
 20
13.23186578188806
 10
6.155458418476375
 20
13.15012189327222
 10
6.226451950457353
 20
13.07355117675421
 10
6.312443149331251
 20
12.91550591324649
 10
6.393311677662201
 20
12.74729947791104
 10
6.464052701868695
 20
12.59439371879789
 10
6.519728723775753
 20
12.38151661702182
 10
6.626008598601821
 20
12.21737128211635
 10
6.782909160198535
 20
12.06407689081868
 10
6.864013362452344
 20
11.96711649523871
 10
6.980892089248577
 20
11.91583928825439
 10
7.128389002341034
 20
11.88990609235867
 10
7.672508293747246
 20
11.76596880208175
 10
8.491568409309043
 20
11.68183450653409
 10
8.710395531415134
 20
11.68111065091389
 10
8.857993447617389
 20
11.68571147205623
 10
9.04642122349848
 20
11.72580064226324
 10
9.127862102784938
 20
11.73062030347679
 10
9.570369675913941
 20
11.65790971862929
 10
9.896082691504873
 20
11.66192135496449
 10
10.33360226490399
 20
11.61976162100668
 10
10.95938127566788
 20
11.56680102885911
 10
11.27511829179905
 20
11.63191436697369
 10
11.44310588706327
 20
11.64662585838885
 10
11.71786153885091
 20
11.63044982188166
 10
12.03813204071788
 20
11.52760923243528
 10
12.15507810292064
 20
11.49668803680968
 10
12.22110046902338
 20
11.45575717402104
 10
12.27697849715003
 20
11.42503798461502
 10
12.43480492058653
 20
11.44487214657313
 10
12.5977708484176
 20
11.47995648319862
 10
12.83191548059762
 20
11.49444913454255
 10
13.07630545386353
 20
11.52926412954193
 10
13.34607310592128
 20
11.54363894392444
 10
13.42751398520773
 20
11.54845860513799
 10
13.80420119845359
 20
11.57774691715524
 10
13.89570224645798
 20
11.54690989078779
 10
14.21368457937524
 20
11.56079151413564
 10
14.35060493419633
 20
11.68389972949421
 10
14.47383567379848
 20
12.03954795512277
 10
14.51491057011344
 20
12.28813675095916
 10
14.57612523453268
 20
12.43623172865705
 10
14.67839347302355
 20
12.77587299868975
 10
14.7652431983307
 20
12.87736688000552
 10
15.06175207116255
 20
13.28351074378496
 10
15.28174072903128
 20
13.63392808410244
 10
15.37893679853411
 20
13.78627832611172
 10
15.46068068714995
 20
13.88270003843945
 10
15.50686889129459
 20
13.99959559908732
 10
15.63459897783548
 20
14.1518448379868
 10
15.79783424729268
 20
14.26835322004712
 10
15.93557400099659
 20
14.36967876284658
 10
16.01224572062439
 20
14.47120631186562
 10
16.05302507874833
 20
14.49142765241126
 10
16.22119784638051
 20
14.56211817506286
 10
16.33339158277625
 20
14.63299387008242
 10
16.49179035716826
 20
14.82585412858952
 10
16.69593965556246
 20
15.0032958739129
 10
17.02251119758665
 20
15.2668466550716
 10
17.4001747742272
 20
15.59129713179009
 10
17.6907361177861
 20
15.73791868459766
 10
18.08789717935209
 20
15.80276268108611
 10
18.65282699611108
 20
15.81616113207393
 10
19.03952387651997
 20
15.79452574799116
 10
19.50252213182074
 20
15.76245985045454
 10
19.85866816133994
 20
15.73583646664188
 10
20.06211043796557
 20
15.69954009269884
 10
20.91635589326266
 20
15.48297388635816
 10
21.15011334685513
 20
15.38041947238954
 10
21.40921481153619
 20
15.24724687212469
 10
21.64271975735417
 20
15.06835741556091
 10
21.75924497326612
 20
14.91021114894339
 10
21.89535184336169
 20
14.51790341629422
 10
21.97039067938113
 20
14.12579768986464
 10
21.99448898544891
 20
13.71859329343236
 10
22.03355129070634
 20
13.219736344331
 10
22.07266409751866
 20
12.73614640374866
 10
22.18342695652564
 20
12.37445685739572
 10
22.33500284135982
 20
12.04316665726776
 10
22.46098220733092
 20
11.66615960084089
 10
22.56134822058732
 20
11.23834668527541
 10
22.63112971525076
 20
10.7953677643007
 10
22.70645472674796
 20
10.48977508614562
 10
22.86202541406571
 20
9.827682867587061
 10
23.01828628930038
 20
9.37423976545524
 10
23.16996317724436
 20
9.073483582365348
 10
23.28610121456877
 20
8.798290250435269
 10
23.39757109534431
 20
8.650338823348733
 10
23.46968874076583
 20
8.513084042959235
 10
23.46968874076583
 20
8.513084042959235
 10
23.46968874076583
 20
8.513084042959235
 10
23.55418548146327
 20
8.303764780850123
 10
23.55418548146327
 20
8.303764780850123
 10
23.55418548146327
 20
8.303764780850123
 10
23.55836545631479
 20
8.028941793655953
 10
23.58290144252501
 20
7.754051471055259
 10
23.61256009927819
 20
7.489322320282284
 10
23.64740876198083
 20
7.255110352695738
 10
23.74266893854592
 20
6.822225268142216
 10
23.85847029883767
 20
6.445251879418603
 10
23.96921632399301
 20
6.078473330225975
 10
24.05967367319618
 20
5.732118127798586
 10
24.15021519165751
 20
5.411207939569579
 10
24.2810815542487
 20
4.973116015214956
 10
24.41712108893773
 20
4.560452271207076
 10
24.54797061767729
 20
4.117271344012771
 10
24.6738994820935
 20
3.724997279066866
 10
24.80486684779449
 20
3.317439371750298
 10
24.85476367894494
 20
3.017019865693058
 10
24.89438150130623
 20
2.686100010301022
 10
24.93411716062896
 20
2.390803174786724
 10
24.98431700110879
 20
2.181985719843661
 10
25.11552004073264
 20
1.845673852282562
 10
25.14492618971132
 20
1.50460965891444
 10
25.11318013535573
 20
1.138302457567525
 10
25.18324780549691
 20
0.7818365848673121
 10
25.23766128853153
 20
0.3083741484094382
 10
25.24679559540967
 20
-0.0071776953537732
 10
25.23580956485196
 20
-0.2514161639549819
 10
25.26540088619859
 20
-0.5365013260866629
 10
25.29005470937025
 20
-0.7757686288096224
 10
25.36062739506042
 20
-0.9795644163195387
 10
25.40061556215764
 20
-1.19852620923869
 10
25.37463186470701
 20
-1.361290130850175
 10
25.35377083779933
 20
-1.513892880633943
 10
25.32718112168994
 20
-1.859860904473784
 10
25.32101475234577
 20
-2.18554025236145
 10
25.28918452873202
 20
-2.577292467906746
 10
25.23229646950742
 20
-2.851913448881323
 10
25.22067075258767
 20
-3.289534025390241
 10
25.23480989304732
 20
-3.630547717203465
 10
25.21812884099116
 20
-4.057973454181397
 10
25.28285500051818
 20
-4.490757535625124
 10
25.31677780138104
 20
-5.004864659393882
 10
25.26454106485367
 20
-5.41181654805168
 10
25.1663349642529
 20
-5.86950696044155
 10
24.91428040884754
 20
-6.682922556059801
 10
24.77059312587069
 20
-7.043770409831125
 10
24.57070797158617
 20
-7.470590128150286
 10
24.39643617001636
 20
-7.846603987330844
 10
24.26862191421731
 20
-8.02429824042871
 10
24.139949131985
 20
-8.461531638350078
 10
23.8174902294058
 20
-9.020261418061649
 10
23.57202288963542
 20
-9.380772594800321
 10
23.27603586620419
 20
-9.629157370549786
 10
22.90403364335882
 20
-9.780598584570907
 10
22.34377198314869
 20
-9.921238940402274
 10
21.98735661200338
 20
-9.97603960202444
 10
21.78371232915816
 20
-10.00081126215752
 10
20.96485421981595
 20
-9.855608932533743
 10
20.32416171141731
 20
-9.695728779198072
 10
19.96321285453619
 20
-9.58257551325928
 10
19.59206915812409
 20
-9.474477582456899
 10
19.14465775452337
 20
-9.345771132521325
 10
18.67673883489925
 20
-9.26279837273631
 10
18.17316322769413
 20
-9.189885781669219
 10
17.85272438731083
 20
-9.137935220619603
 10
17.52209070739655
 20
-9.091039994706401
 10
16.81003432228101
 20
-8.966547187325613
 10
16.40318343673301
 20
-8.883776433760186
 10
15.98620504706055
 20
-8.785705003972465
 10
15.6709393787751
 20
-8.7083262625761
 10
15.06563421633134
 20
-8.619809985957332
 10
14.74012320696
 20
-8.562753588216408
 10
14.42987920610769
 20
-8.505747692030383
 10
14.22640326177879
 20
-8.479629323766698
 10
14.0941396895021
 20
-8.463924635105224
 10
13.9414696043118
 20
-8.463419619556248
 10
13.79397269121934
 20
-8.437486423660523
 10
13.63626410474427
 20
-8.421697565740885
 10
13.52956338362738
 20
-8.370454026459836
 10
13.51451521517958
 20
-8.304246487989143
 10
13.49449588085352
 20
-8.202399095789083
 10
13.43388236077148
 20
-8.064794012898227
 10
13.35284549392421
 20
-7.947477605959547
 10
13.23618560719919
 20
-7.830043362059437
 10
13.124379049391
 20
-7.783871991766434
 10
12.98707697582953
 20
-7.752883460734297
 10
12.75299967905605
 20
-7.747020100719524
 10
12.64102478273153
 20
-7.751738758823286
 10
12.54940589776572
 20
-7.756524752333577
 10
12.45283268077329
 20
-7.720581889274824
 10
12.31045843822378
 20
-7.684487521551377
 10
12.09670348510573
 20
-7.688869502622488
 10
12.05080145643885
 20
-7.719252014995854
 10
12.01501009804478
 20
-7.770024206431192
 10
11.99962525256432
 20
-7.805596724754031
 10
11.88729684535553
 20
-7.917184442490998
 10
11.74984326712936
 20
-7.93199693701595
 10
11.61744502403961
 20
-7.957004271071888
 10
11.4901189499379
 20
-7.987117441819134
 10
11.31695818257584
 20
-8.02725711358104
 10
10.89945794350277
 20
-8.086944771823292
 10
10.83333457429024
 20
-8.076547926072717
 10
10.53803773877594
 20
-8.116283585395443
 10
10.47700337240309
 20
-8.105903573496498
 10
10.2786837663204
 20
-8.059446027725741
 10
10.08552049848391
 20
-7.992649304447911
 10
9.887268227807752
 20
-7.925835747318448
 10
9.73468231187562
 20
-7.89988571757109
 10
9.643063426909809
 20
-7.904671711081382
 10
9.505643516386908
 20
-7.90930619992698
 10
9.403846625741746
 20
-7.914058525734006
 10
9.312261408479198
 20
-7.908666513564945
 10
9.215637689931878
 20
-7.88799065902522
 10
9.093720461850864
 20
-7.821429609670245
 10
8.966646895523642
 20
-7.775207737822343
 10
8.87507851211273
 20
-7.764726722813605
 10
8.656419728522962
 20
-7.713112838796641
 10
8.595553700666436
 20
-7.651842798500932
 10
8.468648472855541
 20
-7.554730898256266
 10
8.31109139104516
 20
-7.493141014779539
 10
8.041205902025975
 20
-7.543138849039781
 10
7.954726521454742
 20
-7.532674667882675
 10
7.898781157921562
 20
-7.522311489835364
 10
7.771758093149241
 20
-7.460822609468433
 10
7.705819896304668
 20
-7.394446732481416
 10
7.573707828692669
 20
-7.332941018262852
 10
7.32960403090452
 20
-7.281242964987725
 10
7.121022249884312
 20
-7.260196765712085
 10
6.861230597286323
 20
-7.335673281873976
 10
6.596198437183961
 20
-7.456933989741321
 10
6.432828496913704
 20
-7.614154394519053
 10
6.320281249633684
 20
-7.791899149171817
 10
6.192365990724834
 20
-8.000127419307741
 10
6.054441064652959
 20
-8.157431993343636
 10
5.727499177892859
 20
-8.532940836975218
 10
5.492327680763257
 20
-8.857862661539421
 10
5.267805537158715
 20
-9.040326074295946
 10
5.073884745998768
 20
-9.202534478803559
 10
4.757625880466993
 20
-9.42540690494811
 10
4.492442215699938
 20
-9.592468638372544
 10
4.227511058707375
 20
-9.683195329201832
 10
4.023732105049088
 20
-9.748679012052325
 10
3.417602083875344
 20
-9.909523874577705
 10
3.112144076533323
 20
-9.944136863357489
 10
2.613169290470534
 20
-10.01882218849265
 10
2.206183734109473
 20
-9.976763457644637
 10
1.80935934957613
 20
-9.939827397339565
 10
1.34642842968189
 20
-9.88740548844424
 10
0.8682136674169882
 20
-9.840022080833695
 10
0.4818702978923852
 20
-9.71151763711771
 10
0.1821914813069743
 20
-9.53749834332239
 10
-0.0563519657957858
 20
-9.343325044387953
 10
-0.2746067369463709
 20
-9.169575092218754
 10
-0.4623948264654274
 20
-9.016282154518054
 10
-0.6297259015159824
 20
-8.832522535185825
 10
-0.730849438095845
 20
-8.63371474740579
 10
-0.8573843211708265
 20
-8.42464478468824
 10
-0.9788470352577594
 20
-8.220680658661998
 10
-1.084975405419138
 20
-7.996411022831947
 10
-1.170747764221808
 20
-7.772208722408427
 10
-1.210618094357596
 20
-7.51762390961154
 10
-1.184179882912892
 20
-7.217456911328787
 10
-1.209103047710668
 20
-7.059613654040652
 10
-1.233942043250281
 20
-6.876325382554135
 10
-1.217934345259419
 20
-6.652459759163264
 10
-1.196719807467455
 20
-6.392987949746291
 10
-1.205618440422738
 20
-6.00619006622761
 10
-1.311628973622685
 20
-5.746297410519824
 10
-1.564210558075301
 20
-5.180576402734102
 10
-1.629357563893146
 20
-4.875017392282288
 10
-1.638912717062096
 20
-4.686690619510991
 10
-1.643564039759328
 20
-4.554359711827768
 10
-1.658309198877749
 20
-4.396550122242898
 10
-1.749002222003771
 20
-4.121440959570981
 10
-1.900948451573868
 20
-3.902108821915913
 10
-2.012452000052674
 20
-3.764335400508733
 10
-2.129229723739114
 20
-3.682524176486359
 10
-2.291791639131011
 20
-3.595472444959618
 10
-2.423886872891376
 20
-3.528877727901376
 10
-2.586415120580009
 20
-3.431647990695284
 10
-2.693014838587095
 20
-3.349870434376175
 10
-2.830114905928976
 20
-3.257813869267919
 10
-2.936748291639327
 20
-3.186214318628165
 10
-2.977241474285519
 20
-3.119922610899311
 10
-3.16460871751376
 20
-2.839404602206699
 10
-3.336759453777873
 20
-2.574204103588013
 10
-3.43301282758928
 20
-2.441570186575404
 10
-3.458171666309912
 20
-2.354972969042741
 10
-3.523722684566934
 20
-2.171550026743164
  0
LWPOLYLINE
  5
3E25
330
18
100
AcDbEntity
  8
Tooled area
 48
0.1
100
AcDbPolyline
 90
       75
 70
     0
 43
0.0
 10
-3.523722684566934
 20
-2.171550026743164
 10
-3.609764384995724
 20
-2.028771771754467
 10
-3.695856586979415
 20
-1.901260525284801
 10
-3.741337769355486
 20
-1.804417966666254
 10
-3.803174142612079
 20
-1.692805625536039
 10
-3.867906320133731
 20
-1.605526009628058
 10
-3.969794155466843
 20
-1.5150388776201
 10
-4.096406432370198
 20
-1.452098401114297
 10
-4.269813039802102
 20
-1.399413245317191
 10
-4.467482793375773
 20
-1.323644458953209
 10
-4.681856843901642
 20
-1.219395907412718
 10
-4.82370848553046
 20
-1.154139799232098
 10
-4.995880562268875
 20
-1.062354593559926
 10
-5.102513947979226
 20
-0.9907550429201706
 10
-5.188808156182503
 20
-0.9243118305266247
 10
-5.280174533373826
 20
-0.8527627814417666
 10
-5.385947789551665
 20
-0.742868053439679
 10
-5.47278228410644
 20
-0.6180289644546111
 10
-5.523301967767289
 20
-0.5059025634654013
 10
-5.56157420782165
 20
-0.4278388908378474
 10
-5.602104544856957
 20
-0.3108286427666371
 10
-5.615612640315703
 20
-0.2208191879940387
 10
-5.613361795294168
 20
-0.1353109131982819
 10
-5.604355389878492
 20
-0.0520532283912871
 10
-5.59564849206663
 20
0.0183625773679523
 10
-5.600150182109701
 20
0.1218724287898567
 10
-5.658381972913267
 20
0.1968343424040384
 10
-5.72432016975784
 20
0.2632102193910573
 10
-5.800453206133398
 20
0.3245307612416628
 10
-5.998436135183439
 20
0.472768363805951
 10
-6.191245892135642
 20
0.6464341467169881
 10
-6.368729047759643
 20
0.8344937734548239
 10
-6.533249482059546
 20
1.023763362240743
 10
-6.67321029285722
 20
1.190781656991931
 10
-6.788042718239467
 20
1.343795058315891
 10
-6.905866202345976
 20
1.534294213900889
 10
-6.971652894525855
 20
1.646471116444996
 10
-7.042511755693779
 20
1.763753855680411
 10
-7.118375450443216
 20
1.906498442965843
 10
-7.183008538270315
 20
2.04345350757194
 10
-7.230291410370228
 20
2.151462967329962
 10
-7.286580687885817
 20
2.295475580340508
 10
-7.340490353264304
 20
2.451762436283062
 10
-7.370687693269713
 20
2.553643496186387
 10
-7.403119399010393
 20
2.7287471575994
 10
-7.428846799633448
 20
2.886315174695937
 10
-7.454483440376407
 20
3.04945151604511
 10
-7.47541885374559
 20
3.200300367709589
 10
-7.489995674347687
 20
3.408999985691226
 10
-7.489490658798712
 20
3.561670070881522
 10
-7.483896640410059
 20
3.714323322220185
 10
-7.463069281205643
 20
3.856748066324599
 10
-7.437211835230755
 20
3.991472732155216
 10
-7.40614755427778
 20
4.141547052978524
 10
-7.380180690678789
 20
4.299221971750335
 10
-7.354281162486329
 20
4.436540879163438
 10
-7.338576473824853
 20
4.568804451440133
 10
-7.327943954151422
 20
4.706173860408132
 10
-7.32752310786061
 20
4.833398931400048
 10
-7.337364436507312
 20
4.935212655896844
 10
-7.370082802725847
 20
5.173148777584402
 10
-7.422497108947947
 20
5.352797064228071
 10
-7.497037722733239
 20
5.533571648733187
 10
-7.551820386242525
 20
5.665803240407058
 10
-7.609071718485211
 20
5.788405387346529
 10
-7.69903593677418
 20
5.947790221501009
 10
-7.781425903633163
 20
6.076630670928047
 10
-7.84411560479839
 20
6.143442244605012
 10
-7.918391300161984
 20
6.209399258753717
 10
-8.019885181477761
 20
6.29624898406087
 10
-8.080784877037555
 20
6.347341018677223
 10
-8.136401747366108
 20
6.402398397701518
 10
-8.202516932750612
 20
6.46988109926864
 10
-8.253272290334316
 20
6.510761460502376
 10
-8.334393326439756
 20
6.602632853242675
  0
HATCH
  5
3FE7
330
18
100
AcDbEntity
  8
1-Continuous
 48
0.1
370
    13
100
AcDbHatch
 10
0.0
 20
0.0
 30
0.0
210
0.0
220
0.0
230
1.0
  2
ANSI31
 70
     0
 71
     0
 91
        1
 92
        7
 72
     0
 73
     1
 93
      449
 10
7.672508293747245
 20
11.76596880208175
 10
7.128389002341
 20
11.88990609235867
 10
6.980892089248568
 20
11.91583928825439
 10
6.864013362452345
 20
11.9671164952387
 10
6.78290916019854
 20
12.06407689081867
 10
6.626008598601826
 20
12.21737128211634
 10
6.519728723775755
 20
12.38151661702181
 10
6.464052701868696
 20
12.59439371879789
 10
6.393311677662251
 20
12.74729947791102
 10
6.312443149331235
 20
12.9155059132465
 10
6.226451950457354
 20
13.07355117675421
 10
6.155458418476369
 20
13.15012189327222
 10
6.059036706148648
 20
13.23186578188806
 10
5.845736267024545
 20
13.36488687748835
 10
5.546107951994151
 20
13.55417317980258
 10
5.358252527068569
 20
13.68711010614455
 10
5.236453135949018
 20
13.78929417537726
 10
5.089326567592497
 20
13.92718543374588
 10
4.906728484022868
 20
14.110995554633
 10
4.541128304444484
 20
14.35647972825502
 10
4.403994569399345
 20
14.43835828768395
 10
4.332916868160225
 20
14.48948399000353
 10
4.211050141634111
 20
14.57131204787755
 10
3.754201421825858
 20
14.92396829046216
 10
3.505328464379108
 20
15.07237423154276
 10
3.413911585633513
 20
15.12865627210807
 10
3.083799755119236
 20
15.33331058605179
 10
2.895860160935391
 20
15.44080249819541
 10
2.54530814980486
 20
15.6200791333467
 10
2.33681053804282
 20
15.66657034682072
 10
2.067076553688297
 20
15.66237353811757
 10
1.909283797955853
 20
15.65271738183884
 10
1.532613418560861
 20
15.62851807266125
 10
1.079708999681308
 20
15.63510528829622
 10
0.6777451107533431
 20
15.65679117393389
 10
0.3723712726695036
 20
15.64762319935249
 10
0.2043163419987484
 20
15.61255569657863
 10
0.0209102335508152
 20
15.55209368116128
 10
-0.0656701501302291
 20
15.53202384528033
 10
-0.5389810819234075
 20
15.5234113878028
 10
-0.6661388175088324
 20
15.54418824545232
 10
-0.9001151111724783
 20
15.58058562250515
 10
-1.154329579233462
 20
15.65267335484225
 10
-1.342521681191689
 20
15.68383022439071
 10
-1.581671146953375
 20
15.69479942109679
 10
-2.202462157987196
 20
15.71720916235467
 10
-2.894583378034883
 20
15.71440956333701
 10
-3.189947548955688
 20
15.65431789265558
 10
-3.43448902688632
 20
15.57370187209908
 10
-3.658708161161234
 20
15.48284051045683
 10
-4.076545077267156
 20
15.32137279542098
 10
-4.249722678480922
 20
15.2761441208194
 10
-4.45343429673258
 20
15.23101644932761
 10
-4.779332484691477
 20
15.17102578175598
 10
-4.967793928275877
 20
15.12075860586961
 10
-5.329550810035326
 20
14.98963973550394
 10
-5.778494094134622
 20
14.65524692702894
 10
-6.196566684163196
 20
14.42253317223768
 10
-6.523070890780836
 20
14.1793384024377
 10
-6.655822644754886
 20
14.04746200874853
 10
-6.809048247049065
 20
13.88002993058823
 10
-6.952112677515501
 20
13.70747518188491
 10
-7.049106740798732
 20
13.61619297395177
 10
-7.171528984428705
 20
13.53008393811643
 10
-7.288811723664139
 20
13.45922507694851
 10
-7.360327105045742
 20
13.37803670543652
 10
-7.462561675833313
 20
13.24097030579803
 10
-7.529021722078529
 20
13.14958709475496
 10
-7.774640566513513
 20
12.74327489245923
 10
-7.886828724828348
 20
12.55574229897229
 10
-8.00976156208826
 20
12.43362007641395
 10
-8.127212639840028
 20
12.31187118684935
 10
-8.22949771218254
 20
12.1595377786917
 10
-8.275618580920659
 20
12.06299822940252
 10
-8.327114627976192
 20
11.87996246569049
 10
-8.347773648664274
 20
11.78842774998285
 10
-8.383985853349147
 20
11.61043048755562
 10
-8.435448232701422
 20
11.43757272952295
 10
-8.456174588796035
 20
11.32568200245656
 10
-8.487348292196142
 20
11.13240089765867
 10
-8.549190683447357
 20
10.89850877325313
 10
-8.610713231517561
 20
10.76130770280147
 10
-8.656817266404026
 20
10.66985715635197
 10
-8.682632625338323
 20
10.55798326313727
 10
-8.698505652516124
 20
10.3748296624638
 10
-8.704082837053143
 20
10.22726541396483
 10
-8.709542184628734
 20
10.11532418534355
 10
-8.730554716201112
 20
9.916920410002634
 10
-8.746528746488703
 20
9.703232792291178
 10
-8.741961593049638
 20
9.545456870409597
 10
-8.732238101364363
 20
9.408020126035069
 10
-8.712269268593198
 20
9.290905725315941
 10
-8.67201175986987
 20
9.153367977831634
 10
-8.650125907078046
 20
9.03636289624594
 10
-8.698534140572772
 20
8.82775596535031
 10
-8.719176327409194
 20
8.741310252482524
 10
-8.734864182219034
 20
8.614135683045504
 10
-8.730162357966906
 20
8.497071783881351
 10
-8.720472533984895
 20
8.349457033827422
 10
-8.73100405054853
 20
8.242621641897493
 10
-8.726133887780076
 20
8.17644777113004
 10
-8.716460897649702
 20
8.023744018236515
 10
-8.696576234136687
 20
7.88118460331903
 10
-8.671669903190562
 20
7.718252343191211
 10
-8.631496563725392
 20
7.555269581508514
 10
-8.57598888033465
 20
7.412592329629584
 10
-8.515375360252529
 20
7.274987246738805
 10
-8.449706505034165
 20
7.127187324316907
 10
-8.424615001720065
 20
7.020234095425533
 10
-8.440302856529906
 20
6.893059525988529
 10
-8.455906542081589
 20
6.791329970749886
 10
-8.42652780479375
 20
6.689972562740651
 10
-8.334393326439754
 20
6.602632853242674
 10
-8.253272290334317
 20
6.510761460502377
 10
-8.202516932750612
 20
6.469881099268641
 10
-8.136401747366095
 20
6.402398397701507
 10
-8.08078487703756
 20
6.347341018677229
 10
-8.019885181477758
 20
6.296248984060863
 10
-7.918391300161973
 20
6.209399258753709
 10
-7.844115604798393
 20
6.143442244605017
 10
-7.781425903633158
 20
6.076630670928043
 10
-7.699035936774191
 20
5.947790221501022
 10
-7.609071718485224
 20
5.788405387346544
 10
-7.551820386242527
 20
5.665803240407057
 10
-7.497037722733522
 20
5.53357164873343
 10
-7.422497108947945
 20
5.352797064228064
 10
-7.370082802725848
 20
5.173148777584399
 10
-7.337364436507313
 20
4.935212655896851
 10
-7.32752310786061
 20
4.833398931400052
 10
-7.327943954151421
 20
4.70617386040814
 10
-7.338576473824857
 20
4.568804451440132
 10
-7.354281162486326
 20
4.436540879163452
 10
-7.380180690678788
 20
4.299221971750429
 10
-7.406147554277774
 20
4.141547052978552
 10
-7.437211835230761
 20
3.991472732155221
 10
-7.463069281205645
 20
3.856748066324589
 10
-7.483896640410057
 20
3.714323322220189
 10
-7.489490658798712
 20
3.56167007088148
 10
-7.489995674347685
 20
3.40899998569122
 10
-7.47541885374559
 20
3.200300367709604
 10
-7.454483440376414
 20
3.049451516045168
 10
-7.428846799633436
 20
2.886315174695886
 10
-7.403119399010386
 20
2.728747157599351
 10
-7.370687693269709
 20
2.55364349618638
 10
-7.340490353264308
 20
2.451762436283084
 10
-7.286580687885825
 20
2.29547558034052
 10
-7.23029141037023
 20
2.151462967329957
 10
-7.183008538270315
 20
2.043453507571934
 10
-7.118375450443224
 20
1.906498442965849
 10
-7.042511755693779
 20
1.763753855680415
 10
-6.971652894525858
 20
1.646471116444997
 10
-6.905866202346004
 20
1.534294213900949
 10
-6.788042718239462
 20
1.343795058315883
 10
-6.673210292857208
 20
1.190781656991919
 10
-6.533249482059499
 20
1.023763362240686
 10
-6.368729047759667
 20
0.8344937734548475
 10
-6.191245892135639
 20
0.6464341467169881
 10
-5.998436135183443
 20
0.4727683638059547
 10
-5.800453206133403
 20
0.3245307612416662
 10
-5.724320169757839
 20
0.2632102193910562
 10
-5.658381972913264
 20
0.1968343424040381
 10
-5.6001501821097
 20
0.1218724287898573
 10
-5.59564849206663
 20
0.0183625773679527
 10
-5.60435538987849
 20
-0.0520532283912759
 10
-5.613361795294167
 20
-0.1353109131982672
 10
-5.615612640315703
 20
-0.2208191879940358
 10
-5.602104544856958
 20
-0.3108286427666353
 10
-5.561574207821649
 20
-0.4278388908378407
 10
-5.523301967767299
 20
-0.5059025634654095
 10
-5.47278228410644
 20
-0.6180289644546081
 10
-5.385947789551661
 20
-0.7428680534396829
 10
-5.280174533373827
 20
-0.852762781441768
 10
-5.188808156182527
 20
-0.9243118305265782
 10
-5.102513947979234
 20
-0.9907550429201696
 10
-4.995880562268877
 20
-1.062354593559926
 10
-4.823708485530456
 20
-1.154139799232103
 10
-4.681856843901634
 20
-1.219395907412714
 10
-4.467482793375775
 20
-1.323644458953208
 10
-4.269813039802102
 20
-1.399413245317192
 10
-4.096406432370197
 20
-1.452098401114297
 10
-3.969794155466844
 20
-1.5150388776201
 10
-3.86790632013373
 20
-1.605526009628061
 10
-3.80317414261208
 20
-1.692805625536038
 10
-3.741337769355483
 20
-1.804417966666258
 10
-3.695856586979417
 20
-1.901260525284802
 10
-3.609764384995729
 20
-2.028771771754457
 10
-3.523722684566932
 20
-2.171550026743165
 10
-3.458171666309914
 20
-2.354972969042732
 10
-3.43301282758928
 20
-2.441570186575403
 10
-3.336759453777872
 20
-2.574204103588014
 10
-3.164608717513746
 20
-2.839404602206752
 10
-2.977241474285513
 20
-3.119922610899313
 10
-2.936748291639326
 20
-3.186214318628165
 10
-2.830114905928976
 20
-3.257813869267919
 10
-2.693014838587092
 20
-3.349870434376182
 10
-2.586415120580009
 20
-3.431647990695284
 10
-2.423886872891384
 20
-3.528877727901374
 10
-2.291791639131013
 20
-3.595472444959628
 10
-2.129229723739115
 20
-3.682524176486358
 10
-2.012452000052673
 20
-3.764335400508733
 10
-1.900948451573874
 20
-3.902108821915914
 10
-1.74900222200377
 20
-4.121440959570982
 10
-1.658309198877749
 20
-4.396550122242898
 10
-1.643564039759328
 20
-4.554359711827768
 10
-1.638912717062097
 20
-4.686690619510982
 10
-1.629357563893146
 20
-4.875017392282288
 10
-1.5642105580753
 20
-5.180576402734103
 10
-1.311628973622684
 20
-5.746297410519823
 10
-1.205618440422738
 20
-6.00619006622761
 10
-1.196719807467455
 20
-6.392987949746292
 10
-1.217934345259421
 20
-6.652459759163277
 10
-1.233942043250281
 20
-6.876325382554133
 10
-1.209103047710668
 20
-7.059613654040668
 10
-1.184179882912892
 20
-7.217456911328787
 10
-1.210618094357596
 20
-7.517623909611541
 10
-1.170747764221808
 20
-7.772208722408426
 10
-1.084975405419138
 20
-7.996411022831951
 10
-0.9788470352577582
 20
-8.220680658661998
 10
-0.8573843211708562
 20
-8.424644784688319
 10
-0.7308494380958466
 20
-8.633714747405781
 10
-0.6297259015159805
 20
-8.832522535185827
 10
-0.4623948264654242
 20
-9.016282154518056
 10
-0.2746067369464089
 20
-9.169575092218698
 10
-0.0563519657957661
 20
-9.343325044387987
 10
0.1821914813069759
 20
-9.537498343322387
 10
0.4818702978923808
 20
-9.711517637117712
 10
0.8682136674169817
 20
-9.840022080833693
 10
1.346428429681979
 20
-9.887405488444253
 10
1.809359349576116
 20
-9.939827397339565
 10
2.206183734109506
 20
-9.976763457644653
 10
2.613169290470531
 20
-10.01882218849265
 10
3.112144076533316
 20
-9.944136863357496
 10
3.417602083875344
 20
-9.909523874577703
 10
4.023732105049097
 20
-9.748679012052328
 10
4.227511058707416
 20
-9.683195329201821
 10
4.492442215699932
 20
-9.59246863837255
 10
4.757625880467031
 20
-9.425406904948103
 10
5.073884745998771
 20
-9.202534478803546
 10
5.267805537158732
 20
-9.040326074296011
 10
5.492327680763255
 20
-8.857862661539418
 10
5.727499177892855
 20
-8.532940836975229
 10
6.054441064653454
 20
-8.157431993343591
 10
6.192365990724842
 20
-8.000127419307738
 10
6.320281249633605
 20
-7.791899149171917
 10
6.432828496913707
 20
-7.614154394519049
 10
6.596198437183963
 20
-7.45693398974132
 10
6.861230597286325
 20
-7.335673281873976
 10
7.121022249884312
 20
-7.260196765712086
 10
7.329604030904519
 20
-7.281242964987725
 10
7.573707828692671
 20
-7.332941018262852
 10
7.705819896304668
 20
-7.394446732481416
 10
7.771758093149245
 20
-7.460822609468436
 10
7.898781157921563
 20
-7.522311489835365
 10
7.954726521454745
 20
-7.532674667882675
 10
8.04120590202597
 20
-7.543138849039782
 10
8.311091391045158
 20
-7.49314101477954
 10
8.468648472855541
 20
-7.554730898256267
 10
8.595553700666432
 20
-7.651842798500929
 10
8.65641972852296
 20
-7.713112838796642
 10
8.875078512112728
 20
-7.764726722813607
 10
8.966646895523642
 20
-7.775207737822343
 10
9.093720461850864
 20
-7.821429609670247
 10
9.215637689931878
 20
-7.88799065902522
 10
9.312261408479198
 20
-7.908666513564945
 10
9.403846625741743
 20
-7.914058525734007
 10
9.505643516386826
 20
-7.909306199926984
 10
9.643063426909794
 20
-7.904671711081382
 10
9.734682311875613
 20
-7.899885717571088
 10
9.88726822780775
 20
-7.925835747318447
 10
10.08552049848382
 20
-7.992649304447901
 10
10.27868376632039
 20
-8.059446027725741
 10
10.4770033724031
 20
-8.105903573496496
 10
10.53803773877594
 20
-8.116283585395443
 10
10.83333457429024
 20
-8.076547926072717
 10
10.89945794350278
 20
-8.086944771823292
 10
11.31695818257583
 20
-8.02725711358104
 10
11.49011894993793
 20
-7.987117441819017
 10
11.61744502403963
 20
-7.957004271071892
 10
11.74984326712935
 20
-7.93199693701595
 10
11.88729684535552
 20
-7.917184442490999
 10
11.99962525256433
 20
-7.805596724754031
 10
12.0314205998906
 20
-7.732080186886837
 10
12.09670348510573
 20
-7.688869502622489
 10
12.31045843822377
 20
-7.684487521551376
 10
12.45283268077328
 20
-7.720581889274822
 10
12.54940589776572
 20
-7.756524752333577
 10
12.64102478273146
 20
-7.751738758823291
 10
12.75299967905606
 20
-7.747020100719524
 10
12.98707697582952
 20
-7.752883460734296
 10
13.12437904939101
 20
-7.783871991766434
 10
13.23618560719919
 20
-7.830043362059437
 10
13.35284549392421
 20
-7.947477605959553
 10
13.43388236077149
 20
-8.064794012898231
 10
13.49449588085352
 20
-8.202399095789083
 10
13.51451521517957
 20
-8.304246487989113
 10
13.52956338362739
 20
-8.370454026459836
 10
13.63626410474427
 20
-8.421697565740885
 10
13.79397269121935
 20
-8.437486423660525
 10
13.9414696043118
 20
-8.463419619556246
 10
14.09413968950211
 20
-8.463924635105222
 10
14.22640326177869
 20
-8.47962932376669
 10
14.42987920610771
 20
-8.505747692030388
 10
14.7401232069601
 20
-8.562753588216449
 10
15.06563421633133
 20
-8.619809985957327
 10
15.67093937877511
 20
-8.708326262576106
 10
15.98620504706052
 20
-8.785705003972469
 10
16.403183436733
 20
-8.883776433760179
 10
16.81003432228102
 20
-8.96654718732561
 10
17.52209070739652
 20
-9.091039994706405
 10
17.85272438731081
 20
-9.137935220619596
 10
18.17316322769407
 20
-9.189885781669222
 10
18.67673883489928
 20
-9.262798372736318
 10
19.14465775452338
 20
-9.34577113252133
 10
19.59206915812396
 20
-9.47447758245686
 10
19.96321285453622
 20
-9.582575513259297
 10
20.32416171141729
 20
-9.695728779198067
 10
20.96485421981597
 20
-9.855608932533752
 10
21.78371232915816
 20
-10.00081126215752
 10
21.98735661200338
 20
-9.97603960202444
 10
22.34377198314868
 20
-9.921238940402278
 10
22.90403364335882
 20
-9.780598584570903
 10
23.2760358662042
 20
-9.629157370549786
 10
23.57202288963542
 20
-9.380772594800314
 10
23.81749022940578
 20
-9.020261418061683
 10
24.13994913198501
 20
-8.461531638350074
 10
24.26862191421731
 20
-8.02429824042872
 10
24.39643617001636
 20
-7.846603987330841
 10
24.57070797158608
 20
-7.47059012815009
 10
24.7705931258707
 20
-7.043770409831072
 10
24.91428040884755
 20
-6.682922556059774
 10
25.16633496425291
 20
-5.869506960441524
 10
25.26454106485366
 20
-5.411816548051676
 10
25.31677780138104
 20
-5.004864659393879
 10
25.28285500051818
 20
-4.490757535625078
 10
25.21812884099116
 20
-4.057973454181433
 10
25.23480989304732
 20
-3.630547717203488
 10
25.22067075258768
 20
-3.289534025390304
 10
25.23229646950742
 20
-2.8519134488813
 10
25.28918452873201
 20
-2.577292467906739
 10
25.32101475234577
 20
-2.185540252361511
 10
25.32718112168993
 20
-1.859860904473767
 10
25.35377083779932
 20
-1.513892880633936
 10
25.37463186470699
 20
-1.361290130850233
 10
25.40061556215764
 20
-1.198526209238688
 10
25.36062739506042
 20
-0.9795644163195654
 10
25.29005470937025
 20
-0.775768628809649
 10
25.26540088619859
 20
-0.5365013260866629
 10
25.23580956485196
 20
-0.2514161639549847
 10
25.24679559540968
 20
-0.007177695353749
 10
25.23766128853153
 20
0.3083741484094288
 10
25.18324780549692
 20
0.7818365848673016
 10
25.11318013535573
 20
1.138302457567531
 10
25.14492618971131
 20
1.504609658914439
 10
25.11552004073265
 20
1.845673852282563
 10
24.98431700110878
 20
2.181985719843683
 10
24.93411716062896
 20
2.390803174786721
 10
24.89438150130624
 20
2.686100010301086
 10
24.85476367894494
 20
3.017019865693078
 10
24.80486684779449
 20
3.317439371750292
 10
24.6738994820935
 20
3.724997279066866
 10
24.54797061767733
 20
4.117271344012621
 10
24.41712108893776
 20
4.560452271207104
 10
24.28108155424872
 20
4.973116015214739
 10
24.15021519165748
 20
5.411207939569529
 10
24.05967367319616
 20
5.732118127798493
 10
23.96921632399307
 20
6.078473330225835
 10
23.85847029883767
 20
6.445251879417858
 10
23.74266893854593
 20
6.822225268142239
 10
23.64740876198082
 20
7.255110352695811
 10
23.61256009927819
 20
7.489322320282307
 10
23.582901442525
 20
7.754051471055363
 10
23.55836545631479
 20
8.028941793655918
 10
23.55418548146327
 20
8.303764780850122
 10
23.46968874076582
 20
8.513084042959218
 10
23.39757109534431
 20
8.65033882334876
 10
23.28610121456877
 20
8.798290250435274
 10
23.16996317724436
 20
9.073483582365363
 10
23.01828628930037
 20
9.37423976545524
 10
22.86202541406572
 20
9.827682867587063
 10
22.70645472674789
 20
10.48977508614559
 10
22.63112971525078
 20
10.79536776430066
 10
22.56134822058731
 20
11.2383466852754
 10
22.46098220733092
 20
11.6661596008409
 10
22.33500284135981
 20
12.04316665726778
 10
22.18342695652561
 20
12.37445685739575
 10
22.07266409751866
 20
12.73614640374866
 10
22.03355129070621
 20
13.21973634433062
 10
21.99448898544891
 20
13.71859329343263
 10
21.97039067938114
 20
14.12579768986461
 10
21.89535184336169
 20
14.51790341629422
 10
21.75924497326613
 20
14.91021114894337
 10
21.64271975735416
 20
15.06835741556092
 10
21.4092148115362
 20
15.2472468721247
 10
21.15011334685515
 20
15.38041947238953
 10
20.91635589326267
 20
15.48297388635816
 10
20.06211043796554
 20
15.69954009269884
 10
19.85866816133995
 20
15.73583646664187
 10
19.50252213182076
 20
15.76245985045457
 10
19.03952387651991
 20
15.79452574799116
 10
18.65282699611106
 20
15.81616113207393
 10
18.0878971793521
 20
15.80276268108611
 10
17.6907361177861
 20
15.73791868459766
 10
17.40017477422719
 20
15.59129713179009
 10
17.02251119758664
 20
15.26684665507159
 10
16.69593965556247
 20
15.0032958739129
 10
16.49179035716827
 20
14.82585412858953
 10
16.33339158277625
 20
14.63299387008242
 10
16.22119784638051
 20
14.56211817506286
 10
16.05302507874832
 20
14.49142765241126
 10
16.01224572062439
 20
14.47120631186562
 10
15.93557400099659
 20
14.36967876284658
 10
15.79783424729277
 20
14.26835322004719
 10
15.63459897783548
 20
14.1518448379868
 10
15.50686889129459
 20
13.99959559908732
 10
15.46068068714996
 20
13.88270003843946
 10
15.37893679853411
 20
13.78627832611171
 10
15.28174072903139
 20
13.63392808410269
 10
15.06175207116254
 20
13.28351074378495
 10
14.76524319833072
 20
12.87736688000553
 10
14.67839347302355
 20
12.77587299868974
 10
14.57612523453269
 20
12.43623172865706
 10
14.51491057011344
 20
12.28813675095915
 10
14.47383567379847
 20
12.03954795512277
 10
14.35060493419633
 20
11.68389972949422
 10
14.21368457937524
 20
11.56079151413564
 10
13.89570224645798
 20
11.54690989078779
 10
13.80420119845359
 20
11.57774691715524
 10
13.42751398520775
 20
11.54845860513799
 10
13.34607310592139
 20
11.54363894392444
 10
13.07630545386355
 20
11.52926412954193
 10
12.83191548059767
 20
11.49444913454256
 10
12.59777084841761
 20
11.47995648319862
 10
12.43480492058655
 20
11.44487214657313
 10
12.27697849715003
 20
11.42503798461502
 10
12.22110046902338
 20
11.45575717402101
 10
12.15507810292065
 20
11.49668803680968
 10
12.0381320407179
 20
11.52760923243528
 10
11.71786153885091
 20
11.63044982188166
 10
11.44310588706329
 20
11.64662585838885
 10
11.27511829179907
 20
11.63191436697369
 10
10.95938127566788
 20
11.56680102885912
 10
10.33360226490386
 20
11.61976162100669
 10
9.896082691504846
 20
11.66192135496449
 10
9.570369675913929
 20
11.65790971862929
 10
9.127862102784938
 20
11.73062030347679
 10
9.046421223498482
 20
11.72580064226324
 10
8.857993447617405
 20
11.68571147205623
 10
8.710395531415067
 20
11.68111065091389
 10
8.491568409309027
 20
11.68183450653409
 97
        0
 75
     0
 76
     1
 52
0.0
 41
10.0
 77
     0
 78
     1
 53
45.0
 43
0.0
 44
0.0
 45
-0.8838834764831843
 46
0.8838834764831844
 79
     0
 47
0.087644171750772
 98
        1
 10
6.380293130186601
 20
5.513350914939565
  0
MTEXT
  5
3FE9
330
18
100
AcDbEntity
  8
7-Text
 48
0.1
370
    30
100
AcDbMText
 10
-11.43319085291523
 20
1.145268503724992
 30
0.0
 40
0.6
 41
8.902000000000001
 46
0.0
 71
     1
 72
     5
  1
Tooled   \P area
  7
Swisslt
 73
     1
 44
1.0
  0
MTEXT
  5
3FED
330
18
100
AcDbEntity
  8
7-Text
 48
0.1
370
    30
100
AcDbMText
 10
7.674698436040217
 20
15.08785264989979
 30
0.0
 40
0.6
 41
8.902000000000001
 46
0.0
 71
     1
 72
     5
  1
Drilled area for \Pmortice hole,\Papprox 8 x 9cm
  7
Swisslt
 73
     1
 44
1.0
  0
MTEXT
  5
3FEE
330
18
100
AcDbEntity
  8
7-Text
 48
0.1
370
    30
100
AcDbMText
 10
6.729797048180444
 20
-8.702880367678745
 30
0.0
 40
0.6
 41
8.902000000000001
 46
0.0
 71
     1
 72
     5
  1
Drilled area for \Pmortice hole,\Papprox 6 x 7cm
  7
Swisslt
 73
     1
 44
1.0
  0
LWPOLYLINE
  5
3FF0
102
{ACAD_REACTORS
330
4007
102
}
330
18
100
AcDbEntity
  8
1-Continuous
 48
0.1
370
     0
100
AcDbPolyline
 90
        2
 70
   128
 43
0.0
 10
4.80823217440593
 20
-14.14762562963301
 10
14.80823217440593
 20
-14.14762562963301
  0
LWPOLYLINE
  5
3FF3
102
{ACAD_REACTORS
330
4007
102
}
330
18
100
AcDbEntity
  8
1-Continuous
 48
0.1
370
     0
100
AcDbPolyline
 90
        2
 70
   128
 43
0.0
 10
4.80823217440593
 20
-14.45785625899202
 10
14.80823217440593
 20
-14.45785625899202
  0
LWPOLYLINE
  5
3FF5
102
{ACAD_REACTORS
330
4007
102
}
330
18
100
AcDbEntity
  8
1-Continuous
 48
0.1
370
     0
100
AcDbPolyline
 90
        2
 70
     0
 43
0.0
 10
4.80823217440593
 20
-14.14762562963301
 10
4.80823217440593
 20
-14.45785625899202
  0
LWPOLYLINE
  5
3FF6
102
{ACAD_REACTORS
330
4007
102
}
330
18
100
AcDbEntity
  8
1-Continuous
 48
0.1
370
     0
100
AcDbPolyline
 90
        2
 70
     0
 43
0.0
 10
6.80823217440593
 20
-14.14762562963301
 10
6.80823217440593
 20
-14.45785625899202
  0
LWPOLYLINE
  5
3FF7
102
{ACAD_REACTORS
330
4007
102
}
330
18
100
AcDbEntity
  8
1-Continuous
 48
0.1
370
     0
100
AcDbPolyline
 90
        2
 70
     0
 43
0.0
 10
8.80823217440593
 20
-14.14762562963301
 10
8.80823217440593
 20
-14.45785625899202
  0
LWPOLYLINE
  5
3FF8
102
{ACAD_REACTORS
330
4007
102
}
330
18
100
AcDbEntity
  8
1-Continuous
 48
0.1
370
     0
100
AcDbPolyline
 90
        2
 70
     0
 43
0.0
 10
10.80823217440593
 20
-14.14762562963301
 10
10.80823217440593
 20
-14.45785625899202
  0
LWPOLYLINE
  5
3FF9
102
{ACAD_REACTORS
330
4007
102
}
330
18
100
AcDbEntity
  8
1-Continuous
 48
0.1
370
     0
100
AcDbPolyline
 90
        2
 70
     0
 43
0.0
 10
12.80823217440593
 20
-14.14762562963301
 10
12.80823217440593
 20
-14.45785625899202
  0
LWPOLYLINE
  5
3FFA
102
{ACAD_REACTORS
330
4007
102
}
330
18
100
AcDbEntity
  8
1-Continuous
 48
0.1
370
     0
100
AcDbPolyline
 90
        2
 70
     0
 43
0.0
 10
14.80823217440593
 20
-14.14762562963301
 10
14.80823217440593
 20
-14.45785625899202
  0
HATCH
  5
4007
330
18
100
AcDbEntity
  8
1-Continuous
 48
0.1
370
     0
100
AcDbHatch
 10
0.0
 20
0.0
 30
0.0
210
0.0
220
0.0
230
1.0
  2
SOLID
 70
     1
 71
     1
 91
        3
 92
        7
 72
     0
 73
     1
 93
        4
 10
4.80823217440593
 20
-14.14762562963301
 10
4.80823217440593
 20
-14.45785625899202
 10
6.80823217440593
 20
-14.45785625899202
 10
6.80823217440593
 20
-14.14762562963301
 97
        4
330
3FF0
330
3FF5
330
3FF3
330
3FF6
 92
        7
 72
     0
 73
     1
 93
        4
 10
10.80823217440593
 20
-14.45785625899202
 10
10.80823217440593
 20
-14.14762562963301
 10
8.808232174405928
 20
-14.14762562963301
 10
8.80823217440593
 20
-14.45785625899202
 97
        4
330
3FF0
330
3FF7
330
3FF3
330
3FF8
 92
        7
 72
     0
 73
     1
 93
        4
 10
12.80823217440593
 20
-14.14762562963301
 10
12.80823217440593
 20
-14.45785625899202
 10
14.80823217440593
 20
-14.45785625899202
 10
14.80823217440593
 20
-14.14762562963301
 97
        4
330
3FF0
330
3FF9
330
3FF3
330
3FFA
 75
     0
 76
     1
 47
0.0180859095543242
 98
        3
 10
5.981606155080954
 20
-14.28840537699671
 10
9.962978882757852
 20
-14.30649182223988
 10
13.54621221993648
 20
-14.28840537699671
  0
MTEXT
  5
4008
330
18
100
AcDbEntity
  8
1-Continuous
 48
0.1
370
     0
100
AcDbMText
 10
4.696709459311023
 20
-13.31176719504288
 30
0.0
 40
0.5
 41
1.5745
 46
0.0
 71
     1
 72
     5
  1
0
  7
Swisslt
 73
     1
 44
1.0
  0
MTEXT
  5
4009
330
18
100
AcDbEntity
  8
1-Continuous
 48
0.1
370
     0
100
AcDbMText
 10
14.20548861063162
 20
-13.3117671950431
 30
0.0
 40
0.5
 41
1.5745
 46
0.0
 71
     1
 72
     5
  1
100mm
  7
Swisslt
 73
     1
 44
1.0
  0
INSERT
  5
4022
330
18
100
AcDbEntity
  8
1-Continuous
 48
0.1
100
AcDbBlockReference
  2
North-arrow
 10
622.1108378496929
 20
13.13394538054922
 30
0.0
 41
2707.040025893482
 42
2707.040025893482
 43
2707.040025893483
  0
INSERT
  5
4035
330
18
100
AcDbEntity
  8
1-Continuous
 48
0.1
100
AcDbBlockReference
  2
Section arrows
 10
6.356559782919945
 20
-8.601930421599953
 30
0.0
 41
7.720534612316388
 42
7.720534612316388
 43
7.720534612316388
  0
INSERT
  5
4037
330
18
100
AcDbEntity
  8
1-Continuous
 48
0.1
100
AcDbBlockReference
  2
Section arrows
 10
13.48666804938854
 20
-8.602717813767647
 30
0.0
 41
7.720534612316388
 42
7.720534612316388
 43
7.720534612316388
  0
INSERT
  5
4038
330
18
100
AcDbEntity
  8
1-Continuous
 48
0.1
100
AcDbBlockReference
  2
Section arrows
 10
6.498864501294733
 20
13.09634824549517
 30
0.0
 41
7.720534612316388
 42
7.720534612316388
 43
7.720534612316388
 50
180.0
  0
INSERT
  5
4039
330
18
100
AcDbEntity
  8
1-Continuous
 48
0.1
100
AcDbBlockReference
  2
Section arrows
 10
14.51465671798745
 20
13.11606714909227
 30
0.0
 41
7.720534612316388
 42
7.720534612316388
 43
7.720534612316388
 50
180.0
  0
INSERT
  5
403B
330
18
100
AcDbEntity
  8
1-Continuous
 48
0.1
100
AcDbBlockReference
  2
Section arrows
 10
-8.438098920835369
 20
6.574527225548825
 30
0.0
 41
7.720534612316388
 42
7.720534612316388
 43
7.720534612316388
 50
308.5048462815835
  0
INSERT
  5
403C
330
18
100
AcDbEntity
  8
1-Continuous
 48
0.1
100
AcDbBlockReference
  2
Section arrows
 10
-3.826359497953131
 20
-2.059810973026454
 30
0.0
 41
7.720534612316388
 42
7.720534612316388
 43
7.720534612316388
 50
308.5048462815835
  0
LWPOLYLINE
  5
4046
330
18
100
AcDbEntity
  8
1-Continuous
 48
0.1
370
     0
100
AcDbPolyline
 90
        4
 70
     0
 43
0.0
 10
6.357693920092061
 20
-8.862372790645622
 10
6.357693920092061
 20
-11.87108156072168
 10
13.47139280027386
 20
-11.87108156072168
 10
13.47139280027386
 20
-9.043933480064652
  0
LWPOLYLINE
  5
404C
330
18
100
AcDbEntity
  8
1-Continuous
 48
0.1
370
     0
100
AcDbPolyline
 90
        4
 70
     0
 43
0.0
 10
6.533259831775467
 20
13.7162877891094
 10
6.533259831775467
 20
15.95174601760118
 10
14.55505669032345
 20
15.95174601760118
 10
14.55505669032345
 20
13.84476158702455
  0
LWPOLYLINE
  5
42DB
330
18
100
AcDbEntity
  8
Tooled area
 48
0.1
100
AcDbPolyline
 90
       75
 70
     0
 43
0.0
 10
-4.918311771186751
 20
-2.694197687430362
 10
-5.004353471615541
 20
-2.551419432441666
 10
-5.090445673599232
 20
-2.423908185972
 10
-5.135926855975303
 20
-2.327065627353452
 10
-5.197763229231896
 20
-2.215453286223237
 10
-5.262495406753548
 20
-2.128173670315256
 10
-5.36438324208666
 20
-2.037686538307298
 10
-5.490995518990015
 20
-1.974746061801495
 10
-5.664402126421919
 20
-1.92206090600439
 10
-5.86207187999559
 20
-1.846292119640408
 10
-6.076445930521459
 20
-1.742043568099916
 10
-6.218297572150277
 20
-1.676787459919296
 10
-6.390469648888692
 20
-1.585002254247124
 10
-6.497103034599043
 20
-1.513402703607369
 10
-6.58339724280232
 20
-1.446959491213823
 10
-6.674763619993643
 20
-1.375410442128965
 10
-6.780536876171482
 20
-1.265515714126877
 10
-6.867371370726257
 20
-1.140676625141809
 10
-6.917891054387105
 20
-1.0285502241526
 10
-6.956163294441467
 20
-0.9504865515250458
 10
-6.996693631476774
 20
-0.8334763034538355
 10
-7.01020172693552
 20
-0.743466848681237
 10
-7.007950881913985
 20
-0.6579585738854803
 10
-6.998944476498309
 20
-0.5747008890784855
 10
-6.990237578686447
 20
-0.504285083319246
 10
-6.994739268729518
 20
-0.4007752318973417
 10
-7.052971059533084
 20
-0.32581331828316
 10
-7.118909256377657
 20
-0.2594374412961411
 10
-7.195042292753214
 20
-0.1981168994455356
 10
-7.393025221803256
 20
-0.0498792968812474
 10
-7.585834978755459
 20
0.1237864860297897
 10
-7.76331813437946
 20
0.3118461127676255
 10
-7.927838568679363
 20
0.5011157015535446
 10
-8.067799379477037
 20
0.6681339963047321
 10
-8.182631804859284
 20
0.8211473976286925
 10
-8.300455288965793
 20
1.011646553213691
 10
-8.366241981145672
 20
1.123823455757798
 10
-8.437100842313596
 20
1.241106194993213
 10
-8.512964537063032
 20
1.383850782278644
 10
-8.577597624890132
 20
1.520805846884741
 10
-8.624880496990045
 20
1.628815306642764
 10
-8.681169774505634
 20
1.772827919653309
 10
-8.735079439884121
 20
1.929114775595863
 10
-8.765276779889529
 20
2.030995835499189
 10
-8.79770848563021
 20
2.206099496912202
 10
-8.823435886253264
 20
2.363667514008739
 10
-8.849072526996224
 20
2.526803855357912
 10
-8.870007940365408
 20
2.677652707022391
 10
-8.884584760967503
 20
2.886352325004028
 10
-8.884079745418529
 20
3.039022410194324
 10
-8.878485727029876
 20
3.191675661532987
 10
-8.85765836782546
 20
3.3341004056374
 10
-8.831800921850572
 20
3.468825071468018
 10
-8.800736640897597
 20
3.618899392291326
 10
-8.774769777298605
 20
3.776574311063136
 10
-8.748870249106146
 20
3.91389321847624
 10
-8.73316556044467
 20
4.046156790752935
 10
-8.72253304077124
 20
4.183526199720934
 10
-8.722112194480427
 20
4.310751270712849
 10
-8.731953523127128
 20
4.412564995209646
 10
-8.764671889345664
 20
4.650501116897203
 10
-8.817086195567764
 20
4.830149403540872
 10
-8.891626809353056
 20
5.010923988045988
 10
-8.946409472862342
 20
5.14315557971986
 10
-9.003660805105028
 20
5.265757726659331
 10
-9.093625023393997
 20
5.425142560813811
 10
-9.17601499025298
 20
5.553983010240849
 10
-9.238704691418206
 20
5.620794583917814
 10
-9.3129803867818
 20
5.686751598066518
 10
-9.414474268097578
 20
5.773601323373672
 10
-9.475373963657372
 20
5.824693357990025
 10
-9.530990833985925
 20
5.879750737014319
 10
-9.597106019370429
 20
5.947233438581442
 10
-9.647861376954133
 20
5.988113799815178
 10
-9.728982413059573
 20
6.079985192555476
  0
LWPOLYLINE
  5
42EC
330
18
100
AcDbEntity
  8
1-Continuous
 48
0.1
370
     0
100
AcDbPolyline
 90
        4
 70
     1
 43
0.0
 10
-15.39500245031377
 20
18.07687799727501
 10
29.99472707232781
 20
18.07687799727501
 10
29.99472707232781
 20
-18.9169634538539
 10
-15.39500245031377
 20
-18.9169634538539
  0
VIEWPORT
  5
3A2B
330
3A2A
100
AcDbEntity
 67
     1
  8
0
100
AcDbViewport
 10
50.78859714646413
 20
482.5891788849064
 30
0.0
 40
102.868141255253
 41
90.34719804757302
 68
     1
 69
     1
 12
50.78859714646413
 22
482.5891788849064
 13
0.0
 23
0.0
 14
0.5
 24
0.5
 15
10.0
 25
10.0
 16
0.0
 26
0.0
 36
1.0
 17
0.0
 27
0.0
 37
0.0
 42
50.0
 43
0.0
 44
0.0
 45
90.34719804757302
 50
0.0
 51
0.0
 72
   100
 90
    32800
  1

281
     0
 71
     1
 74
     0
110
0.0
120
0.0
130
0.0
111
1.0
121
0.0
131
0.0
112
0.0
122
1.0
132
0.0
 79
     0
146
0.0
170
     0
 61
     5
348
4301
292
     1
282
     1
141
0.0
142
0.0
 63
   256
  0
VIEWPORT
  5
3A2C
330
3A2A
100
AcDbEntity
 67
     1
  8
Layout
 48
0.5
100
AcDbViewport
 10
53.72587888201582
 20
492.8799339107171
 30
0.0
 40
39.2796566706434
 41
26.13444041911365
 69
    -1
 12
23.16568811685801
 22
15.68609846772222
 13
0.0
 23
0.0
 14
10.0
 24
10.0
 15
10.0
 25
10.0
 16
0.0
 26
0.0
 36
1.0
 17
0.0
 27
0.0
 37
0.0
 42
50.0
 43
0.0
 44
0.0
 45
35.62640897847624
 50
0.0
 51
0.0
 72
   100
 90
   164384
  1

281
     0
 71
     1
 74
     0
110
0.0
120
0.0
130
0.0
111
1.0
121
0.0
131
0.0
112
0.0
122
1.0
132
0.0
 79
     0
146
0.0
170
     0
 61
     5
348
4301
292
     1
282
     1
141
0.0
142
0.0
 63
   256
  0
VIEWPORT
  5
3A2D
330
3A2A
100
AcDbEntity
 67
     1
  8
Layout
 48
0.1
100
AcDbViewport
 10
53.72587888201582
 20
492.8799339107171
 30
0.0
 40
39.27965667064341
 41
26.13444041911362
 68
     2
 69
     3
 12
57.52278205857122
 22
48.23290347551913
 13
0.0
 23
0.0
 14
0.25
 24
0.25
 15
10.0
 25
10.0
 16
0.0
 26
0.0
 36
1.0
 17
0.0
 27
0.0
 37
0.0
 42
50.0
 43
0.0
 44
0.0
 45
43.55740106459346
 50
0.0
 51
0.0
 72
   100
 90
    32800
  1

281
     0
 71
     1
 74
     0
110
0.0
120
0.0
130
0.0
111
1.0
121
0.0
131
0.0
112
0.0
122
1.0
132
0.0
 79
     0
146
0.0
170
     0
 61
     5
348
4301
292
     1
282
     1
141
0.0
142
0.0
 63
   256
  0
VIEWPORT
  5
3A2E
330
3A2A
100
AcDbEntity
 67
     1
  8
Layout
 48
0.1
100
AcDbViewport
 10
47.28808941862097
 20
467.4040333751955
 30
0.0
 40
27.01698194404425
 41
17.15704141801263
 69
    -1
 12
214.8317549297023
 22
78.54602710947385
 13
0.0
 23
0.0
 14
10.0
 24
10.0
 15
10.0
 25
10.0
 16
0.0
 26
0.0
 36
1.0
 17
0.0
 27
0.0
 37
0.0
 42
50.0
 43
0.0
 44
0.0
 45
259.0781751362616
 50
0.0
 51
0.0
 72
   100
 90
   164384
  1

281
     0
 71
     1
 74
     0
110
0.0
120
0.0
130
0.0
111
1.0
121
0.0
131
0.0
112
0.0
122
1.0
132
0.0
 79
     0
146
0.0
170
     0
 61
     5
348
4301
292
     1
282
     1
141
0.0
142
0.0
 63
   256
  0
VIEWPORT
  5
3A2F
330
3A2A
100
AcDbEntity
 67
     1
  8
Layout
 48
0.1
100
AcDbViewport
 10
47.28808941862097
 20
467.4040333751955
 30
0.0
 40
27.01698194404425
 41
17.15704141801263
 69
    -1
 12
208.3067458143732
 22
114.7088455048707
 13
0.0
 23
0.0
 14
0.25
 24
0.25
 15
10.0
 25
10.0
 16
0.0
 26
0.0
 36
1.0
 17
0.0
 27
0.0
 37
0.0
 42
50.0
 43
0.0
 44
0.0
 45
352.5082325719769
 50
0.0
 51
0.0
 72
   100
 90
   163872
  1

281
     0
 71
     1
 74
     0
110
0.0
120
0.0
130
0.0
111
1.0
121
0.0
131
0.0
112
0.0
122
1.0
132
0.0
 79
     0
146
0.0
170
     0
 61
     5
348
4301
292
     1
282
     1
141
0.0
142
0.0
 63
   256
  0
VIEWPORT
  5
3A30
330
3A2A
100
AcDbEntity
 67
     1
  8
Layout
 48
0.1
100
AcDbViewport
 10
47.28808941862097
 20
467.4040333751955
 30
0.0
 40
27.01698194404427
 41
17.15704141801263
 68
     3
 69
     6
 12
130.0124820246822
 22
39.19221297555197
 13
0.0
 23
0.0
 14
0.25
 24
0.25
 15
10.0
 25
10.0
 16
0.0
 26
0.0
 36
1.0
 17
0.0
 27
0.0
 37
0.0
 42
50.0
 43
0.0
 44
0.0
 45
28.59506903002105
 50
0.0
 51
0.0
 72
   100
 90
    32800
  1

281
     0
 71
     1
 74
     0
110
0.0
120
0.0
130
0.0
111
1.0
121
0.0
131
0.0
112
0.0
122
1.0
132
0.0
 79
     0
146
0.0
170
     0
 61
     5
348
4301
292
     1
282
     1
141
0.0
142
0.0
 63
   256
  0
VIEWPORT
  5
3A31
330
3A2A
100
AcDbEntity
 67
     1
  8
Layout
 48
0.1
100
AcDbViewport
 10
17.94947732112281
 20
477.3526441138475
 30
0.0
 40
27.36278405476667
 41
37.4526335732189
 69
    -1
 12
19.45629346482244
 22
4.131117493225554
 13
0.0
 23
0.0
 14
10.0
 24
10.0
 15
10.0
 25
10.0
 16
0.0
 26
0.0
 36
1.0
 17
0.0
 27
0.0
 37
0.0
 42
50.0
 43
0.0
 44
0.0
 45
64.59458350782997
 50
0.0
 51
0.0
 72
   100
 90
   164384
  1

281
     0
 71
     1
 74
     0
110
0.0
120
0.0
130
0.0
111
1.0
121
0.0
131
0.0
112
0.0
122
1.0
132
0.0
 79
     0
146
0.0
170
     0
 61
     5
348
4301
292
     1
282
     1
141
0.0
142
0.0
 63
   256
  0
VIEWPORT
  5
3A32
330
3A2A
100
AcDbEntity
 67
     1
  8
Layout
 48
0.1
100
AcDbViewport
 10
86.07947512550393
 20
492.8058812346018
 30
0.0
 40
18.58325166830521
 41
25.98633506688305
 69
    -1
 12
156.5736056244203
 22
112.0526464210261
 13
0.0
 23
0.0
 14
10.0
 24
10.0
 15
10.0
 25
10.0
 16
0.0
 26
0.0
 36
1.0
 17
0.0
 27
0.0
 37
0.0
 42
50.0
 43
0.0
 44
0.0
 45
245.2095258621329
 50
0.0
 51
0.0
 72
   100
 90
   164384
  1

281
     0
 71
     1
 74
     0
110
0.0
120
0.0
130
0.0
111
1.0
121
0.0
131
0.0
112
0.0
122
1.0
132
0.0
 79
     0
146
0.0
170
     0
 61
     5
348
4301
292
     1
282
     1
141
0.0
142
0.0
 63
   256
  0
VIEWPORT
  5
3A33
330
3A2A
100
AcDbEntity
 67
     1
  8
Layout
 48
0.1
100
AcDbViewport
 10
17.94947732112281
 20
477.3526441138475
 30
0.0
 40
27.36278405476668
 41
37.45263357321892
 68
     4
 69
     9
 12
210.0
 22
162.1077598215022
 13
0.0
 23
0.0
 14
0.25
 24
0.25
 15
10.0
 25
10.0
 16
0.0
 26
0.0
 36
1.0
 17
0.0
 27
0.0
 37
0.0
 42
50.0
 43
0.0
 44
0.0
 45
593.4165487582003
 50
0.0
 51
0.0
 72
   100
 90
    32800
  1

281
     0
 71
     1
 74
     0
110
0.0
120
0.0
130
0.0
111
1.0
121
0.0
131
0.0
112
0.0
122
1.0
132
0.0
 79
     0
146
0.0
170
     0
 61
     5
348
4301
292
     1
282
     1
141
0.0
142
0.0
 63
   256
  0
VIEWPORT
  5
3A34
330
3A2A
100
AcDbEntity
 67
     1
  8
Layout
 48
0.1
100
AcDbViewport
 10
86.07947512550393
 20
492.8058812346018
 30
0.0
 40
18.58325166830519
 41
25.9863350668831
 68
     5
 69
    10
 12
189.669676904447
 22
178.469724513822
 13
0.0
 23
0.0
 14
0.25
 24
0.25
 15
10.0
 25
10.0
 16
0.0
 26
0.0
 36
1.0
 17
0.0
 27
0.0
 37
0.0
 42
50.0
 43
0.0
 44
0.0
 45
674.8184773065559
 50
0.0
 51
0.0
 72
   100
 90
    32800
  1

281
     0
 71
     1
 74
     0
110
0.0
120
0.0
130
0.0
111
1.0
121
0.0
131
0.0
112
0.0
122
1.0
132
0.0
 79
     0
146
0.0
170
     0
 61
     5
348
4301
292
     1
282
     1
141
0.0
142
0.0
 63
   256
  0
LWPOLYLINE
  5
3A35
330
3A2A
100
AcDbEntity
 67
     1
  8
Layout
 48
0.1
100
AcDbPolyline
 90
        4
 70
     1
 43
0.03
 10
34.08605054669412
 20
505.9471541202739
 10
73.36570721733753
 20
505.9471541202739
 10
73.36570721733753
 20
479.8127137011602
 10
34.08605054669411
 20
479.8127137011602
  0
LWPOLYLINE
  5
3A36
330
3A2A
100
AcDbEntity
 67
     1
  8
Layout
 48
0.1
100
AcDbPolyline
 90
        4
 70
     1
 43
0.03
 10
76.78784929135134
 20
505.7990487680433
 10
95.37110095965653
 20
505.7990487680433
 10
95.37110095965653
 20
479.8127137011602
 10
76.78784929135134
 20
479.8127137011602
  0
LWPOLYLINE
  5
3A37
330
3A2A
100
AcDbEntity
 67
     1
  8
Layout
 48
0.1
100
AcDbPolyline
 90
        4
 70
     1
 43
0.03
 10
33.77959844659885
 20
475.9825540842018
 10
60.7965803906431
 20
475.9825540842018
 10
60.7965803906431
 20
458.8255126661891
 10
33.77959844659885
 20
458.8255126661891
  0
LWPOLYLINE
  5
3A38
330
3A2A
100
AcDbEntity
 67
     1
  8
Layout
 48
0.1
100
AcDbPolyline
 90
        4
 70
     1
 43
0.03
 10
31.63086934850615
 20
458.6263273272381
 10
31.63086934850615
 20
496.078960900457
 10
4.268085293739469
 20
496.078960900457
 10
4.268085293739469
 20
458.6263273272381
  0
LWPOLYLINE
  5
3A39
330
3A2A
100
AcDbEntity
 67
     1
  8
Layout
100
AcDbPolyline
 90
        2
 70
     0
 43
0.0
 10
49.88208315294021
 20
457.2729293134292
 10
49.88208315294023
 20
458.5880069749211
  0
LWPOLYLINE
  5
3A3A
330
3A2A
100
AcDbEntity
 67
     1
  8
Layout
 48
0.1
100
AcDbPolyline
 90
        4
 70
     1
 43
0.03
 10
45.9482579414775
 20
458.5880069749211
 10
60.77054661279238
 20
458.5880069749211
 10
60.77054661279234
 20
457.2729293134292
 10
45.9482579414775
 20
457.2729293134292
  0
MTEXT
  5
3A3B
330
3A2A
100
AcDbEntity
 67
     1
  8
Layout
100
AcDbMText
 10
46.07787384358114
 20
458.3268902875953
 30
0.0
 40
0.16
 41
8.2194
 46
0.0
 71
     1
 72
     5
  1
{\fTimes New Roman|b0|i0|c0|p16;© \fTimes New Roman|b1|i0|c0|p18;ARCHAEOLOGY SOUTH EAST}
 73
     1
 44
1.0
  0
LWPOLYLINE
  5
3A3C
330
3A2A
100
AcDbEntity
 67
     1
  8
Layout
 48
0.1
100
AcDbPolyline
 90
        2
 70
     0
 43
0.0
 10
59.53063273536612
 20
458.5880069749211
 10
59.53063273536612
 20
457.2729293134292
  0
LWPOLYLINE
  5
3A3D
330
3A2A
100
AcDbEntity
 67
     1
  8
Layout
 48
0.1
100
AcDbPolyline
 90
        2
 70
     0
 43
0.0
 10
49.8820831529402
 20
457.2729293134292
 10
45.9482579414775
 20
457.2729293134292
  0
MTEXT
  5
3A3E
330
3A2A
100
AcDbEntity
 67
     1
  8
Layout
 48
0.1
100
AcDbMText
 10
60.15058273536612
 20
457.9304681441752
 30
0.0
 40
0.2
 41
1.2399
 46
0.0
 71
     5
 72
     5
  1
Fig. 
  7
Swisslt
 73
     1
 44
1.0
  0
LWPOLYLINE
  5
3A3F
330
3A2A
100
AcDbEntity
 67
     1
  8
Layout
 48
0.1
100
AcDbPolyline
 90
        2
 70
     0
 43
0.0
 10
59.53063273536612
 20
458.5880069749211
 10
59.53063273536612
 20
457.2729293134292
  0
LWPOLYLINE
  5
3A40
330
3A2A
100
AcDbEntity
 67
     1
  8
Layout
 48
0.1
100
AcDbPolyline
 90
        2
 70
     0
 43
0.0
 10
59.53063273536612
 20
457.9304681441752
 10
45.9482579414775
 20
457.9304681441752
  0
LWPOLYLINE
  5
3A41
330
3A2A
100
AcDbEntity
 67
     1
  8
Layout
 48
0.1
100
AcDbPolyline
 90
        2
 70
     0
 43
0.0
 10
45.9482579414775
 20
457.9304681441752
 10
49.88208315294023
 20
457.9304681441752
  0
LWPOLYLINE
  5
3A42
330
3A2A
100
AcDbEntity
 67
     1
  8
Layout
 48
0.1
100
AcDbPolyline
 90
        2
 70
     0
 43
0.0
 10
47.91517054720886
 20
457.9304681441752
 10
47.91517054720886
 20
457.2729293134292
  0
MTEXT
  5
3A43
330
3A2A
100
AcDbEntity
 67
     1
  8
Layout
 48
0.1
100
AcDbMText
 10
46.9317079414775
 20
457.6016987288022
 30
0.0
 40
0.18
 41
1.9669
 46
0.0
 71
     5
 72
     5
  1
Ref: 1
  7
Swisslt
 73
     1
 44
1.0
  0
MTEXT
  5
3A44
330
3A2A
100
AcDbEntity
 67
     1
  8
Layout
 48
0.1
100
AcDbMText
 10
48.89862054720886
 20
457.6016987288022
 30
0.0
 40
0.18
 41
1.9669
 46
0.0
 71
     5
 72
     5
  1
 2004
  7
Swisslt
 73
     1
 44
1.0
  0
MTEXT
  5
3A45
330
3A2A
100
AcDbEntity
 67
     1
  8
Layout
 48
0.1
100
AcDbMText
 10
54.70633315294023
 20
458.2592375595481
 30
0.0
 40
0.2
 41
9.6485
 46
0.0
 71
     5
 72
     5
  1
S
  7
Swisslt
 73
     1
 44
1.0
  0
MTEXT
  5
3A46
330
3A2A
100
AcDbEntity
 67
     1
  8
Layout
 48
0.1
100
AcDbMText
 10
54.70633315294022
 20
457.6016987288022
 30
0.0
 40
0.2
 41
9.6485
 46
0.0
 71
     5
 72
     5
  1
S
  7
Swisslt
 73
     1
 44
1.0
  0
LWPOLYLINE
  5
3A47
330
3A2A
100
AcDbEntity
 67
     1
  8
Layout
100
AcDbPolyline
 90
        2
 70
     0
 43
0.0
 10
62.45120997963465
 20
478.2601303484004
 10
62.45120997963467
 20
479.5752080098922
  0
LWPOLYLINE
  5
3A48
330
3A2A
100
AcDbEntity
 67
     1
  8
Layout
 48
0.1
100
AcDbPolyline
 90
        4
 70
     1
 43
0.03
 10
58.51738476817194
 20
479.5752080098922
 10
73.33967343948682
 20
479.5752080098922
 10
73.33967343948677
 20
478.2601303484004
 10
58.51738476817194
 20
478.2601303484004
  0
MTEXT
  5
3A49
330
3A2A
100
AcDbEntity
 67
     1
  8
Layout
100
AcDbMText
 10
58.64700067027557
 20
479.3140913225664
 30
0.0
 40
0.16
 41
8.2194
 46
0.0
 71
     1
 72
     5
  1
{\fTimes New Roman|b0|i0|c0|p16;© \fTimes New Roman|b1|i0|c0|p18;ARCHAEOLOGY SOUTH EAST}
 73
     1
 44
1.0
  0
LWPOLYLINE
  5
3A4A
330
3A2A
100
AcDbEntity
 67
     1
  8
Layout
 48
0.1
100
AcDbPolyline
 90
        2
 70
     0
 43
0.0
 10
72.09975956206056
 20
479.5752080098922
 10
72.09975956206056
 20
478.2601303484004
  0
LWPOLYLINE
  5
3A4B
330
3A2A
100
AcDbEntity
 67
     1
  8
Layout
 48
0.1
100
AcDbPolyline
 90
        2
 70
     0
 43
0.0
 10
62.45120997963464
 20
478.2601303484004
 10
58.51738476817194
 20
478.2601303484004
  0
MTEXT
  5
3A4C
330
3A2A
100
AcDbEntity
 67
     1
  8
Layout
 48
0.1
100
AcDbMText
 10
72.71970956206056
 20
478.9176691791463
 30
0.0
 40
0.2
 41
1.2399
 46
0.0
 71
     5
 72
     5
  1
Fig. 
  7
Swisslt
 73
     1
 44
1.0
  0
LWPOLYLINE
  5
3A4D
330
3A2A
100
AcDbEntity
 67
     1
  8
Layout
 48
0.1
100
AcDbPolyline
 90
        2
 70
     0
 43
0.0
 10
72.09975956206056
 20
479.5752080098922
 10
72.09975956206056
 20
478.2601303484004
  0
LWPOLYLINE
  5
3A4E
330
3A2A
100
AcDbEntity
 67
     1
  8
Layout
 48
0.1
100
AcDbPolyline
 90
        2
 70
     0
 43
0.0
 10
72.09975956206056
 20
478.9176691791463
 10
58.51738476817194
 20
478.9176691791463
  0
LWPOLYLINE
  5
3A4F
330
3A2A
100
AcDbEntity
 67
     1
  8
Layout
 48
0.1
100
AcDbPolyline
 90
        2
 70
     0
 43
0.0
 10
58.51738476817194
 20
478.9176691791463
 10
62.45120997963466
 20
478.9176691791463
  0
LWPOLYLINE
  5
3A50
330
3A2A
100
AcDbEntity
 67
     1
  8
Layout
 48
0.1
100
AcDbPolyline
 90
        2
 70
     0
 43
0.0
 10
60.4842973739033
 20
478.9176691791463
 10
60.4842973739033
 20
478.2601303484004
  0
MTEXT
  5
3A51
330
3A2A
100
AcDbEntity
 67
     1
  8
Layout
 48
0.1
100
AcDbMText
 10
59.50083476817193
 20
478.5888997637733
 30
0.0
 40
0.18
 41
1.9669
 46
0.0
 71
     5
 72
     5
  1
Ref: 1
  7
Swisslt
 73
     1
 44
1.0
  0
MTEXT
  5
3A52
330
3A2A
100
AcDbEntity
 67
     1
  8
Layout
 48
0.1
100
AcDbMText
 10
61.46774737390329
 20
478.5888997637733
 30
0.0
 40
0.18
 41
1.9669
 46
0.0
 71
     5
 72
     5
  1
 2004
  7
Swisslt
 73
     1
 44
1.0
  0
MTEXT
  5
3A53
330
3A2A
100
AcDbEntity
 67
     1
  8
Layout
 48
0.1
100
AcDbMText
 10
67.27545997963466
 20
479.2464385945192
 30
0.0
 40
0.2
 41
9.6485
 46
0.0
 71
     5
 72
     5
  1
S
  7
Swisslt
 73
     1
 44
1.0
  0
MTEXT
  5
3A54
330
3A2A
100
AcDbEntity
 67
     1
  8
Layout
 48
0.1
100
AcDbMText
 10
67.27545997963466
 20
478.5888997637733
 30
0.0
 40
0.2
 41
9.6485
 46
0.0
 71
     5
 72
     5
  1
S
  7
Swisslt
 73
     1
 44
1.0
  0
LWPOLYLINE
  5
3A55
330
3A2A
100
AcDbEntity
 67
     1
  8
Layout
100
AcDbPolyline
 90
        2
 70
     0
 43
0.0
 10
84.45660372195366
 20
478.2601303484004
 10
84.45660372195367
 20
479.5752080098922
  0
LWPOLYLINE
  5
3A56
330
3A2A
100
AcDbEntity
 67
     1
  8
Layout
 48
0.1
100
AcDbPolyline
 90
        4
 70
     1
 43
0.03
 10
80.52277851049094
 20
479.5752080098922
 10
95.34506718180582
 20
479.5752080098922
 10
95.34506718180577
 20
478.2601303484004
 10
80.52277851049094
 20
478.2601303484004
  0
MTEXT
  5
3A57
330
3A2A
100
AcDbEntity
 67
     1
  8
Layout
100
AcDbMText
 10
80.65239441259457
 20
479.3140913225664
 30
0.0
 40
0.16
 41
8.2194
 46
0.0
 71
     1
 72
     5
  1
{\fTimes New Roman|b0|i0|c0|p16;© \fTimes New Roman|b1|i0|c0|p18;ARCHAEOLOGY SOUTH EAST}
 73
     1
 44
1.0
  0
LWPOLYLINE
  5
3A58
330
3A2A
100
AcDbEntity
 67
     1
  8
Layout
 48
0.1
100
AcDbPolyline
 90
        2
 70
     0
 43
0.0
 10
94.10515330437956
 20
479.5752080098922
 10
94.10515330437956
 20
478.2601303484004
  0
LWPOLYLINE
  5
3A59
330
3A2A
100
AcDbEntity
 67
     1
  8
Layout
 48
0.1
100
AcDbPolyline
 90
        2
 70
     0
 43
0.0
 10
84.45660372195364
 20
478.2601303484004
 10
80.52277851049094
 20
478.2601303484004
  0
MTEXT
  5
3A5A
330
3A2A
100
AcDbEntity
 67
     1
  8
Layout
 48
0.1
100
AcDbMText
 10
94.72510330437956
 20
478.9176691791463
 30
0.0
 40
0.2
 41
1.2399
 46
0.0
 71
     5
 72
     5
  1
Fig. 
  7
Swisslt
 73
     1
 44
1.0
  0
LWPOLYLINE
  5
3A5B
330
3A2A
100
AcDbEntity
 67
     1
  8
Layout
 48
0.1
100
AcDbPolyline
 90
        2
 70
     0
 43
0.0
 10
94.10515330437956
 20
479.5752080098922
 10
94.10515330437956
 20
478.2601303484004
  0
LWPOLYLINE
  5
3A5C
330
3A2A
100
AcDbEntity
 67
     1
  8
Layout
 48
0.1
100
AcDbPolyline
 90
        2
 70
     0
 43
0.0
 10
94.10515330437956
 20
478.9176691791463
 10
80.52277851049094
 20
478.9176691791463
  0
LWPOLYLINE
  5
3A5D
330
3A2A
100
AcDbEntity
 67
     1
  8
Layout
 48
0.1
100
AcDbPolyline
 90
        2
 70
     0
 43
0.0
 10
80.52277851049094
 20
478.9176691791463
 10
84.45660372195366
 20
478.9176691791463
  0
LWPOLYLINE
  5
3A5E
330
3A2A
100
AcDbEntity
 67
     1
  8
Layout
 48
0.1
100
AcDbPolyline
 90
        2
 70
     0
 43
0.0
 10
82.4896911162223
 20
478.9176691791463
 10
82.4896911162223
 20
478.2601303484004
  0
MTEXT
  5
3A5F
330
3A2A
100
AcDbEntity
 67
     1
  8
Layout
 48
0.1
100
AcDbMText
 10
81.50622851049093
 20
478.5888997637733
 30
0.0
 40
0.18
 41
1.9669
 46
0.0
 71
     5
 72
     5
  1
Ref: 1
  7
Swisslt
 73
     1
 44
1.0
  0
MTEXT
  5
3A60
330
3A2A
100
AcDbEntity
 67
     1
  8
Layout
 48
0.1
100
AcDbMText
 10
83.4731411162223
 20
478.5888997637733
 30
0.0
 40
0.18
 41
1.9669
 46
0.0
 71
     5
 72
     5
  1
 2004
  7
Swisslt
 73
     1
 44
1.0
  0
MTEXT
  5
3A61
330
3A2A
100
AcDbEntity
 67
     1
  8
Layout
 48
0.1
100
AcDbMText
 10
89.28085372195366
 20
479.2464385945192
 30
0.0
 40
0.2
 41
9.6485
 46
0.0
 71
     5
 72
     5
  1
S
  7
Swisslt
 73
     1
 44
1.0
  0
MTEXT
  5
3A62
330
3A2A
100
AcDbEntity
 67
     1
  8
Layout
 48
0.1
100
AcDbMText
 10
89.28085372195366
 20
478.5888997637733
 30
0.0
 40
0.2
 41
9.6485
 46
0.0
 71
     5
 72
     5
  1
S
  7
Swisslt
 73
     1
 44
1.0
  0
LWPOLYLINE
  5
3A63
330
3A2A
100
AcDbEntity
 67
     1
  8
Layout
100
AcDbPolyline
 90
        2
 70
     0
 43
0.0
 10
20.71637211080326
 20
457.0737439744782
 10
20.71637211080328
 20
458.38882163597
  0
LWPOLYLINE
  5
3A64
330
3A2A
100
AcDbEntity
 67
     1
  8
Layout
 48
0.1
100
AcDbPolyline
 90
        4
 70
     1
 43
0.03
 10
16.78254689934055
 20
458.38882163597
 10
31.60483557065542
 20
458.38882163597
 10
31.60483557065538
 20
457.0737439744782
 10
16.78254689934055
 20
457.0737439744782
  0
MTEXT
  5
3A65
330
3A2A
100
AcDbEntity
 67
     1
  8
Layout
100
AcDbMText
 10
16.91216280144418
 20
458.1277049486442
 30
0.0
 40
0.16
 41
8.2194
 46
0.0
 71
     1
 72
     5
  1
{\fTimes New Roman|b0|i0|c0|p16;© \fTimes New Roman|b1|i0|c0|p18;ARCHAEOLOGY SOUTH EAST}
 73
     1
 44
1.0
  0
LWPOLYLINE
  5
3A66
330
3A2A
100
AcDbEntity
 67
     1
  8
Layout
 48
0.1
100
AcDbPolyline
 90
        2
 70
     0
 43
0.0
 10
30.36492169322916
 20
458.38882163597
 10
30.36492169322916
 20
457.0737439744782
  0
LWPOLYLINE
  5
3A67
330
3A2A
100
AcDbEntity
 67
     1
  8
Layout
 48
0.1
100
AcDbPolyline
 90
        2
 70
     0
 43
0.0
 10
20.71637211080325
 20
457.0737439744782
 10
16.78254689934055
 20
457.0737439744782
  0
MTEXT
  5
3A68
330
3A2A
100
AcDbEntity
 67
     1
  8
Layout
 48
0.1
100
AcDbMText
 10
30.98487169322917
 20
457.7312828052241
 30
0.0
 40
0.2
 41
1.2399
 46
0.0
 71
     5
 72
     5
  1
Fig. 
  7
Swisslt
 73
     1
 44
1.0
  0
LWPOLYLINE
  5
3A69
330
3A2A
100
AcDbEntity
 67
     1
  8
Layout
 48
0.1
100
AcDbPolyline
 90
        2
 70
     0
 43
0.0
 10
30.36492169322916
 20
458.38882163597
 10
30.36492169322916
 20
457.0737439744782
  0
LWPOLYLINE
  5
3A6A
330
3A2A
100
AcDbEntity
 67
     1
  8
Layout
 48
0.1
100
AcDbPolyline
 90
        2
 70
     0
 43
0.0
 10
30.36492169322916
 20
457.7312828052241
 10
16.78254689934055
 20
457.7312828052241
  0
LWPOLYLINE
  5
3A6B
330
3A2A
100
AcDbEntity
 67
     1
  8
Layout
 48
0.1
100
AcDbPolyline
 90
        2
 70
     0
 43
0.0
 10
16.78254689934055
 20
457.7312828052241
 10
20.71637211080327
 20
457.7312828052241
  0
LWPOLYLINE
  5
3A6C
330
3A2A
100
AcDbEntity
 67
     1
  8
Layout
 48
0.1
100
AcDbPolyline
 90
        2
 70
     0
 43
0.0
 10
18.7494595050719
 20
457.7312828052241
 10
18.7494595050719
 20
457.0737439744782
  0
MTEXT
  5
3A6D
330
3A2A
100
AcDbEntity
 67
     1
  8
Layout
 48
0.1
100
AcDbMText
 10
17.76599689934054
 20
457.4025133898512
 30
0.0
 40
0.18
 41
1.9669
 46
0.0
 71
     5
 72
     5
  1
Ref: 1
  7
Swisslt
 73
     1
 44
1.0
  0
MTEXT
  5
3A6E
330
3A2A
100
AcDbEntity
 67
     1
  8
Layout
 48
0.1
100
AcDbMText
 10
19.7329095050719
 20
457.4025133898512
 30
0.0
 40
0.18
 41
1.9669
 46
0.0
 71
     5
 72
     5
  1
 2004
  7
Swisslt
 73
     1
 44
1.0
  0
MTEXT
  5
3A6F
330
3A2A
100
AcDbEntity
 67
     1
  8
Layout
 48
0.1
100
AcDbMText
 10
25.54062211080328
 20
458.0600522205971
 30
0.0
 40
0.2
 41
9.6485
 46
0.0
 71
     5
 72
     5
  1
S
  7
Swisslt
 73
     1
 44
1.0
  0
MTEXT
  5
3A70
330
3A2A
100
AcDbEntity
 67
     1
  8
Layout
 48
0.1
100
AcDbMText
 10
25.54062211080327
 20
457.4025133898512
 30
0.0
 40
0.2
 41
9.6485
 46
0.0
 71
     5
 72
     5
  1
S
  7
Swisslt
 73
     1
 44
1.0
  0
ENDSEC
  0
SECTION
  2
OBJECTS
  0
DICTIONARY
  5
C
330
0
100
AcDbDictionary
281
     1
  3
ACAD_DETAILVIEWSTYLE
350
4376
  3
ACAD_GROUP
350
D
  3
ACAD_LAYOUT
350
2F3E
  3
ACAD_MATERIAL
350
4337
  3
ACAD_MLEADERSTYLE
350
433D
  3
ACAD_MLINESTYLE
350
1B
  3
ACAD_PLOTSETTINGS
350
2F3F
  3
ACAD_PLOTSTYLENAME
350
2F3C
  3
ACAD_SCALELIST
350
4315
  3
ACAD_SECTIONVIEWSTYLE
350
4377
  3
ACAD_TABLESTYLE
350
433B
  3
ACAD_VISUALSTYLE
350
42FC
  3
ACDB_RECOMPOSE_DATA
350
4372
  3
ACDBVARIABLEDICTIONARY
350
3A
  3
CONTENTDICTIONARY
350
1E30
  3
DRAWINGVARIABLESDICT
350
795
  0
DICTIONARY
  5
401B
330
2
100
AcDbDictionary
280
     1
281
     1
  3
ACAD_LAYERSTATES
360
401C
  0
DICTIONARY
  5
3E9
330
18
100
AcDbDictionary
280
     1
281
     1
  3
ACAD_SORTENTS
360
3EA
  0
DICTIONARY
  5
3A71
330
3A2A
100
AcDbDictionary
280
     1
281
     1
  3
ACAD_SORTENTS
360
3A72
  0
DICTIONARY
  5
3111
330
30AB
100
AcDbDictionary
280
     1
281
     1
  3
ACAD_SORTENTS
360
3112
  0
DICTIONARY
  5
4376
102
{ACAD_REACTORS
330
C
102
}
330
C
100
AcDbDictionary
281
     1
  0
DICTIONARY
  5
D
102
{ACAD_REACTORS
330
C
102
}
330
C
100
AcDbDictionary
281
     1
  0
DICTIONARY
  5
2F3E
102
{ACAD_REACTORS
330
C
102
}
330
C
100
AcDbDictionary
281
     1
  3
Layout 1
350
3115
  3
Layout 2
350
3A75
  3
Model
350
2F40
  0
DICTIONARY
  5
4337
102
{ACAD_REACTORS
330
C
102
}
330
C
100
AcDbDictionary
281
     1
  3
ByBlock
350
4339
  3
ByLayer
350
4338
  3
Global
350
433A
  0
DICTIONARY
  5
433D
102
{ACAD_REACTORS
330
C
102
}
330
C
100
AcDbDictionary
281
     1
  3
Standard
350
433E
  0
DICTIONARY
  5
1B
102
{ACAD_REACTORS
330
C
102
}
330
C
100
AcDbDictionary
281
     1
  3
STANDARD
350
1C
  0
DICTIONARY
  5
2F3F
102
{ACAD_REACTORS
330
C
102
}
330
C
100
AcDbDictionary
281
     1
  3
A3-Plot
350
2F55
  3
A4-Plot
350
2F56
  0
ACDBDICTIONARYWDFLT
  5
2F3C
102
{ACAD_REACTORS
330
C
102
}
330
C
100
AcDbDictionary
281
     1
  3
Normal
350
2F3D
100
AcDbDictionaryWithDefault
340
2F3D
  0
DICTIONARY
  5
4315
102
{ACAD_REACTORS
330
C
102
}
330
C
100
AcDbDictionary
281
     1
  3
A0
350
4316
  3
A1
350
4317
  3
A2
350
4318
  3
A3
350
4319
  3
A4
350
431A
  3
A5
350
431B
  3
A6
350
431C
  3
A7
350
431D
  3
A8
350
431E
  3
A9
350
431F
  3
B0
350
4320
  3
B1
350
4321
  3
B2
350
4322
  3
B3
350
4323
  3
B4
350
4324
  3
B5
350
4325
  3
B6
350
4326
  3
B7
350
4327
  3
B8
350
4328
  3
B9
350
4329
  3
C0
350
432A
  3
C1
350
432B
  3
C2
350
432C
  3
C3
350
432D
  3
C4
350
432E
  3
C5
350
432F
  3
C6
350
4330
  3
C7
350
4331
  3
C8
350
4332
  3
C9
350
4333
  3
D0
350
4334
  3
D1
350
4335
  3
D2
350
4336
  0
DICTIONARY
  5
4377
102
{ACAD_REACTORS
330
C
102
}
330
C
100
AcDbDictionary
281
     1
  0
DICTIONARY
  5
433B
102
{ACAD_REACTORS
330
C
102
}
330
C
100
AcDbDictionary
281
     1
  3
Standard
350
433C
  0
DICTIONARY
  5
42FC
102
{ACAD_REACTORS
330
C
102
}
330
C
100
AcDbDictionary
281
     1
  3
2dWireframe
350
4301
  3
Basic
350
4304
  3
Brighten
350
4308
  3
ColorChange
350
430C
  3
Conceptual
350
4306
  3
Dim
350
4307
  3
EdgeColorOff
350
430F
  3
Facepattern
350
430B
  3
Flat
350
42FD
  3
FlatWithEdges
350
42FE
  3
Gouraud
350
42FF
  3
GouraudWithEdges
350
4300
  3
Hidden
350
4303
  3
JitterOff
350
430D
  3
Linepattern
350
430A
  3
OverhangOff
350
430E
  3
Realistic
350
4305
  3
Shaded
350
4314
  3
Shaded with edges
350
4313
  3
Shades of Gray
350
4310
  3
Sketchy
350
4311
  3
Thicken
350
4309
  3
Wireframe
350
4302
  3
X-Ray
350
4312
  0
XRECORD
  5
4372
102
{ACAD_REACTORS
330
C
102
}
330
C
100
AcDbXrecord
280
     1
 90
        1
330
433C
  0
DICTIONARY
  5
3A
102
{ACAD_REACTORS
330
C
102
}
330
C
100
AcDbDictionary
281
     1
  3
CANNOSCALE
350
433F
  3
CMLEADERSTYLE
350
4374
  3
CTABLESTYLE
350
4373
  3
DIMASSOC
350
42EE
  3
MSLTSCALE
350
4375
  3
SORTENTS
350
3B
  0
DICTIONARY
  5
1E30
102
{ACAD_REACTORS
330
C
102
}
330
C
100
AcDbDictionary
281
     1
  0
DICTIONARY
  5
795
102
{ACAD_REACTORS
330
C
102
}
330
C
100
AcDbDictionary
281
     1
1001
DRAWINGVARIABLESXDATA
1000
POLARMODE
1000
0
  0
DICTIONARY
  5
401C
102
{ACAD_REACTORS
330
401B
102
}
330
401B
100
AcDbDictionary
281
     1
  0
SORTENTSTABLE
  5
3EA
102
{ACAD_REACTORS
330
3E9
102
}
330
3E9
100
AcDbSortentsTable
330
18
  0
SORTENTSTABLE
  5
3A72
102
{ACAD_REACTORS
330
3A71
102
}
330
3A71
100
AcDbSortentsTable
330
3A2A
  0
SORTENTSTABLE
  5
3112
102
{ACAD_REACTORS
330
3111
102
}
330
3111
100
AcDbSortentsTable
330
30AB
  0
LAYOUT
  5
3115
102
{ACAD_REACTORS
330
2F3E
102
}
330
2F3E
100
AcDbPlotSettings
  1

  2
HP DeskJet 1220C Printer
  4
A4
  6

 40
4.180416584014893
 41
13.49375152587891
 42
4.180404663085938
 43
3.67242431640625
 44
209.9733276367188
 45
297.0106506347656
 46
0.0
 47
0.0
 48
75.7048572244912
 49
478.1594806815935
140
95.47866264886784
141
506.1126323811667
142
10.0
143
1.0
 70
   672
 72
     1
 73
     2
 74
     4
  7

 75
     0
 76
     0
 77
     2
 78
   300
147
10.0
148
-75.7048572244912
149
-478.1594806815935
100
AcDbLayout
  1
Layout 1
 70
     0
 71
     1
 10
75.28681675818261
 20
477.7922382499529
 11
96.28414952185449
 21
507.4933033134295
 12
0.0
 22
0.0
 32
0.0
 14
4.25308529373947
 24
457.0587439744781
 34
0.0
 15
95.38610095965653
 25
505.9621541202739
 35
0.0
146
0.0
 13
0.0
 23
0.0
 33
0.0
 16
1.0
 26
0.0
 36
0.0
 17
0.0
 27
1.0
 37
0.0
 76
     0
330
30AB
331
30AC
  0
LAYOUT
  5
3A75
102
{ACAD_REACTORS
330
2F3E
102
}
330
2F3E
100
AcDbPlotSettings
  1

  2
HP DeskJet 1220C Printer
  4
A4
  6

 40
4.180416584014893
 41
13.49375152587891
 42
4.180404663085938
 43
3.67242431640625
 44
209.9733276367188
 45
297.0106506347656
 46
0.0
 47
0.0
 48
75.7048572244912
 49
478.1594806815935
140
95.47866264886784
141
506.1126323811667
142
10.0
143
1.0
 70
   672
 72
     1
 73
     2
 74
     4
  7

 75
     0
 76
     0
 77
     2
 78
   300
147
10.0
148
-75.7048572244912
149
-478.1594806815935
100
AcDbLayout
  1
Layout 2
 70
     0
 71
     2
 10
75.28681675818261
 20
477.7922382499529
 11
96.28414952185449
 21
507.4933033134295
 12
0.0
 22
0.0
 32
0.0
 14
4.25308529373947
 24
457.0587439744781
 34
0.0
 15
95.38610095965653
 25
505.9621541202739
 35
0.0
146
0.0
 13
0.0
 23
0.0
 33
0.0
 16
1.0
 26
0.0
 36
0.0
 17
0.0
 27
1.0
 37
0.0
 76
     0
330
3A2A
331
3A2B
  0
LAYOUT
  5
2F40
102
{ACAD_REACTORS
330
2F3E
102
}
330
2F3E
100
AcDbPlotSettings
  1

  2
EPSON Stylus Photo 870
  4
A4
  6

 40
3.757083
 41
14.76373
 42
3.75708
 43
3.75708
 44
209.973328
 45
296.968323
 46
1.31
 47
0.0
 48
-33.7166775797823
 49
-29.93189019507304
140
49.39811342183111
141
29.72054752593067
142
1.0
143
0.2984935656495284
 70
 11956
 72
     1
 73
     1
 74
     4
  7

 75
     0
 76
     0
 77
     2
 78
   300
147
3.350155966759212
148
33.7166775797823
149
29.93189019507304
100
AcDbLayout
  1
Model
 70
     1
 71
     0
 10
0.0
 20
0.0
 11
12.0
 21
9.0
 12
0.0
 22
0.0
 32
0.0
 14
0.0
 24
0.0
 34
0.0
 15
0.0
 25
0.0
 35
0.0
146
0.0
 13
0.0
 23
0.0
 33
0.0
 16
1.0
 26
0.0
 36
0.0
 17
0.0
 27
1.0
 37
0.0
 76
     0
330
18
331
42FB
  0
MATERIAL
  5
4339
102
{ACAD_REACTORS
330
4337
102
}
330
4337
100
AcDbMaterial
  1
ByBlock
 72
     1
 94
      127
  0
MATERIAL
  5
4338
102
{ACAD_REACTORS
330
4337
102
}
330
4337
100
AcDbMaterial
  1
ByLayer
 72
     1
 94
      127
  0
MATERIAL
  5
433A
102
{ACAD_REACTORS
330
4337
102
}
330
4337
100
AcDbMaterial
  1
Global
 72
     1
 94
      127
  0
MLEADERSTYLE
  5
433E
102
{ACAD_REACTORS
330
433D
102
}
330
433D
100
AcDbMLeaderStyle
179
     2
170
     2
171
     1
172
     0
 90
        2
 40
0.0
 41
0.0
173
     1
 91
-1056964608
340
12
 92
       -2
290
     1
 42
0.09
291
     1
 43
0.36
  3
Standard
341
0
 44
0.18
300

342
F
174
     1
178
     6
175
     1
176
     0
 93
-1056964608
 45
0.18
292
     0
297
     0
 46
0.18
343
0
 94
-1056964608
 47
1.0
 49
1.0
140
1.0
293
     1
141
0.0
294
     1
177
     0
142
1.0
295
     0
296
     0
143
0.125
271
     0
272
     9
273
     9
  0
MLINESTYLE
  5
1C
102
{ACAD_REACTORS
330
1B
102
}
330
1B
100
AcDbMlineStyle
  2
STANDARD
 70
     0
  3

 62
   256
 51
90.0
 52
90.0
 71
     2
 49
0.5
 62
   256
  6
BYLAYER
 49
-0.5
 62
   256
  6
BYLAYER
  0
PLOTSETTINGS
  5
2F55
102
{ACAD_REACTORS
330
2F3F
102
}
330
2F3F
100
AcDbPlotSettings
  1
A3-Plot
  2
HP DeskJet 1120C Printer
  4
A3
  6

 40
6.043083190917969
 41
13.49374103546143
 42
5.958404541015625
 43
3.757080078125
 44
296.9259948730469
 45
419.9466552734375
 46
0.0
 47
0.0
 48
33.73093801585458
 49
475.9379946301116
140
73.99544842978298
141
503.8693252760463
142
10.0
143
1.0
 70
   672
 72
     1
 73
     1
 74
     4
  7

 75
     0
 76
     0
 77
     2
 78
   300
147
10.0
148
-33.73093801585458
149
-475.9379946301116
  0
PLOTSETTINGS
  5
2F56
102
{ACAD_REACTORS
330
2F3F
102
}
330
2F3F
100
AcDbPlotSettings
  1
A4-Plot
  2
HP DeskJet 1120C Printer
  4
A4
  6

 40
4.180416584014893
 41
13.49374103546143
 42
4.180404663085938
 43
3.757080078125
 44
209.9733276367188
 45
296.9259948730469
 46
0.0
 47
0.0
 48
75.70157174280604
 49
476.4489335018667
140
94.81015301860253
141
504.039638233298
142
10.0
143
1.0
 70
   672
 72
     1
 73
     0
 74
     4
  7

 75
     0
 76
     0
 77
     2
 78
   300
147
10.0
148
-75.70157174280604
149
-476.4489335018667
  0
ACDBPLACEHOLDER
  5
2F3D
102
{ACAD_REACTORS
330
2F3C
102
}
330
2F3C
  0
SCALE
  5
4316
102
{ACAD_REACTORS
330
4315
102
}
330
4315
100
AcDbScale
 70
     0
300
1:1
140
1.0
141
1.0
290
     1
  0
SCALE
  5
4317
102
{ACAD_REACTORS
330
4315
102
}
330
4315
100
AcDbScale
 70
     0
300
1:2
140
1.0
141
2.0
290
     0
  0
SCALE
  5
4318
102
{ACAD_REACTORS
330
4315
102
}
330
4315
100
AcDbScale
 70
     0
300
1:4
140
1.0
141
4.0
290
     0
  0
SCALE
  5
4319
102
{ACAD_REACTORS
330
4315
102
}
330
4315
100
AcDbScale
 70
     0
300
1:5
140
1.0
141
5.0
290
     0
  0
SCALE
  5
431A
102
{ACAD_REACTORS
330
4315
102
}
330
4315
100
AcDbScale
 70
     0
300
1:8
140
1.0
141
8.0
290
     0
  0
SCALE
  5
431B
102
{ACAD_REACTORS
330
4315
102
}
330
4315
100
AcDbScale
 70
     0
300
1:10
140
1.0
141
10.0
290
     0
  0
SCALE
  5
431C
102
{ACAD_REACTORS
330
4315
102
}
330
4315
100
AcDbScale
 70
     0
300
1:16
140
1.0
141
16.0
290
     0
  0
SCALE
  5
431D
102
{ACAD_REACTORS
330
4315
102
}
330
4315
100
AcDbScale
 70
     0
300
1:20
140
1.0
141
20.0
290
     0
  0
SCALE
  5
431E
102
{ACAD_REACTORS
330
4315
102
}
330
4315
100
AcDbScale
 70
     0
300
1:30
140
1.0
141
30.0
290
     0
  0
SCALE
  5
431F
102
{ACAD_REACTORS
330
4315
102
}
330
4315
100
AcDbScale
 70
     0
300
1:40
140
1.0
141
40.0
290
     0
  0
SCALE
  5
4320
102
{ACAD_REACTORS
330
4315
102
}
330
4315
100
AcDbScale
 70
     0
300
1:50
140
1.0
141
50.0
290
     0
  0
SCALE
  5
4321
102
{ACAD_REACTORS
330
4315
102
}
330
4315
100
AcDbScale
 70
     0
300
1:100
140
1.0
141
100.0
290
     0
  0
SCALE
  5
4322
102
{ACAD_REACTORS
330
4315
102
}
330
4315
100
AcDbScale
 70
     0
300
2:1
140
2.0
141
1.0
290
     0
  0
SCALE
  5
4323
102
{ACAD_REACTORS
330
4315
102
}
330
4315
100
AcDbScale
 70
     0
300
4:1
140
4.0
141
1.0
290
     0
  0
SCALE
  5
4324
102
{ACAD_REACTORS
330
4315
102
}
330
4315
100
AcDbScale
 70
     0
300
8:1
140
8.0
141
1.0
290
     0
  0
SCALE
  5
4325
102
{ACAD_REACTORS
330
4315
102
}
330
4315
100
AcDbScale
 70
     0
300
10:1
140
10.0
141
1.0
290
     0
  0
SCALE
  5
4326
102
{ACAD_REACTORS
330
4315
102
}
330
4315
100
AcDbScale
 70
     0
300
100:1
140
100.0
141
1.0
290
     0
  0
SCALE
  5
4327
102
{ACAD_REACTORS
330
4315
102
}
330
4315
100
AcDbScale
 70
     0
300
1/128" = 1'-0"
140
0.0078125
141
12.0
290
     0
  0
SCALE
  5
4328
102
{ACAD_REACTORS
330
4315
102
}
330
4315
100
AcDbScale
 70
     0
300
1/64" = 1'-0"
140
0.015625
141
12.0
290
     0
  0
SCALE
  5
4329
102
{ACAD_REACTORS
330
4315
102
}
330
4315
100
AcDbScale
 70
     0
300
1/32" = 1'-0"
140
0.03125
141
12.0
290
     0
  0
SCALE
  5
432A
102
{ACAD_REACTORS
330
4315
102
}
330
4315
100
AcDbScale
 70
     0
300
1/16" = 1'-0"
140
0.0625
141
12.0
290
     0
  0
SCALE
  5
432B
102
{ACAD_REACTORS
330
4315
102
}
330
4315
100
AcDbScale
 70
     0
300
3/32" = 1'-0"
140
0.09375
141
12.0
290
     0
  0
SCALE
  5
432C
102
{ACAD_REACTORS
330
4315
102
}
330
4315
100
AcDbScale
 70
     0
300
1/8" = 1'-0"
140
0.125
141
12.0
290
     0
  0
SCALE
  5
432D
102
{ACAD_REACTORS
330
4315
102
}
330
4315
100
AcDbScale
 70
     0
300
3/16" = 1'-0"
140
0.1875
141
12.0
290
     0
  0
SCALE
  5
432E
102
{ACAD_REACTORS
330
4315
102
}
330
4315
100
AcDbScale
 70
     0
300
1/4" = 1'-0"
140
0.25
141
12.0
290
     0
  0
SCALE
  5
432F
102
{ACAD_REACTORS
330
4315
102
}
330
4315
100
AcDbScale
 70
     0
300
3/8" = 1'-0"
140
0.375
141
12.0
290
     0
  0
SCALE
  5
4330
102
{ACAD_REACTORS
330
4315
102
}
330
4315
100
AcDbScale
 70
     0
300
1/2" = 1'-0"
140
0.5
141
12.0
290
     0
  0
SCALE
  5
4331
102
{ACAD_REACTORS
330
4315
102
}
330
4315
100
AcDbScale
 70
     0
300
3/4" = 1'-0"
140
0.75
141
12.0
290
     0
  0
SCALE
  5
4332
102
{ACAD_REACTORS
330
4315
102
}
330
4315
100
AcDbScale
 70
     0
300
1" = 1'-0"
140
1.0
141
12.0
290
     0
  0
SCALE
  5
4333
102
{ACAD_REACTORS
330
4315
102
}
330
4315
100
AcDbScale
 70
     0
300
1-1/2" = 1'-0"
140
1.5
141
12.0
290
     0
  0
SCALE
  5
4334
102
{ACAD_REACTORS
330
4315
102
}
330
4315
100
AcDbScale
 70
     0
300
3" = 1'-0"
140
3.0
141
12.0
290
     0
  0
SCALE
  5
4335
102
{ACAD_REACTORS
330
4315
102
}
330
4315
100
AcDbScale
 70
     0
300
6" = 1'-0"
140
6.0
141
12.0
290
     0
  0
SCALE
  5
4336
102
{ACAD_REACTORS
330
4315
102
}
330
4315
100
AcDbScale
 70
     0
300
1'-0" = 1'-0"
140
12.0
141
12.0
290
     0
  0
TABLESTYLE
  5
433C
102
{ACAD_REACTORS
330
433B
102
}
102
{ACAD_XDICTIONARY
360
4370
102
}
330
433B
100
AcDbTableStyle
  3
Standard
 70
     0
 71
     0
 40
0.06
 41
0.06
280
     0
281
     0
  7
STANDARD
140
0.18
170
     2
 62
     0
 63
   257
283
     0
 90
        4
 91
        0
  1

274
    -2
284
     1
 64
     0
275
    -2
285
     1
 65
     0
276
    -2
286
     1
 66
     0
277
    -2
287
     1
 67
     0
278
    -2
288
     1
 68
     0
279
    -2
289
     1
 69
     0
  7
STANDARD
140
0.25
170
     5
 62
     0
 63
   257
283
     0
 90
        4
 91
        0
  1

274
    -2
284
     1
 64
     0
275
    -2
285
     1
 65
     0
276
    -2
286
     1
 66
     0
277
    -2
287
     1
 67
     0
278
    -2
288
     1
 68
     0
279
    -2
289
     1
 69
     0
  7
STANDARD
140
0.18
170
     5
 62
     0
 63
   257
283
     0
 90
        4
 91
        0
  1

274
    -2
284
     1
 64
     0
275
    -2
285
     1
 65
     0
276
    -2
286
     1
 66
     0
277
    -2
287
     1
 67
     0
278
    -2
288
     1
 68
     0
279
    -2
289
     1
 69
     0
  0
VISUALSTYLE
  5
4301
102
{ACAD_REACTORS
330
42FC
102
}
102
{ACAD_XDICTIONARY
360
4348
102
}
330
42FC
100
AcDbVisualStyle
  2
2dWireframe
 70
     4
177
     2
291
     0
 71
     0
176
     1
 72
     2
176
     1
 73
     0
176
     1
 90
        0
176
     1
 40
0.6
176
     1
 41
30.0
176
     1
 62
     5
 63
     7
421
 16777215
176
     1
 74
     1
176
     1
 91
        4
176
     1
 64
     7
176
     1
 65
   257
176
     1
 75
     1
176
     1
175
     1
176
     1
 42
1.0
176
     1
 92
        0
176
     1
 66
   257
176
     1
 43
1.0
176
     1
 76
     1
176
     1
 77
     6
176
     1
 78
     2
176
     1
 67
     7
176
     1
 79
     5
176
     1
170
     0
176
     1
171
     0
176
     1
290
     0
176
     1
 93
        1
176
     1
 44
0.0
176
     1
173
     0
176
     1
  0
VISUALSTYLE
  5
4304
102
{ACAD_REACTORS
330
42FC
102
}
102
{ACAD_XDICTIONARY
360
434E
102
}
330
42FC
100
AcDbVisualStyle
  2
Basic
 70
     7
177
     2
291
     1
 71
     1
176
     1
 72
     0
176
     1
 73
     1
176
     1
 90
        0
176
     1
 40
0.6
176
     1
 41
30.0
176
     1
 62
     5
 63
     7
421
 16777215
176
     1
 74
     0
176
     1
 91
        4
176
     1
 64
     7
176
     1
 65
   257
176
     1
 75
     1
176
     1
175
     1
176
     1
 42
1.0
176
     1
 92
        8
176
     1
 66
     7
176
     1
 43
1.0
176
     1
 76
     1
176
     1
 77
     6
176
     1
 78
     2
176
     1
 67
     7
176
     1
 79
     5
176
     1
170
     0
176
     1
171
     0
176
     1
290
     0
176
     1
 93
        1
176
     1
 44
0.0
176
     1
173
     0
176
     1
  0
VISUALSTYLE
  5
4308
102
{ACAD_REACTORS
330
42FC
102
}
102
{ACAD_XDICTIONARY
360
4356
102
}
330
42FC
100
AcDbVisualStyle
  2
Brighten
 70
    12
177
     2
291
     1
 71
     2
176
     1
 72
     2
176
     1
 73
     0
176
     1
 90
        0
176
     1
 40
0.6
176
     1
 41
30.0
176
     1
 62
     5
 63
     7
421
 16777215
176
     1
 74
     1
176
     1
 91
        4
176
     1
 64
     7
176
     1
 65
   257
176
     1
 75
     1
176
     1
175
     1
176
     1
 42
1.0
176
     1
 92
        8
176
     1
 66
     7
176
     1
 43
1.0
176
     1
 76
     1
176
     1
 77
     6
176
     1
 78
     2
176
     1
 67
     7
176
     1
 79
     5
176
     1
170
     0
176
     1
171
     0
176
     1
290
     0
176
     1
 93
        1
176
     1
 44
50.0
176
     1
173
     0
176
     1
  0
VISUALSTYLE
  5
430C
102
{ACAD_REACTORS
330
42FC
102
}
102
{ACAD_XDICTIONARY
360
435E
102
}
330
42FC
100
AcDbVisualStyle
  2
ColorChange
 70
    16
177
     2
291
     1
 71
     2
176
     1
 72
     2
176
     1
 73
     3
176
     1
 90
        0
176
     1
 40
0.6
176
     1
 41
30.0
176
     1
 62
     5
 63
     8
421
  8421504
176
     1
 74
     1
176
     1
 91
        4
176
     1
 64
     7
176
     1
 65
   257
176
     1
 75
     1
176
     1
175
     1
176
     1
 42
1.0
176
     1
 92
        8
176
     1
 66
     8
424
  8421504
176
     1
 43
1.0
176
     1
 76
     1
176
     1
 77
     6
176
     1
 78
     2
176
     1
 67
     7
176
     1
 79
     5
176
     1
170
     0
176
     1
171
     0
176
     1
290
     0
176
     1
 93
        1
176
     1
 44
0.0
176
     1
173
     0
176
     1
  0
VISUALSTYLE
  5
4306
102
{ACAD_REACTORS
330
42FC
102
}
102
{ACAD_XDICTIONARY
360
4352
102
}
330
42FC
100
AcDbVisualStyle
  2
Conceptual
 70
     9
177
     2
291
     0
 71
     3
176
     1
 72
     2
176
     1
 73
     0
176
     1
 90
        0
176
     1
 40
0.6
176
     1
 41
30.0
176
     1
 62
     5
 63
     7
421
 16777215
176
     1
 74
     2
176
     1
 91
        2
176
     1
 64
     7
176
     1
 65
   257
176
     1
 75
     1
176
     1
175
     1
176
     1
 42
179.0
176
     1
 92
        8
176
     1
 66
     7
176
     1
 43
1.0
176
     1
 76
     1
176
     1
 77
     6
176
     1
 78
     2
176
     1
 67
     7
176
     1
 79
     3
176
     1
170
     0
176
     1
171
     0
176
     1
290
     0
176
     1
 93
        1
176
     1
 44
0.0
176
     1
173
     0
176
     1
  0
VISUALSTYLE
  5
4307
102
{ACAD_REACTORS
330
42FC
102
}
102
{ACAD_XDICTIONARY
360
4354
102
}
330
42FC
100
AcDbVisualStyle
  2
Dim
 70
    11
177
     2
291
     1
 71
     2
176
     1
 72
     2
176
     1
 73
     0
176
     1
 90
        0
176
     1
 40
0.6
176
     1
 41
30.0
176
     1
 62
     5
 63
     7
421
 16777215
176
     1
 74
     1
176
     1
 91
        4
176
     1
 64
     7
176
     1
 65
   257
176
     1
 75
     1
176
     1
175
     1
176
     1
 42
1.0
176
     1
 92
        8
176
     1
 66
     7
176
     1
 43
1.0
176
     1
 76
     1
176
     1
 77
     6
176
     1
 78
     2
176
     1
 67
     7
176
     1
 79
     5
176
     1
170
     0
176
     1
171
     0
176
     1
290
     0
176
     1
 93
        1
176
     1
 44
-50.0
176
     1
173
     0
176
     1
  0
VISUALSTYLE
  5
430F
102
{ACAD_REACTORS
330
42FC
102
}
102
{ACAD_XDICTIONARY
360
4364
102
}
330
42FC
100
AcDbVisualStyle
  2
EdgeColorOff
 70
    22
177
     2
291
     1
 71
     2
176
     0
 72
     2
176
     0
 73
     0
176
     0
 90
        0
176
     0
 40
0.6
176
     0
 41
30.0
176
     0
 62
     5
 63
     7
421
 16777215
176
     0
 74
     1
176
     0
 91
        4
176
     0
 64
     7
176
     0
 65
   257
176
     0
 75
     1
176
     0
175
     1
176
     0
 42
1.0
176
     0
 92
        8
176
     2
 66
     7
176
     0
 43
1.0
176
     0
 76
     1
176
     0
 77
     6
176
     0
 78
     2
176
     0
 67
     7
176
     0
 79
     5
176
     0
170
     0
176
     0
171
     0
176
     0
290
     0
176
     0
 93
        1
176
     0
 44
0.0
176
     0
173
     0
176
     0
  0
VISUALSTYLE
  5
430B
102
{ACAD_REACTORS
330
42FC
102
}
102
{ACAD_XDICTIONARY
360
435C
102
}
330
42FC
100
AcDbVisualStyle
  2
Facepattern
 70
    15
177
     2
291
     1
 71
     2
176
     1
 72
     2
176
     1
 73
     0
176
     1
 90
        0
176
     1
 40
0.6
176
     1
 41
30.0
176
     1
 62
     5
 63
     7
421
 16777215
176
     1
 74
     1
176
     1
 91
        4
176
     1
 64
     7
176
     1
 65
   257
176
     1
 75
     1
176
     1
175
     1
176
     1
 42
1.0
176
     1
 92
        8
176
     1
 66
     7
176
     1
 43
1.0
176
     1
 76
     1
176
     1
 77
     6
176
     1
 78
     2
176
     1
 67
     7
176
     1
 79
     5
176
     1
170
     0
176
     1
171
     0
176
     1
290
     0
176
     1
 93
        1
176
     1
 44
0.0
176
     1
173
     0
176
     1
  0
VISUALSTYLE
  5
42FD
102
{ACAD_REACTORS
330
42FC
102
}
102
{ACAD_XDICTIONARY
360
4340
102
}
330
42FC
100
AcDbVisualStyle
  2
Flat
 70
     0
177
     2
291
     1
 71
     2
176
     1
 72
     1
176
     1
 73
     1
176
     1
 90
        2
176
     1
 40
0.6
176
     1
 41
30.0
176
     1
 62
     5
 63
     7
421
 16777215
176
     1
 74
     0
176
     1
 91
        0
176
     1
 64
     7
176
     1
 65
   257
176
     1
 75
     1
176
     1
175
     1
176
     1
 42
1.0
176
     1
 92
        8
176
     1
 66
     7
176
     1
 43
1.0
176
     1
 76
     1
176
     1
 77
     6
176
     1
 78
     2
176
     1
 67
     7
176
     1
 79
     5
176
     1
170
     0
176
     1
171
     0
176
     1
290
     0
176
     1
 93
       13
176
     1
 44
0.0
176
     1
173
     0
176
     1
  0
VISUALSTYLE
  5
42FE
102
{ACAD_REACTORS
330
42FC
102
}
102
{ACAD_XDICTIONARY
360
4342
102
}
330
42FC
100
AcDbVisualStyle
  2
FlatWithEdges
 70
     1
177
     2
291
     1
 71
     2
176
     1
 72
     1
176
     1
 73
     1
176
     1
 90
        2
176
     1
 40
0.6
176
     1
 41
30.0
176
     1
 62
     5
 63
     7
421
 16777215
176
     1
 74
     1
176
     1
 91
        0
176
     1
 64
     7
176
     1
 65
   257
176
     1
 75
     1
176
     1
175
     1
176
     1
 42
1.0
176
     1
 92
        0
176
     1
 66
   257
176
     1
 43
1.0
176
     1
 76
     1
176
     1
 77
     6
176
     1
 78
     2
176
     1
 67
     7
176
     1
 79
     5
176
     1
170
     0
176
     1
171
     0
176
     1
290
     0
176
     1
 93
       13
176
     1
 44
0.0
176
     1
173
     0
176
     1
  0
VISUALSTYLE
  5
42FF
102
{ACAD_REACTORS
330
42FC
102
}
102
{ACAD_XDICTIONARY
360
4344
102
}
330
42FC
100
AcDbVisualStyle
  2
Gouraud
 70
     2
177
     2
291
     1
 71
     2
176
     1
 72
     2
176
     1
 73
     1
176
     1
 90
        2
176
     1
 40
0.6
176
     1
 41
30.0
176
     1
 62
     5
 63
     7
421
 16777215
176
     1
 74
     0
176
     1
 91
        0
176
     1
 64
     7
176
     1
 65
   257
176
     1
 75
     1
176
     1
175
     1
176
     1
 42
1.0
176
     1
 92
        0
176
     1
 66
     7
176
     1
 43
1.0
176
     1
 76
     1
176
     1
 77
     6
176
     1
 78
     2
176
     1
 67
     7
176
     1
 79
     5
176
     1
170
     0
176
     1
171
     0
176
     1
290
     0
176
     1
 93
       13
176
     1
 44
0.0
176
     1
173
     0
176
     1
  0
VISUALSTYLE
  5
4300
102
{ACAD_REACTORS
330
42FC
102
}
102
{ACAD_XDICTIONARY
360
4346
102
}
330
42FC
100
AcDbVisualStyle
  2
GouraudWithEdges
 70
     3
177
     2
291
     1
 71
     2
176
     1
 72
     2
176
     1
 73
     1
176
     1
 90
        2
176
     1
 40
0.6
176
     1
 41
30.0
176
     1
 62
     5
 63
     7
421
 16777215
176
     1
 74
     1
176
     1
 91
        0
176
     1
 64
     7
176
     1
 65
   257
176
     1
 75
     1
176
     1
175
     1
176
     1
 42
1.0
176
     1
 92
        0
176
     1
 66
   257
176
     1
 43
1.0
176
     1
 76
     1
176
     1
 77
     6
176
     1
 78
     2
176
     1
 67
     7
176
     1
 79
     5
176
     1
170
     0
176
     1
171
     0
176
     1
290
     0
176
     1
 93
       13
176
     1
 44
0.0
176
     1
173
     0
176
     1
  0
VISUALSTYLE
  5
4303
102
{ACAD_REACTORS
330
42FC
102
}
102
{ACAD_XDICTIONARY
360
434C
102
}
330
42FC
100
AcDbVisualStyle
  2
Hidden
 70
     6
177
     2
291
     0
 71
     1
176
     1
 72
     2
176
     1
 73
     2
176
     1
 90
        0
176
     1
 40
0.6
176
     1
 41
30.0
176
     1
 62
     5
 63
     7
421
 16777215
176
     1
 74
     2
176
     1
 91
        2
176
     1
 64
     7
176
     1
 65
   257
176
     1
 75
     2
176
     1
175
     1
176
     1
 42
40.0
176
     1
 92
        0
176
     1
 66
   257
176
     1
 43
1.0
176
     1
 76
     1
176
     1
 77
     6
176
     1
 78
     2
176
     1
 67
     7
176
     1
 79
     3
176
     1
170
     0
176
     1
171
     0
176
     1
290
     0
176
     1
 93
        1
176
     1
 44
0.0
176
     1
173
     0
176
     1
  0
VISUALSTYLE
  5
430D
102
{ACAD_REACTORS
330
42FC
102
}
102
{ACAD_XDICTIONARY
360
4360
102
}
330
42FC
100
AcDbVisualStyle
  2
JitterOff
 70
    20
177
     2
291
     1
 71
     2
176
     0
 72
     2
176
     0
 73
     0
176
     0
 90
        0
176
     0
 40
0.6
176
     0
 41
30.0
176
     0
 62
     5
 63
     7
421
 16777215
176
     0
 74
     1
176
     0
 91
        4
176
     0
 64
     7
176
     0
 65
   257
176
     0
 75
     1
176
     0
175
     1
176
     0
 42
1.0
176
     0
 92
       10
176
     2
 66
     7
176
     0
 43
1.0
176
     0
 76
     1
176
     0
 77
     6
176
     0
 78
     2
176
     0
 67
     7
176
     0
 79
     5
176
     0
170
     0
176
     0
171
     0
176
     0
290
     0
176
     0
 93
        1
176
     0
 44
0.0
176
     0
173
     0
176
     0
  0
VISUALSTYLE
  5
430A
102
{ACAD_REACTORS
330
42FC
102
}
102
{ACAD_XDICTIONARY
360
435A
102
}
330
42FC
100
AcDbVisualStyle
  2
Linepattern
 70
    14
177
     2
291
     1
 71
     2
176
     1
 72
     2
176
     1
 73
     0
176
     1
 90
        0
176
     1
 40
0.6
176
     1
 41
30.0
176
     1
 62
     5
 63
     7
421
 16777215
176
     1
 74
     1
176
     1
 91
        4
176
     1
 64
     7
176
     1
 65
   257
176
     1
 75
     7
176
     1
175
     7
176
     1
 42
1.0
176
     1
 92
        8
176
     1
 66
     7
176
     1
 43
1.0
176
     1
 76
     1
176
     1
 77
     6
176
     1
 78
     2
176
     1
 67
     7
176
     1
 79
     5
176
     1
170
     0
176
     1
171
     0
176
     1
290
     0
176
     1
 93
        1
176
     1
 44
0.0
176
     1
173
     0
176
     1
  0
VISUALSTYLE
  5
430E
102
{ACAD_REACTORS
330
42FC
102
}
102
{ACAD_XDICTIONARY
360
4362
102
}
330
42FC
100
AcDbVisualStyle
  2
OverhangOff
 70
    21
177
     2
291
     1
 71
     2
176
     0
 72
     2
176
     0
 73
     0
176
     0
 90
        0
176
     0
 40
0.6
176
     0
 41
30.0
176
     0
 62
     5
 63
     7
421
 16777215
176
     0
 74
     1
176
     0
 91
        4
176
     0
 64
     7
176
     0
 65
   257
176
     0
 75
     1
176
     0
175
     1
176
     0
 42
1.0
176
     0
 92
        9
176
     2
 66
     7
176
     0
 43
1.0
176
     0
 76
     1
176
     0
 77
     6
176
     0
 78
     2
176
     0
 67
     7
176
     0
 79
     5
176
     0
170
     0
176
     0
171
     0
176
     0
290
     0
176
     0
 93
        1
176
     0
 44
0.0
176
     0
173
     0
176
     0
  0
VISUALSTYLE
  5
4305
102
{ACAD_REACTORS
330
42FC
102
}
102
{ACAD_XDICTIONARY
360
4350
102
}
330
42FC
100
AcDbVisualStyle
  2
Realistic
 70
     8
177
     2
291
     0
 71
     2
176
     1
 72
     3
176
     1
 73
     0
176
     1
 90
        2
176
     1
 40
0.6
176
     1
 41
30.0
176
     1
 62
     5
 63
     7
421
 16777215
176
     1
 74
     0
176
     1
 91
        0
176
     1
 64
     7
176
     1
 65
   257
176
     1
 75
     1
176
     1
175
     1
176
     1
 42
1.0
176
     1
 92
        8
176
     1
 66
   257
176
     1
 43
1.0
176
     1
 76
     1
176
     1
 77
     6
176
     1
 78
     2
176
     1
 67
     7
176
     1
 79
     3
176
     1
170
     0
176
     1
171
     0
176
     1
290
     0
176
     1
 93
       13
176
     1
 44
0.0
176
     1
173
     0
176
     1
  0
VISUALSTYLE
  5
4314
102
{ACAD_REACTORS
330
42FC
102
}
102
{ACAD_XDICTIONARY
360
436E
102
}
330
42FC
100
AcDbVisualStyle
  2
Shaded
 70
    27
177
     2
291
     0
 71
     2
176
     1
 72
     2
176
     1
 73
     1
176
     1
 90
        2
176
     1
 40
0.6
176
     1
 41
30.0
176
     1
 62
     5
 63
     7
421
 16777215
176
     1
 74
     0
176
     1
 91
        4
176
     1
 64
     7
176
     1
 65
   257
176
     1
 75
     1
176
     1
175
     1
176
     1
 42
1.0
176
     1
 92
        8
176
     1
 66
   257
176
     1
 43
1.0
176
     1
 76
     1
176
     1
 77
     6
176
     1
 78
     2
176
     1
 67
     8
425
  7895160
176
     1
 79
     3
176
     1
170
     0
176
     1
171
     0
176
     1
290
     0
176
     1
 93
        5
176
     1
 44
0.0
176
     1
173
     0
176
     1
  0
VISUALSTYLE
  5
4313
102
{ACAD_REACTORS
330
42FC
102
}
102
{ACAD_XDICTIONARY
360
436C
102
}
330
42FC
100
AcDbVisualStyle
  2
Shaded with edges
 70
    26
177
     2
291
     0
 71
     2
176
     1
 72
     2
176
     1
 73
     1
176
     1
 90
        2
176
     1
 40
0.6
176
     1
 41
30.0
176
     1
 62
     5
 63
     7
421
 16777215
176
     1
 74
     1
176
     1
 91
       10
176
     1
 64
     7
176
     1
 65
   257
176
     1
 75
     2
176
     1
175
     1
176
     1
 42
1.0
176
     1
 92
        8
176
     1
 66
   257
176
     1
 43
1.0
176
     1
 76
     1
176
     1
 77
     6
176
     1
 78
     2
176
     1
 67
     7
176
     1
 79
     3
176
     1
170
     0
176
     1
171
     0
176
     1
290
     0
176
     1
 93
        5
176
     1
 44
0.0
176
     1
173
     0
176
     1
  0
VISUALSTYLE
  5
4310
102
{ACAD_REACTORS
330
42FC
102
}
102
{ACAD_XDICTIONARY
360
4366
102
}
330
42FC
100
AcDbVisualStyle
  2
Shades of Gray
 70
    23
177
     2
291
     0
 71
     2
176
     1
 72
     2
176
     1
 73
     3
176
     1
 90
        0
176
     1
 40
0.6
176
     1
 41
30.0
176
     1
 62
     5
 63
     7
421
 16777215
176
     1
 74
     2
176
     1
 91
        2
176
     1
 64
     7
176
     1
 65
     7
176
     1
 75
     1
176
     1
175
     1
176
     1
 42
40.0
176
     1
 92
        8
176
     1
 66
     7
176
     1
 43
1.0
176
     1
 76
     1
176
     1
 77
     6
176
     1
 78
     2
176
     1
 67
     7
176
     1
 79
     3
176
     1
170
     0
176
     1
171
     0
176
     1
290
     0
176
     1
 93
        1
176
     1
 44
0.0
176
     1
173
     0
176
     1
  0
VISUALSTYLE
  5
4311
102
{ACAD_REACTORS
330
42FC
102
}
102
{ACAD_XDICTIONARY
360
4368
102
}
330
42FC
100
AcDbVisualStyle
  2
Sketchy
 70
    24
177
     2
291
     0
 71
     1
176
     1
 72
     2
176
     1
 73
     2
176
     1
 90
        0
176
     1
 40
0.6
176
     1
 41
30.0
176
     1
 62
     5
 63
     7
421
 16777215
176
     1
 74
     2
176
     1
 91
        2
176
     1
 64
     7
176
     1
 65
     7
176
     1
 75
     1
176
     1
175
     1
176
     1
 42
40.0
176
     1
 92
       11
176
     1
 66
     7
176
     1
 43
1.0
176
     1
 76
     1
176
     1
 77
     6
176
     1
 78
     2
176
     1
 67
     7
176
     1
 79
     6
176
     1
170
     0
176
     1
171
     0
176
     1
290
     0
176
     1
 93
        1
176
     1
 44
0.0
176
     1
173
     0
176
     1
  0
VISUALSTYLE
  5
4309
102
{ACAD_REACTORS
330
42FC
102
}
102
{ACAD_XDICTIONARY
360
4358
102
}
330
42FC
100
AcDbVisualStyle
  2
Thicken
 70
    13
177
     2
291
     1
 71
     2
176
     1
 72
     2
176
     1
 73
     0
176
     1
 90
        0
176
     1
 40
0.6
176
     1
 41
30.0
176
     1
 62
     5
 63
     7
421
 16777215
176
     1
 74
     1
176
     1
 91
        4
176
     1
 64
     7
176
     1
 65
   257
176
     1
 75
     1
176
     1
175
     1
176
     1
 42
1.0
176
     1
 92
       12
176
     1
 66
     7
176
     1
 43
1.0
176
     1
 76
     1
176
     1
 77
     6
176
     1
 78
     2
176
     1
 67
     7
176
     1
 79
     5
176
     1
170
     0
176
     1
171
     0
176
     1
290
     0
176
     1
 93
        1
176
     1
 44
0.0
176
     1
173
     0
176
     1
  0
VISUALSTYLE
  5
4302
102
{ACAD_REACTORS
330
42FC
102
}
102
{ACAD_XDICTIONARY
360
434A
102
}
330
42FC
100
AcDbVisualStyle
  2
Wireframe
 70
     5
177
     2
291
     0
 71
     0
176
     1
 72
     2
176
     1
 73
     0
176
     1
 90
        0
176
     1
 40
0.6
176
     1
 41
30.0
176
     1
 62
     5
 63
     7
421
 16777215
176
     1
 74
     1
176
     1
 91
        4
176
     1
 64
     7
176
     1
 65
   257
176
     1
 75
     1
176
     1
175
     1
176
     1
 42
1.0
176
     1
 92
        0
176
     1
 66
   257
176
     1
 43
1.0
176
     1
 76
     1
176
     1
 77
     6
176
     1
 78
     2
176
     1
 67
     7
176
     1
 79
     3
176
     1
170
     0
176
     1
171
     0
176
     1
290
     0
176
     1
 93
        1
176
     1
 44
0.0
176
     1
173
     0
176
     1
  0
VISUALSTYLE
  5
4312
102
{ACAD_REACTORS
330
42FC
102
}
102
{ACAD_XDICTIONARY
360
436A
102
}
330
42FC
100
AcDbVisualStyle
  2
X-Ray
 70
    25
177
     2
291
     0
 71
     2
176
     1
 72
     2
176
     1
 73
     1
176
     1
 90
        1
176
     1
 40
0.5
176
     1
 41
30.0
176
     1
 62
     5
 63
     7
421
 16777215
176
     1
 74
     1
176
     1
 91
        0
176
     1
 64
     7
176
     1
 65
   257
176
     1
 75
     1
176
     1
175
     1
176
     1
 42
1.0
176
     1
 92
        8
176
     1
 66
     7
176
     1
 43
1.0
176
     1
 76
     1
176
     1
 77
     6
176
     1
 78
     2
176
     1
 67
     7
176
     1
 79
     3
176
     1
170
     0
176
     1
171
     0
176
     1
290
     0
176
     1
 93
       13
176
     1
 44
0.0
176
     1
173
     0
176
     1
  0
DICTIONARYVAR
  5
433F
102
{ACAD_REACTORS
330
3A
102
}
330
3A
100
DictionaryVariables
280
     0
  1
1:1
  0
DICTIONARYVAR
  5
4374
102
{ACAD_REACTORS
330
3A
102
}
330
3A
100
DictionaryVariables
280
     0
  1
Standard
  0
DICTIONARYVAR
  5
4373
102
{ACAD_REACTORS
330
3A
102
}
330
3A
100
DictionaryVariables
280
     0
  1
Standard
  0
DICTIONARYVAR
  5
42EE
102
{ACAD_REACTORS
330
3A
102
}
330
3A
100
DictionaryVariables
280
     0
  1
1
  0
DICTIONARYVAR
  5
4375
102
{ACAD_REACTORS
330
3A
102
}
330
3A
100
DictionaryVariables
280
     0
  1
0
  0
DICTIONARYVAR
  5
3B
102
{ACAD_REACTORS
330
3A
102
}
330
3A
100
DictionaryVariables
280
     0
  1
127
  0
DICTIONARY
  5
4370
330
433C
100
AcDbDictionary
280
     1
281
     1
  3
ACAD_ROUNDTRIP_2008_TABLESTYLE_CELLSTYLEMAP
360
4371
  0
DICTIONARY
  5
4348
330
4301
100
AcDbDictionary
280
     1
281
     1
  3
ACAD_XREC_ROUNDTRIP
360
4349
  0
DICTIONARY
  5
434E
330
4304
100
AcDbDictionary
280
     1
281
     1
  3
ACAD_XREC_ROUNDTRIP
360
434F
  0
DICTIONARY
  5
4356
330
4308
100
AcDbDictionary
280
     1
281
     1
  3
ACAD_XREC_ROUNDTRIP
360
4357
  0
DICTIONARY
  5
435E
330
430C
100
AcDbDictionary
280
     1
281
     1
  3
ACAD_XREC_ROUNDTRIP
360
435F
  0
DICTIONARY
  5
4352
330
4306
100
AcDbDictionary
280
     1
281
     1
  3
ACAD_XREC_ROUNDTRIP
360
4353
  0
DICTIONARY
  5
4354
330
4307
100
AcDbDictionary
280
     1
281
     1
  3
ACAD_XREC_ROUNDTRIP
360
4355
  0
DICTIONARY
  5
4364
330
430F
100
AcDbDictionary
280
     1
281
     1
  3
ACAD_XREC_ROUNDTRIP
360
4365
  0
DICTIONARY
  5
435C
330
430B
100
AcDbDictionary
280
     1
281
     1
  3
ACAD_XREC_ROUNDTRIP
360
435D
  0
DICTIONARY
  5
4340
330
42FD
100
AcDbDictionary
280
     1
281
     1
  3
ACAD_XREC_ROUNDTRIP
360
4341
  0
DICTIONARY
  5
4342
330
42FE
100
AcDbDictionary
280
     1
281
     1
  3
ACAD_XREC_ROUNDTRIP
360
4343
  0
DICTIONARY
  5
4344
330
42FF
100
AcDbDictionary
280
     1
281
     1
  3
ACAD_XREC_ROUNDTRIP
360
4345
  0
DICTIONARY
  5
4346
330
4300
100
AcDbDictionary
280
     1
281
     1
  3
ACAD_XREC_ROUNDTRIP
360
4347
  0
DICTIONARY
  5
434C
330
4303
100
AcDbDictionary
280
     1
281
     1
  3
ACAD_XREC_ROUNDTRIP
360
434D
  0
DICTIONARY
  5
4360
330
430D
100
AcDbDictionary
280
     1
281
     1
  3
ACAD_XREC_ROUNDTRIP
360
4361
  0
DICTIONARY
  5
435A
330
430A
100
AcDbDictionary
280
     1
281
     1
  3
ACAD_XREC_ROUNDTRIP
360
435B
  0
DICTIONARY
  5
4362
330
430E
100
AcDbDictionary
280
     1
281
     1
  3
ACAD_XREC_ROUNDTRIP
360
4363
  0
DICTIONARY
  5
4350
330
4305
100
AcDbDictionary
280
     1
281
     1
  3
ACAD_XREC_ROUNDTRIP
360
4351
  0
DICTIONARY
  5
436E
330
4314
100
AcDbDictionary
280
     1
281
     1
  3
ACAD_XREC_ROUNDTRIP
360
436F
  0
DICTIONARY
  5
436C
330
4313
100
AcDbDictionary
280
     1
281
     1
  3
ACAD_XREC_ROUNDTRIP
360
436D
  0
DICTIONARY
  5
4366
330
4310
100
AcDbDictionary
280
     1
281
     1
  3
ACAD_XREC_ROUNDTRIP
360
4367
  0
DICTIONARY
  5
4368
330
4311
100
AcDbDictionary
280
     1
281
     1
  3
ACAD_XREC_ROUNDTRIP
360
4369
  0
DICTIONARY
  5
4358
330
4309
100
AcDbDictionary
280
     1
281
     1
  3
ACAD_XREC_ROUNDTRIP
360
4359
  0
DICTIONARY
  5
434A
330
4302
100
AcDbDictionary
280
     1
281
     1
  3
ACAD_XREC_ROUNDTRIP
360
434B
  0
DICTIONARY
  5
436A
330
4312
100
AcDbDictionary
280
     1
281
     1
  3
ACAD_XREC_ROUNDTRIP
360
436B
  0
CELLSTYLEMAP
  5
4371
102
{ACAD_REACTORS
330
4370
102
}
330
4370
100
AcDbCellStyleMap
 90
        3
300
CELLSTYLE
  1
TABLEFORMAT_BEGIN
 90
        5
170
     1
 91
        0
 92
    32768
 62
   257
 93
        1
300
CONTENTFORMAT
  1
CONTENTFORMAT_BEGIN
 90
        0
 91
        0
 92
        4
 93
        0
300

 40
0.0
140
1.0
 94
        5
 62
     0
340
F
144
0.25
309
CONTENTFORMAT_END
171
     1
301
MARGIN
  1
CELLMARGIN_BEGIN
 40
0.06
 40
0.06
 40
0.06
 40
0.06
 40
0.06
 40
0.06
309
CELLMARGIN_END
 94
        6
 95
        1
302
GRIDFORMAT
  1
GRIDFORMAT_BEGIN
 90
        0
 91
        1
 62
     0
 92
       -2
340
12
 93
        0
 40
0.045
309
GRIDFORMAT_END
 95
        2
302
GRIDFORMAT
  1
GRIDFORMAT_BEGIN
 90
        0
 91
        1
 62
     0
 92
       -2
340
12
 93
        0
 40
0.045
309
GRIDFORMAT_END
 95
        4
302
GRIDFORMAT
  1
GRIDFORMAT_BEGIN
 90
        0
 91
        1
 62
     0
 92
       -2
340
12
 93
        0
 40
0.045
309
GRIDFORMAT_END
 95
        8
302
GRIDFORMAT
  1
GRIDFORMAT_BEGIN
 90
        0
 91
        1
 62
     0
 92
       -2
340
12
 93
        0
 40
0.045
309
GRIDFORMAT_END
 95
       16
302
GRIDFORMAT
  1
GRIDFORMAT_BEGIN
 90
        0
 91
        1
 62
     0
 92
       -2
340
12
 93
        0
 40
0.045
309
GRIDFORMAT_END
 95
       32
302
GRIDFORMAT
  1
GRIDFORMAT_BEGIN
 90
        0
 91
        1
 62
     0
 92
       -2
340
12
 93
        0
 40
0.045
309
GRIDFORMAT_END
309
TABLEFORMAT_END
  1
CELLSTYLE_BEGIN
 90
        1
 91
        1
300
_TITLE
309
CELLSTYLE_END
300
CELLSTYLE
  1
TABLEFORMAT_BEGIN
 90
        5
170
     1
 91
        0
 92
        0
 62
   257
 93
        1
300
CONTENTFORMAT
  1
CONTENTFORMAT_BEGIN
 90
        0
 91
        0
 92
        4
 93
        0
300

 40
0.0
140
1.0
 94
        5
 62
     0
340
F
144
0.18
309
CONTENTFORMAT_END
171
     1
301
MARGIN
  1
CELLMARGIN_BEGIN
 40
0.06
 40
0.06
 40
0.06
 40
0.06
 40
0.06
 40
0.06
309
CELLMARGIN_END
 94
        6
 95
        1
302
GRIDFORMAT
  1
GRIDFORMAT_BEGIN
 90
        0
 91
        1
 62
     0
 92
       -2
340
12
 93
        0
 40
0.045
309
GRIDFORMAT_END
 95
        2
302
GRIDFORMAT
  1
GRIDFORMAT_BEGIN
 90
        0
 91
        1
 62
     0
 92
       -2
340
12
 93
        0
 40
0.045
309
GRIDFORMAT_END
 95
        4
302
GRIDFORMAT
  1
GRIDFORMAT_BEGIN
 90
        0
 91
        1
 62
     0
 92
       -2
340
12
 93
        0
 40
0.045
309
GRIDFORMAT_END
 95
        8
302
GRIDFORMAT
  1
GRIDFORMAT_BEGIN
 90
        0
 91
        1
 62
     0
 92
       -2
340
12
 93
        0
 40
0.045
309
GRIDFORMAT_END
 95
       16
302
GRIDFORMAT
  1
GRIDFORMAT_BEGIN
 90
        0
 91
        1
 62
     0
 92
       -2
340
12
 93
        0
 40
0.045
309
GRIDFORMAT_END
 95
       32
302
GRIDFORMAT
  1
GRIDFORMAT_BEGIN
 90
        0
 91
        1
 62
     0
 92
       -2
340
12
 93
        0
 40
0.045
309
GRIDFORMAT_END
309
TABLEFORMAT_END
  1
CELLSTYLE_BEGIN
 90
        2
 91
        1
300
_HEADER
309
CELLSTYLE_END
300
CELLSTYLE
  1
TABLEFORMAT_BEGIN
 90
        5
170
     1
 91
        0
 92
        0
 62
   257
 93
        1
300
CONTENTFORMAT
  1
CONTENTFORMAT_BEGIN
 90
        0
 91
        0
 92
        4
 93
        0
300

 40
0.0
140
1.0
 94
        2
 62
     0
340
F
144
0.18
309
CONTENTFORMAT_END
171
     1
301
MARGIN
  1
CELLMARGIN_BEGIN
 40
0.06
 40
0.06
 40
0.06
 40
0.06
 40
0.06
 40
0.06
309
CELLMARGIN_END
 94
        6
 95
        1
302
GRIDFORMAT
  1
GRIDFORMAT_BEGIN
 90
        0
 91
        1
 62
     0
 92
       -2
340
12
 93
        0
 40
0.045
309
GRIDFORMAT_END
 95
        2
302
GRIDFORMAT
  1
GRIDFORMAT_BEGIN
 90
        0
 91
        1
 62
     0
 92
       -2
340
12
 93
        0
 40
0.045
309
GRIDFORMAT_END
 95
        4
302
GRIDFORMAT
  1
GRIDFORMAT_BEGIN
 90
        0
 91
        1
 62
     0
 92
       -2
340
12
 93
        0
 40
0.045
309
GRIDFORMAT_END
 95
        8
302
GRIDFORMAT
  1
GRIDFORMAT_BEGIN
 90
        0
 91
        1
 62
     0
 92
       -2
340
12
 93
        0
 40
0.045
309
GRIDFORMAT_END
 95
       16
302
GRIDFORMAT
  1
GRIDFORMAT_BEGIN
 90
        0
 91
        1
 62
     0
 92
       -2
340
12
 93
        0
 40
0.045
309
GRIDFORMAT_END
 95
       32
302
GRIDFORMAT
  1
GRIDFORMAT_BEGIN
 90
        0
 91
        1
 62
     0
 92
       -2
340
12
 93
        0
 40
0.045
309
GRIDFORMAT_END
309
TABLEFORMAT_END
  1
CELLSTYLE_BEGIN
 90
        3
 91
        2
300
_DATA
309
CELLSTYLE_END
  0
XRECORD
  5
4349
102
{ACAD_REACTORS
330
4348
102
}
330
4348
100
AcDbXrecord
280
     1
102
RTVSPost2010Prop28
280
     1
102
RTVSPost2010PropOp28
 70
     1
102
RTVSPost2010Prop29
280
     1
102
RTVSPost2010PropOp29
 70
     1
102
RTVSPost2010Prop30
280
     0
102
RTVSPost2010PropOp30
 70
     1
102
RTVSPost2010Prop31
280
     0
102
RTVSPost2010PropOp31
 70
     1
102
RTVSPost2010Prop32
280
     0
102
RTVSPost2010PropOp32
 70
     1
102
RTVSPost2010Prop33
280
     0
102
RTVSPost2010PropOp33
 70
     1
102
RTVSPost2010Prop34
280
     0
102
RTVSPost2010PropOp34
 70
     1
102
RTVSPost2010Prop35
280
     0
102
RTVSPost2010PropOp35
 70
     1
102
RTVSPost2010Prop36
280
     0
102
RTVSPost2010PropOp36
 70
     1
102
RTVSPost2010Prop37
 90
       50
102
RTVSPost2010PropOp37
 70
     1
102
RTVSPost2010Prop38
140
0.0
102
RTVSPost2010PropOp38
 70
     1
102
RTVSPost2010Prop39
140
1.0
102
RTVSPost2010PropOp39
 70
     1
102
RTVSPost2010Prop40
 90
        0
102
RTVSPost2010PropOp40
 70
     1
102
RTVSPost2010Prop41ColorIndex
 90
       18
102
RTVSPost2010Prop41ColorRGB
 90
        0
102
RTVSPost2010PropOp41
 70
     1
102
RTVSPost2010Prop42
 90
       50
102
RTVSPost2010PropOp42
 70
     1
102
RTVSPost2010Prop43
 90
        3
102
RTVSPost2010PropOp43
 70
     1
102
RTVSPost2010Prop44ColorIndex
 90
        5
102
RTVSPost2010Prop44ColorRGB
 90
      255
102
RTVSPost2010PropOp44
 70
     1
102
RTVSPost2010Prop45
280
     0
102
RTVSPost2010PropOp45
 70
     1
102
RTVSPost2010Prop46
 90
       50
102
RTVSPost2010PropOp46
 70
     1
102
RTVSPost2010Prop47
 90
       50
102
RTVSPost2010PropOp47
 70
     1
102
RTVSPost2010Prop48
 90
       50
102
RTVSPost2010PropOp48
 70
     1
102
RTVSPost2010Prop49
280
     0
102
RTVSPost2010PropOp49
 70
     1
102
RTVSPost2010Prop50
 90
       50
102
RTVSPost2010PropOp50
 70
     1
102
RTVSPost2010Prop51ColorIndex
 90
      256
102
RTVSPost2010Prop51ColorRGB
 90
-16777216
102
RTVSPost2010PropOp51
 70
     0
102
RTVSPost2010Prop52
140
1.0
102
RTVSPost2010PropOp52
 70
     0
102
RTVSPost2010Prop53
 90
        2
102
RTVSPost2010PropOp53
 70
     1
102
RTVSPost2010Prop54
  1
strokes_ogs.tif
102
RTVSPost2010PropOp54
 70
     1
102
RTVSPost2010Prop55
280
     0
102
RTVSPost2010PropOp55
 70
     1
102
RTVSPost2010Prop56
140
1.0
102
RTVSPost2010PropOp56
 70
     1
102
RTVSPost2010Prop57
140
1.0
102
RTVSPost2010PropOp57
 70
     1
  0
XRECORD
  5
434F
102
{ACAD_REACTORS
330
434E
102
}
330
434E
100
AcDbXrecord
280
     1
102
RTVSPost2010Prop28
280
     0
102
RTVSPost2010PropOp28
 70
     1
102
RTVSPost2010Prop29
280
     1
102
RTVSPost2010PropOp29
 70
     1
102
RTVSPost2010Prop30
280
     1
102
RTVSPost2010PropOp30
 70
     1
102
RTVSPost2010Prop31
280
     0
102
RTVSPost2010PropOp31
 70
     1
102
RTVSPost2010Prop32
280
     0
102
RTVSPost2010PropOp32
 70
     1
102
RTVSPost2010Prop33
280
     0
102
RTVSPost2010PropOp33
 70
     1
102
RTVSPost2010Prop34
280
     0
102
RTVSPost2010PropOp34
 70
     1
102
RTVSPost2010Prop35
280
     0
102
RTVSPost2010PropOp35
 70
     1
102
RTVSPost2010Prop36
280
     0
102
RTVSPost2010PropOp36
 70
     1
102
RTVSPost2010Prop37
 90
       50
102
RTVSPost2010PropOp37
 70
     1
102
RTVSPost2010Prop38
140
0.0
102
RTVSPost2010PropOp38
 70
     1
102
RTVSPost2010Prop39
140
1.0
102
RTVSPost2010PropOp39
 70
     1
102
RTVSPost2010Prop40
 90
        0
102
RTVSPost2010PropOp40
 70
     1
102
RTVSPost2010Prop41ColorIndex
 90
       18
102
RTVSPost2010Prop41ColorRGB
 90
        0
102
RTVSPost2010PropOp41
 70
     1
102
RTVSPost2010Prop42
 90
       50
102
RTVSPost2010PropOp42
 70
     1
102
RTVSPost2010Prop43
 90
        3
102
RTVSPost2010PropOp43
 70
     1
102
RTVSPost2010Prop44ColorIndex
 90
        5
102
RTVSPost2010Prop44ColorRGB
 90
      255
102
RTVSPost2010PropOp44
 70
     1
102
RTVSPost2010Prop45
280
     0
102
RTVSPost2010PropOp45
 70
     1
102
RTVSPost2010Prop46
 90
       50
102
RTVSPost2010PropOp46
 70
     1
102
RTVSPost2010Prop47
 90
       50
102
RTVSPost2010PropOp47
 70
     1
102
RTVSPost2010Prop48
 90
       50
102
RTVSPost2010PropOp48
 70
     1
102
RTVSPost2010Prop49
280
     0
102
RTVSPost2010PropOp49
 70
     1
102
RTVSPost2010Prop50
 90
       50
102
RTVSPost2010PropOp50
 70
     1
102
RTVSPost2010Prop51ColorIndex
 90
      256
102
RTVSPost2010Prop51ColorRGB
 90
-16777216
102
RTVSPost2010PropOp51
 70
     0
102
RTVSPost2010Prop52
140
1.0
102
RTVSPost2010PropOp52
 70
     0
102
RTVSPost2010Prop53
 90
        2
102
RTVSPost2010PropOp53
 70
     1
102
RTVSPost2010Prop54
  1
strokes_ogs.tif
102
RTVSPost2010PropOp54
 70
     1
102
RTVSPost2010Prop55
280
     0
102
RTVSPost2010PropOp55
 70
     1
102
RTVSPost2010Prop56
140
1.0
102
RTVSPost2010PropOp56
 70
     1
102
RTVSPost2010Prop57
140
1.0
102
RTVSPost2010PropOp57
 70
     1
  0
XRECORD
  5
4357
102
{ACAD_REACTORS
330
4356
102
}
330
4356
100
AcDbXrecord
280
     1
102
RTVSPost2010Prop28
280
     0
102
RTVSPost2010PropOp28
 70
     1
102
RTVSPost2010Prop29
280
     1
102
RTVSPost2010PropOp29
 70
     1
102
RTVSPost2010Prop30
280
     1
102
RTVSPost2010PropOp30
 70
     1
102
RTVSPost2010Prop31
280
     0
102
RTVSPost2010PropOp31
 70
     1
102
RTVSPost2010Prop32
280
     0
102
RTVSPost2010PropOp32
 70
     1
102
RTVSPost2010Prop33
280
     0
102
RTVSPost2010PropOp33
 70
     1
102
RTVSPost2010Prop34
280
     0
102
RTVSPost2010PropOp34
 70
     1
102
RTVSPost2010Prop35
280
     0
102
RTVSPost2010PropOp35
 70
     1
102
RTVSPost2010Prop36
280
     0
102
RTVSPost2010PropOp36
 70
     1
102
RTVSPost2010Prop37
 90
       50
102
RTVSPost2010PropOp37
 70
     1
102
RTVSPost2010Prop38
140
0.0
102
RTVSPost2010PropOp38
 70
     1
102
RTVSPost2010Prop39
140
1.0
102
RTVSPost2010PropOp39
 70
     1
102
RTVSPost2010Prop40
 90
        0
102
RTVSPost2010PropOp40
 70
     1
102
RTVSPost2010Prop41ColorIndex
 90
       18
102
RTVSPost2010Prop41ColorRGB
 90
        0
102
RTVSPost2010PropOp41
 70
     1
102
RTVSPost2010Prop42
 90
       50
102
RTVSPost2010PropOp42
 70
     1
102
RTVSPost2010Prop43
 90
        3
102
RTVSPost2010PropOp43
 70
     1
102
RTVSPost2010Prop44ColorIndex
 90
        5
102
RTVSPost2010Prop44ColorRGB
 90
      255
102
RTVSPost2010PropOp44
 70
     1
102
RTVSPost2010Prop45
280
     0
102
RTVSPost2010PropOp45
 70
     1
102
RTVSPost2010Prop46
 90
       50
102
RTVSPost2010PropOp46
 70
     1
102
RTVSPost2010Prop47
 90
       50
102
RTVSPost2010PropOp47
 70
     1
102
RTVSPost2010Prop48
 90
       50
102
RTVSPost2010PropOp48
 70
     1
102
RTVSPost2010Prop49
280
     0
102
RTVSPost2010PropOp49
 70
     1
102
RTVSPost2010Prop50
 90
       50
102
RTVSPost2010PropOp50
 70
     1
102
RTVSPost2010Prop51ColorIndex
 90
      256
102
RTVSPost2010Prop51ColorRGB
 90
-16777216
102
RTVSPost2010PropOp51
 70
     0
102
RTVSPost2010Prop52
140
1.0
102
RTVSPost2010PropOp52
 70
     0
102
RTVSPost2010Prop53
 90
        2
102
RTVSPost2010PropOp53
 70
     1
102
RTVSPost2010Prop54
  1
strokes_ogs.tif
102
RTVSPost2010PropOp54
 70
     1
102
RTVSPost2010Prop55
280
     0
102
RTVSPost2010PropOp55
 70
     1
102
RTVSPost2010Prop56
140
1.0
102
RTVSPost2010PropOp56
 70
     1
102
RTVSPost2010Prop57
140
1.0
102
RTVSPost2010PropOp57
 70
     1
  0
XRECORD
  5
435F
102
{ACAD_REACTORS
330
435E
102
}
330
435E
100
AcDbXrecord
280
     1
102
RTVSPost2010Prop28
280
     0
102
RTVSPost2010PropOp28
 70
     1
102
RTVSPost2010Prop29
280
     1
102
RTVSPost2010PropOp29
 70
     1
102
RTVSPost2010Prop30
280
     1
102
RTVSPost2010PropOp30
 70
     1
102
RTVSPost2010Prop31
280
     0
102
RTVSPost2010PropOp31
 70
     1
102
RTVSPost2010Prop32
280
     0
102
RTVSPost2010PropOp32
 70
     1
102
RTVSPost2010Prop33
280
     0
102
RTVSPost2010PropOp33
 70
     1
102
RTVSPost2010Prop34
280
     0
102
RTVSPost2010PropOp34
 70
     1
102
RTVSPost2010Prop35
280
     0
102
RTVSPost2010PropOp35
 70
     1
102
RTVSPost2010Prop36
280
     0
102
RTVSPost2010PropOp36
 70
     1
102
RTVSPost2010Prop37
 90
       50
102
RTVSPost2010PropOp37
 70
     1
102
RTVSPost2010Prop38
140
0.0
102
RTVSPost2010PropOp38
 70
     1
102
RTVSPost2010Prop39
140
1.0
102
RTVSPost2010PropOp39
 70
     1
102
RTVSPost2010Prop40
 90
        0
102
RTVSPost2010PropOp40
 70
     1
102
RTVSPost2010Prop41ColorIndex
 90
       18
102
RTVSPost2010Prop41ColorRGB
 90
        0
102
RTVSPost2010PropOp41
 70
     1
102
RTVSPost2010Prop42
 90
       50
102
RTVSPost2010PropOp42
 70
     1
102
RTVSPost2010Prop43
 90
        3
102
RTVSPost2010PropOp43
 70
     1
102
RTVSPost2010Prop44ColorIndex
 90
        5
102
RTVSPost2010Prop44ColorRGB
 90
      255
102
RTVSPost2010PropOp44
 70
     1
102
RTVSPost2010Prop45
280
     0
102
RTVSPost2010PropOp45
 70
     1
102
RTVSPost2010Prop46
 90
       50
102
RTVSPost2010PropOp46
 70
     1
102
RTVSPost2010Prop47
 90
       50
102
RTVSPost2010PropOp47
 70
     1
102
RTVSPost2010Prop48
 90
       50
102
RTVSPost2010PropOp48
 70
     1
102
RTVSPost2010Prop49
280
     0
102
RTVSPost2010PropOp49
 70
     1
102
RTVSPost2010Prop50
 90
       50
102
RTVSPost2010PropOp50
 70
     1
102
RTVSPost2010Prop51ColorIndex
 90
      256
102
RTVSPost2010Prop51ColorRGB
 90
-16777216
102
RTVSPost2010PropOp51
 70
     0
102
RTVSPost2010Prop52
140
1.0
102
RTVSPost2010PropOp52
 70
     0
102
RTVSPost2010Prop53
 90
        2
102
RTVSPost2010PropOp53
 70
     1
102
RTVSPost2010Prop54
  1
strokes_ogs.tif
102
RTVSPost2010PropOp54
 70
     1
102
RTVSPost2010Prop55
280
     0
102
RTVSPost2010PropOp55
 70
     1
102
RTVSPost2010Prop56
140
1.0
102
RTVSPost2010PropOp56
 70
     1
102
RTVSPost2010Prop57
140
1.0
102
RTVSPost2010PropOp57
 70
     1
  0
XRECORD
  5
4353
102
{ACAD_REACTORS
330
4352
102
}
330
4352
100
AcDbXrecord
280
     1
102
RTVSPost2010Prop28
280
     0
102
RTVSPost2010PropOp28
 70
     1
102
RTVSPost2010Prop29
280
     1
102
RTVSPost2010PropOp29
 70
     1
102
RTVSPost2010Prop30
280
     1
102
RTVSPost2010PropOp30
 70
     1
102
RTVSPost2010Prop31
280
     0
102
RTVSPost2010PropOp31
 70
     1
102
RTVSPost2010Prop32
280
     0
102
RTVSPost2010PropOp32
 70
     1
102
RTVSPost2010Prop33
280
     0
102
RTVSPost2010PropOp33
 70
     1
102
RTVSPost2010Prop34
280
     0
102
RTVSPost2010PropOp34
 70
     1
102
RTVSPost2010Prop35
280
     0
102
RTVSPost2010PropOp35
 70
     1
102
RTVSPost2010Prop36
280
     0
102
RTVSPost2010PropOp36
 70
     1
102
RTVSPost2010Prop37
 90
       50
102
RTVSPost2010PropOp37
 70
     1
102
RTVSPost2010Prop38
140
0.0
102
RTVSPost2010PropOp38
 70
     1
102
RTVSPost2010Prop39
140
1.0
102
RTVSPost2010PropOp39
 70
     1
102
RTVSPost2010Prop40
 90
        0
102
RTVSPost2010PropOp40
 70
     1
102
RTVSPost2010Prop41ColorIndex
 90
       18
102
RTVSPost2010Prop41ColorRGB
 90
        0
102
RTVSPost2010PropOp41
 70
     1
102
RTVSPost2010Prop42
 90
       50
102
RTVSPost2010PropOp42
 70
     1
102
RTVSPost2010Prop43
 90
        3
102
RTVSPost2010PropOp43
 70
     1
102
RTVSPost2010Prop44ColorIndex
 90
        5
102
RTVSPost2010Prop44ColorRGB
 90
      255
102
RTVSPost2010PropOp44
 70
     1
102
RTVSPost2010Prop45
280
     0
102
RTVSPost2010PropOp45
 70
     1
102
RTVSPost2010Prop46
 90
       50
102
RTVSPost2010PropOp46
 70
     1
102
RTVSPost2010Prop47
 90
       50
102
RTVSPost2010PropOp47
 70
     1
102
RTVSPost2010Prop48
 90
       50
102
RTVSPost2010PropOp48
 70
     1
102
RTVSPost2010Prop49
280
     0
102
RTVSPost2010PropOp49
 70
     1
102
RTVSPost2010Prop50
 90
       50
102
RTVSPost2010PropOp50
 70
     1
102
RTVSPost2010Prop51ColorIndex
 90
      256
102
RTVSPost2010Prop51ColorRGB
 90
-16777216
102
RTVSPost2010PropOp51
 70
     0
102
RTVSPost2010Prop52
140
1.0
102
RTVSPost2010PropOp52
 70
     0
102
RTVSPost2010Prop53
 90
        2
102
RTVSPost2010PropOp53
 70
     1
102
RTVSPost2010Prop54
  1
strokes_ogs.tif
102
RTVSPost2010PropOp54
 70
     1
102
RTVSPost2010Prop55
280
     0
102
RTVSPost2010PropOp55
 70
     1
102
RTVSPost2010Prop56
140
1.0
102
RTVSPost2010PropOp56
 70
     1
102
RTVSPost2010Prop57
140
1.0
102
RTVSPost2010PropOp57
 70
     1
  0
XRECORD
  5
4355
102
{ACAD_REACTORS
330
4354
102
}
330
4354
100
AcDbXrecord
280
     1
102
RTVSPost2010Prop28
280
     0
102
RTVSPost2010PropOp28
 70
     1
102
RTVSPost2010Prop29
280
     1
102
RTVSPost2010PropOp29
 70
     1
102
RTVSPost2010Prop30
280
     1
102
RTVSPost2010PropOp30
 70
     1
102
RTVSPost2010Prop31
280
     0
102
RTVSPost2010PropOp31
 70
     1
102
RTVSPost2010Prop32
280
     0
102
RTVSPost2010PropOp32
 70
     1
102
RTVSPost2010Prop33
280
     0
102
RTVSPost2010PropOp33
 70
     1
102
RTVSPost2010Prop34
280
     0
102
RTVSPost2010PropOp34
 70
     1
102
RTVSPost2010Prop35
280
     0
102
RTVSPost2010PropOp35
 70
     1
102
RTVSPost2010Prop36
280
     0
102
RTVSPost2010PropOp36
 70
     1
102
RTVSPost2010Prop37
 90
       50
102
RTVSPost2010PropOp37
 70
     1
102
RTVSPost2010Prop38
140
0.0
102
RTVSPost2010PropOp38
 70
     1
102
RTVSPost2010Prop39
140
1.0
102
RTVSPost2010PropOp39
 70
     1
102
RTVSPost2010Prop40
 90
        0
102
RTVSPost2010PropOp40
 70
     1
102
RTVSPost2010Prop41ColorIndex
 90
       18
102
RTVSPost2010Prop41ColorRGB
 90
        0
102
RTVSPost2010PropOp41
 70
     1
102
RTVSPost2010Prop42
 90
       50
102
RTVSPost2010PropOp42
 70
     1
102
RTVSPost2010Prop43
 90
        3
102
RTVSPost2010PropOp43
 70
     1
102
RTVSPost2010Prop44ColorIndex
 90
        5
102
RTVSPost2010Prop44ColorRGB
 90
      255
102
RTVSPost2010PropOp44
 70
     1
102
RTVSPost2010Prop45
280
     0
102
RTVSPost2010PropOp45
 70
     1
102
RTVSPost2010Prop46
 90
       50
102
RTVSPost2010PropOp46
 70
     1
102
RTVSPost2010Prop47
 90
       50
102
RTVSPost2010PropOp47
 70
     1
102
RTVSPost2010Prop48
 90
       50
102
RTVSPost2010PropOp48
 70
     1
102
RTVSPost2010Prop49
280
     0
102
RTVSPost2010PropOp49
 70
     1
102
RTVSPost2010Prop50
 90
       50
102
RTVSPost2010PropOp50
 70
     1
102
RTVSPost2010Prop51ColorIndex
 90
      256
102
RTVSPost2010Prop51ColorRGB
 90
-16777216
102
RTVSPost2010PropOp51
 70
     0
102
RTVSPost2010Prop52
140
1.0
102
RTVSPost2010PropOp52
 70
     0
102
RTVSPost2010Prop53
 90
        2
102
RTVSPost2010PropOp53
 70
     1
102
RTVSPost2010Prop54
  1
strokes_ogs.tif
102
RTVSPost2010PropOp54
 70
     1
102
RTVSPost2010Prop55
280
     0
102
RTVSPost2010PropOp55
 70
     1
102
RTVSPost2010Prop56
140
1.0
102
RTVSPost2010PropOp56
 70
     1
102
RTVSPost2010Prop57
140
1.0
102
RTVSPost2010PropOp57
 70
     1
  0
XRECORD
  5
4365
102
{ACAD_REACTORS
330
4364
102
}
330
4364
100
AcDbXrecord
280
     1
102
RTVSPost2010Prop28
280
     0
102
RTVSPost2010PropOp28
 70
     0
102
RTVSPost2010Prop29
280
     1
102
RTVSPost2010PropOp29
 70
     0
102
RTVSPost2010Prop30
280
     1
102
RTVSPost2010PropOp30
 70
     0
102
RTVSPost2010Prop31
280
     0
102
RTVSPost2010PropOp31
 70
     0
102
RTVSPost2010Prop32
280
     0
102
RTVSPost2010PropOp32
 70
     0
102
RTVSPost2010Prop33
280
     0
102
RTVSPost2010PropOp33
 70
     0
102
RTVSPost2010Prop34
280
     0
102
RTVSPost2010PropOp34
 70
     0
102
RTVSPost2010Prop35
280
     0
102
RTVSPost2010PropOp35
 70
     0
102
RTVSPost2010Prop36
280
     0
102
RTVSPost2010PropOp36
 70
     0
102
RTVSPost2010Prop37
 90
       50
102
RTVSPost2010PropOp37
 70
     0
102
RTVSPost2010Prop38
140
0.0
102
RTVSPost2010PropOp38
 70
     0
102
RTVSPost2010Prop39
140
1.0
102
RTVSPost2010PropOp39
 70
     0
102
RTVSPost2010Prop40
 90
        0
102
RTVSPost2010PropOp40
 70
     0
102
RTVSPost2010Prop41ColorIndex
 90
       18
102
RTVSPost2010Prop41ColorRGB
 90
        0
102
RTVSPost2010PropOp41
 70
     0
102
RTVSPost2010Prop42
 90
       50
102
RTVSPost2010PropOp42
 70
     0
102
RTVSPost2010Prop43
 90
        3
102
RTVSPost2010PropOp43
 70
     0
102
RTVSPost2010Prop44ColorIndex
 90
        5
102
RTVSPost2010Prop44ColorRGB
 90
      255
102
RTVSPost2010PropOp44
 70
     0
102
RTVSPost2010Prop45
280
     0
102
RTVSPost2010PropOp45
 70
     0
102
RTVSPost2010Prop46
 90
       50
102
RTVSPost2010PropOp46
 70
     0
102
RTVSPost2010Prop47
 90
       50
102
RTVSPost2010PropOp47
 70
     0
102
RTVSPost2010Prop48
 90
       50
102
RTVSPost2010PropOp48
 70
     0
102
RTVSPost2010Prop49
280
     0
102
RTVSPost2010PropOp49
 70
     0
102
RTVSPost2010Prop50
 90
       50
102
RTVSPost2010PropOp50
 70
     0
102
RTVSPost2010Prop51ColorIndex
 90
      256
102
RTVSPost2010Prop51ColorRGB
 90
-16777216
102
RTVSPost2010PropOp51
 70
     0
102
RTVSPost2010Prop52
140
1.0
102
RTVSPost2010PropOp52
 70
     0
102
RTVSPost2010Prop53
 90
        2
102
RTVSPost2010PropOp53
 70
     0
102
RTVSPost2010Prop54
  1
strokes_ogs.tif
102
RTVSPost2010PropOp54
 70
     0
102
RTVSPost2010Prop55
280
     0
102
RTVSPost2010PropOp55
 70
     0
102
RTVSPost2010Prop56
140
1.0
102
RTVSPost2010PropOp56
 70
     0
102
RTVSPost2010Prop57
140
1.0
102
RTVSPost2010PropOp57
 70
     0
  0
XRECORD
  5
435D
102
{ACAD_REACTORS
330
435C
102
}
330
435C
100
AcDbXrecord
280
     1
102
RTVSPost2010Prop28
280
     0
102
RTVSPost2010PropOp28
 70
     1
102
RTVSPost2010Prop29
280
     1
102
RTVSPost2010PropOp29
 70
     1
102
RTVSPost2010Prop30
280
     1
102
RTVSPost2010PropOp30
 70
     1
102
RTVSPost2010Prop31
280
     0
102
RTVSPost2010PropOp31
 70
     1
102
RTVSPost2010Prop32
280
     0
102
RTVSPost2010PropOp32
 70
     1
102
RTVSPost2010Prop33
280
     0
102
RTVSPost2010PropOp33
 70
     1
102
RTVSPost2010Prop34
280
     0
102
RTVSPost2010PropOp34
 70
     1
102
RTVSPost2010Prop35
280
     0
102
RTVSPost2010PropOp35
 70
     1
102
RTVSPost2010Prop36
280
     0
102
RTVSPost2010PropOp36
 70
     1
102
RTVSPost2010Prop37
 90
       50
102
RTVSPost2010PropOp37
 70
     1
102
RTVSPost2010Prop38
140
0.0
102
RTVSPost2010PropOp38
 70
     1
102
RTVSPost2010Prop39
140
1.0
102
RTVSPost2010PropOp39
 70
     1
102
RTVSPost2010Prop40
 90
        0
102
RTVSPost2010PropOp40
 70
     1
102
RTVSPost2010Prop41ColorIndex
 90
       18
102
RTVSPost2010Prop41ColorRGB
 90
        0
102
RTVSPost2010PropOp41
 70
     1
102
RTVSPost2010Prop42
 90
       50
102
RTVSPost2010PropOp42
 70
     1
102
RTVSPost2010Prop43
 90
        3
102
RTVSPost2010PropOp43
 70
     1
102
RTVSPost2010Prop44ColorIndex
 90
        5
102
RTVSPost2010Prop44ColorRGB
 90
      255
102
RTVSPost2010PropOp44
 70
     1
102
RTVSPost2010Prop45
280
     0
102
RTVSPost2010PropOp45
 70
     1
102
RTVSPost2010Prop46
 90
       50
102
RTVSPost2010PropOp46
 70
     1
102
RTVSPost2010Prop47
 90
       50
102
RTVSPost2010PropOp47
 70
     1
102
RTVSPost2010Prop48
 90
       50
102
RTVSPost2010PropOp48
 70
     1
102
RTVSPost2010Prop49
280
     0
102
RTVSPost2010PropOp49
 70
     1
102
RTVSPost2010Prop50
 90
       50
102
RTVSPost2010PropOp50
 70
     1
102
RTVSPost2010Prop51ColorIndex
 90
      256
102
RTVSPost2010Prop51ColorRGB
 90
-16777216
102
RTVSPost2010PropOp51
 70
     0
102
RTVSPost2010Prop52
140
1.0
102
RTVSPost2010PropOp52
 70
     0
102
RTVSPost2010Prop53
 90
        2
102
RTVSPost2010PropOp53
 70
     1
102
RTVSPost2010Prop54
  1
strokes_ogs.tif
102
RTVSPost2010PropOp54
 70
     1
102
RTVSPost2010Prop55
280
     0
102
RTVSPost2010PropOp55
 70
     1
102
RTVSPost2010Prop56
140
1.0
102
RTVSPost2010PropOp56
 70
     1
102
RTVSPost2010Prop57
140
1.0
102
RTVSPost2010PropOp57
 70
     1
  0
XRECORD
  5
4341
102
{ACAD_REACTORS
330
4340
102
}
330
4340
100
AcDbXrecord
280
     1
102
RTVSPost2010Prop28
280
     0
102
RTVSPost2010PropOp28
 70
     1
102
RTVSPost2010Prop29
280
     1
102
RTVSPost2010PropOp29
 70
     1
102
RTVSPost2010Prop30
280
     1
102
RTVSPost2010PropOp30
 70
     1
102
RTVSPost2010Prop31
280
     0
102
RTVSPost2010PropOp31
 70
     1
102
RTVSPost2010Prop32
280
     0
102
RTVSPost2010PropOp32
 70
     1
102
RTVSPost2010Prop33
280
     0
102
RTVSPost2010PropOp33
 70
     1
102
RTVSPost2010Prop34
280
     0
102
RTVSPost2010PropOp34
 70
     1
102
RTVSPost2010Prop35
280
     0
102
RTVSPost2010PropOp35
 70
     1
102
RTVSPost2010Prop36
280
     0
102
RTVSPost2010PropOp36
 70
     1
102
RTVSPost2010Prop37
 90
       50
102
RTVSPost2010PropOp37
 70
     1
102
RTVSPost2010Prop38
140
0.0
102
RTVSPost2010PropOp38
 70
     1
102
RTVSPost2010Prop39
140
1.0
102
RTVSPost2010PropOp39
 70
     1
102
RTVSPost2010Prop40
 90
        0
102
RTVSPost2010PropOp40
 70
     1
102
RTVSPost2010Prop41ColorIndex
 90
       18
102
RTVSPost2010Prop41ColorRGB
 90
        0
102
RTVSPost2010PropOp41
 70
     1
102
RTVSPost2010Prop42
 90
       50
102
RTVSPost2010PropOp42
 70
     1
102
RTVSPost2010Prop43
 90
        3
102
RTVSPost2010PropOp43
 70
     1
102
RTVSPost2010Prop44ColorIndex
 90
        5
102
RTVSPost2010Prop44ColorRGB
 90
      255
102
RTVSPost2010PropOp44
 70
     1
102
RTVSPost2010Prop45
280
     0
102
RTVSPost2010PropOp45
 70
     1
102
RTVSPost2010Prop46
 90
       50
102
RTVSPost2010PropOp46
 70
     1
102
RTVSPost2010Prop47
 90
       50
102
RTVSPost2010PropOp47
 70
     1
102
RTVSPost2010Prop48
 90
       50
102
RTVSPost2010PropOp48
 70
     1
102
RTVSPost2010Prop49
280
     0
102
RTVSPost2010PropOp49
 70
     1
102
RTVSPost2010Prop50
 90
       50
102
RTVSPost2010PropOp50
 70
     1
102
RTVSPost2010Prop51ColorIndex
 90
      256
102
RTVSPost2010Prop51ColorRGB
 90
-16777216
102
RTVSPost2010PropOp51
 70
     0
102
RTVSPost2010Prop52
140
1.0
102
RTVSPost2010PropOp52
 70
     0
102
RTVSPost2010Prop53
 90
        2
102
RTVSPost2010PropOp53
 70
     1
102
RTVSPost2010Prop54
  1
strokes_ogs.tif
102
RTVSPost2010PropOp54
 70
     1
102
RTVSPost2010Prop55
280
     0
102
RTVSPost2010PropOp55
 70
     1
102
RTVSPost2010Prop56
140
1.0
102
RTVSPost2010PropOp56
 70
     1
102
RTVSPost2010Prop57
140
1.0
102
RTVSPost2010PropOp57
 70
     1
  0
XRECORD
  5
4343
102
{ACAD_REACTORS
330
4342
102
}
330
4342
100
AcDbXrecord
280
     1
102
RTVSPost2010Prop28
280
     0
102
RTVSPost2010PropOp28
 70
     1
102
RTVSPost2010Prop29
280
     1
102
RTVSPost2010PropOp29
 70
     1
102
RTVSPost2010Prop30
280
     1
102
RTVSPost2010PropOp30
 70
     1
102
RTVSPost2010Prop31
280
     0
102
RTVSPost2010PropOp31
 70
     1
102
RTVSPost2010Prop32
280
     0
102
RTVSPost2010PropOp32
 70
     1
102
RTVSPost2010Prop33
280
     0
102
RTVSPost2010PropOp33
 70
     1
102
RTVSPost2010Prop34
280
     0
102
RTVSPost2010PropOp34
 70
     1
102
RTVSPost2010Prop35
280
     0
102
RTVSPost2010PropOp35
 70
     1
102
RTVSPost2010Prop36
280
     0
102
RTVSPost2010PropOp36
 70
     1
102
RTVSPost2010Prop37
 90
       50
102
RTVSPost2010PropOp37
 70
     1
102
RTVSPost2010Prop38
140
0.0
102
RTVSPost2010PropOp38
 70
     1
102
RTVSPost2010Prop39
140
1.0
102
RTVSPost2010PropOp39
 70
     1
102
RTVSPost2010Prop40
 90
        0
102
RTVSPost2010PropOp40
 70
     1
102
RTVSPost2010Prop41ColorIndex
 90
       18
102
RTVSPost2010Prop41ColorRGB
 90
        0
102
RTVSPost2010PropOp41
 70
     1
102
RTVSPost2010Prop42
 90
       50
102
RTVSPost2010PropOp42
 70
     1
102
RTVSPost2010Prop43
 90
        3
102
RTVSPost2010PropOp43
 70
     1
102
RTVSPost2010Prop44ColorIndex
 90
        5
102
RTVSPost2010Prop44ColorRGB
 90
      255
102
RTVSPost2010PropOp44
 70
     1
102
RTVSPost2010Prop45
280
     0
102
RTVSPost2010PropOp45
 70
     1
102
RTVSPost2010Prop46
 90
       50
102
RTVSPost2010PropOp46
 70
     1
102
RTVSPost2010Prop47
 90
       50
102
RTVSPost2010PropOp47
 70
     1
102
RTVSPost2010Prop48
 90
       50
102
RTVSPost2010PropOp48
 70
     1
102
RTVSPost2010Prop49
280
     0
102
RTVSPost2010PropOp49
 70
     1
102
RTVSPost2010Prop50
 90
       50
102
RTVSPost2010PropOp50
 70
     1
102
RTVSPost2010Prop51ColorIndex
 90
      256
102
RTVSPost2010Prop51ColorRGB
 90
-16777216
102
RTVSPost2010PropOp51
 70
     0
102
RTVSPost2010Prop52
140
1.0
102
RTVSPost2010PropOp52
 70
     0
102
RTVSPost2010Prop53
 90
        2
102
RTVSPost2010PropOp53
 70
     1
102
RTVSPost2010Prop54
  1
strokes_ogs.tif
102
RTVSPost2010PropOp54
 70
     1
102
RTVSPost2010Prop55
280
     0
102
RTVSPost2010PropOp55
 70
     1
102
RTVSPost2010Prop56
140
1.0
102
RTVSPost2010PropOp56
 70
     1
102
RTVSPost2010Prop57
140
1.0
102
RTVSPost2010PropOp57
 70
     1
  0
XRECORD
  5
4345
102
{ACAD_REACTORS
330
4344
102
}
330
4344
100
AcDbXrecord
280
     1
102
RTVSPost2010Prop28
280
     0
102
RTVSPost2010PropOp28
 70
     1
102
RTVSPost2010Prop29
280
     1
102
RTVSPost2010PropOp29
 70
     1
102
RTVSPost2010Prop30
280
     1
102
RTVSPost2010PropOp30
 70
     1
102
RTVSPost2010Prop31
280
     0
102
RTVSPost2010PropOp31
 70
     1
102
RTVSPost2010Prop32
280
     0
102
RTVSPost2010PropOp32
 70
     1
102
RTVSPost2010Prop33
280
     0
102
RTVSPost2010PropOp33
 70
     1
102
RTVSPost2010Prop34
280
     0
102
RTVSPost2010PropOp34
 70
     1
102
RTVSPost2010Prop35
280
     0
102
RTVSPost2010PropOp35
 70
     1
102
RTVSPost2010Prop36
280
     0
102
RTVSPost2010PropOp36
 70
     1
102
RTVSPost2010Prop37
 90
       50
102
RTVSPost2010PropOp37
 70
     1
102
RTVSPost2010Prop38
140
0.0
102
RTVSPost2010PropOp38
 70
     1
102
RTVSPost2010Prop39
140
1.0
102
RTVSPost2010PropOp39
 70
     1
102
RTVSPost2010Prop40
 90
        0
102
RTVSPost2010PropOp40
 70
     1
102
RTVSPost2010Prop41ColorIndex
 90
       18
102
RTVSPost2010Prop41ColorRGB
 90
        0
102
RTVSPost2010PropOp41
 70
     1
102
RTVSPost2010Prop42
 90
       50
102
RTVSPost2010PropOp42
 70
     1
102
RTVSPost2010Prop43
 90
        3
102
RTVSPost2010PropOp43
 70
     1
102
RTVSPost2010Prop44ColorIndex
 90
        5
102
RTVSPost2010Prop44ColorRGB
 90
      255
102
RTVSPost2010PropOp44
 70
     1
102
RTVSPost2010Prop45
280
     0
102
RTVSPost2010PropOp45
 70
     1
102
RTVSPost2010Prop46
 90
       50
102
RTVSPost2010PropOp46
 70
     1
102
RTVSPost2010Prop47
 90
       50
102
RTVSPost2010PropOp47
 70
     1
102
RTVSPost2010Prop48
 90
       50
102
RTVSPost2010PropOp48
 70
     1
102
RTVSPost2010Prop49
280
     0
102
RTVSPost2010PropOp49
 70
     1
102
RTVSPost2010Prop50
 90
       50
102
RTVSPost2010PropOp50
 70
     1
102
RTVSPost2010Prop51ColorIndex
 90
      256
102
RTVSPost2010Prop51ColorRGB
 90
-16777216
102
RTVSPost2010PropOp51
 70
     0
102
RTVSPost2010Prop52
140
1.0
102
RTVSPost2010PropOp52
 70
     0
102
RTVSPost2010Prop53
 90
        2
102
RTVSPost2010PropOp53
 70
     1
102
RTVSPost2010Prop54
  1
strokes_ogs.tif
102
RTVSPost2010PropOp54
 70
     1
102
RTVSPost2010Prop55
280
     0
102
RTVSPost2010PropOp55
 70
     1
102
RTVSPost2010Prop56
140
1.0
102
RTVSPost2010PropOp56
 70
     1
102
RTVSPost2010Prop57
140
1.0
102
RTVSPost2010PropOp57
 70
     1
  0
XRECORD
  5
4347
102
{ACAD_REACTORS
330
4346
102
}
330
4346
100
AcDbXrecord
280
     1
102
RTVSPost2010Prop28
280
     0
102
RTVSPost2010PropOp28
 70
     1
102
RTVSPost2010Prop29
280
     1
102
RTVSPost2010PropOp29
 70
     1
102
RTVSPost2010Prop30
280
     1
102
RTVSPost2010PropOp30
 70
     1
102
RTVSPost2010Prop31
280
     0
102
RTVSPost2010PropOp31
 70
     1
102
RTVSPost2010Prop32
280
     0
102
RTVSPost2010PropOp32
 70
     1
102
RTVSPost2010Prop33
280
     0
102
RTVSPost2010PropOp33
 70
     1
102
RTVSPost2010Prop34
280
     0
102
RTVSPost2010PropOp34
 70
     1
102
RTVSPost2010Prop35
280
     0
102
RTVSPost2010PropOp35
 70
     1
102
RTVSPost2010Prop36
280
     0
102
RTVSPost2010PropOp36
 70
     1
102
RTVSPost2010Prop37
 90
       50
102
RTVSPost2010PropOp37
 70
     1
102
RTVSPost2010Prop38
140
0.0
102
RTVSPost2010PropOp38
 70
     1
102
RTVSPost2010Prop39
140
1.0
102
RTVSPost2010PropOp39
 70
     1
102
RTVSPost2010Prop40
 90
        0
102
RTVSPost2010PropOp40
 70
     1
102
RTVSPost2010Prop41ColorIndex
 90
       18
102
RTVSPost2010Prop41ColorRGB
 90
        0
102
RTVSPost2010PropOp41
 70
     1
102
RTVSPost2010Prop42
 90
       50
102
RTVSPost2010PropOp42
 70
     1
102
RTVSPost2010Prop43
 90
        3
102
RTVSPost2010PropOp43
 70
     1
102
RTVSPost2010Prop44ColorIndex
 90
        5
102
RTVSPost2010Prop44ColorRGB
 90
      255
102
RTVSPost2010PropOp44
 70
     1
102
RTVSPost2010Prop45
280
     0
102
RTVSPost2010PropOp45
 70
     1
102
RTVSPost2010Prop46
 90
       50
102
RTVSPost2010PropOp46
 70
     1
102
RTVSPost2010Prop47
 90
       50
102
RTVSPost2010PropOp47
 70
     1
102
RTVSPost2010Prop48
 90
       50
102
RTVSPost2010PropOp48
 70
     1
102
RTVSPost2010Prop49
280
     0
102
RTVSPost2010PropOp49
 70
     1
102
RTVSPost2010Prop50
 90
       50
102
RTVSPost2010PropOp50
 70
     1
102
RTVSPost2010Prop51ColorIndex
 90
      256
102
RTVSPost2010Prop51ColorRGB
 90
-16777216
102
RTVSPost2010PropOp51
 70
     0
102
RTVSPost2010Prop52
140
1.0
102
RTVSPost2010PropOp52
 70
     0
102
RTVSPost2010Prop53
 90
        2
102
RTVSPost2010PropOp53
 70
     1
102
RTVSPost2010Prop54
  1
strokes_ogs.tif
102
RTVSPost2010PropOp54
 70
     1
102
RTVSPost2010Prop55
280
     0
102
RTVSPost2010PropOp55
 70
     1
102
RTVSPost2010Prop56
140
1.0
102
RTVSPost2010PropOp56
 70
     1
102
RTVSPost2010Prop57
140
1.0
102
RTVSPost2010PropOp57
 70
     1
  0
XRECORD
  5
434D
102
{ACAD_REACTORS
330
434C
102
}
330
434C
100
AcDbXrecord
280
     1
102
RTVSPost2010Prop28
280
     0
102
RTVSPost2010PropOp28
 70
     1
102
RTVSPost2010Prop29
280
     1
102
RTVSPost2010PropOp29
 70
     1
102
RTVSPost2010Prop30
280
     1
102
RTVSPost2010PropOp30
 70
     1
102
RTVSPost2010Prop31
280
     0
102
RTVSPost2010PropOp31
 70
     1
102
RTVSPost2010Prop32
280
     0
102
RTVSPost2010PropOp32
 70
     1
102
RTVSPost2010Prop33
280
     0
102
RTVSPost2010PropOp33
 70
     1
102
RTVSPost2010Prop34
280
     0
102
RTVSPost2010PropOp34
 70
     1
102
RTVSPost2010Prop35
280
     0
102
RTVSPost2010PropOp35
 70
     1
102
RTVSPost2010Prop36
280
     0
102
RTVSPost2010PropOp36
 70
     1
102
RTVSPost2010Prop37
 90
       50
102
RTVSPost2010PropOp37
 70
     1
102
RTVSPost2010Prop38
140
0.0
102
RTVSPost2010PropOp38
 70
     1
102
RTVSPost2010Prop39
140
1.0
102
RTVSPost2010PropOp39
 70
     1
102
RTVSPost2010Prop40
 90
        0
102
RTVSPost2010PropOp40
 70
     1
102
RTVSPost2010Prop41ColorIndex
 90
       18
102
RTVSPost2010Prop41ColorRGB
 90
        0
102
RTVSPost2010PropOp41
 70
     1
102
RTVSPost2010Prop42
 90
       50
102
RTVSPost2010PropOp42
 70
     1
102
RTVSPost2010Prop43
 90
        3
102
RTVSPost2010PropOp43
 70
     1
102
RTVSPost2010Prop44ColorIndex
 90
        5
102
RTVSPost2010Prop44ColorRGB
 90
      255
102
RTVSPost2010PropOp44
 70
     1
102
RTVSPost2010Prop45
280
     0
102
RTVSPost2010PropOp45
 70
     1
102
RTVSPost2010Prop46
 90
       50
102
RTVSPost2010PropOp46
 70
     1
102
RTVSPost2010Prop47
 90
       50
102
RTVSPost2010PropOp47
 70
     1
102
RTVSPost2010Prop48
 90
       50
102
RTVSPost2010PropOp48
 70
     1
102
RTVSPost2010Prop49
280
     0
102
RTVSPost2010PropOp49
 70
     1
102
RTVSPost2010Prop50
 90
       50
102
RTVSPost2010PropOp50
 70
     1
102
RTVSPost2010Prop51ColorIndex
 90
      256
102
RTVSPost2010Prop51ColorRGB
 90
-16777216
102
RTVSPost2010PropOp51
 70
     0
102
RTVSPost2010Prop52
140
1.0
102
RTVSPost2010PropOp52
 70
     0
102
RTVSPost2010Prop53
 90
        2
102
RTVSPost2010PropOp53
 70
     1
102
RTVSPost2010Prop54
  1
strokes_ogs.tif
102
RTVSPost2010PropOp54
 70
     1
102
RTVSPost2010Prop55
280
     0
102
RTVSPost2010PropOp55
 70
     1
102
RTVSPost2010Prop56
140
1.0
102
RTVSPost2010PropOp56
 70
     1
102
RTVSPost2010Prop57
140
1.0
102
RTVSPost2010PropOp57
 70
     1
  0
XRECORD
  5
4361
102
{ACAD_REACTORS
330
4360
102
}
330
4360
100
AcDbXrecord
280
     1
102
RTVSPost2010Prop28
280
     0
102
RTVSPost2010PropOp28
 70
     0
102
RTVSPost2010Prop29
280
     1
102
RTVSPost2010PropOp29
 70
     0
102
RTVSPost2010Prop30
280
     1
102
RTVSPost2010PropOp30
 70
     0
102
RTVSPost2010Prop31
280
     0
102
RTVSPost2010PropOp31
 70
     0
102
RTVSPost2010Prop32
280
     0
102
RTVSPost2010PropOp32
 70
     0
102
RTVSPost2010Prop33
280
     0
102
RTVSPost2010PropOp33
 70
     0
102
RTVSPost2010Prop34
280
     0
102
RTVSPost2010PropOp34
 70
     0
102
RTVSPost2010Prop35
280
     0
102
RTVSPost2010PropOp35
 70
     0
102
RTVSPost2010Prop36
280
     0
102
RTVSPost2010PropOp36
 70
     0
102
RTVSPost2010Prop37
 90
       50
102
RTVSPost2010PropOp37
 70
     0
102
RTVSPost2010Prop38
140
0.0
102
RTVSPost2010PropOp38
 70
     0
102
RTVSPost2010Prop39
140
1.0
102
RTVSPost2010PropOp39
 70
     0
102
RTVSPost2010Prop40
 90
        0
102
RTVSPost2010PropOp40
 70
     0
102
RTVSPost2010Prop41ColorIndex
 90
       18
102
RTVSPost2010Prop41ColorRGB
 90
        0
102
RTVSPost2010PropOp41
 70
     0
102
RTVSPost2010Prop42
 90
       50
102
RTVSPost2010PropOp42
 70
     0
102
RTVSPost2010Prop43
 90
        3
102
RTVSPost2010PropOp43
 70
     0
102
RTVSPost2010Prop44ColorIndex
 90
        5
102
RTVSPost2010Prop44ColorRGB
 90
      255
102
RTVSPost2010PropOp44
 70
     0
102
RTVSPost2010Prop45
280
     0
102
RTVSPost2010PropOp45
 70
     0
102
RTVSPost2010Prop46
 90
       50
102
RTVSPost2010PropOp46
 70
     0
102
RTVSPost2010Prop47
 90
       50
102
RTVSPost2010PropOp47
 70
     0
102
RTVSPost2010Prop48
 90
       50
102
RTVSPost2010PropOp48
 70
     0
102
RTVSPost2010Prop49
280
     0
102
RTVSPost2010PropOp49
 70
     0
102
RTVSPost2010Prop50
 90
       50
102
RTVSPost2010PropOp50
 70
     0
102
RTVSPost2010Prop51ColorIndex
 90
      256
102
RTVSPost2010Prop51ColorRGB
 90
-16777216
102
RTVSPost2010PropOp51
 70
     0
102
RTVSPost2010Prop52
140
1.0
102
RTVSPost2010PropOp52
 70
     0
102
RTVSPost2010Prop53
 90
        2
102
RTVSPost2010PropOp53
 70
     0
102
RTVSPost2010Prop54
  1
strokes_ogs.tif
102
RTVSPost2010PropOp54
 70
     0
102
RTVSPost2010Prop55
280
     0
102
RTVSPost2010PropOp55
 70
     0
102
RTVSPost2010Prop56
140
1.0
102
RTVSPost2010PropOp56
 70
     0
102
RTVSPost2010Prop57
140
1.0
102
RTVSPost2010PropOp57
 70
     0
  0
XRECORD
  5
435B
102
{ACAD_REACTORS
330
435A
102
}
330
435A
100
AcDbXrecord
280
     1
102
RTVSPost2010Prop28
280
     0
102
RTVSPost2010PropOp28
 70
     1
102
RTVSPost2010Prop29
280
     1
102
RTVSPost2010PropOp29
 70
     1
102
RTVSPost2010Prop30
280
     1
102
RTVSPost2010PropOp30
 70
     1
102
RTVSPost2010Prop31
280
     0
102
RTVSPost2010PropOp31
 70
     1
102
RTVSPost2010Prop32
280
     0
102
RTVSPost2010PropOp32
 70
     1
102
RTVSPost2010Prop33
280
     0
102
RTVSPost2010PropOp33
 70
     1
102
RTVSPost2010Prop34
280
     0
102
RTVSPost2010PropOp34
 70
     1
102
RTVSPost2010Prop35
280
     0
102
RTVSPost2010PropOp35
 70
     1
102
RTVSPost2010Prop36
280
     0
102
RTVSPost2010PropOp36
 70
     1
102
RTVSPost2010Prop37
 90
       50
102
RTVSPost2010PropOp37
 70
     1
102
RTVSPost2010Prop38
140
0.0
102
RTVSPost2010PropOp38
 70
     1
102
RTVSPost2010Prop39
140
1.0
102
RTVSPost2010PropOp39
 70
     1
102
RTVSPost2010Prop40
 90
        0
102
RTVSPost2010PropOp40
 70
     1
102
RTVSPost2010Prop41ColorIndex
 90
       18
102
RTVSPost2010Prop41ColorRGB
 90
        0
102
RTVSPost2010PropOp41
 70
     1
102
RTVSPost2010Prop42
 90
       50
102
RTVSPost2010PropOp42
 70
     1
102
RTVSPost2010Prop43
 90
        3
102
RTVSPost2010PropOp43
 70
     1
102
RTVSPost2010Prop44ColorIndex
 90
        5
102
RTVSPost2010Prop44ColorRGB
 90
      255
102
RTVSPost2010PropOp44
 70
     1
102
RTVSPost2010Prop45
280
     0
102
RTVSPost2010PropOp45
 70
     1
102
RTVSPost2010Prop46
 90
       50
102
RTVSPost2010PropOp46
 70
     1
102
RTVSPost2010Prop47
 90
       50
102
RTVSPost2010PropOp47
 70
     1
102
RTVSPost2010Prop48
 90
       50
102
RTVSPost2010PropOp48
 70
     1
102
RTVSPost2010Prop49
280
     0
102
RTVSPost2010PropOp49
 70
     1
102
RTVSPost2010Prop50
 90
       50
102
RTVSPost2010PropOp50
 70
     1
102
RTVSPost2010Prop51ColorIndex
 90
      256
102
RTVSPost2010Prop51ColorRGB
 90
-16777216
102
RTVSPost2010PropOp51
 70
     0
102
RTVSPost2010Prop52
140
1.0
102
RTVSPost2010PropOp52
 70
     0
102
RTVSPost2010Prop53
 90
        2
102
RTVSPost2010PropOp53
 70
     1
102
RTVSPost2010Prop54
  1
strokes_ogs.tif
102
RTVSPost2010PropOp54
 70
     1
102
RTVSPost2010Prop55
280
     0
102
RTVSPost2010PropOp55
 70
     1
102
RTVSPost2010Prop56
140
1.0
102
RTVSPost2010PropOp56
 70
     1
102
RTVSPost2010Prop57
140
1.0
102
RTVSPost2010PropOp57
 70
     1
  0
XRECORD
  5
4363
102
{ACAD_REACTORS
330
4362
102
}
330
4362
100
AcDbXrecord
280
     1
102
RTVSPost2010Prop28
280
     0
102
RTVSPost2010PropOp28
 70
     0
102
RTVSPost2010Prop29
280
     1
102
RTVSPost2010PropOp29
 70
     0
102
RTVSPost2010Prop30
280
     1
102
RTVSPost2010PropOp30
 70
     0
102
RTVSPost2010Prop31
280
     0
102
RTVSPost2010PropOp31
 70
     0
102
RTVSPost2010Prop32
280
     0
102
RTVSPost2010PropOp32
 70
     0
102
RTVSPost2010Prop33
280
     0
102
RTVSPost2010PropOp33
 70
     0
102
RTVSPost2010Prop34
280
     0
102
RTVSPost2010PropOp34
 70
     0
102
RTVSPost2010Prop35
280
     0
102
RTVSPost2010PropOp35
 70
     0
102
RTVSPost2010Prop36
280
     0
102
RTVSPost2010PropOp36
 70
     0
102
RTVSPost2010Prop37
 90
       50
102
RTVSPost2010PropOp37
 70
     0
102
RTVSPost2010Prop38
140
0.0
102
RTVSPost2010PropOp38
 70
     0
102
RTVSPost2010Prop39
140
1.0
102
RTVSPost2010PropOp39
 70
     0
102
RTVSPost2010Prop40
 90
        0
102
RTVSPost2010PropOp40
 70
     0
102
RTVSPost2010Prop41ColorIndex
 90
       18
102
RTVSPost2010Prop41ColorRGB
 90
        0
102
RTVSPost2010PropOp41
 70
     0
102
RTVSPost2010Prop42
 90
       50
102
RTVSPost2010PropOp42
 70
     0
102
RTVSPost2010Prop43
 90
        3
102
RTVSPost2010PropOp43
 70
     0
102
RTVSPost2010Prop44ColorIndex
 90
        5
102
RTVSPost2010Prop44ColorRGB
 90
      255
102
RTVSPost2010PropOp44
 70
     0
102
RTVSPost2010Prop45
280
     0
102
RTVSPost2010PropOp45
 70
     0
102
RTVSPost2010Prop46
 90
       50
102
RTVSPost2010PropOp46
 70
     0
102
RTVSPost2010Prop47
 90
       50
102
RTVSPost2010PropOp47
 70
     0
102
RTVSPost2010Prop48
 90
       50
102
RTVSPost2010PropOp48
 70
     0
102
RTVSPost2010Prop49
280
     0
102
RTVSPost2010PropOp49
 70
     0
102
RTVSPost2010Prop50
 90
       50
102
RTVSPost2010PropOp50
 70
     0
102
RTVSPost2010Prop51ColorIndex
 90
      256
102
RTVSPost2010Prop51ColorRGB
 90
-16777216
102
RTVSPost2010PropOp51
 70
     0
102
RTVSPost2010Prop52
140
1.0
102
RTVSPost2010PropOp52
 70
     0
102
RTVSPost2010Prop53
 90
        2
102
RTVSPost2010PropOp53
 70
     0
102
RTVSPost2010Prop54
  1
strokes_ogs.tif
102
RTVSPost2010PropOp54
 70
     0
102
RTVSPost2010Prop55
280
     0
102
RTVSPost2010PropOp55
 70
     0
102
RTVSPost2010Prop56
140
1.0
102
RTVSPost2010PropOp56
 70
     0
102
RTVSPost2010Prop57
140
1.0
102
RTVSPost2010PropOp57
 70
     0
  0
XRECORD
  5
4351
102
{ACAD_REACTORS
330
4350
102
}
330
4350
100
AcDbXrecord
280
     1
102
RTVSPost2010Prop28
280
     0
102
RTVSPost2010PropOp28
 70
     1
102
RTVSPost2010Prop29
280
     1
102
RTVSPost2010PropOp29
 70
     1
102
RTVSPost2010Prop30
280
     1
102
RTVSPost2010PropOp30
 70
     1
102
RTVSPost2010Prop31
280
     0
102
RTVSPost2010PropOp31
 70
     1
102
RTVSPost2010Prop32
280
     0
102
RTVSPost2010PropOp32
 70
     1
102
RTVSPost2010Prop33
280
     0
102
RTVSPost2010PropOp33
 70
     1
102
RTVSPost2010Prop34
280
     0
102
RTVSPost2010PropOp34
 70
     1
102
RTVSPost2010Prop35
280
     0
102
RTVSPost2010PropOp35
 70
     1
102
RTVSPost2010Prop36
280
     0
102
RTVSPost2010PropOp36
 70
     1
102
RTVSPost2010Prop37
 90
       50
102
RTVSPost2010PropOp37
 70
     1
102
RTVSPost2010Prop38
140
0.0
102
RTVSPost2010PropOp38
 70
     1
102
RTVSPost2010Prop39
140
1.0
102
RTVSPost2010PropOp39
 70
     1
102
RTVSPost2010Prop40
 90
        0
102
RTVSPost2010PropOp40
 70
     1
102
RTVSPost2010Prop41ColorIndex
 90
       18
102
RTVSPost2010Prop41ColorRGB
 90
        0
102
RTVSPost2010PropOp41
 70
     1
102
RTVSPost2010Prop42
 90
       50
102
RTVSPost2010PropOp42
 70
     1
102
RTVSPost2010Prop43
 90
        3
102
RTVSPost2010PropOp43
 70
     1
102
RTVSPost2010Prop44ColorIndex
 90
        5
102
RTVSPost2010Prop44ColorRGB
 90
      255
102
RTVSPost2010PropOp44
 70
     1
102
RTVSPost2010Prop45
280
     0
102
RTVSPost2010PropOp45
 70
     1
102
RTVSPost2010Prop46
 90
       50
102
RTVSPost2010PropOp46
 70
     1
102
RTVSPost2010Prop47
 90
       50
102
RTVSPost2010PropOp47
 70
     1
102
RTVSPost2010Prop48
 90
       50
102
RTVSPost2010PropOp48
 70
     1
102
RTVSPost2010Prop49
280
     0
102
RTVSPost2010PropOp49
 70
     1
102
RTVSPost2010Prop50
 90
       50
102
RTVSPost2010PropOp50
 70
     1
102
RTVSPost2010Prop51ColorIndex
 90
      256
102
RTVSPost2010Prop51ColorRGB
 90
-16777216
102
RTVSPost2010PropOp51
 70
     0
102
RTVSPost2010Prop52
140
1.0
102
RTVSPost2010PropOp52
 70
     0
102
RTVSPost2010Prop53
 90
        2
102
RTVSPost2010PropOp53
 70
     1
102
RTVSPost2010Prop54
  1
strokes_ogs.tif
102
RTVSPost2010PropOp54
 70
     1
102
RTVSPost2010Prop55
280
     0
102
RTVSPost2010PropOp55
 70
     1
102
RTVSPost2010Prop56
140
1.0
102
RTVSPost2010PropOp56
 70
     1
102
RTVSPost2010Prop57
140
1.0
102
RTVSPost2010PropOp57
 70
     1
  0
XRECORD
  5
436F
102
{ACAD_REACTORS
330
436E
102
}
330
436E
100
AcDbXrecord
280
     1
102
RTVSPost2010Prop28
280
     0
102
RTVSPost2010PropOp28
 70
     1
102
RTVSPost2010Prop29
280
     1
102
RTVSPost2010PropOp29
 70
     1
102
RTVSPost2010Prop30
280
     1
102
RTVSPost2010PropOp30
 70
     1
102
RTVSPost2010Prop31
280
     0
102
RTVSPost2010PropOp31
 70
     1
102
RTVSPost2010Prop32
280
     0
102
RTVSPost2010PropOp32
 70
     1
102
RTVSPost2010Prop33
280
     0
102
RTVSPost2010PropOp33
 70
     1
102
RTVSPost2010Prop34
280
     0
102
RTVSPost2010PropOp34
 70
     1
102
RTVSPost2010Prop35
280
     0
102
RTVSPost2010PropOp35
 70
     1
102
RTVSPost2010Prop36
280
     0
102
RTVSPost2010PropOp36
 70
     1
102
RTVSPost2010Prop37
 90
       50
102
RTVSPost2010PropOp37
 70
     1
102
RTVSPost2010Prop38
140
0.0
102
RTVSPost2010PropOp38
 70
     1
102
RTVSPost2010Prop39
140
1.0
102
RTVSPost2010PropOp39
 70
     1
102
RTVSPost2010Prop40
 90
        0
102
RTVSPost2010PropOp40
 70
     1
102
RTVSPost2010Prop41ColorIndex
 90
       18
102
RTVSPost2010Prop41ColorRGB
 90
        0
102
RTVSPost2010PropOp41
 70
     1
102
RTVSPost2010Prop42
 90
       50
102
RTVSPost2010PropOp42
 70
     1
102
RTVSPost2010Prop43
 90
        3
102
RTVSPost2010PropOp43
 70
     1
102
RTVSPost2010Prop44ColorIndex
 90
        5
102
RTVSPost2010Prop44ColorRGB
 90
      255
102
RTVSPost2010PropOp44
 70
     1
102
RTVSPost2010Prop45
280
     0
102
RTVSPost2010PropOp45
 70
     1
102
RTVSPost2010Prop46
 90
       50
102
RTVSPost2010PropOp46
 70
     1
102
RTVSPost2010Prop47
 90
       50
102
RTVSPost2010PropOp47
 70
     1
102
RTVSPost2010Prop48
 90
       50
102
RTVSPost2010PropOp48
 70
     1
102
RTVSPost2010Prop49
280
     0
102
RTVSPost2010PropOp49
 70
     1
102
RTVSPost2010Prop50
 90
       50
102
RTVSPost2010PropOp50
 70
     1
102
RTVSPost2010Prop51ColorIndex
 90
      256
102
RTVSPost2010Prop51ColorRGB
 90
-16777216
102
RTVSPost2010PropOp51
 70
     0
102
RTVSPost2010Prop52
140
1.0
102
RTVSPost2010PropOp52
 70
     0
102
RTVSPost2010Prop53
 90
        2
102
RTVSPost2010PropOp53
 70
     1
102
RTVSPost2010Prop54
  1
strokes_ogs.tif
102
RTVSPost2010PropOp54
 70
     1
102
RTVSPost2010Prop55
280
     0
102
RTVSPost2010PropOp55
 70
     1
102
RTVSPost2010Prop56
140
1.0
102
RTVSPost2010PropOp56
 70
     1
102
RTVSPost2010Prop57
140
1.0
102
RTVSPost2010PropOp57
 70
     1
  0
XRECORD
  5
436D
102
{ACAD_REACTORS
330
436C
102
}
330
436C
100
AcDbXrecord
280
     1
102
RTVSPost2010Prop28
280
     0
102
RTVSPost2010PropOp28
 70
     1
102
RTVSPost2010Prop29
280
     1
102
RTVSPost2010PropOp29
 70
     1
102
RTVSPost2010Prop30
280
     1
102
RTVSPost2010PropOp30
 70
     1
102
RTVSPost2010Prop31
280
     0
102
RTVSPost2010PropOp31
 70
     1
102
RTVSPost2010Prop32
280
     0
102
RTVSPost2010PropOp32
 70
     1
102
RTVSPost2010Prop33
280
     0
102
RTVSPost2010PropOp33
 70
     1
102
RTVSPost2010Prop34
280
     0
102
RTVSPost2010PropOp34
 70
     1
102
RTVSPost2010Prop35
280
     0
102
RTVSPost2010PropOp35
 70
     1
102
RTVSPost2010Prop36
280
     0
102
RTVSPost2010PropOp36
 70
     1
102
RTVSPost2010Prop37
 90
       50
102
RTVSPost2010PropOp37
 70
     1
102
RTVSPost2010Prop38
140
0.0
102
RTVSPost2010PropOp38
 70
     1
102
RTVSPost2010Prop39
140
1.0
102
RTVSPost2010PropOp39
 70
     1
102
RTVSPost2010Prop40
 90
        0
102
RTVSPost2010PropOp40
 70
     1
102
RTVSPost2010Prop41ColorIndex
 90
       18
102
RTVSPost2010Prop41ColorRGB
 90
        0
102
RTVSPost2010PropOp41
 70
     1
102
RTVSPost2010Prop42
 90
       50
102
RTVSPost2010PropOp42
 70
     1
102
RTVSPost2010Prop43
 90
        3
102
RTVSPost2010PropOp43
 70
     1
102
RTVSPost2010Prop44ColorIndex
 90
        5
102
RTVSPost2010Prop44ColorRGB
 90
      255
102
RTVSPost2010PropOp44
 70
     1
102
RTVSPost2010Prop45
280
     0
102
RTVSPost2010PropOp45
 70
     1
102
RTVSPost2010Prop46
 90
       50
102
RTVSPost2010PropOp46
 70
     1
102
RTVSPost2010Prop47
 90
       50
102
RTVSPost2010PropOp47
 70
     1
102
RTVSPost2010Prop48
 90
       50
102
RTVSPost2010PropOp48
 70
     1
102
RTVSPost2010Prop49
280
     0
102
RTVSPost2010PropOp49
 70
     1
102
RTVSPost2010Prop50
 90
       50
102
RTVSPost2010PropOp50
 70
     1
102
RTVSPost2010Prop51ColorIndex
 90
      256
102
RTVSPost2010Prop51ColorRGB
 90
-16777216
102
RTVSPost2010PropOp51
 70
     0
102
RTVSPost2010Prop52
140
1.0
102
RTVSPost2010PropOp52
 70
     0
102
RTVSPost2010Prop53
 90
        2
102
RTVSPost2010PropOp53
 70
     1
102
RTVSPost2010Prop54
  1
strokes_ogs.tif
102
RTVSPost2010PropOp54
 70
     1
102
RTVSPost2010Prop55
280
     0
102
RTVSPost2010PropOp55
 70
     1
102
RTVSPost2010Prop56
140
1.0
102
RTVSPost2010PropOp56
 70
     1
102
RTVSPost2010Prop57
140
1.0
102
RTVSPost2010PropOp57
 70
     1
  0
XRECORD
  5
4367
102
{ACAD_REACTORS
330
4366
102
}
330
4366
100
AcDbXrecord
280
     1
102
RTVSPost2010Prop28
280
     0
102
RTVSPost2010PropOp28
 70
     1
102
RTVSPost2010Prop29
280
     1
102
RTVSPost2010PropOp29
 70
     1
102
RTVSPost2010Prop30
280
     1
102
RTVSPost2010PropOp30
 70
     1
102
RTVSPost2010Prop31
280
     0
102
RTVSPost2010PropOp31
 70
     1
102
RTVSPost2010Prop32
280
     0
102
RTVSPost2010PropOp32
 70
     1
102
RTVSPost2010Prop33
280
     0
102
RTVSPost2010PropOp33
 70
     1
102
RTVSPost2010Prop34
280
     0
102
RTVSPost2010PropOp34
 70
     1
102
RTVSPost2010Prop35
280
     0
102
RTVSPost2010PropOp35
 70
     1
102
RTVSPost2010Prop36
280
     0
102
RTVSPost2010PropOp36
 70
     1
102
RTVSPost2010Prop37
 90
       50
102
RTVSPost2010PropOp37
 70
     1
102
RTVSPost2010Prop38
140
0.0
102
RTVSPost2010PropOp38
 70
     1
102
RTVSPost2010Prop39
140
1.0
102
RTVSPost2010PropOp39
 70
     1
102
RTVSPost2010Prop40
 90
        0
102
RTVSPost2010PropOp40
 70
     1
102
RTVSPost2010Prop41ColorIndex
 90
       18
102
RTVSPost2010Prop41ColorRGB
 90
        0
102
RTVSPost2010PropOp41
 70
     1
102
RTVSPost2010Prop42
 90
       50
102
RTVSPost2010PropOp42
 70
     1
102
RTVSPost2010Prop43
 90
        3
102
RTVSPost2010PropOp43
 70
     1
102
RTVSPost2010Prop44ColorIndex
 90
        5
102
RTVSPost2010Prop44ColorRGB
 90
      255
102
RTVSPost2010PropOp44
 70
     1
102
RTVSPost2010Prop45
280
     0
102
RTVSPost2010PropOp45
 70
     1
102
RTVSPost2010Prop46
 90
       50
102
RTVSPost2010PropOp46
 70
     1
102
RTVSPost2010Prop47
 90
       50
102
RTVSPost2010PropOp47
 70
     1
102
RTVSPost2010Prop48
 90
       50
102
RTVSPost2010PropOp48
 70
     1
102
RTVSPost2010Prop49
280
     0
102
RTVSPost2010PropOp49
 70
     1
102
RTVSPost2010Prop50
 90
       50
102
RTVSPost2010PropOp50
 70
     1
102
RTVSPost2010Prop51ColorIndex
 90
      256
102
RTVSPost2010Prop51ColorRGB
 90
-16777216
102
RTVSPost2010PropOp51
 70
     0
102
RTVSPost2010Prop52
140
1.0
102
RTVSPost2010PropOp52
 70
     0
102
RTVSPost2010Prop53
 90
        2
102
RTVSPost2010PropOp53
 70
     1
102
RTVSPost2010Prop54
  1
strokes_ogs.tif
102
RTVSPost2010PropOp54
 70
     1
102
RTVSPost2010Prop55
280
     0
102
RTVSPost2010PropOp55
 70
     1
102
RTVSPost2010Prop56
140
1.0
102
RTVSPost2010PropOp56
 70
     1
102
RTVSPost2010Prop57
140
1.0
102
RTVSPost2010PropOp57
 70
     1
  0
XRECORD
  5
4369
102
{ACAD_REACTORS
330
4368
102
}
330
4368
100
AcDbXrecord
280
     1
102
RTVSPost2010Prop28
280
     0
102
RTVSPost2010PropOp28
 70
     1
102
RTVSPost2010Prop29
280
     1
102
RTVSPost2010PropOp29
 70
     1
102
RTVSPost2010Prop30
280
     1
102
RTVSPost2010PropOp30
 70
     1
102
RTVSPost2010Prop31
280
     0
102
RTVSPost2010PropOp31
 70
     1
102
RTVSPost2010Prop32
280
     0
102
RTVSPost2010PropOp32
 70
     1
102
RTVSPost2010Prop33
280
     0
102
RTVSPost2010PropOp33
 70
     1
102
RTVSPost2010Prop34
280
     0
102
RTVSPost2010PropOp34
 70
     1
102
RTVSPost2010Prop35
280
     0
102
RTVSPost2010PropOp35
 70
     1
102
RTVSPost2010Prop36
280
     0
102
RTVSPost2010PropOp36
 70
     1
102
RTVSPost2010Prop37
 90
       50
102
RTVSPost2010PropOp37
 70
     1
102
RTVSPost2010Prop38
140
0.0
102
RTVSPost2010PropOp38
 70
     1
102
RTVSPost2010Prop39
140
1.0
102
RTVSPost2010PropOp39
 70
     1
102
RTVSPost2010Prop40
 90
        0
102
RTVSPost2010PropOp40
 70
     1
102
RTVSPost2010Prop41ColorIndex
 90
       18
102
RTVSPost2010Prop41ColorRGB
 90
        0
102
RTVSPost2010PropOp41
 70
     1
102
RTVSPost2010Prop42
 90
       50
102
RTVSPost2010PropOp42
 70
     1
102
RTVSPost2010Prop43
 90
        3
102
RTVSPost2010PropOp43
 70
     1
102
RTVSPost2010Prop44ColorIndex
 90
        5
102
RTVSPost2010Prop44ColorRGB
 90
      255
102
RTVSPost2010PropOp44
 70
     1
102
RTVSPost2010Prop45
280
     0
102
RTVSPost2010PropOp45
 70
     1
102
RTVSPost2010Prop46
 90
       50
102
RTVSPost2010PropOp46
 70
     1
102
RTVSPost2010Prop47
 90
       50
102
RTVSPost2010PropOp47
 70
     1
102
RTVSPost2010Prop48
 90
       50
102
RTVSPost2010PropOp48
 70
     1
102
RTVSPost2010Prop49
280
     0
102
RTVSPost2010PropOp49
 70
     1
102
RTVSPost2010Prop50
 90
       50
102
RTVSPost2010PropOp50
 70
     1
102
RTVSPost2010Prop51ColorIndex
 90
      256
102
RTVSPost2010Prop51ColorRGB
 90
-16777216
102
RTVSPost2010PropOp51
 70
     0
102
RTVSPost2010Prop52
140
1.0
102
RTVSPost2010PropOp52
 70
     0
102
RTVSPost2010Prop53
 90
        2
102
RTVSPost2010PropOp53
 70
     1
102
RTVSPost2010Prop54
  1
strokes_ogs.tif
102
RTVSPost2010PropOp54
 70
     1
102
RTVSPost2010Prop55
280
     0
102
RTVSPost2010PropOp55
 70
     1
102
RTVSPost2010Prop56
140
1.0
102
RTVSPost2010PropOp56
 70
     1
102
RTVSPost2010Prop57
140
1.0
102
RTVSPost2010PropOp57
 70
     1
  0
XRECORD
  5
4359
102
{ACAD_REACTORS
330
4358
102
}
330
4358
100
AcDbXrecord
280
     1
102
RTVSPost2010Prop28
280
     0
102
RTVSPost2010PropOp28
 70
     1
102
RTVSPost2010Prop29
280
     1
102
RTVSPost2010PropOp29
 70
     1
102
RTVSPost2010Prop30
280
     1
102
RTVSPost2010PropOp30
 70
     1
102
RTVSPost2010Prop31
280
     0
102
RTVSPost2010PropOp31
 70
     1
102
RTVSPost2010Prop32
280
     0
102
RTVSPost2010PropOp32
 70
     1
102
RTVSPost2010Prop33
280
     0
102
RTVSPost2010PropOp33
 70
     1
102
RTVSPost2010Prop34
280
     0
102
RTVSPost2010PropOp34
 70
     1
102
RTVSPost2010Prop35
280
     0
102
RTVSPost2010PropOp35
 70
     1
102
RTVSPost2010Prop36
280
     0
102
RTVSPost2010PropOp36
 70
     1
102
RTVSPost2010Prop37
 90
       50
102
RTVSPost2010PropOp37
 70
     1
102
RTVSPost2010Prop38
140
0.0
102
RTVSPost2010PropOp38
 70
     1
102
RTVSPost2010Prop39
140
1.0
102
RTVSPost2010PropOp39
 70
     1
102
RTVSPost2010Prop40
 90
        0
102
RTVSPost2010PropOp40
 70
     1
102
RTVSPost2010Prop41ColorIndex
 90
       18
102
RTVSPost2010Prop41ColorRGB
 90
        0
102
RTVSPost2010PropOp41
 70
     1
102
RTVSPost2010Prop42
 90
       50
102
RTVSPost2010PropOp42
 70
     1
102
RTVSPost2010Prop43
 90
        3
102
RTVSPost2010PropOp43
 70
     1
102
RTVSPost2010Prop44ColorIndex
 90
        5
102
RTVSPost2010Prop44ColorRGB
 90
      255
102
RTVSPost2010PropOp44
 70
     1
102
RTVSPost2010Prop45
280
     0
102
RTVSPost2010PropOp45
 70
     1
102
RTVSPost2010Prop46
 90
       50
102
RTVSPost2010PropOp46
 70
     1
102
RTVSPost2010Prop47
 90
       50
102
RTVSPost2010PropOp47
 70
     1
102
RTVSPost2010Prop48
 90
       50
102
RTVSPost2010PropOp48
 70
     1
102
RTVSPost2010Prop49
280
     0
102
RTVSPost2010PropOp49
 70
     1
102
RTVSPost2010Prop50
 90
       50
102
RTVSPost2010PropOp50
 70
     1
102
RTVSPost2010Prop51ColorIndex
 90
      256
102
RTVSPost2010Prop51ColorRGB
 90
-16777216
102
RTVSPost2010PropOp51
 70
     0
102
RTVSPost2010Prop52
140
1.0
102
RTVSPost2010PropOp52
 70
     0
102
RTVSPost2010Prop53
 90
        2
102
RTVSPost2010PropOp53
 70
     1
102
RTVSPost2010Prop54
  1
strokes_ogs.tif
102
RTVSPost2010PropOp54
 70
     1
102
RTVSPost2010Prop55
280
     0
102
RTVSPost2010PropOp55
 70
     1
102
RTVSPost2010Prop56
140
1.0
102
RTVSPost2010PropOp56
 70
     1
102
RTVSPost2010Prop57
140
1.0
102
RTVSPost2010PropOp57
 70
     1
  0
XRECORD
  5
434B
102
{ACAD_REACTORS
330
434A
102
}
330
434A
100
AcDbXrecord
280
     1
102
RTVSPost2010Prop28
280
     0
102
RTVSPost2010PropOp28
 70
     1
102
RTVSPost2010Prop29
280
     1
102
RTVSPost2010PropOp29
 70
     1
102
RTVSPost2010Prop30
280
     1
102
RTVSPost2010PropOp30
 70
     1
102
RTVSPost2010Prop31
280
     0
102
RTVSPost2010PropOp31
 70
     1
102
RTVSPost2010Prop32
280
     0
102
RTVSPost2010PropOp32
 70
     1
102
RTVSPost2010Prop33
280
     0
102
RTVSPost2010PropOp33
 70
     1
102
RTVSPost2010Prop34
280
     0
102
RTVSPost2010PropOp34
 70
     1
102
RTVSPost2010Prop35
280
     0
102
RTVSPost2010PropOp35
 70
     1
102
RTVSPost2010Prop36
280
     0
102
RTVSPost2010PropOp36
 70
     1
102
RTVSPost2010Prop37
 90
       50
102
RTVSPost2010PropOp37
 70
     1
102
RTVSPost2010Prop38
140
0.0
102
RTVSPost2010PropOp38
 70
     1
102
RTVSPost2010Prop39
140
1.0
102
RTVSPost2010PropOp39
 70
     1
102
RTVSPost2010Prop40
 90
        0
102
RTVSPost2010PropOp40
 70
     1
102
RTVSPost2010Prop41ColorIndex
 90
       18
102
RTVSPost2010Prop41ColorRGB
 90
        0
102
RTVSPost2010PropOp41
 70
     1
102
RTVSPost2010Prop42
 90
       50
102
RTVSPost2010PropOp42
 70
     1
102
RTVSPost2010Prop43
 90
        3
102
RTVSPost2010PropOp43
 70
     1
102
RTVSPost2010Prop44ColorIndex
 90
        5
102
RTVSPost2010Prop44ColorRGB
 90
      255
102
RTVSPost2010PropOp44
 70
     1
102
RTVSPost2010Prop45
280
     0
102
RTVSPost2010PropOp45
 70
     1
102
RTVSPost2010Prop46
 90
       50
102
RTVSPost2010PropOp46
 70
     1
102
RTVSPost2010Prop47
 90
       50
102
RTVSPost2010PropOp47
 70
     1
102
RTVSPost2010Prop48
 90
       50
102
RTVSPost2010PropOp48
 70
     1
102
RTVSPost2010Prop49
280
     0
102
RTVSPost2010PropOp49
 70
     1
102
RTVSPost2010Prop50
 90
       50
102
RTVSPost2010PropOp50
 70
     1
102
RTVSPost2010Prop51ColorIndex
 90
      256
102
RTVSPost2010Prop51ColorRGB
 90
-16777216
102
RTVSPost2010PropOp51
 70
     0
102
RTVSPost2010Prop52
140
1.0
102
RTVSPost2010PropOp52
 70
     0
102
RTVSPost2010Prop53
 90
        2
102
RTVSPost2010PropOp53
 70
     1
102
RTVSPost2010Prop54
  1
strokes_ogs.tif
102
RTVSPost2010PropOp54
 70
     1
102
RTVSPost2010Prop55
280
     0
102
RTVSPost2010PropOp55
 70
     1
102
RTVSPost2010Prop56
140
1.0
102
RTVSPost2010PropOp56
 70
     1
102
RTVSPost2010Prop57
140
1.0
102
RTVSPost2010PropOp57
 70
     1
  0
XRECORD
  5
436B
102
{ACAD_REACTORS
330
436A
102
}
330
436A
100
AcDbXrecord
280
     1
102
RTVSPost2010Prop28
280
     0
102
RTVSPost2010PropOp28
 70
     1
102
RTVSPost2010Prop29
280
     1
102
RTVSPost2010PropOp29
 70
     1
102
RTVSPost2010Prop30
280
     1
102
RTVSPost2010PropOp30
 70
     1
102
RTVSPost2010Prop31
280
     0
102
RTVSPost2010PropOp31
 70
     1
102
RTVSPost2010Prop32
280
     0
102
RTVSPost2010PropOp32
 70
     1
102
RTVSPost2010Prop33
280
     0
102
RTVSPost2010PropOp33
 70
     1
102
RTVSPost2010Prop34
280
     0
102
RTVSPost2010PropOp34
 70
     1
102
RTVSPost2010Prop35
280
     0
102
RTVSPost2010PropOp35
 70
     1
102
RTVSPost2010Prop36
280
     0
102
RTVSPost2010PropOp36
 70
     1
102
RTVSPost2010Prop37
 90
       50
102
RTVSPost2010PropOp37
 70
     1
102
RTVSPost2010Prop38
140
0.0
102
RTVSPost2010PropOp38
 70
     1
102
RTVSPost2010Prop39
140
1.0
102
RTVSPost2010PropOp39
 70
     1
102
RTVSPost2010Prop40
 90
        0
102
RTVSPost2010PropOp40
 70
     1
102
RTVSPost2010Prop41ColorIndex
 90
       18
102
RTVSPost2010Prop41ColorRGB
 90
        0
102
RTVSPost2010PropOp41
 70
     1
102
RTVSPost2010Prop42
 90
       50
102
RTVSPost2010PropOp42
 70
     1
102
RTVSPost2010Prop43
 90
        3
102
RTVSPost2010PropOp43
 70
     1
102
RTVSPost2010Prop44ColorIndex
 90
        5
102
RTVSPost2010Prop44ColorRGB
 90
      255
102
RTVSPost2010PropOp44
 70
     1
102
RTVSPost2010Prop45
280
     0
102
RTVSPost2010PropOp45
 70
     1
102
RTVSPost2010Prop46
 90
       50
102
RTVSPost2010PropOp46
 70
     1
102
RTVSPost2010Prop47
 90
       50
102
RTVSPost2010PropOp47
 70
     1
102
RTVSPost2010Prop48
 90
       50
102
RTVSPost2010PropOp48
 70
     1
102
RTVSPost2010Prop49
280
     0
102
RTVSPost2010PropOp49
 70
     1
102
RTVSPost2010Prop50
 90
       50
102
RTVSPost2010PropOp50
 70
     1
102
RTVSPost2010Prop51ColorIndex
 90
      256
102
RTVSPost2010Prop51ColorRGB
 90
-16777216
102
RTVSPost2010PropOp51
 70
     0
102
RTVSPost2010Prop52
140
1.0
102
RTVSPost2010PropOp52
 70
     0
102
RTVSPost2010Prop53
 90
        2
102
RTVSPost2010PropOp53
 70
     1
102
RTVSPost2010Prop54
  1
strokes_ogs.tif
102
RTVSPost2010PropOp54
 70
     1
102
RTVSPost2010Prop55
280
     0
102
RTVSPost2010PropOp55
 70
     1
102
RTVSPost2010Prop56
140
1.0
102
RTVSPost2010PropOp56
 70
     1
102
RTVSPost2010Prop57
140
1.0
102
RTVSPost2010PropOp57
 70
     1
  0
ENDSEC
  0
EOF
