  0
SECTION
  2
HEADER
  9
$ACADVER
  1
AC1024
  9
$ACADMAINTVER
 70
   182
  9
$DWGCODEPAGE
  3
ANSI_1252
  9
$LASTSAVEDBY
  1
lkt513
  9
$INSBASE
 10
0.0
 20
0.0
 30
0.0
  9
$EXTMIN
 10
-22349.64295586152
 20
5486.52739579929
 30
-1910.485445647682
  9
$EXTMAX
 10
2707.612071193915
 20
27620.63163721711
 30
5762.333329419288
  9
$LIMMIN
 10
0.0
 20
0.0
  9
$LIMMAX
 10
12.0
 20
9.0
  9
$ORTHOMODE
 70
     0
  9
$REGENMODE
 70
     1
  9
$FILLMODE
 70
     1
  9
$QTEXTMODE
 70
     0
  9
$MIRRTEXT
 70
     0
  9
$LTSCALE
 40
1.0
  9
$ATTMODE
 70
     1
  9
$TEXTSIZE
 40
0.2
  9
$TRACEWID
 40
0.05
  9
$TEXTSTYLE
  7
Standard
  9
$CLAYER
  8
TRACE
  9
$CELTYPE
  6
ByLayer
  9
$CECOLOR
 62
   256
  9
$CELTSCALE
 40
1.0
  9
$DISPSILH
 70
     0
  9
$DIMSCALE
 40
1.0
  9
$DIMASZ
 40
0.18
  9
$DIMEXO
 40
0.0625
  9
$DIMDLI
 40
0.38
  9
$DIMRND
 40
0.0
  9
$DIMDLE
 40
0.0
  9
$DIMEXE
 40
0.18
  9
$DIMTP
 40
0.0
  9
$DIMTM
 40
0.0
  9
$DIMTXT
 40
0.18
  9
$DIMCEN
 40
0.09
  9
$DIMTSZ
 40
0.0
  9
$DIMTOL
 70
     0
  9
$DIMLIM
 70
     0
  9
$DIMTIH
 70
     1
  9
$DIMTOH
 70
     1
  9
$DIMSE1
 70
     0
  9
$DIMSE2
 70
     0
  9
$DIMTAD
 70
     0
  9
$DIMZIN
 70
     0
  9
$DIMBLK
  1

  9
$DIMASO
 70
     1
  9
$DIMSHO
 70
     1
  9
$DIMPOST
  1

  9
$DIMAPOST
  1

  9
$DIMALT
 70
     0
  9
$DIMALTD
 70
     2
  9
$DIMALTF
 40
25.4
  9
$DIMLFAC
 40
1.0
  9
$DIMTOFL
 70
     0
  9
$DIMTVP
 40
0.0
  9
$DIMTIX
 70
     0
  9
$DIMSOXD
 70
     0
  9
$DIMSAH
 70
     0
  9
$DIMBLK1
  1

  9
$DIMBLK2
  1

  9
$DIMSTYLE
  2
Standard
  9
$DIMCLRD
 70
     0
  9
$DIMCLRE
 70
     0
  9
$DIMCLRT
 70
     0
  9
$DIMTFAC
 40
1.0
  9
$DIMGAP
 40
0.09
  9
$DIMJUST
 70
     0
  9
$DIMSD1
 70
     0
  9
$DIMSD2
 70
     0
  9
$DIMTOLJ
 70
     1
  9
$DIMTZIN
 70
     0
  9
$DIMALTZ
 70
     0
  9
$DIMALTTZ
 70
     0
  9
$DIMUPT
 70
     0
  9
$DIMDEC
 70
     4
  9
$DIMTDEC
 70
     4
  9
$DIMALTU
 70
     2
  9
$DIMALTTD
 70
     2
  9
$DIMTXSTY
  7
Standard
  9
$DIMAUNIT
 70
     0
  9
$DIMADEC
 70
     0
  9
$DIMALTRND
 40
0.0
  9
$DIMAZIN
 70
     0
  9
$DIMDSEP
 70
    46
  9
$DIMATFIT
 70
     3
  9
$DIMFRAC
 70
     0
  9
$DIMLDRBLK
  1

  9
$DIMLUNIT
 70
     2
  9
$DIMLWD
 70
    -2
  9
$DIMLWE
 70
    -2
  9
$DIMTMOVE
 70
     0
  9
$DIMFXL
 40
1.0
  9
$DIMFXLON
 70
     0
  9
$DIMJOGANG
 40
0.7853981633974483
  9
$DIMTFILL
 70
     0
  9
$DIMTFILLCLR
 70
     0
  9
$DIMARCSYM
 70
     0
  9
$DIMLTYPE
  6

  9
$DIMLTEX1
  6

  9
$DIMLTEX2
  6

  9
$DIMTXTDIRECTION
 70
     0
  9
$LUNITS
 70
     2
  9
$LUPREC
 70
     4
  9
$SKETCHINC
 40
0.1
  9
$FILLETRAD
 40
0.0
  9
$AUNITS
 70
     0
  9
$AUPREC
 70
     0
  9
$MENU
  1
.
  9
$ELEVATION
 40
0.0
  9
$PELEVATION
 40
0.0
  9
$THICKNESS
 40
0.0
  9
$LIMCHECK
 70
     0
  9
$CHAMFERA
 40
0.0
  9
$CHAMFERB
 40
0.0
  9
$CHAMFERC
 40
0.0
  9
$CHAMFERD
 40
0.0
  9
$SKPOLY
 70
     0
  9
$TDCREATE
 40
2454442.632732732
  9
$TDUCREATE
 40
2454442.591066065
  9
$TDUPDATE
 40
2458054.451880695
  9
$TDUUPDATE
 40
2458054.410214028
  9
$TDINDWG
 40
0.0425207755
  9
$TDUSRTIMER
 40
0.0425207755
  9
$USRTIMER
 70
     1
  9
$ANGBASE
 50
0.0
  9
$ANGDIR
 70
     0
  9
$PDMODE
 70
     0
  9
$PDSIZE
 40
0.0
  9
$PLINEWID
 40
0.0
  9
$SPLFRAME
 70
     0
  9
$SPLINETYPE
 70
     6
  9
$SPLINESEGS
 70
     8
  9
$HANDSEED
  5
1F33
  9
$SURFTAB1
 70
     6
  9
$SURFTAB2
 70
     6
  9
$SURFTYPE
 70
     6
  9
$SURFU
 70
     6
  9
$SURFV
 70
     6
  9
$UCSBASE
  2
ALIGNED
  9
$UCSNAME
  2

  9
$UCSORG
 10
-22349.64295586152
 20
5486.52739579929
 30
0.0
  9
$UCSXDIR
 10
0.157713866747896
 20
0.9874848536739321
 30
0.0
  9
$UCSYDIR
 10
0.0
 20
0.0
 30
1.0
  9
$UCSORTHOREF
  2
ALIGNED
  9
$UCSORTHOVIEW
 70
     3
  9
$UCSORGTOP
 10
0.0
 20
0.0
 30
0.0
  9
$UCSORGBOTTOM
 10
0.0
 20
0.0
 30
0.0
  9
$UCSORGLEFT
 10
0.0
 20
0.0
 30
0.0
  9
$UCSORGRIGHT
 10
0.0
 20
0.0
 30
0.0
  9
$UCSORGFRONT
 10
0.0
 20
0.0
 30
0.0
  9
$UCSORGBACK
 10
0.0
 20
0.0
 30
0.0
  9
$PUCSBASE
  2

  9
$PUCSNAME
  2

  9
$PUCSORG
 10
0.0
 20
0.0
 30
0.0
  9
$PUCSXDIR
 10
1.0
 20
0.0
 30
0.0
  9
$PUCSYDIR
 10
0.0
 20
1.0
 30
0.0
  9
$PUCSORTHOREF
  2

  9
$PUCSORTHOVIEW
 70
     0
  9
$PUCSORGTOP
 10
0.0
 20
0.0
 30
0.0
  9
$PUCSORGBOTTOM
 10
0.0
 20
0.0
 30
0.0
  9
$PUCSORGLEFT
 10
0.0
 20
0.0
 30
0.0
  9
$PUCSORGRIGHT
 10
0.0
 20
0.0
 30
0.0
  9
$PUCSORGFRONT
 10
0.0
 20
0.0
 30
0.0
  9
$PUCSORGBACK
 10
0.0
 20
0.0
 30
0.0
  9
$USERI1
 70
     0
  9
$USERI2
 70
     0
  9
$USERI3
 70
     0
  9
$USERI4
 70
     0
  9
$USERI5
 70
     0
  9
$USERR1
 40
0.0
  9
$USERR2
 40
0.0
  9
$USERR3
 40
0.0
  9
$USERR4
 40
0.0
  9
$USERR5
 40
0.0
  9
$WORLDVIEW
 70
     1
  9
$SHADEDGE
 70
     3
  9
$SHADEDIF
 70
    70
  9
$TILEMODE
 70
     0
  9
$MAXACTVP
 70
    64
  9
$PINSBASE
 10
0.0
 20
0.0
 30
0.0
  9
$PLIMCHECK
 70
     0
  9
$PEXTMIN
 10
1.049999952316284
 20
0.7999999523162842
 30
0.0
  9
$PEXTMAX
 10
9.449999570846559
 20
7.199999570846558
 30
0.0
  9
$PLIMMIN
 10
-0.2500002402958907
 20
-0.2499999962453767
  9
$PLIMMAX
 10
10.74999951940822
 20
8.249999763458733
  9
$UNITMODE
 70
     0
  9
$VISRETAIN
 70
     1
  9
$PLINEGEN
 70
     0
  9
$PSLTSCALE
 70
     1
  9
$TREEDEPTH
 70
  3020
  9
$CMLSTYLE
  2
Standard
  9
$CMLJUST
 70
     0
  9
$CMLSCALE
 40
1.0
  9
$PROXYGRAPHICS
 70
     1
  9
$MEASUREMENT
 70
     0
  9
$CELWEIGHT
370
    -1
  9
$ENDCAPS
280
     0
  9
$JOINSTYLE
280
     0
  9
$LWDISPLAY
290
     0
  9
$INSUNITS
 70
     1
  9
$HYPERLINKBASE
  1

  9
$STYLESHEET
  1

  9
$XEDIT
290
     1
  9
$CEPSNTYPE
380
     0
  9
$PSTYLEMODE
290
     1
  9
$FINGERPRINTGUID
  2
{D3C8FE09-EC25-4602-B347-8BA67F65486D}
  9
$VERSIONGUID
  2
{FA4578C4-5613-4F72-9997-911BC2A4E46F}
  9
$EXTNAMES
290
     1
  9
$PSVPSCALE
 40
0.0
  9
$OLESTARTUP
290
     0
  9
$SORTENTS
280
   127
  9
$INDEXCTL
280
     0
  9
$HIDETEXT
280
     1
  9
$XCLIPFRAME
280
     0
  9
$HALOGAP
280
     0
  9
$OBSCOLOR
 70
   257
  9
$OBSLTYPE
280
     0
  9
$INTERSECTIONDISPLAY
280
     0
  9
$INTERSECTIONCOLOR
 70
   257
  9
$DIMASSOC
280
     2
  9
$PROJECTNAME
  1

  9
$CAMERADISPLAY
290
     0
  9
$LENSLENGTH
 40
50.0
  9
$CAMERAHEIGHT
 40
0.0
  9
$STEPSPERSEC
 40
2.0
  9
$STEPSIZE
 40
6.0
  9
$3DDWFPREC
 40
2.0
  9
$PSOLWIDTH
 40
0.25
  9
$PSOLHEIGHT
 40
4.0
  9
$LOFTANG1
 40
1.570796326794896
  9
$LOFTANG2
 40
1.570796326794896
  9
$LOFTMAG1
 40
0.0
  9
$LOFTMAG2
 40
0.0
  9
$LOFTPARAM
 70
     7
  9
$LOFTNORMALS
280
     1
  9
$LATITUDE
 40
37.795
  9
$LONGITUDE
 40
-122.394
  9
$NORTHDIRECTION
 40
0.0
  9
$TIMEZONE
 70
 -8000
  9
$LIGHTGLYPHDISPLAY
280
     1
  9
$TILEMODELIGHTSYNCH
280
     1
  9
$CMATERIAL
347
1E20
  9
$SOLIDHIST
280
     0
  9
$SHOWHIST
280
     1
  9
$DWFFRAME
280
     2
  9
$DGNFRAME
280
     0
  9
$REALWORLDSCALE
290
     1
  9
$INTERFERECOLOR
 62
     1
  9
$INTERFEREOBJVS
345
1E42
  9
$INTERFEREVPVS
346
1E3F
  9
$CSHADOW
280
     0
  9
$SHADOWPLANELOCATION
 40
0.0
  0
ENDSEC
  0
SECTION
  2
CLASSES
  0
CLASS
  1
ACDBDICTIONARYWDFLT
  2
AcDbDictionaryWithDefault
  3
ObjectDBX Classes
 90
        0
 91
        1
280
     0
281
     0
  0
CLASS
  1
ACDBPLACEHOLDER
  2
AcDbPlaceHolder
  3
ObjectDBX Classes
 90
        0
 91
        1
280
     0
281
     0
  0
CLASS
  1
LAYOUT
  2
AcDbLayout
  3
ObjectDBX Classes
 90
        0
 91
        3
280
     0
281
     0
  0
CLASS
  1
DICTIONARYVAR
  2
AcDbDictionaryVar
  3
ObjectDBX Classes
 90
        0
 91
       19
280
     0
281
     0
  0
CLASS
  1
TABLESTYLE
  2
AcDbTableStyle
  3
ObjectDBX Classes
 90
     4095
 91
        1
280
     0
281
     0
  0
CLASS
  1
CYCURRENTVIEW
  2
CyCurrentView
  3
CloudWorx
 90
        0
 91
        1
280
     0
281
     0
  0
CLASS
  1
CYPREFERENCE
  2
CyPreferences
  3
CloudWorx
 90
        0
 91
        1
280
     0
281
     0
  0
CLASS
  1
CYPOINTCONTROL
  2
CyPointControl
  3
CloudWorx
 90
        0
 91
        1
280
     0
281
     0
  0
CLASS
  1
CYEXTVIEWREFS
  2
CyExtViewRefs
  3
CloudWorx
 90
        0
 91
        0
280
     0
281
     0
  0
CLASS
  1
CYCUTPLANES
  2
CyCutPlanes
  3
CloudWorx
 90
        0
 91
        0
280
     0
281
     0
  0
CLASS
  1
CYLIMITBOX
  2
CyLimitBox
  3
CloudWorx
 90
        0
 91
        0
280
     0
281
     0
  0
CLASS
  1
CYHIDERGNS
  2
CyHideRgns
  3
CloudWorx
 90
        0
 91
        0
280
     0
281
     0
  0
CLASS
  1
CYINTENSITYMAPPING
  2
CyIntensityMapping
  3
CloudWorx
 90
        0
 91
        0
280
     0
281
     0
  0
CLASS
  1
CYSCANWORLDS
  2
CyScanWorlds
  3
CloudWorx
 90
        0
 91
        0
280
     0
281
     0
  0
CLASS
  1
CYVIEWATTRIBUTE
  2
CyViewAttributes
  3
CloudWorx
 90
        0
 91
        0
280
     0
281
     0
  0
CLASS
  1
CYLAYERS
  2
CyLayers
  3
CloudWorx
 90
        0
 91
        0
280
     0
281
     0
  0
CLASS
  1
CYPOINTCLOUDS
  2
CyPointClouds
  3
CloudWorx
 90
        0
 91
        0
280
     0
281
     0
  0
CLASS
  1
CYPOINTBLOCKS
  2
CyPointBlocks
  3
CloudWorx
 90
        0
 91
        0
280
     0
281
     0
  0
CLASS
  1
CYPOINTVIEWMGRS
  2
CyPointViewMgrs
  3
CloudWorx
 90
        0
 91
        0
280
     0
281
     0
  0
CLASS
  1
CYLODMANAGER
  2
CyLodManager
  3
CloudWorx
 90
        0
 91
        0
280
     0
281
     0
  0
CLASS
  1
CYPOINTVIEWMGR
  2
CyPointViewMgr
  3
CloudWorx
 90
        0
 91
        0
280
     0
281
     0
  0
CLASS
  1
CYCLOUDEXTENT
  2
CyCloudExtent
  3
CloudWorx
 90
        0
 91
        0
280
     0
281
     1
  0
CLASS
  1
CYINTERFERENCETOOLS
  2
CyInterferenceTools
  3
CloudWorx
 90
        0
 91
        0
280
     0
281
     0
  0
CLASS
  1
CYPOINTBLOCK
  2
CyPointBlock
  3
CloudWorx
 90
        0
 91
        0
280
     0
281
     0
  0
CLASS
  1
CYPOINTBLOCKENT
  2
CyPointBlockEnt
  3
CloudWorx
 90
        0
 91
        0
280
     0
281
     1
  0
CLASS
  1
SORTENTSTABLE
  2
AcDbSortentsTable
  3
ObjectDBX Classes
 90
        0
 91
        1
280
     0
281
     0
  0
CLASS
  1
MATERIAL
  2
AcDbMaterial
  3
ObjectDBX Classes
 90
     1153
 91
        3
280
     0
281
     0
  0
CLASS
  1
VISUALSTYLE
  2
AcDbVisualStyle
  3
ObjectDBX Classes
 90
     4095
 91
       24
280
     0
281
     0
  0
CLASS
  1
SCALE
  2
AcDbScale
  3
ObjectDBX Classes
 90
     1153
 91
       17
280
     0
281
     0
  0
CLASS
  1
MLEADERSTYLE
  2
AcDbMLeaderStyle
  3
ACDB_MLEADERSTYLE_CLASS
 90
     4095
 91
        1
280
     0
281
     0
  0
CLASS
  1
ACDBSECTIONVIEWSTYLE
  2
AcDbSectionViewStyle
  3
ObjectDBX Classes
 90
     1025
 91
        1
280
     0
281
     0
  0
CLASS
  1
ACDBDETAILVIEWSTYLE
  2
AcDbDetailViewStyle
  3
ObjectDBX Classes
 90
     1025
 91
        1
280
     0
281
     0
  0
CLASS
  1
CELLSTYLEMAP
  2
AcDbCellStyleMap
  3
ObjectDBX Classes
 90
     1152
 91
        1
280
     0
281
     0
  0
ENDSEC
  0
SECTION
  2
TABLES
  0
TABLE
  2
VPORT
  5
8
330
0
100
AcDbSymbolTable
 70
     1
  0
VPORT
  5
1E1E
330
8
100
AcDbSymbolTableRecord
100
AcDbViewportTableRecord
  2
*Active
 70
     0
 10
0.0
 20
0.0
 11
1.0
 21
1.0
 12
15841.20239618687
 22
671.3997622445149
 13
0.0
 23
0.0
 14
0.5
 24
0.5
 15
0.5
 25
0.5
 16
0.9874848536739321
 26
-0.157713866747896
 36
0.0
 17
-11019.87417332968
 27
2426.787607907741
 37
1915.291453907585
 40
16468.72892192234
 41
1.561660561660561
 42
50.0
 43
0.0
 44
0.0
 50
0.0
 51
0.0
 71
     0
 72
  1000
 73
     1
 74
     3
 75
     0
 76
     0
 77
     0
 78
     0
281
     0
 65
     1
110
-22349.64295586152
120
5486.52739579929
130
0.0
111
0.157713866747896
121
0.9874848536739321
131
0.0
112
0.0
122
0.0
132
1.0
 79
     0
146
0.0
348
1E3E
 60
     3
 61
     5
292
     1
282
     1
141
0.0
142
0.0
 63
   250
421
  3355443
1001
ACAD_NAV_VCDISPLAY
1070
     3
  0
ENDTAB
  0
TABLE
  2
LTYPE
  5
5
330
0
100
AcDbSymbolTable
 70
     1
  0
LTYPE
  5
14
330
5
100
AcDbSymbolTableRecord
100
AcDbLinetypeTableRecord
  2
ByBlock
 70
     0
  3

 72
    65
 73
     0
 40
0.0
  0
LTYPE
  5
15
330
5
100
AcDbSymbolTableRecord
100
AcDbLinetypeTableRecord
  2
ByLayer
 70
     0
  3

 72
    65
 73
     0
 40
0.0
  0
LTYPE
  5
16
330
5
100
AcDbSymbolTableRecord
100
AcDbLinetypeTableRecord
  2
Continuous
 70
     0
  3
Solid line
 72
    65
 73
     0
 40
0.0
  0
ENDTAB
  0
TABLE
  2
LAYER
  5
2
102
{ACAD_XDICTIONARY
360
73E
102
}
330
0
100
AcDbSymbolTable
 70
     3
  0
LAYER
  5
10
102
{ACAD_XDICTIONARY
360
1E98
102
}
330
2
100
AcDbSymbolTableRecord
100
AcDbLayerTableRecord
  2
0
 70
     0
 62
     7
  6
Continuous
370
    -3
390
F
347
1E30
  0
LAYER
  5
73B
102
{ACAD_XDICTIONARY
360
1E9A
102
}
330
2
100
AcDbSymbolTableRecord
100
AcDbLayerTableRecord
  2
UCS
 70
     0
 62
  -241
  6
Continuous
370
    -3
390
F
347
1E30
1001
AcAecLayerStandard
1000

1000

  0
LAYER
  5
73D
102
{ACAD_XDICTIONARY
360
1E9C
102
}
330
2
100
AcDbSymbolTableRecord
100
AcDbLayerTableRecord
  2
TRACE
 70
     0
 62
     7
  6
Continuous
370
    -3
390
F
347
1E30
1001
AcAecLayerStandard
1000

1000

  0
ENDTAB
  0
TABLE
  2
STYLE
  5
3
330
0
100
AcDbSymbolTable
 70
     1
  0
STYLE
  5
11
330
3
100
AcDbSymbolTableRecord
100
AcDbTextStyleTableRecord
  2
Standard
 70
     0
 40
0.0
 41
1.0
 50
0.0
 71
     0
 42
0.2
  3
txt
  4

  0
ENDTAB
  0
TABLE
  2
VIEW
  5
6
330
0
100
AcDbSymbolTable
 70
     3
  0
ENDTAB
  0
TABLE
  2
UCS
  5
7
330
0
100
AcDbSymbolTable
 70
     1
  0
UCS
  5
751
330
7
100
AcDbSymbolTableRecord
100
AcDbUCSTableRecord
  2
ALIGNED
 70
     0
 10
-22349.64295586152
 20
5486.52739579929
 30
0.0
 11
0.157713866747896
 21
0.9874848536739321
 31
0.0
 12
-0.9874848536739321
 22
0.157713866747896
 32
0.0
 79
     0
146
0.0
  0
ENDTAB
  0
TABLE
  2
APPID
  5
9
330
0
100
AcDbSymbolTable
 70
     5
  0
APPID
  5
12
330
9
100
AcDbSymbolTableRecord
100
AcDbRegAppTableRecord
  2
ACAD
 70
     0
  0
APPID
  5
73C
330
9
100
AcDbSymbolTableRecord
100
AcDbRegAppTableRecord
  2
AcAecLayerStandard
 70
     0
  0
APPID
  5
74B
330
9
100
AcDbSymbolTableRecord
100
AcDbRegAppTableRecord
  2
ACAD_EXEMPT_FROM_CAD_STANDARDS
 70
     0
  0
APPID
  5
1E75
330
9
100
AcDbSymbolTableRecord
100
AcDbRegAppTableRecord
  2
ACAD_NAV_VCDISPLAY
 70
     0
  0
APPID
  5
1E7B
330
9
100
AcDbSymbolTableRecord
100
AcDbRegAppTableRecord
  2
ACAD_PSEXT
 70
     0
  0
ENDTAB
  0
TABLE
  2
DIMSTYLE
  5
A
330
0
100
AcDbSymbolTable
 70
     1
100
AcDbDimStyleTable
 71
     1
340
27
  0
DIMSTYLE
105
27
330
A
100
AcDbSymbolTableRecord
100
AcDbDimStyleTableRecord
  2
Standard
 70
     0
340
11
  0
ENDTAB
  0
TABLE
  2
BLOCK_RECORD
  5
1
330
0
100
AcDbSymbolTable
 70
     1
  0
BLOCK_RECORD
  5
1F
102
{ACAD_XDICTIONARY
360
D73
102
}
330
1
100
AcDbSymbolTableRecord
100
AcDbBlockTableRecord
  2
*Model_Space
340
22
 70
     0
280
     1
281
     0
  0
BLOCK_RECORD
  5
58
330
1
100
AcDbSymbolTableRecord
100
AcDbBlockTableRecord
  2
*Paper_Space
340
59
 70
     0
280
     1
281
     0
  0
BLOCK_RECORD
  5
5D
330
1
100
AcDbSymbolTableRecord
100
AcDbBlockTableRecord
  2
*Paper_Space0
340
5E
 70
     0
280
     1
281
     0
  0
ENDTAB
  0
ENDSEC
  0
SECTION
  2
BLOCKS
  0
BLOCK
  5
20
330
1F
100
AcDbEntity
  8
0
100
AcDbBlockBegin
  2
*Model_Space
 70
     0
 10
0.0
 20
0.0
 30
0.0
  3
*Model_Space
  1

  0
ENDBLK
  5
21
330
1F
100
AcDbEntity
  8
0
100
AcDbBlockEnd
  0
BLOCK
  5
5A
330
58
100
AcDbEntity
 67
     1
  8
0
100
AcDbBlockBegin
  2
*Paper_Space
 70
     0
 10
0.0
 20
0.0
 30
0.0
  3
*Paper_Space
  1

  0
ENDBLK
  5
5B
330
58
100
AcDbEntity
 67
     1
  8
0
100
AcDbBlockEnd
  0
BLOCK
  5
5F
330
5D
100
AcDbEntity
 67
     1
  8
0
100
AcDbBlockBegin
  2
*Paper_Space0
 70
     0
 10
0.0
 20
0.0
 30
0.0
  3
*Paper_Space0
  1

  0
VIEWPORT
  5
1E8A
102
{ACAD_XDICTIONARY
360
1E8B
102
}
330
5D
100
AcDbEntity
 67
     1
  8
0
100
AcDbViewport
 10
5.249999639556165
 20
3.999999883606678
 30
0.0
 40
14.0440130339877
 41
8.992999745766949
 68
     1
 69
     1
 12
5.249999639556165
 22
3.999999883606678
 13
0.0
 23
0.0
 14
10.0
 24
10.0
 15
10.0
 25
10.0
 16
0.0
 26
0.0
 36
1.0
 17
0.0
 27
0.0
 37
0.0
 42
50.0
 43
0.0
 44
0.0
 45
8.992999745766949
 50
0.0
 51
0.0
 72
  1000
 90
   819232
  1

281
     0
 71
     1
 74
     0
110
0.0
120
0.0
130
0.0
111
1.0
121
0.0
131
0.0
112
0.0
122
1.0
132
0.0
 79
     0
146
0.0
170
     0
 61
     5
348
1E3E
292
     1
282
     1
141
0.0
142
0.0
 63
   250
421
  3355443
  0
VIEWPORT
  5
1E8E
102
{ACAD_XDICTIONARY
360
1E8F
102
}
330
5D
100
AcDbEntity
 67
     1
  8
TRACE
100
AcDbViewport
 10
5.249999761581421
 20
3.999999761581421
 30
0.0
 40
8.399999618530275
 41
6.399999618530274
 68
     2
 69
     2
 12
14139.06968689625
 22
10.63248797821779
 13
0.0
 23
0.0
 14
0.5
 24
0.5
 15
0.5
 25
0.5
 16
0.9874848536739321
 26
-0.157713866747896
 36
0.0
 17
-11019.87417332968
 27
2426.787607907741
 37
1915.291453907585
 42
50.0
 43
0.0
 44
0.0
 45
19818.40543971551
 50
0.0
 51
0.0
 72
  1000
 90
   819296
  1

281
     0
 71
     1
 74
     0
110
-22349.64295586152
120
5486.52739579929
130
0.0
111
0.157713866747896
121
0.9874848536739321
131
0.0
112
0.0
122
0.0
132
1.0
 79
     0
146
0.0
170
     0
 61
     5
348
1E3E
292
     1
282
     1
141
0.0
142
0.0
 63
   250
421
  3355443
  0
ENDBLK
  5
60
330
5D
100
AcDbEntity
 67
     1
  8
0
100
AcDbBlockEnd
  0
ENDSEC
  0
SECTION
  2
ENTITIES
  0
LWPOLYLINE
  5
749
330
1F
100
AcDbEntity
  8
UCS
100
AcDbPolyline
 90
        2
 70
     0
 43
0.0
 10
-21590.45062085916
 20
10240.01513469638
 10
-22349.64295586152
 20
5486.52739579929
  0
POLYLINE
  5
CA6
330
1F
100
AcDbEntity
  8
TRACE
100
AcDb3dPolyline
 66
     1
 10
0.0
 20
0.0
 30
0.0
 70
     8
  0
VERTEX
  5
CA7
330
CA6
100
AcDbEntity
  8
TRACE
100
AcDbVertex
100
AcDb3dPolylineVertex
 10
-20774.11415661622
 20
15351.29615623282
 30
-358.7062190373564
 70
    32
  0
VERTEX
  5
CA8
330
CA6
100
AcDbEntity
  8
TRACE
100
AcDbVertex
100
AcDb3dPolylineVertex
 10
-20592.34947079478
 20
16489.36903392328
 30
-905.0099814499898
 70
    32
  0
VERTEX
  5
CA9
330
CA6
100
AcDbEntity
  8
TRACE
100
AcDbVertex
100
AcDb3dPolylineVertex
 10
-20506.90071590242
 20
17024.38445749655
 30
-1185.209128577011
 70
    32
  0
VERTEX
  5
CAA
330
CA6
100
AcDbEntity
  8
TRACE
100
AcDbVertex
100
AcDb3dPolylineVertex
 10
-20334.50534135147
 20
18103.79380001577
 30
-1482.113341696246
 70
    32
  0
VERTEX
  5
CAB
330
CA6
100
AcDbEntity
  8
TRACE
100
AcDbVertex
100
AcDb3dPolylineVertex
 10
-20101.70743450989
 20
19561.39807865872
 30
-1803.59988783178
 70
    32
  0
VERTEX
  5
CAC
330
CA6
100
AcDbEntity
  8
TRACE
100
AcDbVertex
100
AcDb3dPolylineVertex
 10
-20032.3745087627
 20
19995.50837883725
 30
-1910.485445647682
 70
    32
  0
VERTEX
  5
CAD
330
CA6
100
AcDbEntity
  8
TRACE
100
AcDbVertex
100
AcDb3dPolylineVertex
 10
-19891.83480246278
 20
20875.46163959142
 30
-1874.856909253641
 70
    32
  0
VERTEX
  5
CAE
330
CA6
100
AcDbEntity
  8
TRACE
100
AcDbVertex
100
AcDb3dPolylineVertex
 10
-19800.95245955206
 20
21444.49807843665
 30
-1601.705002364207
 70
    32
  0
VERTEX
  5
CAF
330
CA6
100
AcDbEntity
  8
TRACE
100
AcDbVertex
100
AcDb3dPolylineVertex
 10
-19694.63329668133
 20
22110.1881991282
 30
-1489.462358489971
 70
    32
  0
VERTEX
  5
CB0
330
CA6
100
AcDbEntity
  8
TRACE
100
AcDbVertex
100
AcDb3dPolylineVertex
 10
-19644.03900588934
 20
22426.97135123571
 30
-1459.771962861163
 70
    32
  0
VERTEX
  5
CB1
330
CA6
100
AcDbEntity
  8
TRACE
100
AcDbVertex
100
AcDb3dPolylineVertex
 10
-19566.27369627445
 20
22913.87885638692
 30
-1513.214716086001
 70
    32
  0
VERTEX
  5
CB2
330
CA6
100
AcDbEntity
  8
TRACE
100
AcDbVertex
100
AcDb3dPolylineVertex
 10
-19480.07600279186
 20
23453.5835665108
 30
-1251.938987994585
 70
    32
  0
VERTEX
  5
CB3
330
CA6
100
AcDbEntity
  8
TRACE
100
AcDbVertex
100
AcDb3dPolylineVertex
 10
-19337.66244168637
 20
24345.26948766207
 30
-1002.539438701188
 70
    32
  0
VERTEX
  5
CB4
330
CA6
100
AcDbEntity
  8
TRACE
100
AcDbVertex
100
AcDb3dPolylineVertex
 10
-19213.05056330484
 20
25125.49474639801
 30
-729.3875318117524
 70
    32
  0
VERTEX
  5
CB5
330
CA6
100
AcDbEntity
  8
TRACE
100
AcDbVertex
100
AcDb3dPolylineVertex
 10
-19088.12949590098
 20
25907.65591275431
 30
-759.1382827517911
 70
    32
  0
VERTEX
  5
CB6
330
CA6
100
AcDbEntity
  8
TRACE
100
AcDbVertex
100
AcDb3dPolylineVertex
 10
-18860.45516871568
 20
27333.18021383092
 30
-759.1382827517909
 70
    32
  0
VERTEX
  5
CB7
330
CA6
100
AcDbEntity
  8
TRACE
100
AcDbVertex
100
AcDb3dPolylineVertex
 10
-18814.54552735181
 20
27620.63163721711
 30
-711.6336189259627
 70
    32
  0
SEQEND
  5
CB8
330
CA6
100
AcDbEntity
  8
TRACE
  0
POLYLINE
  5
CB9
330
1F
100
AcDbEntity
  8
TRACE
100
AcDb3dPolyline
 66
     1
 10
0.0
 20
0.0
 30
0.0
 70
     8
  0
VERTEX
  5
CBA
330
CB9
100
AcDbEntity
  8
TRACE
100
AcDbVertex
100
AcDb3dPolylineVertex
 10
-20774.11415661623
 20
15351.29615623283
 30
-358.7062190373565
 70
    32
  0
VERTEX
  5
CBB
330
CB9
100
AcDbEntity
  8
TRACE
100
AcDbVertex
100
AcDb3dPolylineVertex
 10
-20814.32762399047
 20
15099.50986270892
 30
-358.7062190373564
 70
    32
  0
VERTEX
  5
CBC
330
CB9
100
AcDbEntity
  8
TRACE
100
AcDbVertex
100
AcDb3dPolylineVertex
 10
-20879.20988387546
 20
14693.26626327337
 30
-377.0904982034719
 70
    32
  0
VERTEX
  5
CBD
330
CB9
100
AcDbEntity
  8
TRACE
100
AcDbVertex
100
AcDb3dPolylineVertex
 10
-21005.00203356146
 20
13905.65103902311
 30
-461.0110912453108
 70
    32
  0
VERTEX
  5
CBE
330
CB9
100
AcDbEntity
  8
TRACE
100
AcDbVertex
100
AcDb3dPolylineVertex
 10
-21048.69826587024
 20
13632.05830772251
 30
-628.8522259627667
 70
    32
  0
SEQEND
  5
CBF
330
CB9
100
AcDbEntity
  8
TRACE
  0
POLYLINE
  5
CC0
330
1F
100
AcDbEntity
  8
TRACE
100
AcDb3dPolyline
 66
     1
 10
0.0
 20
0.0
 30
0.0
 70
     8
  0
VERTEX
  5
CC1
330
CC0
100
AcDbEntity
  8
TRACE
100
AcDbVertex
100
AcDb3dPolylineVertex
 10
-20779.70932836198
 20
15316.26342596902
 30
-359.2152583005537
 70
    32
  0
VERTEX
  5
CC2
330
CC0
100
AcDbEntity
  8
TRACE
100
AcDbVertex
100
AcDb3dPolylineVertex
 10
-20769.54325885483
 20
15379.91565812024
 30
693.1502728728871
 70
    32
  0
VERTEX
  5
CC3
330
CC0
100
AcDbEntity
  8
TRACE
100
AcDbVertex
100
AcDb3dPolylineVertex
 10
-20749.21111984054
 20
15507.22012242267
 30
1960.284246250736
 70
    32
  0
VERTEX
  5
CC4
330
CC0
100
AcDbEntity
  8
TRACE
100
AcDbVertex
100
AcDb3dPolylineVertex
 10
-20728.87896841201
 20
15634.52466445368
 30
3205.941385681387
 70
    32
  0
VERTEX
  5
CC5
330
CC0
100
AcDbEntity
  8
TRACE
100
AcDbVertex
100
AcDb3dPolylineVertex
 10
-20718.71289890486
 20
15698.17689660489
 30
4193.876363647019
 70
    32
  0
VERTEX
  5
CC6
330
CC0
100
AcDbEntity
  8
TRACE
100
AcDbVertex
100
AcDb3dPolylineVertex
 10
-20694.99207005486
 20
15846.69877162441
 30
4558.982797580445
 70
    32
  0
VERTEX
  5
CC7
330
CC0
100
AcDbEntity
  8
TRACE
100
AcDbVertex
100
AcDb3dPolylineVertex
 10
-20633.9956281835
 20
16228.61231998884
 30
4816.704959045457
 70
    32
  0
VERTEX
  5
CC8
330
CC0
100
AcDbEntity
  8
TRACE
100
AcDbVertex
100
AcDb3dPolylineVertex
 10
-20627.21824851207
 20
16271.04714142299
 30
5267.718728767659
 70
    32
  0
VERTEX
  5
CC9
330
CC0
100
AcDbEntity
  8
TRACE
100
AcDbVertex
100
AcDb3dPolylineVertex
 10
-20620.44086884064
 20
16313.48196285713
 30
5439.533503077664
 70
    32
  0
VERTEX
  5
CCA
330
CC0
100
AcDbEntity
  8
TRACE
100
AcDbVertex
100
AcDb3dPolylineVertex
 10
-20576.71046013347
 20
16587.28868089501
 30
5428.036766563933
 70
    32
  0
SEQEND
  5
CCB
330
CC0
100
AcDbEntity
  8
TRACE
  0
POLYLINE
  5
CCC
330
1F
100
AcDbEntity
  8
TRACE
100
AcDb3dPolyline
 66
     1
 10
0.0
 20
0.0
 30
0.0
 70
     8
  0
VERTEX
  5
CCD
330
CCC
100
AcDbEntity
  8
TRACE
100
AcDbVertex
100
AcDb3dPolylineVertex
 10
-20576.71046013348
 20
16587.28868089502
 30
5428.036766563935
 70
    32
  0
VERTEX
  5
CCE
330
CCC
100
AcDbEntity
  8
TRACE
100
AcDbVertex
100
AcDb3dPolylineVertex
 10
-20557.80862759988
 20
16705.63764867122
 30
5428.036766563935
 70
    32
  0
VERTEX
  5
CCF
330
CCC
100
AcDbEntity
  8
TRACE
100
AcDbVertex
100
AcDb3dPolylineVertex
 10
-20548.96967742358
 20
16760.98046412201
 30
5267.494617939674
 70
    32
  0
VERTEX
  5
CD0
330
CCC
100
AcDbEntity
  8
TRACE
100
AcDbVertex
100
AcDb3dPolylineVertex
 10
-20531.29178948526
 20
16871.66601729499
 30
5239.484873738993
 70
    32
  0
VERTEX
  5
CD1
330
CCC
100
AcDbEntity
  8
TRACE
100
AcDbVertex
100
AcDb3dPolylineVertex
 10
-20472.36548394327
 20
17240.61793893348
 30
5230.14829233876
 70
    32
  0
VERTEX
  5
CD2
330
CCC
100
AcDbEntity
  8
TRACE
100
AcDbVertex
100
AcDb3dPolylineVertex
 10
-20472.36548394327
 20
17240.61793893348
 30
5155.455641136943
 70
    32
  0
VERTEX
  5
CD3
330
CCC
100
AcDbEntity
  8
TRACE
100
AcDbVertex
100
AcDb3dPolylineVertex
 10
-20451.74127514144
 20
17369.75112316624
 30
5267.494617939674
 70
    32
  0
VERTEX
  5
CD4
330
CCC
100
AcDbEntity
  8
TRACE
100
AcDbVertex
100
AcDb3dPolylineVertex
 10
-20439.95601651589
 20
17443.54149194822
 30
5472.899357378455
 70
    32
  0
VERTEX
  5
CD5
330
CCC
100
AcDbEntity
  8
TRACE
100
AcDbVertex
100
AcDb3dPolylineVertex
 10
-20439.95601651589
 20
17443.54149194822
 30
5566.26517138073
 70
    32
  0
VERTEX
  5
CD6
330
CCC
100
AcDbEntity
  8
TRACE
100
AcDbVertex
100
AcDb3dPolylineVertex
 10
-20431.11706633961
 20
17498.88430739899
 30
5640.957822582548
 70
    32
  0
VERTEX
  5
CD7
330
CCC
100
AcDbEntity
  8
TRACE
100
AcDbVertex
100
AcDb3dPolylineVertex
 10
-20428.17075789034
 20
17517.3318607302
 30
5762.333329419288
 70
    32
  0
VERTEX
  5
CD8
330
CCC
100
AcDbEntity
  8
TRACE
100
AcDbVertex
100
AcDb3dPolylineVertex
 10
-20263.17709988993
 20
18550.3972568637
 30
5762.333329419285
 70
    32
  0
VERTEX
  5
CD9
330
CCC
100
AcDbEntity
  8
TRACE
100
AcDbVertex
100
AcDb3dPolylineVertex
 10
-20248.44553281512
 20
18642.63517897691
 30
5547.592008580274
 70
    32
  0
VERTEX
  5
CDA
330
CCC
100
AcDbEntity
  8
TRACE
100
AcDbVertex
100
AcDb3dPolylineVertex
 10
-20248.44553281512
 20
18642.63517897691
 30
5435.553031777543
 70
    32
  0
VERTEX
  5
CDB
330
CCC
100
AcDbEntity
  8
TRACE
100
AcDbVertex
100
AcDb3dPolylineVertex
 10
-20202.77764633043
 20
18928.57291630352
 30
5370.197013342173
 70
    32
  0
VERTEX
  5
CDC
330
CCC
100
AcDbEntity
  8
TRACE
100
AcDbVertex
100
AcDb3dPolylineVertex
 10
-20111.44187336107
 20
19500.44839095675
 30
5286.16778074013
 70
    32
  0
VERTEX
  5
CDD
330
CCC
100
AcDbEntity
  8
TRACE
100
AcDbVertex
100
AcDb3dPolylineVertex
 10
-20000.95505202163
 20
20192.23323431285
 30
5276.831199339898
 70
    32
  0
VERTEX
  5
CDE
330
CCC
100
AcDbEntity
  8
TRACE
100
AcDbVertex
100
AcDb3dPolylineVertex
 10
-20014.21347107893
 20
20109.21905000098
 30
5332.850687741268
 70
    32
  0
VERTEX
  5
CDF
330
CCC
100
AcDbEntity
  8
TRACE
100
AcDbVertex
100
AcDb3dPolylineVertex
 10
-20006.8476813344
 20
20155.33804992185
 30
5556.928589980505
 70
    32
  0
VERTEX
  5
CE0
330
CCC
100
AcDbEntity
  8
TRACE
100
AcDbVertex
100
AcDb3dPolylineVertex
 10
-19984.75032451505
 20
20293.69497195594
 30
5696.977259617693
 70
    32
  0
VERTEX
  5
CE1
330
CCC
100
AcDbEntity
  8
TRACE
100
AcDbVertex
100
AcDb3dPolylineVertex
 10
-19915.51190836503
 20
20727.21352457509
 30
5706.313841017919
 70
    32
  0
VERTEX
  5
CE2
330
CCC
100
AcDbEntity
  8
TRACE
100
AcDbVertex
100
AcDb3dPolylineVertex
 10
-19853.63929437378
 20
21114.6129995448
 30
5706.313841017919
 70
    32
  0
VERTEX
  5
CE3
330
CCC
100
AcDbEntity
  8
TRACE
100
AcDbVertex
100
AcDb3dPolylineVertex
 10
-19812.39087677012
 20
21372.87936801031
 30
5603.611496981642
 70
    32
  0
VERTEX
  5
CE4
330
CCC
100
AcDbEntity
  8
TRACE
100
AcDbVertex
100
AcDb3dPolylineVertex
 10
-19805.02508702559
 20
21418.99836793118
 30
5463.562775978231
 70
    32
  0
VERTEX
  5
CE5
330
CCC
100
AcDbEntity
  8
TRACE
100
AcDbVertex
100
AcDb3dPolylineVertex
 10
-19703.37721586243
 20
22055.44039583651
 30
5388.870124776406
 70
    32
  0
VERTEX
  5
CE6
330
CCC
100
AcDbEntity
  8
TRACE
100
AcDbVertex
100
AcDb3dPolylineVertex
 10
-19610.56829487555
 20
22636.53960829107
 30
5398.206706176637
 70
    32
  0
VERTEX
  5
CE7
330
CCC
100
AcDbEntity
  8
TRACE
100
AcDbVertex
100
AcDb3dPolylineVertex
 10
-19588.47092564196
 20
22774.89660805371
 30
5388.870124776406
 70
    32
  0
VERTEX
  5
CE8
330
CCC
100
AcDbEntity
  8
TRACE
100
AcDbVertex
100
AcDb3dPolylineVertex
 10
-19574.8851555315
 20
22859.96041687541
 30
5089.458983176783
 70
    32
  0
VERTEX
  5
CE9
330
CCC
100
AcDbEntity
  8
TRACE
100
AcDbVertex
100
AcDb3dPolylineVertex
 10
-19573.41199509975
 20
22869.1842324053
 30
4809.361592536183
 70
    32
  0
VERTEX
  5
CEA
330
CCC
100
AcDbEntity
  8
TRACE
100
AcDbVertex
100
AcDb3dPolylineVertex
 10
-19574.8851555315
 20
22859.96041687541
 30
4389.215480892171
 70
    32
  0
VERTEX
  5
CEB
330
CCC
100
AcDbEntity
  8
TRACE
100
AcDbVertex
100
AcDb3dPolylineVertex
 10
-19577.83146398077
 20
22841.51286354419
 30
4071.771764650659
 70
    32
  0
VERTEX
  5
CEC
330
CCC
100
AcDbEntity
  8
TRACE
100
AcDbVertex
100
AcDb3dPolylineVertex
 10
-19567.51936578698
 20
22906.07941679629
 30
3791.674425376283
 70
    32
  0
VERTEX
  5
CED
330
CCC
100
AcDbEntity
  8
TRACE
100
AcDbVertex
100
AcDb3dPolylineVertex
 10
-19545.42199655339
 20
23044.43641655894
 30
3679.635448573553
 70
    32
  0
VERTEX
  5
CEE
330
CCC
100
AcDbEntity
  8
TRACE
100
AcDbVertex
100
AcDb3dPolylineVertex
 10
-19557.20726759318
 20
22970.6459700484
 30
3595.606215971502
 70
    32
  0
VERTEX
  5
CEF
330
CCC
100
AcDbEntity
  8
TRACE
100
AcDbVertex
100
AcDb3dPolylineVertex
 10
-19552.78778629792
 20
22998.31741663806
 30
3511.577034735676
 70
    32
  0
VERTEX
  5
CF0
330
CCC
100
AcDbEntity
  8
TRACE
100
AcDbVertex
100
AcDb3dPolylineVertex
 10
-19529.21726904682
 20
23145.89815420203
 30
3427.547802133633
 70
    32
  0
VERTEX
  5
CF1
330
CCC
100
AcDbEntity
  8
TRACE
100
AcDbVertex
100
AcDb3dPolylineVertex
 10
-19514.48568955777
 20
23238.13615404379
 30
3390.201476532721
 70
    32
  0
VERTEX
  5
CF2
330
CCC
100
AcDbEntity
  8
TRACE
100
AcDbVertex
100
AcDb3dPolylineVertex
 10
-19521.85147930229
 20
23192.01715412292
 30
3306.172243930678
 70
    32
  0
VERTEX
  5
CF3
330
CCC
100
AcDbEntity
  8
TRACE
100
AcDbVertex
100
AcDb3dPolylineVertex
 10
-19521.85147930229
 20
23192.01715412292
 30
3175.460155693715
 70
    32
  0
VERTEX
  5
CF4
330
CCC
100
AcDbEntity
  8
TRACE
100
AcDbVertex
100
AcDb3dPolylineVertex
 10
-19530.69042947857
 20
23136.67433867214
 30
2839.343276651741
 70
    32
  0
VERTEX
  5
CF5
330
CCC
100
AcDbEntity
  8
TRACE
100
AcDbVertex
100
AcDb3dPolylineVertex
 10
-19542.47568810412
 20
23062.88396989016
 30
2745.977462649466
 70
    32
  0
VERTEX
  5
CF6
330
CCC
100
AcDbEntity
  8
TRACE
100
AcDbVertex
100
AcDb3dPolylineVertex
 10
-19542.47568810412
 20
23062.88396989016
 30
2615.265374412502
 70
    32
  0
VERTEX
  5
CF7
330
CCC
100
AcDbEntity
  8
TRACE
100
AcDbVertex
100
AcDb3dPolylineVertex
 10
-19520.37831887054
 20
23201.24096965279
 30
2568.582467411365
 70
    32
  0
VERTEX
  5
CF8
330
CCC
100
AcDbEntity
  8
TRACE
100
AcDbVertex
100
AcDb3dPolylineVertex
 10
-19526.27094818331
 20
23164.34578526182
 30
2344.504565172135
 70
    32
  0
VERTEX
  5
CF9
330
CCC
100
AcDbEntity
  8
TRACE
100
AcDbVertex
100
AcDb3dPolylineVertex
 10
-19530.69042947857
 20
23136.67433867214
 30
2157.772988533809
 70
    32
  0
VERTEX
  5
CFA
330
CCC
100
AcDbEntity
  8
TRACE
100
AcDbVertex
100
AcDb3dPolylineVertex
 10
-19510.06622067674
 20
23265.8075229049
 30
2055.070593131303
 70
    32
  0
VERTEX
  5
CFB
330
CCC
100
AcDbEntity
  8
TRACE
100
AcDbVertex
100
AcDb3dPolylineVertex
 10
-19507.11989981324
 20
23284.25515396467
 30
1896.348709327435
 70
    32
  0
VERTEX
  5
CFC
330
CCC
100
AcDbEntity
  8
TRACE
100
AcDbVertex
100
AcDb3dPolylineVertex
 10
-19479.12991368112
 20
23459.50726038974
 30
1756.300039690247
 70
    32
  0
VERTEX
  5
CFD
330
CCC
100
AcDbEntity
  8
TRACE
100
AcDbVertex
100
AcDb3dPolylineVertex
 10
-19462.92517376031
 20
23560.96907576139
 30
1569.568463051921
 70
    32
  0
VERTEX
  5
CFE
330
CCC
100
AcDbEntity
  8
TRACE
100
AcDbVertex
100
AcDb3dPolylineVertex
 10
-19412.8378183946
 20
23874.57818194912
 30
1336.153979412455
 70
    32
  0
VERTEX
  5
CFF
330
CCC
100
AcDbEntity
  8
TRACE
100
AcDbVertex
100
AcDb3dPolylineVertex
 10
-19352.08778674184
 20
24254.9488960424
 30
1061.383317392793
 70
    32
  0
VERTEX
  5
D00
330
CCC
100
AcDbEntity
  8
TRACE
100
AcDbVertex
100
AcDb3dPolylineVertex
 10
-19334.40989880352
 20
24365.6344492154
 30
827.9688337533309
 70
    32
  0
VERTEX
  5
D01
330
CCC
100
AcDbEntity
  8
TRACE
100
AcDbVertex
100
AcDb3dPolylineVertex
 10
-19325.57094862724
 20
24420.97726466615
 30
557.2080245129544
 70
    32
  0
VERTEX
  5
D02
330
CCC
100
AcDbEntity
  8
TRACE
100
AcDbVertex
100
AcDb3dPolylineVertex
 10
-19287.26885188708
 20
24660.79600207189
 30
435.8324663099988
 70
    32
  0
VERTEX
  5
D03
330
CCC
100
AcDbEntity
  8
TRACE
100
AcDbVertex
100
AcDb3dPolylineVertex
 10
-19240.12780497065
 20
24955.9575549284
 30
127.7253314687099
 70
    32
  0
VERTEX
  5
D04
330
CCC
100
AcDbEntity
  8
TRACE
100
AcDbVertex
100
AcDb3dPolylineVertex
 10
-19172.36256166662
 20
25380.25221428909
 30
-199.054914806804
 70
    32
  0
VERTEX
  5
D05
330
CCC
100
AcDbEntity
  8
TRACE
100
AcDbVertex
100
AcDb3dPolylineVertex
 10
-19163.52361149034
 20
25435.59502973986
 30
-441.8060312127226
 70
    32
  0
VERTEX
  5
D06
330
CCC
100
AcDbEntity
  8
TRACE
100
AcDbVertex
100
AcDb3dPolylineVertex
 10
-19142.89940268851
 20
25564.72821397263
 30
-749.9131146877799
 70
    32
  0
SEQEND
  5
D07
330
CCC
100
AcDbEntity
  8
TRACE
  0
POLYLINE
  5
D4F
330
1F
100
AcDbEntity
  8
TRACE
100
AcDb3dPolyline
 66
     1
 10
0.0
 20
0.0
 30
0.0
 70
     8
  0
VERTEX
  5
D50
330
D4F
100
AcDbEntity
  8
TRACE
100
AcDbVertex
100
AcDb3dPolylineVertex
 10
-20081.25446771296
 20
19689.45907507667
 30
-1837.5183399523
 70
    32
  0
VERTEX
  5
D51
330
D4F
100
AcDbEntity
  8
TRACE
100
AcDbVertex
100
AcDb3dPolylineVertex
 10
-20082.40418757667
 20
19682.26039955887
 30
-1801.08489485448
 70
    32
  0
VERTEX
  5
D52
330
D4F
100
AcDbEntity
  8
TRACE
100
AcDbVertex
100
AcDb3dPolylineVertex
 10
-20078.59821601992
 20
19706.09051255593
 30
-1582.889127906751
 70
    32
  0
VERTEX
  5
D53
330
D4F
100
AcDbEntity
  8
TRACE
100
AcDbVertex
100
AcDb3dPolylineVertex
 10
-20037.63355629606
 20
19962.58020396573
 30
-1466.844252404338
 70
    32
  0
VERTEX
  5
D54
330
D4F
100
AcDbEntity
  8
TRACE
100
AcDbVertex
100
AcDb3dPolylineVertex
 10
-20014.97885078656
 20
20104.4268216182
 30
-1413.738984311665
 70
    32
  0
VERTEX
  5
D55
330
D4F
100
AcDbEntity
  8
TRACE
100
AcDbVertex
100
AcDb3dPolylineVertex
 10
-20002.87565755943
 20
20180.20785621794
 30
-1331.130749586376
 70
    32
  0
VERTEX
  5
D56
330
D4F
100
AcDbEntity
  8
TRACE
100
AcDbVertex
100
AcDb3dPolylineVertex
 10
-19992.72613752178
 20
20243.75646811801
 30
-1159.856456324564
 70
    32
  0
VERTEX
  5
D57
330
D4F
100
AcDbEntity
  8
TRACE
100
AcDbVertex
100
AcDb3dPolylineVertex
 10
-19976.63007184419
 20
20344.53784763851
 30
-1086.98956612893
 70
    32
  0
VERTEX
  5
D58
330
D4F
100
AcDbEntity
  8
TRACE
100
AcDbVertex
100
AcDb3dPolylineVertex
 10
-19959.38429871713
 20
20452.51782494824
 30
-1079.702856562883
 70
    32
  0
VERTEX
  5
D59
330
D4F
100
AcDbEntity
  8
TRACE
100
AcDbVertex
100
AcDb3dPolylineVertex
 10
-19946.98876293807
 20
20530.12928732247
 30
-1035.571526516705
 70
    32
  0
VERTEX
  5
D5A
330
D4F
100
AcDbEntity
  8
TRACE
100
AcDbVertex
100
AcDb3dPolylineVertex
 10
-19916.8447134171
 20
20718.86850819223
 30
-1086.98956612893
 70
    32
  0
VERTEX
  5
D5B
330
D4F
100
AcDbEntity
  8
TRACE
100
AcDbVertex
100
AcDb3dPolylineVertex
 10
-19884.65259447615
 20
20920.43118950468
 30
-1116.136301660696
 70
    32
  0
VERTEX
  5
D5C
330
D4F
100
AcDbEntity
  8
TRACE
100
AcDbVertex
100
AcDb3dPolylineVertex
 10
-19851.3107556715
 20
21129.1925463349
 30
-1130.709669426575
 70
    32
  0
VERTEX
  5
D5D
330
D4F
100
AcDbEntity
  8
TRACE
100
AcDbVertex
100
AcDb3dPolylineVertex
 10
-19849.01131594409
 20
21143.58989737048
 30
-1210.863269188263
 70
    32
  0
VERTEX
  5
D5E
330
D4F
100
AcDbEntity
  8
TRACE
100
AcDbVertex
100
AcDb3dPolylineVertex
 10
-19854.7599152626
 20
21107.59651978153
 30
-1334.736920881373
 70
    32
  0
VERTEX
  5
D5F
330
D4F
100
AcDbEntity
  8
TRACE
100
AcDbVertex
100
AcDb3dPolylineVertex
 10
-19857.32697287835
 20
21091.52354809982
 30
-1405.871533385452
 70
    32
  0
VERTEX
  5
D60
330
D4F
100
AcDbEntity
  8
TRACE
100
AcDbVertex
100
AcDb3dPolylineVertex
 10
-19857.94765517843
 20
21087.6373053558
 30
-1458.976801478118
 70
    32
  0
VERTEX
  5
D61
330
D4F
100
AcDbEntity
  8
TRACE
100
AcDbVertex
100
AcDb3dPolylineVertex
 10
-19856.70630298099
 20
21095.40971318732
 30
-1506.181507035431
 70
    32
  0
VERTEX
  5
D62
330
D4F
100
AcDbEntity
  8
TRACE
100
AcDbVertex
100
AcDb3dPolylineVertex
 10
-19855.77527953086
 20
21101.23907730335
 30
-1567.154277372928
 70
    32
  0
VERTEX
  5
D63
330
D4F
100
AcDbEntity
  8
TRACE
100
AcDbVertex
100
AcDb3dPolylineVertex
 10
-19857.02280828864
 20
21093.4279965263
 30
-1685.149157443293
 70
    32
  0
VERTEX
  5
D64
330
D4F
100
AcDbEntity
  8
TRACE
100
AcDbVertex
100
AcDb3dPolylineVertex
 10
-19889.25147393096
 20
20891.63648743351
 30
-1648.064456263389
 70
    32
  0
VERTEX
  5
D65
330
D4F
100
AcDbEntity
  8
TRACE
100
AcDbVertex
100
AcDb3dPolylineVertex
 10
-19905.34752719431
 20
20790.85518564157
 30
-1655.351165829444
 70
    32
  0
VERTEX
  5
D66
330
D4F
100
AcDbEntity
  8
TRACE
100
AcDbVertex
100
AcDb3dPolylineVertex
 10
-19921.44359287191
 20
20690.07380612107
 30
-1728.218056025077
 70
    32
  0
VERTEX
  5
D67
330
D4F
100
AcDbEntity
  8
TRACE
100
AcDbVertex
100
AcDb3dPolylineVertex
 10
-19940.98880572637
 20
20567.69647777576
 30
-1640.777798063558
 70
    32
  0
VERTEX
  5
D68
330
D4F
100
AcDbEntity
  8
TRACE
100
AcDbVertex
100
AcDb3dPolylineVertex
 10
-19963.98317817194
 20
20423.72312287707
 30
-1669.924533595323
 70
    32
  0
VERTEX
  5
D69
330
D4F
100
AcDbEntity
  8
TRACE
100
AcDbVertex
100
AcDb3dPolylineVertex
 10
-19993.87585738548
 20
20236.55779260023
 30
-1844.805049518348
 70
    32
  0
VERTEX
  5
D6A
330
D4F
100
AcDbEntity
  8
TRACE
100
AcDbVertex
100
AcDb3dPolylineVertex
 10
-20020.31937700793
 20
20070.98848887674
 30
-1910.385230147934
 70
    32
  0
SEQEND
  5
D6B
330
D4F
100
AcDbEntity
  8
TRACE
  0
POLYLINE
  5
D8C
330
1F
100
AcDbEntity
  8
TRACE
100
AcDb3dPolyline
 66
     1
 10
0.0
 20
0.0
 30
0.0
 70
     8
  0
VERTEX
  5
D8D
330
D8C
100
AcDbEntity
  8
TRACE
100
AcDbVertex
100
AcDb3dPolylineVertex
 10
-20482.29141527237
 20
17178.46927028319
 30
-1226.331115963981
 70
    32
  0
VERTEX
  5
D8E
330
D8C
100
AcDbEntity
  8
TRACE
100
AcDbVertex
100
AcDb3dPolylineVertex
 10
-20001.63803968608
 20
20187.95688253865
 30
-1269.955632377286
 70
    32
  0
SEQEND
  5
D8F
330
D8C
100
AcDbEntity
  8
TRACE
  0
POLYLINE
  5
D90
330
1F
100
AcDbEntity
  8
TRACE
100
AcDb3dPolyline
 66
     1
 10
0.0
 20
0.0
 30
0.0
 70
     8
  0
VERTEX
  5
D91
330
D90
100
AcDbEntity
  8
TRACE
100
AcDbVertex
100
AcDb3dPolylineVertex
 10
-20016.46389185445
 20
20095.12861853781
 30
-1407.233272719374
 70
    32
  0
VERTEX
  5
D92
330
D90
100
AcDbEntity
  8
TRACE
100
AcDbVertex
100
AcDb3dPolylineVertex
 10
-20398.68556898363
 20
17701.94579515141
 30
-1372.181789220539
 70
    32
  0
SEQEND
  5
D93
330
D90
100
AcDbEntity
  8
TRACE
  0
POLYLINE
  5
D99
330
1F
100
AcDbEntity
  8
TRACE
100
AcDb3dPolyline
 66
     1
 10
0.0
 20
0.0
 30
0.0
 70
     8
  0
VERTEX
  5
D9A
330
D99
100
AcDbEntity
  8
TRACE
100
AcDbVertex
100
AcDb3dPolylineVertex
 10
-19648.33082945011
 20
22400.09920075037
 30
-1461.120186573312
 70
    32
  0
VERTEX
  5
D9B
330
D99
100
AcDbEntity
  8
TRACE
100
AcDbVertex
100
AcDb3dPolylineVertex
 10
-19858.86242012387
 20
21081.90973968947
 30
-1416.990589933046
 70
    32
  0
SEQEND
  5
D9C
330
D99
100
AcDbEntity
  8
TRACE
  0
POLYLINE
  5
DA1
330
1F
100
AcDbEntity
  8
TRACE
100
AcDb3dPolyline
 66
     1
 10
0.0
 20
0.0
 30
0.0
 70
     8
  0
VERTEX
  5
DA2
330
DA1
100
AcDbEntity
  8
TRACE
100
AcDbVertex
100
AcDb3dPolylineVertex
 10
-19849.12583654509
 20
21142.8728560523
 30
-1269.079564852401
 70
    32
  0
VERTEX
  5
DA3
330
DA1
100
AcDbEntity
  8
TRACE
100
AcDbVertex
100
AcDb3dPolylineVertex
 10
-19493.68380746803
 20
23368.38179391758
 30
-1293.620986695506
 70
    32
  0
SEQEND
  5
DA4
330
DA1
100
AcDbEntity
  8
TRACE
  0
POLYLINE
  5
13E8
330
1F
100
AcDbEntity
  8
TRACE
100
AcDb3dPolyline
 66
     1
 10
0.0
 20
0.0
 30
0.0
 70
     8
  0
VERTEX
  5
13E9
330
13E8
100
AcDbEntity
  8
TRACE
100
AcDbVertex
100
AcDb3dPolylineVertex
 10
-20700.26902621897
 20
15813.65846646285
 30
-196.1503433431662
 70
    32
  0
VERTEX
  5
13EA
330
13E8
100
AcDbEntity
  8
TRACE
100
AcDbVertex
100
AcDb3dPolylineVertex
 10
-20702.51547097964
 20
15799.59292979491
 30
-138.1414280458645
 70
    32
  0
VERTEX
  5
13EB
330
13E8
100
AcDbEntity
  8
TRACE
100
AcDbVertex
100
AcDb3dPolylineVertex
 10
-20722.00756675079
 20
15677.54818041888
 30
199.2096701214898
 70
    32
  0
VERTEX
  5
13EC
330
13E8
100
AcDbEntity
  8
TRACE
100
AcDbVertex
100
AcDb3dPolylineVertex
 10
-20711.51182955241
 20
15743.26454211399
 30
260.9781868359198
 70
    32
  0
VERTEX
  5
13ED
330
13E8
100
AcDbEntity
  8
TRACE
100
AcDbVertex
100
AcDb3dPolylineVertex
 10
-20714.51061160909
 20
15724.48843877253
 30
360.7580905563657
 70
    32
  0
VERTEX
  5
13EE
330
13E8
100
AcDbEntity
  8
TRACE
100
AcDbVertex
100
AcDb3dPolylineVertex
 10
-20722.75726226496
 20
15672.85415458352
 30
470.0408666876247
 70
    32
  0
VERTEX
  5
13EF
330
13E8
100
AcDbEntity
  8
TRACE
100
AcDbVertex
100
AcDb3dPolylineVertex
 10
-20736.25179392275
 20
15588.36161189042
 30
470.0408666876247
 70
    32
  0
VERTEX
  5
13F0
330
13E8
100
AcDbEntity
  8
TRACE
100
AcDbVertex
100
AcDb3dPolylineVertex
 10
-20735.50209840858
 20
15593.05563772578
 30
574.5722066134767
 70
    32
  0
VERTEX
  5
13F1
330
13E8
100
AcDbEntity
  8
TRACE
100
AcDbVertex
100
AcDb3dPolylineVertex
 10
-20719.75848020828
 20
15691.63025792498
 30
736.1206270483526
 70
    32
  0
VERTEX
  5
13F2
330
13E8
100
AcDbEntity
  8
TRACE
100
AcDbVertex
100
AcDb3dPolylineVertex
 10
-20722.00756675079
 20
15677.54818041888
 30
911.9233560994485
 70
    32
  0
VERTEX
  5
13F3
330
13E8
100
AcDbEntity
  8
TRACE
100
AcDbVertex
100
AcDb3dPolylineVertex
 10
-20713.76091609492
 20
15729.1824646079
 30
959.4375641976599
 70
    32
  0
VERTEX
  5
13F4
330
13E8
100
AcDbEntity
  8
TRACE
100
AcDbVertex
100
AcDb3dPolylineVertex
 10
-20707.76333957883
 20
15766.73474894735
 30
1339.551536895052
 70
    32
  0
VERTEX
  5
13F5
330
13E8
100
AcDbEntity
  8
TRACE
100
AcDbVertex
100
AcDb3dPolylineVertex
 10
-20710.74535314239
 20
15748.06363721707
 30
3442.295223894212
 70
    32
  0
VERTEX
  5
13F6
330
13E8
100
AcDbEntity
  8
TRACE
100
AcDbVertex
100
AcDb3dPolylineVertex
 10
-20701.72849285429
 20
15804.52039112082
 30
4394.137675471285
 70
    32
  0
VERTEX
  5
13F7
330
13E8
100
AcDbEntity
  8
TRACE
100
AcDbVertex
100
AcDb3dPolylineVertex
 10
-20694.98122082403
 20
15846.76670129562
 30
4550.934659700763
 70
    32
  0
SEQEND
  5
13F8
330
13E8
100
AcDbEntity
  8
TRACE
  0
POLYLINE
  5
14DD
330
1F
100
AcDbEntity
  8
TRACE
100
AcDb3dPolyline
 66
     1
 10
0.0
 20
0.0
 30
0.0
 70
     8
  0
VERTEX
  5
14DE
330
14DD
100
AcDbEntity
  8
TRACE
100
AcDbVertex
100
AcDb3dPolylineVertex
 10
-19781.59993703174
 20
21565.66892576452
 30
4807.901209861433
 70
    32
  0
VERTEX
  5
14DF
330
14DD
100
AcDbEntity
  8
TRACE
100
AcDbVertex
100
AcDb3dPolylineVertex
 10
-19796.27823500416
 20
21473.76453444902
 30
4979.338726570969
 70
    32
  0
VERTEX
  5
14E0
330
14DD
100
AcDbEntity
  8
TRACE
100
AcDbVertex
100
AcDb3dPolylineVertex
 10
-19787.26156075703
 20
21530.220123505
 30
5008.576170712028
 70
    32
  0
VERTEX
  5
14E1
330
14DD
100
AcDbEntity
  8
TRACE
100
AcDbVertex
100
AcDb3dPolylineVertex
 10
-19772.79295576774
 20
21620.81157608514
 30
4830.493766338086
 70
    32
  0
VERTEX
  5
14E2
330
14DD
100
AcDbEntity
  8
TRACE
100
AcDbVertex
100
AcDb3dPolylineVertex
 10
-19780.76117750196
 20
21570.92060304953
 30
4805.2432650594
 70
    32
  0
VERTEX
  5
14E3
330
14DD
100
AcDbEntity
  8
TRACE
100
AcDbVertex
100
AcDb3dPolylineVertex
 10
-19781.18056346821
 20
21568.29472557877
 30
4803.914266999071
 70
    32
  0
SEQEND
  5
14E4
330
14DD
100
AcDbEntity
  8
TRACE
  0
POLYLINE
  5
14E5
330
1F
100
AcDbEntity
  8
TRACE
100
AcDb3dPolyline
 66
     1
 10
0.0
 20
0.0
 30
0.0
 70
     8
  0
VERTEX
  5
14E6
330
14E5
100
AcDbEntity
  8
TRACE
100
AcDbVertex
100
AcDb3dPolylineVertex
 10
-19785.79373468061
 20
21539.4105393396
 30
5008.576170712025
 70
    32
  0
VERTEX
  5
14E7
330
14E5
100
AcDbEntity
  8
TRACE
100
AcDbVertex
100
AcDb3dPolylineVertex
 10
-19772.16388922109
 20
21624.75031463476
 30
4830.493766338086
 70
    32
  0
VERTEX
  5
14E8
330
14E5
100
AcDbEntity
  8
TRACE
100
AcDbVertex
100
AcDb3dPolylineVertex
 10
-19763.14722737669
 20
21681.20582603422
 30
4862.389103962576
 70
    32
  0
VERTEX
  5
14E9
330
14E5
100
AcDbEntity
  8
TRACE
100
AcDbVertex
100
AcDb3dPolylineVertex
 10
-19777.61583236599
 20
21590.61437345408
 30
5036.484565474146
 70
    32
  0
VERTEX
  5
14EA
330
14E5
100
AcDbEntity
  8
TRACE
100
AcDbVertex
100
AcDb3dPolylineVertex
 10
-19786.21312064687
 20
21536.78466186885
 30
5009.90511745374
 70
    32
  0
SEQEND
  5
14EB
330
14E5
100
AcDbEntity
  8
TRACE
  0
POLYLINE
  5
14EC
330
1F
100
AcDbEntity
  8
TRACE
100
AcDb3dPolyline
 66
     1
 10
0.0
 20
0.0
 30
0.0
 70
     8
  0
VERTEX
  5
14ED
330
14EC
100
AcDbEntity
  8
TRACE
100
AcDbVertex
100
AcDb3dPolylineVertex
 10
-19765.01791898088
 20
21669.4929712097
 30
5065.737148605346
 70
    32
  0
VERTEX
  5
14EE
330
14EC
100
AcDbEntity
  8
TRACE
100
AcDbVertex
100
AcDb3dPolylineVertex
 10
-19752.01714006801
 20
21750.89400795526
 30
4904.93141110398
 70
    32
  0
VERTEX
  5
14EF
330
14EC
100
AcDbEntity
  8
TRACE
100
AcDbVertex
100
AcDb3dPolylineVertex
 10
-19751.59776650448
 20
21753.51980776949
 30
4898.286523439574
 70
    32
  0
VERTEX
  5
14F0
330
14EC
100
AcDbEntity
  8
TRACE
100
AcDbVertex
100
AcDb3dPolylineVertex
 10
-19761.87257384491
 20
21689.18674161428
 30
4863.73324101305
 70
    32
  0
VERTEX
  5
14F1
330
14EC
100
AcDbEntity
  8
TRACE
100
AcDbVertex
100
AcDb3dPolylineVertex
 10
-19776.76055239773
 20
21595.96948921991
 30
5036.499755782906
 70
    32
  0
VERTEX
  5
14F2
330
14EC
100
AcDbEntity
  8
TRACE
100
AcDbVertex
100
AcDb3dPolylineVertex
 10
-19765.64698552753
 20
21665.5542326601
 30
5067.066146665677
 70
    32
  0
SEQEND
  5
14F3
330
14EC
100
AcDbEntity
  8
TRACE
  0
POLYLINE
  5
14F4
330
1F
100
AcDbEntity
  8
TRACE
100
AcDb3dPolyline
 66
     1
 10
0.0
 20
0.0
 30
0.0
 70
     8
  0
VERTEX
  5
14F5
330
14F4
100
AcDbEntity
  8
TRACE
100
AcDbVertex
100
AcDb3dPolylineVertex
 10
-19764.38468511641
 20
21673.45780234909
 30
5068.386677155242
 70
    32
  0
VERTEX
  5
14F6
330
14F4
100
AcDbEntity
  8
TRACE
100
AcDbVertex
100
AcDb3dPolylineVertex
 10
-19750.75483965689
 20
21758.79757764423
 30
4900.936051989464
 70
    32
  0
VERTEX
  5
14F7
330
14F4
100
AcDbEntity
  8
TRACE
100
AcDbVertex
100
AcDb3dPolylineVertex
 10
-19741.10909886312
 20
21819.19190524983
 30
4934.160387674276
 70
    32
  0
VERTEX
  5
14F8
330
14F4
100
AcDbEntity
  8
TRACE
100
AcDbVertex
100
AcDb3dPolylineVertex
 10
-19752.64205169957
 20
21746.98128433889
 30
5090.979182313279
 70
    32
  0
VERTEX
  5
14F9
330
14F4
100
AcDbEntity
  8
TRACE
100
AcDbVertex
100
AcDb3dPolylineVertex
 10
-19753.06142526309
 20
21744.35548452466
 30
5093.637127115321
 70
    32
  0
VERTEX
  5
14FA
330
14F4
100
AcDbEntity
  8
TRACE
100
AcDbVertex
100
AcDb3dPolylineVertex
 10
-19764.17499213329
 20
21674.77074108446
 30
5071.044621957279
 70
    32
  0
SEQEND
  5
14FB
330
14F4
100
AcDbEntity
  8
TRACE
  0
POLYLINE
  5
14FC
330
1F
100
AcDbEntity
  8
TRACE
100
AcDb3dPolyline
 66
     1
 10
0.0
 20
0.0
 30
0.0
 70
     8
  0
VERTEX
  5
14FD
330
14FC
100
AcDbEntity
  8
TRACE
100
AcDbVertex
100
AcDb3dPolylineVertex
 10
-19751.37730795033
 20
21754.90015236174
 30
5093.58816916075
 70
    32
  0
VERTEX
  5
14FE
330
14FC
100
AcDbEntity
  8
TRACE
100
AcDbVertex
100
AcDb3dPolylineVertex
 10
-19740.05404809701
 20
21825.79783453731
 30
4939.427319323784
 70
    32
  0
VERTEX
  5
14FF
330
14FC
100
AcDbEntity
  8
TRACE
100
AcDbVertex
100
AcDb3dPolylineVertex
 10
-19739.63467453348
 20
21828.42363435156
 30
4938.098321263462
 70
    32
  0
VERTEX
  5
1500
330
14FC
100
AcDbEntity
  8
TRACE
100
AcDbVertex
100
AcDb3dPolylineVertex
 10
-19731.03738625261
 20
21882.25334593679
 30
4958.032932938071
 70
    32
  0
VERTEX
  5
1501
330
14FC
100
AcDbEntity
  8
TRACE
100
AcDbVertex
100
AcDb3dPolylineVertex
 10
-19740.68311464366
 20
21821.85909598771
 30
5121.49661524148
 70
    32
  0
VERTEX
  5
1502
330
14FC
100
AcDbEntity
  8
TRACE
100
AcDbVertex
100
AcDb3dPolylineVertex
 10
-19751.58700093346
 20
21753.58721362639
 30
5094.917167221074
 70
    32
  0
SEQEND
  5
1503
330
14FC
100
AcDbEntity
  8
TRACE
  0
POLYLINE
  5
1504
330
1F
100
AcDbEntity
  8
TRACE
100
AcDb3dPolyline
 66
     1
 10
0.0
 20
0.0
 30
0.0
 70
     8
  0
VERTEX
  5
1505
330
1504
100
AcDbEntity
  8
TRACE
100
AcDbVertex
100
AcDb3dPolylineVertex
 10
-19739.84435511388
 20
21827.1107732727
 30
5121.496615241478
 70
    32
  0
VERTEX
  5
1506
330
1504
100
AcDbEntity
  8
TRACE
100
AcDbVertex
100
AcDb3dPolylineVertex
 10
-19730.40830730323
 20
21886.19216214294
 30
4956.703934877742
 70
    32
  0
VERTEX
  5
1507
330
1504
100
AcDbEntity
  8
TRACE
100
AcDbVertex
100
AcDb3dPolylineVertex
 10
-19720.76257891219
 20
21946.58641209201
 30
4972.651655008596
 70
    32
  0
VERTEX
  5
1508
330
1504
100
AcDbEntity
  8
TRACE
100
AcDbVertex
100
AcDb3dPolylineVertex
 10
-19728.31141468016
 20
21899.32131652712
 30
5141.43122691609
 70
    32
  0
VERTEX
  5
1509
330
1504
100
AcDbEntity
  8
TRACE
100
AcDbVertex
100
AcDb3dPolylineVertex
 10
-19740.05404809701
 20
21825.79783453731
 30
5121.49661524148
 70
    32
  0
SEQEND
  5
150A
330
1504
100
AcDbEntity
  8
TRACE
  0
POLYLINE
  5
150B
330
1F
100
AcDbEntity
  8
TRACE
100
AcDb3dPolyline
 66
     1
 10
0.0
 20
0.0
 30
0.0
 70
     8
  0
VERTEX
  5
150C
330
150B
100
AcDbEntity
  8
TRACE
100
AcDbVertex
100
AcDb3dPolylineVertex
 10
-19797.35434560853
 20
21467.02674439541
 30
4981.917281482317
 70
    32
  0
VERTEX
  5
150D
330
150B
100
AcDbEntity
  8
TRACE
100
AcDbVertex
100
AcDb3dPolylineVertex
 10
-19809.93573855515
 20
21388.25158512064
 30
5130.762293033805
 70
    32
  0
VERTEX
  5
150E
330
150B
100
AcDbEntity
  8
TRACE
100
AcDbVertex
100
AcDb3dPolylineVertex
 10
-19800.28999776137
 20
21448.64591272623
 30
5158.67073911454
 70
    32
  0
VERTEX
  5
150F
330
150B
100
AcDbEntity
  8
TRACE
100
AcDbVertex
100
AcDb3dPolylineVertex
 10
-19787.28921884849
 20
21530.04694947178
 30
5012.48367236509
 70
    32
  0
VERTEX
  5
1510
330
150B
100
AcDbEntity
  8
TRACE
100
AcDbVertex
100
AcDb3dPolylineVertex
 10
-19796.93495964227
 20
21469.65262186617
 30
4981.91728148232
 70
    32
  0
SEQEND
  5
1511
330
150B
100
AcDbEntity
  8
TRACE
  0
POLYLINE
  5
1512
330
1F
100
AcDbEntity
  8
TRACE
100
AcDb3dPolyline
 66
     1
 10
0.0
 20
0.0
 30
0.0
 70
     8
  0
VERTEX
  5
1513
330
1512
100
AcDbEntity
  8
TRACE
100
AcDbVertex
100
AcDb3dPolylineVertex
 10
-19790.22488340407
 20
21511.66604014606
 30
5178.605350789148
 70
    32
  0
VERTEX
  5
1514
330
1512
100
AcDbEntity
  8
TRACE
100
AcDbVertex
100
AcDb3dPolylineVertex
 10
-19777.64349045745
 20
21590.44119942085
 30
5044.379061308182
 70
    32
  0
VERTEX
  5
1515
330
1512
100
AcDbEntity
  8
TRACE
100
AcDbVertex
100
AcDb3dPolylineVertex
 10
-19786.0310857552
 20
21537.924426571
 30
5017.799561969166
 70
    32
  0
VERTEX
  5
1516
330
1512
100
AcDbEntity
  8
TRACE
100
AcDbVertex
100
AcDb3dPolylineVertex
 10
-19799.03186466808
 20
21456.52338982545
 30
5161.328683916583
 70
    32
  0
VERTEX
  5
1517
330
1512
100
AcDbEntity
  8
TRACE
100
AcDbVertex
100
AcDb3dPolylineVertex
 10
-19789.80549743782
 20
21514.29191761682
 30
5182.592242332905
 70
    32
  0
SEQEND
  5
1518
330
1512
100
AcDbEntity
  8
TRACE
  0
POLYLINE
  5
1519
330
1F
100
AcDbEntity
  8
TRACE
100
AcDb3dPolyline
 66
     1
 10
0.0
 20
0.0
 30
0.0
 70
     8
  0
VERTEX
  5
151A
330
1519
100
AcDbEntity
  8
TRACE
100
AcDbVertex
100
AcDb3dPolylineVertex
 10
-19788.53519726483
 20
21522.24557575934
 30
5185.184345357463
 70
    32
  0
VERTEX
  5
151B
330
1519
100
AcDbEntity
  8
TRACE
100
AcDbVertex
100
AcDb3dPolylineVertex
 10
-19776.58287086485
 20
21597.08199648454
 30
5046.971164332749
 70
    32
  0
VERTEX
  5
151C
330
1519
100
AcDbEntity
  8
TRACE
100
AcDbVertex
100
AcDb3dPolylineVertex
 10
-19769.66310164353
 20
21640.40835349981
 30
5064.247831205316
 70
    32
  0
VERTEX
  5
151D
330
1519
100
AcDbEntity
  8
TRACE
100
AcDbVertex
100
AcDb3dPolylineVertex
 10
-19777.2119374115
 20
21593.14325793492
 30
5193.158231082199
 70
    32
  0
VERTEX
  5
151E
330
1519
100
AcDbEntity
  8
TRACE
100
AcDbVertex
100
AcDb3dPolylineVertex
 10
-19788.3255042817
 20
21523.55851449473
 30
5186.513343417793
 70
    32
  0
SEQEND
  5
151F
330
1519
100
AcDbEntity
  8
TRACE
  0
POLYLINE
  5
1520
330
1F
100
AcDbEntity
  8
TRACE
100
AcDb3dPolyline
 66
     1
 10
0.0
 20
0.0
 30
0.0
 70
     8
  0
VERTEX
  5
1521
330
1520
100
AcDbEntity
  8
TRACE
100
AcDbVertex
100
AcDb3dPolylineVertex
 10
-19766.09837054131
 20
21662.72800137512
 30
5211.763844696477
 70
    32
  0
VERTEX
  5
1522
330
1520
100
AcDbEntity
  8
TRACE
100
AcDbVertex
100
AcDb3dPolylineVertex
 10
-19754.77511068798
 20
21733.6256835507
 30
5096.143168829797
 70
    32
  0
VERTEX
  5
1523
330
1520
100
AcDbEntity
  8
TRACE
100
AcDbVertex
100
AcDb3dPolylineVertex
 10
-19765.04991802841
 20
21669.29261739548
 30
5070.892667551112
 70
    32
  0
VERTEX
  5
1524
330
1520
100
AcDbEntity
  8
TRACE
100
AcDbVertex
100
AcDb3dPolylineVertex
 10
-19776.58287086485
 20
21597.08199648454
 30
5205.118957032073
 70
    32
  0
VERTEX
  5
1525
330
1520
100
AcDbEntity
  8
TRACE
100
AcDbVertex
100
AcDb3dPolylineVertex
 10
-19765.04991802841
 20
21669.29261739548
 30
5209.105899894438
 70
    32
  0
SEQEND
  5
1526
330
1520
100
AcDbEntity
  8
TRACE
  0
POLYLINE
  5
1624
330
1F
100
AcDbEntity
  8
TRACE
100
AcDb3dPolyline
 66
     1
 10
0.0
 20
0.0
 30
0.0
 70
     8
  0
VERTEX
  5
1625
330
1624
100
AcDbEntity
  8
TRACE
100
AcDbVertex
100
AcDb3dPolylineVertex
 10
-19855.14632460878
 20
21105.17711694432
 30
-1132.243780449873
 70
    32
  0
VERTEX
  5
1626
330
1624
100
AcDbEntity
  8
TRACE
100
AcDbVertex
100
AcDb3dPolylineVertex
 10
-19852.53982854982
 20
21121.497022305
 30
652.3126658429902
 70
    32
  0
SEQEND
  5
1627
330
1624
100
AcDbEntity
  8
TRACE
  0
POLYLINE
  5
1628
330
1F
100
AcDbEntity
  8
TRACE
100
AcDb3dPolyline
 66
     1
 10
0.0
 20
0.0
 30
0.0
 70
     8
  0
VERTEX
  5
1629
330
1628
100
AcDbEntity
  8
TRACE
100
AcDbVertex
100
AcDb3dPolylineVertex
 10
-19857.11948758144
 20
21092.82266397516
 30
-635.2233954142673
 70
    32
  0
VERTEX
  5
162A
330
1628
100
AcDbEntity
  8
TRACE
100
AcDbVertex
100
AcDb3dPolylineVertex
 10
-19915.8753324651
 20
20724.93803795064
 30
-635.2233954142672
 70
    32
  0
VERTEX
  5
162B
330
1628
100
AcDbEntity
  8
TRACE
100
AcDbVertex
100
AcDb3dPolylineVertex
 10
-19915.8753324651
 20
20724.93803795064
 30
-1082.082763688133
 70
    32
  0
SEQEND
  5
162C
330
1628
100
AcDbEntity
  8
TRACE
  0
POLYLINE
  5
162D
330
1F
100
AcDbEntity
  8
TRACE
100
AcDb3dPolyline
 66
     1
 10
0.0
 20
0.0
 30
0.0
 70
     8
  0
VERTEX
  5
162E
330
162D
100
AcDbEntity
  8
TRACE
100
AcDbVertex
100
AcDb3dPolylineVertex
 10
-19855.16095983207
 20
21105.08548225409
 30
-618.6730408384053
 70
    32
  0
VERTEX
  5
162F
330
162D
100
AcDbEntity
  8
TRACE
100
AcDbVertex
100
AcDb3dPolylineVertex
 10
-19930.89071187689
 20
20630.92309781215
 30
-614.5354778537463
 70
    32
  0
VERTEX
  5
1630
330
162D
100
AcDbEntity
  8
TRACE
100
AcDbVertex
100
AcDb3dPolylineVertex
 10
-19931.54355446001
 20
20626.83549171916
 30
-238.0150395493858
 70
    32
  0
VERTEX
  5
1631
330
162D
100
AcDbEntity
  8
TRACE
100
AcDbVertex
100
AcDb3dPolylineVertex
 10
-19852.54958949959
 20
21121.43590662601
 30
-233.8774765647197
 70
    32
  0
SEQEND
  5
1632
330
162D
100
AcDbEntity
  8
TRACE
  0
POLYLINE
  5
1633
330
1F
100
AcDbEntity
  8
TRACE
100
AcDb3dPolyline
 66
     1
 10
0.0
 20
0.0
 30
0.0
 70
     8
  0
VERTEX
  5
1634
330
1633
100
AcDbEntity
  8
TRACE
100
AcDbVertex
100
AcDb3dPolylineVertex
 10
-19853.20243208271
 20
21117.34830053303
 30
-225.6022992767922
 70
    32
  0
VERTEX
  5
1635
330
1633
100
AcDbEntity
  8
TRACE
100
AcDbVertex
100
AcDb3dPolylineVertex
 10
-19889.76162914024
 20
20888.44228166975
 30
-225.6022992767922
 70
    32
  0
VERTEX
  5
1636
330
1633
100
AcDbEntity
  8
TRACE
100
AcDbVertex
100
AcDb3dPolylineVertex
 10
-19890.41447172336
 20
20884.35467557677
 30
84.71672072412058
 70
    32
  0
VERTEX
  5
1637
330
1633
100
AcDbEntity
  8
TRACE
100
AcDbVertex
100
AcDb3dPolylineVertex
 10
-19852.54958949959
 20
21121.43590662601
 30
80.5791064208442
 70
    32
  0
SEQEND
  5
1638
330
1633
100
AcDbEntity
  8
TRACE
  0
POLYLINE
  5
1639
330
1F
100
AcDbEntity
  8
TRACE
100
AcDb3dPolyline
 66
     1
 10
0.0
 20
0.0
 30
0.0
 70
     8
  0
VERTEX
  5
163A
330
1639
100
AcDbEntity
  8
TRACE
100
AcDbVertex
100
AcDb3dPolylineVertex
 10
-19891.74181205898
 20
20876.04387511187
 30
77.67170185237652
 70
    32
  0
VERTEX
  5
163B
330
1639
100
AcDbEntity
  8
TRACE
100
AcDbVertex
100
AcDb3dPolylineVertex
 10
-19902.84013597204
 20
20806.55457153126
 30
61.12134727651451
 70
    32
  0
VERTEX
  5
163C
330
1639
100
AcDbEntity
  8
TRACE
100
AcDbVertex
100
AcDb3dPolylineVertex
 10
-19902.84013597204
 20
20806.55457153126
 30
739.6856282938533
 70
    32
  0
VERTEX
  5
163D
330
1639
100
AcDbEntity
  8
TRACE
100
AcDbVertex
100
AcDb3dPolylineVertex
 10
-19853.22409965481
 20
21117.21263459758
 30
731.4104510059181
 70
    32
  0
VERTEX
  5
163E
330
1639
100
AcDbEntity
  8
TRACE
100
AcDbVertex
100
AcDb3dPolylineVertex
 10
-19853.22409965481
 20
21117.21263459758
 30
648.6586781266014
 70
    32
  0
SEQEND
  5
163F
330
1639
100
AcDbEntity
  8
TRACE
  0
POLYLINE
  5
179B
330
1F
100
AcDbEntity
  8
TRACE
100
AcDb3dPolyline
 66
     1
 10
0.0
 20
0.0
 30
0.0
 70
     8
  0
VERTEX
  5
179C
330
179B
100
AcDbEntity
  8
TRACE
100
AcDbVertex
100
AcDb3dPolylineVertex
 10
-19852.60511652895
 20
21121.08823839873
 30
745.4537374950884
 70
    32
  0
VERTEX
  5
179D
330
179B
100
AcDbEntity
  8
TRACE
100
AcDbVertex
100
AcDb3dPolylineVertex
 10
-19837.71899838587
 20
21214.29384231555
 30
983.3678942170605
 70
    32
  0
VERTEX
  5
179E
330
179B
100
AcDbEntity
  8
TRACE
100
AcDbVertex
100
AcDb3dPolylineVertex
 10
-19856.48844900046
 20
21096.77374991099
 30
1188.466314032311
 70
    32
  0
VERTEX
  5
179F
330
179B
100
AcDbEntity
  8
TRACE
100
AcDbVertex
100
AcDb3dPolylineVertex
 10
-19874.61068787208
 20
20983.30600754065
 30
1196.670261088643
 70
    32
  0
VERTEX
  5
17A0
330
179B
100
AcDbEntity
  8
TRACE
100
AcDbVertex
100
AcDb3dPolylineVertex
 10
-19877.19958445491
 20
20967.0962967778
 30
745.4537374950888
 70
    32
  0
VERTEX
  5
17A1
330
179B
100
AcDbEntity
  8
TRACE
100
AcDbVertex
100
AcDb3dPolylineVertex
 10
-19851.31066823754
 20
21129.19309378017
 30
749.55568536395
 70
    32
  0
SEQEND
  5
17A2
330
179B
100
AcDbEntity
  8
TRACE
  0
POLYLINE
  5
18BD
330
1F
100
AcDbEntity
  8
TRACE
100
AcDb3dPolyline
 66
     1
 10
0.0
 20
0.0
 30
0.0
 70
     8
  0
VERTEX
  5
18BE
330
18BD
100
AcDbEntity
  8
TRACE
100
AcDbVertex
100
AcDb3dPolylineVertex
 10
-20700.5082004951
 20
15812.16093818622
 30
-194.6250515970552
 70
    32
  0
VERTEX
  5
18BF
330
18BD
100
AcDbEntity
  8
TRACE
100
AcDbVertex
100
AcDb3dPolylineVertex
 10
-20700.99261398312
 20
15809.12790759608
 30
-335.8476585882401
 70
    32
  0
VERTEX
  5
18C0
330
18BD
100
AcDbEntity
  8
TRACE
100
AcDbVertex
100
AcDb3dPolylineVertex
 10
-20674.10819251403
 20
15977.45780494713
 30
-363.4781630736273
 70
    32
  0
VERTEX
  5
18C1
330
18BD
100
AcDbEntity
  8
TRACE
100
AcDbVertex
100
AcDb3dPolylineVertex
 10
-20668.77974336765
 20
16010.82052018658
 30
-414.1340965165973
 70
    32
  0
VERTEX
  5
18C2
330
18BD
100
AcDbEntity
  8
TRACE
100
AcDbVertex
100
AcDb3dPolylineVertex
 10
-20666.35772553847
 20
16025.98536251124
 30
-450.974752057572
 70
    32
  0
VERTEX
  5
18C3
330
18BD
100
AcDbEntity
  8
TRACE
100
AcDbVertex
100
AcDb3dPolylineVertex
 10
-20644.0751391851
 20
16165.50205167978
 30
-458.6499121496411
 70
    32
  0
VERTEX
  5
18C4
330
18BD
100
AcDbEntity
  8
TRACE
100
AcDbVertex
100
AcDb3dPolylineVertex
 10
-20643.34852515443
 20
16170.05155873674
 30
-546.1465011335849
 70
    32
  0
VERTEX
  5
18C5
330
18BD
100
AcDbEntity
  8
TRACE
100
AcDbVertex
100
AcDb3dPolylineVertex
 10
-20641.41092081327
 20
16182.18337047125
 30
-582.9871566745596
 70
    32
  0
VERTEX
  5
18C6
330
18BD
100
AcDbEntity
  8
TRACE
100
AcDbVertex
100
AcDb3dPolylineVertex
 10
-20642.37972298385
 20
16176.11746460398
 30
-630.5730568718672
 70
    32
  0
VERTEX
  5
18C7
330
18BD
100
AcDbEntity
  8
TRACE
100
AcDbVertex
100
AcDb3dPolylineVertex
 10
-20643.34852515443
 20
16170.05155873674
 30
-750.3052258689958
 70
    32
  0
VERTEX
  5
18C8
330
18BD
100
AcDbEntity
  8
TRACE
100
AcDbVertex
100
AcDb3dPolylineVertex
 10
-20639.23109112401
 20
16195.83181398561
 30
-756.4453436789217
 70
    32
  0
SEQEND
  5
18C9
330
18BD
100
AcDbEntity
  8
TRACE
  0
POLYLINE
  5
18CA
330
1F
100
AcDbEntity
  8
TRACE
100
AcDb3dPolyline
 66
     1
 10
0.0
 20
0.0
 30
0.0
 70
     8
  0
VERTEX
  5
18CB
330
18CA
100
AcDbEntity
  8
TRACE
100
AcDbVertex
100
AcDb3dPolylineVertex
 10
-19554.43255177499
 20
22988.0191402091
 30
-1288.566473369271
 70
    32
  0
VERTEX
  5
18CC
330
18CA
100
AcDbEntity
  8
TRACE
100
AcDbVertex
100
AcDb3dPolylineVertex
 10
-19553.18828007371
 20
22995.80982776372
 30
653.0281499128467
 70
    32
  0
SEQEND
  5
18CD
330
18CA
100
AcDbEntity
  8
TRACE
  0
POLYLINE
  5
18CE
330
1F
100
AcDbEntity
  8
TRACE
100
AcDb3dPolyline
 66
     1
 10
0.0
 20
0.0
 30
0.0
 70
     8
  0
VERTEX
  5
18CF
330
18CE
100
AcDbEntity
  8
TRACE
100
AcDbVertex
100
AcDb3dPolylineVertex
 10
-19562.55154555627
 20
22937.18414674024
 30
-1290.545572023231
 70
    32
  0
VERTEX
  5
18D0
330
18CE
100
AcDbEntity
  8
TRACE
100
AcDbVertex
100
AcDb3dPolylineVertex
 10
-19561.79134802751
 20
22941.94392824148
 30
653.0281499128469
 70
    32
  0
SEQEND
  5
18D1
330
18CE
100
AcDbEntity
  8
TRACE
  0
POLYLINE
  5
1A53
330
1F
100
AcDbEntity
  8
TRACE
100
AcDb3dPolyline
 66
     1
 10
0.0
 20
0.0
 30
0.0
 70
     8
  0
VERTEX
  5
1A54
330
1A53
100
AcDbEntity
  8
TRACE
100
AcDbVertex
100
AcDb3dPolylineVertex
 10
-19553.16576792343
 20
22995.95078180847
 30
653.853522183286
 70
    32
  0
VERTEX
  5
1A55
330
1A53
100
AcDbEntity
  8
TRACE
100
AcDbVertex
100
AcDb3dPolylineVertex
 10
-19553.92179306309
 20
22991.21712464945
 30
2014.088124600134
 70
    32
  0
VERTEX
  5
1A56
330
1A53
100
AcDbEntity
  8
TRACE
100
AcDbVertex
100
AcDb3dPolylineVertex
 10
-19547.53784272987
 20
23031.18858937002
 30
2014.088124600134
 70
    32
  0
VERTEX
  5
1A57
330
1A53
100
AcDbEntity
  8
TRACE
100
AcDbVertex
100
AcDb3dPolylineVertex
 10
-19547.91336119103
 20
23028.8373770111
 30
2099.76866394487
 70
    32
  0
VERTEX
  5
1A58
330
1A53
100
AcDbEntity
  8
TRACE
100
AcDbVertex
100
AcDb3dPolylineVertex
 10
-19568.96281940835
 20
22897.04160282677
 30
2095.453174304656
 70
    32
  0
VERTEX
  5
1A59
330
1A53
100
AcDbEntity
  8
TRACE
100
AcDbVertex
100
AcDb3dPolylineVertex
 10
-19568.58728853869
 20
22899.39289287833
 30
2005.012622110482
 70
    32
  0
VERTEX
  5
1A5A
330
1A53
100
AcDbEntity
  8
TRACE
100
AcDbVertex
100
AcDb3dPolylineVertex
 10
-19560.70122713533
 20
22948.76944011248
 30
2005.012622110482
 70
    32
  0
VERTEX
  5
1A5B
330
1A53
100
AcDbEntity
  8
TRACE
100
AcDbVertex
100
AcDb3dPolylineVertex
 10
-19561.81970458475
 20
22941.76638094427
 30
653.8686168729983
 70
    32
  0
SEQEND
  5
1A5C
330
1A53
100
AcDbEntity
  8
TRACE
  0
POLYLINE
  5
1A7E
330
1F
100
AcDbEntity
  8
TRACE
100
AcDb3dPolyline
 66
     1
 10
0.0
 20
0.0
 30
0.0
 70
     8
  0
VERTEX
  5
1A7F
330
1A7E
100
AcDbEntity
  8
TRACE
100
AcDbVertex
100
AcDb3dPolylineVertex
 10
2701.984146000359
 20
16917.77948293854
 30
657.37207381777
 70
    32
  0
VERTEX
  5
1A80
330
1A7E
100
AcDbEntity
  8
TRACE
100
AcDbVertex
100
AcDb3dPolylineVertex
 10
2701.228120860698
 20
16913.04582577952
 30
2017.606676234618
 70
    32
  0
VERTEX
  5
1A81
330
1A7E
100
AcDbEntity
  8
TRACE
100
AcDbVertex
100
AcDb3dPolylineVertex
 10
2707.612071193915
 20
16953.01729050009
 30
2017.606676234618
 70
    32
  0
VERTEX
  5
1A82
330
1A7E
100
AcDbEntity
  8
TRACE
100
AcDbVertex
100
AcDb3dPolylineVertex
 10
2707.236552732753
 20
16950.66607814118
 30
2103.287215579354
 70
    32
  0
VERTEX
  5
1A83
330
1A7E
100
AcDbEntity
  8
TRACE
100
AcDbVertex
100
AcDb3dPolylineVertex
 10
2686.187094515437
 20
16818.87030395685
 30
2098.97172593914
 70
    32
  0
VERTEX
  5
1A84
330
1A7E
100
AcDbEntity
  8
TRACE
100
AcDbVertex
100
AcDb3dPolylineVertex
 10
2686.562625385086
 20
16821.22159400841
 30
2008.531173744966
 70
    32
  0
VERTEX
  5
1A85
330
1A7E
100
AcDbEntity
  8
TRACE
100
AcDbVertex
100
AcDb3dPolylineVertex
 10
2694.448686788452
 20
16870.59814124255
 30
2008.531173744966
 70
    32
  0
VERTEX
  5
1A86
330
1A7E
100
AcDbEntity
  8
TRACE
100
AcDbVertex
100
AcDb3dPolylineVertex
 10
2693.330209339034
 20
16863.59508207434
 30
657.3871685074823
 70
    32
  0
SEQEND
  5
1A87
330
1A7E
100
AcDbEntity
  8
TRACE
  0
POLYLINE
  5
1AA0
330
1F
100
AcDbEntity
  8
TRACE
100
AcDb3dPolyline
 66
     1
 10
0.0
 20
0.0
 30
0.0
 70
     8
  0
VERTEX
  5
1AA1
330
1AA0
100
AcDbEntity
  8
TRACE
100
AcDbVertex
100
AcDb3dPolylineVertex
 10
2311.979007128234
 20
14475.8625137298
 30
-1239.671641506119
 70
    32
  0
VERTEX
  5
1AA2
330
1AA0
100
AcDbEntity
  8
TRACE
100
AcDbVertex
100
AcDb3dPolylineVertex
 10
2313.201763631991
 20
14483.51848940328
 30
626.128385999405
 70
    32
  0
SEQEND
  5
1AA3
330
1AA0
100
AcDbEntity
  8
TRACE
  0
POLYLINE
  5
1AA8
330
1F
100
AcDbEntity
  8
TRACE
100
AcDb3dPolyline
 66
     1
 10
0.0
 20
0.0
 30
0.0
 70
     8
  0
VERTEX
  5
1AA9
330
1AA8
100
AcDbEntity
  8
TRACE
100
AcDbVertex
100
AcDb3dPolylineVertex
 10
2313.224275782279
 20
14483.65944344803
 30
626.9537582698442
 70
    32
  0
VERTEX
  5
1AAA
330
1AA8
100
AcDbEntity
  8
TRACE
100
AcDbVertex
100
AcDb3dPolylineVertex
 10
2312.468250642618
 20
14478.92578628901
 30
1987.188360686692
 70
    32
  0
VERTEX
  5
1AAB
330
1AA8
100
AcDbEntity
  8
TRACE
100
AcDbVertex
100
AcDb3dPolylineVertex
 10
2318.852200975834
 20
14518.89725100958
 30
1987.188360686692
 70
    32
  0
VERTEX
  5
1AAC
330
1AA8
100
AcDbEntity
  8
TRACE
100
AcDbVertex
100
AcDb3dPolylineVertex
 10
2318.476682514673
 20
14516.54603865067
 30
2072.868900031428
 70
    32
  0
VERTEX
  5
1AAD
330
1AA8
100
AcDbEntity
  8
TRACE
100
AcDbVertex
100
AcDb3dPolylineVertex
 10
2297.427224297357
 20
14384.75026446634
 30
2068.553410391214
 70
    32
  0
VERTEX
  5
1AAE
330
1AA8
100
AcDbEntity
  8
TRACE
100
AcDbVertex
100
AcDb3dPolylineVertex
 10
2297.802755167006
 20
14387.1015545179
 30
1978.112858197041
 70
    32
  0
VERTEX
  5
1AAF
330
1AA8
100
AcDbEntity
  8
TRACE
100
AcDbVertex
100
AcDb3dPolylineVertex
 10
2305.688816570372
 20
14436.47810175204
 30
1978.112858197041
 70
    32
  0
VERTEX
  5
1AB0
330
1AA8
100
AcDbEntity
  8
TRACE
100
AcDbVertex
100
AcDb3dPolylineVertex
 10
2304.570339120953
 20
14429.47504258383
 30
626.9688529595564
 70
    32
  0
SEQEND
  5
1AB1
330
1AA8
100
AcDbEntity
  8
TRACE
  0
POLYLINE
  5
1AB4
330
1F
100
AcDbEntity
  8
TRACE
100
AcDb3dPolyline
 66
     1
 10
0.0
 20
0.0
 30
0.0
 70
     8
  0
VERTEX
  5
1AB5
330
1AB4
100
AcDbEntity
  8
TRACE
100
AcDbVertex
100
AcDb3dPolylineVertex
 10
2700.836589957019
 20
16910.59435562598
 30
-1036.896566858605
 70
    32
  0
VERTEX
  5
1AB6
330
1AB4
100
AcDbEntity
  8
TRACE
100
AcDbVertex
100
AcDb3dPolylineVertex
 10
2701.961633850071
 20
16917.63852889379
 30
656.5467015473309
 70
    32
  0
SEQEND
  5
1AB7
330
1AB4
100
AcDbEntity
  8
TRACE
  0
POLYLINE
  5
1AB8
330
1F
100
AcDbEntity
  8
TRACE
100
AcDb3dPolyline
 66
     1
 10
0.0
 20
0.0
 30
0.0
 70
     8
  0
VERTEX
  5
1AB9
330
1AB8
100
AcDbEntity
  8
TRACE
100
AcDbVertex
100
AcDb3dPolylineVertex
 10
2692.793667680499
 20
16860.23566433833
 30
-1065.53146121471
 70
    32
  0
VERTEX
  5
1ABA
330
1AB8
100
AcDbEntity
  8
TRACE
100
AcDbVertex
100
AcDb3dPolylineVertex
 10
2693.35856589627
 20
16863.77262937156
 30
656.5467015473309
 70
    32
  0
SEQEND
  5
1ABB
330
1AB8
100
AcDbEntity
  8
TRACE
  0
POLYLINE
  5
1ABC
330
1F
100
AcDbEntity
  8
TRACE
100
AcDb3dPolyline
 66
     1
 10
0.0
 20
0.0
 30
0.0
 70
     8
  0
VERTEX
  5
1ABD
330
1ABC
100
AcDbEntity
  8
TRACE
100
AcDbVertex
100
AcDb3dPolylineVertex
 10
2303.986917082445
 20
14425.82209539405
 30
-1238.863449282235
 70
    32
  0
VERTEX
  5
1ABE
330
1ABC
100
AcDbEntity
  8
TRACE
100
AcDbVertex
100
AcDb3dPolylineVertex
 10
2304.598695678189
 20
14429.65258988105
 30
626.128385999405
 70
    32
  0
SEQEND
  5
1ABF
330
1ABC
100
AcDbEntity
  8
TRACE
  0
POLYLINE
  5
1AC1
330
1F
100
AcDbEntity
  8
TRACE
100
AcDb3dPolyline
 66
     1
 10
0.0
 20
0.0
 30
0.0
 70
     8
  0
VERTEX
  5
1AC2
330
1AC1
100
AcDbEntity
  8
TRACE
100
AcDbVertex
100
AcDb3dPolylineVertex
 10
-20719.44895098233
 20
15693.56829564288
 30
466.5195526255991
 70
    32
  0
VERTEX
  5
1AC3
330
1AC1
100
AcDbEntity
  8
TRACE
100
AcDbVertex
100
AcDb3dPolylineVertex
 10
-20712.64650287809
 20
15736.16007662802
 30
958.0026988459444
 70
    32
  0
SEQEND
  5
1AC4
330
1AC1
100
AcDbEntity
  8
TRACE
  0
VIEWPORT
  5
1E78
102
{ACAD_XDICTIONARY
360
1E79
102
}
330
58
100
AcDbEntity
 67
     1
  8
0
100
AcDbViewport
 10
5.249999639556165
 20
3.999999883606678
 30
0.0
 40
14.0440130339877
 41
8.992999745766949
 68
     1
 69
     1
 12
5.249999639556165
 22
3.999999883606678
 13
0.0
 23
0.0
 14
10.0
 24
10.0
 15
10.0
 25
10.0
 16
0.0
 26
0.0
 36
1.0
 17
0.0
 27
0.0
 37
0.0
 42
50.0
 43
0.0
 44
0.0
 45
8.992999745766949
 50
0.0
 51
0.0
 72
  1000
 90
   819232
  1

281
     0
 71
     1
 74
     0
110
0.0
120
0.0
130
0.0
111
1.0
121
0.0
131
0.0
112
0.0
122
1.0
132
0.0
 79
     0
146
0.0
170
     0
 61
     5
348
1E3E
292
     1
282
     1
141
0.0
142
0.0
 63
   250
421
  3355443
  0
VIEWPORT
  5
1E7D
102
{ACAD_XDICTIONARY
360
1E7E
102
}
330
58
100
AcDbEntity
 67
     1
  8
TRACE
100
AcDbViewport
 10
5.249999761581421
 20
3.999999761581421
 30
0.0
 40
8.399999618530275
 41
6.399999618530274
 68
     2
 69
     2
 12
14139.06968689625
 22
10.63248797821779
 13
0.0
 23
0.0
 14
0.5
 24
0.5
 15
0.5
 25
0.5
 16
0.9874848536739321
 26
-0.157713866747896
 36
0.0
 17
-11019.87417332968
 27
2426.787607907741
 37
1915.291453907585
 42
50.0
 43
0.0
 44
0.0
 45
19818.40543971551
 50
0.0
 51
0.0
 72
  1000
 90
   819296
  1

281
     0
 71
     1
 74
     0
110
-22349.64295586152
120
5486.52739579929
130
0.0
111
0.157713866747896
121
0.9874848536739321
131
0.0
112
0.0
122
0.0
132
1.0
 79
     0
146
0.0
170
     0
 61
     5
348
1E3E
292
     1
282
     1
141
0.0
142
0.0
 63
   250
421
  3355443
  0
ENDSEC
  0
SECTION
  2
OBJECTS
  0
DICTIONARY
  5
C
330
0
100
AcDbDictionary
281
     1
  3
ACAD_CIP_PREVIOUS_PRODUCT_INFO
350
1E6C
  3
ACAD_COLOR
350
73
  3
ACAD_DETAILVIEWSTYLE
350
1E67
  3
ACAD_GROUP
350
D
  3
ACAD_LAYOUT
350
1A
  3
ACAD_MATERIAL
350
72
  3
ACAD_MLEADERSTYLE
350
1E63
  3
ACAD_MLINESTYLE
350
17
  3
ACAD_PLOTSETTINGS
350
19
  3
ACAD_PLOTSTYLENAME
350
E
  3
ACAD_SCALELIST
350
1E51
  3
ACAD_SECTIONVIEWSTYLE
350
1E65
  3
ACAD_TABLESTYLE
350
86
  3
ACAD_VISUALSTYLE
350
1E38
  3
ACDB_RECOMPOSE_DATA
350
1EF4
  3
AcDbVariableDictionary
350
66
  3
AcDsDecomposeData
350
1EFA
  3
CyCurrentView
350
1AC5
  3
CyPointControl
350
8D
  3
CyPreferences
350
8C
  0
DICTIONARY
  5
73E
330
2
100
AcDbDictionary
280
     1
281
     1
  3
ACAD_LAYERFILTERS
360
744
  3
ACAD_LAYERSTATES
360
1E70
  3
ACLYDICTIONARY
360
743
  0
DICTIONARY
  5
1E98
330
10
100
AcDbDictionary
280
     1
281
     1
  3
ADSK_XREC_LAYER_RECONCILED
360
1E99
  0
DICTIONARY
  5
1E9A
330
73B
100
AcDbDictionary
280
     1
281
     1
  3
ADSK_XREC_LAYER_RECONCILED
360
1E9B
  0
DICTIONARY
  5
1E9C
330
73D
100
AcDbDictionary
280
     1
281
     1
  3
ADSK_XREC_LAYER_RECONCILED
360
1E9D
  0
DICTIONARY
  5
D73
330
1F
100
AcDbDictionary
280
     1
281
     1
  3
ACAD_SORTENTS
360
D74
  0
DICTIONARY
  5
1E8B
330
1E8A
100
AcDbDictionary
280
     1
281
     1
  3
ASDK_XREC_ANNOTATION_SCALE_INFO
360
1E8C
  0
DICTIONARY
  5
1E8F
330
1E8E
100
AcDbDictionary
280
     1
281
     1
  3
ASDK_XREC_ANNOTATION_SCALE_INFO
360
1E90
  0
DICTIONARY
  5
1E79
330
1E78
100
AcDbDictionary
280
     1
281
     1
  3
ASDK_XREC_ANNOTATION_SCALE_INFO
360
1E7A
  0
DICTIONARY
  5
1E7E
330
1E7D
100
AcDbDictionary
280
     1
281
     1
  3
ASDK_XREC_ANNOTATION_SCALE_INFO
360
1E7F
  0
XRECORD
  5
1E6C
102
{ACAD_REACTORS
330
C
102
}
330
C
100
AcDbXrecord
280
     1
300
ACD
300
2015
300
ACD_F_S
  0
DICTIONARY
  5
73
102
{ACAD_REACTORS
330
C
102
}
330
C
100
AcDbDictionary
281
     1
  0
DICTIONARY
  5
1E67
102
{ACAD_REACTORS
330
C
102
}
330
C
100
AcDbDictionary
281
     1
  3
Imperial24
350
1E68
  0
DICTIONARY
  5
D
102
{ACAD_REACTORS
330
C
102
}
330
C
100
AcDbDictionary
281
     1
  0
DICTIONARY
  5
1A
102
{ACAD_REACTORS
330
C
102
}
330
C
100
AcDbDictionary
281
     1
  3
Layout1
350
59
  3
Layout2
350
5E
  3
Model
350
22
  0
DICTIONARY
  5
72
102
{ACAD_REACTORS
330
C
102
}
330
C
100
AcDbDictionary
281
     1
  3
ByBlock
350
1E28
  3
ByLayer
350
1E20
  3
Global
350
1E30
  0
DICTIONARY
  5
1E63
102
{ACAD_REACTORS
330
C
102
}
330
C
100
AcDbDictionary
281
     1
  3
Standard
350
1E64
  0
DICTIONARY
  5
17
102
{ACAD_REACTORS
330
C
102
}
330
C
100
AcDbDictionary
281
     1
  3
Standard
350
18
  0
DICTIONARY
  5
19
102
{ACAD_REACTORS
330
C
102
}
330
C
100
AcDbDictionary
281
     1
  0
ACDBDICTIONARYWDFLT
  5
E
102
{ACAD_REACTORS
330
C
102
}
330
C
100
AcDbDictionary
281
     1
  3
Normal
350
F
100
AcDbDictionaryWithDefault
340
F
  0
DICTIONARY
  5
1E51
102
{ACAD_REACTORS
330
C
102
}
330
C
100
AcDbDictionary
281
     1
  3
A0
350
1E52
  3
A1
350
1E53
  3
A2
350
1E54
  3
A3
350
1E55
  3
A4
350
1E56
  3
A5
350
1E57
  3
A6
350
1E58
  3
A7
350
1E59
  3
A8
350
1E5A
  3
A9
350
1E5B
  3
B0
350
1E5C
  3
B1
350
1E5D
  3
B2
350
1E5E
  3
B3
350
1E5F
  3
B4
350
1E60
  3
B5
350
1E61
  3
B6
350
1E62
  0
DICTIONARY
  5
1E65
102
{ACAD_REACTORS
330
C
102
}
330
C
100
AcDbDictionary
281
     1
  3
Imperial24
350
1E66
  0
DICTIONARY
  5
86
102
{ACAD_REACTORS
330
C
102
}
330
C
100
AcDbDictionary
281
     1
  3
Standard
350
87
  0
DICTIONARY
  5
1E38
102
{ACAD_REACTORS
330
C
102
}
330
C
100
AcDbDictionary
281
     1
  3
2dWireframe
350
1E3E
  3
Basic
350
1E3D
  3
Brighten
350
1E44
  3
ColorChange
350
1E48
  3
Conceptual
350
1E41
  3
Dim
350
1E43
  3
EdgeColorOff
350
1E50
  3
Facepattern
350
1E47
  3
Flat
350
1E39
  3
FlatWithEdges
350
1E3A
  3
Gouraud
350
1E3B
  3
GouraudWithEdges
350
1E3C
  3
Hidden
350
1E40
  3
JitterOff
350
1E4E
  3
Linepattern
350
1E46
  3
OverhangOff
350
1E4F
  3
Realistic
350
1E42
  3
Shaded
350
1E4D
  3
Shaded with edges
350
1E4C
  3
Shades of Gray
350
1E49
  3
Sketchy
350
1E4A
  3
Thicken
350
1E45
  3
Wireframe
350
1E3F
  3
X-Ray
350
1E4B
  0
XRECORD
  5
1EF4
102
{ACAD_REACTORS
330
C
102
}
330
C
100
AcDbXrecord
280
     1
 90
        1
330
87
  0
DICTIONARY
  5
66
102
{ACAD_REACTORS
330
C
102
}
330
C
100
AcDbDictionary
281
     1
  3
CANNOSCALE
350
1EEE
  3
CMLEADERSTYLE
350
1EEA
  3
CTABLESTYLE
350
C48
  3
CVIEWDETAILSTYLE
350
1EEB
  3
CVIEWSECTIONSTYLE
350
1EEC
  3
DIMASSOC
350
67
  3
HIDETEXT
350
6B
  3
LAYEREVAL
350
1EF0
  3
LAYERNOTIFY
350
1EF1
  3
LIGHTINGUNITS
350
1EEF
  3
MSLTSCALE
350
1EED
  0
DICTIONARY
  5
1EFA
102
{ACAD_REACTORS
330
C
102
}
330
C
100
AcDbDictionary
281
     1
  3
AcDsRecords
350
1EFC
  3
AcDsSchemas
350
1EFB
1001
ACAD
1070
     2
  0
ACAD_PROXY_OBJECT
  5
1AC5
102
{ACAD_REACTORS
330
C
102
}
330
C
100
AcDbProxyObject
 90
      499
 91
      505
 95
  4980761
 70
     0
161
              4834
310
80000000000000000000000000000000000000000000000000000000000000000000000000000000000000000000000000000000000000000000000000000000000000000000000000000000000000000000000000000000000000000000000000000000000000000000000000000000000000000000000000000000000000
310
00000000000000000000000000000000000000000000000000000000000000000000000000000000000000000000000000000000000000000000000000000000000000000000000000000000000000000000000000000000000000000000000000000000000000000000000000000000000000000000000000000000000000
310
00000000000000000000000000000000000000000000000000000000000000000000000000000000000000003C0FC0000000000000000000000000000000000000000000000000000000000000000000000000003C0FC0000000000000000000000000000000000000000000000000000000000000000000000000003C0FC0
310
000000000000000000000000000000000000000000000000000000000000000000000000003C0FC000000000003C0FC0000000000000000000000000000000000000000000000000000000000000000000000000003C0FC0000000000000000000000000000000000000000000000000000000000000000000000000003C0F
310
C0000000000000000000000000000000000000000000000000000000000000000000000000003C0FC000000000000000000000000000000000000000000000002015CC0980000000184000003C3BB6C158373EDF97E7249900000000184000000C
 94
        0
  0
ACAD_PROXY_OBJECT
  5
8D
102
{ACAD_REACTORS
330
C
102
}
330
C
100
AcDbProxyObject
 90
      499
 91
      507
 95
  4980761
 70
     0
161
                34
310
0000C0000C
 94
        0
  0
ACAD_PROXY_OBJECT
  5
8C
102
{ACAD_REACTORS
330
C
102
}
330
C
100
AcDbProxyObject
 90
      499
 91
      506
 95
  4980761
 70
     0
161
              3584
310
00000000000000000000000002000000000000000000000000000000000000000000000000000000000000000000000000000000000000000000000000000000FCA9F1D24D62503F00000000000000000000000000000000000000000000000000000000000000000000000000000000000000000000000000000000000000
310
001000000000000000FFFFFF0000000000000000000000000000000000000000000000000000000000000000000000000000000000000000000000000000000000000000000000F0BFFA7E6ABC7493783F00000000000000000000000000000000000000000000000000000000000000000000000000000000000000000000
310
00006002000000000000000000000000000000000000000000000000000000000000000000000000000000000000000000000000000000000000000000000000000000000000000014400000000000000000FCA9F1D24D62503F00000000000000009A9999999999A93FFA7E6ABC7493783F00000000000000000000000000
310
0000000000000000000000000000000000000000000000000000000000000000000000000000000000000000000000000000000000000000000000000000000000000000
 94
        0
  0
DICTIONARY
  5
744
102
{ACAD_REACTORS
330
73E
102
}
330
73E
100
AcDbDictionary
281
     1
  0
DICTIONARY
  5
1E70
102
{ACAD_REACTORS
330
73E
102
}
330
73E
100
AcDbDictionary
281
     1
  0
DICTIONARY
  5
743
102
{ACAD_REACTORS
330
73E
102
}
330
73E
100
AcDbDictionary
281
     1
1001
ACAD
1000
<All
  0
XRECORD
  5
1E99
102
{ACAD_REACTORS
330
1E98
102
}
330
1E98
100
AcDbXrecord
280
     1
290
     1
  0
XRECORD
  5
1E9B
102
{ACAD_REACTORS
330
1E9A
102
}
330
1E9A
100
AcDbXrecord
280
     1
290
     1
  0
XRECORD
  5
1E9D
102
{ACAD_REACTORS
330
1E9C
102
}
330
1E9C
100
AcDbXrecord
280
     1
290
     1
  0
SORTENTSTABLE
  5
D74
102
{ACAD_REACTORS
330
D73
102
}
330
D73
100
AcDbSortentsTable
330
1F
331
1AA8
  5
1ABC
331
D90
  5
D84
331
1AA0
  5
1AA8
331
D8C
  5
DA1
331
18BD
  5
18BD
331
1512
  5
1512
331
1639
  5
1639
331
CA6
  5
CA6
331
162D
  5
162D
331
1519
  5
1519
331
CB9
  5
CB9
331
1A53
  5
1A53
331
1628
  5
1628
331
1624
  5
1624
331
D4F
  5
D4F
331
CCC
  5
CCC
331
1520
  5
1520
331
749
  5
749
331
14E5
  5
14E5
331
CC0
  5
CC0
331
14DD
  5
14DD
331
1A7E
  5
1AA4
331
179B
  5
179B
331
1504
  5
1504
331
1633
  5
1633
331
14FC
  5
14FC
331
DA1
  5
D9D
331
18CE
  5
18CE
331
14F4
  5
14F4
331
18CA
  5
18CA
331
D99
  5
D90
331
14EC
  5
14EC
331
150B
  5
150B
331
13E8
  5
13E8
331
1ABC
  5
1AB8
331
1AB8
  5
1AA0
331
1AB4
  5
1A7A
  0
XRECORD
  5
1E8C
102
{ACAD_REACTORS
330
1E8B
102
}
330
1E8B
100
AcDbXrecord
280
     1
 90
        1
340
1E52
  0
XRECORD
  5
1E90
102
{ACAD_REACTORS
330
1E8F
102
}
330
1E8F
100
AcDbXrecord
280
     1
 90
        1
340
1E52
  0
XRECORD
  5
1E7A
102
{ACAD_REACTORS
330
1E79
102
}
330
1E79
100
AcDbXrecord
280
     1
 90
        1
340
1E52
  0
XRECORD
  5
1E7F
102
{ACAD_REACTORS
330
1E7E
102
}
330
1E7E
100
AcDbXrecord
280
     1
 90
        1
340
1E52
  0
ACDBDETAILVIEWSTYLE
  5
1E68
102
{ACAD_XDICTIONARY
360
1F31
102
}
102
{ACAD_REACTORS
330
1E67
102
}
330
1E67
100
AcDbModelDocViewStyle
 70
     0
  3
Imperial24
290
     0
100
AcDbDetailViewStyle
 70
     0
 71
     0
 90
        3
 71
     1
340
11
 62
   256
 40
0.24
340
0
 62
   256
 40
0.24
300

 40
0.36
280
     3
 71
     2
340
16
 90
       25
 62
   256
 71
     3
340
11
 62
   256
 40
0.24
 90
        1
 40
0.75
 90
        1
300
%<\AcVar ViewType \f "%tc1">% %<\AcVar ViewDetailId>%\PSCALE %<\AcVar ViewScale \f "%sn">%
 71
     4
340
16
 90
       25
 62
   256
340
16
 90
       25
 62
   256
280
     0
  0
LAYOUT
  5
59
102
{ACAD_REACTORS
330
1A
102
}
330
1A
100
AcDbPlotSettings
  1

  2
none_device
  4
Letter_(8.50_x_11.00_Inches)
  6

 40
6.349999904632568
 41
6.349999904632568
 42
6.350006103515625
 43
6.350006103515625
 44
215.8999938964844
 45
279.3999938964844
 46
0.0
 47
0.0
 48
0.0
 49
0.0
140
0.0
141
0.0
142
1.0
143
1.0
 70
   688
 72
     0
 73
     1
 74
     5
  7

 75
    16
147
1.0
 76
     0
 77
     2
 78
   300
148
0.0
149
0.0
100
AcDbLayout
  1
Layout1
 70
     1
 71
     1
 10
-0.2500002402958907
 20
-0.2499999962453767
 11
10.74999951940822
 21
8.249999763458733
 12
0.0
 22
0.0
 32
0.0
 14
1.049999952316284
 24
0.7999999523162842
 34
0.0
 15
9.449999570846559
 25
7.199999570846558
 35
0.0
146
0.0
 13
0.0
 23
0.0
 33
0.0
 16
1.0
 26
0.0
 36
0.0
 17
0.0
 27
1.0
 37
0.0
 76
     0
330
58
331
1E78
1001
ACAD_PSEXT
1000
None
1000
None
1000
Not applicable
1000
The layout will not be plotted unless a new plotter configuration name is selected.
1070
     0
  0
LAYOUT
  5
5E
102
{ACAD_REACTORS
330
1A
102
}
330
1A
100
AcDbPlotSettings
  1

  2
none_device
  4
Letter_(8.50_x_11.00_Inches)
  6

 40
6.349999904632568
 41
6.349999904632568
 42
6.350006103515625
 43
6.350006103515625
 44
215.8999938964844
 45
279.3999938964844
 46
0.0
 47
0.0
 48
0.0
 49
0.0
140
0.0
141
0.0
142
1.0
143
1.0
 70
   688
 72
     0
 73
     1
 74
     5
  7

 75
    16
147
1.0
 76
     0
 77
     2
 78
   300
148
0.0
149
0.0
100
AcDbLayout
  1
Layout2
 70
     1
 71
     2
 10
-0.2500002402958907
 20
-0.2499999962453767
 11
10.74999951940822
 21
8.249999763458733
 12
0.0
 22
0.0
 32
0.0
 14
1.049999952316284
 24
0.7999999523162842
 34
0.0
 15
9.449999570846559
 25
7.199999570846558
 35
0.0
146
0.0
 13
0.0
 23
0.0
 33
0.0
 16
1.0
 26
0.0
 36
0.0
 17
0.0
 27
1.0
 37
0.0
 76
     0
330
5D
331
1E8A
1001
ACAD_PSEXT
1000
None
1000
None
1000
Not applicable
1000
The layout will not be plotted unless a new plotter configuration name is selected.
1070
     0
  0
LAYOUT
  5
22
102
{ACAD_REACTORS
330
1A
102
}
330
1A
100
AcDbPlotSettings
  1

  2
none_device
  4
ANSI_A_(8.50_x_11.00_Inches)
  6

 40
6.349999904632568
 41
19.04999923706055
 42
6.350006103515625
 43
19.04998779296875
 44
215.8999938964844
 45
279.3999938964844
 46
0.0
 47
0.0
 48
0.0
 49
0.0
140
0.0
141
0.0
142
1.0
143
2.584895464708373
 70
 11952
 72
     0
 73
     1
 74
     0
  7

 75
     0
147
0.3868628397755418
 76
     0
 77
     2
 78
   300
148
0.0
149
0.0
100
AcDbLayout
  1
Model
 70
     1
 71
     0
 10
0.0
 20
0.0
 11
12.0
 21
9.0
 12
0.0
 22
0.0
 32
0.0
 14
0.0
 24
0.0
 34
0.0
 15
0.0
 25
0.0
 35
0.0
146
0.0
 13
0.0
 23
0.0
 33
0.0
 16
1.0
 26
0.0
 36
0.0
 17
0.0
 27
1.0
 37
0.0
 76
     0
330
1F
  0
MATERIAL
  5
1E28
102
{ACAD_XDICTIONARY
360
1E29
102
}
102
{ACAD_REACTORS
330
72
102
}
330
72
100
AcDbMaterial
  1
ByBlock
 72
     0
 43
0.0208333333333333
 43
0.0
 43
0.0
 43
0.0
 43
0.0
 43
0.0208333333333333
 43
0.0
 43
0.0
 43
0.0
 43
0.0
 43
1.0
 43
0.0
 43
0.0
 43
0.0
 43
0.0
 43
1.0
 77
     0
 47
0.0208333333333333
 47
0.0
 47
0.0
 47
0.0
 47
0.0
 47
0.0208333333333333
 47
0.0
 47
0.0
 47
0.0
 47
0.0
 47
1.0
 47
0.0
 47
0.0
 47
0.0
 47
0.0
 47
1.0
171
     0
 49
0.0208333333333333
 49
0.0
 49
0.0
 49
0.0
 49
0.0
 49
0.0208333333333333
 49
0.0
 49
0.0
 49
0.0
 49
0.0
 49
1.0
 49
0.0
 49
0.0
 49
0.0
 49
0.0
 49
1.0
175
     0
142
0.0208333333333333
142
0.0
142
0.0
142
0.0
142
0.0
142
0.0208333333333333
142
0.0
142
0.0
142
0.0
142
0.0
142
1.0
142
0.0
142
0.0
142
0.0
142
0.0
142
1.0
179
     0
144
0.0208333333333333
144
0.0
144
0.0
144
0.0
144
0.0
144
0.0208333333333333
144
0.0
144
0.0
144
0.0
144
0.0
144
1.0
144
0.0
144
0.0
144
0.0
144
0.0
144
1.0
147
0.0208333333333333
147
0.0
147
0.0
147
0.0
147
0.0
147
0.0208333333333333
147
0.0
147
0.0
147
0.0
147
0.0
147
1.0
147
0.0
147
0.0
147
0.0
147
0.0
147
1.0
  0
MATERIAL
  5
1E20
102
{ACAD_XDICTIONARY
360
1E21
102
}
102
{ACAD_REACTORS
330
72
102
}
330
72
100
AcDbMaterial
  1
ByLayer
 72
     0
 43
0.0208333333333333
 43
0.0
 43
0.0
 43
0.0
 43
0.0
 43
0.0208333333333333
 43
0.0
 43
0.0
 43
0.0
 43
0.0
 43
1.0
 43
0.0
 43
0.0
 43
0.0
 43
0.0
 43
1.0
 77
     0
 47
0.0208333333333333
 47
0.0
 47
0.0
 47
0.0
 47
0.0
 47
0.0208333333333333
 47
0.0
 47
0.0
 47
0.0
 47
0.0
 47
1.0
 47
0.0
 47
0.0
 47
0.0
 47
0.0
 47
1.0
171
     0
 49
0.0208333333333333
 49
0.0
 49
0.0
 49
0.0
 49
0.0
 49
0.0208333333333333
 49
0.0
 49
0.0
 49
0.0
 49
0.0
 49
1.0
 49
0.0
 49
0.0
 49
0.0
 49
0.0
 49
1.0
175
     0
142
0.0208333333333333
142
0.0
142
0.0
142
0.0
142
0.0
142
0.0208333333333333
142
0.0
142
0.0
142
0.0
142
0.0
142
1.0
142
0.0
142
0.0
142
0.0
142
0.0
142
1.0
179
     0
144
0.0208333333333333
144
0.0
144
0.0
144
0.0
144
0.0
144
0.0208333333333333
144
0.0
144
0.0
144
0.0
144
0.0
144
1.0
144
0.0
144
0.0
144
0.0
144
0.0
144
1.0
147
0.0208333333333333
147
0.0
147
0.0
147
0.0
147
0.0
147
0.0208333333333333
147
0.0
147
0.0
147
0.0
147
0.0
147
1.0
147
0.0
147
0.0
147
0.0
147
0.0
147
1.0
  0
MATERIAL
  5
1E30
102
{ACAD_XDICTIONARY
360
1E31
102
}
102
{ACAD_REACTORS
330
72
102
}
330
72
100
AcDbMaterial
  1
Global
 72
     0
 43
0.0208333333333333
 43
0.0
 43
0.0
 43
0.0
 43
0.0
 43
0.0208333333333333
 43
0.0
 43
0.0
 43
0.0
 43
0.0
 43
1.0
 43
0.0
 43
0.0
 43
0.0
 43
0.0
 43
1.0
 77
     0
 47
0.0208333333333333
 47
0.0
 47
0.0
 47
0.0
 47
0.0
 47
0.0208333333333333
 47
0.0
 47
0.0
 47
0.0
 47
0.0
 47
1.0
 47
0.0
 47
0.0
 47
0.0
 47
0.0
 47
1.0
171
     0
 49
0.0208333333333333
 49
0.0
 49
0.0
 49
0.0
 49
0.0
 49
0.0208333333333333
 49
0.0
 49
0.0
 49
0.0
 49
0.0
 49
1.0
 49
0.0
 49
0.0
 49
0.0
 49
0.0
 49
1.0
175
     0
142
0.0208333333333333
142
0.0
142
0.0
142
0.0
142
0.0
142
0.0208333333333333
142
0.0
142
0.0
142
0.0
142
0.0
142
1.0
142
0.0
142
0.0
142
0.0
142
0.0
142
1.0
179
     0
144
0.0208333333333333
144
0.0
144
0.0
144
0.0
144
0.0
144
0.0208333333333333
144
0.0
144
0.0
144
0.0
144
0.0
144
1.0
144
0.0
144
0.0
144
0.0
144
0.0
144
1.0
147
0.0208333333333333
147
0.0
147
0.0
147
0.0
147
0.0
147
0.0208333333333333
147
0.0
147
0.0
147
0.0
147
0.0
147
1.0
147
0.0
147
0.0
147
0.0
147
0.0
147
1.0
  0
MLEADERSTYLE
  5
1E64
102
{ACAD_XDICTIONARY
360
1F2D
102
}
102
{ACAD_REACTORS
330
1E63
102
}
330
1E63
100
AcDbMLeaderStyle
179
     2
170
     2
171
     1
172
     0
 90
        2
 40
0.0
 41
0.0
173
     1
 91
-1056964608
340
14
 92
       -2
290
     1
 42
0.09
291
     1
 43
0.36
  3
Standard
 44
0.18
300

342
11
174
     1
178
     6
175
     1
176
     0
 93
-1056964608
 45
0.18
292
     0
297
     0
 46
0.18
 94
-1056964608
 47
1.0
 49
1.0
140
1.0
293
     1
141
0.0
294
     1
177
     0
142
1.0
295
     0
296
     0
143
0.125
271
     0
272
     9
273
     9
  0
MLINESTYLE
  5
18
102
{ACAD_REACTORS
330
17
102
}
330
17
100
AcDbMlineStyle
  2
STANDARD
 70
     0
  3

 62
   256
 51
90.0
 52
90.0
 71
     2
 49
0.5
 62
   256
  6
BYLAYER
 49
-0.5
 62
   256
  6
BYLAYER
  0
ACDBPLACEHOLDER
  5
F
102
{ACAD_REACTORS
330
E
102
}
330
E
  0
SCALE
  5
1E52
102
{ACAD_REACTORS
330
1E51
102
}
330
1E51
100
AcDbScale
 70
     0
300
1:1
140
1.0
141
1.0
290
     1
  0
SCALE
  5
1E53
102
{ACAD_REACTORS
330
1E51
102
}
330
1E51
100
AcDbScale
 70
     0
300
1/128" = 1'-0"
140
0.0078125
141
12.0
290
     0
  0
SCALE
  5
1E54
102
{ACAD_REACTORS
330
1E51
102
}
330
1E51
100
AcDbScale
 70
     0
300
1/64" = 1'-0"
140
0.015625
141
12.0
290
     0
  0
SCALE
  5
1E55
102
{ACAD_REACTORS
330
1E51
102
}
330
1E51
100
AcDbScale
 70
     0
300
1/32" = 1'-0"
140
0.03125
141
12.0
290
     0
  0
SCALE
  5
1E56
102
{ACAD_REACTORS
330
1E51
102
}
330
1E51
100
AcDbScale
 70
     0
300
1/16" = 1'-0"
140
0.0625
141
12.0
290
     0
  0
SCALE
  5
1E57
102
{ACAD_REACTORS
330
1E51
102
}
330
1E51
100
AcDbScale
 70
     0
300
3/32" = 1'-0"
140
0.09375
141
12.0
290
     0
  0
SCALE
  5
1E58
102
{ACAD_REACTORS
330
1E51
102
}
330
1E51
100
AcDbScale
 70
     0
300
1/8" = 1'-0"
140
0.125
141
12.0
290
     0
  0
SCALE
  5
1E59
102
{ACAD_REACTORS
330
1E51
102
}
330
1E51
100
AcDbScale
 70
     0
300
3/16" = 1'-0"
140
0.1875
141
12.0
290
     0
  0
SCALE
  5
1E5A
102
{ACAD_REACTORS
330
1E51
102
}
330
1E51
100
AcDbScale
 70
     0
300
1/4" = 1'-0"
140
0.25
141
12.0
290
     0
  0
SCALE
  5
1E5B
102
{ACAD_REACTORS
330
1E51
102
}
330
1E51
100
AcDbScale
 70
     0
300
3/8" = 1'-0"
140
0.375
141
12.0
290
     0
  0
SCALE
  5
1E5C
102
{ACAD_REACTORS
330
1E51
102
}
330
1E51
100
AcDbScale
 70
     0
300
1/2" = 1'-0"
140
0.5
141
12.0
290
     0
  0
SCALE
  5
1E5D
102
{ACAD_REACTORS
330
1E51
102
}
330
1E51
100
AcDbScale
 70
     0
300
3/4" = 1'-0"
140
0.75
141
12.0
290
     0
  0
SCALE
  5
1E5E
102
{ACAD_REACTORS
330
1E51
102
}
330
1E51
100
AcDbScale
 70
     0
300
1" = 1'-0"
140
1.0
141
12.0
290
     0
  0
SCALE
  5
1E5F
102
{ACAD_REACTORS
330
1E51
102
}
330
1E51
100
AcDbScale
 70
     0
300
1-1/2" = 1'-0"
140
1.5
141
12.0
290
     0
  0
SCALE
  5
1E60
102
{ACAD_REACTORS
330
1E51
102
}
330
1E51
100
AcDbScale
 70
     0
300
3" = 1'-0"
140
3.0
141
12.0
290
     0
  0
SCALE
  5
1E61
102
{ACAD_REACTORS
330
1E51
102
}
330
1E51
100
AcDbScale
 70
     0
300
6" = 1'-0"
140
6.0
141
12.0
290
     0
  0
SCALE
  5
1E62
102
{ACAD_REACTORS
330
1E51
102
}
330
1E51
100
AcDbScale
 70
     0
300
1'-0" = 1'-0"
140
12.0
141
12.0
290
     0
  0
ACDBSECTIONVIEWSTYLE
  5
1E66
102
{ACAD_XDICTIONARY
360
1F2F
102
}
102
{ACAD_REACTORS
330
1E65
102
}
330
1E65
100
AcDbModelDocViewStyle
 70
     0
  3
Imperial24
290
     0
100
AcDbSectionViewStyle
 70
     0
 71
     0
 90
       78
 71
     1
340
11
 62
   256
 40
0.24
340
0
340
0
 62
   256
 40
0.24
300
I, O, Q, S, X, Z
 40
0.48
 90
        3
 40
0.18
 90
        1
 71
     2
340
16
 90
       25
 62
   256
340
16
 90
       50
 62
   256
 40
0.24
 40
0.0
 40
0.24
 71
     3
340
11
 62
   256
 40
0.24
 90
        1
 40
0.75
 90
        1
300
%<\AcVar ViewType \f "%tc1">% %<\AcVar ViewSectionStartId>%-%<\AcVar ViewSectionEndId>%\PSCALE %<\AcVar ViewScale \f "%sn">%
 71
     4
 62
   256
 62
   257
300
ANSI31
 40
1.0
 90
        0
290
     0
290
     0
 90
        6
 40
0.0
 40
1.570796326794896
 40
0.2617993877991494
 40
1.308996938995747
 40
-0.2617993877991494
 40
1.832595714594046
  0
TABLESTYLE
  5
87
102
{ACAD_XDICTIONARY
360
1EF2
102
}
102
{ACAD_REACTORS
330
86
102
}
330
86
100
AcDbTableStyle
280
     0
  3
Standard
 70
     0
 71
     0
 40
0.06
 41
0.06
280
     0
281
     0
  7
Standard
140
0.18
170
     2
 62
     0
 63
     7
283
     0
 90
        4
 91
        0
  1

274
    -2
284
     1
 64
     0
275
    -2
285
     1
 65
     0
276
    -2
286
     1
 66
     0
277
    -2
287
     1
 67
     0
278
    -2
288
     1
 68
     0
279
    -2
289
     1
 69
     0
  7
Standard
140
0.25
170
     5
 62
     0
 63
     7
283
     0
 90
        4
 91
        0
  1

274
    -2
284
     1
 64
     0
275
    -2
285
     1
 65
     0
276
    -2
286
     1
 66
     0
277
    -2
287
     1
 67
     0
278
    -2
288
     1
 68
     0
279
    -2
289
     1
 69
     0
  7
Standard
140
0.18
170
     5
 62
     0
 63
     7
283
     0
 90
        4
 91
        0
  1

274
    -2
284
     1
 64
     0
275
    -2
285
     1
 65
     0
276
    -2
286
     1
 66
     0
277
    -2
287
     1
 67
     0
278
    -2
288
     1
 68
     0
279
    -2
289
     1
 69
     0
  0
VISUALSTYLE
  5
1E3E
102
{ACAD_XDICTIONARY
360
1F07
102
}
102
{ACAD_REACTORS
330
1E38
102
}
330
1E38
100
AcDbVisualStyle
  2
2dWireframe
 70
     4
177
     2
291
     0
 71
     0
176
     1
 72
     2
176
     1
 73
     0
176
     1
 90
        0
176
     1
 40
0.6
176
     1
 41
30.0
176
     1
 63
     7
421
 16777215
176
     1
 74
     1
176
     1
 91
        4
176
     1
 64
     7
176
     1
 65
   257
176
     1
 75
     1
176
     1
175
     1
176
     1
 42
1.0
176
     1
 92
        0
176
     1
 66
   257
176
     1
 43
1.0
176
     1
 76
     1
176
     1
 77
     6
176
     1
 78
     2
176
     1
 67
     7
176
     1
 79
     5
176
     1
170
     0
176
     1
171
     0
176
     1
290
     0
176
     1
 93
        1
176
     1
 44
0.0
176
     1
173
     0
176
     1
1001
ACAD
1000
AcDbSavedByObjectVersion
1070
     0
  0
VISUALSTYLE
  5
1E3D
102
{ACAD_XDICTIONARY
360
1F05
102
}
102
{ACAD_REACTORS
330
1E38
102
}
330
1E38
100
AcDbVisualStyle
  2
Basic
 70
     7
177
     2
291
     1
 71
     1
176
     1
 72
     0
176
     1
 73
     1
176
     1
 90
        0
176
     1
 40
0.6
176
     1
 41
30.0
176
     1
 63
     7
421
 16777215
176
     1
 74
     0
176
     1
 91
        4
176
     1
 64
     7
176
     1
 65
   257
176
     1
 75
     1
176
     1
175
     1
176
     1
 42
1.0
176
     1
 92
        8
176
     1
 66
     7
176
     1
 43
1.0
176
     1
 76
     1
176
     1
 77
     6
176
     1
 78
     2
176
     1
 67
     7
176
     1
 79
     5
176
     1
170
     0
176
     1
171
     0
176
     1
290
     0
176
     1
 93
        1
176
     1
 44
0.0
176
     1
173
     0
176
     1
1001
ACAD
1000
AcDbSavedByObjectVersion
1070
     0
  0
VISUALSTYLE
  5
1E44
102
{ACAD_XDICTIONARY
360
1F13
102
}
102
{ACAD_REACTORS
330
1E38
102
}
330
1E38
100
AcDbVisualStyle
  2
Brighten
 70
    12
177
     2
291
     1
 71
     2
176
     1
 72
     2
176
     1
 73
     0
176
     1
 90
        0
176
     1
 40
0.6
176
     1
 41
30.0
176
     1
 63
     7
421
 16777215
176
     1
 74
     1
176
     1
 91
        4
176
     1
 64
     7
176
     1
 65
   257
176
     1
 75
     1
176
     1
175
     1
176
     1
 42
1.0
176
     1
 92
        8
176
     1
 66
     7
176
     1
 43
1.0
176
     1
 76
     1
176
     1
 77
     6
176
     1
 78
     2
176
     1
 67
     7
176
     1
 79
     5
176
     1
170
     0
176
     1
171
     0
176
     1
290
     0
176
     1
 93
        1
176
     1
 44
50.0
176
     1
173
     0
176
     1
1001
ACAD
1000
AcDbSavedByObjectVersion
1070
     0
  0
VISUALSTYLE
  5
1E48
102
{ACAD_XDICTIONARY
360
1F1B
102
}
102
{ACAD_REACTORS
330
1E38
102
}
330
1E38
100
AcDbVisualStyle
  2
ColorChange
 70
    16
177
     2
291
     1
 71
     2
176
     1
 72
     2
176
     1
 73
     3
176
     1
 90
        0
176
     1
 40
0.6
176
     1
 41
30.0
176
     1
 63
     8
421
  8421504
176
     1
 74
     1
176
     1
 91
        4
176
     1
 64
     7
176
     1
 65
   257
176
     1
 75
     1
176
     1
175
     1
176
     1
 42
1.0
176
     1
 92
        8
176
     1
 66
     8
424
  8421504
176
     1
 43
1.0
176
     1
 76
     1
176
     1
 77
     6
176
     1
 78
     2
176
     1
 67
     7
176
     1
 79
     5
176
     1
170
     0
176
     1
171
     0
176
     1
290
     0
176
     1
 93
        1
176
     1
 44
0.0
176
     1
173
     0
176
     1
1001
ACAD
1000
AcDbSavedByObjectVersion
1070
     0
  0
VISUALSTYLE
  5
1E41
102
{ACAD_XDICTIONARY
360
1F0D
102
}
102
{ACAD_REACTORS
330
1E38
102
}
330
1E38
100
AcDbVisualStyle
  2
Conceptual
 70
     9
177
     2
291
     0
 71
     3
176
     1
 72
     2
176
     1
 73
     0
176
     1
 90
        0
176
     1
 40
0.6
176
     1
 41
30.0
176
     1
 63
     7
421
 16777215
176
     1
 74
     2
176
     1
 91
        2
176
     1
 64
     7
176
     1
 65
   257
176
     1
 75
     1
176
     1
175
     1
176
     1
 42
179.0
176
     1
 92
        8
176
     1
 66
     7
176
     1
 43
1.0
176
     1
 76
     1
176
     1
 77
     6
176
     1
 78
     2
176
     1
 67
     7
176
     1
 79
     3
176
     1
170
     0
176
     1
171
     0
176
     1
290
     0
176
     1
 93
        1
176
     1
 44
0.0
176
     1
173
     0
176
     1
1001
ACAD
1000
AcDbSavedByObjectVersion
1070
     0
  0
VISUALSTYLE
  5
1E43
102
{ACAD_XDICTIONARY
360
1F11
102
}
102
{ACAD_REACTORS
330
1E38
102
}
330
1E38
100
AcDbVisualStyle
  2
Dim
 70
    11
177
     2
291
     1
 71
     2
176
     1
 72
     2
176
     1
 73
     0
176
     1
 90
        0
176
     1
 40
0.6
176
     1
 41
30.0
176
     1
 63
     7
421
 16777215
176
     1
 74
     1
176
     1
 91
        4
176
     1
 64
     7
176
     1
 65
   257
176
     1
 75
     1
176
     1
175
     1
176
     1
 42
1.0
176
     1
 92
        8
176
     1
 66
     7
176
     1
 43
1.0
176
     1
 76
     1
176
     1
 77
     6
176
     1
 78
     2
176
     1
 67
     7
176
     1
 79
     5
176
     1
170
     0
176
     1
171
     0
176
     1
290
     0
176
     1
 93
        1
176
     1
 44
-50.0
176
     1
173
     0
176
     1
1001
ACAD
1000
AcDbSavedByObjectVersion
1070
     0
  0
VISUALSTYLE
  5
1E50
102
{ACAD_XDICTIONARY
360
1F2B
102
}
102
{ACAD_REACTORS
330
1E38
102
}
330
1E38
100
AcDbVisualStyle
  2
EdgeColorOff
 70
    22
177
     2
291
     1
 71
     2
176
     0
 72
     2
176
     0
 73
     0
176
     0
 90
        0
176
     0
 40
0.6
176
     0
 41
30.0
176
     0
 63
     7
421
 16777215
176
     0
 74
     1
176
     0
 91
        4
176
     0
 64
     7
176
     0
 65
   257
176
     0
 75
     1
176
     0
175
     1
176
     0
 42
1.0
176
     0
 92
        8
176
     2
 66
     7
176
     0
 43
1.0
176
     0
 76
     1
176
     0
 77
     6
176
     0
 78
     2
176
     0
 67
     7
176
     0
 79
     5
176
     0
170
     0
176
     0
171
     0
176
     0
290
     0
176
     0
 93
        1
176
     0
 44
0.0
176
     0
173
     0
176
     0
1001
ACAD
1000
AcDbSavedByObjectVersion
1070
     0
  0
VISUALSTYLE
  5
1E47
102
{ACAD_XDICTIONARY
360
1F19
102
}
102
{ACAD_REACTORS
330
1E38
102
}
330
1E38
100
AcDbVisualStyle
  2
Facepattern
 70
    15
177
     2
291
     1
 71
     2
176
     1
 72
     2
176
     1
 73
     0
176
     1
 90
        0
176
     1
 40
0.6
176
     1
 41
30.0
176
     1
 63
     7
421
 16777215
176
     1
 74
     1
176
     1
 91
        4
176
     1
 64
     7
176
     1
 65
   257
176
     1
 75
     1
176
     1
175
     1
176
     1
 42
1.0
176
     1
 92
        8
176
     1
 66
     7
176
     1
 43
1.0
176
     1
 76
     1
176
     1
 77
     6
176
     1
 78
     2
176
     1
 67
     7
176
     1
 79
     5
176
     1
170
     0
176
     1
171
     0
176
     1
290
     0
176
     1
 93
        1
176
     1
 44
0.0
176
     1
173
     0
176
     1
1001
ACAD
1000
AcDbSavedByObjectVersion
1070
     0
  0
VISUALSTYLE
  5
1E39
102
{ACAD_XDICTIONARY
360
1EFD
102
}
102
{ACAD_REACTORS
330
1E38
102
}
330
1E38
100
AcDbVisualStyle
  2
Flat
 70
     0
177
     2
291
     1
 71
     2
176
     1
 72
     1
176
     1
 73
     1
176
     1
 90
        2
176
     1
 40
0.6
176
     1
 41
30.0
176
     1
 63
     7
421
 16777215
176
     1
 74
     0
176
     1
 91
        0
176
     1
 64
     7
176
     1
 65
   257
176
     1
 75
     1
176
     1
175
     1
176
     1
 42
1.0
176
     1
 92
        8
176
     1
 66
     7
176
     1
 43
1.0
176
     1
 76
     1
176
     1
 77
     6
176
     1
 78
     2
176
     1
 67
     7
176
     1
 79
     5
176
     1
170
     0
176
     1
171
     0
176
     1
290
     0
176
     1
 93
       13
176
     1
 44
0.0
176
     1
173
     0
176
     1
1001
ACAD
1000
AcDbSavedByObjectVersion
1070
     0
  0
VISUALSTYLE
  5
1E3A
102
{ACAD_XDICTIONARY
360
1EFF
102
}
102
{ACAD_REACTORS
330
1E38
102
}
330
1E38
100
AcDbVisualStyle
  2
FlatWithEdges
 70
     1
177
     2
291
     1
 71
     2
176
     1
 72
     1
176
     1
 73
     1
176
     1
 90
        2
176
     1
 40
0.6
176
     1
 41
30.0
176
     1
 63
     7
421
 16777215
176
     1
 74
     1
176
     1
 91
        0
176
     1
 64
     7
176
     1
 65
   257
176
     1
 75
     1
176
     1
175
     1
176
     1
 42
1.0
176
     1
 92
        0
176
     1
 66
   257
176
     1
 43
1.0
176
     1
 76
     1
176
     1
 77
     6
176
     1
 78
     2
176
     1
 67
     7
176
     1
 79
     5
176
     1
170
     0
176
     1
171
     0
176
     1
290
     0
176
     1
 93
       13
176
     1
 44
0.0
176
     1
173
     0
176
     1
1001
ACAD
1000
AcDbSavedByObjectVersion
1070
     0
  0
VISUALSTYLE
  5
1E3B
102
{ACAD_XDICTIONARY
360
1F01
102
}
102
{ACAD_REACTORS
330
1E38
102
}
330
1E38
100
AcDbVisualStyle
  2
Gouraud
 70
     2
177
     2
291
     1
 71
     2
176
     1
 72
     2
176
     1
 73
     1
176
     1
 90
        2
176
     1
 40
0.6
176
     1
 41
30.0
176
     1
 63
     7
421
 16777215
176
     1
 74
     0
176
     1
 91
        0
176
     1
 64
     7
176
     1
 65
   257
176
     1
 75
     1
176
     1
175
     1
176
     1
 42
1.0
176
     1
 92
        0
176
     1
 66
     7
176
     1
 43
1.0
176
     1
 76
     1
176
     1
 77
     6
176
     1
 78
     2
176
     1
 67
     7
176
     1
 79
     5
176
     1
170
     0
176
     1
171
     0
176
     1
290
     0
176
     1
 93
       13
176
     1
 44
0.0
176
     1
173
     0
176
     1
1001
ACAD
1000
AcDbSavedByObjectVersion
1070
     0
  0
VISUALSTYLE
  5
1E3C
102
{ACAD_XDICTIONARY
360
1F03
102
}
102
{ACAD_REACTORS
330
1E38
102
}
330
1E38
100
AcDbVisualStyle
  2
GouraudWithEdges
 70
     3
177
     2
291
     1
 71
     2
176
     1
 72
     2
176
     1
 73
     1
176
     1
 90
        2
176
     1
 40
0.6
176
     1
 41
30.0
176
     1
 63
     7
421
 16777215
176
     1
 74
     1
176
     1
 91
        0
176
     1
 64
     7
176
     1
 65
   257
176
     1
 75
     1
176
     1
175
     1
176
     1
 42
1.0
176
     1
 92
        0
176
     1
 66
   257
176
     1
 43
1.0
176
     1
 76
     1
176
     1
 77
     6
176
     1
 78
     2
176
     1
 67
     7
176
     1
 79
     5
176
     1
170
     0
176
     1
171
     0
176
     1
290
     0
176
     1
 93
       13
176
     1
 44
0.0
176
     1
173
     0
176
     1
1001
ACAD
1000
AcDbSavedByObjectVersion
1070
     0
  0
VISUALSTYLE
  5
1E40
102
{ACAD_XDICTIONARY
360
1F0B
102
}
102
{ACAD_REACTORS
330
1E38
102
}
330
1E38
100
AcDbVisualStyle
  2
Hidden
 70
     6
177
     2
291
     0
 71
     1
176
     1
 72
     2
176
     1
 73
     2
176
     1
 90
        0
176
     1
 40
0.6
176
     1
 41
30.0
176
     1
 63
     7
421
 16777215
176
     1
 74
     2
176
     1
 91
        2
176
     1
 64
     7
176
     1
 65
   257
176
     1
 75
     2
176
     1
175
     1
176
     1
 42
40.0
176
     1
 92
        0
176
     1
 66
   257
176
     1
 43
1.0
176
     1
 76
     1
176
     1
 77
     6
176
     1
 78
     2
176
     1
 67
     7
176
     1
 79
     3
176
     1
170
     0
176
     1
171
     0
176
     1
290
     0
176
     1
 93
        1
176
     1
 44
0.0
176
     1
173
     0
176
     1
1001
ACAD
1000
AcDbSavedByObjectVersion
1070
     0
  0
VISUALSTYLE
  5
1E4E
102
{ACAD_XDICTIONARY
360
1F27
102
}
102
{ACAD_REACTORS
330
1E38
102
}
330
1E38
100
AcDbVisualStyle
  2
JitterOff
 70
    20
177
     2
291
     1
 71
     2
176
     0
 72
     2
176
     0
 73
     0
176
     0
 90
        0
176
     0
 40
0.6
176
     0
 41
30.0
176
     0
 63
     7
421
 16777215
176
     0
 74
     1
176
     0
 91
        4
176
     0
 64
     7
176
     0
 65
   257
176
     0
 75
     1
176
     0
175
     1
176
     0
 42
1.0
176
     0
 92
       10
176
     2
 66
     7
176
     0
 43
1.0
176
     0
 76
     1
176
     0
 77
     6
176
     0
 78
     2
176
     0
 67
     7
176
     0
 79
     5
176
     0
170
     0
176
     0
171
     0
176
     0
290
     0
176
     0
 93
        1
176
     0
 44
0.0
176
     0
173
     0
176
     0
1001
ACAD
1000
AcDbSavedByObjectVersion
1070
     0
  0
VISUALSTYLE
  5
1E46
102
{ACAD_XDICTIONARY
360
1F17
102
}
102
{ACAD_REACTORS
330
1E38
102
}
330
1E38
100
AcDbVisualStyle
  2
Linepattern
 70
    14
177
     2
291
     1
 71
     2
176
     1
 72
     2
176
     1
 73
     0
176
     1
 90
        0
176
     1
 40
0.6
176
     1
 41
30.0
176
     1
 63
     7
421
 16777215
176
     1
 74
     1
176
     1
 91
        4
176
     1
 64
     7
176
     1
 65
   257
176
     1
 75
     7
176
     1
175
     7
176
     1
 42
1.0
176
     1
 92
        8
176
     1
 66
     7
176
     1
 43
1.0
176
     1
 76
     1
176
     1
 77
     6
176
     1
 78
     2
176
     1
 67
     7
176
     1
 79
     5
176
     1
170
     0
176
     1
171
     0
176
     1
290
     0
176
     1
 93
        1
176
     1
 44
0.0
176
     1
173
     0
176
     1
1001
ACAD
1000
AcDbSavedByObjectVersion
1070
     0
  0
VISUALSTYLE
  5
1E4F
102
{ACAD_XDICTIONARY
360
1F29
102
}
102
{ACAD_REACTORS
330
1E38
102
}
330
1E38
100
AcDbVisualStyle
  2
OverhangOff
 70
    21
177
     2
291
     1
 71
     2
176
     0
 72
     2
176
     0
 73
     0
176
     0
 90
        0
176
     0
 40
0.6
176
     0
 41
30.0
176
     0
 63
     7
421
 16777215
176
     0
 74
     1
176
     0
 91
        4
176
     0
 64
     7
176
     0
 65
   257
176
     0
 75
     1
176
     0
175
     1
176
     0
 42
1.0
176
     0
 92
        9
176
     2
 66
     7
176
     0
 43
1.0
176
     0
 76
     1
176
     0
 77
     6
176
     0
 78
     2
176
     0
 67
     7
176
     0
 79
     5
176
     0
170
     0
176
     0
171
     0
176
     0
290
     0
176
     0
 93
        1
176
     0
 44
0.0
176
     0
173
     0
176
     0
1001
ACAD
1000
AcDbSavedByObjectVersion
1070
     0
  0
VISUALSTYLE
  5
1E42
102
{ACAD_XDICTIONARY
360
1F0F
102
}
102
{ACAD_REACTORS
330
1E38
102
}
330
1E38
100
AcDbVisualStyle
  2
Realistic
 70
     8
177
     2
291
     0
 71
     2
176
     1
 72
     3
176
     1
 73
     0
176
     1
 90
        2
176
     1
 40
0.6
176
     1
 41
30.0
176
     1
 63
     7
421
 16777215
176
     1
 74
     0
176
     1
 91
        0
176
     1
 64
     7
176
     1
 65
   257
176
     1
 75
     1
176
     1
175
     1
176
     1
 42
1.0
176
     1
 92
        8
176
     1
 66
   257
176
     1
 43
1.0
176
     1
 76
     1
176
     1
 77
     6
176
     1
 78
     2
176
     1
 67
     7
176
     1
 79
     3
176
     1
170
     0
176
     1
171
     0
176
     1
290
     0
176
     1
 93
       13
176
     1
 44
0.0
176
     1
173
     0
176
     1
1001
ACAD
1000
AcDbSavedByObjectVersion
1070
     0
  0
VISUALSTYLE
  5
1E4D
102
{ACAD_XDICTIONARY
360
1F25
102
}
102
{ACAD_REACTORS
330
1E38
102
}
330
1E38
100
AcDbVisualStyle
  2
Shaded
 70
    27
177
     2
291
     0
 71
     2
176
     1
 72
     2
176
     1
 73
     1
176
     1
 90
        2
176
     1
 40
0.6
176
     1
 41
30.0
176
     1
 63
     7
421
 16777215
176
     1
 74
     0
176
     1
 91
        4
176
     1
 64
     7
176
     1
 65
   257
176
     1
 75
     1
176
     1
175
     1
176
     1
 42
1.0
176
     1
 92
        8
176
     1
 66
   257
176
     1
 43
1.0
176
     1
 76
     1
176
     1
 77
     6
176
     1
 78
     2
176
     1
 67
     8
425
  7895160
176
     1
 79
     3
176
     1
170
     0
176
     1
171
     0
176
     1
290
     0
176
     1
 93
        5
176
     1
 44
0.0
176
     1
173
     0
176
     1
1001
ACAD
1000
AcDbSavedByObjectVersion
1070
     0
  0
VISUALSTYLE
  5
1E4C
102
{ACAD_XDICTIONARY
360
1F23
102
}
102
{ACAD_REACTORS
330
1E38
102
}
330
1E38
100
AcDbVisualStyle
  2
Shaded with edges
 70
    26
177
     2
291
     0
 71
     2
176
     1
 72
     2
176
     1
 73
     1
176
     1
 90
        2
176
     1
 40
0.6
176
     1
 41
30.0
176
     1
 63
     7
421
 16777215
176
     1
 74
     1
176
     1
 91
       10
176
     1
 64
     7
176
     1
 65
   257
176
     1
 75
     2
176
     1
175
     1
176
     1
 42
1.0
176
     1
 92
        8
176
     1
 66
   257
176
     1
 43
1.0
176
     1
 76
     1
176
     1
 77
     6
176
     1
 78
     2
176
     1
 67
     7
176
     1
 79
     3
176
     1
170
     0
176
     1
171
     0
176
     1
290
     0
176
     1
 93
        5
176
     1
 44
0.0
176
     1
173
     0
176
     1
1001
ACAD
1000
AcDbSavedByObjectVersion
1070
     0
  0
VISUALSTYLE
  5
1E49
102
{ACAD_XDICTIONARY
360
1F1D
102
}
102
{ACAD_REACTORS
330
1E38
102
}
330
1E38
100
AcDbVisualStyle
  2
Shades of Gray
 70
    23
177
     2
291
     0
 71
     2
176
     1
 72
     2
176
     1
 73
     3
176
     1
 90
        0
176
     1
 40
0.6
176
     1
 41
30.0
176
     1
 63
     7
421
 16777215
176
     1
 74
     2
176
     1
 91
        2
176
     1
 64
     7
176
     1
 65
     7
176
     1
 75
     1
176
     1
175
     1
176
     1
 42
40.0
176
     1
 92
        8
176
     1
 66
     7
176
     1
 43
1.0
176
     1
 76
     1
176
     1
 77
     6
176
     1
 78
     2
176
     1
 67
     7
176
     1
 79
     3
176
     1
170
     0
176
     1
171
     0
176
     1
290
     0
176
     1
 93
        1
176
     1
 44
0.0
176
     1
173
     0
176
     1
1001
ACAD
1000
AcDbSavedByObjectVersion
1070
     0
  0
VISUALSTYLE
  5
1E4A
102
{ACAD_XDICTIONARY
360
1F1F
102
}
102
{ACAD_REACTORS
330
1E38
102
}
330
1E38
100
AcDbVisualStyle
  2
Sketchy
 70
    24
177
     2
291
     0
 71
     1
176
     1
 72
     2
176
     1
 73
     2
176
     1
 90
        0
176
     1
 40
0.6
176
     1
 41
30.0
176
     1
 63
     7
421
 16777215
176
     1
 74
     2
176
     1
 91
        2
176
     1
 64
     7
176
     1
 65
     7
176
     1
 75
     1
176
     1
175
     1
176
     1
 42
40.0
176
     1
 92
       11
176
     1
 66
     7
176
     1
 43
1.0
176
     1
 76
     1
176
     1
 77
     6
176
     1
 78
     2
176
     1
 67
     7
176
     1
 79
     6
176
     1
170
     0
176
     1
171
     0
176
     1
290
     0
176
     1
 93
        1
176
     1
 44
0.0
176
     1
173
     0
176
     1
1001
ACAD
1000
AcDbSavedByObjectVersion
1070
     0
  0
VISUALSTYLE
  5
1E45
102
{ACAD_XDICTIONARY
360
1F15
102
}
102
{ACAD_REACTORS
330
1E38
102
}
330
1E38
100
AcDbVisualStyle
  2
Thicken
 70
    13
177
     2
291
     1
 71
     2
176
     1
 72
     2
176
     1
 73
     0
176
     1
 90
        0
176
     1
 40
0.6
176
     1
 41
30.0
176
     1
 63
     7
421
 16777215
176
     1
 74
     1
176
     1
 91
        4
176
     1
 64
     7
176
     1
 65
   257
176
     1
 75
     1
176
     1
175
     1
176
     1
 42
1.0
176
     1
 92
       12
176
     1
 66
     7
176
     1
 43
1.0
176
     1
 76
     1
176
     1
 77
     6
176
     1
 78
     2
176
     1
 67
     7
176
     1
 79
     5
176
     1
170
     0
176
     1
171
     0
176
     1
290
     0
176
     1
 93
        1
176
     1
 44
0.0
176
     1
173
     0
176
     1
1001
ACAD
1000
AcDbSavedByObjectVersion
1070
     0
  0
VISUALSTYLE
  5
1E3F
102
{ACAD_XDICTIONARY
360
1F09
102
}
102
{ACAD_REACTORS
330
1E38
102
}
330
1E38
100
AcDbVisualStyle
  2
Wireframe
 70
     5
177
     2
291
     0
 71
     0
176
     1
 72
     2
176
     1
 73
     0
176
     1
 90
        0
176
     1
 40
0.6
176
     1
 41
30.0
176
     1
 63
     7
421
 16777215
176
     1
 74
     1
176
     1
 91
        4
176
     1
 64
     7
176
     1
 65
   257
176
     1
 75
     1
176
     1
175
     1
176
     1
 42
1.0
176
     1
 92
        0
176
     1
 66
   257
176
     1
 43
1.0
176
     1
 76
     1
176
     1
 77
     6
176
     1
 78
     2
176
     1
 67
     7
176
     1
 79
     3
176
     1
170
     0
176
     1
171
     0
176
     1
290
     0
176
     1
 93
        1
176
     1
 44
0.0
176
     1
173
     0
176
     1
1001
ACAD
1000
AcDbSavedByObjectVersion
1070
     0
  0
VISUALSTYLE
  5
1E4B
102
{ACAD_XDICTIONARY
360
1F21
102
}
102
{ACAD_REACTORS
330
1E38
102
}
330
1E38
100
AcDbVisualStyle
  2
X-Ray
 70
    25
177
     2
291
     0
 71
     2
176
     1
 72
     2
176
     1
 73
     1
176
     1
 90
        1
176
     1
 40
0.5
176
     1
 41
30.0
176
     1
 63
     7
421
 16777215
176
     1
 74
     1
176
     1
 91
        0
176
     1
 64
     7
176
     1
 65
   257
176
     1
 75
     1
176
     1
175
     1
176
     1
 42
1.0
176
     1
 92
        8
176
     1
 66
     7
176
     1
 43
1.0
176
     1
 76
     1
176
     1
 77
     6
176
     1
 78
     2
176
     1
 67
     7
176
     1
 79
     3
176
     1
170
     0
176
     1
171
     0
176
     1
290
     0
176
     1
 93
       13
176
     1
 44
0.0
176
     1
173
     0
176
     1
1001
ACAD
1000
AcDbSavedByObjectVersion
1070
     0
  0
DICTIONARYVAR
  5
1EEE
102
{ACAD_REACTORS
330
66
102
}
330
66
100
DictionaryVariables
280
     0
  1
1:1
  0
DICTIONARYVAR
  5
1EEA
102
{ACAD_REACTORS
330
66
102
}
330
66
100
DictionaryVariables
280
     0
  1
STANDARD
  0
DICTIONARYVAR
  5
C48
102
{ACAD_REACTORS
330
66
102
}
330
66
100
DictionaryVariables
280
     0
  1
STANDARD
  0
DICTIONARYVAR
  5
1EEB
102
{ACAD_REACTORS
330
66
102
}
330
66
100
DictionaryVariables
280
     0
  1
Imperial24
  0
DICTIONARYVAR
  5
1EEC
102
{ACAD_REACTORS
330
66
102
}
330
66
100
DictionaryVariables
280
     0
  1
Imperial24
  0
DICTIONARYVAR
  5
67
102
{ACAD_REACTORS
330
66
102
}
330
66
100
DictionaryVariables
280
     0
  1
2
  0
DICTIONARYVAR
  5
6B
102
{ACAD_REACTORS
330
66
102
}
330
66
100
DictionaryVariables
280
     0
  1
1
  0
DICTIONARYVAR
  5
1EF0
102
{ACAD_REACTORS
330
66
102
}
330
66
100
DictionaryVariables
280
     0
  1
1
  0
DICTIONARYVAR
  5
1EF1
102
{ACAD_REACTORS
330
66
102
}
330
66
100
DictionaryVariables
280
     0
  1
15
  0
DICTIONARYVAR
  5
1EEF
102
{ACAD_REACTORS
330
66
102
}
330
66
100
DictionaryVariables
280
     0
  1
0
  0
DICTIONARYVAR
  5
1EED
102
{ACAD_REACTORS
330
66
102
}
330
66
100
DictionaryVariables
280
     0
  1
0
  0
DICTIONARY
  5
1EFC
102
{ACAD_REACTORS
330
1EFA
102
}
330
1EFA
100
AcDbDictionary
281
     1
  0
DICTIONARY
  5
1EFB
102
{ACAD_REACTORS
330
1EFA
102
}
330
1EFA
100
AcDbDictionary
281
     1
  3
8796087811152
350
1EF5
  3
8796087811168
350
1EF6
  3
8796087811184
350
1EF7
  3
8796087811200
350
1EF8
  3
8796087811216
350
1EF9
  0
DICTIONARY
  5
1F31
330
1E68
100
AcDbDictionary
280
     1
281
     1
  3
ACAD_XREC_ROUNDTRIP
360
1F32
  0
DICTIONARY
  5
1E29
330
1E28
100
AcDbDictionary
280
     1
281
     1
  3
BUMPTILE
360
1E2B
  3
DIFFUSETILE
360
1E2A
  3
OPACITYTILE
360
1E2E
  3
REFLECTIONTILE
360
1E2D
  3
REFRACTIONTILE
360
1E2F
  3
SPECULARTILE
360
1E2C
  0
DICTIONARY
  5
1E21
330
1E20
100
AcDbDictionary
280
     1
281
     1
  3
BUMPTILE
360
1E23
  3
DIFFUSETILE
360
1E22
  3
OPACITYTILE
360
1E26
  3
REFLECTIONTILE
360
1E25
  3
REFRACTIONTILE
360
1E27
  3
SPECULARTILE
360
1E24
  0
DICTIONARY
  5
1E31
330
1E30
100
AcDbDictionary
280
     1
281
     1
  3
BUMPTILE
360
1E33
  3
DIFFUSETILE
360
1E32
  3
OPACITYTILE
360
1E36
  3
REFLECTIONTILE
360
1E35
  3
REFRACTIONTILE
360
1E37
  3
SPECULARTILE
360
1E34
  0
DICTIONARY
  5
1F2D
330
1E64
100
AcDbDictionary
280
     1
281
     1
  3
ACAD_XREC_ROUNDTRIP
360
1F2E
  0
DICTIONARY
  5
1F2F
330
1E66
100
AcDbDictionary
280
     1
281
     1
  3
ACAD_XREC_ROUNDTRIP
360
1F30
  0
DICTIONARY
  5
1EF2
330
87
100
AcDbDictionary
280
     1
281
     1
  3
ACAD_ROUNDTRIP_2008_TABLESTYLE_CELLSTYLEMAP
360
1EF3
  0
DICTIONARY
  5
1F07
330
1E3E
100
AcDbDictionary
280
     1
281
     1
  3
ACAD_XREC_ROUNDTRIP
360
1F08
  0
DICTIONARY
  5
1F05
330
1E3D
100
AcDbDictionary
280
     1
281
     1
  3
ACAD_XREC_ROUNDTRIP
360
1F06
  0
DICTIONARY
  5
1F13
330
1E44
100
AcDbDictionary
280
     1
281
     1
  3
ACAD_XREC_ROUNDTRIP
360
1F14
  0
DICTIONARY
  5
1F1B
330
1E48
100
AcDbDictionary
280
     1
281
     1
  3
ACAD_XREC_ROUNDTRIP
360
1F1C
  0
DICTIONARY
  5
1F0D
330
1E41
100
AcDbDictionary
280
     1
281
     1
  3
ACAD_XREC_ROUNDTRIP
360
1F0E
  0
DICTIONARY
  5
1F11
330
1E43
100
AcDbDictionary
280
     1
281
     1
  3
ACAD_XREC_ROUNDTRIP
360
1F12
  0
DICTIONARY
  5
1F2B
330
1E50
100
AcDbDictionary
280
     1
281
     1
  3
ACAD_XREC_ROUNDTRIP
360
1F2C
  0
DICTIONARY
  5
1F19
330
1E47
100
AcDbDictionary
280
     1
281
     1
  3
ACAD_XREC_ROUNDTRIP
360
1F1A
  0
DICTIONARY
  5
1EFD
330
1E39
100
AcDbDictionary
280
     1
281
     1
  3
ACAD_XREC_ROUNDTRIP
360
1EFE
  0
DICTIONARY
  5
1EFF
330
1E3A
100
AcDbDictionary
280
     1
281
     1
  3
ACAD_XREC_ROUNDTRIP
360
1F00
  0
DICTIONARY
  5
1F01
330
1E3B
100
AcDbDictionary
280
     1
281
     1
  3
ACAD_XREC_ROUNDTRIP
360
1F02
  0
DICTIONARY
  5
1F03
330
1E3C
100
AcDbDictionary
280
     1
281
     1
  3
ACAD_XREC_ROUNDTRIP
360
1F04
  0
DICTIONARY
  5
1F0B
330
1E40
100
AcDbDictionary
280
     1
281
     1
  3
ACAD_XREC_ROUNDTRIP
360
1F0C
  0
DICTIONARY
  5
1F27
330
1E4E
100
AcDbDictionary
280
     1
281
     1
  3
ACAD_XREC_ROUNDTRIP
360
1F28
  0
DICTIONARY
  5
1F17
330
1E46
100
AcDbDictionary
280
     1
281
     1
  3
ACAD_XREC_ROUNDTRIP
360
1F18
  0
DICTIONARY
  5
1F29
330
1E4F
100
AcDbDictionary
280
     1
281
     1
  3
ACAD_XREC_ROUNDTRIP
360
1F2A
  0
DICTIONARY
  5
1F0F
330
1E42
100
AcDbDictionary
280
     1
281
     1
  3
ACAD_XREC_ROUNDTRIP
360
1F10
  0
DICTIONARY
  5
1F25
330
1E4D
100
AcDbDictionary
280
     1
281
     1
  3
ACAD_XREC_ROUNDTRIP
360
1F26
  0
DICTIONARY
  5
1F23
330
1E4C
100
AcDbDictionary
280
     1
281
     1
  3
ACAD_XREC_ROUNDTRIP
360
1F24
  0
DICTIONARY
  5
1F1D
330
1E49
100
AcDbDictionary
280
     1
281
     1
  3
ACAD_XREC_ROUNDTRIP
360
1F1E
  0
DICTIONARY
  5
1F1F
330
1E4A
100
AcDbDictionary
280
     1
281
     1
  3
ACAD_XREC_ROUNDTRIP
360
1F20
  0
DICTIONARY
  5
1F15
330
1E45
100
AcDbDictionary
280
     1
281
     1
  3
ACAD_XREC_ROUNDTRIP
360
1F16
  0
DICTIONARY
  5
1F09
330
1E3F
100
AcDbDictionary
280
     1
281
     1
  3
ACAD_XREC_ROUNDTRIP
360
1F0A
  0
DICTIONARY
  5
1F21
330
1E4B
100
AcDbDictionary
280
     1
281
     1
  3
ACAD_XREC_ROUNDTRIP
360
1F22
  0
XRECORD
  5
1EF5
102
{ACAD_REACTORS
330
1EFB
102
}
330
1EFB
100
AcDbXrecord
280
     1
  1
AcDb_Thumbnail_Schema
102
{ATTRRECORD
341
1EF6
  2
AcDbDs::TreatedAsObjectData
280
     1
291
     1
102
ATTRRECORD}
102
{ATTRRECORD
341
1EF7
  2
AcDbDs::Legacy
280
     1
291
     1
102
ATTRRECORD}
  2
AcDbDs::ID
280
    10
 91
        8
102
{ATTRRECORD
341
1EF8
  2
AcDs:Indexable
280
     1
291
     1
102
ATTRRECORD}
102
{ATTRRECORD
341
1EF9
  2
AcDbDs::HandleAttribute
280
     7
282
     1
102
ATTRRECORD}
  2
Thumbnail_Data
280
    15
 91
        0
  0
XRECORD
  5
1EF6
102
{ACAD_REACTORS
330
1EFB
102
}
330
1EFB
100
AcDbXrecord
280
     1
  1
AcDbDs::TreatedAsObjectDataSchema
  2
AcDbDs::TreatedAsObjectData
280
     1
 91
        0
  0
XRECORD
  5
1EF7
102
{ACAD_REACTORS
330
1EFB
102
}
330
1EFB
100
AcDbXrecord
280
     1
  1
AcDbDs::LegacySchema
  2
AcDbDs::Legacy
280
     1
 91
        0
  0
XRECORD
  5
1EF8
102
{ACAD_REACTORS
330
1EFB
102
}
330
1EFB
100
AcDbXrecord
280
     1
  1
AcDbDs::IndexedPropertySchema
  2
AcDs:Indexable
280
     1
 91
        0
  0
XRECORD
  5
1EF9
102
{ACAD_REACTORS
330
1EFB
102
}
330
1EFB
100
AcDbXrecord
280
     1
  1
AcDbDs::HandleAttributeSchema
  2
AcDbDs::HandleAttribute
280
     7
 91
        1
284
     1
  0
XRECORD
  5
1F32
102
{ACAD_REACTORS
330
1F31
102
}
330
1F31
100
AcDbXrecord
280
     1
102
DISPLAYNAME
  1
Imperial24
102
FLAGS
 90
        0
  0
XRECORD
  5
1E2B
102
{ACAD_REACTORS
330
1E29
102
}
330
1E29
100
AcDbXrecord
280
     1
270
     1
271
     1
  0
XRECORD
  5
1E2A
102
{ACAD_REACTORS
330
1E29
102
}
330
1E29
100
AcDbXrecord
280
     1
270
     1
271
     1
  0
XRECORD
  5
1E2E
102
{ACAD_REACTORS
330
1E29
102
}
330
1E29
100
AcDbXrecord
280
     1
270
     1
271
     1
  0
XRECORD
  5
1E2D
102
{ACAD_REACTORS
330
1E29
102
}
330
1E29
100
AcDbXrecord
280
     1
270
     1
271
     1
  0
XRECORD
  5
1E2F
102
{ACAD_REACTORS
330
1E29
102
}
330
1E29
100
AcDbXrecord
280
     1
270
     1
271
     1
  0
XRECORD
  5
1E2C
102
{ACAD_REACTORS
330
1E29
102
}
330
1E29
100
AcDbXrecord
280
     1
270
     1
271
     1
  0
XRECORD
  5
1E23
102
{ACAD_REACTORS
330
1E21
102
}
330
1E21
100
AcDbXrecord
280
     1
270
     1
271
     1
  0
XRECORD
  5
1E22
102
{ACAD_REACTORS
330
1E21
102
}
330
1E21
100
AcDbXrecord
280
     1
270
     1
271
     1
  0
XRECORD
  5
1E26
102
{ACAD_REACTORS
330
1E21
102
}
330
1E21
100
AcDbXrecord
280
     1
270
     1
271
     1
  0
XRECORD
  5
1E25
102
{ACAD_REACTORS
330
1E21
102
}
330
1E21
100
AcDbXrecord
280
     1
270
     1
271
     1
  0
XRECORD
  5
1E27
102
{ACAD_REACTORS
330
1E21
102
}
330
1E21
100
AcDbXrecord
280
     1
270
     1
271
     1
  0
XRECORD
  5
1E24
102
{ACAD_REACTORS
330
1E21
102
}
330
1E21
100
AcDbXrecord
280
     1
270
     1
271
     1
  0
XRECORD
  5
1E33
102
{ACAD_REACTORS
330
1E31
102
}
330
1E31
100
AcDbXrecord
280
     1
270
     1
271
     1
  0
XRECORD
  5
1E32
102
{ACAD_REACTORS
330
1E31
102
}
330
1E31
100
AcDbXrecord
280
     1
270
     1
271
     1
  0
XRECORD
  5
1E36
102
{ACAD_REACTORS
330
1E31
102
}
330
1E31
100
AcDbXrecord
280
     1
270
     1
271
     1
  0
XRECORD
  5
1E35
102
{ACAD_REACTORS
330
1E31
102
}
330
1E31
100
AcDbXrecord
280
     1
270
     1
271
     1
  0
XRECORD
  5
1E37
102
{ACAD_REACTORS
330
1E31
102
}
330
1E31
100
AcDbXrecord
280
     1
270
     1
271
     1
  0
XRECORD
  5
1E34
102
{ACAD_REACTORS
330
1E31
102
}
330
1E31
100
AcDbXrecord
280
     1
270
     1
271
     1
  0
XRECORD
  5
1F2E
102
{ACAD_REACTORS
330
1F2D
102
}
330
1F2D
100
AcDbXrecord
280
     1
102
ACAD_ROUNDTRIP_2012_MLEADER_STYLE
298
     1
  0
XRECORD
  5
1F30
102
{ACAD_REACTORS
330
1F2F
102
}
330
1F2F
100
AcDbXrecord
280
     1
102
DISPLAYNAME
  1
Imperial24
102
FLAGS
 90
        0
  0
CELLSTYLEMAP
  5
1EF3
102
{ACAD_REACTORS
330
1EF2
102
}
330
1EF2
100
AcDbCellStyleMap
 90
        3
300
CELLSTYLE
  1
TABLEFORMAT_BEGIN
 90
        5
170
     1
 91
        0
 92
    32768
 62
   257
 93
        1
300
CONTENTFORMAT
  1
CONTENTFORMAT_BEGIN
 90
        0
 91
        0
 92
        4
 93
        0
300

 40
0.0
140
1.0
 94
        5
 62
     0
340
11
144
0.25
309
CONTENTFORMAT_END
171
     0
 94
        6
 95
        1
302
GRIDFORMAT
  1
GRIDFORMAT_BEGIN
 90
        0
 91
        1
 62
     0
 92
       -2
340
0
 93
        0
 40
0.045
309
GRIDFORMAT_END
 95
        2
302
GRIDFORMAT
  1
GRIDFORMAT_BEGIN
 90
        0
 91
        1
 62
     0
 92
       -2
340
0
 93
        0
 40
0.045
309
GRIDFORMAT_END
 95
        4
302
GRIDFORMAT
  1
GRIDFORMAT_BEGIN
 90
        0
 91
        1
 62
     0
 92
       -2
340
0
 93
        0
 40
0.045
309
GRIDFORMAT_END
 95
        8
302
GRIDFORMAT
  1
GRIDFORMAT_BEGIN
 90
        0
 91
        1
 62
     0
 92
       -2
340
0
 93
        0
 40
0.045
309
GRIDFORMAT_END
 95
       16
302
GRIDFORMAT
  1
GRIDFORMAT_BEGIN
 90
        0
 91
        1
 62
     0
 92
       -2
340
0
 93
        0
 40
0.045
309
GRIDFORMAT_END
 95
       32
302
GRIDFORMAT
  1
GRIDFORMAT_BEGIN
 90
        0
 91
        1
 62
     0
 92
       -2
340
0
 93
        0
 40
0.045
309
GRIDFORMAT_END
309
TABLEFORMAT_END
  1
CELLSTYLE_BEGIN
 90
        1
 91
        1
300
_TITLE
309
CELLSTYLE_END
300
CELLSTYLE
  1
TABLEFORMAT_BEGIN
 90
        5
170
     1
 91
        0
 92
        0
 62
   257
 93
        1
300
CONTENTFORMAT
  1
CONTENTFORMAT_BEGIN
 90
        0
 91
        0
 92
        4
 93
        0
300

 40
0.0
140
1.0
 94
        5
 62
     0
340
11
144
0.18
309
CONTENTFORMAT_END
171
     0
 94
        6
 95
        1
302
GRIDFORMAT
  1
GRIDFORMAT_BEGIN
 90
        0
 91
        1
 62
     0
 92
       -2
340
0
 93
        0
 40
0.045
309
GRIDFORMAT_END
 95
        2
302
GRIDFORMAT
  1
GRIDFORMAT_BEGIN
 90
        0
 91
        1
 62
     0
 92
       -2
340
0
 93
        0
 40
0.045
309
GRIDFORMAT_END
 95
        4
302
GRIDFORMAT
  1
GRIDFORMAT_BEGIN
 90
        0
 91
        1
 62
     0
 92
       -2
340
0
 93
        0
 40
0.045
309
GRIDFORMAT_END
 95
        8
302
GRIDFORMAT
  1
GRIDFORMAT_BEGIN
 90
        0
 91
        1
 62
     0
 92
       -2
340
0
 93
        0
 40
0.045
309
GRIDFORMAT_END
 95
       16
302
GRIDFORMAT
  1
GRIDFORMAT_BEGIN
 90
        0
 91
        1
 62
     0
 92
       -2
340
0
 93
        0
 40
0.045
309
GRIDFORMAT_END
 95
       32
302
GRIDFORMAT
  1
GRIDFORMAT_BEGIN
 90
        0
 91
        1
 62
     0
 92
       -2
340
0
 93
        0
 40
0.045
309
GRIDFORMAT_END
309
TABLEFORMAT_END
  1
CELLSTYLE_BEGIN
 90
        2
 91
        1
300
_HEADER
309
CELLSTYLE_END
300
CELLSTYLE
  1
TABLEFORMAT_BEGIN
 90
        5
170
     1
 91
        0
 92
        0
 62
   257
 93
        1
300
CONTENTFORMAT
  1
CONTENTFORMAT_BEGIN
 90
        0
 91
        0
 92
        4
 93
        0
300

 40
0.0
140
1.0
 94
        2
 62
     0
340
11
144
0.18
309
CONTENTFORMAT_END
171
     0
 94
        6
 95
        1
302
GRIDFORMAT
  1
GRIDFORMAT_BEGIN
 90
        0
 91
        1
 62
     0
 92
       -2
340
0
 93
        0
 40
0.045
309
GRIDFORMAT_END
 95
        2
302
GRIDFORMAT
  1
GRIDFORMAT_BEGIN
 90
        0
 91
        1
 62
     0
 92
       -2
340
0
 93
        0
 40
0.045
309
GRIDFORMAT_END
 95
        4
302
GRIDFORMAT
  1
GRIDFORMAT_BEGIN
 90
        0
 91
        1
 62
     0
 92
       -2
340
0
 93
        0
 40
0.045
309
GRIDFORMAT_END
 95
        8
302
GRIDFORMAT
  1
GRIDFORMAT_BEGIN
 90
        0
 91
        1
 62
     0
 92
       -2
340
0
 93
        0
 40
0.045
309
GRIDFORMAT_END
 95
       16
302
GRIDFORMAT
  1
GRIDFORMAT_BEGIN
 90
        0
 91
        1
 62
     0
 92
       -2
340
0
 93
        0
 40
0.045
309
GRIDFORMAT_END
 95
       32
302
GRIDFORMAT
  1
GRIDFORMAT_BEGIN
 90
        0
 91
        1
 62
     0
 92
       -2
340
0
 93
        0
 40
0.045
309
GRIDFORMAT_END
309
TABLEFORMAT_END
  1
CELLSTYLE_BEGIN
 90
        3
 91
        2
300
_DATA
309
CELLSTYLE_END
  0
XRECORD
  5
1F08
102
{ACAD_REACTORS
330
1F07
102
}
330
1F07
100
AcDbXrecord
280
     1
102
RTVSPost2010Prop28
280
     1
102
RTVSPost2010PropOp28
 70
     1
102
RTVSPost2010Prop29
280
     1
102
RTVSPost2010PropOp29
 70
     1
102
RTVSPost2010Prop30
280
     0
102
RTVSPost2010PropOp30
 70
     1
102
RTVSPost2010Prop31
280
     0
102
RTVSPost2010PropOp31
 70
     1
102
RTVSPost2010Prop32
280
     0
102
RTVSPost2010PropOp32
 70
     1
102
RTVSPost2010Prop33
280
     0
102
RTVSPost2010PropOp33
 70
     1
102
RTVSPost2010Prop34
280
     0
102
RTVSPost2010PropOp34
 70
     1
102
RTVSPost2010Prop35
280
     0
102
RTVSPost2010PropOp35
 70
     1
102
RTVSPost2010Prop36
280
     0
102
RTVSPost2010PropOp36
 70
     1
102
RTVSPost2010Prop37
 90
       50
102
RTVSPost2010PropOp37
 70
     1
102
RTVSPost2010Prop38
140
0.0
102
RTVSPost2010PropOp38
 70
     1
102
RTVSPost2010Prop39
140
1.0
102
RTVSPost2010PropOp39
 70
     1
102
RTVSPost2010Prop40
 90
        0
102
RTVSPost2010PropOp40
 70
     1
102
RTVSPost2010Prop41ColorIndex
 90
       18
102
RTVSPost2010Prop41ColorRGB
 90
        0
102
RTVSPost2010PropOp41
 70
     1
102
RTVSPost2010Prop42
 90
       50
102
RTVSPost2010PropOp42
 70
     1
102
RTVSPost2010Prop43
 90
        3
102
RTVSPost2010PropOp43
 70
     1
102
RTVSPost2010Prop44ColorIndex
 90
        5
102
RTVSPost2010Prop44ColorRGB
 90
      255
102
RTVSPost2010PropOp44
 70
     1
102
RTVSPost2010Prop45
280
     0
102
RTVSPost2010PropOp45
 70
     1
102
RTVSPost2010Prop46
 90
       50
102
RTVSPost2010PropOp46
 70
     1
102
RTVSPost2010Prop47
 90
       50
102
RTVSPost2010PropOp47
 70
     1
102
RTVSPost2010Prop48
 90
       50
102
RTVSPost2010PropOp48
 70
     1
102
RTVSPost2010Prop49
280
     0
102
RTVSPost2010PropOp49
 70
     1
102
RTVSPost2010Prop50
 90
       50
102
RTVSPost2010PropOp50
 70
     1
102
RTVSPost2010Prop51ColorIndex
 90
      256
102
RTVSPost2010Prop51ColorRGB
 90
-16777216
102
RTVSPost2010PropOp51
 70
     0
102
RTVSPost2010Prop52
140
1.0
102
RTVSPost2010PropOp52
 70
     0
102
RTVSPost2010Prop53
 90
        2
102
RTVSPost2010PropOp53
 70
     1
102
RTVSPost2010Prop54
  1
strokes_ogs.tif
102
RTVSPost2010PropOp54
 70
     1
102
RTVSPost2010Prop55
280
     0
102
RTVSPost2010PropOp55
 70
     1
102
RTVSPost2010Prop56
140
1.0
102
RTVSPost2010PropOp56
 70
     1
102
RTVSPost2010Prop57
140
1.0
102
RTVSPost2010PropOp57
 70
     1
  0
XRECORD
  5
1F06
102
{ACAD_REACTORS
330
1F05
102
}
330
1F05
100
AcDbXrecord
280
     1
102
RTVSPost2010Prop28
280
     0
102
RTVSPost2010PropOp28
 70
     1
102
RTVSPost2010Prop29
280
     1
102
RTVSPost2010PropOp29
 70
     1
102
RTVSPost2010Prop30
280
     1
102
RTVSPost2010PropOp30
 70
     1
102
RTVSPost2010Prop31
280
     0
102
RTVSPost2010PropOp31
 70
     1
102
RTVSPost2010Prop32
280
     0
102
RTVSPost2010PropOp32
 70
     1
102
RTVSPost2010Prop33
280
     0
102
RTVSPost2010PropOp33
 70
     1
102
RTVSPost2010Prop34
280
     0
102
RTVSPost2010PropOp34
 70
     1
102
RTVSPost2010Prop35
280
     0
102
RTVSPost2010PropOp35
 70
     1
102
RTVSPost2010Prop36
280
     0
102
RTVSPost2010PropOp36
 70
     1
102
RTVSPost2010Prop37
 90
       50
102
RTVSPost2010PropOp37
 70
     1
102
RTVSPost2010Prop38
140
0.0
102
RTVSPost2010PropOp38
 70
     1
102
RTVSPost2010Prop39
140
1.0
102
RTVSPost2010PropOp39
 70
     1
102
RTVSPost2010Prop40
 90
        0
102
RTVSPost2010PropOp40
 70
     1
102
RTVSPost2010Prop41ColorIndex
 90
       18
102
RTVSPost2010Prop41ColorRGB
 90
        0
102
RTVSPost2010PropOp41
 70
     1
102
RTVSPost2010Prop42
 90
       50
102
RTVSPost2010PropOp42
 70
     1
102
RTVSPost2010Prop43
 90
        3
102
RTVSPost2010PropOp43
 70
     1
102
RTVSPost2010Prop44ColorIndex
 90
        5
102
RTVSPost2010Prop44ColorRGB
 90
      255
102
RTVSPost2010PropOp44
 70
     1
102
RTVSPost2010Prop45
280
     0
102
RTVSPost2010PropOp45
 70
     1
102
RTVSPost2010Prop46
 90
       50
102
RTVSPost2010PropOp46
 70
     1
102
RTVSPost2010Prop47
 90
       50
102
RTVSPost2010PropOp47
 70
     1
102
RTVSPost2010Prop48
 90
       50
102
RTVSPost2010PropOp48
 70
     1
102
RTVSPost2010Prop49
280
     0
102
RTVSPost2010PropOp49
 70
     1
102
RTVSPost2010Prop50
 90
       50
102
RTVSPost2010PropOp50
 70
     1
102
RTVSPost2010Prop51ColorIndex
 90
      256
102
RTVSPost2010Prop51ColorRGB
 90
-16777216
102
RTVSPost2010PropOp51
 70
     0
102
RTVSPost2010Prop52
140
1.0
102
RTVSPost2010PropOp52
 70
     0
102
RTVSPost2010Prop53
 90
        2
102
RTVSPost2010PropOp53
 70
     1
102
RTVSPost2010Prop54
  1
strokes_ogs.tif
102
RTVSPost2010PropOp54
 70
     1
102
RTVSPost2010Prop55
280
     0
102
RTVSPost2010PropOp55
 70
     1
102
RTVSPost2010Prop56
140
1.0
102
RTVSPost2010PropOp56
 70
     1
102
RTVSPost2010Prop57
140
1.0
102
RTVSPost2010PropOp57
 70
     1
  0
XRECORD
  5
1F14
102
{ACAD_REACTORS
330
1F13
102
}
330
1F13
100
AcDbXrecord
280
     1
102
RTVSPost2010Prop28
280
     0
102
RTVSPost2010PropOp28
 70
     1
102
RTVSPost2010Prop29
280
     1
102
RTVSPost2010PropOp29
 70
     1
102
RTVSPost2010Prop30
280
     1
102
RTVSPost2010PropOp30
 70
     1
102
RTVSPost2010Prop31
280
     0
102
RTVSPost2010PropOp31
 70
     1
102
RTVSPost2010Prop32
280
     0
102
RTVSPost2010PropOp32
 70
     1
102
RTVSPost2010Prop33
280
     0
102
RTVSPost2010PropOp33
 70
     1
102
RTVSPost2010Prop34
280
     0
102
RTVSPost2010PropOp34
 70
     1
102
RTVSPost2010Prop35
280
     0
102
RTVSPost2010PropOp35
 70
     1
102
RTVSPost2010Prop36
280
     0
102
RTVSPost2010PropOp36
 70
     1
102
RTVSPost2010Prop37
 90
       50
102
RTVSPost2010PropOp37
 70
     1
102
RTVSPost2010Prop38
140
0.0
102
RTVSPost2010PropOp38
 70
     1
102
RTVSPost2010Prop39
140
1.0
102
RTVSPost2010PropOp39
 70
     1
102
RTVSPost2010Prop40
 90
        0
102
RTVSPost2010PropOp40
 70
     1
102
RTVSPost2010Prop41ColorIndex
 90
       18
102
RTVSPost2010Prop41ColorRGB
 90
        0
102
RTVSPost2010PropOp41
 70
     1
102
RTVSPost2010Prop42
 90
       50
102
RTVSPost2010PropOp42
 70
     1
102
RTVSPost2010Prop43
 90
        3
102
RTVSPost2010PropOp43
 70
     1
102
RTVSPost2010Prop44ColorIndex
 90
        5
102
RTVSPost2010Prop44ColorRGB
 90
      255
102
RTVSPost2010PropOp44
 70
     1
102
RTVSPost2010Prop45
280
     0
102
RTVSPost2010PropOp45
 70
     1
102
RTVSPost2010Prop46
 90
       50
102
RTVSPost2010PropOp46
 70
     1
102
RTVSPost2010Prop47
 90
       50
102
RTVSPost2010PropOp47
 70
     1
102
RTVSPost2010Prop48
 90
       50
102
RTVSPost2010PropOp48
 70
     1
102
RTVSPost2010Prop49
280
     0
102
RTVSPost2010PropOp49
 70
     1
102
RTVSPost2010Prop50
 90
       50
102
RTVSPost2010PropOp50
 70
     1
102
RTVSPost2010Prop51ColorIndex
 90
      256
102
RTVSPost2010Prop51ColorRGB
 90
-16777216
102
RTVSPost2010PropOp51
 70
     0
102
RTVSPost2010Prop52
140
1.0
102
RTVSPost2010PropOp52
 70
     0
102
RTVSPost2010Prop53
 90
        2
102
RTVSPost2010PropOp53
 70
     1
102
RTVSPost2010Prop54
  1
strokes_ogs.tif
102
RTVSPost2010PropOp54
 70
     1
102
RTVSPost2010Prop55
280
     0
102
RTVSPost2010PropOp55
 70
     1
102
RTVSPost2010Prop56
140
1.0
102
RTVSPost2010PropOp56
 70
     1
102
RTVSPost2010Prop57
140
1.0
102
RTVSPost2010PropOp57
 70
     1
  0
XRECORD
  5
1F1C
102
{ACAD_REACTORS
330
1F1B
102
}
330
1F1B
100
AcDbXrecord
280
     1
102
RTVSPost2010Prop28
280
     0
102
RTVSPost2010PropOp28
 70
     1
102
RTVSPost2010Prop29
280
     1
102
RTVSPost2010PropOp29
 70
     1
102
RTVSPost2010Prop30
280
     1
102
RTVSPost2010PropOp30
 70
     1
102
RTVSPost2010Prop31
280
     0
102
RTVSPost2010PropOp31
 70
     1
102
RTVSPost2010Prop32
280
     0
102
RTVSPost2010PropOp32
 70
     1
102
RTVSPost2010Prop33
280
     0
102
RTVSPost2010PropOp33
 70
     1
102
RTVSPost2010Prop34
280
     0
102
RTVSPost2010PropOp34
 70
     1
102
RTVSPost2010Prop35
280
     0
102
RTVSPost2010PropOp35
 70
     1
102
RTVSPost2010Prop36
280
     0
102
RTVSPost2010PropOp36
 70
     1
102
RTVSPost2010Prop37
 90
       50
102
RTVSPost2010PropOp37
 70
     1
102
RTVSPost2010Prop38
140
0.0
102
RTVSPost2010PropOp38
 70
     1
102
RTVSPost2010Prop39
140
1.0
102
RTVSPost2010PropOp39
 70
     1
102
RTVSPost2010Prop40
 90
        0
102
RTVSPost2010PropOp40
 70
     1
102
RTVSPost2010Prop41ColorIndex
 90
       18
102
RTVSPost2010Prop41ColorRGB
 90
        0
102
RTVSPost2010PropOp41
 70
     1
102
RTVSPost2010Prop42
 90
       50
102
RTVSPost2010PropOp42
 70
     1
102
RTVSPost2010Prop43
 90
        3
102
RTVSPost2010PropOp43
 70
     1
102
RTVSPost2010Prop44ColorIndex
 90
        5
102
RTVSPost2010Prop44ColorRGB
 90
      255
102
RTVSPost2010PropOp44
 70
     1
102
RTVSPost2010Prop45
280
     0
102
RTVSPost2010PropOp45
 70
     1
102
RTVSPost2010Prop46
 90
       50
102
RTVSPost2010PropOp46
 70
     1
102
RTVSPost2010Prop47
 90
       50
102
RTVSPost2010PropOp47
 70
     1
102
RTVSPost2010Prop48
 90
       50
102
RTVSPost2010PropOp48
 70
     1
102
RTVSPost2010Prop49
280
     0
102
RTVSPost2010PropOp49
 70
     1
102
RTVSPost2010Prop50
 90
       50
102
RTVSPost2010PropOp50
 70
     1
102
RTVSPost2010Prop51ColorIndex
 90
      256
102
RTVSPost2010Prop51ColorRGB
 90
-16777216
102
RTVSPost2010PropOp51
 70
     0
102
RTVSPost2010Prop52
140
1.0
102
RTVSPost2010PropOp52
 70
     0
102
RTVSPost2010Prop53
 90
        2
102
RTVSPost2010PropOp53
 70
     1
102
RTVSPost2010Prop54
  1
strokes_ogs.tif
102
RTVSPost2010PropOp54
 70
     1
102
RTVSPost2010Prop55
280
     0
102
RTVSPost2010PropOp55
 70
     1
102
RTVSPost2010Prop56
140
1.0
102
RTVSPost2010PropOp56
 70
     1
102
RTVSPost2010Prop57
140
1.0
102
RTVSPost2010PropOp57
 70
     1
  0
XRECORD
  5
1F0E
102
{ACAD_REACTORS
330
1F0D
102
}
330
1F0D
100
AcDbXrecord
280
     1
102
RTVSPost2010Prop28
280
     0
102
RTVSPost2010PropOp28
 70
     1
102
RTVSPost2010Prop29
280
     1
102
RTVSPost2010PropOp29
 70
     1
102
RTVSPost2010Prop30
280
     1
102
RTVSPost2010PropOp30
 70
     1
102
RTVSPost2010Prop31
280
     0
102
RTVSPost2010PropOp31
 70
     1
102
RTVSPost2010Prop32
280
     0
102
RTVSPost2010PropOp32
 70
     1
102
RTVSPost2010Prop33
280
     0
102
RTVSPost2010PropOp33
 70
     1
102
RTVSPost2010Prop34
280
     0
102
RTVSPost2010PropOp34
 70
     1
102
RTVSPost2010Prop35
280
     0
102
RTVSPost2010PropOp35
 70
     1
102
RTVSPost2010Prop36
280
     0
102
RTVSPost2010PropOp36
 70
     1
102
RTVSPost2010Prop37
 90
       50
102
RTVSPost2010PropOp37
 70
     1
102
RTVSPost2010Prop38
140
0.0
102
RTVSPost2010PropOp38
 70
     1
102
RTVSPost2010Prop39
140
1.0
102
RTVSPost2010PropOp39
 70
     1
102
RTVSPost2010Prop40
 90
        0
102
RTVSPost2010PropOp40
 70
     1
102
RTVSPost2010Prop41ColorIndex
 90
       18
102
RTVSPost2010Prop41ColorRGB
 90
        0
102
RTVSPost2010PropOp41
 70
     1
102
RTVSPost2010Prop42
 90
       50
102
RTVSPost2010PropOp42
 70
     1
102
RTVSPost2010Prop43
 90
        3
102
RTVSPost2010PropOp43
 70
     1
102
RTVSPost2010Prop44ColorIndex
 90
        5
102
RTVSPost2010Prop44ColorRGB
 90
      255
102
RTVSPost2010PropOp44
 70
     1
102
RTVSPost2010Prop45
280
     0
102
RTVSPost2010PropOp45
 70
     1
102
RTVSPost2010Prop46
 90
       50
102
RTVSPost2010PropOp46
 70
     1
102
RTVSPost2010Prop47
 90
       50
102
RTVSPost2010PropOp47
 70
     1
102
RTVSPost2010Prop48
 90
       50
102
RTVSPost2010PropOp48
 70
     1
102
RTVSPost2010Prop49
280
     0
102
RTVSPost2010PropOp49
 70
     1
102
RTVSPost2010Prop50
 90
       50
102
RTVSPost2010PropOp50
 70
     1
102
RTVSPost2010Prop51ColorIndex
 90
      256
102
RTVSPost2010Prop51ColorRGB
 90
-16777216
102
RTVSPost2010PropOp51
 70
     0
102
RTVSPost2010Prop52
140
1.0
102
RTVSPost2010PropOp52
 70
     0
102
RTVSPost2010Prop53
 90
        2
102
RTVSPost2010PropOp53
 70
     1
102
RTVSPost2010Prop54
  1
strokes_ogs.tif
102
RTVSPost2010PropOp54
 70
     1
102
RTVSPost2010Prop55
280
     0
102
RTVSPost2010PropOp55
 70
     1
102
RTVSPost2010Prop56
140
1.0
102
RTVSPost2010PropOp56
 70
     1
102
RTVSPost2010Prop57
140
1.0
102
RTVSPost2010PropOp57
 70
     1
  0
XRECORD
  5
1F12
102
{ACAD_REACTORS
330
1F11
102
}
330
1F11
100
AcDbXrecord
280
     1
102
RTVSPost2010Prop28
280
     0
102
RTVSPost2010PropOp28
 70
     1
102
RTVSPost2010Prop29
280
     1
102
RTVSPost2010PropOp29
 70
     1
102
RTVSPost2010Prop30
280
     1
102
RTVSPost2010PropOp30
 70
     1
102
RTVSPost2010Prop31
280
     0
102
RTVSPost2010PropOp31
 70
     1
102
RTVSPost2010Prop32
280
     0
102
RTVSPost2010PropOp32
 70
     1
102
RTVSPost2010Prop33
280
     0
102
RTVSPost2010PropOp33
 70
     1
102
RTVSPost2010Prop34
280
     0
102
RTVSPost2010PropOp34
 70
     1
102
RTVSPost2010Prop35
280
     0
102
RTVSPost2010PropOp35
 70
     1
102
RTVSPost2010Prop36
280
     0
102
RTVSPost2010PropOp36
 70
     1
102
RTVSPost2010Prop37
 90
       50
102
RTVSPost2010PropOp37
 70
     1
102
RTVSPost2010Prop38
140
0.0
102
RTVSPost2010PropOp38
 70
     1
102
RTVSPost2010Prop39
140
1.0
102
RTVSPost2010PropOp39
 70
     1
102
RTVSPost2010Prop40
 90
        0
102
RTVSPost2010PropOp40
 70
     1
102
RTVSPost2010Prop41ColorIndex
 90
       18
102
RTVSPost2010Prop41ColorRGB
 90
        0
102
RTVSPost2010PropOp41
 70
     1
102
RTVSPost2010Prop42
 90
       50
102
RTVSPost2010PropOp42
 70
     1
102
RTVSPost2010Prop43
 90
        3
102
RTVSPost2010PropOp43
 70
     1
102
RTVSPost2010Prop44ColorIndex
 90
        5
102
RTVSPost2010Prop44ColorRGB
 90
      255
102
RTVSPost2010PropOp44
 70
     1
102
RTVSPost2010Prop45
280
     0
102
RTVSPost2010PropOp45
 70
     1
102
RTVSPost2010Prop46
 90
       50
102
RTVSPost2010PropOp46
 70
     1
102
RTVSPost2010Prop47
 90
       50
102
RTVSPost2010PropOp47
 70
     1
102
RTVSPost2010Prop48
 90
       50
102
RTVSPost2010PropOp48
 70
     1
102
RTVSPost2010Prop49
280
     0
102
RTVSPost2010PropOp49
 70
     1
102
RTVSPost2010Prop50
 90
       50
102
RTVSPost2010PropOp50
 70
     1
102
RTVSPost2010Prop51ColorIndex
 90
      256
102
RTVSPost2010Prop51ColorRGB
 90
-16777216
102
RTVSPost2010PropOp51
 70
     0
102
RTVSPost2010Prop52
140
1.0
102
RTVSPost2010PropOp52
 70
     0
102
RTVSPost2010Prop53
 90
        2
102
RTVSPost2010PropOp53
 70
     1
102
RTVSPost2010Prop54
  1
strokes_ogs.tif
102
RTVSPost2010PropOp54
 70
     1
102
RTVSPost2010Prop55
280
     0
102
RTVSPost2010PropOp55
 70
     1
102
RTVSPost2010Prop56
140
1.0
102
RTVSPost2010PropOp56
 70
     1
102
RTVSPost2010Prop57
140
1.0
102
RTVSPost2010PropOp57
 70
     1
  0
XRECORD
  5
1F2C
102
{ACAD_REACTORS
330
1F2B
102
}
330
1F2B
100
AcDbXrecord
280
     1
102
RTVSPost2010Prop28
280
     0
102
RTVSPost2010PropOp28
 70
     0
102
RTVSPost2010Prop29
280
     1
102
RTVSPost2010PropOp29
 70
     0
102
RTVSPost2010Prop30
280
     1
102
RTVSPost2010PropOp30
 70
     0
102
RTVSPost2010Prop31
280
     0
102
RTVSPost2010PropOp31
 70
     0
102
RTVSPost2010Prop32
280
     0
102
RTVSPost2010PropOp32
 70
     0
102
RTVSPost2010Prop33
280
     0
102
RTVSPost2010PropOp33
 70
     0
102
RTVSPost2010Prop34
280
     0
102
RTVSPost2010PropOp34
 70
     0
102
RTVSPost2010Prop35
280
     0
102
RTVSPost2010PropOp35
 70
     0
102
RTVSPost2010Prop36
280
     0
102
RTVSPost2010PropOp36
 70
     0
102
RTVSPost2010Prop37
 90
       50
102
RTVSPost2010PropOp37
 70
     0
102
RTVSPost2010Prop38
140
0.0
102
RTVSPost2010PropOp38
 70
     0
102
RTVSPost2010Prop39
140
1.0
102
RTVSPost2010PropOp39
 70
     0
102
RTVSPost2010Prop40
 90
        0
102
RTVSPost2010PropOp40
 70
     0
102
RTVSPost2010Prop41ColorIndex
 90
       18
102
RTVSPost2010Prop41ColorRGB
 90
        0
102
RTVSPost2010PropOp41
 70
     0
102
RTVSPost2010Prop42
 90
       50
102
RTVSPost2010PropOp42
 70
     0
102
RTVSPost2010Prop43
 90
        3
102
RTVSPost2010PropOp43
 70
     0
102
RTVSPost2010Prop44ColorIndex
 90
        5
102
RTVSPost2010Prop44ColorRGB
 90
      255
102
RTVSPost2010PropOp44
 70
     0
102
RTVSPost2010Prop45
280
     0
102
RTVSPost2010PropOp45
 70
     0
102
RTVSPost2010Prop46
 90
       50
102
RTVSPost2010PropOp46
 70
     0
102
RTVSPost2010Prop47
 90
       50
102
RTVSPost2010PropOp47
 70
     0
102
RTVSPost2010Prop48
 90
       50
102
RTVSPost2010PropOp48
 70
     0
102
RTVSPost2010Prop49
280
     0
102
RTVSPost2010PropOp49
 70
     0
102
RTVSPost2010Prop50
 90
       50
102
RTVSPost2010PropOp50
 70
     0
102
RTVSPost2010Prop51ColorIndex
 90
      256
102
RTVSPost2010Prop51ColorRGB
 90
-16777216
102
RTVSPost2010PropOp51
 70
     0
102
RTVSPost2010Prop52
140
1.0
102
RTVSPost2010PropOp52
 70
     0
102
RTVSPost2010Prop53
 90
        2
102
RTVSPost2010PropOp53
 70
     0
102
RTVSPost2010Prop54
  1
strokes_ogs.tif
102
RTVSPost2010PropOp54
 70
     0
102
RTVSPost2010Prop55
280
     0
102
RTVSPost2010PropOp55
 70
     0
102
RTVSPost2010Prop56
140
1.0
102
RTVSPost2010PropOp56
 70
     0
102
RTVSPost2010Prop57
140
1.0
102
RTVSPost2010PropOp57
 70
     0
  0
XRECORD
  5
1F1A
102
{ACAD_REACTORS
330
1F19
102
}
330
1F19
100
AcDbXrecord
280
     1
102
RTVSPost2010Prop28
280
     0
102
RTVSPost2010PropOp28
 70
     1
102
RTVSPost2010Prop29
280
     1
102
RTVSPost2010PropOp29
 70
     1
102
RTVSPost2010Prop30
280
     1
102
RTVSPost2010PropOp30
 70
     1
102
RTVSPost2010Prop31
280
     0
102
RTVSPost2010PropOp31
 70
     1
102
RTVSPost2010Prop32
280
     0
102
RTVSPost2010PropOp32
 70
     1
102
RTVSPost2010Prop33
280
     0
102
RTVSPost2010PropOp33
 70
     1
102
RTVSPost2010Prop34
280
     0
102
RTVSPost2010PropOp34
 70
     1
102
RTVSPost2010Prop35
280
     0
102
RTVSPost2010PropOp35
 70
     1
102
RTVSPost2010Prop36
280
     0
102
RTVSPost2010PropOp36
 70
     1
102
RTVSPost2010Prop37
 90
       50
102
RTVSPost2010PropOp37
 70
     1
102
RTVSPost2010Prop38
140
0.0
102
RTVSPost2010PropOp38
 70
     1
102
RTVSPost2010Prop39
140
1.0
102
RTVSPost2010PropOp39
 70
     1
102
RTVSPost2010Prop40
 90
        0
102
RTVSPost2010PropOp40
 70
     1
102
RTVSPost2010Prop41ColorIndex
 90
       18
102
RTVSPost2010Prop41ColorRGB
 90
        0
102
RTVSPost2010PropOp41
 70
     1
102
RTVSPost2010Prop42
 90
       50
102
RTVSPost2010PropOp42
 70
     1
102
RTVSPost2010Prop43
 90
        3
102
RTVSPost2010PropOp43
 70
     1
102
RTVSPost2010Prop44ColorIndex
 90
        5
102
RTVSPost2010Prop44ColorRGB
 90
      255
102
RTVSPost2010PropOp44
 70
     1
102
RTVSPost2010Prop45
280
     0
102
RTVSPost2010PropOp45
 70
     1
102
RTVSPost2010Prop46
 90
       50
102
RTVSPost2010PropOp46
 70
     1
102
RTVSPost2010Prop47
 90
       50
102
RTVSPost2010PropOp47
 70
     1
102
RTVSPost2010Prop48
 90
       50
102
RTVSPost2010PropOp48
 70
     1
102
RTVSPost2010Prop49
280
     0
102
RTVSPost2010PropOp49
 70
     1
102
RTVSPost2010Prop50
 90
       50
102
RTVSPost2010PropOp50
 70
     1
102
RTVSPost2010Prop51ColorIndex
 90
      256
102
RTVSPost2010Prop51ColorRGB
 90
-16777216
102
RTVSPost2010PropOp51
 70
     0
102
RTVSPost2010Prop52
140
1.0
102
RTVSPost2010PropOp52
 70
     0
102
RTVSPost2010Prop53
 90
        2
102
RTVSPost2010PropOp53
 70
     1
102
RTVSPost2010Prop54
  1
strokes_ogs.tif
102
RTVSPost2010PropOp54
 70
     1
102
RTVSPost2010Prop55
280
     0
102
RTVSPost2010PropOp55
 70
     1
102
RTVSPost2010Prop56
140
1.0
102
RTVSPost2010PropOp56
 70
     1
102
RTVSPost2010Prop57
140
1.0
102
RTVSPost2010PropOp57
 70
     1
  0
XRECORD
  5
1EFE
102
{ACAD_REACTORS
330
1EFD
102
}
330
1EFD
100
AcDbXrecord
280
     1
102
RTVSPost2010Prop28
280
     0
102
RTVSPost2010PropOp28
 70
     1
102
RTVSPost2010Prop29
280
     1
102
RTVSPost2010PropOp29
 70
     1
102
RTVSPost2010Prop30
280
     1
102
RTVSPost2010PropOp30
 70
     1
102
RTVSPost2010Prop31
280
     0
102
RTVSPost2010PropOp31
 70
     1
102
RTVSPost2010Prop32
280
     0
102
RTVSPost2010PropOp32
 70
     1
102
RTVSPost2010Prop33
280
     0
102
RTVSPost2010PropOp33
 70
     1
102
RTVSPost2010Prop34
280
     0
102
RTVSPost2010PropOp34
 70
     1
102
RTVSPost2010Prop35
280
     0
102
RTVSPost2010PropOp35
 70
     1
102
RTVSPost2010Prop36
280
     0
102
RTVSPost2010PropOp36
 70
     1
102
RTVSPost2010Prop37
 90
       50
102
RTVSPost2010PropOp37
 70
     1
102
RTVSPost2010Prop38
140
0.0
102
RTVSPost2010PropOp38
 70
     1
102
RTVSPost2010Prop39
140
1.0
102
RTVSPost2010PropOp39
 70
     1
102
RTVSPost2010Prop40
 90
        0
102
RTVSPost2010PropOp40
 70
     1
102
RTVSPost2010Prop41ColorIndex
 90
       18
102
RTVSPost2010Prop41ColorRGB
 90
        0
102
RTVSPost2010PropOp41
 70
     1
102
RTVSPost2010Prop42
 90
       50
102
RTVSPost2010PropOp42
 70
     1
102
RTVSPost2010Prop43
 90
        3
102
RTVSPost2010PropOp43
 70
     1
102
RTVSPost2010Prop44ColorIndex
 90
        5
102
RTVSPost2010Prop44ColorRGB
 90
      255
102
RTVSPost2010PropOp44
 70
     1
102
RTVSPost2010Prop45
280
     0
102
RTVSPost2010PropOp45
 70
     1
102
RTVSPost2010Prop46
 90
       50
102
RTVSPost2010PropOp46
 70
     1
102
RTVSPost2010Prop47
 90
       50
102
RTVSPost2010PropOp47
 70
     1
102
RTVSPost2010Prop48
 90
       50
102
RTVSPost2010PropOp48
 70
     1
102
RTVSPost2010Prop49
280
     0
102
RTVSPost2010PropOp49
 70
     1
102
RTVSPost2010Prop50
 90
       50
102
RTVSPost2010PropOp50
 70
     1
102
RTVSPost2010Prop51ColorIndex
 90
      256
102
RTVSPost2010Prop51ColorRGB
 90
-16777216
102
RTVSPost2010PropOp51
 70
     0
102
RTVSPost2010Prop52
140
1.0
102
RTVSPost2010PropOp52
 70
     0
102
RTVSPost2010Prop53
 90
        2
102
RTVSPost2010PropOp53
 70
     1
102
RTVSPost2010Prop54
  1
strokes_ogs.tif
102
RTVSPost2010PropOp54
 70
     1
102
RTVSPost2010Prop55
280
     0
102
RTVSPost2010PropOp55
 70
     1
102
RTVSPost2010Prop56
140
1.0
102
RTVSPost2010PropOp56
 70
     1
102
RTVSPost2010Prop57
140
1.0
102
RTVSPost2010PropOp57
 70
     1
  0
XRECORD
  5
1F00
102
{ACAD_REACTORS
330
1EFF
102
}
330
1EFF
100
AcDbXrecord
280
     1
102
RTVSPost2010Prop28
280
     0
102
RTVSPost2010PropOp28
 70
     1
102
RTVSPost2010Prop29
280
     1
102
RTVSPost2010PropOp29
 70
     1
102
RTVSPost2010Prop30
280
     1
102
RTVSPost2010PropOp30
 70
     1
102
RTVSPost2010Prop31
280
     0
102
RTVSPost2010PropOp31
 70
     1
102
RTVSPost2010Prop32
280
     0
102
RTVSPost2010PropOp32
 70
     1
102
RTVSPost2010Prop33
280
     0
102
RTVSPost2010PropOp33
 70
     1
102
RTVSPost2010Prop34
280
     0
102
RTVSPost2010PropOp34
 70
     1
102
RTVSPost2010Prop35
280
     0
102
RTVSPost2010PropOp35
 70
     1
102
RTVSPost2010Prop36
280
     0
102
RTVSPost2010PropOp36
 70
     1
102
RTVSPost2010Prop37
 90
       50
102
RTVSPost2010PropOp37
 70
     1
102
RTVSPost2010Prop38
140
0.0
102
RTVSPost2010PropOp38
 70
     1
102
RTVSPost2010Prop39
140
1.0
102
RTVSPost2010PropOp39
 70
     1
102
RTVSPost2010Prop40
 90
        0
102
RTVSPost2010PropOp40
 70
     1
102
RTVSPost2010Prop41ColorIndex
 90
       18
102
RTVSPost2010Prop41ColorRGB
 90
        0
102
RTVSPost2010PropOp41
 70
     1
102
RTVSPost2010Prop42
 90
       50
102
RTVSPost2010PropOp42
 70
     1
102
RTVSPost2010Prop43
 90
        3
102
RTVSPost2010PropOp43
 70
     1
102
RTVSPost2010Prop44ColorIndex
 90
        5
102
RTVSPost2010Prop44ColorRGB
 90
      255
102
RTVSPost2010PropOp44
 70
     1
102
RTVSPost2010Prop45
280
     0
102
RTVSPost2010PropOp45
 70
     1
102
RTVSPost2010Prop46
 90
       50
102
RTVSPost2010PropOp46
 70
     1
102
RTVSPost2010Prop47
 90
       50
102
RTVSPost2010PropOp47
 70
     1
102
RTVSPost2010Prop48
 90
       50
102
RTVSPost2010PropOp48
 70
     1
102
RTVSPost2010Prop49
280
     0
102
RTVSPost2010PropOp49
 70
     1
102
RTVSPost2010Prop50
 90
       50
102
RTVSPost2010PropOp50
 70
     1
102
RTVSPost2010Prop51ColorIndex
 90
      256
102
RTVSPost2010Prop51ColorRGB
 90
-16777216
102
RTVSPost2010PropOp51
 70
     0
102
RTVSPost2010Prop52
140
1.0
102
RTVSPost2010PropOp52
 70
     0
102
RTVSPost2010Prop53
 90
        2
102
RTVSPost2010PropOp53
 70
     1
102
RTVSPost2010Prop54
  1
strokes_ogs.tif
102
RTVSPost2010PropOp54
 70
     1
102
RTVSPost2010Prop55
280
     0
102
RTVSPost2010PropOp55
 70
     1
102
RTVSPost2010Prop56
140
1.0
102
RTVSPost2010PropOp56
 70
     1
102
RTVSPost2010Prop57
140
1.0
102
RTVSPost2010PropOp57
 70
     1
  0
XRECORD
  5
1F02
102
{ACAD_REACTORS
330
1F01
102
}
330
1F01
100
AcDbXrecord
280
     1
102
RTVSPost2010Prop28
280
     0
102
RTVSPost2010PropOp28
 70
     1
102
RTVSPost2010Prop29
280
     1
102
RTVSPost2010PropOp29
 70
     1
102
RTVSPost2010Prop30
280
     1
102
RTVSPost2010PropOp30
 70
     1
102
RTVSPost2010Prop31
280
     0
102
RTVSPost2010PropOp31
 70
     1
102
RTVSPost2010Prop32
280
     0
102
RTVSPost2010PropOp32
 70
     1
102
RTVSPost2010Prop33
280
     0
102
RTVSPost2010PropOp33
 70
     1
102
RTVSPost2010Prop34
280
     0
102
RTVSPost2010PropOp34
 70
     1
102
RTVSPost2010Prop35
280
     0
102
RTVSPost2010PropOp35
 70
     1
102
RTVSPost2010Prop36
280
     0
102
RTVSPost2010PropOp36
 70
     1
102
RTVSPost2010Prop37
 90
       50
102
RTVSPost2010PropOp37
 70
     1
102
RTVSPost2010Prop38
140
0.0
102
RTVSPost2010PropOp38
 70
     1
102
RTVSPost2010Prop39
140
1.0
102
RTVSPost2010PropOp39
 70
     1
102
RTVSPost2010Prop40
 90
        0
102
RTVSPost2010PropOp40
 70
     1
102
RTVSPost2010Prop41ColorIndex
 90
       18
102
RTVSPost2010Prop41ColorRGB
 90
        0
102
RTVSPost2010PropOp41
 70
     1
102
RTVSPost2010Prop42
 90
       50
102
RTVSPost2010PropOp42
 70
     1
102
RTVSPost2010Prop43
 90
        3
102
RTVSPost2010PropOp43
 70
     1
102
RTVSPost2010Prop44ColorIndex
 90
        5
102
RTVSPost2010Prop44ColorRGB
 90
      255
102
RTVSPost2010PropOp44
 70
     1
102
RTVSPost2010Prop45
280
     0
102
RTVSPost2010PropOp45
 70
     1
102
RTVSPost2010Prop46
 90
       50
102
RTVSPost2010PropOp46
 70
     1
102
RTVSPost2010Prop47
 90
       50
102
RTVSPost2010PropOp47
 70
     1
102
RTVSPost2010Prop48
 90
       50
102
RTVSPost2010PropOp48
 70
     1
102
RTVSPost2010Prop49
280
     0
102
RTVSPost2010PropOp49
 70
     1
102
RTVSPost2010Prop50
 90
       50
102
RTVSPost2010PropOp50
 70
     1
102
RTVSPost2010Prop51ColorIndex
 90
      256
102
RTVSPost2010Prop51ColorRGB
 90
-16777216
102
RTVSPost2010PropOp51
 70
     0
102
RTVSPost2010Prop52
140
1.0
102
RTVSPost2010PropOp52
 70
     0
102
RTVSPost2010Prop53
 90
        2
102
RTVSPost2010PropOp53
 70
     1
102
RTVSPost2010Prop54
  1
strokes_ogs.tif
102
RTVSPost2010PropOp54
 70
     1
102
RTVSPost2010Prop55
280
     0
102
RTVSPost2010PropOp55
 70
     1
102
RTVSPost2010Prop56
140
1.0
102
RTVSPost2010PropOp56
 70
     1
102
RTVSPost2010Prop57
140
1.0
102
RTVSPost2010PropOp57
 70
     1
  0
XRECORD
  5
1F04
102
{ACAD_REACTORS
330
1F03
102
}
330
1F03
100
AcDbXrecord
280
     1
102
RTVSPost2010Prop28
280
     0
102
RTVSPost2010PropOp28
 70
     1
102
RTVSPost2010Prop29
280
     1
102
RTVSPost2010PropOp29
 70
     1
102
RTVSPost2010Prop30
280
     1
102
RTVSPost2010PropOp30
 70
     1
102
RTVSPost2010Prop31
280
     0
102
RTVSPost2010PropOp31
 70
     1
102
RTVSPost2010Prop32
280
     0
102
RTVSPost2010PropOp32
 70
     1
102
RTVSPost2010Prop33
280
     0
102
RTVSPost2010PropOp33
 70
     1
102
RTVSPost2010Prop34
280
     0
102
RTVSPost2010PropOp34
 70
     1
102
RTVSPost2010Prop35
280
     0
102
RTVSPost2010PropOp35
 70
     1
102
RTVSPost2010Prop36
280
     0
102
RTVSPost2010PropOp36
 70
     1
102
RTVSPost2010Prop37
 90
       50
102
RTVSPost2010PropOp37
 70
     1
102
RTVSPost2010Prop38
140
0.0
102
RTVSPost2010PropOp38
 70
     1
102
RTVSPost2010Prop39
140
1.0
102
RTVSPost2010PropOp39
 70
     1
102
RTVSPost2010Prop40
 90
        0
102
RTVSPost2010PropOp40
 70
     1
102
RTVSPost2010Prop41ColorIndex
 90
       18
102
RTVSPost2010Prop41ColorRGB
 90
        0
102
RTVSPost2010PropOp41
 70
     1
102
RTVSPost2010Prop42
 90
       50
102
RTVSPost2010PropOp42
 70
     1
102
RTVSPost2010Prop43
 90
        3
102
RTVSPost2010PropOp43
 70
     1
102
RTVSPost2010Prop44ColorIndex
 90
        5
102
RTVSPost2010Prop44ColorRGB
 90
      255
102
RTVSPost2010PropOp44
 70
     1
102
RTVSPost2010Prop45
280
     0
102
RTVSPost2010PropOp45
 70
     1
102
RTVSPost2010Prop46
 90
       50
102
RTVSPost2010PropOp46
 70
     1
102
RTVSPost2010Prop47
 90
       50
102
RTVSPost2010PropOp47
 70
     1
102
RTVSPost2010Prop48
 90
       50
102
RTVSPost2010PropOp48
 70
     1
102
RTVSPost2010Prop49
280
     0
102
RTVSPost2010PropOp49
 70
     1
102
RTVSPost2010Prop50
 90
       50
102
RTVSPost2010PropOp50
 70
     1
102
RTVSPost2010Prop51ColorIndex
 90
      256
102
RTVSPost2010Prop51ColorRGB
 90
-16777216
102
RTVSPost2010PropOp51
 70
     0
102
RTVSPost2010Prop52
140
1.0
102
RTVSPost2010PropOp52
 70
     0
102
RTVSPost2010Prop53
 90
        2
102
RTVSPost2010PropOp53
 70
     1
102
RTVSPost2010Prop54
  1
strokes_ogs.tif
102
RTVSPost2010PropOp54
 70
     1
102
RTVSPost2010Prop55
280
     0
102
RTVSPost2010PropOp55
 70
     1
102
RTVSPost2010Prop56
140
1.0
102
RTVSPost2010PropOp56
 70
     1
102
RTVSPost2010Prop57
140
1.0
102
RTVSPost2010PropOp57
 70
     1
  0
XRECORD
  5
1F0C
102
{ACAD_REACTORS
330
1F0B
102
}
330
1F0B
100
AcDbXrecord
280
     1
102
RTVSPost2010Prop28
280
     0
102
RTVSPost2010PropOp28
 70
     1
102
RTVSPost2010Prop29
280
     1
102
RTVSPost2010PropOp29
 70
     1
102
RTVSPost2010Prop30
280
     1
102
RTVSPost2010PropOp30
 70
     1
102
RTVSPost2010Prop31
280
     0
102
RTVSPost2010PropOp31
 70
     1
102
RTVSPost2010Prop32
280
     0
102
RTVSPost2010PropOp32
 70
     1
102
RTVSPost2010Prop33
280
     0
102
RTVSPost2010PropOp33
 70
     1
102
RTVSPost2010Prop34
280
     0
102
RTVSPost2010PropOp34
 70
     1
102
RTVSPost2010Prop35
280
     0
102
RTVSPost2010PropOp35
 70
     1
102
RTVSPost2010Prop36
280
     0
102
RTVSPost2010PropOp36
 70
     1
102
RTVSPost2010Prop37
 90
       50
102
RTVSPost2010PropOp37
 70
     1
102
RTVSPost2010Prop38
140
0.0
102
RTVSPost2010PropOp38
 70
     1
102
RTVSPost2010Prop39
140
1.0
102
RTVSPost2010PropOp39
 70
     1
102
RTVSPost2010Prop40
 90
        0
102
RTVSPost2010PropOp40
 70
     1
102
RTVSPost2010Prop41ColorIndex
 90
       18
102
RTVSPost2010Prop41ColorRGB
 90
        0
102
RTVSPost2010PropOp41
 70
     1
102
RTVSPost2010Prop42
 90
       50
102
RTVSPost2010PropOp42
 70
     1
102
RTVSPost2010Prop43
 90
        3
102
RTVSPost2010PropOp43
 70
     1
102
RTVSPost2010Prop44ColorIndex
 90
        5
102
RTVSPost2010Prop44ColorRGB
 90
      255
102
RTVSPost2010PropOp44
 70
     1
102
RTVSPost2010Prop45
280
     0
102
RTVSPost2010PropOp45
 70
     1
102
RTVSPost2010Prop46
 90
       50
102
RTVSPost2010PropOp46
 70
     1
102
RTVSPost2010Prop47
 90
       50
102
RTVSPost2010PropOp47
 70
     1
102
RTVSPost2010Prop48
 90
       50
102
RTVSPost2010PropOp48
 70
     1
102
RTVSPost2010Prop49
280
     0
102
RTVSPost2010PropOp49
 70
     1
102
RTVSPost2010Prop50
 90
       50
102
RTVSPost2010PropOp50
 70
     1
102
RTVSPost2010Prop51ColorIndex
 90
      256
102
RTVSPost2010Prop51ColorRGB
 90
-16777216
102
RTVSPost2010PropOp51
 70
     0
102
RTVSPost2010Prop52
140
1.0
102
RTVSPost2010PropOp52
 70
     0
102
RTVSPost2010Prop53
 90
        2
102
RTVSPost2010PropOp53
 70
     1
102
RTVSPost2010Prop54
  1
strokes_ogs.tif
102
RTVSPost2010PropOp54
 70
     1
102
RTVSPost2010Prop55
280
     0
102
RTVSPost2010PropOp55
 70
     1
102
RTVSPost2010Prop56
140
1.0
102
RTVSPost2010PropOp56
 70
     1
102
RTVSPost2010Prop57
140
1.0
102
RTVSPost2010PropOp57
 70
     1
  0
XRECORD
  5
1F28
102
{ACAD_REACTORS
330
1F27
102
}
330
1F27
100
AcDbXrecord
280
     1
102
RTVSPost2010Prop28
280
     0
102
RTVSPost2010PropOp28
 70
     0
102
RTVSPost2010Prop29
280
     1
102
RTVSPost2010PropOp29
 70
     0
102
RTVSPost2010Prop30
280
     1
102
RTVSPost2010PropOp30
 70
     0
102
RTVSPost2010Prop31
280
     0
102
RTVSPost2010PropOp31
 70
     0
102
RTVSPost2010Prop32
280
     0
102
RTVSPost2010PropOp32
 70
     0
102
RTVSPost2010Prop33
280
     0
102
RTVSPost2010PropOp33
 70
     0
102
RTVSPost2010Prop34
280
     0
102
RTVSPost2010PropOp34
 70
     0
102
RTVSPost2010Prop35
280
     0
102
RTVSPost2010PropOp35
 70
     0
102
RTVSPost2010Prop36
280
     0
102
RTVSPost2010PropOp36
 70
     0
102
RTVSPost2010Prop37
 90
       50
102
RTVSPost2010PropOp37
 70
     0
102
RTVSPost2010Prop38
140
0.0
102
RTVSPost2010PropOp38
 70
     0
102
RTVSPost2010Prop39
140
1.0
102
RTVSPost2010PropOp39
 70
     0
102
RTVSPost2010Prop40
 90
        0
102
RTVSPost2010PropOp40
 70
     0
102
RTVSPost2010Prop41ColorIndex
 90
       18
102
RTVSPost2010Prop41ColorRGB
 90
        0
102
RTVSPost2010PropOp41
 70
     0
102
RTVSPost2010Prop42
 90
       50
102
RTVSPost2010PropOp42
 70
     0
102
RTVSPost2010Prop43
 90
        3
102
RTVSPost2010PropOp43
 70
     0
102
RTVSPost2010Prop44ColorIndex
 90
        5
102
RTVSPost2010Prop44ColorRGB
 90
      255
102
RTVSPost2010PropOp44
 70
     0
102
RTVSPost2010Prop45
280
     0
102
RTVSPost2010PropOp45
 70
     0
102
RTVSPost2010Prop46
 90
       50
102
RTVSPost2010PropOp46
 70
     0
102
RTVSPost2010Prop47
 90
       50
102
RTVSPost2010PropOp47
 70
     0
102
RTVSPost2010Prop48
 90
       50
102
RTVSPost2010PropOp48
 70
     0
102
RTVSPost2010Prop49
280
     0
102
RTVSPost2010PropOp49
 70
     0
102
RTVSPost2010Prop50
 90
       50
102
RTVSPost2010PropOp50
 70
     0
102
RTVSPost2010Prop51ColorIndex
 90
      256
102
RTVSPost2010Prop51ColorRGB
 90
-16777216
102
RTVSPost2010PropOp51
 70
     0
102
RTVSPost2010Prop52
140
1.0
102
RTVSPost2010PropOp52
 70
     0
102
RTVSPost2010Prop53
 90
        2
102
RTVSPost2010PropOp53
 70
     0
102
RTVSPost2010Prop54
  1
strokes_ogs.tif
102
RTVSPost2010PropOp54
 70
     0
102
RTVSPost2010Prop55
280
     0
102
RTVSPost2010PropOp55
 70
     0
102
RTVSPost2010Prop56
140
1.0
102
RTVSPost2010PropOp56
 70
     0
102
RTVSPost2010Prop57
140
1.0
102
RTVSPost2010PropOp57
 70
     0
  0
XRECORD
  5
1F18
102
{ACAD_REACTORS
330
1F17
102
}
330
1F17
100
AcDbXrecord
280
     1
102
RTVSPost2010Prop28
280
     0
102
RTVSPost2010PropOp28
 70
     1
102
RTVSPost2010Prop29
280
     1
102
RTVSPost2010PropOp29
 70
     1
102
RTVSPost2010Prop30
280
     1
102
RTVSPost2010PropOp30
 70
     1
102
RTVSPost2010Prop31
280
     0
102
RTVSPost2010PropOp31
 70
     1
102
RTVSPost2010Prop32
280
     0
102
RTVSPost2010PropOp32
 70
     1
102
RTVSPost2010Prop33
280
     0
102
RTVSPost2010PropOp33
 70
     1
102
RTVSPost2010Prop34
280
     0
102
RTVSPost2010PropOp34
 70
     1
102
RTVSPost2010Prop35
280
     0
102
RTVSPost2010PropOp35
 70
     1
102
RTVSPost2010Prop36
280
     0
102
RTVSPost2010PropOp36
 70
     1
102
RTVSPost2010Prop37
 90
       50
102
RTVSPost2010PropOp37
 70
     1
102
RTVSPost2010Prop38
140
0.0
102
RTVSPost2010PropOp38
 70
     1
102
RTVSPost2010Prop39
140
1.0
102
RTVSPost2010PropOp39
 70
     1
102
RTVSPost2010Prop40
 90
        0
102
RTVSPost2010PropOp40
 70
     1
102
RTVSPost2010Prop41ColorIndex
 90
       18
102
RTVSPost2010Prop41ColorRGB
 90
        0
102
RTVSPost2010PropOp41
 70
     1
102
RTVSPost2010Prop42
 90
       50
102
RTVSPost2010PropOp42
 70
     1
102
RTVSPost2010Prop43
 90
        3
102
RTVSPost2010PropOp43
 70
     1
102
RTVSPost2010Prop44ColorIndex
 90
        5
102
RTVSPost2010Prop44ColorRGB
 90
      255
102
RTVSPost2010PropOp44
 70
     1
102
RTVSPost2010Prop45
280
     0
102
RTVSPost2010PropOp45
 70
     1
102
RTVSPost2010Prop46
 90
       50
102
RTVSPost2010PropOp46
 70
     1
102
RTVSPost2010Prop47
 90
       50
102
RTVSPost2010PropOp47
 70
     1
102
RTVSPost2010Prop48
 90
       50
102
RTVSPost2010PropOp48
 70
     1
102
RTVSPost2010Prop49
280
     0
102
RTVSPost2010PropOp49
 70
     1
102
RTVSPost2010Prop50
 90
       50
102
RTVSPost2010PropOp50
 70
     1
102
RTVSPost2010Prop51ColorIndex
 90
      256
102
RTVSPost2010Prop51ColorRGB
 90
-16777216
102
RTVSPost2010PropOp51
 70
     0
102
RTVSPost2010Prop52
140
1.0
102
RTVSPost2010PropOp52
 70
     0
102
RTVSPost2010Prop53
 90
        2
102
RTVSPost2010PropOp53
 70
     1
102
RTVSPost2010Prop54
  1
strokes_ogs.tif
102
RTVSPost2010PropOp54
 70
     1
102
RTVSPost2010Prop55
280
     0
102
RTVSPost2010PropOp55
 70
     1
102
RTVSPost2010Prop56
140
1.0
102
RTVSPost2010PropOp56
 70
     1
102
RTVSPost2010Prop57
140
1.0
102
RTVSPost2010PropOp57
 70
     1
  0
XRECORD
  5
1F2A
102
{ACAD_REACTORS
330
1F29
102
}
330
1F29
100
AcDbXrecord
280
     1
102
RTVSPost2010Prop28
280
     0
102
RTVSPost2010PropOp28
 70
     0
102
RTVSPost2010Prop29
280
     1
102
RTVSPost2010PropOp29
 70
     0
102
RTVSPost2010Prop30
280
     1
102
RTVSPost2010PropOp30
 70
     0
102
RTVSPost2010Prop31
280
     0
102
RTVSPost2010PropOp31
 70
     0
102
RTVSPost2010Prop32
280
     0
102
RTVSPost2010PropOp32
 70
     0
102
RTVSPost2010Prop33
280
     0
102
RTVSPost2010PropOp33
 70
     0
102
RTVSPost2010Prop34
280
     0
102
RTVSPost2010PropOp34
 70
     0
102
RTVSPost2010Prop35
280
     0
102
RTVSPost2010PropOp35
 70
     0
102
RTVSPost2010Prop36
280
     0
102
RTVSPost2010PropOp36
 70
     0
102
RTVSPost2010Prop37
 90
       50
102
RTVSPost2010PropOp37
 70
     0
102
RTVSPost2010Prop38
140
0.0
102
RTVSPost2010PropOp38
 70
     0
102
RTVSPost2010Prop39
140
1.0
102
RTVSPost2010PropOp39
 70
     0
102
RTVSPost2010Prop40
 90
        0
102
RTVSPost2010PropOp40
 70
     0
102
RTVSPost2010Prop41ColorIndex
 90
       18
102
RTVSPost2010Prop41ColorRGB
 90
        0
102
RTVSPost2010PropOp41
 70
     0
102
RTVSPost2010Prop42
 90
       50
102
RTVSPost2010PropOp42
 70
     0
102
RTVSPost2010Prop43
 90
        3
102
RTVSPost2010PropOp43
 70
     0
102
RTVSPost2010Prop44ColorIndex
 90
        5
102
RTVSPost2010Prop44ColorRGB
 90
      255
102
RTVSPost2010PropOp44
 70
     0
102
RTVSPost2010Prop45
280
     0
102
RTVSPost2010PropOp45
 70
     0
102
RTVSPost2010Prop46
 90
       50
102
RTVSPost2010PropOp46
 70
     0
102
RTVSPost2010Prop47
 90
       50
102
RTVSPost2010PropOp47
 70
     0
102
RTVSPost2010Prop48
 90
       50
102
RTVSPost2010PropOp48
 70
     0
102
RTVSPost2010Prop49
280
     0
102
RTVSPost2010PropOp49
 70
     0
102
RTVSPost2010Prop50
 90
       50
102
RTVSPost2010PropOp50
 70
     0
102
RTVSPost2010Prop51ColorIndex
 90
      256
102
RTVSPost2010Prop51ColorRGB
 90
-16777216
102
RTVSPost2010PropOp51
 70
     0
102
RTVSPost2010Prop52
140
1.0
102
RTVSPost2010PropOp52
 70
     0
102
RTVSPost2010Prop53
 90
        2
102
RTVSPost2010PropOp53
 70
     0
102
RTVSPost2010Prop54
  1
strokes_ogs.tif
102
RTVSPost2010PropOp54
 70
     0
102
RTVSPost2010Prop55
280
     0
102
RTVSPost2010PropOp55
 70
     0
102
RTVSPost2010Prop56
140
1.0
102
RTVSPost2010PropOp56
 70
     0
102
RTVSPost2010Prop57
140
1.0
102
RTVSPost2010PropOp57
 70
     0
  0
XRECORD
  5
1F10
102
{ACAD_REACTORS
330
1F0F
102
}
330
1F0F
100
AcDbXrecord
280
     1
102
RTVSPost2010Prop28
280
     0
102
RTVSPost2010PropOp28
 70
     1
102
RTVSPost2010Prop29
280
     1
102
RTVSPost2010PropOp29
 70
     1
102
RTVSPost2010Prop30
280
     1
102
RTVSPost2010PropOp30
 70
     1
102
RTVSPost2010Prop31
280
     0
102
RTVSPost2010PropOp31
 70
     1
102
RTVSPost2010Prop32
280
     0
102
RTVSPost2010PropOp32
 70
     1
102
RTVSPost2010Prop33
280
     0
102
RTVSPost2010PropOp33
 70
     1
102
RTVSPost2010Prop34
280
     0
102
RTVSPost2010PropOp34
 70
     1
102
RTVSPost2010Prop35
280
     0
102
RTVSPost2010PropOp35
 70
     1
102
RTVSPost2010Prop36
280
     0
102
RTVSPost2010PropOp36
 70
     1
102
RTVSPost2010Prop37
 90
       50
102
RTVSPost2010PropOp37
 70
     1
102
RTVSPost2010Prop38
140
0.0
102
RTVSPost2010PropOp38
 70
     1
102
RTVSPost2010Prop39
140
1.0
102
RTVSPost2010PropOp39
 70
     1
102
RTVSPost2010Prop40
 90
        0
102
RTVSPost2010PropOp40
 70
     1
102
RTVSPost2010Prop41ColorIndex
 90
       18
102
RTVSPost2010Prop41ColorRGB
 90
        0
102
RTVSPost2010PropOp41
 70
     1
102
RTVSPost2010Prop42
 90
       50
102
RTVSPost2010PropOp42
 70
     1
102
RTVSPost2010Prop43
 90
        3
102
RTVSPost2010PropOp43
 70
     1
102
RTVSPost2010Prop44ColorIndex
 90
        5
102
RTVSPost2010Prop44ColorRGB
 90
      255
102
RTVSPost2010PropOp44
 70
     1
102
RTVSPost2010Prop45
280
     0
102
RTVSPost2010PropOp45
 70
     1
102
RTVSPost2010Prop46
 90
       50
102
RTVSPost2010PropOp46
 70
     1
102
RTVSPost2010Prop47
 90
       50
102
RTVSPost2010PropOp47
 70
     1
102
RTVSPost2010Prop48
 90
       50
102
RTVSPost2010PropOp48
 70
     1
102
RTVSPost2010Prop49
280
     0
102
RTVSPost2010PropOp49
 70
     1
102
RTVSPost2010Prop50
 90
       50
102
RTVSPost2010PropOp50
 70
     1
102
RTVSPost2010Prop51ColorIndex
 90
      256
102
RTVSPost2010Prop51ColorRGB
 90
-16777216
102
RTVSPost2010PropOp51
 70
     0
102
RTVSPost2010Prop52
140
1.0
102
RTVSPost2010PropOp52
 70
     0
102
RTVSPost2010Prop53
 90
        2
102
RTVSPost2010PropOp53
 70
     1
102
RTVSPost2010Prop54
  1
strokes_ogs.tif
102
RTVSPost2010PropOp54
 70
     1
102
RTVSPost2010Prop55
280
     0
102
RTVSPost2010PropOp55
 70
     1
102
RTVSPost2010Prop56
140
1.0
102
RTVSPost2010PropOp56
 70
     1
102
RTVSPost2010Prop57
140
1.0
102
RTVSPost2010PropOp57
 70
     1
  0
XRECORD
  5
1F26
102
{ACAD_REACTORS
330
1F25
102
}
330
1F25
100
AcDbXrecord
280
     1
102
RTVSPost2010Prop28
280
     0
102
RTVSPost2010PropOp28
 70
     1
102
RTVSPost2010Prop29
280
     1
102
RTVSPost2010PropOp29
 70
     1
102
RTVSPost2010Prop30
280
     1
102
RTVSPost2010PropOp30
 70
     1
102
RTVSPost2010Prop31
280
     0
102
RTVSPost2010PropOp31
 70
     1
102
RTVSPost2010Prop32
280
     0
102
RTVSPost2010PropOp32
 70
     1
102
RTVSPost2010Prop33
280
     0
102
RTVSPost2010PropOp33
 70
     1
102
RTVSPost2010Prop34
280
     0
102
RTVSPost2010PropOp34
 70
     1
102
RTVSPost2010Prop35
280
     0
102
RTVSPost2010PropOp35
 70
     1
102
RTVSPost2010Prop36
280
     0
102
RTVSPost2010PropOp36
 70
     1
102
RTVSPost2010Prop37
 90
       50
102
RTVSPost2010PropOp37
 70
     1
102
RTVSPost2010Prop38
140
0.0
102
RTVSPost2010PropOp38
 70
     1
102
RTVSPost2010Prop39
140
1.0
102
RTVSPost2010PropOp39
 70
     1
102
RTVSPost2010Prop40
 90
        0
102
RTVSPost2010PropOp40
 70
     1
102
RTVSPost2010Prop41ColorIndex
 90
       18
102
RTVSPost2010Prop41ColorRGB
 90
        0
102
RTVSPost2010PropOp41
 70
     1
102
RTVSPost2010Prop42
 90
       50
102
RTVSPost2010PropOp42
 70
     1
102
RTVSPost2010Prop43
 90
        3
102
RTVSPost2010PropOp43
 70
     1
102
RTVSPost2010Prop44ColorIndex
 90
        5
102
RTVSPost2010Prop44ColorRGB
 90
      255
102
RTVSPost2010PropOp44
 70
     1
102
RTVSPost2010Prop45
280
     0
102
RTVSPost2010PropOp45
 70
     1
102
RTVSPost2010Prop46
 90
       50
102
RTVSPost2010PropOp46
 70
     1
102
RTVSPost2010Prop47
 90
       50
102
RTVSPost2010PropOp47
 70
     1
102
RTVSPost2010Prop48
 90
       50
102
RTVSPost2010PropOp48
 70
     1
102
RTVSPost2010Prop49
280
     0
102
RTVSPost2010PropOp49
 70
     1
102
RTVSPost2010Prop50
 90
       50
102
RTVSPost2010PropOp50
 70
     1
102
RTVSPost2010Prop51ColorIndex
 90
      256
102
RTVSPost2010Prop51ColorRGB
 90
-16777216
102
RTVSPost2010PropOp51
 70
     0
102
RTVSPost2010Prop52
140
1.0
102
RTVSPost2010PropOp52
 70
     0
102
RTVSPost2010Prop53
 90
        2
102
RTVSPost2010PropOp53
 70
     1
102
RTVSPost2010Prop54
  1
strokes_ogs.tif
102
RTVSPost2010PropOp54
 70
     1
102
RTVSPost2010Prop55
280
     0
102
RTVSPost2010PropOp55
 70
     1
102
RTVSPost2010Prop56
140
1.0
102
RTVSPost2010PropOp56
 70
     1
102
RTVSPost2010Prop57
140
1.0
102
RTVSPost2010PropOp57
 70
     1
  0
XRECORD
  5
1F24
102
{ACAD_REACTORS
330
1F23
102
}
330
1F23
100
AcDbXrecord
280
     1
102
RTVSPost2010Prop28
280
     0
102
RTVSPost2010PropOp28
 70
     1
102
RTVSPost2010Prop29
280
     1
102
RTVSPost2010PropOp29
 70
     1
102
RTVSPost2010Prop30
280
     1
102
RTVSPost2010PropOp30
 70
     1
102
RTVSPost2010Prop31
280
     0
102
RTVSPost2010PropOp31
 70
     1
102
RTVSPost2010Prop32
280
     0
102
RTVSPost2010PropOp32
 70
     1
102
RTVSPost2010Prop33
280
     0
102
RTVSPost2010PropOp33
 70
     1
102
RTVSPost2010Prop34
280
     0
102
RTVSPost2010PropOp34
 70
     1
102
RTVSPost2010Prop35
280
     0
102
RTVSPost2010PropOp35
 70
     1
102
RTVSPost2010Prop36
280
     0
102
RTVSPost2010PropOp36
 70
     1
102
RTVSPost2010Prop37
 90
       50
102
RTVSPost2010PropOp37
 70
     1
102
RTVSPost2010Prop38
140
0.0
102
RTVSPost2010PropOp38
 70
     1
102
RTVSPost2010Prop39
140
1.0
102
RTVSPost2010PropOp39
 70
     1
102
RTVSPost2010Prop40
 90
        0
102
RTVSPost2010PropOp40
 70
     1
102
RTVSPost2010Prop41ColorIndex
 90
       18
102
RTVSPost2010Prop41ColorRGB
 90
        0
102
RTVSPost2010PropOp41
 70
     1
102
RTVSPost2010Prop42
 90
       50
102
RTVSPost2010PropOp42
 70
     1
102
RTVSPost2010Prop43
 90
        3
102
RTVSPost2010PropOp43
 70
     1
102
RTVSPost2010Prop44ColorIndex
 90
        5
102
RTVSPost2010Prop44ColorRGB
 90
      255
102
RTVSPost2010PropOp44
 70
     1
102
RTVSPost2010Prop45
280
     0
102
RTVSPost2010PropOp45
 70
     1
102
RTVSPost2010Prop46
 90
       50
102
RTVSPost2010PropOp46
 70
     1
102
RTVSPost2010Prop47
 90
       50
102
RTVSPost2010PropOp47
 70
     1
102
RTVSPost2010Prop48
 90
       50
102
RTVSPost2010PropOp48
 70
     1
102
RTVSPost2010Prop49
280
     0
102
RTVSPost2010PropOp49
 70
     1
102
RTVSPost2010Prop50
 90
       50
102
RTVSPost2010PropOp50
 70
     1
102
RTVSPost2010Prop51ColorIndex
 90
      256
102
RTVSPost2010Prop51ColorRGB
 90
-16777216
102
RTVSPost2010PropOp51
 70
     0
102
RTVSPost2010Prop52
140
1.0
102
RTVSPost2010PropOp52
 70
     0
102
RTVSPost2010Prop53
 90
        2
102
RTVSPost2010PropOp53
 70
     1
102
RTVSPost2010Prop54
  1
strokes_ogs.tif
102
RTVSPost2010PropOp54
 70
     1
102
RTVSPost2010Prop55
280
     0
102
RTVSPost2010PropOp55
 70
     1
102
RTVSPost2010Prop56
140
1.0
102
RTVSPost2010PropOp56
 70
     1
102
RTVSPost2010Prop57
140
1.0
102
RTVSPost2010PropOp57
 70
     1
  0
XRECORD
  5
1F1E
102
{ACAD_REACTORS
330
1F1D
102
}
330
1F1D
100
AcDbXrecord
280
     1
102
RTVSPost2010Prop28
280
     0
102
RTVSPost2010PropOp28
 70
     1
102
RTVSPost2010Prop29
280
     1
102
RTVSPost2010PropOp29
 70
     1
102
RTVSPost2010Prop30
280
     1
102
RTVSPost2010PropOp30
 70
     1
102
RTVSPost2010Prop31
280
     0
102
RTVSPost2010PropOp31
 70
     1
102
RTVSPost2010Prop32
280
     0
102
RTVSPost2010PropOp32
 70
     1
102
RTVSPost2010Prop33
280
     0
102
RTVSPost2010PropOp33
 70
     1
102
RTVSPost2010Prop34
280
     0
102
RTVSPost2010PropOp34
 70
     1
102
RTVSPost2010Prop35
280
     0
102
RTVSPost2010PropOp35
 70
     1
102
RTVSPost2010Prop36
280
     0
102
RTVSPost2010PropOp36
 70
     1
102
RTVSPost2010Prop37
 90
       50
102
RTVSPost2010PropOp37
 70
     1
102
RTVSPost2010Prop38
140
0.0
102
RTVSPost2010PropOp38
 70
     1
102
RTVSPost2010Prop39
140
1.0
102
RTVSPost2010PropOp39
 70
     1
102
RTVSPost2010Prop40
 90
        0
102
RTVSPost2010PropOp40
 70
     1
102
RTVSPost2010Prop41ColorIndex
 90
       18
102
RTVSPost2010Prop41ColorRGB
 90
        0
102
RTVSPost2010PropOp41
 70
     1
102
RTVSPost2010Prop42
 90
       50
102
RTVSPost2010PropOp42
 70
     1
102
RTVSPost2010Prop43
 90
        3
102
RTVSPost2010PropOp43
 70
     1
102
RTVSPost2010Prop44ColorIndex
 90
        5
102
RTVSPost2010Prop44ColorRGB
 90
      255
102
RTVSPost2010PropOp44
 70
     1
102
RTVSPost2010Prop45
280
     0
102
RTVSPost2010PropOp45
 70
     1
102
RTVSPost2010Prop46
 90
       50
102
RTVSPost2010PropOp46
 70
     1
102
RTVSPost2010Prop47
 90
       50
102
RTVSPost2010PropOp47
 70
     1
102
RTVSPost2010Prop48
 90
       50
102
RTVSPost2010PropOp48
 70
     1
102
RTVSPost2010Prop49
280
     0
102
RTVSPost2010PropOp49
 70
     1
102
RTVSPost2010Prop50
 90
       50
102
RTVSPost2010PropOp50
 70
     1
102
RTVSPost2010Prop51ColorIndex
 90
      256
102
RTVSPost2010Prop51ColorRGB
 90
-16777216
102
RTVSPost2010PropOp51
 70
     0
102
RTVSPost2010Prop52
140
1.0
102
RTVSPost2010PropOp52
 70
     0
102
RTVSPost2010Prop53
 90
        2
102
RTVSPost2010PropOp53
 70
     1
102
RTVSPost2010Prop54
  1
strokes_ogs.tif
102
RTVSPost2010PropOp54
 70
     1
102
RTVSPost2010Prop55
280
     0
102
RTVSPost2010PropOp55
 70
     1
102
RTVSPost2010Prop56
140
1.0
102
RTVSPost2010PropOp56
 70
     1
102
RTVSPost2010Prop57
140
1.0
102
RTVSPost2010PropOp57
 70
     1
  0
XRECORD
  5
1F20
102
{ACAD_REACTORS
330
1F1F
102
}
330
1F1F
100
AcDbXrecord
280
     1
102
RTVSPost2010Prop28
280
     0
102
RTVSPost2010PropOp28
 70
     1
102
RTVSPost2010Prop29
280
     1
102
RTVSPost2010PropOp29
 70
     1
102
RTVSPost2010Prop30
280
     1
102
RTVSPost2010PropOp30
 70
     1
102
RTVSPost2010Prop31
280
     0
102
RTVSPost2010PropOp31
 70
     1
102
RTVSPost2010Prop32
280
     0
102
RTVSPost2010PropOp32
 70
     1
102
RTVSPost2010Prop33
280
     0
102
RTVSPost2010PropOp33
 70
     1
102
RTVSPost2010Prop34
280
     0
102
RTVSPost2010PropOp34
 70
     1
102
RTVSPost2010Prop35
280
     0
102
RTVSPost2010PropOp35
 70
     1
102
RTVSPost2010Prop36
280
     0
102
RTVSPost2010PropOp36
 70
     1
102
RTVSPost2010Prop37
 90
       50
102
RTVSPost2010PropOp37
 70
     1
102
RTVSPost2010Prop38
140
0.0
102
RTVSPost2010PropOp38
 70
     1
102
RTVSPost2010Prop39
140
1.0
102
RTVSPost2010PropOp39
 70
     1
102
RTVSPost2010Prop40
 90
        0
102
RTVSPost2010PropOp40
 70
     1
102
RTVSPost2010Prop41ColorIndex
 90
       18
102
RTVSPost2010Prop41ColorRGB
 90
        0
102
RTVSPost2010PropOp41
 70
     1
102
RTVSPost2010Prop42
 90
       50
102
RTVSPost2010PropOp42
 70
     1
102
RTVSPost2010Prop43
 90
        3
102
RTVSPost2010PropOp43
 70
     1
102
RTVSPost2010Prop44ColorIndex
 90
        5
102
RTVSPost2010Prop44ColorRGB
 90
      255
102
RTVSPost2010PropOp44
 70
     1
102
RTVSPost2010Prop45
280
     0
102
RTVSPost2010PropOp45
 70
     1
102
RTVSPost2010Prop46
 90
       50
102
RTVSPost2010PropOp46
 70
     1
102
RTVSPost2010Prop47
 90
       50
102
RTVSPost2010PropOp47
 70
     1
102
RTVSPost2010Prop48
 90
       50
102
RTVSPost2010PropOp48
 70
     1
102
RTVSPost2010Prop49
280
     0
102
RTVSPost2010PropOp49
 70
     1
102
RTVSPost2010Prop50
 90
       50
102
RTVSPost2010PropOp50
 70
     1
102
RTVSPost2010Prop51ColorIndex
 90
      256
102
RTVSPost2010Prop51ColorRGB
 90
-16777216
102
RTVSPost2010PropOp51
 70
     0
102
RTVSPost2010Prop52
140
1.0
102
RTVSPost2010PropOp52
 70
     0
102
RTVSPost2010Prop53
 90
        2
102
RTVSPost2010PropOp53
 70
     1
102
RTVSPost2010Prop54
  1
strokes_ogs.tif
102
RTVSPost2010PropOp54
 70
     1
102
RTVSPost2010Prop55
280
     0
102
RTVSPost2010PropOp55
 70
     1
102
RTVSPost2010Prop56
140
1.0
102
RTVSPost2010PropOp56
 70
     1
102
RTVSPost2010Prop57
140
1.0
102
RTVSPost2010PropOp57
 70
     1
  0
XRECORD
  5
1F16
102
{ACAD_REACTORS
330
1F15
102
}
330
1F15
100
AcDbXrecord
280
     1
102
RTVSPost2010Prop28
280
     0
102
RTVSPost2010PropOp28
 70
     1
102
RTVSPost2010Prop29
280
     1
102
RTVSPost2010PropOp29
 70
     1
102
RTVSPost2010Prop30
280
     1
102
RTVSPost2010PropOp30
 70
     1
102
RTVSPost2010Prop31
280
     0
102
RTVSPost2010PropOp31
 70
     1
102
RTVSPost2010Prop32
280
     0
102
RTVSPost2010PropOp32
 70
     1
102
RTVSPost2010Prop33
280
     0
102
RTVSPost2010PropOp33
 70
     1
102
RTVSPost2010Prop34
280
     0
102
RTVSPost2010PropOp34
 70
     1
102
RTVSPost2010Prop35
280
     0
102
RTVSPost2010PropOp35
 70
     1
102
RTVSPost2010Prop36
280
     0
102
RTVSPost2010PropOp36
 70
     1
102
RTVSPost2010Prop37
 90
       50
102
RTVSPost2010PropOp37
 70
     1
102
RTVSPost2010Prop38
140
0.0
102
RTVSPost2010PropOp38
 70
     1
102
RTVSPost2010Prop39
140
1.0
102
RTVSPost2010PropOp39
 70
     1
102
RTVSPost2010Prop40
 90
        0
102
RTVSPost2010PropOp40
 70
     1
102
RTVSPost2010Prop41ColorIndex
 90
       18
102
RTVSPost2010Prop41ColorRGB
 90
        0
102
RTVSPost2010PropOp41
 70
     1
102
RTVSPost2010Prop42
 90
       50
102
RTVSPost2010PropOp42
 70
     1
102
RTVSPost2010Prop43
 90
        3
102
RTVSPost2010PropOp43
 70
     1
102
RTVSPost2010Prop44ColorIndex
 90
        5
102
RTVSPost2010Prop44ColorRGB
 90
      255
102
RTVSPost2010PropOp44
 70
     1
102
RTVSPost2010Prop45
280
     0
102
RTVSPost2010PropOp45
 70
     1
102
RTVSPost2010Prop46
 90
       50
102
RTVSPost2010PropOp46
 70
     1
102
RTVSPost2010Prop47
 90
       50
102
RTVSPost2010PropOp47
 70
     1
102
RTVSPost2010Prop48
 90
       50
102
RTVSPost2010PropOp48
 70
     1
102
RTVSPost2010Prop49
280
     0
102
RTVSPost2010PropOp49
 70
     1
102
RTVSPost2010Prop50
 90
       50
102
RTVSPost2010PropOp50
 70
     1
102
RTVSPost2010Prop51ColorIndex
 90
      256
102
RTVSPost2010Prop51ColorRGB
 90
-16777216
102
RTVSPost2010PropOp51
 70
     0
102
RTVSPost2010Prop52
140
1.0
102
RTVSPost2010PropOp52
 70
     0
102
RTVSPost2010Prop53
 90
        2
102
RTVSPost2010PropOp53
 70
     1
102
RTVSPost2010Prop54
  1
strokes_ogs.tif
102
RTVSPost2010PropOp54
 70
     1
102
RTVSPost2010Prop55
280
     0
102
RTVSPost2010PropOp55
 70
     1
102
RTVSPost2010Prop56
140
1.0
102
RTVSPost2010PropOp56
 70
     1
102
RTVSPost2010Prop57
140
1.0
102
RTVSPost2010PropOp57
 70
     1
  0
XRECORD
  5
1F0A
102
{ACAD_REACTORS
330
1F09
102
}
330
1F09
100
AcDbXrecord
280
     1
102
RTVSPost2010Prop28
280
     0
102
RTVSPost2010PropOp28
 70
     1
102
RTVSPost2010Prop29
280
     1
102
RTVSPost2010PropOp29
 70
     1
102
RTVSPost2010Prop30
280
     1
102
RTVSPost2010PropOp30
 70
     1
102
RTVSPost2010Prop31
280
     0
102
RTVSPost2010PropOp31
 70
     1
102
RTVSPost2010Prop32
280
     0
102
RTVSPost2010PropOp32
 70
     1
102
RTVSPost2010Prop33
280
     0
102
RTVSPost2010PropOp33
 70
     1
102
RTVSPost2010Prop34
280
     0
102
RTVSPost2010PropOp34
 70
     1
102
RTVSPost2010Prop35
280
     0
102
RTVSPost2010PropOp35
 70
     1
102
RTVSPost2010Prop36
280
     0
102
RTVSPost2010PropOp36
 70
     1
102
RTVSPost2010Prop37
 90
       50
102
RTVSPost2010PropOp37
 70
     1
102
RTVSPost2010Prop38
140
0.0
102
RTVSPost2010PropOp38
 70
     1
102
RTVSPost2010Prop39
140
1.0
102
RTVSPost2010PropOp39
 70
     1
102
RTVSPost2010Prop40
 90
        0
102
RTVSPost2010PropOp40
 70
     1
102
RTVSPost2010Prop41ColorIndex
 90
       18
102
RTVSPost2010Prop41ColorRGB
 90
        0
102
RTVSPost2010PropOp41
 70
     1
102
RTVSPost2010Prop42
 90
       50
102
RTVSPost2010PropOp42
 70
     1
102
RTVSPost2010Prop43
 90
        3
102
RTVSPost2010PropOp43
 70
     1
102
RTVSPost2010Prop44ColorIndex
 90
        5
102
RTVSPost2010Prop44ColorRGB
 90
      255
102
RTVSPost2010PropOp44
 70
     1
102
RTVSPost2010Prop45
280
     0
102
RTVSPost2010PropOp45
 70
     1
102
RTVSPost2010Prop46
 90
       50
102
RTVSPost2010PropOp46
 70
     1
102
RTVSPost2010Prop47
 90
       50
102
RTVSPost2010PropOp47
 70
     1
102
RTVSPost2010Prop48
 90
       50
102
RTVSPost2010PropOp48
 70
     1
102
RTVSPost2010Prop49
280
     0
102
RTVSPost2010PropOp49
 70
     1
102
RTVSPost2010Prop50
 90
       50
102
RTVSPost2010PropOp50
 70
     1
102
RTVSPost2010Prop51ColorIndex
 90
      256
102
RTVSPost2010Prop51ColorRGB
 90
-16777216
102
RTVSPost2010PropOp51
 70
     0
102
RTVSPost2010Prop52
140
1.0
102
RTVSPost2010PropOp52
 70
     0
102
RTVSPost2010Prop53
 90
        2
102
RTVSPost2010PropOp53
 70
     1
102
RTVSPost2010Prop54
  1
strokes_ogs.tif
102
RTVSPost2010PropOp54
 70
     1
102
RTVSPost2010Prop55
280
     0
102
RTVSPost2010PropOp55
 70
     1
102
RTVSPost2010Prop56
140
1.0
102
RTVSPost2010PropOp56
 70
     1
102
RTVSPost2010Prop57
140
1.0
102
RTVSPost2010PropOp57
 70
     1
  0
XRECORD
  5
1F22
102
{ACAD_REACTORS
330
1F21
102
}
330
1F21
100
AcDbXrecord
280
     1
102
RTVSPost2010Prop28
280
     0
102
RTVSPost2010PropOp28
 70
     1
102
RTVSPost2010Prop29
280
     1
102
RTVSPost2010PropOp29
 70
     1
102
RTVSPost2010Prop30
280
     1
102
RTVSPost2010PropOp30
 70
     1
102
RTVSPost2010Prop31
280
     0
102
RTVSPost2010PropOp31
 70
     1
102
RTVSPost2010Prop32
280
     0
102
RTVSPost2010PropOp32
 70
     1
102
RTVSPost2010Prop33
280
     0
102
RTVSPost2010PropOp33
 70
     1
102
RTVSPost2010Prop34
280
     0
102
RTVSPost2010PropOp34
 70
     1
102
RTVSPost2010Prop35
280
     0
102
RTVSPost2010PropOp35
 70
     1
102
RTVSPost2010Prop36
280
     0
102
RTVSPost2010PropOp36
 70
     1
102
RTVSPost2010Prop37
 90
       50
102
RTVSPost2010PropOp37
 70
     1
102
RTVSPost2010Prop38
140
0.0
102
RTVSPost2010PropOp38
 70
     1
102
RTVSPost2010Prop39
140
1.0
102
RTVSPost2010PropOp39
 70
     1
102
RTVSPost2010Prop40
 90
        0
102
RTVSPost2010PropOp40
 70
     1
102
RTVSPost2010Prop41ColorIndex
 90
       18
102
RTVSPost2010Prop41ColorRGB
 90
        0
102
RTVSPost2010PropOp41
 70
     1
102
RTVSPost2010Prop42
 90
       50
102
RTVSPost2010PropOp42
 70
     1
102
RTVSPost2010Prop43
 90
        3
102
RTVSPost2010PropOp43
 70
     1
102
RTVSPost2010Prop44ColorIndex
 90
        5
102
RTVSPost2010Prop44ColorRGB
 90
      255
102
RTVSPost2010PropOp44
 70
     1
102
RTVSPost2010Prop45
280
     0
102
RTVSPost2010PropOp45
 70
     1
102
RTVSPost2010Prop46
 90
       50
102
RTVSPost2010PropOp46
 70
     1
102
RTVSPost2010Prop47
 90
       50
102
RTVSPost2010PropOp47
 70
     1
102
RTVSPost2010Prop48
 90
       50
102
RTVSPost2010PropOp48
 70
     1
102
RTVSPost2010Prop49
280
     0
102
RTVSPost2010PropOp49
 70
     1
102
RTVSPost2010Prop50
 90
       50
102
RTVSPost2010PropOp50
 70
     1
102
RTVSPost2010Prop51ColorIndex
 90
      256
102
RTVSPost2010Prop51ColorRGB
 90
-16777216
102
RTVSPost2010PropOp51
 70
     0
102
RTVSPost2010Prop52
140
1.0
102
RTVSPost2010PropOp52
 70
     0
102
RTVSPost2010Prop53
 90
        2
102
RTVSPost2010PropOp53
 70
     1
102
RTVSPost2010Prop54
  1
strokes_ogs.tif
102
RTVSPost2010PropOp54
 70
     1
102
RTVSPost2010Prop55
280
     0
102
RTVSPost2010PropOp55
 70
     1
102
RTVSPost2010Prop56
140
1.0
102
RTVSPost2010PropOp56
 70
     1
102
RTVSPost2010Prop57
140
1.0
102
RTVSPost2010PropOp57
 70
     1
  0
ENDSEC
  0
EOF
