  0
SECTION
  2
HEADER
  9
$ACADVER
  1
AC1024
  9
$ACADMAINTVER
 70
   182
  9
$DWGCODEPAGE
  3
ANSI_1252
  9
$LASTSAVEDBY
  1
lkt513
  9
$INSBASE
 10
0.0
 20
0.0
 30
0.0
  9
$EXTMIN
 10
-21756.03373384013
 20
3338.024109912876
 30
-3283.121928156549
  9
$EXTMAX
 10
-19226.10241487255
 20
17791.71686178621
 30
6505.847409960606
  9
$LIMMIN
 10
0.0
 20
0.0
  9
$LIMMAX
 10
420.0
 20
297.0
  9
$ORTHOMODE
 70
     0
  9
$REGENMODE
 70
     1
  9
$FILLMODE
 70
     1
  9
$QTEXTMODE
 70
     0
  9
$MIRRTEXT
 70
     0
  9
$LTSCALE
 40
1.0
  9
$ATTMODE
 70
     1
  9
$TEXTSIZE
 40
2.5
  9
$TRACEWID
 40
1.0
  9
$TEXTSTYLE
  7
Standard
  9
$CLAYER
  8
TRACE
  9
$CELTYPE
  6
ByLayer
  9
$CECOLOR
 62
   256
  9
$CELTSCALE
 40
1.0
  9
$DISPSILH
 70
     0
  9
$DIMSCALE
 40
1.0
  9
$DIMASZ
 40
2.5
  9
$DIMEXO
 40
0.625
  9
$DIMDLI
 40
3.75
  9
$DIMRND
 40
0.0
  9
$DIMDLE
 40
0.0
  9
$DIMEXE
 40
1.25
  9
$DIMTP
 40
0.0
  9
$DIMTM
 40
0.0
  9
$DIMTXT
 40
2.5
  9
$DIMCEN
 40
2.5
  9
$DIMTSZ
 40
0.0
  9
$DIMTOL
 70
     0
  9
$DIMLIM
 70
     0
  9
$DIMTIH
 70
     0
  9
$DIMTOH
 70
     0
  9
$DIMSE1
 70
     0
  9
$DIMSE2
 70
     0
  9
$DIMTAD
 70
     1
  9
$DIMZIN
 70
     8
  9
$DIMBLK
  1

  9
$DIMASO
 70
     1
  9
$DIMSHO
 70
     1
  9
$DIMPOST
  1

  9
$DIMAPOST
  1

  9
$DIMALT
 70
     0
  9
$DIMALTD
 70
     3
  9
$DIMALTF
 40
0.03937007874016
  9
$DIMLFAC
 40
1.0
  9
$DIMTOFL
 70
     1
  9
$DIMTVP
 40
0.0
  9
$DIMTIX
 70
     0
  9
$DIMSOXD
 70
     0
  9
$DIMSAH
 70
     0
  9
$DIMBLK1
  1

  9
$DIMBLK2
  1

  9
$DIMSTYLE
  2
ISO-25
  9
$DIMCLRD
 70
     0
  9
$DIMCLRE
 70
     0
  9
$DIMCLRT
 70
     0
  9
$DIMTFAC
 40
1.0
  9
$DIMGAP
 40
0.625
  9
$DIMJUST
 70
     0
  9
$DIMSD1
 70
     0
  9
$DIMSD2
 70
     0
  9
$DIMTOLJ
 70
     0
  9
$DIMTZIN
 70
     8
  9
$DIMALTZ
 70
     0
  9
$DIMALTTZ
 70
     0
  9
$DIMUPT
 70
     0
  9
$DIMDEC
 70
     2
  9
$DIMTDEC
 70
     2
  9
$DIMALTU
 70
     2
  9
$DIMALTTD
 70
     3
  9
$DIMTXSTY
  7
Standard
  9
$DIMAUNIT
 70
     0
  9
$DIMADEC
 70
     0
  9
$DIMALTRND
 40
0.0
  9
$DIMAZIN
 70
     0
  9
$DIMDSEP
 70
    44
  9
$DIMATFIT
 70
     3
  9
$DIMFRAC
 70
     0
  9
$DIMLDRBLK
  1

  9
$DIMLUNIT
 70
     2
  9
$DIMLWD
 70
    -2
  9
$DIMLWE
 70
    -2
  9
$DIMTMOVE
 70
     0
  9
$DIMFXL
 40
1.0
  9
$DIMFXLON
 70
     0
  9
$DIMJOGANG
 40
0.7853981633974483
  9
$DIMTFILL
 70
     0
  9
$DIMTFILLCLR
 70
     0
  9
$DIMARCSYM
 70
     0
  9
$DIMLTYPE
  6

  9
$DIMLTEX1
  6

  9
$DIMLTEX2
  6

  9
$DIMTXTDIRECTION
 70
     0
  9
$LUNITS
 70
     2
  9
$LUPREC
 70
     4
  9
$SKETCHINC
 40
1.0
  9
$FILLETRAD
 40
0.0
  9
$AUNITS
 70
     0
  9
$AUPREC
 70
     0
  9
$MENU
  1
.
  9
$ELEVATION
 40
0.0
  9
$PELEVATION
 40
0.0
  9
$THICKNESS
 40
0.0
  9
$LIMCHECK
 70
     0
  9
$CHAMFERA
 40
0.0
  9
$CHAMFERB
 40
0.0
  9
$CHAMFERC
 40
0.0
  9
$CHAMFERD
 40
0.0
  9
$SKPOLY
 70
     0
  9
$TDCREATE
 40
2454447.729263646
  9
$TDUCREATE
 40
2454447.687596979
  9
$TDUPDATE
 40
2458054.457632604
  9
$TDUUPDATE
 40
2458054.415965938
  9
$TDINDWG
 40
0.0786533681
  9
$TDUSRTIMER
 40
0.0786531829
  9
$USRTIMER
 70
     1
  9
$ANGBASE
 50
0.0
  9
$ANGDIR
 70
     0
  9
$PDMODE
 70
     0
  9
$PDSIZE
 40
0.0
  9
$PLINEWID
 40
0.0
  9
$SPLFRAME
 70
     0
  9
$SPLINETYPE
 70
     6
  9
$SPLINESEGS
 70
     8
  9
$HANDSEED
  5
2981
  9
$SURFTAB1
 70
     6
  9
$SURFTAB2
 70
     6
  9
$SURFTYPE
 70
     6
  9
$SURFU
 70
     6
  9
$SURFV
 70
     6
  9
$UCSBASE
  2
ALLIGNED
  9
$UCSNAME
  2

  9
$UCSORG
 10
-21226.21815284714
 20
6364.901387337479
 30
0.0
  9
$UCSXDIR
 10
-0.1724157144378037
 20
-0.9850242745307863
 30
0.0
  9
$UCSYDIR
 10
0.0
 20
0.0
 30
1.0
  9
$UCSORTHOREF
  2
ALLIGNED
  9
$UCSORTHOVIEW
 70
     4
  9
$UCSORGTOP
 10
0.0
 20
0.0
 30
0.0
  9
$UCSORGBOTTOM
 10
0.0
 20
0.0
 30
0.0
  9
$UCSORGLEFT
 10
0.0
 20
0.0
 30
0.0
  9
$UCSORGRIGHT
 10
0.0
 20
0.0
 30
0.0
  9
$UCSORGFRONT
 10
0.0
 20
0.0
 30
0.0
  9
$UCSORGBACK
 10
0.0
 20
0.0
 30
0.0
  9
$PUCSBASE
  2

  9
$PUCSNAME
  2

  9
$PUCSORG
 10
0.0
 20
0.0
 30
0.0
  9
$PUCSXDIR
 10
1.0
 20
0.0
 30
0.0
  9
$PUCSYDIR
 10
0.0
 20
1.0
 30
0.0
  9
$PUCSORTHOREF
  2

  9
$PUCSORTHOVIEW
 70
     0
  9
$PUCSORGTOP
 10
0.0
 20
0.0
 30
0.0
  9
$PUCSORGBOTTOM
 10
0.0
 20
0.0
 30
0.0
  9
$PUCSORGLEFT
 10
0.0
 20
0.0
 30
0.0
  9
$PUCSORGRIGHT
 10
0.0
 20
0.0
 30
0.0
  9
$PUCSORGFRONT
 10
0.0
 20
0.0
 30
0.0
  9
$PUCSORGBACK
 10
0.0
 20
0.0
 30
0.0
  9
$USERI1
 70
     0
  9
$USERI2
 70
     0
  9
$USERI3
 70
     0
  9
$USERI4
 70
     0
  9
$USERI5
 70
     0
  9
$USERR1
 40
0.0
  9
$USERR2
 40
0.0
  9
$USERR3
 40
0.0
  9
$USERR4
 40
0.0
  9
$USERR5
 40
0.0
  9
$WORLDVIEW
 70
     1
  9
$SHADEDGE
 70
     3
  9
$SHADEDIF
 70
    70
  9
$TILEMODE
 70
     0
  9
$MAXACTVP
 70
    64
  9
$PINSBASE
 10
0.0
 20
0.0
 30
0.0
  9
$PLIMCHECK
 70
     0
  9
$PEXTMIN
 10
25.69999999999999
 20
19.5
 30
0.0
  9
$PEXTMAX
 10
231.3
 20
175.5
 30
0.0
  9
$PLIMMIN
 10
-20.0
 20
-7.5
  9
$PLIMMAX
 10
277.0
 20
202.5
  9
$UNITMODE
 70
     0
  9
$VISRETAIN
 70
     1
  9
$PLINEGEN
 70
     0
  9
$PSLTSCALE
 70
     1
  9
$TREEDEPTH
 70
  3020
  9
$CMLSTYLE
  2
Standard
  9
$CMLJUST
 70
     0
  9
$CMLSCALE
 40
20.0
  9
$PROXYGRAPHICS
 70
     1
  9
$MEASUREMENT
 70
     1
  9
$CELWEIGHT
370
    -1
  9
$ENDCAPS
280
     0
  9
$JOINSTYLE
280
     0
  9
$LWDISPLAY
290
     0
  9
$INSUNITS
 70
     4
  9
$HYPERLINKBASE
  1

  9
$STYLESHEET
  1

  9
$XEDIT
290
     1
  9
$CEPSNTYPE
380
     0
  9
$PSTYLEMODE
290
     1
  9
$FINGERPRINTGUID
  2
{0BD677D7-B5F8-46C7-8BD0-EC20BA0D4D5A}
  9
$VERSIONGUID
  2
{690A5F0D-BEAC-4007-A803-E85613925A74}
  9
$EXTNAMES
290
     1
  9
$PSVPSCALE
 40
0.0
  9
$OLESTARTUP
290
     0
  9
$SORTENTS
280
   127
  9
$INDEXCTL
280
     0
  9
$HIDETEXT
280
     1
  9
$XCLIPFRAME
280
     0
  9
$HALOGAP
280
     0
  9
$OBSCOLOR
 70
   257
  9
$OBSLTYPE
280
     0
  9
$INTERSECTIONDISPLAY
280
     0
  9
$INTERSECTIONCOLOR
 70
   257
  9
$DIMASSOC
280
     2
  9
$PROJECTNAME
  1

  9
$CAMERADISPLAY
290
     0
  9
$LENSLENGTH
 40
50.0
  9
$CAMERAHEIGHT
 40
0.0
  9
$STEPSPERSEC
 40
2.0
  9
$STEPSIZE
 40
6.0
  9
$3DDWFPREC
 40
2.0
  9
$PSOLWIDTH
 40
0.25
  9
$PSOLHEIGHT
 40
4.0
  9
$LOFTANG1
 40
1.570796326794896
  9
$LOFTANG2
 40
1.570796326794896
  9
$LOFTMAG1
 40
0.0
  9
$LOFTMAG2
 40
0.0
  9
$LOFTPARAM
 70
     7
  9
$LOFTNORMALS
280
     1
  9
$LATITUDE
 40
37.795
  9
$LONGITUDE
 40
-122.394
  9
$NORTHDIRECTION
 40
0.0
  9
$TIMEZONE
 70
 -8000
  9
$LIGHTGLYPHDISPLAY
280
     1
  9
$TILEMODELIGHTSYNCH
280
     1
  9
$CMATERIAL
347
288B
  9
$SOLIDHIST
280
     0
  9
$SHOWHIST
280
     1
  9
$DWFFRAME
280
     2
  9
$DGNFRAME
280
     0
  9
$REALWORLDSCALE
290
     1
  9
$INTERFERECOLOR
 62
     1
  9
$INTERFEREOBJVS
345
28AD
  9
$INTERFEREVPVS
346
28AA
  9
$CSHADOW
280
     0
  9
$SHADOWPLANELOCATION
 40
0.0
  0
ENDSEC
  0
SECTION
  2
CLASSES
  0
CLASS
  1
ACDBDICTIONARYWDFLT
  2
AcDbDictionaryWithDefault
  3
ObjectDBX Classes
 90
        0
 91
        1
280
     0
281
     0
  0
CLASS
  1
ACDBPLACEHOLDER
  2
AcDbPlaceHolder
  3
ObjectDBX Classes
 90
        0
 91
        1
280
     0
281
     0
  0
CLASS
  1
LAYOUT
  2
AcDbLayout
  3
ObjectDBX Classes
 90
        0
 91
        3
280
     0
281
     0
  0
CLASS
  1
DICTIONARYVAR
  2
AcDbDictionaryVar
  3
ObjectDBX Classes
 90
        0
 91
       19
280
     0
281
     0
  0
CLASS
  1
TABLESTYLE
  2
AcDbTableStyle
  3
ObjectDBX Classes
 90
     4095
 91
        1
280
     0
281
     0
  0
CLASS
  1
CYCURRENTVIEW
  2
CyCurrentView
  3
CloudWorx
 90
        0
 91
        1
280
     0
281
     0
  0
CLASS
  1
CYPREFERENCE
  2
CyPreferences
  3
CloudWorx
 90
        0
 91
        1
280
     0
281
     0
  0
CLASS
  1
CYPOINTCONTROL
  2
CyPointControl
  3
CloudWorx
 90
        0
 91
        1
280
     0
281
     0
  0
CLASS
  1
CYEXTVIEWREFS
  2
CyExtViewRefs
  3
CloudWorx
 90
        0
 91
        0
280
     0
281
     0
  0
CLASS
  1
CYCUTPLANES
  2
CyCutPlanes
  3
CloudWorx
 90
        0
 91
        0
280
     0
281
     0
  0
CLASS
  1
CYLIMITBOX
  2
CyLimitBox
  3
CloudWorx
 90
        0
 91
        0
280
     0
281
     0
  0
CLASS
  1
CYHIDERGNS
  2
CyHideRgns
  3
CloudWorx
 90
        0
 91
        0
280
     0
281
     0
  0
CLASS
  1
CYINTENSITYMAPPING
  2
CyIntensityMapping
  3
CloudWorx
 90
        0
 91
        0
280
     0
281
     0
  0
CLASS
  1
CYSCANWORLDS
  2
CyScanWorlds
  3
CloudWorx
 90
        0
 91
        0
280
     0
281
     0
  0
CLASS
  1
CYVIEWATTRIBUTE
  2
CyViewAttributes
  3
CloudWorx
 90
        0
 91
        0
280
     0
281
     0
  0
CLASS
  1
CYLAYERS
  2
CyLayers
  3
CloudWorx
 90
        0
 91
        0
280
     0
281
     0
  0
CLASS
  1
CYPOINTCLOUDS
  2
CyPointClouds
  3
CloudWorx
 90
        0
 91
        0
280
     0
281
     0
  0
CLASS
  1
CYPOINTBLOCKS
  2
CyPointBlocks
  3
CloudWorx
 90
        0
 91
        0
280
     0
281
     0
  0
CLASS
  1
CYPOINTVIEWMGRS
  2
CyPointViewMgrs
  3
CloudWorx
 90
        0
 91
        0
280
     0
281
     0
  0
CLASS
  1
CYLODMANAGER
  2
CyLodManager
  3
CloudWorx
 90
        0
 91
        0
280
     0
281
     0
  0
CLASS
  1
CYPOINTVIEWMGR
  2
CyPointViewMgr
  3
CloudWorx
 90
        0
 91
        0
280
     0
281
     0
  0
CLASS
  1
CYCLOUDEXTENT
  2
CyCloudExtent
  3
CloudWorx
 90
        0
 91
        0
280
     0
281
     1
  0
CLASS
  1
CYINTERFERENCETOOLS
  2
CyInterferenceTools
  3
CloudWorx
 90
        0
 91
        0
280
     0
281
     0
  0
CLASS
  1
CYPOINTBLOCK
  2
CyPointBlock
  3
CloudWorx
 90
        0
 91
        0
280
     0
281
     0
  0
CLASS
  1
CYPOINTBLOCKENT
  2
CyPointBlockEnt
  3
CloudWorx
 90
        0
 91
        0
280
     0
281
     1
  0
CLASS
  1
SORTENTSTABLE
  2
AcDbSortentsTable
  3
ObjectDBX Classes
 90
        0
 91
        1
280
     0
281
     0
  0
CLASS
  1
MATERIAL
  2
AcDbMaterial
  3
ObjectDBX Classes
 90
     1153
 91
        3
280
     0
281
     0
  0
CLASS
  1
VISUALSTYLE
  2
AcDbVisualStyle
  3
ObjectDBX Classes
 90
     4095
 91
       24
280
     0
281
     0
  0
CLASS
  1
SCALE
  2
AcDbScale
  3
ObjectDBX Classes
 90
     1153
 91
       17
280
     0
281
     0
  0
CLASS
  1
MLEADERSTYLE
  2
AcDbMLeaderStyle
  3
ACDB_MLEADERSTYLE_CLASS
 90
     4095
 91
        1
280
     0
281
     0
  0
CLASS
  1
ACDBSECTIONVIEWSTYLE
  2
AcDbSectionViewStyle
  3
ObjectDBX Classes
 90
     1025
 91
        1
280
     0
281
     0
  0
CLASS
  1
ACDBDETAILVIEWSTYLE
  2
AcDbDetailViewStyle
  3
ObjectDBX Classes
 90
     1025
 91
        1
280
     0
281
     0
  0
CLASS
  1
CELLSTYLEMAP
  2
AcDbCellStyleMap
  3
ObjectDBX Classes
 90
     1152
 91
        1
280
     0
281
     0
  0
ENDSEC
  0
SECTION
  2
TABLES
  0
TABLE
  2
VPORT
  5
8
330
0
100
AcDbSymbolTable
 70
     1
  0
VPORT
  5
2889
330
8
100
AcDbSymbolTableRecord
100
AcDbViewportTableRecord
  2
*Active
 70
     0
 10
0.0
 20
0.0
 11
1.0
 21
1.0
 12
-7378.544349607167
 22
1076.764824621012
 13
0.0
 23
0.0
 14
10.0
 24
10.0
 15
10.0
 25
10.0
 16
-0.9850242745307863
 26
0.1724157144378037
 36
0.0
 17
0.0
 27
0.0
 37
0.0
 40
23101.83043019466
 41
1.561660561660561
 42
50.0
 43
0.0
 44
0.0
 50
0.0
 51
0.0
 71
     0
 72
  1000
 73
     1
 74
     3
 75
     0
 76
     0
 77
     0
 78
     0
281
     0
 65
     1
110
-21226.21815284714
120
6364.901387337479
130
0.0
111
-0.1724157144378037
121
-0.9850242745307863
131
0.0
112
0.0
122
0.0
132
1.0
 79
     0
146
0.0
348
28A9
 60
     3
 61
     5
292
     1
282
     1
141
0.0
142
0.0
 63
   250
421
  3355443
1001
ACAD_NAV_VCDISPLAY
1070
     3
  0
ENDTAB
  0
TABLE
  2
LTYPE
  5
5
330
0
100
AcDbSymbolTable
 70
     1
  0
LTYPE
  5
14
330
5
100
AcDbSymbolTableRecord
100
AcDbLinetypeTableRecord
  2
ByBlock
 70
     0
  3

 72
    65
 73
     0
 40
0.0
  0
LTYPE
  5
15
330
5
100
AcDbSymbolTableRecord
100
AcDbLinetypeTableRecord
  2
ByLayer
 70
     0
  3

 72
    65
 73
     0
 40
0.0
  0
LTYPE
  5
16
330
5
100
AcDbSymbolTableRecord
100
AcDbLinetypeTableRecord
  2
Continuous
 70
     0
  3
Solid line
 72
    65
 73
     0
 40
0.0
  0
ENDTAB
  0
TABLE
  2
LAYER
  5
2
102
{ACAD_XDICTIONARY
360
27A
102
}
330
0
100
AcDbSymbolTable
 70
     3
  0
LAYER
  5
10
102
{ACAD_XDICTIONARY
360
28EA
102
}
330
2
100
AcDbSymbolTableRecord
100
AcDbLayerTableRecord
  2
0
 70
     0
 62
     7
  6
Continuous
370
    -3
390
F
347
289B
  0
LAYER
  5
277
102
{ACAD_XDICTIONARY
360
28EC
102
}
330
2
100
AcDbSymbolTableRecord
100
AcDbLayerTableRecord
  2
UCS
 70
     0
 62
  -232
  6
Continuous
370
    -3
390
F
347
289B
1001
AcAecLayerStandard
1000

1000

  0
LAYER
  5
279
102
{ACAD_XDICTIONARY
360
28EE
102
}
330
2
100
AcDbSymbolTableRecord
100
AcDbLayerTableRecord
  2
TRACE
 70
     0
 62
     7
  6
Continuous
370
    -3
390
F
347
289B
1001
AcAecLayerStandard
1000

1000

  0
ENDTAB
  0
TABLE
  2
STYLE
  5
3
330
0
100
AcDbSymbolTable
 70
     1
  0
STYLE
  5
11
330
3
100
AcDbSymbolTableRecord
100
AcDbTextStyleTableRecord
  2
Standard
 70
     0
 40
0.0
 41
1.0
 50
0.0
 71
     0
 42
2.5
  3
txt
  4

  0
ENDTAB
  0
TABLE
  2
VIEW
  5
6
330
0
100
AcDbSymbolTable
 70
     1
  0
ENDTAB
  0
TABLE
  2
UCS
  5
7
330
0
100
AcDbSymbolTable
 70
     1
  0
UCS
  5
447
330
7
100
AcDbSymbolTableRecord
100
AcDbUCSTableRecord
  2
ALLIGNED
 70
     0
 10
-21226.21815284714
 20
6364.901387337479
 30
0.0
 11
0.1724157144378037
 21
0.9850242745307863
 31
0.0
 12
-0.9850242745307863
 22
0.1724157144378037
 32
0.0
 79
     0
146
0.0
  0
ENDTAB
  0
TABLE
  2
APPID
  5
9
330
0
100
AcDbSymbolTable
 70
     5
  0
APPID
  5
12
330
9
100
AcDbSymbolTableRecord
100
AcDbRegAppTableRecord
  2
ACAD
 70
     0
  0
APPID
  5
9E
330
9
100
AcDbSymbolTableRecord
100
AcDbRegAppTableRecord
  2
ACAD_PSEXT
 70
     0
  0
APPID
  5
278
330
9
100
AcDbSymbolTableRecord
100
AcDbRegAppTableRecord
  2
AcAecLayerStandard
 70
     0
  0
APPID
  5
441
330
9
100
AcDbSymbolTableRecord
100
AcDbRegAppTableRecord
  2
ACAD_EXEMPT_FROM_CAD_STANDARDS
 70
     0
  0
APPID
  5
28E0
330
9
100
AcDbSymbolTableRecord
100
AcDbRegAppTableRecord
  2
ACAD_NAV_VCDISPLAY
 70
     0
  0
ENDTAB
  0
TABLE
  2
DIMSTYLE
  5
A
330
0
100
AcDbSymbolTable
 70
     1
100
AcDbDimStyleTable
 71
     1
340
27
  0
DIMSTYLE
105
27
330
A
100
AcDbSymbolTableRecord
100
AcDbDimStyleTableRecord
  2
ISO-25
 70
     0
 41
2.5
 42
0.625
 43
3.75
 44
1.25
 73
     0
 74
     0
 77
     1
 78
     8
140
2.5
141
2.5
143
0.03937007874016
147
0.625
171
     3
172
     1
271
     2
272
     2
274
     3
278
    44
283
     0
284
     8
340
11
  0
ENDTAB
  0
TABLE
  2
BLOCK_RECORD
  5
1
330
0
100
AcDbSymbolTable
 70
     1
  0
BLOCK_RECORD
  5
1F
102
{ACAD_XDICTIONARY
360
E9D
102
}
330
1
100
AcDbSymbolTableRecord
100
AcDbBlockTableRecord
  2
*Model_Space
340
22
 70
     0
280
     1
281
     0
  0
BLOCK_RECORD
  5
D2
330
1
100
AcDbSymbolTableRecord
100
AcDbBlockTableRecord
  2
*Paper_Space
340
D3
 70
     0
280
     1
281
     0
  0
BLOCK_RECORD
  5
D6
330
1
100
AcDbSymbolTableRecord
100
AcDbBlockTableRecord
  2
*Paper_Space0
340
D7
 70
     0
280
     1
281
     0
  0
ENDTAB
  0
ENDSEC
  0
SECTION
  2
BLOCKS
  0
BLOCK
  5
20
330
1F
100
AcDbEntity
  8
0
100
AcDbBlockBegin
  2
*Model_Space
 70
     0
 10
0.0
 20
0.0
 30
0.0
  3
*Model_Space
  1

  0
ENDBLK
  5
21
330
1F
100
AcDbEntity
  8
0
100
AcDbBlockEnd
  0
BLOCK
  5
D4
330
D2
100
AcDbEntity
 67
     1
  8
0
100
AcDbBlockBegin
  2
*Paper_Space
 70
     0
 10
0.0
 20
0.0
 30
0.0
  3
*Paper_Space
  1

  0
ENDBLK
  5
D5
330
D2
100
AcDbEntity
 67
     1
  8
0
100
AcDbBlockEnd
  0
BLOCK
  5
D8
330
D6
100
AcDbEntity
 67
     1
  8
0
100
AcDbBlockBegin
  2
*Paper_Space0
 70
     0
 10
0.0
 20
0.0
 30
0.0
  3
*Paper_Space0
  1

  0
ENDBLK
  5
D9
330
D6
100
AcDbEntity
 67
     1
  8
0
100
AcDbBlockEnd
  0
ENDSEC
  0
SECTION
  2
ENTITIES
  0
LWPOLYLINE
  5
43F
330
1F
100
AcDbEntity
  8
UCS
100
AcDbPolyline
 90
        2
 70
     0
 43
0.0
 10
-20546.64499774435
 20
10247.35523603926
 10
-21226.21815284714
 20
6364.901387337479
  0
POLYLINE
  5
512
330
1F
100
AcDbEntity
  8
TRACE
100
AcDb3dPolyline
 66
     1
 10
0.0
 20
0.0
 30
0.0
 70
     8
  0
VERTEX
  5
513
330
512
100
AcDbEntity
  8
TRACE
100
AcDbVertex
100
AcDb3dPolylineVertex
 10
-20349.58776730677
 20
11373.15839200888
 30
5270.085091963034
 70
    32
  0
VERTEX
  5
514
330
512
100
AcDbEntity
  8
TRACE
100
AcDbVertex
100
AcDb3dPolylineVertex
 10
-20357.87550180148
 20
11325.80992563052
 30
5270.085091963036
 70
    32
  0
VERTEX
  5
515
330
512
100
AcDbEntity
  8
TRACE
100
AcDbVertex
100
AcDb3dPolylineVertex
 10
-20362.21670055784
 20
11301.00832231078
 30
5270.085091963036
 70
    32
  0
VERTEX
  5
516
330
512
100
AcDbEntity
  8
TRACE
100
AcDbVertex
100
AcDb3dPolylineVertex
 10
-20363.79531828742
 20
11291.98955746724
 30
5267.797125898465
 70
    32
  0
SEQEND
  5
517
330
512
100
AcDbEntity
  8
TRACE
  0
POLYLINE
  5
518
330
1F
100
AcDbEntity
  8
TRACE
100
AcDb3dPolyline
 66
     1
 10
0.0
 20
0.0
 30
0.0
 70
     8
  0
VERTEX
  5
519
330
518
100
AcDbEntity
  8
TRACE
100
AcDbVertex
100
AcDb3dPolylineVertex
 10
-20363.79531828742
 20
11291.98955746724
 30
5270.085091963034
 70
    32
  0
VERTEX
  5
51A
330
518
100
AcDbEntity
  8
TRACE
100
AcDbVertex
100
AcDb3dPolylineVertex
 10
-20367.74185402578
 20
11269.44269440861
 30
5276.948990156739
 70
    32
  0
VERTEX
  5
51B
330
518
100
AcDbEntity
  8
TRACE
100
AcDbVertex
100
AcDb3dPolylineVertex
 10
-20374.45097937651
 20
11231.11294382357
 30
5290.676721553417
 70
    32
  0
VERTEX
  5
51C
330
518
100
AcDbEntity
  8
TRACE
100
AcDbVertex
100
AcDb3dPolylineVertex
 10
-20374.84563380891
 20
11228.85825261268
 30
5322.708148971283
 70
    32
  0
VERTEX
  5
51D
330
518
100
AcDbEntity
  8
TRACE
100
AcDbVertex
100
AcDb3dPolylineVertex
 10
-20387.47456705999
 20
11156.70818291458
 30
5320.420182906713
 70
    32
  0
VERTEX
  5
51E
330
518
100
AcDbEntity
  8
TRACE
100
AcDbVertex
100
AcDb3dPolylineVertex
 10
-20387.07991262759
 20
11158.96287412546
 30
5357.027542453714
 70
    32
  0
VERTEX
  5
51F
330
518
100
AcDbEntity
  8
TRACE
100
AcDbVertex
100
AcDb3dPolylineVertex
 10
-20394.18368382512
 20
11118.37848137975
 30
5359.315508518284
 70
    32
  0
SEQEND
  5
520
330
518
100
AcDbEntity
  8
TRACE
  0
POLYLINE
  5
585
330
1F
100
AcDbEntity
  8
TRACE
100
AcDb3dPolyline
 66
     1
 10
0.0
 20
0.0
 30
0.0
 70
     8
  0
VERTEX
  5
586
330
585
100
AcDbEntity
  8
TRACE
100
AcDbVertex
100
AcDb3dPolylineVertex
 10
-20409.37354803544
 20
11031.5976155939
 30
5688.388778007752
 70
    32
  0
VERTEX
  5
587
330
585
100
AcDbEntity
  8
TRACE
100
AcDbVertex
100
AcDb3dPolylineVertex
 10
-20390.89026352451
 20
11137.19404556956
 30
5689.504993751736
 70
    32
  0
VERTEX
  5
588
330
585
100
AcDbEntity
  8
TRACE
100
AcDbVertex
100
AcDb3dPolylineVertex
 10
-20390.89026352451
 20
11137.19404556956
 30
5626.998146912647
 70
    32
  0
VERTEX
  5
589
330
585
100
AcDbEntity
  8
TRACE
100
AcDbVertex
100
AcDb3dPolylineVertex
 10
-20384.72916582565
 20
11172.39287191152
 30
5624.765747920053
 70
    32
  0
VERTEX
  5
58A
330
585
100
AcDbEntity
  8
TRACE
100
AcDbVertex
100
AcDb3dPolylineVertex
 10
-20385.11423872463
 20
11170.19292074004
 30
5557.794103095777
 70
    32
  0
VERTEX
  5
58B
330
585
100
AcDbEntity
  8
TRACE
100
AcDbVertex
100
AcDb3dPolylineVertex
 10
-20392.43053794921
 20
11128.39433898407
 30
5557.794103095777
 70
    32
  0
VERTEX
  5
58C
330
585
100
AcDbEntity
  8
TRACE
100
AcDbVertex
100
AcDb3dPolylineVertex
 10
-20391.46786858017
 20
11133.89414333745
 30
5488.590091774266
 70
    32
  0
VERTEX
  5
58D
330
585
100
AcDbEntity
  8
TRACE
100
AcDbVertex
100
AcDb3dPolylineVertex
 10
-20395.51108679864
 20
11110.79492581309
 30
5488.590091774266
 70
    32
  0
VERTEX
  5
58E
330
585
100
AcDbEntity
  8
TRACE
100
AcDbVertex
100
AcDb3dPolylineVertex
 10
-20394.35588527291
 20
11117.3946812271
 30
5417.153713955518
 70
    32
  0
VERTEX
  5
58F
330
585
100
AcDbEntity
  8
TRACE
100
AcDbVertex
100
AcDb3dPolylineVertex
 10
-20383.18889998655
 20
11181.19252944679
 30
5416.037498211543
 70
    32
  0
VERTEX
  5
590
330
585
100
AcDbEntity
  8
TRACE
100
AcDbVertex
100
AcDb3dPolylineVertex
 10
-20383.57396429992
 20
11178.99262732553
 30
5383.667891543384
 70
    32
  0
VERTEX
  5
591
330
585
100
AcDbEntity
  8
TRACE
100
AcDbVertex
100
AcDb3dPolylineVertex
 10
-20394.16334453061
 20
11118.49468133795
 30
5384.784074792001
 70
    32
  0
VERTEX
  5
592
330
585
100
AcDbEntity
  8
TRACE
100
AcDbVertex
100
AcDb3dPolylineVertex
 10
-20394.35588527291
 20
11117.3946812271
 30
5357.995449357648
 70
    32
  0
SEQEND
  5
593
330
585
100
AcDbEntity
  8
TRACE
  0
POLYLINE
  5
594
330
1F
100
AcDbEntity
  8
TRACE
100
AcDb3dPolyline
 66
     1
 10
0.0
 20
0.0
 30
0.0
 70
     8
  0
VERTEX
  5
595
330
594
100
AcDbEntity
  8
TRACE
100
AcDbVertex
100
AcDb3dPolylineVertex
 10
-20409.20368187178
 20
11032.5680740882
 30
5688.855378935486
 70
    32
  0
VERTEX
  5
596
330
594
100
AcDbEntity
  8
TRACE
100
AcDbVertex
100
AcDb3dPolylineVertex
 10
-20412.28423072121
 20
11014.96866091722
 30
5688.855378935489
 70
    32
  0
VERTEX
  5
597
330
594
100
AcDbEntity
  8
TRACE
100
AcDbVertex
100
AcDb3dPolylineVertex
 10
-20413.63196440362
 20
11007.26895444258
 30
5723.457384596247
 70
    32
  0
VERTEX
  5
598
330
594
100
AcDbEntity
  8
TRACE
100
AcDbVertex
100
AcDb3dPolylineVertex
 10
-20414.97970667165
 20
10999.56919891772
 30
5746.897460284741
 70
    32
  0
VERTEX
  5
599
330
594
100
AcDbEntity
  8
TRACE
100
AcDbVertex
100
AcDb3dPolylineVertex
 10
-20416.51998109636
 20
10990.76949233224
 30
5770.337503477876
 70
    32
  0
VERTEX
  5
59A
330
594
100
AcDbEntity
  8
TRACE
100
AcDbVertex
100
AcDb3dPolylineVertex
 10
-20416.51998109636
 20
10990.76949233224
 30
5775.918484711688
 70
    32
  0
VERTEX
  5
59B
330
594
100
AcDbEntity
  8
TRACE
100
AcDbVertex
100
AcDb3dPolylineVertex
 10
-20414.78717451496
 20
11000.66914997836
 30
5819.450053847472
 70
    32
  0
VERTEX
  5
59C
330
594
100
AcDbEntity
  8
TRACE
100
AcDbVertex
100
AcDb3dPolylineVertex
 10
-20414.59464235827
 20
11001.76910103899
 30
5836.192965053535
 70
    32
  0
VERTEX
  5
59D
330
594
100
AcDbEntity
  8
TRACE
100
AcDbVertex
100
AcDb3dPolylineVertex
 10
-20409.20368187178
 20
11032.5680740882
 30
5839.541547294754
 70
    32
  0
VERTEX
  5
59E
330
594
100
AcDbEntity
  8
TRACE
100
AcDbVertex
100
AcDb3dPolylineVertex
 10
-20409.01114971509
 20
11033.66802514883
 30
5905.396976375047
 70
    32
  0
VERTEX
  5
59F
330
594
100
AcDbEntity
  8
TRACE
100
AcDbVertex
100
AcDb3dPolylineVertex
 10
-20409.39621402847
 20
11031.46812302757
 30
5971.252405455347
 70
    32
  0
VERTEX
  5
5A0
330
594
100
AcDbEntity
  8
TRACE
100
AcDbVertex
100
AcDb3dPolylineVertex
 10
-20414.97970667165
 20
10999.56919891772
 30
5970.136189711364
 70
    32
  0
VERTEX
  5
5A1
330
594
100
AcDbEntity
  8
TRACE
100
AcDbVertex
100
AcDb3dPolylineVertex
 10
-20414.40210161598
 20
11002.86910114984
 30
6018.132524336976
 70
    32
  0
VERTEX
  5
5A2
330
594
100
AcDbEntity
  8
TRACE
100
AcDbVertex
100
AcDb3dPolylineVertex
 10
-20420.56319931483
 20
10967.67027480788
 30
6057.199327982929
 70
    32
  0
VERTEX
  5
5A3
330
594
100
AcDbEntity
  8
TRACE
100
AcDbVertex
100
AcDb3dPolylineVertex
 10
-20419.79306210247
 20
10972.07012810063
 30
6065.012675713969
 70
    32
  0
VERTEX
  5
5A4
330
594
100
AcDbEntity
  8
TRACE
100
AcDbVertex
100
AcDb3dPolylineVertex
 10
-20413.82450514592
 20
11006.16895433173
 30
6063.896492465352
 70
    32
  0
VERTEX
  5
5A5
330
594
100
AcDbEntity
  8
TRACE
100
AcDbVertex
100
AcDb3dPolylineVertex
 10
-20414.21067700214
 20
11003.9627247328
 30
6126.706813506269
 70
    32
  0
VERTEX
  5
5A6
330
594
100
AcDbEntity
  8
TRACE
100
AcDbVertex
100
AcDb3dPolylineVertex
 10
-20409.97492662698
 20
11028.16189331779
 30
6126.706813506269
 70
    32
  0
VERTEX
  5
5A7
330
594
100
AcDbEntity
  8
TRACE
100
AcDbVertex
100
AcDb3dPolylineVertex
 10
-20409.97492662698
 20
11028.16189331779
 30
6189.213692840727
 70
    32
  0
VERTEX
  5
5A8
330
594
100
AcDbEntity
  8
TRACE
100
AcDbVertex
100
AcDb3dPolylineVertex
 10
-20423.23661026448
 20
10952.3968718597
 30
6187.894836008556
 70
    32
  0
VERTEX
  5
5A9
330
594
100
AcDbEntity
  8
TRACE
100
AcDbVertex
100
AcDb3dPolylineVertex
 10
-20424.15266839256
 20
10947.16336112096
 30
6251.623995954186
 70
    32
  0
VERTEX
  5
5AA
330
594
100
AcDbEntity
  8
TRACE
100
AcDbVertex
100
AcDb3dPolylineVertex
 10
-20455.90952760174
 20
10765.73397514011
 30
6249.853746024491
 70
    32
  0
VERTEX
  5
5AB
330
594
100
AcDbEntity
  8
TRACE
100
AcDbVertex
100
AcDb3dPolylineVertex
 10
-20455.60417203052
 20
10767.47849506976
 30
6191.435335867936
 70
    32
  0
VERTEX
  5
5AC
330
594
100
AcDbEntity
  8
TRACE
100
AcDbVertex
100
AcDb3dPolylineVertex
 10
-20486.44496452602
 20
10591.28266887787
 30
6189.665085938242
 70
    32
  0
VERTEX
  5
5AD
330
594
100
AcDbEntity
  8
TRACE
100
AcDbVertex
100
AcDb3dPolylineVertex
 10
-20520.95000670504
 20
10394.15270163058
 30
6187.894836008556
 70
    32
  0
VERTEX
  5
5AE
330
594
100
AcDbEntity
  8
TRACE
100
AcDbVertex
100
AcDb3dPolylineVertex
 10
-20528.88921721453
 20
10348.79537966048
 30
6191.435335867936
 70
    32
  0
SEQEND
  5
5AF
330
594
100
AcDbEntity
  8
TRACE
  0
POLYLINE
  5
5B7
330
1F
100
AcDbEntity
  8
TRACE
100
AcDb3dPolyline
 66
     1
 10
0.0
 20
0.0
 30
0.0
 70
     8
  0
VERTEX
  5
5B8
330
5B7
100
AcDbEntity
  8
TRACE
100
AcDbVertex
100
AcDb3dPolylineVertex
 10
-20529.33535092503
 20
10346.24658336332
 30
6191.424092472083
 70
    32
  0
VERTEX
  5
5B9
330
5B7
100
AcDbEntity
  8
TRACE
100
AcDbVertex
100
AcDb3dPolylineVertex
 10
-20535.74779216399
 20
10309.61181199127
 30
6186.11334268302
 70
    32
  0
VERTEX
  5
5BA
330
5B7
100
AcDbEntity
  8
TRACE
100
AcDbVertex
100
AcDb3dPolylineVertex
 10
-20535.44243659276
 20
10311.35633192092
 30
6127.694932526447
 70
    32
  0
VERTEX
  5
5BB
330
5B7
100
AcDbEntity
  8
TRACE
100
AcDbVertex
100
AcDb3dPolylineVertex
 10
-20535.74779216399
 20
10309.61181199127
 30
6101.141086095016
 70
    32
  0
VERTEX
  5
5BC
330
5B7
100
AcDbEntity
  8
TRACE
100
AcDbVertex
100
AcDb3dPolylineVertex
 10
-20544.9084249584
 20
10257.27641030255
 30
6127.694932526447
 70
    32
  0
VERTEX
  5
5BD
330
5B7
100
AcDbEntity
  8
TRACE
100
AcDbVertex
100
AcDb3dPolylineVertex
 10
-20547.04590537138
 20
10245.0648198452
 30
6058.654990296385
 70
    32
  0
VERTEX
  5
5BE
330
5B7
100
AcDbEntity
  8
TRACE
100
AcDbVertex
100
AcDb3dPolylineVertex
 10
-20573.00102589845
 20
10096.78121442731
 30
6056.884740366698
 70
    32
  0
VERTEX
  5
5BF
330
5B7
100
AcDbEntity
  8
TRACE
100
AcDbVertex
100
AcDb3dPolylineVertex
 10
-20573.37055885524
 20
10094.67004414412
 30
5848.028036485379
 70
    32
  0
VERTEX
  5
5C0
330
5B7
100
AcDbEntity
  8
TRACE
100
AcDbVertex
100
AcDb3dPolylineVertex
 10
-20567.90034466358
 20
10125.92179972358
 30
5825.37597336723
 70
    32
  0
VERTEX
  5
5C1
330
5B7
100
AcDbEntity
  8
TRACE
100
AcDbVertex
100
AcDb3dPolylineVertex
 10
-20571.80763560871
 20
10103.59914519552
 30
5780.071847130933
 70
    32
  0
VERTEX
  5
5C2
330
5B7
100
AcDbEntity
  8
TRACE
100
AcDbVertex
100
AcDb3dPolylineVertex
 10
-20571.02618257105
 20
10108.063646671
 30
5703.054845527379
 70
    32
  0
VERTEX
  5
5C3
330
5B7
100
AcDbEntity
  8
TRACE
100
AcDbVertex
100
AcDb3dPolylineVertex
 10
-20573.37638847996
 20
10094.63673904847
 30
3304.946850452991
 70
    32
  0
VERTEX
  5
5C4
330
5B7
100
AcDbEntity
  8
TRACE
100
AcDbVertex
100
AcDb3dPolylineVertex
 10
-20571.42740499005
 20
10105.77143204601
 30
1220.776369361144
 70
    32
  0
VERTEX
  5
5C5
330
5B7
100
AcDbEntity
  8
TRACE
100
AcDbVertex
100
AcDb3dPolylineVertex
 10
-20569.92611779048
 20
10114.34840160736
 30
-384.1988908823415
 70
    32
  0
VERTEX
  5
5C6
330
5B7
100
AcDbEntity
  8
TRACE
100
AcDbVertex
100
AcDb3dPolylineVertex
 10
-20568.39720211909
 20
10123.08321475904
 30
-1320.364550998546
 70
    32
  0
VERTEX
  5
5C7
330
5B7
100
AcDbEntity
  8
TRACE
100
AcDbVertex
100
AcDb3dPolylineVertex
 10
-20563.74881047237
 20
10149.63983475433
 30
-1378.752902943658
 70
    32
  0
VERTEX
  5
5C8
330
5B7
100
AcDbEntity
  8
TRACE
100
AcDbVertex
100
AcDb3dPolylineVertex
 10
-20566.07301058853
 20
10136.36150023157
 30
-1414.684196448346
 70
    32
  0
VERTEX
  5
5C9
330
5B7
100
AcDbEntity
  8
TRACE
100
AcDbVertex
100
AcDb3dPolylineVertex
 10
-20566.07301058853
 20
10136.36150023157
 30
-1473.072580888823
 70
    32
  0
VERTEX
  5
5CA
330
5B7
100
AcDbEntity
  8
TRACE
100
AcDbVertex
100
AcDb3dPolylineVertex
 10
-20566.84774109872
 20
10131.93540507405
 30
-1544.935167898196
 70
    32
  0
VERTEX
  5
5CB
330
5B7
100
AcDbEntity
  8
TRACE
100
AcDbVertex
100
AcDb3dPolylineVertex
 10
-20580.79290745326
 20
10052.26559413839
 30
-1567.392226338625
 70
    32
  0
VERTEX
  5
5CC
330
5B7
100
AcDbEntity
  8
TRACE
100
AcDbVertex
100
AcDb3dPolylineVertex
 10
-20590.86442125688
 20
9994.726258990294
 30
-1616.797787402933
 70
    32
  0
VERTEX
  5
5CD
330
5B7
100
AcDbEntity
  8
TRACE
100
AcDbVertex
100
AcDb3dPolylineVertex
 10
-20592.41388227725
 20
9985.874068675263
 30
-1814.419934174069
 70
    32
  0
SEQEND
  5
5CE
330
5B7
100
AcDbEntity
  8
TRACE
  0
POLYLINE
  5
5CF
330
1F
100
AcDbEntity
  8
TRACE
100
AcDb3dPolyline
 66
     1
 10
0.0
 20
0.0
 30
0.0
 70
     8
  0
VERTEX
  5
5D0
330
5CF
100
AcDbEntity
  8
TRACE
100
AcDbVertex
100
AcDb3dPolylineVertex
 10
-20270.16331165814
 20
11826.91643291825
 30
1102.275039031893
 70
    32
  0
VERTEX
  5
5D1
330
5CF
100
AcDbEntity
  8
TRACE
100
AcDbVertex
100
AcDb3dPolylineVertex
 10
-20338.33969099611
 20
11437.41951950472
 30
1102.275039031893
 70
    32
  0
VERTEX
  5
5D2
330
5CF
100
AcDbEntity
  8
TRACE
100
AcDbVertex
100
AcDb3dPolylineVertex
 10
-20338.81980652494
 20
11434.6765824585
 30
1174.643708835933
 70
    32
  0
VERTEX
  5
5D3
330
5CF
100
AcDbEntity
  8
TRACE
100
AcDbVertex
100
AcDb3dPolylineVertex
 10
-20388.27168023829
 20
11152.1542138478
 30
1171.860318456
 70
    32
  0
VERTEX
  5
5D4
330
5CF
100
AcDbEntity
  8
TRACE
100
AcDbVertex
100
AcDb3dPolylineVertex
 10
-20389.23191129596
 20
11146.66833975535
 30
1088.357989646148
 70
    32
  0
VERTEX
  5
5D5
330
5CF
100
AcDbEntity
  8
TRACE
100
AcDbVertex
100
AcDb3dPolylineVertex
 10
-20381.55007142018
 20
11190.55528344476
 30
1088.357989646148
 70
    32
  0
VERTEX
  5
5D6
330
5CF
100
AcDbEntity
  8
TRACE
100
AcDbVertex
100
AcDb3dPolylineVertex
 10
-20382.51029389225
 20
11185.06945840253
 30
882.38567173522
 70
    32
  0
VERTEX
  5
5D7
330
5CF
100
AcDbEntity
  8
TRACE
100
AcDbVertex
100
AcDb3dPolylineVertex
 10
-20364.7460279109
 20
11286.5580800627
 30
862.9017765988782
 70
    32
  0
VERTEX
  5
5D8
330
5CF
100
AcDbEntity
  8
TRACE
100
AcDbVertex
100
AcDb3dPolylineVertex
 10
-20354.18349486211
 20
11346.90264602947
 30
835.06767782738
 70
    32
  0
VERTEX
  5
5D9
330
5CF
100
AcDbEntity
  8
TRACE
100
AcDbVertex
100
AcDb3dPolylineVertex
 10
-20299.9304658604
 20
11656.85438510242
 30
835.0676778273802
 70
    32
  0
VERTEX
  5
5DA
330
5CF
100
AcDbEntity
  8
TRACE
100
AcDbVertex
100
AcDb3dPolylineVertex
 10
-20298.97023480272
 20
11662.34025919488
 30
823.9340513169327
 70
    32
  0
VERTEX
  5
5DB
330
5CF
100
AcDbEntity
  8
TRACE
100
AcDbVertex
100
AcDb3dPolylineVertex
 10
-20269.68319612931
 20
11829.65936996447
 30
823.9340513169327
 70
    32
  0
SEQEND
  5
5DC
330
5CF
100
AcDbEntity
  8
TRACE
  0
POLYLINE
  5
5DD
330
1F
100
AcDbEntity
  8
TRACE
100
AcDb3dPolyline
 66
     1
 10
0.0
 20
0.0
 30
0.0
 70
     8
  0
VERTEX
  5
5DE
330
5DD
100
AcDbEntity
  8
TRACE
100
AcDbVertex
100
AcDb3dPolylineVertex
 10
-20444.92528688417
 20
10828.48778954372
 30
1169.076895580709
 70
    32
  0
VERTEX
  5
5DF
330
5DD
100
AcDbEntity
  8
TRACE
100
AcDbVertex
100
AcDb3dPolylineVertex
 10
-20424.28032772981
 20
10946.43403348125
 30
1169.07689558071
 70
    32
  0
VERTEX
  5
5E0
330
5DD
100
AcDbEntity
  8
TRACE
100
AcDbVertex
100
AcDb3dPolylineVertex
 10
-20425.72067431632
 20
10938.20522234257
 30
926.9202102723966
 70
    32
  0
VERTEX
  5
5E1
330
5DD
100
AcDbEntity
  8
TRACE
100
AcDbVertex
100
AcDb3dPolylineVertex
 10
-20444.44517135534
 20
10831.23072658994
 30
924.1368198924636
 70
    32
  0
VERTEX
  5
5E2
330
5DD
100
AcDbEntity
  8
TRACE
100
AcDbVertex
100
AcDb3dPolylineVertex
 10
-20444.92528688417
 20
10828.48778954372
 30
1169.07689558071
 70
    32
  0
SEQEND
  5
5E3
330
5DD
100
AcDbEntity
  8
TRACE
  0
POLYLINE
  5
5E4
330
1F
100
AcDbEntity
  8
TRACE
100
AcDb3dPolyline
 66
     1
 10
0.0
 20
0.0
 30
0.0
 70
     8
  0
VERTEX
  5
5E5
330
5E4
100
AcDbEntity
  8
TRACE
100
AcDbVertex
100
AcDb3dPolylineVertex
 10
-20504.45958670308
 20
10488.36374296227
 30
1191.344181096976
 70
    32
  0
VERTEX
  5
5E6
330
5E4
100
AcDbEntity
  8
TRACE
100
AcDbVertex
100
AcDb3dPolylineVertex
 10
-20482.85439649104
 20
10611.79586099225
 30
1185.777367841753
 70
    32
  0
VERTEX
  5
5E7
330
5E4
100
AcDbEntity
  8
TRACE
100
AcDbVertex
100
AcDb3dPolylineVertex
 10
-20483.33451201988
 20
10609.05292394603
 30
924.1368198924638
 70
    32
  0
VERTEX
  5
5E8
330
5E4
100
AcDbEntity
  8
TRACE
100
AcDbVertex
100
AcDb3dPolylineVertex
 10
-20506.38004881843
 20
10477.39199477737
 30
924.1368198924636
 70
    32
  0
VERTEX
  5
5E9
330
5E4
100
AcDbEntity
  8
TRACE
100
AcDbVertex
100
AcDb3dPolylineVertex
 10
-20505.41981776075
 20
10482.87786886982
 30
1188.560758221679
 70
    32
  0
SEQEND
  5
5EA
330
5E4
100
AcDbEntity
  8
TRACE
  0
POLYLINE
  5
5EB
330
1F
100
AcDbEntity
  8
TRACE
100
AcDb3dPolyline
 66
     1
 10
0.0
 20
0.0
 30
0.0
 70
     8
  0
VERTEX
  5
5EC
330
5EB
100
AcDbEntity
  8
TRACE
100
AcDbVertex
100
AcDb3dPolylineVertex
 10
-20280.97321311267
 20
11765.15863217071
 30
2600.545858325594
 70
    32
  0
VERTEX
  5
5ED
330
5EB
100
AcDbEntity
  8
TRACE
100
AcDbVertex
100
AcDb3dPolylineVertex
 10
-20284.33718131659
 20
11745.94002236818
 30
1271.958646932518
 70
    32
  0
SEQEND
  5
5EE
330
5EB
100
AcDbEntity
  8
TRACE
  0
POLYLINE
  5
5EF
330
1F
100
AcDbEntity
  8
TRACE
100
AcDb3dPolyline
 66
     1
 10
0.0
 20
0.0
 30
0.0
 70
     8
  0
VERTEX
  5
5F0
330
5EF
100
AcDbEntity
  8
TRACE
100
AcDbVertex
100
AcDb3dPolylineVertex
 10
-20319.23835465179
 20
11546.5469272731
 30
2607.85919989499
 70
    32
  0
VERTEX
  5
5F1
330
5EF
100
AcDbEntity
  8
TRACE
100
AcDbVertex
100
AcDb3dPolylineVertex
 10
-20318.39736045441
 20
11551.35159198628
 30
2393.335012121619
 70
    32
  0
VERTEX
  5
5F2
330
5EF
100
AcDbEntity
  8
TRACE
100
AcDbVertex
100
AcDb3dPolylineVertex
 10
-20281.39371021136
 20
11762.75629981411
 30
2388.459472738932
 70
    32
  0
VERTEX
  5
5F3
330
5EF
100
AcDbEntity
  8
TRACE
100
AcDbVertex
100
AcDb3dPolylineVertex
 10
-20282.23470440874
 20
11757.95163510092
 30
2378.708361478193
 70
    32
  0
VERTEX
  5
5F4
330
5EF
100
AcDbEntity
  8
TRACE
100
AcDbVertex
100
AcDb3dPolylineVertex
 10
-20312.93091534265
 20
11582.58181452157
 30
2381.146131169537
 70
    32
  0
VERTEX
  5
5F5
330
5EF
100
AcDbEntity
  8
TRACE
100
AcDbVertex
100
AcDb3dPolylineVertex
 10
-20310.82843843481
 20
11594.59342725432
 30
2190.99970530033
 70
    32
  0
VERTEX
  5
5F6
330
5EF
100
AcDbEntity
  8
TRACE
100
AcDbVertex
100
AcDb3dPolylineVertex
 10
-20256.5844414879
 20
11904.49356550161
 30
2186.124165917644
 70
    32
  0
VERTEX
  5
5F7
330
5EF
100
AcDbEntity
  8
TRACE
100
AcDbVertex
100
AcDb3dPolylineVertex
 10
-20256.5844414879
 20
11904.49356550161
 30
2178.810856843613
 70
    32
  0
VERTEX
  5
5F8
330
5EF
100
AcDbEntity
  8
TRACE
100
AcDbVertex
100
AcDb3dPolylineVertex
 10
-20310.40794133612
 20
11596.99575961091
 30
2181.248626534956
 70
    32
  0
VERTEX
  5
5F9
330
5EF
100
AcDbEntity
  8
TRACE
100
AcDbVertex
100
AcDb3dPolylineVertex
 10
-20309.56694713874
 20
11601.8004243241
 30
1969.162208452928
 70
    32
  0
VERTEX
  5
5FA
330
5EF
100
AcDbEntity
  8
TRACE
100
AcDbVertex
100
AcDb3dPolylineVertex
 10
-20257.00493858658
 20
11902.09123314501
 30
1969.162208452929
 70
    32
  0
VERTEX
  5
5FB
330
5EF
100
AcDbEntity
  8
TRACE
100
AcDbVertex
100
AcDb3dPolylineVertex
 10
-20257.00493858658
 20
11902.09123314501
 30
1956.973359996211
 70
    32
  0
VERTEX
  5
5FC
330
5EF
100
AcDbEntity
  8
TRACE
100
AcDbVertex
100
AcDb3dPolylineVertex
 10
-20309.98744423743
 20
11599.3980919675
 30
1966.724438761585
 70
    32
  0
SEQEND
  5
5FD
330
5EF
100
AcDbEntity
  8
TRACE
  0
POLYLINE
  5
5FE
330
1F
100
AcDbEntity
  8
TRACE
100
AcDb3dPolyline
 66
     1
 10
0.0
 20
0.0
 30
0.0
 70
     8
  0
VERTEX
  5
5FF
330
5FE
100
AcDbEntity
  8
TRACE
100
AcDbVertex
100
AcDb3dPolylineVertex
 10
-20307.04397313221
 20
11616.21436941344
 30
1966.724438761584
 70
    32
  0
VERTEX
  5
600
330
5FE
100
AcDbEntity
  8
TRACE
100
AcDbVertex
100
AcDb3dPolylineVertex
 10
-20307.04397313221
 20
11616.21436941344
 30
1740.011402531496
 70
    32
  0
VERTEX
  5
601
330
5FE
100
AcDbEntity
  8
TRACE
100
AcDbVertex
100
AcDb3dPolylineVertex
 10
-20257.00493858658
 20
11902.09123314501
 30
1737.573632840152
 70
    32
  0
VERTEX
  5
602
330
5FE
100
AcDbEntity
  8
TRACE
100
AcDbVertex
100
AcDb3dPolylineVertex
 10
-20257.42543568528
 20
11899.68890078842
 30
1732.698060962101
 70
    32
  0
VERTEX
  5
603
330
5FE
100
AcDbEntity
  8
TRACE
100
AcDbVertex
100
AcDb3dPolylineVertex
 10
-20309.14645004005
 20
11604.20275668069
 30
1727.822521579413
 70
    32
  0
VERTEX
  5
604
330
5FE
100
AcDbEntity
  8
TRACE
100
AcDbVertex
100
AcDb3dPolylineVertex
 10
-20309.14645004005
 20
11604.20275668069
 30
1525.487214758122
 70
    32
  0
VERTEX
  5
605
330
5FE
100
AcDbEntity
  8
TRACE
100
AcDbVertex
100
AcDb3dPolylineVertex
 10
-20256.1639443892
 20
11906.8958978582
 30
1532.800556327517
 70
    32
  0
VERTEX
  5
606
330
5FE
100
AcDbEntity
  8
TRACE
100
AcDbVertex
100
AcDb3dPolylineVertex
 10
-20257.00493858658
 20
11902.09123314501
 30
1527.92501694483
 70
    32
  0
VERTEX
  5
607
330
5FE
100
AcDbEntity
  8
TRACE
100
AcDbVertex
100
AcDb3dPolylineVertex
 10
-20309.98744423743
 20
11599.3980919675
 30
1520.611675375434
 70
    32
  0
VERTEX
  5
608
330
5FE
100
AcDbEntity
  8
TRACE
100
AcDbVertex
100
AcDb3dPolylineVertex
 10
-20311.32816348185
 20
11591.73845951813
 30
1375.677673826091
 70
    32
  0
VERTEX
  5
609
330
5FE
100
AcDbEntity
  8
TRACE
100
AcDbVertex
100
AcDb3dPolylineVertex
 10
-20256.85127345658
 20
11902.96913388451
 30
1383.28786054312
 70
    32
  0
VERTEX
  5
60A
330
5FE
100
AcDbEntity
  8
TRACE
100
AcDbVertex
100
AcDb3dPolylineVertex
 10
-20256.85127345658
 20
11902.96913388451
 30
1379.482750936923
 70
    32
  0
VERTEX
  5
60B
330
5FE
100
AcDbEntity
  8
TRACE
100
AcDbVertex
100
AcDb3dPolylineVertex
 10
-20308.04641960189
 20
11610.48731541619
 30
1371.872564219894
 70
    32
  0
VERTEX
  5
60C
330
5FE
100
AcDbEntity
  8
TRACE
100
AcDbVertex
100
AcDb3dPolylineVertex
 10
-20311.82458307159
 20
11588.90237611452
 30
1371.822846313395
 70
    32
  0
VERTEX
  5
60D
330
5FE
100
AcDbEntity
  8
TRACE
100
AcDbVertex
100
AcDb3dPolylineVertex
 10
-20313.6447825102
 20
11578.50343633479
 30
1270.024165434562
 70
    32
  0
VERTEX
  5
60E
330
5FE
100
AcDbEntity
  8
TRACE
100
AcDbVertex
100
AcDb3dPolylineVertex
 10
-20254.95795043364
 20
11913.78583434132
 30
1272.420146088155
 70
    32
  0
SEQEND
  5
60F
330
5FE
100
AcDbEntity
  8
TRACE
  0
POLYLINE
  5
610
330
1F
100
AcDbEntity
  8
TRACE
100
AcDb3dPolyline
 66
     1
 10
0.0
 20
0.0
 30
0.0
 70
     8
  0
VERTEX
  5
611
330
610
100
AcDbEntity
  8
TRACE
100
AcDbVertex
100
AcDb3dPolylineVertex
 10
-20281.59118767562
 20
11761.62809582991
 30
2390.119010964406
 70
    32
  0
VERTEX
  5
612
330
610
100
AcDbEntity
  8
TRACE
100
AcDbVertex
100
AcDb3dPolylineVertex
 10
-20256.23512762716
 20
11906.4892225296
 30
2387.149357159598
 70
    32
  0
VERTEX
  5
613
330
610
100
AcDbEntity
  8
TRACE
100
AcDbVertex
100
AcDb3dPolylineVertex
 10
-20256.747370484
 20
11903.56273958064
 30
2382.694860204703
 70
    32
  0
VERTEX
  5
614
330
610
100
AcDbEntity
  8
TRACE
100
AcDbVertex
100
AcDb3dPolylineVertex
 10
-20282.61567338929
 20
11755.77512993198
 30
2379.725173904537
 70
    32
  0
SEQEND
  5
615
330
610
100
AcDbEntity
  8
TRACE
  0
POLYLINE
  5
618
330
1F
100
AcDbEntity
  8
TRACE
100
AcDb3dPolyline
 66
     1
 10
0.0
 20
0.0
 30
0.0
 70
     8
  0
VERTEX
  5
619
330
618
100
AcDbEntity
  8
TRACE
100
AcDbVertex
100
AcDb3dPolylineVertex
 10
-20508.08310628398
 20
10467.66229612455
 30
6192.873223217433
 70
    32
  0
VERTEX
  5
61A
330
618
100
AcDbEntity
  8
TRACE
100
AcDbVertex
100
AcDb3dPolylineVertex
 10
-20508.61746565522
 20
10464.60945982299
 30
6055.53286824498
 70
    32
  0
VERTEX
  5
61B
330
618
100
AcDbEntity
  8
TRACE
100
AcDbVertex
100
AcDb3dPolylineVertex
 10
-20505.41129225656
 20
10482.92657573284
 30
6055.53286824498
 70
    32
  0
VERTEX
  5
61C
330
618
100
AcDbEntity
  8
TRACE
100
AcDbVertex
100
AcDb3dPolylineVertex
 10
-20504.87693288532
 20
10485.97941203441
 30
5981.18321607749
 70
    32
  0
VERTEX
  5
61D
330
618
100
AcDbEntity
  8
TRACE
100
AcDbVertex
100
AcDb3dPolylineVertex
 10
-20504.69880737117
 20
10486.99705683507
 30
5859.332393636844
 70
    32
  0
VERTEX
  5
61E
330
618
100
AcDbEntity
  8
TRACE
100
AcDbVertex
100
AcDb3dPolylineVertex
 10
-20505.94566021341
 20
10479.87369038105
 30
5842.810223436561
 70
    32
  0
VERTEX
  5
61F
330
618
100
AcDbEntity
  8
TRACE
100
AcDbVertex
100
AcDb3dPolylineVertex
 10
-20505.76753469925
 20
10480.89133518172
 30
5783.950103800878
 70
    32
  0
VERTEX
  5
620
330
618
100
AcDbEntity
  8
TRACE
100
AcDbVertex
100
AcDb3dPolylineVertex
 10
-20504.16444799993
 20
10490.04989313664
 30
5775.68903494842
 70
    32
  0
VERTEX
  5
621
330
618
100
AcDbEntity
  8
TRACE
100
AcDbVertex
100
AcDb3dPolylineVertex
 10
-20505.76753469925
 20
10480.89133518172
 30
5751.938433564163
 70
    32
  0
VERTEX
  5
622
330
618
100
AcDbEntity
  8
TRACE
100
AcDbVertex
100
AcDb3dPolylineVertex
 10
-20503.63008862868
 20
10493.10272943822
 30
5702.371987954048
 70
    32
  0
VERTEX
  5
623
330
618
100
AcDbEntity
  8
TRACE
100
AcDbVertex
100
AcDb3dPolylineVertex
 10
-20501.13594507843
 20
10507.3519639072
 30
5678.306538990644
 70
    32
  0
VERTEX
  5
624
330
618
100
AcDbEntity
  8
TRACE
100
AcDbVertex
100
AcDb3dPolylineVertex
 10
-20503.6296421773
 20
10493.10528004937
 30
5580.206285438897
 70
    32
  0
VERTEX
  5
625
330
618
100
AcDbEntity
  8
TRACE
100
AcDbVertex
100
AcDb3dPolylineVertex
 10
-20507.37018353281
 20
10471.73527878773
 30
5237.371749337381
 70
    32
  0
VERTEX
  5
626
330
618
100
AcDbEntity
  8
TRACE
100
AcDbVertex
100
AcDb3dPolylineVertex
 10
-20506.12318473531
 20
10478.85947909541
 30
4839.013815033639
 70
    32
  0
VERTEX
  5
627
330
618
100
AcDbEntity
  8
TRACE
100
AcDbVertex
100
AcDb3dPolylineVertex
 10
-20507.00093390093
 20
10473.84483041385
 30
4175.274174050213
 70
    32
  0
VERTEX
  5
628
330
618
100
AcDbEntity
  8
TRACE
100
AcDbVertex
100
AcDb3dPolylineVertex
 10
-20505.58379420047
 20
10481.94105882268
 30
3714.025265212786
 70
    32
  0
VERTEX
  5
629
330
618
100
AcDbEntity
  8
TRACE
100
AcDbVertex
100
AcDb3dPolylineVertex
 10
-20502.7338632445
 20
10498.22293418141
 30
3685.111507981496
 70
    32
  0
VERTEX
  5
62A
330
618
100
AcDbEntity
  8
TRACE
100
AcDbVertex
100
AcDb3dPolylineVertex
 10
-20505.76191971462
 20
10480.92341402202
 30
3640.708218218406
 70
    32
  0
VERTEX
  5
62B
330
618
100
AcDbEntity
  8
TRACE
100
AcDbVertex
100
AcDb3dPolylineVertex
 10
-20507.1868808998
 20
10472.78250086776
 30
3596.304960950682
 70
    32
  0
VERTEX
  5
62C
330
618
100
AcDbEntity
  8
TRACE
100
AcDbVertex
100
AcDb3dPolylineVertex
 10
-20507.00876397125
 20
10473.80009661821
 30
3561.195410203898
 70
    32
  0
VERTEX
  5
62D
330
618
100
AcDbEntity
  8
TRACE
100
AcDbVertex
100
AcDb3dPolylineVertex
 10
-20508.80059657616
 20
10463.56321874726
 30
2983.956900176394
 70
    32
  0
VERTEX
  5
62E
330
618
100
AcDbEntity
  8
TRACE
100
AcDbVertex
100
AcDb3dPolylineVertex
 10
-20505.9506656202
 20
10479.84509410599
 30
2921.998867535278
 70
    32
  0
VERTEX
  5
62F
330
618
100
AcDbEntity
  8
TRACE
100
AcDbVertex
100
AcDb3dPolylineVertex
 10
-20506.48502499144
 20
10476.79225780442
 30
2878.628215440663
 70
    32
  0
VERTEX
  5
630
330
618
100
AcDbEntity
  8
TRACE
100
AcDbVertex
100
AcDb3dPolylineVertex
 10
-20507.90999476222
 20
10468.65129559995
 30
2832.159682835989
 70
    32
  0
VERTEX
  5
631
330
618
100
AcDbEntity
  8
TRACE
100
AcDbVertex
100
AcDb3dPolylineVertex
 10
-20508.61907974866
 20
10464.60023838266
 30
2487.68374092195
 70
    32
  0
VERTEX
  5
632
330
618
100
AcDbEntity
  8
TRACE
100
AcDbVertex
100
AcDb3dPolylineVertex
 10
-20506.48163367809
 20
10476.81163263916
 30
2457.737346022192
 70
    32
  0
VERTEX
  5
633
330
618
100
AcDbEntity
  8
TRACE
100
AcDbVertex
100
AcDb3dPolylineVertex
 10
-20505.7691487927
 20
10480.88211374139
 30
2425.725675785468
 70
    32
  0
VERTEX
  5
634
330
618
100
AcDbEntity
  8
TRACE
100
AcDbVertex
100
AcDb3dPolylineVertex
 10
-20508.26283730597
 20
10466.63547893378
 30
2392.681400375636
 70
    32
  0
VERTEX
  5
635
330
618
100
AcDbEntity
  8
TRACE
100
AcDbVertex
100
AcDb3dPolylineVertex
 10
-20507.55036100618
 20
10470.7059109858
 30
2359.637092470444
 70
    32
  0
VERTEX
  5
636
330
618
100
AcDbEntity
  8
TRACE
100
AcDbVertex
100
AcDb3dPolylineVertex
 10
-20504.16606209337
 20
10490.04067169631
 30
2333.821248244587
 70
    32
  0
VERTEX
  5
637
330
618
100
AcDbEntity
  8
TRACE
100
AcDbVertex
100
AcDb3dPolylineVertex
 10
-20503.80981965067
 20
10492.07591224744
 30
2283.222197461362
 70
    32
  0
VERTEX
  5
638
330
618
100
AcDbEntity
  8
TRACE
100
AcDbVertex
100
AcDb3dPolylineVertex
 10
-20508.08472037742
 20
10467.65307468423
 30
2250.177889556164
 70
    32
  0
VERTEX
  5
639
330
618
100
AcDbEntity
  8
TRACE
100
AcDbVertex
100
AcDb3dPolylineVertex
 10
-20508.45661437515
 20
10465.52841559204
 30
2068.531405958171
 70
    32
  0
VERTEX
  5
63A
330
618
100
AcDbEntity
  8
TRACE
100
AcDbVertex
100
AcDb3dPolylineVertex
 10
-20502.93486939176
 20
10497.07457055905
 30
2055.107181258687
 70
    32
  0
VERTEX
  5
63B
330
618
100
AcDbEntity
  8
TRACE
100
AcDbVertex
100
AcDb3dPolylineVertex
 10
-20505.25044097649
 20
10483.84553150188
 30
1999.344942133071
 70
    32
  0
VERTEX
  5
63C
330
618
100
AcDbEntity
  8
TRACE
100
AcDbVertex
100
AcDb3dPolylineVertex
 10
-20507.38788704706
 20
10471.63413724539
 30
1924.995257470216
 70
    32
  0
VERTEX
  5
63D
330
618
100
AcDbEntity
  8
TRACE
100
AcDbVertex
100
AcDb3dPolylineVertex
 10
-20506.85352767582
 20
10474.68697354696
 30
1521.235326396056
 70
    32
  0
VERTEX
  5
63E
330
618
100
AcDbEntity
  8
TRACE
100
AcDbVertex
100
AcDb3dPolylineVertex
 10
-20508.09224995162
 20
10467.61005764609
 30
1189.200851896351
 70
    32
  0
VERTEX
  5
63F
330
618
100
AcDbEntity
  8
TRACE
100
AcDbVertex
100
AcDb3dPolylineVertex
 10
-20508.44849239432
 20
10465.57481709497
 30
981.6413954303307
 70
    32
  0
VERTEX
  5
640
330
618
100
AcDbEntity
  8
TRACE
100
AcDbVertex
100
AcDb3dPolylineVertex
 10
-20506.48222608473
 20
10476.80824817435
 30
724.9052102513537
 70
    32
  0
VERTEX
  5
641
330
618
100
AcDbEntity
  8
TRACE
100
AcDbVertex
100
AcDb3dPolylineVertex
 10
-20506.12598364203
 20
10478.84348872547
 30
501.8562537488919
 70
    32
  0
VERTEX
  5
642
330
618
100
AcDbEntity
  8
TRACE
100
AcDbVertex
100
AcDb3dPolylineVertex
 10
-20507.02278426164
 20
10473.7199976179
 30
63.19016040950389
 70
    32
  0
VERTEX
  5
643
330
618
100
AcDbEntity
  8
TRACE
100
AcDbVertex
100
AcDb3dPolylineVertex
 10
-20506.48517094669
 20
10476.79142395077
 30
-429.0101924323694
 70
    32
  0
VERTEX
  5
644
330
618
100
AcDbEntity
  8
TRACE
100
AcDbVertex
100
AcDb3dPolylineVertex
 10
-20503.45711447658
 20
10494.09094411017
 30
-711.9519712297237
 70
    32
  0
VERTEX
  5
645
330
618
100
AcDbEntity
  8
TRACE
100
AcDbVertex
100
AcDb3dPolylineVertex
 10
-20506.66151924094
 20
10475.78393254451
 30
-1142.095862973753
 70
    32
  0
VERTEX
  5
646
330
618
100
AcDbEntity
  8
TRACE
100
AcDbVertex
100
AcDb3dPolylineVertex
 10
-20505.6664692884
 20
10481.46872966883
 30
-1846.026197527659
 70
    32
  0
SEQEND
  5
647
330
618
100
AcDbEntity
  8
TRACE
  0
POLYLINE
  5
B50
330
1F
100
AcDbEntity
  8
TRACE
100
AcDb3dPolyline
 66
     1
 10
0.0
 20
0.0
 30
0.0
 70
     8
  0
VERTEX
  5
B51
330
B50
100
AcDbEntity
  8
TRACE
100
AcDbVertex
100
AcDb3dPolylineVertex
 10
-20269.41551784415
 20
11831.18863665286
 30
-1754.197101390285
 70
    32
  0
VERTEX
  5
B52
330
B50
100
AcDbEntity
  8
TRACE
100
AcDbVertex
100
AcDb3dPolylineVertex
 10
-20333.00437008503
 20
11467.90061936824
 30
-1746.570018003176
 70
    32
  0
VERTEX
  5
B53
330
B50
100
AcDbEntity
  8
TRACE
100
AcDbVertex
100
AcDb3dPolylineVertex
 10
-20399.66300784034
 20
11087.07468067563
 30
-1741.485164617834
 70
    32
  0
VERTEX
  5
B54
330
B50
100
AcDbEntity
  8
TRACE
100
AcDbVertex
100
AcDb3dPolylineVertex
 10
-20333.28265725522
 20
11466.31074330146
 30
-1748.379771058977
 70
    32
  0
SEQEND
  5
B55
330
B50
100
AcDbEntity
  8
TRACE
  0
POLYLINE
  5
C25
330
1F
100
AcDbEntity
  8
TRACE
100
AcDb3dPolyline
 66
     1
 10
0.0
 20
0.0
 30
0.0
 70
     8
  0
VERTEX
  5
C26
330
C25
100
AcDbEntity
  8
TRACE
100
AcDbVertex
100
AcDb3dPolylineVertex
 10
-20269.81334565121
 20
11828.91581570776
 30
-1757.625458072879
 70
    32
  0
VERTEX
  5
C27
330
C25
100
AcDbEntity
  8
TRACE
100
AcDbVertex
100
AcDb3dPolylineVertex
 10
-20225.79069018006
 20
12080.42064176021
 30
-1762.265749019776
 70
    32
  0
VERTEX
  5
C28
330
C25
100
AcDbEntity
  8
TRACE
100
AcDbVertex
100
AcDb3dPolylineVertex
 10
-20236.19604426581
 20
12020.97405133212
 30
-1971.078816537081
 70
    32
  0
VERTEX
  5
C29
330
C25
100
AcDbEntity
  8
TRACE
100
AcDbVertex
100
AcDb3dPolylineVertex
 10
-20146.54991828777
 20
12533.12928320265
 30
-1975.719107483977
 70
    32
  0
VERTEX
  5
C2A
330
C25
100
AcDbEntity
  8
TRACE
100
AcDbVertex
100
AcDb3dPolylineVertex
 10
-20139.34620753313
 20
12574.28463834619
 30
-2008.20114411224
 70
    32
  0
VERTEX
  5
C2B
330
C25
100
AcDbEntity
  8
TRACE
100
AcDbVertex
100
AcDb3dPolylineVertex
 10
-20108.13014527588
 20
12752.62440963048
 30
-2096.366647010282
 70
    32
  0
VERTEX
  5
C2C
330
C25
100
AcDbEntity
  8
TRACE
100
AcDbVertex
100
AcDb3dPolylineVertex
 10
-20084.91819797623
 20
12885.23605482672
 30
-2124.208392691647
 70
    32
  0
VERTEX
  5
C2D
330
C25
100
AcDbEntity
  8
TRACE
100
AcDbVertex
100
AcDb3dPolylineVertex
 10
-20044.89760329879
 20
13113.87679889683
 30
-2142.769556479228
 70
    32
  0
VERTEX
  5
C2E
330
C25
100
AcDbEntity
  8
TRACE
100
AcDbVertex
100
AcDb3dPolylineVertex
 10
-19960.05394231742
 20
13598.59517784052
 30
-1920.035616121238
 70
    32
  0
VERTEX
  5
C2F
330
C25
100
AcDbEntity
  8
TRACE
100
AcDbVertex
100
AcDb3dPolylineVertex
 10
-19924.42900734469
 20
13802.12317899254
 30
-1925.51848919591
 70
    32
  0
VERTEX
  5
C30
330
C25
100
AcDbEntity
  8
TRACE
100
AcDbVertex
100
AcDb3dPolylineVertex
 10
-19875.57478463265
 20
14081.23112133765
 30
-1925.51848919591
 70
    32
  0
VERTEX
  5
C31
330
C25
100
AcDbEntity
  8
TRACE
100
AcDbVertex
100
AcDb3dPolylineVertex
 10
-19808.72162516279
 20
14463.16837758839
 30
-1940.425165199998
 70
    32
  0
VERTEX
  5
C32
330
C25
100
AcDbEntity
  8
TRACE
100
AcDbVertex
100
AcDb3dPolylineVertex
 10
-19688.12586958081
 20
15152.14123044559
 30
-1974.451436125221
 70
    32
  0
VERTEX
  5
C33
330
C25
100
AcDbEntity
  8
TRACE
100
AcDbVertex
100
AcDb3dPolylineVertex
 10
-19616.42035881909
 20
15561.8003438752
 30
-2271.382831771583
 70
    32
  0
VERTEX
  5
C34
330
C25
100
AcDbEntity
  8
TRACE
100
AcDbVertex
100
AcDb3dPolylineVertex
 10
-19575.44578029385
 20
15795.89127124592
 30
-2449.541684215174
 70
    32
  0
VERTEX
  5
C35
330
C25
100
AcDbEntity
  8
TRACE
100
AcDbVertex
100
AcDb3dPolylineVertex
 10
-19470.44841909364
 20
16395.74929393903
 30
-2590.584105929732
 70
    32
  0
SEQEND
  5
C36
330
C25
100
AcDbEntity
  8
TRACE
  0
POLYLINE
  5
D9A
330
1F
100
AcDbEntity
  8
TRACE
100
AcDb3dPolyline
 66
     1
 10
0.0
 20
0.0
 30
0.0
 70
     8
  0
VERTEX
  5
D9B
330
D9A
100
AcDbEntity
  8
TRACE
100
AcDbVertex
100
AcDb3dPolylineVertex
 10
-20398.83056571877
 20
11091.83048672017
 30
-1743.772429199486
 70
    32
  0
VERTEX
  5
D9C
330
D9A
100
AcDbEntity
  8
TRACE
100
AcDbVertex
100
AcDb3dPolylineVertex
 10
-20489.38060482504
 20
10574.51112943169
 30
-1733.05912104804
 70
    32
  0
VERTEX
  5
D9D
330
D9A
100
AcDbEntity
  8
TRACE
100
AcDbVertex
100
AcDb3dPolylineVertex
 10
-20481.98876702358
 20
10616.74126890353
 30
-1818.765717661232
 70
    32
  0
VERTEX
  5
D9E
330
D9A
100
AcDbEntity
  8
TRACE
100
AcDbVertex
100
AcDb3dPolylineVertex
 10
-20481.98876702358
 20
10616.74126890353
 30
-1861.618950266993
 70
    32
  0
VERTEX
  5
D9F
330
D9A
100
AcDbEntity
  8
TRACE
100
AcDbVertex
100
AcDb3dPolylineVertex
 10
-20480.14081625261
 20
10627.29875418535
 30
-1909.828902649306
 70
    32
  0
VERTEX
  5
DA0
330
D9A
100
AcDbEntity
  8
TRACE
100
AcDbVertex
100
AcDb3dPolylineVertex
 10
-20236.2100993687
 20
12020.89375344527
 30
-1968.752163183049
 70
    32
  0
SEQEND
  5
DA1
330
D9A
100
AcDbEntity
  8
TRACE
  0
POLYLINE
  5
DA2
330
1F
100
AcDbEntity
  8
TRACE
100
AcDb3dPolyline
 66
     1
 10
0.0
 20
0.0
 30
0.0
 70
     8
  0
VERTEX
  5
DA3
330
DA2
100
AcDbEntity
  8
TRACE
100
AcDbVertex
100
AcDb3dPolylineVertex
 10
-20243.60193717018
 20
11978.66361397343
 30
-1968.75216318305
 70
    32
  0
VERTEX
  5
DA4
330
DA2
100
AcDbEntity
  8
TRACE
100
AcDbVertex
100
AcDb3dPolylineVertex
 10
-20247.29783871209
 20
11957.54864340979
 30
-3061.511040048242
 70
    32
  0
SEQEND
  5
DA5
330
DA2
100
AcDbEntity
  8
TRACE
  0
POLYLINE
  5
DA6
330
1F
100
AcDbEntity
  8
TRACE
100
AcDb3dPolyline
 66
     1
 10
0.0
 20
0.0
 30
0.0
 70
     8
  0
VERTEX
  5
DA7
330
DA6
100
AcDbEntity
  8
TRACE
100
AcDbVertex
100
AcDb3dPolylineVertex
 10
-19467.36425828181
 20
16413.36934252982
 30
-2587.615578415401
 70
    32
  0
VERTEX
  5
DA8
330
DA6
100
AcDbEntity
  8
TRACE
100
AcDbVertex
100
AcDb3dPolylineVertex
 10
-19462.63498605722
 20
16440.38803950462
 30
-3149.6720881334
 70
    32
  0
SEQEND
  5
DA9
330
DA6
100
AcDbEntity
  8
TRACE
  0
POLYLINE
  5
E76
330
1F
100
AcDbEntity
  8
TRACE
100
AcDb3dPolyline
 66
     1
 10
0.0
 20
0.0
 30
0.0
 70
     8
  0
VERTEX
  5
E77
330
E76
100
AcDbEntity
  8
TRACE
100
AcDbVertex
100
AcDb3dPolylineVertex
 10
-20348.12479271601
 20
11381.51647868105
 30
5080.228048577288
 70
    32
  0
VERTEX
  5
E78
330
E76
100
AcDbEntity
  8
TRACE
100
AcDbVertex
100
AcDb3dPolylineVertex
 10
-20319.50385085815
 20
11545.03012696918
 30
5080.228048577289
 70
    32
  0
SEQEND
  5
E79
330
E76
100
AcDbEntity
  8
TRACE
  0
POLYLINE
  5
E7A
330
1F
100
AcDbEntity
  8
TRACE
100
AcDb3dPolyline
 66
     1
 10
0.0
 20
0.0
 30
0.0
 70
     8
  0
VERTEX
  5
E7B
330
E7A
100
AcDbEntity
  8
TRACE
100
AcDbVertex
100
AcDb3dPolylineVertex
 10
-20348.45332540394
 20
11379.63954609609
 30
4841.988511482888
 70
    32
  0
VERTEX
  5
E7C
330
E7A
100
AcDbEntity
  8
TRACE
100
AcDbVertex
100
AcDb3dPolylineVertex
 10
-20323.36005472941
 20
11522.99933683429
 30
4843.807022985227
 70
    32
  0
SEQEND
  5
E7D
330
E7A
100
AcDbEntity
  8
TRACE
  0
POLYLINE
  5
E8E
330
1F
100
AcDbEntity
  8
TRACE
100
AcDb3dPolyline
 66
     1
 10
0.0
 20
0.0
 30
0.0
 70
     8
  0
VERTEX
  5
E8F
330
E8E
100
AcDbEntity
  8
TRACE
100
AcDbVertex
100
AcDb3dPolylineVertex
 10
-20347.45513802566
 20
11385.34226757563
 30
3606.660505237999
 70
    32
  0
VERTEX
  5
E90
330
E8E
100
AcDbEntity
  8
TRACE
100
AcDbVertex
100
AcDb3dPolylineVertex
 10
-20322.94612913629
 20
11525.36412567277
 30
3606.660505238
 70
    32
  0
SEQEND
  5
E91
330
E8E
100
AcDbEntity
  8
TRACE
  0
LINE
  5
E9A
330
1F
100
AcDbEntity
  8
TRACE
100
AcDbLine
 10
-20349.18025164045
 20
11375.48656044113
 30
5175.055390320459
 11
-20348.31096997379
 21
11380.45283364806
 31
4598.86470278074
  0
LINE
  5
E9B
330
1F
100
AcDbEntity
  8
TRACE
100
AcDbLine
 10
-20346.53816097207
 20
11390.58102820673
 30
3423.784085357071
 11
-20335.96976395613
 21
11450.95909547001
 31
3418.67834881775
  0
LINE
  5
E9C
330
1F
100
AcDbEntity
  8
TRACE
100
AcDbLine
 10
-20335.96976395613
 20
11450.95909547001
 30
3418.67834881775
 11
-20342.57501209109
 21
11413.22280343047
 31
3418.67834881775
  0
LINE
  5
E9F
330
1F
100
AcDbEntity
  8
TRACE
100
AcDbLine
 10
-20347.96213462239
 20
11382.44575691528
 30
3860.583591360201
 11
-20322.72495148187
 21
11526.62773067128
 31
3855.694999936761
  0
LINE
  5
EA0
330
1F
100
AcDbEntity
  8
TRACE
100
AcDbLine
 10
-20348.13762413272
 20
11381.44317180778
 30
4091.738630721645
 11
-20322.79391602337
 21
11526.23373092664
 31
4092.640032262464
  0
LINE
  5
EA1
330
1F
100
AcDbEntity
  8
TRACE
100
AcDbLine
 10
-20347.82679949155
 20
11383.21893695579
 30
4333.562960321907
 11
-20322.94951856711
 21
11525.34476159304
 31
4331.760288143774
  0
LINE
  5
EA2
330
1F
100
AcDbEntity
  8
TRACE
100
AcDbLine
 10
-20348.44858711799
 20
11379.66661628919
 30
4598.86470278074
 11
-20323.10487900865
 21
11524.45717540801
 31
4598.864702780741
  0
LINE
  5
EA3
330
1F
100
AcDbEntity
  8
TRACE
100
AcDbLine
 10
-20347.87719133557
 20
11382.93104446434
 30
3860.759002057946
 11
-20369.23084764204
 21
11260.93595903697
 31
3864.104895665743
  0
LINE
  5
EA4
330
1F
100
AcDbEntity
  8
TRACE
100
AcDbLine
 10
-20369.23084764204
 20
11260.93595903697
 30
3864.104895665743
 11
-20369.80798470525
 21
11257.63873048185
 31
3606.476585812383
  0
LINE
  5
EA5
330
1F
100
AcDbEntity
  8
TRACE
100
AcDbLine
 10
-20369.80798470525
 20
11257.63873048185
 30
3606.476585812383
 11
-20347.30005427236
 21
11386.22827301945
 31
3606.476585812383
  0
LINE
  5
EA6
330
1F
100
AcDbEntity
  8
TRACE
100
AcDbLine
 10
-20348.45429381275
 20
11379.63401350189
 30
4332.51992118783
 11
-20366.92236856125
 21
11274.12447807212
 31
4332.519921187832
  0
LINE
  5
EA7
330
1F
100
AcDbEntity
  8
TRACE
100
AcDbLine
 10
-20366.92236856125
 20
11274.12447807212
 30
4332.519921187832
 11
-20367.49947103844
 21
11270.82744710965
 31
4091.620686662947
  0
LINE
  5
EA8
330
1F
100
AcDbEntity
  8
TRACE
100
AcDbLine
 10
-20367.49947103844
 20
11270.82744710965
 30
4091.620686662947
 11
-20348.45429381275
 21
11379.63401350189
 31
4091.620686662947
  0
LINE
  5
EA9
330
1F
100
AcDbEntity
  8
TRACE
100
AcDbLine
 10
-20332.00661507516
 20
11473.60087069375
 30
5175.055390320459
 11
-20331.56626806136
 21
11476.11660714632
 31
3423.784085357071
  0
LINE
  5
EAA
330
1F
100
AcDbEntity
  8
TRACE
100
AcDbLine
 10
-20269.35766439005
 20
11831.51915789825
 30
-1748.805555701889
 11
-20265.86803729448
 21
11851.45566664051
 31
-1674.62650419396
  0
LINE
  5
EAB
330
1F
100
AcDbEntity
  8
TRACE
100
AcDbLine
 10
-20265.86803729448
 20
11851.45566664051
 30
-1674.62650419396
 11
-20269.35766439005
 21
11831.51915789825
 31
786.7698512171203
  0
LINE
  5
EAC
330
1F
100
AcDbEntity
  8
TRACE
100
AcDbLine
 10
-20269.35766439005
 20
11831.51915789825
 30
786.7698512171203
 11
-20269.34716419706
 21
11831.57914631061
 31
840.8189022717515
  0
LINE
  5
EAD
330
1F
100
AcDbEntity
  8
TRACE
100
AcDbLine
 10
-20269.34716419706
 20
11831.57914631061
 30
840.8189022717515
 11
-20269.91051715105
 21
11828.3606674346
 31
866.9465720079196
  0
LINE
  5
EAE
330
1F
100
AcDbEntity
  8
TRACE
100
AcDbLine
 10
-20269.91051715105
 20
11828.3606674346
 30
866.9465720079196
 11
-20270.19219362805
 21
11826.7514279966
 31
955.1275182962809
  0
LINE
  5
EAF
330
1F
100
AcDbEntity
  8
TRACE
100
AcDbLine
 10
-20270.19219362805
 20
11826.7514279966
 30
955.1275182962809
 11
-20270.47387010505
 21
11825.1421885586
 31
1103.728719128167
  0
LINE
  5
EB0
330
1F
100
AcDbEntity
  8
TRACE
100
AcDbLine
 10
-20270.47387010505
 20
11825.1421885586
 30
1103.728719128167
 11
-20261.178572121
 21
11878.24694286209
 31
1106.994665659428
  0
LINE
  5
EB1
330
1F
100
AcDbEntity
  8
TRACE
100
AcDbLine
 10
-20261.178572121
 20
11878.24694286209
 30
1106.994665659428
 11
-20254.41835384432
 21
11916.86859127374
 31
1123.324463306448
  0
LINE
  5
EB2
330
1F
100
AcDbEntity
  8
TRACE
100
AcDbLine
 10
-20254.41835384432
 20
11916.86859127374
 30
1123.324463306448
 11
-20251.03825329158
 21
11936.17936642936
 31
1141.287250466786
  0
LINE
  5
EB3
330
1F
100
AcDbEntity
  8
TRACE
100
AcDbLine
 10
-20251.03825329158
 20
11936.17936642936
 30
1141.287250466786
 11
-20253.00998004494
 21
11924.91473941355
 31
1175.579835274143
  0
LINE
  5
EB4
330
1F
100
AcDbEntity
  8
TRACE
100
AcDbLine
 10
-20253.00998004494
 20
11924.91473941355
 30
1175.579835274143
 11
-20256.69231100926
 21
11903.87729860636
 31
1367.829491065134
  0
LINE
  5
EB5
330
1F
100
AcDbEntity
  8
TRACE
100
AcDbLine
 10
-20256.69231100926
 20
11903.87729860636
 30
1367.829491065134
 11
-20256.97398748626
 21
11902.26805916836
 31
2262.702610092352
  0
LINE
  5
EB6
330
1F
100
AcDbEntity
  8
TRACE
100
AcDbLine
 10
-20256.97398748626
 20
11902.26805916836
 30
2262.702610092352
 11
-20255.5714433116
 21
11910.28090221251
 31
2611.892654422087
  0
LINE
  5
EB7
330
1F
100
AcDbEntity
  8
TRACE
100
AcDbLine
 10
-20255.5714433116
 20
11910.28090221251
 30
2611.892654422087
 11
-20264.02171186466
 21
11862.00386622303
 31
2611.892654422087
  0
LINE
  5
EB8
330
1F
100
AcDbEntity
  8
TRACE
100
AcDbLine
 10
-20264.02171186466
 20
11862.00386622303
 30
2611.892654422087
 11
-20272.19030394072
 21
11815.33606967157
 31
2602.094782332946
  0
LINE
  5
EB9
330
1F
100
AcDbEntity
  8
TRACE
100
AcDbLine
 10
-20272.19030394072
 20
11815.33606967157
 30
2602.094782332946
 11
-20284.86571106311
 21
11742.92049116227
 31
2605.360728864207
  0
LINE
  5
EBA
330
1F
100
AcDbEntity
  8
TRACE
100
AcDbLine
 10
-20284.86571106311
 20
11742.92049116227
 30
2605.360728864207
 11
-20310.77986967626
 21
11594.87090431787
 31
2608.626707890826
  0
LINE
  5
EBB
330
1F
100
AcDbEntity
  8
TRACE
100
AcDbLine
 10
-20310.77986967626
 20
11594.87090431787
 30
2608.626707890826
 11
-20330.77883944372
 21
11480.61524757111
 31
2595.562856775067
  0
LINE
  5
EBC
330
1F
100
AcDbEntity
  8
TRACE
100
AcDbLine
 10
-20330.77883944372
 20
11480.61524757111
 30
2595.562856775067
 11
-20346.55267064185
 21
11390.49813334419
 31
2598.82880330632
  0
LINE
  5
EBD
330
1F
100
AcDbEntity
  8
TRACE
100
AcDbLine
 10
-20346.55267064185
 20
11390.49813334419
 30
2598.82880330632
 11
-20360.35478367221
 21
11311.64559708287
 31
2611.892654422087
  0
LINE
  5
EBE
330
1F
100
AcDbEntity
  8
TRACE
100
AcDbLine
 10
-20360.35478367221
 20
11311.64559708287
 30
2611.892654422087
 11
-20362.88986337957
 21
11297.16249119105
 31
2634.754377626994
  0
LINE
  5
EBF
330
1F
100
AcDbEntity
  8
TRACE
100
AcDbLine
 10
-20362.88986337957
 20
11297.16249119105
 30
2634.754377626994
 11
-20369.08672011666
 21
11261.75937070562
 31
2647.818228742754
  0
LINE
  5
EC0
330
1F
100
AcDbEntity
  8
TRACE
100
AcDbLine
 10
-20369.08672011666
 20
11261.75937070562
 30
2647.818228742754
 11
-20382.04380371604
 21
11187.73455275831
 31
2652.717164787331
  0
LINE
  5
EC1
330
1F
100
AcDbEntity
  8
TRACE
100
AcDbLine
 10
-20382.04380371604
 20
11187.73455275831
 30
2652.717164787331
 11
-20389.93071931511
 21
11142.67599564485
 31
2660.882047363155
  0
LINE
  5
EC2
330
1F
100
AcDbEntity
  8
TRACE
100
AcDbLine
 10
-20389.93071931511
 20
11142.67599564485
 30
2660.882047363155
 11
-20391.33910170008
 21
11134.62979845483
 31
2685.376760081372
  0
LINE
  5
EC3
330
1F
100
AcDbEntity
  8
TRACE
100
AcDbLine
 10
-20391.33910170008
 20
11134.62979845483
 30
2685.376760081372
 11
-20393.59250493044
 21
11121.75593200102
 31
2706.60549377297
  0
LINE
  5
EC4
330
1F
100
AcDbEntity
  8
TRACE
100
AcDbLine
 10
-20393.59250493044
 20
11121.75593200102
 30
2706.60549377297
 11
-20403.73282375986
 21
11063.82350843375
 31
2718.03635537542
  0
LINE
  5
EC5
330
1F
100
AcDbEntity
  8
TRACE
100
AcDbLine
 10
-20403.73282375986
 20
11063.82350843375
 30
2718.03635537542
 11
-20413.3097982209
 21
11009.10951469227
 31
2726.201270446616
  0
LINE
  5
EC6
330
1F
100
AcDbEntity
  8
TRACE
100
AcDbLine
 10
-20413.3097982209
 20
11009.10951469227
 30
2726.201270446616
 11
-20416.97158383624
 21
10988.18945104843
 31
2762.126812271925
  0
LINE
  5
EC7
330
1F
100
AcDbEntity
  8
TRACE
100
AcDbLine
 10
-20416.97158383624
 20
10988.18945104843
 30
2762.126812271925
 11
-20422.04174325096
 21
10959.2232392648
 31
2798.052386592592
  0
LINE
  5
EC8
330
1F
100
AcDbEntity
  8
TRACE
100
AcDbLine
 10
-20422.04174325096
 20
10959.2232392648
 30
2798.052386592592
 11
-20426.83022618867
 21
10931.86626691917
 31
2832.344971399949
  0
LINE
  5
EC9
330
1F
100
AcDbEntity
  8
TRACE
100
AcDbLine
 10
-20426.83022618867
 20
10931.86626691917
 30
2832.344971399949
 11
-20426.54854971168
 21
10933.47550635717
 31
2886.233332880953
  0
LINE
  5
ECA
330
1F
100
AcDbEntity
  8
TRACE
100
AcDbLine
 10
-20426.54854971168
 20
10933.47550635717
 30
2886.233332880953
 11
-20423.73179352733
 21
10949.56785168699
 31
2951.552523469049
  0
LINE
  5
ECB
330
1F
100
AcDbEntity
  8
TRACE
100
AcDbLine
 10
-20423.73179352733
 20
10949.56785168699
 30
2951.552523469049
 11
-20415.28152497427
 21
10997.84488767646
 31
3016.87174655251
  0
LINE
  5
ECC
330
1F
100
AcDbEntity
  8
TRACE
100
AcDbLine
 10
-20415.28152497427
 20
10997.84488767646
 30
3016.87174655251
 11
-20406.83125642121
 21
11046.12192366593
 31
3051.164298864502
  0
LINE
  5
ECD
330
1F
100
AcDbEntity
  8
TRACE
100
AcDbLine
 10
-20406.83125642121
 20
11046.12192366593
 30
3051.164298864502
 11
-20399.22601729915
 21
11089.57124134137
 31
3051.164298864502
  0
LINE
  5
ECE
330
1F
100
AcDbEntity
  8
TRACE
100
AcDbLine
 10
-20399.22601729915
 20
11089.57124134137
 30
3051.164298864502
 11
-20395.8459081608
 21
11108.8820655472
 31
3051.164298864502
  0
LINE
  5
ECF
330
1F
100
AcDbEntity
  8
TRACE
100
AcDbLine
 10
-20395.8459081608
 20
11108.8820655472
 30
3051.164298864502
 11
-20396.69093759179
 21
11104.0543472332
 31
3106.685649858828
  0
LINE
  5
ED0
330
1F
100
AcDbEntity
  8
TRACE
100
AcDbLine
 10
-20396.69093759179
 20
11104.0543472332
 30
3106.685649858828
 11
-20394.71921083842
 21
11115.318974249
 31
3147.5101277287
  0
LINE
  5
ED1
330
1F
100
AcDbEntity
  8
TRACE
100
AcDbLine
 10
-20394.71921083842
 20
11115.318974249
 30
3147.5101277287
 11
-20388.24066903873
 21
11152.33138322266
 31
3144.244181197446
  0
LINE
  5
ED2
330
1F
100
AcDbEntity
  8
TRACE
100
AcDbLine
 10
-20388.24066903873
 20
11152.33138322266
 30
3144.244181197446
 11
-20384.57888342339
 21
11173.25144686649
 31
3167.105904402346
  0
LINE
  5
ED3
330
1F
100
AcDbEntity
  8
TRACE
100
AcDbLine
 10
-20384.57888342339
 20
11173.25144686649
 30
3167.105904402346
 11
-20378.94537105469
 21
11205.43613752613
 31
3198.13254267845
  0
LINE
  5
ED4
330
1F
100
AcDbEntity
  8
TRACE
100
AcDbLine
 10
-20378.94537105469
 20
11205.43613752613
 30
3198.13254267845
 11
-20381.48045076205
 21
11190.95303163432
 31
3209.5634042809
  0
LINE
  5
ED5
330
1F
100
AcDbEntity
  8
TRACE
100
AcDbLine
 10
-20381.48045076205
 20
11190.95303163432
 30
3209.5634042809
 11
-20385.70558933138
 21
11166.81448911448
 31
3242.222999574948
  0
LINE
  5
ED6
330
1F
100
AcDbEntity
  8
TRACE
100
AcDbLine
 10
-20385.70558933138
 20
11166.81448911448
 30
3242.222999574948
 11
-20380.91709780806
 21
11194.17151051032
 31
3269.983658824425
  0
LINE
  5
ED7
330
1F
100
AcDbEntity
  8
TRACE
100
AcDbLine
 10
-20380.91709780806
 20
11194.17151051032
 30
3269.983658824425
 11
-20375.28358543935
 21
11226.35620116997
 31
3269.983658824425
  0
LINE
  5
ED8
330
1F
100
AcDbEntity
  8
TRACE
100
AcDbLine
 10
-20375.28358543935
 20
11226.35620116997
 30
3269.983658824425
 11
-20370.77677897863
 21
11252.10393407759
 31
3269.983658824425
  0
LINE
  5
ED9
330
1F
100
AcDbEntity
  8
TRACE
100
AcDbLine
 10
-20370.77677897863
 20
11252.10393407759
 30
3269.983658824425
 11
-20364.86159013293
 21
11285.89786417524
 31
3273.249605355686
  0
LINE
  5
EDA
330
1F
100
AcDbEntity
  8
TRACE
100
AcDbLine
 10
-20364.86159013293
 20
11285.89786417524
 30
3273.249605355686
 11
-20356.97467453387
 21
11330.9564212887
 31
3291.212392516016
  0
LINE
  5
EDB
330
1F
100
AcDbEntity
  8
TRACE
100
AcDbLine
 10
-20356.97467453387
 20
11330.9564212887
 30
3291.212392516016
 11
-20355.56629214889
 21
11339.00261847872
 31
3318.973051765494
  0
LINE
  5
EDC
330
1F
100
AcDbEntity
  8
TRACE
100
AcDbLine
 10
-20355.56629214889
 20
11339.00261847872
 30
3318.973051765494
 11
-20355.56629214889
 21
11339.00261847872
 31
3333.66989239457
  0
LINE
  5
EDD
330
1F
100
AcDbEntity
  8
TRACE
100
AcDbLine
 10
-20355.56629214889
 20
11339.00261847872
 30
3333.66989239457
 11
-20352.46785948754
 21
11356.70420324655
 31
3353.265636572851
  0
LINE
  5
EDE
330
1F
100
AcDbEntity
  8
TRACE
100
AcDbLine
 10
-20352.46785948754
 20
11356.70420324655
 30
3353.265636572851
 11
-20344.58094388848
 21
11401.76276036001
 31
3346.733711014972
  0
LINE
  5
EDF
330
1F
100
AcDbEntity
  8
TRACE
100
AcDbLine
 10
-20344.58094388848
 20
11401.76276036001
 30
3346.733711014972
 11
-20337.55726778526
 21
11441.88956365445
 31
3342.72492046894
  0
LINE
  5
EE0
330
1F
100
AcDbEntity
  8
TRACE
100
AcDbLine
 10
-20337.55726778526
 20
11441.88956365445
 30
3342.72492046894
 11
-20337.27559130826
 21
11443.49880309245
 31
3421.107962172803
  0
LINE
  5
EE1
330
1F
100
AcDbEntity
  8
TRACE
100
AcDbLine
 10
-20337.27559130826
 20
11443.49880309245
 30
3421.107962172803
 11
-20319.53003335677
 21
11544.88054433518
 31
3424.373908704056
  0
LINE
  5
EE2
330
1F
100
AcDbEntity
  8
TRACE
100
AcDbLine
 10
-20319.53003335677
 20
11544.88054433518
 30
3424.373908704056
 11
-20319.81310070152
 21
11543.26335876242
 31
3480.09650348593
  0
LINE
  5
EE3
330
1F
100
AcDbEntity
  8
TRACE
100
AcDbLine
 10
-20319.81310070152
 20
11543.26335876242
 30
3480.09650348593
 11
-20319.81310070152
 21
11543.26335876242
 31
3529.085896426997
  0
LINE
  5
EE4
330
1F
100
AcDbEntity
  8
TRACE
100
AcDbLine
 10
-20319.81310070152
 20
11543.26335876242
 30
3529.085896426997
 11
-20320.09477717851
 21
11541.65411932442
 31
3561.745491721045
  0
LINE
  5
EE5
330
1F
100
AcDbEntity
  8
TRACE
100
AcDbLine
 10
-20320.09477717851
 20
11541.65411932442
 30
3561.745491721045
 11
-20322.91153336287
 21
11525.56177399459
 31
3586.240204439262
  0
LINE
  5
EE6
330
1F
100
AcDbEntity
  8
TRACE
100
AcDbLine
 10
-20322.91153336287
 20
11525.56177399459
 30
3586.240204439262
 11
-20323.20955682877
 21
11523.85914294815
 31
4715.583912888102
  0
LINE
  5
EE7
330
1F
100
AcDbEntity
  8
TRACE
100
AcDbLine
 10
-20323.20955682877
 20
11523.85914294815
 30
4715.583912888102
 11
-20323.50290972642
 21
11522.18319521839
 31
5172.274697055716
  0
LINE
  5
EE8
330
1F
100
AcDbEntity
  8
TRACE
100
AcDbLine
 10
-20323.50290972642
 20
11522.18319521839
 30
5172.274697055716
 11
-20348.57203890859
 21
11378.961326688
 31
5178.806622613604
  0
LINE
  5
EE9
330
1F
100
AcDbEntity
  8
TRACE
100
AcDbLine
 10
-20348.57203890859
 20
11378.961326688
 30
5178.806622613604
 11
-20349.58776730678
 21
11373.15839200888
 31
5270.085091963032
  0
LINE
  5
EEA
330
1F
100
AcDbEntity
  8
TRACE
100
AcDbLine
 10
-20347.54591577847
 20
11384.82364727241
 30
4091.759676056446
 11
-20347.19692370591
 21
11386.81746589972
 31
3860.435365486394
  0
LINE
  5
EEB
330
1F
100
AcDbEntity
  8
TRACE
100
AcDbLine
 10
-20346.81406116015
 20
11389.00478915276
 30
3606.660505237999
 11
-20346.53816097207
 21
11390.58102820673
 31
3423.784085357071
  0
POLYLINE
  5
EEC
330
1F
100
AcDbEntity
  8
TRACE
100
AcDb3dPolyline
 66
     1
 10
0.0
 20
0.0
 30
0.0
 70
     8
  0
VERTEX
  5
EED
330
EEC
100
AcDbEntity
  8
TRACE
100
AcDbVertex
100
AcDb3dPolylineVertex
 10
-20348.4936872996
 20
11379.40895547321
 30
4333.728945967241
 70
    32
  0
VERTEX
  5
EEE
330
EEC
100
AcDbEntity
  8
TRACE
100
AcDbVertex
100
AcDb3dPolylineVertex
 10
-20348.4936872996
 20
11379.40895547321
 30
4600.419051008397
 70
    32
  0
SEQEND
  5
EEF
330
EEC
100
AcDbEntity
  8
TRACE
  0
POLYLINE
  5
EF0
330
1F
100
AcDbEntity
  8
TRACE
100
AcDb3dPolyline
 66
     1
 10
0.0
 20
0.0
 30
0.0
 70
     8
  0
VERTEX
  5
EF1
330
EF0
100
AcDbEntity
  8
TRACE
100
AcDbVertex
100
AcDb3dPolylineVertex
 10
-20591.17693444655
 20
9992.940847034446
 30
-1818.129088060032
 70
    32
  0
VERTEX
  5
EF2
330
EF0
100
AcDbEntity
  8
TRACE
100
AcDbVertex
100
AcDb3dPolylineVertex
 10
-20528.7884075376
 20
10349.37131311996
 30
-1818.129088060033
 70
    32
  0
SEQEND
  5
EF3
330
EF0
100
AcDbEntity
  8
TRACE
  0
POLYLINE
  5
EF4
330
1F
100
AcDbEntity
  8
TRACE
100
AcDb3dPolyline
 66
     1
 10
0.0
 20
0.0
 30
0.0
 70
     8
  0
VERTEX
  5
EF5
330
EF4
100
AcDbEntity
  8
TRACE
100
AcDbVertex
100
AcDb3dPolylineVertex
 10
-20591.17693444655
 20
9992.940847034446
 30
-1818.129088060032
 70
    32
  0
VERTEX
  5
EF6
330
EF4
100
AcDbEntity
  8
TRACE
100
AcDbVertex
100
AcDb3dPolylineVertex
 10
-20592.25262911545
 20
9986.795320425628
 30
-3009.211840253954
 70
    32
  0
SEQEND
  5
EF7
330
EF4
100
AcDbEntity
  8
TRACE
  0
POLYLINE
  5
EF8
330
1F
100
AcDbEntity
  8
TRACE
100
AcDb3dPolyline
 66
     1
 10
0.0
 20
0.0
 30
0.0
 70
     8
  0
VERTEX
  5
EF9
330
EF8
100
AcDbEntity
  8
TRACE
100
AcDbVertex
100
AcDb3dPolylineVertex
 10
-20539.06536931843
 20
10290.6582378324
 30
-3063.648324940606
 70
    32
  0
VERTEX
  5
EFA
330
EF8
100
AcDbEntity
  8
TRACE
100
AcDbVertex
100
AcDb3dPolylineVertex
 10
-20241.36865087977
 20
11991.42255079772
 30
-3063.648324940606
 70
    32
  0
VERTEX
  5
EFB
330
EF8
100
AcDbEntity
  8
TRACE
100
AcDbVertex
100
AcDb3dPolylineVertex
 10
-20184.58257643809
 20
12315.84577383607
 30
-3063.648324940607
 70
    32
  0
VERTEX
  5
EFC
330
EF8
100
AcDbEntity
  8
TRACE
100
AcDbVertex
100
AcDb3dPolylineVertex
 10
-20095.10149887163
 20
12827.05807140149
 30
-3133.480763652868
 70
    32
  0
VERTEX
  5
EFD
330
EF8
100
AcDbEntity
  8
TRACE
100
AcDbVertex
100
AcDb3dPolylineVertex
 10
-19941.95113916233
 20
13702.01788848475
 30
-3173.385126548583
 70
    32
  0
VERTEX
  5
EFE
330
EF8
100
AcDbEntity
  8
TRACE
100
AcDbVertex
100
AcDb3dPolylineVertex
 10
-19812.89188535597
 20
14439.3433594641
 30
-3163.408970372908
 70
    32
  0
VERTEX
  5
EFF
330
EF8
100
AcDbEntity
  8
TRACE
100
AcDbVertex
100
AcDb3dPolylineVertex
 10
-19659.7415602327
 20
15314.30297895469
 30
-3063.648324940606
 70
    32
  0
VERTEX
  5
F00
330
EF8
100
AcDbEntity
  8
TRACE
100
AcDbVertex
100
AcDb3dPolylineVertex
 10
-19226.10241487255
 20
17791.71686178621
 30
-3283.121928156549
 70
    32
  0
SEQEND
  5
F01
330
EF8
100
AcDbEntity
  8
TRACE
  0
POLYLINE
  5
1028
330
1F
100
AcDbEntity
  8
TRACE
100
AcDb3dPolyline
 66
     1
 10
0.0
 20
0.0
 30
0.0
 70
     8
  0
VERTEX
  5
1029
330
1028
100
AcDbEntity
  8
TRACE
100
AcDbVertex
100
AcDb3dPolylineVertex
 10
-21270.40703245788
 20
6112.446909955181
 30
4312.062088176922
 70
    32
  0
VERTEX
  5
102A
330
1028
100
AcDbEntity
  8
TRACE
100
AcDbVertex
100
AcDb3dPolylineVertex
 10
-21283.66504118194
 20
6036.702883561071
 30
4312.062088176925
 70
    32
  0
VERTEX
  5
102B
330
1028
100
AcDbEntity
  8
TRACE
100
AcDbVertex
100
AcDb3dPolylineVertex
 10
-21282.71804799829
 20
6042.113128658234
 30
4399.903961647502
 70
    32
  0
VERTEX
  5
102C
330
1028
100
AcDbEntity
  8
TRACE
100
AcDbVertex
100
AcDb3dPolylineVertex
 10
-21065.53935910845
 20
7282.871728678009
 30
4390.753676155681
 70
    32
  0
VERTEX
  5
102D
330
1028
100
AcDbEntity
  8
TRACE
100
AcDbVertex
100
AcDb3dPolylineVertex
 10
-21065.53935910845
 20
7282.871728678009
 30
4297.421710231002
 70
    32
  0
VERTEX
  5
102E
330
1028
100
AcDbEntity
  8
TRACE
100
AcDbVertex
100
AcDb3dPolylineVertex
 10
-21080.3757013778
 20
7198.110561007101
 30
4302.911802685103
 70
    32
  0
SEQEND
  5
102F
330
1028
100
AcDbEntity
  8
TRACE
  0
POLYLINE
  5
10C3
330
1F
100
AcDbEntity
  8
TRACE
100
AcDb3dPolyline
 66
     1
 10
0.0
 20
0.0
 30
0.0
 70
     8
  0
VERTEX
  5
10C4
330
10C3
100
AcDbEntity
  8
TRACE
100
AcDbVertex
100
AcDb3dPolylineVertex
 10
-21356.66969166159
 20
5619.621684723856
 30
6299.395046211408
 70
    32
  0
VERTEX
  5
10C5
330
10C3
100
AcDbEntity
  8
TRACE
100
AcDbVertex
100
AcDb3dPolylineVertex
 10
-21355.37769172313
 20
5627.002980020656
 30
6273.179236435138
 70
    32
  0
VERTEX
  5
10C6
330
10C3
100
AcDbEntity
  8
TRACE
100
AcDbVertex
100
AcDb3dPolylineVertex
 10
-21352.79368326628
 20
5641.765619632042
 30
6250.708574815082
 70
    32
  0
VERTEX
  5
10C7
330
10C3
100
AcDbEntity
  8
TRACE
100
AcDbVertex
100
AcDb3dPolylineVertex
 10
-21355.37769172313
 20
5627.002980020656
 30
6235.728112085784
 70
    32
  0
VERTEX
  5
10C8
330
10C3
100
AcDbEntity
  8
TRACE
100
AcDbVertex
100
AcDb3dPolylineVertex
 10
-21356.02369169236
 20
5623.312332372256
 30
6205.767186627189
 70
    32
  0
SEQEND
  5
10C9
330
10C3
100
AcDbEntity
  8
TRACE
  0
POLYLINE
  5
130A
330
1F
100
AcDbEntity
  8
TRACE
100
AcDb3dPolyline
 66
     1
 10
0.0
 20
0.0
 30
0.0
 70
     8
  0
VERTEX
  5
130B
330
130A
100
AcDbEntity
  8
TRACE
100
AcDbVertex
100
AcDb3dPolylineVertex
 10
-20954.55854585748
 20
7916.913674424235
 30
-1279.767447626311
 70
    32
  0
VERTEX
  5
130C
330
130A
100
AcDbEntity
  8
TRACE
100
AcDbVertex
100
AcDb3dPolylineVertex
 10
-20945.66120300445
 20
7967.744880371104
 30
-1279.767447626312
 70
    32
  0
VERTEX
  5
130D
330
130A
100
AcDbEntity
  8
TRACE
100
AcDbVertex
100
AcDb3dPolylineVertex
 10
-20935.09561319267
 20
8028.106909860508
 30
-1289.438917341616
 70
    32
  0
VERTEX
  5
130E
330
130A
100
AcDbEntity
  8
TRACE
100
AcDbVertex
100
AcDb3dPolylineVertex
 10
-20928.97869051745
 20
8063.053360885367
 30
-1270.095977911008
 70
    32
  0
VERTEX
  5
130F
330
130A
100
AcDbEntity
  8
TRACE
100
AcDbVertex
100
AcDb3dPolylineVertex
 10
-20921.74960320308
 20
8104.353694271914
 30
-1276.543602738619
 70
    32
  0
VERTEX
  5
1310
330
130A
100
AcDbEntity
  8
TRACE
100
AcDbVertex
100
AcDb3dPolylineVertex
 10
-20920.63743856392
 20
8110.7075766336
 30
-1328.124861150601
 70
    32
  0
VERTEX
  5
1311
330
130A
100
AcDbEntity
  8
TRACE
100
AcDbVertex
100
AcDb3dPolylineVertex
 10
-20928.42260819788
 20
8066.230302066214
 30
-1331.348673564406
 70
    32
  0
VERTEX
  5
1312
330
130A
100
AcDbEntity
  8
TRACE
100
AcDbVertex
100
AcDb3dPolylineVertex
 10
-20939.51578638701
 20
8002.854119485547
 30
-1381.836698653349
 70
    32
  0
VERTEX
  5
1313
330
130A
100
AcDbEntity
  8
TRACE
100
AcDbVertex
100
AcDb3dPolylineVertex
 10
-20960.49304209502
 20
7883.009439707882
 30
-1384.008357208067
 70
    32
  0
VERTEX
  5
1314
330
130A
100
AcDbEntity
  8
TRACE
100
AcDbVertex
100
AcDb3dPolylineVertex
 10
-20965.68021798883
 20
7853.374703753994
 30
-1379.706087088695
 70
    32
  0
VERTEX
  5
1315
330
130A
100
AcDbEntity
  8
TRACE
100
AcDbVertex
100
AcDb3dPolylineVertex
 10
-20954.55854585748
 20
7916.913674424236
 30
-1279.767447626312
 70
    32
  0
SEQEND
  5
1316
330
130A
100
AcDbEntity
  8
TRACE
  0
POLYLINE
  5
1317
330
1F
100
AcDbEntity
  8
TRACE
100
AcDb3dPolyline
 66
     1
 10
0.0
 20
0.0
 30
0.0
 70
     8
  0
VERTEX
  5
1318
330
1317
100
AcDbEntity
  8
TRACE
100
AcDbVertex
100
AcDb3dPolylineVertex
 10
-20568.8943849258
 20
10120.24277103792
 30
-1333.526437209415
 70
    32
  0
VERTEX
  5
1319
330
1317
100
AcDbEntity
  8
TRACE
100
AcDbVertex
100
AcDb3dPolylineVertex
 10
-21419.54381882663
 20
5260.416946922275
 30
-1443.162460546964
 70
    32
  0
SEQEND
  5
131A
330
1317
100
AcDbEntity
  8
TRACE
  0
POLYLINE
  5
1400
330
1F
100
AcDbEntity
  8
TRACE
100
AcDb3dPolyline
 66
     1
 10
0.0
 20
0.0
 30
0.0
 70
     8
  0
VERTEX
  5
1401
330
1400
100
AcDbEntity
  8
TRACE
100
AcDbVertex
100
AcDb3dPolylineVertex
 10
-21339.60524366179
 20
5717.11219228041
 30
-1407.713610970563
 70
    32
  0
VERTEX
  5
1402
330
1400
100
AcDbEntity
  8
TRACE
100
AcDbVertex
100
AcDb3dPolylineVertex
 10
-21336.25184728537
 20
5736.270404417107
 30
-1329.950088305045
 70
    32
  0
VERTEX
  5
1403
330
1400
100
AcDbEntity
  8
TRACE
100
AcDbVertex
100
AcDb3dPolylineVertex
 10
-21309.42471059372
 20
5889.535905439448
 30
-1322.173729543715
 70
    32
  0
VERTEX
  5
1404
330
1400
100
AcDbEntity
  8
TRACE
100
AcDbVertex
100
AcDb3dPolylineVertex
 10
-21307.41268306378
 20
5901.030773900112
 30
-1396.049089065512
 70
    32
  0
VERTEX
  5
1405
330
1400
100
AcDbEntity
  8
TRACE
100
AcDbVertex
100
AcDb3dPolylineVertex
 10
-21314.79014308001
 20
5858.882775824308
 30
-1411.601774114285
 70
    32
  0
VERTEX
  5
1406
330
1400
100
AcDbEntity
  8
TRACE
100
AcDbVertex
100
AcDb3dPolylineVertex
 10
-21340.2759195051
 20
5713.280569460192
 30
-1411.601774114285
 70
    32
  0
SEQEND
  5
1407
330
1400
100
AcDbEntity
  8
TRACE
  0
POLYLINE
  5
1408
330
1F
100
AcDbEntity
  8
TRACE
100
AcDb3dPolyline
 66
     1
 10
0.0
 20
0.0
 30
0.0
 70
     8
  0
VERTEX
  5
1409
330
1408
100
AcDbEntity
  8
TRACE
100
AcDbVertex
100
AcDb3dPolylineVertex
 10
-21379.84594869928
 20
5487.213940746895
 30
-1392.160893447907
 70
    32
  0
VERTEX
  5
140A
330
1408
100
AcDbEntity
  8
TRACE
100
AcDbVertex
100
AcDb3dPolylineVertex
 10
-21381.1873003859
 20
5479.550695106451
 30
-1349.390968971426
 70
    32
  0
VERTEX
  5
140B
330
1408
100
AcDbEntity
  8
TRACE
100
AcDbVertex
100
AcDb3dPolylineVertex
 10
-21393.2595170451
 20
5410.581190235721
 30
-1318.28553392611
 70
    32
  0
VERTEX
  5
140C
330
1408
100
AcDbEntity
  8
TRACE
100
AcDbVertex
100
AcDb3dPolylineVertex
 10
-21400.63697706133
 20
5368.433192159913
 30
-1341.614610210096
 70
    32
  0
VERTEX
  5
140D
330
1408
100
AcDbEntity
  8
TRACE
100
AcDbVertex
100
AcDb3dPolylineVertex
 10
-21395.27155315497
 20
5399.086272757264
 30
-1399.937252209233
 70
    32
  0
VERTEX
  5
140E
330
1408
100
AcDbEntity
  8
TRACE
100
AcDbVertex
100
AcDb3dPolylineVertex
 10
-21385.21137260564
 20
5456.560860149537
 30
-1415.489969731893
 70
    32
  0
VERTEX
  5
140F
330
1408
100
AcDbEntity
  8
TRACE
100
AcDbVertex
100
AcDb3dPolylineVertex
 10
-21379.17526427604
 20
5491.045612584908
 30
-1392.160893447907
 70
    32
  0
SEQEND
  5
1410
330
1408
100
AcDbEntity
  8
TRACE
  0
POLYLINE
  5
1411
330
1F
100
AcDbEntity
  8
TRACE
100
AcDb3dPolyline
 66
     1
 10
0.0
 20
0.0
 30
0.0
 70
     8
  0
VERTEX
  5
1412
330
1411
100
AcDbEntity
  8
TRACE
100
AcDbVertex
100
AcDb3dPolylineVertex
 10
-20594.39116939905
 20
9974.577674845761
 30
-1185.471989923723
 70
    32
  0
VERTEX
  5
1413
330
1411
100
AcDbEntity
  8
TRACE
100
AcDbVertex
100
AcDb3dPolylineVertex
 10
-20575.80948118038
 20
10080.73629279323
 30
-1239.334538724625
 70
    32
  0
VERTEX
  5
1414
330
1411
100
AcDbEntity
  8
TRACE
100
AcDbVertex
100
AcDb3dPolylineVertex
 10
-20568.20788769452
 20
10124.16478266789
 30
-1278.50726606286
 70
    32
  0
VERTEX
  5
1415
330
1411
100
AcDbEntity
  8
TRACE
100
AcDbVertex
100
AcDb3dPolylineVertex
 10
-20571.58637178158
 20
10104.86324250533
 30
-1327.473207709539
 70
    32
  0
VERTEX
  5
1416
330
1411
100
AcDbEntity
  8
TRACE
100
AcDbVertex
100
AcDb3dPolylineVertex
 10
-20600.30352084138
 20
9940.799955052391
 30
-1337.266389544099
 70
    32
  0
VERTEX
  5
1417
330
1411
100
AcDbEntity
  8
TRACE
100
AcDbVertex
100
AcDb3dPolylineVertex
 10
-20606.21588086364
 20
9907.022186241219
 30
-1263.817509547963
 70
    32
  0
VERTEX
  5
1418
330
1411
100
AcDbEntity
  8
TRACE
100
AcDbVertex
100
AcDb3dPolylineVertex
 10
-20600.30352084138
 20
9940.799955052391
 30
-1185.471989923723
 70
    32
  0
VERTEX
  5
1419
330
1411
100
AcDbEntity
  8
TRACE
100
AcDbVertex
100
AcDb3dPolylineVertex
 10
-20597.76966206604
 20
9955.276085665412
 30
-1185.471989923723
 70
    32
  0
SEQEND
  5
141A
330
1411
100
AcDbEntity
  8
TRACE
  0
POLYLINE
  5
141C
330
1F
100
AcDbEntity
  8
TRACE
100
AcDb3dPolyline
 66
     1
 10
0.0
 20
0.0
 30
0.0
 70
     8
  0
VERTEX
  5
141D
330
141C
100
AcDbEntity
  8
TRACE
100
AcDbVertex
100
AcDb3dPolylineVertex
 10
-21308.71692656007
 20
5893.579530213124
 30
6448.300504115351
 70
    32
  0
VERTEX
  5
141E
330
141C
100
AcDbEntity
  8
TRACE
100
AcDbVertex
100
AcDb3dPolylineVertex
 10
-21240.89147715305
 20
6281.071553864909
 30
6501.699390792794
 70
    32
  0
VERTEX
  5
141F
330
141C
100
AcDbEntity
  8
TRACE
100
AcDbVertex
100
AcDb3dPolylineVertex
 10
-21190.65041082705
 20
6568.102640739958
 30
6380.338346703302
 70
    32
  0
SEQEND
  5
1420
330
141C
100
AcDbEntity
  8
TRACE
  0
POLYLINE
  5
1522
330
1F
100
AcDbEntity
  8
TRACE
100
AcDb3dPolyline
 66
     1
 10
0.0
 20
0.0
 30
0.0
 70
     8
  0
VERTEX
  5
1523
330
1522
100
AcDbEntity
  8
TRACE
100
AcDbVertex
100
AcDb3dPolylineVertex
 10
-21397.69703644522
 20
5385.229299649238
 30
3256.770664727866
 70
    32
  0
VERTEX
  5
1524
330
1522
100
AcDbEntity
  8
TRACE
100
AcDbVertex
100
AcDb3dPolylineVertex
 10
-21271.35931270825
 20
6107.00645943806
 30
3256.770664727869
 70
    32
  0
SEQEND
  5
1525
330
1522
100
AcDbEntity
  8
TRACE
  0
POLYLINE
  5
1529
330
1F
100
AcDbEntity
  8
TRACE
100
AcDb3dPolyline
 66
     1
 10
0.0
 20
0.0
 30
0.0
 70
     8
  0
VERTEX
  5
152A
330
1529
100
AcDbEntity
  8
TRACE
100
AcDbVertex
100
AcDb3dPolylineVertex
 10
-21395.86605104955
 20
5395.689860433584
 30
3168.313209925606
 70
    32
  0
VERTEX
  5
152B
330
1529
100
AcDbEntity
  8
TRACE
100
AcDbVertex
100
AcDb3dPolylineVertex
 10
-21270.74898424303
 20
6110.493313032845
 30
3193.081290493694
 70
    32
  0
SEQEND
  5
152C
330
1529
100
AcDbEntity
  8
TRACE
  0
POLYLINE
  5
152D
330
1F
100
AcDbEntity
  8
TRACE
100
AcDb3dPolyline
 66
     1
 10
0.0
 20
0.0
 30
0.0
 70
     8
  0
VERTEX
  5
152E
330
152D
100
AcDbEntity
  8
TRACE
100
AcDbVertex
100
AcDb3dPolylineVertex
 10
-21317.74417162356
 20
5842.006182918938
 30
3263.847243041257
 70
    32
  0
VERTEX
  5
152F
330
152D
100
AcDbEntity
  8
TRACE
100
AcDbVertex
100
AcDb3dPolylineVertex
 10
-21314.69253675756
 20
5859.440408272534
 30
3667.213138679643
 70
    32
  0
VERTEX
  5
1530
330
152D
100
AcDbEntity
  8
TRACE
100
AcDbVertex
100
AcDb3dPolylineVertex
 10
-21325.67842675123
 20
5796.677171427376
 30
3663.674849522948
 70
    32
  0
VERTEX
  5
1531
330
152D
100
AcDbEntity
  8
TRACE
100
AcDbVertex
100
AcDb3dPolylineVertex
 10
-21327.50941214691
 20
5786.21661064303
 30
3256.770664727869
 70
    32
  0
SEQEND
  5
1532
330
152D
100
AcDbEntity
  8
TRACE
  0
POLYLINE
  5
1533
330
1F
100
AcDbEntity
  8
TRACE
100
AcDb3dPolyline
 66
     1
 10
0.0
 20
0.0
 30
0.0
 70
     8
  0
VERTEX
  5
1534
330
1533
100
AcDbEntity
  8
TRACE
100
AcDbVertex
100
AcDb3dPolylineVertex
 10
-21271.35931270825
 20
6107.00645943806
 30
2729.564338013436
 70
    32
  0
VERTEX
  5
1535
330
1533
100
AcDbEntity
  8
TRACE
100
AcDbVertex
100
AcDb3dPolylineVertex
 10
-21305.53763215957
 20
5911.743084333337
 30
2733.102627170132
 70
    32
  0
VERTEX
  5
1536
330
1533
100
AcDbEntity
  8
TRACE
100
AcDbVertex
100
AcDb3dPolylineVertex
 10
-21343.37791494211
 20
5695.558630280235
 30
2708.334546602046
 70
    32
  0
VERTEX
  5
1537
330
1533
100
AcDbEntity
  8
TRACE
100
AcDbVertex
100
AcDb3dPolylineVertex
 10
-21388.5421243871
 20
5437.532018330362
 30
2690.643072582958
 70
    32
  0
VERTEX
  5
1538
330
1533
100
AcDbEntity
  8
TRACE
100
AcDbVertex
100
AcDb3dPolylineVertex
 10
-21390.37310978278
 20
5427.071457546006
 30
2658.798385465872
 70
    32
  0
VERTEX
  5
1539
330
1533
100
AcDbEntity
  8
TRACE
100
AcDbVertex
100
AcDb3dPolylineVertex
 10
-21380.60786925943
 20
5482.861029821915
 30
2626.953726584396
 70
    32
  0
VERTEX
  5
153A
330
1533
100
AcDbEntity
  8
TRACE
100
AcDbVertex
100
AcDb3dPolylineVertex
 10
-21367.18067286499
 20
5559.571638425891
 30
2658.798385465872
 70
    32
  0
VERTEX
  5
153B
330
1533
100
AcDbEntity
  8
TRACE
100
AcDbVertex
100
AcDb3dPolylineVertex
 10
-21313.47188728724
 20
5866.414072841784
 30
2658.798385465872
 70
    32
  0
VERTEX
  5
153C
330
1533
100
AcDbEntity
  8
TRACE
100
AcDbVertex
100
AcDb3dPolylineVertex
 10
-21292.72076423036
 20
5984.96683934253
 30
2655.260096309178
 70
    32
  0
VERTEX
  5
153D
330
1533
100
AcDbEntity
  8
TRACE
100
AcDbVertex
100
AcDb3dPolylineVertex
 10
-21271.35931270825
 20
6107.00645943806
 30
2644.645200603483
 70
    32
  0
SEQEND
  5
153E
330
1533
100
AcDbEntity
  8
TRACE
  0
POLYLINE
  5
1951
330
1F
100
AcDbEntity
  8
TRACE
100
AcDb3dPolyline
 66
     1
 10
0.0
 20
0.0
 30
0.0
 70
     8
  0
VERTEX
  5
1952
330
1951
100
AcDbEntity
  8
TRACE
100
AcDbVertex
100
AcDb3dPolylineVertex
 10
-21423.23404268267
 20
5239.334413415956
 30
-1845.684064463113
 70
    32
  0
VERTEX
  5
1953
330
1951
100
AcDbEntity
  8
TRACE
100
AcDbVertex
100
AcDb3dPolylineVertex
 10
-21421.93405117259
 20
5246.761365177828
 30
-2222.513296213581
 70
    32
  0
VERTEX
  5
1954
330
1951
100
AcDbEntity
  8
TRACE
100
AcDbVertex
100
AcDb3dPolylineVertex
 10
-21503.8339657185
 20
4778.860836662962
 30
-2260.196190436145
 70
    32
  0
VERTEX
  5
1955
330
1951
100
AcDbEntity
  8
TRACE
100
AcDbVertex
100
AcDb3dPolylineVertex
 10
-21593.53388669647
 20
4266.398269808743
 30
-2245.123054461487
 70
    32
  0
VERTEX
  5
1956
330
1951
100
AcDbEntity
  8
TRACE
100
AcDbVertex
100
AcDb3dPolylineVertex
 10
-21661.13382769796
 20
3880.194593070618
 30
-2230.049882296217
 70
    32
  0
VERTEX
  5
1957
330
1951
100
AcDbEntity
  8
TRACE
100
AcDbVertex
100
AcDb3dPolylineVertex
 10
-21696.23378970878
 20
3679.665802939677
 30
-2252.659640544115
 70
    32
  0
VERTEX
  5
1958
330
1951
100
AcDbEntity
  8
TRACE
100
AcDbVertex
100
AcDb3dPolylineVertex
 10
-21741.73375073378
 20
3419.721016317627
 30
-2192.366951883048
 70
    32
  0
VERTEX
  5
1959
330
1951
100
AcDbEntity
  8
TRACE
100
AcDbVertex
100
AcDb3dPolylineVertex
 10
-21756.03373384013
 20
3338.024109912876
 30
-2079.318160643538
 70
    32
  0
SEQEND
  5
195A
330
1951
100
AcDbEntity
  8
TRACE
  0
POLYLINE
  5
195B
330
1F
100
AcDbEntity
  8
TRACE
100
AcDb3dPolyline
 66
     1
 10
0.0
 20
0.0
 30
0.0
 70
     8
  0
VERTEX
  5
195C
330
195B
100
AcDbEntity
  8
TRACE
100
AcDbVertex
100
AcDb3dPolylineVertex
 10
-21418.03404795655
 20
5269.042384347503
 30
-2230.049882296215
 70
    32
  0
VERTEX
  5
195D
330
195B
100
AcDbEntity
  8
TRACE
100
AcDbVertex
100
AcDb3dPolylineVertex
 10
-21290.63417238565
 20
5996.887699484421
 30
-2252.659640544115
 70
    32
  0
VERTEX
  5
195E
330
195B
100
AcDbEntity
  8
TRACE
100
AcDbVertex
100
AcDb3dPolylineVertex
 10
-21197.03425775356
 20
6531.631230880288
 30
-2177.293779717778
 70
    32
  0
VERTEX
  5
195F
330
195B
100
AcDbEntity
  8
TRACE
100
AcDbVertex
100
AcDb3dPolylineVertex
 10
-21085.2343567991
 20
7170.352687850578
 30
-2132.074263221976
 70
    32
  0
VERTEX
  5
1960
330
195B
100
AcDbEntity
  8
TRACE
100
AcDbVertex
100
AcDb3dPolylineVertex
 10
-20970.83446326253
 20
7823.928102972636
 30
-2154.684021469881
 70
    32
  0
VERTEX
  5
1961
330
195B
100
AcDbEntity
  8
TRACE
100
AcDbVertex
100
AcDb3dPolylineVertex
 10
-20891.53454129872
 20
8276.974673335734
 30
-2177.293779717778
 70
    32
  0
VERTEX
  5
1962
330
195B
100
AcDbEntity
  8
TRACE
100
AcDbVertex
100
AcDb3dPolylineVertex
 10
-20790.13462979649
 20
8856.280188442932
 30
-2192.366951883048
 70
    32
  0
VERTEX
  5
1963
330
195B
100
AcDbEntity
  8
TRACE
100
AcDbVertex
100
AcDb3dPolylineVertex
 10
-20653.63476584537
 20
9636.114439053052
 30
-1958.732819512011
 70
    32
  0
VERTEX
  5
1964
330
195B
100
AcDbEntity
  8
TRACE
100
AcDbVertex
100
AcDb3dPolylineVertex
 10
-20592.53482064201
 20
9985.183138469748
 30
-1875.830408793646
 70
    32
  0
SEQEND
  5
1965
330
195B
100
AcDbEntity
  8
TRACE
  0
POLYLINE
  5
19DF
330
1F
100
AcDbEntity
  8
TRACE
100
AcDb3dPolyline
 66
     1
 10
0.0
 20
0.0
 30
0.0
 70
     8
  0
VERTEX
  5
19E0
330
19DF
100
AcDbEntity
  8
TRACE
100
AcDbVertex
100
AcDb3dPolylineVertex
 10
-20808.92556220623
 20
8748.926142293406
 30
-2186.635010597264
 70
    32
  0
VERTEX
  5
19E1
330
19DF
100
AcDbEntity
  8
TRACE
100
AcDbVertex
100
AcDb3dPolylineVertex
 10
-20808.36589317548
 20
8752.123574631863
 30
-1992.041173680027
 70
    32
  0
VERTEX
  5
19E2
330
19DF
100
AcDbEntity
  8
TRACE
100
AcDbVertex
100
AcDb3dPolylineVertex
 10
-20906.28450859444
 20
8192.706972551118
 30
-1982.232577255436
 70
    32
  0
VERTEX
  5
19E3
330
19DF
100
AcDbEntity
  8
TRACE
100
AcDbVertex
100
AcDb3dPolylineVertex
 10
-20906.49598968913
 20
8191.498764746205
 30
-2169.821576731377
 70
    32
  0
SEQEND
  5
19E4
330
19DF
100
AcDbEntity
  8
TRACE
  0
POLYLINE
  5
19E5
330
1F
100
AcDbEntity
  8
TRACE
100
AcDb3dPolyline
 66
     1
 10
0.0
 20
0.0
 30
0.0
 70
     8
  0
VERTEX
  5
19E6
330
19E5
100
AcDbEntity
  8
TRACE
100
AcDbVertex
100
AcDb3dPolylineVertex
 10
-20804.99015118201
 20
8771.409449002153
 30
-2189.170018106347
 70
    32
  0
VERTEX
  5
19E7
330
19E5
100
AcDbEntity
  8
TRACE
100
AcDbVertex
100
AcDb3dPolylineVertex
 10
-20803.92465632004
 20
8777.49670332731
 30
-1981.006511750009
 70
    32
  0
VERTEX
  5
19E8
330
19E5
100
AcDbEntity
  8
TRACE
100
AcDbVertex
100
AcDb3dPolylineVertex
 10
-20908.39937691289
 20
8180.624566733868
 30
-1972.424017021451
 70
    32
  0
VERTEX
  5
19E9
330
19E5
100
AcDbEntity
  8
TRACE
100
AcDbVertex
100
AcDb3dPolylineVertex
 10
-20909.24532997742
 20
8175.791571630162
 30
-2169.821576731377
 70
    32
  0
SEQEND
  5
19EA
330
19E5
100
AcDbEntity
  8
TRACE
  0
POLYLINE
  5
1A28
330
1F
100
AcDbEntity
  8
TRACE
100
AcDb3dPolyline
 66
     1
 10
0.0
 20
0.0
 30
0.0
 70
     8
  0
VERTEX
  5
1A29
330
1A28
100
AcDbEntity
  8
TRACE
100
AcDbVertex
100
AcDb3dPolylineVertex
 10
-21424.28570143921
 20
5233.326205828308
 30
-1877.963772906453
 70
    32
  0
VERTEX
  5
1A2A
330
1A28
100
AcDbEntity
  8
TRACE
100
AcDbVertex
100
AcDb3dPolylineVertex
 10
-21399.93010160862
 20
5372.471626140555
 30
-1874.826046968678
 70
    32
  0
VERTEX
  5
1A2B
330
1A28
100
AcDbEntity
  8
TRACE
100
AcDbVertex
100
AcDb3dPolylineVertex
 10
-21402.63627936758
 20
5357.011023883635
 30
-2063.090833716085
 70
    32
  0
VERTEX
  5
1A2C
330
1A28
100
AcDbEntity
  8
TRACE
100
AcDbVertex
100
AcDb3dPolylineVertex
 10
-21423.7444677998
 20
5236.418315354093
 30
-2063.090833716085
 70
    32
  0
SEQEND
  5
1A2D
330
1A28
100
AcDbEntity
  8
TRACE
  0
POLYLINE
  5
1A2E
330
1F
100
AcDbEntity
  8
TRACE
100
AcDb3dPolyline
 66
     1
 10
0.0
 20
0.0
 30
0.0
 70
     8
  0
VERTEX
  5
1A2F
330
1A2E
100
AcDbEntity
  8
TRACE
100
AcDbVertex
100
AcDb3dPolylineVertex
 10
-21421.03829004085
 20
5251.878917611008
 30
-1617.530819112221
 70
    32
  0
VERTEX
  5
1A30
330
1A2E
100
AcDbEntity
  8
TRACE
100
AcDbVertex
100
AcDb3dPolylineVertex
 10
-21332.81691039804
 20
5755.894463781642
 30
-1608.117568917671
 70
    32
  0
VERTEX
  5
1A31
330
1A2E
100
AcDbEntity
  8
TRACE
100
AcDbVertex
100
AcDb3dPolylineVertex
 10
-21337.14678907521
 20
5731.157532947385
 30
-1862.275070836344
 70
    32
  0
VERTEX
  5
1A32
330
1A2E
100
AcDbEntity
  8
TRACE
100
AcDbVertex
100
AcDb3dPolylineVertex
 10
-21399.93010160862
 20
5372.471626140555
 30
-1874.826046968678
 70
    32
  0
SEQEND
  5
1A33
330
1A2E
100
AcDbEntity
  8
TRACE
  0
POLYLINE
  5
1A34
330
1F
100
AcDbEntity
  8
TRACE
100
AcDb3dPolyline
 66
     1
 10
0.0
 20
0.0
 30
0.0
 70
     8
  0
VERTEX
  5
1A35
330
1A34
100
AcDbEntity
  8
TRACE
100
AcDbVertex
100
AcDb3dPolylineVertex
 10
-21340.9354436749
 20
5709.512657010895
 30
-1432.403758302588
 70
    32
  0
VERTEX
  5
1A36
330
1A34
100
AcDbEntity
  8
TRACE
100
AcDbVertex
100
AcDb3dPolylineVertex
 10
-21341.4766773143
 20
5706.420547485117
 30
-1608.117568917672
 70
    32
  0
SEQEND
  5
1A37
330
1A34
100
AcDbEntity
  8
TRACE
  0
POLYLINE
  5
1A38
330
1F
100
AcDbEntity
  8
TRACE
100
AcDb3dPolyline
 66
     1
 10
0.0
 20
0.0
 30
0.0
 70
     8
  0
VERTEX
  5
1A39
330
1A38
100
AcDbEntity
  8
TRACE
100
AcDbVertex
100
AcDb3dPolylineVertex
 10
-20593.54187301854
 20
9979.429770571478
 30
-1688.624921218082
 70
    32
  0
VERTEX
  5
1A3A
330
1A38
100
AcDbEntity
  8
TRACE
100
AcDbVertex
100
AcDb3dPolylineVertex
 10
-20712.16184564778
 20
9301.744718109935
 30
-1688.624921218083
 70
    32
  0
VERTEX
  5
1A3B
330
1A38
100
AcDbEntity
  8
TRACE
100
AcDbVertex
100
AcDb3dPolylineVertex
 10
-20713.89351982282
 20
9291.851529988662
 30
-1352.311910402309
 70
    32
  0
SEQEND
  5
1A3C
330
1A38
100
AcDbEntity
  8
TRACE
  0
POLYLINE
  5
1A3D
330
1F
100
AcDbEntity
  8
TRACE
100
AcDb3dPolyline
 66
     1
 10
0.0
 20
0.0
 30
0.0
 70
     8
  0
VERTEX
  5
1A3E
330
1A3D
100
AcDbEntity
  8
TRACE
100
AcDbVertex
100
AcDb3dPolylineVertex
 10
-20713.02768751626
 20
9296.798096735285
 30
-1507.919412066144
 70
    32
  0
VERTEX
  5
1A3F
330
1A3D
100
AcDbEntity
  8
TRACE
100
AcDbVertex
100
AcDb3dPolylineVertex
 10
-21088.80190144565
 20
7149.971030129982
 30
-1522.97821655901
 70
    32
  0
VERTEX
  5
1A40
330
1A3D
100
AcDbEntity
  8
TRACE
100
AcDbVertex
100
AcDb3dPolylineVertex
 10
-21087.93605957716
 20
7154.917651504625
 30
-1402.507889187919
 70
    32
  0
SEQEND
  5
1A41
330
1A3D
100
AcDbEntity
  8
TRACE
  0
POLYLINE
  5
1A42
330
1F
100
AcDbEntity
  8
TRACE
100
AcDb3dPolyline
 66
     1
 10
0.0
 20
0.0
 30
0.0
 70
     8
  0
VERTEX
  5
1A43
330
1A42
100
AcDbEntity
  8
TRACE
100
AcDbVertex
100
AcDb3dPolylineVertex
 10
-20866.28122014178
 20
8421.248844824203
 30
-1377.409881699811
 70
    32
  0
VERTEX
  5
1A44
330
1A42
100
AcDbEntity
  8
TRACE
100
AcDbVertex
100
AcDb3dPolylineVertex
 10
-20866.28122014178
 20
8421.248844824203
 30
-1507.919412066144
 70
    32
  0
SEQEND
  5
1A45
330
1A42
100
AcDbEntity
  8
TRACE
  0
POLYLINE
  5
1A53
330
1F
100
AcDbEntity
  8
TRACE
100
AcDb3dPolyline
 66
     1
 10
0.0
 20
0.0
 30
0.0
 70
     8
  0
VERTEX
  5
1A54
330
1A53
100
AcDbEntity
  8
TRACE
100
AcDbVertex
100
AcDb3dPolylineVertex
 10
-21329.98345385573
 20
5772.082219544518
 30
-1315.061132070145
 70
    32
  0
VERTEX
  5
1A55
330
1A53
100
AcDbEntity
  8
TRACE
100
AcDbVertex
100
AcDb3dPolylineVertex
 10
-21355.99225314308
 20
5623.491943229051
 30
-1315.061132070145
 70
    32
  0
VERTEX
  5
1A56
330
1A53
100
AcDbEntity
  8
TRACE
100
AcDbVertex
100
AcDb3dPolylineVertex
 10
-21368.51499950187
 20
5551.948527436433
 30
-1326.230242118482
 70
    32
  0
VERTEX
  5
1A57
330
1A53
100
AcDbEntity
  8
TRACE
100
AcDbVertex
100
AcDb3dPolylineVertex
 10
-21397.41367068889
 20
5386.848190070356
 30
-1320.645705189624
 70
    32
  0
VERTEX
  5
1A58
330
1A53
100
AcDbEntity
  8
TRACE
100
AcDbVertex
100
AcDb3dPolylineVertex
 10
-21403.19339536437
 20
5353.828177225153
 30
-1259.215654209673
 70
    32
  0
SEQEND
  5
1A59
330
1A53
100
AcDbEntity
  8
TRACE
  0
POLYLINE
  5
219B
330
1F
100
AcDbEntity
  8
TRACE
100
AcDb3dPolyline
 66
     1
 10
0.0
 20
0.0
 30
0.0
 70
     8
  0
VERTEX
  5
219C
330
219B
100
AcDbEntity
  8
TRACE
100
AcDbVertex
100
AcDb3dPolylineVertex
 10
-20506.84379360848
 20
10474.74258502443
 30
6191.257855014796
 70
    32
  0
VERTEX
  5
219D
330
219B
100
AcDbEntity
  8
TRACE
100
AcDbVertex
100
AcDb3dPolylineVertex
 10
-20526.86983555423
 20
10360.33226283509
 30
6236.199210728806
 70
    32
  0
VERTEX
  5
219E
330
219B
100
AcDbEntity
  8
TRACE
100
AcDbVertex
100
AcDb3dPolylineVertex
 10
-20537.85185219098
 20
10297.59115477672
 30
6269.905251869724
 70
    32
  0
VERTEX
  5
219F
330
219B
100
AcDbEntity
  8
TRACE
100
AcDbVertex
100
AcDb3dPolylineVertex
 10
-20555.29388567989
 20
10197.94347219877
 30
6307.356376219079
 70
    32
  0
VERTEX
  5
21A0
330
219B
100
AcDbEntity
  8
TRACE
100
AcDbVertex
100
AcDb3dPolylineVertex
 10
-20558.52389410596
 20
10179.49018493899
 30
6445.925591517301
 70
    32
  0
VERTEX
  5
21A1
330
219B
100
AcDbEntity
  8
TRACE
100
AcDbVertex
100
AcDb3dPolylineVertex
 10
-20559.16989407519
 20
10175.79953729059
 30
6487.121831548986
 70
    32
  0
VERTEX
  5
21A2
330
219B
100
AcDbEntity
  8
TRACE
100
AcDbVertex
100
AcDb3dPolylineVertex
 10
-20581.13393592862
 20
10050.31727215605
 30
6490.866947231309
 70
    32
  0
VERTEX
  5
21A3
330
219B
100
AcDbEntity
  8
TRACE
100
AcDbVertex
100
AcDb3dPolylineVertex
 10
-20590.82396120685
 20
9994.957410376679
 30
6505.847409960606
 70
    32
  0
VERTEX
  5
21A4
330
219B
100
AcDbEntity
  8
TRACE
100
AcDbVertex
100
AcDb3dPolylineVertex
 10
-20610.20399460344
 20
9884.237784853539
 30
6505.847409960606
 70
    32
  0
VERTEX
  5
21A5
330
219B
100
AcDbEntity
  8
TRACE
100
AcDbVertex
100
AcDb3dPolylineVertex
 10
-20621.83201978935
 20
9817.805980128971
 30
6505.847409960606
 70
    32
  0
VERTEX
  5
21A6
330
219B
100
AcDbEntity
  8
TRACE
100
AcDbVertex
100
AcDb3dPolylineVertex
 10
-20622.47801975858
 20
9814.115332480572
 30
6475.886484502011
 70
    32
  0
VERTEX
  5
21A7
330
219B
100
AcDbEntity
  8
TRACE
100
AcDbVertex
100
AcDb3dPolylineVertex
 10
-20621.18601982013
 20
9821.496627777372
 30
6389.748888756327
 70
    32
  0
VERTEX
  5
21A8
330
219B
100
AcDbEntity
  8
TRACE
100
AcDbVertex
100
AcDb3dPolylineVertex
 10
-20627.64602809235
 20
9784.590102275586
 30
6311.101491901402
 70
    32
  0
VERTEX
  5
21A9
330
219B
100
AcDbEntity
  8
TRACE
100
AcDbVertex
100
AcDb3dPolylineVertex
 10
-20638.62805330903
 20
9721.848945199422
 30
6254.924789140427
 70
    32
  0
VERTEX
  5
21AA
330
219B
100
AcDbEntity
  8
TRACE
100
AcDbVertex
100
AcDb3dPolylineVertex
 10
-20654.13207831031
 20
9633.273254584459
 30
6120.100689524516
 70
    32
  0
VERTEX
  5
21AB
330
219B
100
AcDbEntity
  8
TRACE
100
AcDbVertex
100
AcDb3dPolylineVertex
 10
-20659.300095224
 20
9603.747975361686
 30
6045.198408351913
 70
    32
  0
VERTEX
  5
21AC
330
219B
100
AcDbEntity
  8
TRACE
100
AcDbVertex
100
AcDb3dPolylineVertex
 10
-20676.09612016375
 20
9507.790989449924
 30
6004.002168320228
 70
    32
  0
VERTEX
  5
21AD
330
219B
100
AcDbEntity
  8
TRACE
100
AcDbVertex
100
AcDb3dPolylineVertex
 10
-20696.76816207873
 20
9389.690019612181
 30
5981.531506700171
 70
    32
  0
VERTEX
  5
21AE
330
219B
100
AcDbEntity
  8
TRACE
100
AcDbVertex
100
AcDb3dPolylineVertex
 10
-20740.69625436553
 20
9138.725440325318
 30
5992.76682127326
 70
    32
  0
VERTEX
  5
21AF
330
219B
100
AcDbEntity
  8
TRACE
100
AcDbVertex
100
AcDb3dPolylineVertex
 10
-20776.8723212818
 20
8932.048779872614
 30
6090.139796539807
 70
    32
  0
VERTEX
  5
21B0
330
219B
100
AcDbEntity
  8
TRACE
100
AcDbVertex
100
AcDb3dPolylineVertex
 10
-20804.65037143822
 20
8773.350636884698
 30
6138.826267936136
 70
    32
  0
VERTEX
  5
21B1
330
219B
100
AcDbEntity
  8
TRACE
100
AcDbVertex
100
AcDb3dPolylineVertex
 10
-20831.13643023612
 20
8622.033740175778
 30
6116.355573842185
 70
    32
  0
VERTEX
  5
21B2
330
219B
100
AcDbEntity
  8
TRACE
100
AcDbVertex
100
AcDb3dPolylineVertex
 10
-20845.34845529895
 20
8540.839344857618
 30
6048.943524034235
 70
    32
  0
VERTEX
  5
21B3
330
219B
100
AcDbEntity
  8
TRACE
100
AcDbVertex
100
AcDb3dPolylineVertex
 10
-20847.93246375579
 20
8526.076705246229
 30
6056.433755398888
 70
    32
  0
VERTEX
  5
21B4
330
219B
100
AcDbEntity
  8
TRACE
100
AcDbVertex
100
AcDb3dPolylineVertex
 10
-20863.43648875709
 20
8437.501014631267
 30
6067.669102445856
 70
    32
  0
VERTEX
  5
21B5
330
219B
100
AcDbEntity
  8
TRACE
100
AcDbVertex
100
AcDb3dPolylineVertex
 10
-20875.064513943
 20
8371.0692099067
 30
6112.610458159863
 70
    32
  0
VERTEX
  5
21B6
330
219B
100
AcDbEntity
  8
TRACE
100
AcDbVertex
100
AcDb3dPolylineVertex
 10
-20899.30079539494
 20
8232.605464694328
 30
6040.982194026568
 70
    32
  0
VERTEX
  5
21B7
330
219B
100
AcDbEntity
  8
TRACE
100
AcDbVertex
100
AcDb3dPolylineVertex
 10
-20921.26484582831
 20
8107.123150542001
 30
5943.609251233909
 70
    32
  0
VERTEX
  5
21B8
330
219B
100
AcDbEntity
  8
TRACE
100
AcDbVertex
100
AcDb3dPolylineVertex
 10
-20938.70687931721
 20
8007.47546796405
 30
5894.922779837579
 70
    32
  0
VERTEX
  5
21B9
330
219B
100
AcDbEntity
  8
TRACE
100
AcDbVertex
100
AcDb3dPolylineVertex
 10
-20958.0869127138
 20
7896.7558424409
 30
5872.452085743637
 70
    32
  0
VERTEX
  5
21BA
330
219B
100
AcDbEntity
  8
TRACE
100
AcDbVertex
100
AcDb3dPolylineVertex
 10
-20981.98896305485
 20
7760.20158534337
 30
5894.922779837579
 70
    32
  0
VERTEX
  5
21BB
330
219B
100
AcDbEntity
  8
TRACE
100
AcDbVertex
100
AcDb3dPolylineVertex
 10
-20991.03297978392
 20
7708.5324202302
 30
5913.648325775313
 70
    32
  0
VERTEX
  5
21BC
330
219B
100
AcDbEntity
  8
TRACE
100
AcDbVertex
100
AcDb3dPolylineVertex
 10
-20996.20098811768
 20
7679.007190025214
 30
5872.452085743637
 70
    32
  0
VERTEX
  5
21BD
330
219B
100
AcDbEntity
  8
TRACE
100
AcDbVertex
100
AcDb3dPolylineVertex
 10
-20997.49298805614
 20
7671.625894728413
 30
5939.864135551586
 70
    32
  0
VERTEX
  5
21BE
330
219B
100
AcDbEntity
  8
TRACE
100
AcDbVertex
100
AcDb3dPolylineVertex
 10
-21007.18301333436
 20
7616.266032949048
 30
5992.295722630238
 70
    32
  0
VERTEX
  5
21BF
330
219B
100
AcDbEntity
  8
TRACE
100
AcDbVertex
100
AcDb3dPolylineVertex
 10
-21020.74903842796
 20
7538.762285279287
 30
6026.00173129727
 70
    32
  0
VERTEX
  5
21C0
330
219B
100
AcDbEntity
  8
TRACE
100
AcDbVertex
100
AcDb3dPolylineVertex
 10
-21025.91704676173
 20
7509.2370550743
 30
6011.021301041859
 70
    32
  0
VERTEX
  5
21C1
330
219B
100
AcDbEntity
  8
TRACE
100
AcDbVertex
100
AcDb3dPolylineVertex
 10
-21029.79305515703
 20
7487.093120166114
 30
5992.295722630238
 70
    32
  0
VERTEX
  5
21C2
330
219B
100
AcDbEntity
  8
TRACE
100
AcDbVertex
100
AcDb3dPolylineVertex
 10
-21044.65108018909
 20
7402.20807719955
 30
6014.766416724182
 70
    32
  0
VERTEX
  5
21C3
330
219B
100
AcDbEntity
  8
TRACE
100
AcDbVertex
100
AcDb3dPolylineVertex
 10
-21044.00508021986
 20
7405.89872484795
 30
6127.11982224614
 70
    32
  0
VERTEX
  5
21C4
330
219B
100
AcDbEntity
  8
TRACE
100
AcDbVertex
100
AcDb3dPolylineVertex
 10
-21060.80111373954
 20
7309.941689918399
 30
6115.88447519917
 70
    32
  0
VERTEX
  5
21C5
330
219B
100
AcDbEntity
  8
TRACE
100
AcDbVertex
100
AcDb3dPolylineVertex
 10
-21065.96912207329
 20
7280.416459713413
 30
6149.590483866213
 70
    32
  0
VERTEX
  5
21C6
330
219B
100
AcDbEntity
  8
TRACE
100
AcDbVertex
100
AcDb3dPolylineVertex
 10
-21055.63310540577
 20
7339.466920123387
 30
6168.316062277835
 70
    32
  0
VERTEX
  5
21C7
330
219B
100
AcDbEntity
  8
TRACE
100
AcDbVertex
100
AcDb3dPolylineVertex
 10
-21050.46509707201
 20
7368.99215032837
 30
6168.316062277835
 70
    32
  0
VERTEX
  5
21C8
330
219B
100
AcDbEntity
  8
TRACE
100
AcDbVertex
100
AcDb3dPolylineVertex
 10
-21049.17308855362
 20
7376.373494642963
 30
6235.728112085784
 70
    32
  0
VERTEX
  5
21C9
330
219B
100
AcDbEntity
  8
TRACE
100
AcDbVertex
100
AcDb3dPolylineVertex
 10
-21067.26113059168
 20
7273.035115398819
 30
6231.982996403462
 70
    32
  0
VERTEX
  5
21CA
330
219B
100
AcDbEntity
  8
TRACE
100
AcDbVertex
100
AcDb3dPolylineVertex
 10
-21066.61512204252
 20
7276.725812065016
 30
6310.63039325838
 70
    32
  0
VERTEX
  5
21CB
330
219B
100
AcDbEntity
  8
TRACE
100
AcDbVertex
100
AcDb3dPolylineVertex
 10
-21083.4111555622
 20
7180.768777135464
 30
6310.63039325838
 70
    32
  0
VERTEX
  5
21CC
330
219B
100
AcDbEntity
  8
TRACE
100
AcDbVertex
100
AcDb3dPolylineVertex
 10
-21092.45518087119
 20
7129.099563004499
 30
6314.37550894071
 70
    32
  0
VERTEX
  5
21CD
330
219B
100
AcDbEntity
  8
TRACE
100
AcDbVertex
100
AcDb3dPolylineVertex
 10
-21092.45518087119
 20
7129.099563004499
 30
6389.277757639418
 70
    32
  0
VERTEX
  5
21CE
330
219B
100
AcDbEntity
  8
TRACE
100
AcDbVertex
100
AcDb3dPolylineVertex
 10
-21104.72919744641
 20
7058.977159649325
 30
6389.277757639418
 70
    32
  0
VERTEX
  5
21CF
330
219B
100
AcDbEntity
  8
TRACE
100
AcDbVertex
100
AcDb3dPolylineVertex
 10
-21111.83521426778
 20
7018.379937481346
 30
6348.081517607742
 70
    32
  0
VERTEX
  5
21D0
330
219B
100
AcDbEntity
  8
TRACE
100
AcDbVertex
100
AcDb3dPolylineVertex
 10
-21157.05530649304
 20
6760.034062897678
 30
6359.316864654716
 70
    32
  0
VERTEX
  5
21D1
330
219B
100
AcDbEntity
  8
TRACE
100
AcDbVertex
100
AcDb3dPolylineVertex
 10
-21162.22331482681
 20
6730.508832692695
 30
6381.787526274774
 70
    32
  0
VERTEX
  5
21D2
330
219B
100
AcDbEntity
  8
TRACE
100
AcDbVertex
100
AcDb3dPolylineVertex
 10
-21191.25034244032
 20
6564.675185162288
 30
6381.787526274774
 70
    32
  0
SEQEND
  5
21D3
330
219B
100
AcDbEntity
  8
TRACE
  0
POLYLINE
  5
21E5
330
1F
100
AcDbEntity
  8
TRACE
100
AcDb3dPolyline
 66
     1
 10
0.0
 20
0.0
 30
0.0
 70
     8
  0
VERTEX
  5
21E6
330
21E5
100
AcDbEntity
  8
TRACE
100
AcDbVertex
100
AcDb3dPolylineVertex
 10
-21312.09560798549
 20
5874.276862641327
 30
6396.767989004071
 70
    32
  0
VERTEX
  5
21E7
330
21E5
100
AcDbEntity
  8
TRACE
100
AcDbVertex
100
AcDb3dPolylineVertex
 10
-21328.24564153593
 20
5782.010475360178
 30
6381.787526274774
 70
    32
  0
VERTEX
  5
21E8
330
21E5
100
AcDbEntity
  8
TRACE
100
AcDbVertex
100
AcDb3dPolylineVertex
 10
-21345.68767502484
 20
5682.362792782228
 30
6381.787526274774
 70
    32
  0
VERTEX
  5
21E9
330
21E5
100
AcDbEntity
  8
TRACE
100
AcDbVertex
100
AcDb3dPolylineVertex
 10
-21354.7316917539
 20
5630.693627669057
 30
6355.571748972387
 70
    32
  0
VERTEX
  5
21EA
330
21E5
100
AcDbEntity
  8
TRACE
100
AcDbVertex
100
AcDb3dPolylineVertex
 10
-21356.66969166159
 20
5619.621684723856
 30
6291.904814846759
 70
    32
  0
SEQEND
  5
21EB
330
21E5
100
AcDbEntity
  8
TRACE
  0
POLYLINE
  5
21EC
330
1F
100
AcDbEntity
  8
TRACE
100
AcDb3dPolyline
 66
     1
 10
0.0
 20
0.0
 30
0.0
 70
     8
  0
VERTEX
  5
21ED
330
21EC
100
AcDbEntity
  8
TRACE
100
AcDbVertex
100
AcDb3dPolylineVertex
 10
-21312.13497554349
 20
5874.051952746131
 30
6397.575100401449
 70
    32
  0
VERTEX
  5
21EE
330
21EC
100
AcDbEntity
  8
TRACE
100
AcDbVertex
100
AcDb3dPolylineVertex
 10
-21309.02418876398
 20
5891.82411754388
 30
6449.102129536862
 70
    32
  0
SEQEND
  5
21EF
330
21EC
100
AcDbEntity
  8
TRACE
  0
LINE
  5
2366
330
1F
100
AcDbEntity
  8
TRACE
100
AcDbLine
 10
-21195.58361922525
 20
6539.918840676254
 30
1003.651433095873
 11
-21199.61922053342
 21
6516.863139147878
 31
760.3343719102611
  0
LINE
  5
2367
330
1F
100
AcDbEntity
  8
TRACE
100
AcDbLine
 10
-21199.61922053342
 20
6516.863139147878
 30
760.3343719102611
 11
-21231.09685672
 21
6337.028975830905
 31
741.6176552375378
  0
LINE
  5
2368
330
1F
100
AcDbEntity
  8
TRACE
100
AcDbLine
 10
-21231.09685672
 20
6337.028975830905
 30
741.6176552375378
 11
-21246.43211768342
 21
6249.417447180569
 31
779.0510601874538
  0
LINE
  5
2369
330
1F
100
AcDbEntity
  8
TRACE
100
AcDbLine
 10
-21246.43211768342
 20
6249.417447180569
 30
779.0510601874538
 11
-21264.99585819291
 21
6143.361365879879
 31
797.7677484646427
  0
LINE
  5
236A
330
1F
100
AcDbEntity
  8
TRACE
100
AcDbLine
 10
-21264.99585819291
 20
6143.361365879879
 30
797.7677484646427
 11
-21274.6812893287
 21
6088.027750790525
 31
774.3718739203885
  0
LINE
  5
236B
330
1F
100
AcDbEntity
  8
TRACE
100
AcDbLine
 10
-21274.6812893287
 20
6088.027750790525
 30
774.3718739203885
 11
-21339.25080522607
 21
5719.137126400537
 31
769.6927160488566
  0
LINE
  5
236C
330
1F
100
AcDbEntity
  8
TRACE
100
AcDbLine
 10
-21339.25080522607
 20
5719.137126400537
 30
769.6927160488566
 11
-21337.63656920423
 21
5728.359381294853
 31
1013.00977723447
  0
LINE
  5
236D
330
1F
100
AcDbEntity
  8
TRACE
100
AcDbLine
 10
-21337.63656920423
 20
5728.359381294853
 30
1013.00977723447
 11
-21277.90976137238
 21
6069.583241001875
 31
1017.688935106001
  0
LINE
  5
236E
330
1F
100
AcDbEntity
  8
TRACE
100
AcDbLine
 10
-21128.15056237634
 20
6925.169095379468
 30
1239.284095196649
 11
-21127.48172460523
 21
6928.990217151462
 31
1017.68265969325
  0
LINE
  5
236F
330
1F
100
AcDbEntity
  8
TRACE
100
AcDbLine
 10
-21127.48172460523
 20
6928.990217151462
 30
1017.68265969325
 11
-21279.06057496997
 21
6063.008554159789
 31
1013.614318127658
  0
LINE
  5
2370
330
1F
100
AcDbEntity
  8
TRACE
100
AcDbLine
 10
-21279.06057496997
 20
6063.008554159789
 30
1013.614318127658
 11
-21278.27469996689
 21
6067.498318664746
 31
1253.32162560231
  0
LINE
  5
2371
330
1F
100
AcDbEntity
  8
TRACE
100
AcDbLine
 10
-21278.27469996689
 20
6067.498318664746
 30
1253.32162560231
 11
-21277.46757820478
 21
6072.109467542764
 31
1272.038313879499
  0
LINE
  5
2372
330
1F
100
AcDbEntity
  8
TRACE
100
AcDbLine
 10
-21329.93031268478
 20
5772.385819152759
 30
1431.13024942222
 11
-21297.6455547361
 21
5956.831131347751
 31
1445.167751432344
  0
LINE
  5
2373
330
1F
100
AcDbEntity
  8
TRACE
100
AcDbLine
 10
-21297.6455547361
 20
5956.831131347751
 30
1445.167751432344
 11
-21225.00484372478
 21
6371.833115932766
 31
1445.167751432344
  0
LINE
  5
2374
330
1F
100
AcDbEntity
  8
TRACE
100
AcDbLine
 10
-21225.00484372478
 20
6371.833115932766
 30
1445.167751432344
 11
-21128.95767663606
 21
6920.55798936316
 31
1435.809407293752
  0
LINE
  5
2375
330
1F
100
AcDbEntity
  8
TRACE
100
AcDbLine
 10
-21128.95767663606
 20
6920.55798936316
 30
1435.809407293752
 11
-21128.15056237634
 21
6925.169095379468
 31
1253.32162560231
  0
LINE
  5
2376
330
1F
100
AcDbEntity
  8
TRACE
100
AcDbLine
 10
-21129.10277279415
 20
6919.729043821151
 30
1316.253707882037
 11
-21153.31634313126
 21
6781.395048959476
 31
1316.253707882037
  0
LINE
  5
2377
330
1F
100
AcDbEntity
  8
TRACE
100
AcDbLine
 10
-21153.31634313126
 20
6781.395048959476
 30
1316.253707882037
 11
-21179.95127125232
 21
6629.227650325461
 31
1316.253707882037
  0
LINE
  5
2378
330
1F
100
AcDbEntity
  8
TRACE
100
AcDbLine
 10
-21179.95127125232
 20
6629.227650325461
 30
1316.253707882037
 11
-21205.77907761127
 21
6481.671400569464
 31
1330.291209892165
  0
LINE
  5
2379
330
1F
100
AcDbEntity
  8
TRACE
100
AcDbLine
 10
-21205.77907761127
 20
6481.671400569464
 30
1330.291209892165
 11
-21242.90655112785
 21
6269.559280829798
 31
1330.291209892164
  0
LINE
  5
237A
330
1F
100
AcDbEntity
  8
TRACE
100
AcDbLine
 10
-21242.90655112785
 20
6269.559280829798
 30
1330.291209892164
 11
-21268.73436498918
 21
6122.00298821209
 31
1325.61205202063
  0
LINE
  5
237B
330
1F
100
AcDbEntity
  8
TRACE
100
AcDbLine
 10
-21268.73436498918
 20
6122.00298821209
 30
1325.61205202063
 11
-21296.98352913208
 21
5960.613334683758
 31
1311.574521614972
  0
LINE
  5
237C
330
1F
100
AcDbEntity
  8
TRACE
100
AcDbLine
 10
-21296.98352913208
 20
5960.613334683758
 30
1311.574521614972
 11
-21309.09031054944
 21
5891.446358683774
 31
1311.574521614972
  0
LINE
  5
237E
330
1F
100
AcDbEntity
  8
TRACE
100
AcDbLine
 10
-21279.08181422661
 20
6062.887212648439
 30
1768.030780389316
 11
-21303.29539206611
 21
5924.553174925055
 31
1763.351594122256
  0
LINE
  5
237F
330
1F
100
AcDbEntity
  8
TRACE
100
AcDbLine
 10
-21303.29539206611
 20
5924.553174925055
 30
1763.351594122256
 11
-21326.70184064111
 21
5790.8303289414
 31
1749.314092112128
  0
LINE
  5
2380
330
1F
100
AcDbEntity
  8
TRACE
100
AcDbLine
 10
-21326.70184064111
 20
5790.8303289414
 30
1749.314092112128
 11
-21329.12319842506
 21
5776.996925169059
 31
1749.314092112128
  0
LINE
  5
2381
330
1F
100
AcDbEntity
  8
TRACE
100
AcDbLine
 10
-21329.12319842506
 20
5776.996925169059
 30
1749.314092112128
 11
-21333.15879223085
 21
5753.941266502399
 31
1660.409780202173
  0
LINE
  5
2382
330
1F
100
AcDbEntity
  8
TRACE
100
AcDbLine
 10
-21333.15879223085
 20
5753.941266502399
 30
1660.409780202173
 11
-21331.54455620901
 21
5763.163521396723
 31
1510.676188798045
  0
LINE
  5
2383
330
1F
100
AcDbEntity
  8
TRACE
100
AcDbLine
 10
-21331.54455620901
 20
5763.163521396723
 30
1510.676188798045
 11
-21332.35167046873
 21
5758.552415380417
 31
1440.488593560813
  0
LINE
  5
2384
330
1F
100
AcDbEntity
  8
TRACE
100
AcDbLine
 10
-21332.35167046873
 20
5758.552415380417
 30
1440.488593560813
 11
-21298.45267649821
 21
5952.219982469733
 31
1459.205281838006
  0
LINE
  5
2385
330
1F
100
AcDbEntity
  8
TRACE
100
AcDbLine
 10
-21298.45267649821
 20
5952.219982469733
 30
1459.205281838006
 11
-21283.11741553479
 21
6039.831511120068
 31
1459.205281838006
  0
LINE
  5
2386
330
1F
100
AcDbEntity
  8
TRACE
100
AcDbLine
 10
-21283.11741553479
 20
6039.831511120068
 30
1459.205281838006
 11
-21277.46757820478
 21
6072.109467542764
 31
1763.351594122256
  0
LINE
  5
2387
330
1F
100
AcDbEntity
  8
TRACE
100
AcDbLine
 10
-21273.43198439899
 20
6095.165126209423
 30
1763.351594122255
 11
-21225.81196548689
 21
6367.221967054751
 31
1758.672436250725
  0
LINE
  5
2388
330
1F
100
AcDbEntity
  8
TRACE
100
AcDbLine
 10
-21225.81196548689
 20
6367.221967054751
 30
1758.672436250725
 11
-21225.81196548689
 21
6367.221967054751
 31
1459.205281838006
  0
LINE
  5
2389
330
1F
100
AcDbEntity
  8
TRACE
100
AcDbLine
 10
-21225.81196548689
 20
6367.221967054751
 30
1459.205281838006
 11
-21279.08181422661
 21
6062.887212648439
 31
1463.884468105067
  0
LINE
  5
238A
330
1F
100
AcDbEntity
  8
TRACE
100
AcDbLine
 10
-21279.08181422661
 20
6062.887212648439
 30
1463.884468105067
 11
-21280.69605775084
 21
6053.664914892403
 31
1613.618031113665
  0
LINE
  5
238B
330
1F
100
AcDbEntity
  8
TRACE
100
AcDbLine
 10
-21280.69605775084
 20
6053.664914892403
 30
1613.618031113665
 11
-21275.04622042083
 21
6085.942871315097
 31
1758.672436250725
  0
LINE
  5
238C
330
1F
100
AcDbEntity
  8
TRACE
100
AcDbLine
 10
-21183.75142515981
 20
6607.517077956599
 30
1758.809189136661
 11
-21099.81104699085
 21
7087.074932525296
 31
1763.488347008193
  0
LINE
  5
238D
330
1F
100
AcDbEntity
  8
TRACE
100
AcDbLine
 10
-21099.81104699085
 20
7087.074932525296
 30
1763.488347008193
 11
-21097.3896892069
 21
7100.908336297639
 31
1707.338253781088
  0
LINE
  5
238E
330
1F
100
AcDbEntity
  8
TRACE
100
AcDbLine
 10
-21097.3896892069
 20
7100.908336297639
 30
1707.338253781088
 11
-21096.58257494717
 21
7105.519442313945
 31
1581.000565316752
  0
LINE
  5
238F
330
1F
100
AcDbEntity
  8
TRACE
100
AcDbLine
 10
-21096.58257494717
 20
7105.519442313945
 30
1581.000565316752
 11
-21098.196810969
 21
7096.297187419621
 31
1492.096253406794
  0
LINE
  5
2390
330
1F
100
AcDbEntity
  8
TRACE
100
AcDbLine
 10
-21098.196810969
 20
7096.297187419621
 30
1492.096253406794
 11
-21104.65376255874
 21
7059.40812498062
 31
1459.342034723943
  0
LINE
  5
2391
330
1F
100
AcDbEntity
  8
TRACE
100
AcDbLine
 10
-21104.65376255874
 20
7059.40812498062
 30
1459.342034723943
 11
-21222.49314220061
 21
6386.182660460896
 31
1459.342034723942
  0
LINE
  5
2392
330
1F
100
AcDbEntity
  8
TRACE
100
AcDbLine
 10
-21222.49314220061
 20
6386.182660460896
 30
1459.342034723942
 11
-21224.10737822245
 21
6376.960405566571
 31
1562.283848644028
  0
LINE
  5
2393
330
1F
100
AcDbEntity
  8
TRACE
100
AcDbLine
 10
-21224.10737822245
 20
6376.960405566571
 30
1562.283848644028
 11
-21221.6860204385
 21
6390.793809338913
 31
1740.092472463939
  0
LINE
  5
2394
330
1F
100
AcDbEntity
  8
TRACE
100
AcDbLine
 10
-21221.6860204385
 20
6390.793809338913
 30
1740.092472463939
 11
-21216.8433048706
 21
6418.460616883591
 31
1749.450816602531
  0
LINE
  5
2395
330
1F
100
AcDbEntity
  8
TRACE
100
AcDbLine
 10
-21216.8433048706
 20
6418.460616883591
 30
1749.450816602531
 11
-21182.13718913797
 21
6616.739332850923
 31
1754.130002869597
  0
LINE
  5
2396
330
1F
100
AcDbEntity
  8
TRACE
100
AcDbLine
 10
-20977.20532290352
 20
7787.530890476864
 30
-523.4236388996626
 11
-20931.82112296059
 21
8046.814325108771
 31
-530.7322141069245
  0
LINE
  5
2397
330
1F
100
AcDbEntity
  8
TRACE
100
AcDbLine
 10
-20931.82112296059
 20
8046.814325108771
 30
-530.7322141069245
 11
-20931.82112296059
 21
8046.814325108771
 31
-896.1618850256627
  0
LINE
  5
2398
330
1F
100
AcDbEntity
  8
TRACE
100
AcDbLine
 10
-20931.82112296059
 20
8046.814325108771
 30
-896.1618850256627
 11
-20982.24801095073
 21
7758.721624734578
 31
-881.5446777014104
  0
LINE
  5
2399
330
1F
100
AcDbEntity
  8
TRACE
100
AcDbLine
 10
-21046.54228919118
 20
7391.403454306891
 30
-530.7322141069246
 11
-20979.72667068616
 21
7773.126236130085
 31
-530.7322141069245
  0
LINE
  5
239A
330
1F
100
AcDbEntity
  8
TRACE
100
AcDbLine
 10
-20979.72667068616
 20
7773.126236130085
 30
-530.7322141069245
 11
-20979.72667068616
 21
7773.126236130085
 31
-896.1618850256627
  0
LINE
  5
239B
330
1F
100
AcDbEntity
  8
TRACE
100
AcDbLine
 10
-21303.71940215296
 20
5922.130772596149
 30
-494.1892527060238
 11
-21200.34429342617
 21
6512.720741788777
 31
-516.1150352375373
  0
LINE
  5
239C
330
1F
100
AcDbEntity
  8
TRACE
100
AcDbLine
 10
-21200.34429342617
 20
6512.720741788777
 30
-516.1150352375373
 11
-21200.34429342617
 21
6512.720741788777
 31
-881.5446777014104
  0
LINE
  5
239D
330
1F
100
AcDbEntity
  8
TRACE
100
AcDbLine
 10
-21200.34429342617
 20
6512.720741788777
 30
-881.5446777014104
 11
-21046.54228919118
 21
7391.403454306891
 31
-874.236102494148
  0
LINE
  5
239E
330
1F
100
AcDbEntity
  8
TRACE
100
AcDbLine
 10
-21046.54228919118
 20
7391.403454306891
 30
-874.236102494148
 11
-21049.06363697381
 21
7376.998799960111
 31
-538.0408177690488
  0
LINE
  5
239F
330
1F
100
AcDbEntity
  8
TRACE
100
AcDbLine
 10
-21049.06363697381
 20
7376.998799960111
 30
-538.0408177690488
 11
-21199.08361953485
 21
6519.923068962175
 31
-516.1150352375384
  0
LINE
  5
23A0
330
1F
100
AcDbEntity
  8
TRACE
100
AcDbLine
 10
-21303.71940215296
 20
5922.130772596149
 30
-918.0876391023106
 11
-21302.45873577971
 21
5929.333056818268
 31
-494.1892527060235
  0
LINE
  5
23A1
330
1F
100
AcDbEntity
  8
TRACE
100
AcDbLine
 10
-20862.68681604798
 20
8441.783952638575
 30
-1093.157281355192
 11
-20784.97672666412
 21
8885.74768685301
 31
-1097.074806379258
  0
LINE
  5
23A2
330
1F
100
AcDbEntity
  8
TRACE
100
AcDbLine
 10
-20784.97672666412
 20
8885.74768685301
 30
-1097.074806379258
 11
-20781.59803003584
 21
8905.050441279898
 31
-1159.755134383103
  0
LINE
  5
23A3
330
1F
100
AcDbEntity
  8
TRACE
100
AcDbLine
 10
-20781.59803003584
 20
8905.050441279898
 30
-1159.755134383103
 11
-20779.57081588365
 21
8916.632072084821
 31
-1226.352951220414
  0
LINE
  5
23A4
330
1F
100
AcDbEntity
  8
TRACE
100
AcDbLine
 10
-20779.57081588365
 20
8916.632072084821
 30
-1226.352951220414
 11
-20781.59803003584
 21
8905.050441279898
 31
-1332.125982107772
  0
LINE
  5
23A5
330
1F
100
AcDbEntity
  8
TRACE
100
AcDbLine
 10
-20781.59803003584
 20
8905.050441279898
 30
-1332.125982107772
 11
-20781.59803003584
 21
8905.050441279898
 31
-1363.466146109701
  0
LINE
  5
23A6
330
1F
100
AcDbEntity
  8
TRACE
100
AcDbLine
 10
-20925.62980316657
 20
8082.185812611404
 30
-1089.309459447113
 11
-20863.46173357187
 21
8437.356789057352
 31
-1089.309459447114
  0
LINE
  5
23A7
330
1F
100
AcDbEntity
  8
TRACE
100
AcDbLine
 10
-20863.46173357187
 20
8437.356789057352
 30
-1089.309459447114
 11
-20863.46173357187
 21
8437.356789057352
 31
-1375.28838810728
  0
LINE
  5
23A8
330
1F
100
AcDbEntity
  8
TRACE
100
AcDbLine
 10
-20985.77065860907
 20
7738.596466970381
 30
-1046.216720372986
 11
-20983.74343489495
 21
7750.178152403321
 31
-1065.804345493324
  0
LINE
  5
23A9
330
1F
100
AcDbEntity
  8
TRACE
100
AcDbLine
 10
-20983.74343489495
 20
7750.178152403321
 30
-1065.804345493324
 11
-20967.52567386775
 21
7842.831471982794
 31
-1061.886820469251
  0
LINE
  5
23AA
330
1F
100
AcDbEntity
  8
TRACE
100
AcDbLine
 10
-20967.52567386775
 20
7842.831471982794
 30
-1061.886820469251
 11
-20960.09253937316
 21
7885.297542647538
 31
-1065.804345493324
  0
LINE
  5
23AB
330
1F
100
AcDbEntity
  8
TRACE
100
AcDbLine
 10
-20960.09253937316
 20
7885.297542647538
 30
-1065.804345493324
 11
-20953.33513655468
 21
7923.903106129323
 31
-1101.061998328699
  0
LINE
  5
23AC
330
1F
100
AcDbEntity
  8
TRACE
100
AcDbLine
 10
-20953.33513655468
 20
7923.903106129323
 30
-1101.061998328699
 11
-20927.65702688069
 21
8070.604127178468
 31
-1101.061998328699
  0
LINE
  5
23AD
330
1F
100
AcDbEntity
  8
TRACE
100
AcDbLine
 10
-20927.65702688069
 20
8070.604127178468
 30
-1101.061998328699
 11
-20929.68424103289
 21
8059.022496373538
 31
-1261.680307171783
  0
LINE
  5
23AE
330
1F
100
AcDbEntity
  8
TRACE
100
AcDbLine
 10
-20929.68424103289
 20
8059.022496373538
 30
-1261.680307171783
 11
-20929.00849979485
 21
8062.883058184517
 31
-1281.267896101507
  0
LINE
  5
23AF
330
1F
100
AcDbEntity
  8
TRACE
100
AcDbLine
 10
-21071.66949448489
 20
7247.849792472
 30
-890.521890765815
 11
-20984.01021260178
 21
7748.654030788405
 31
-890.5218907658152
  0
LINE
  5
23B0
330
1F
100
AcDbEntity
  8
TRACE
100
AcDbLine
 10
-20984.01021260178
 20
7748.654030788405
 30
-890.5218907658152
 11
-20986.90008450144
 21
7732.143969737787
 31
-1046.8892504895
  0
LINE
  5
23B1
330
1F
100
AcDbEntity
  8
TRACE
100
AcDbLine
 10
-20986.90008450144
 20
7732.143969737787
 30
-1046.8892504895
 11
-21013.87217123471
 21
7578.050357948123
 31
-1046.8892504895
  0
LINE
  5
23B2
330
1F
100
AcDbEntity
  8
TRACE
100
AcDbLine
 10
-21246.17733131819
 20
6250.873061336109
 30
-901.8044945689494
 11
-21398.37695813481
 21
5381.344854596159
 31
-929.72725159449
  0
LINE
  5
23B3
330
1F
100
AcDbEntity
  8
TRACE
100
AcDbLine
 10
-21072.78534244379
 20
7241.474867020517
 30
-1041.418207315432
 11
-21072.78534244379
 21
7241.474867020518
 31
-885.0508475917477
  0
LINE
  5
23B4
330
1F
100
AcDbEntity
  8
TRACE
100
AcDbLine
 10
-21072.78534244379
 20
7241.474867020518
 30
-885.0508475917477
 11
-21246.17733131819
 21
6250.873061336109
 31
-901.8044945689517
  0
LINE
  5
23B5
330
1F
100
AcDbEntity
  8
TRACE
100
AcDbLine
 10
-21246.17733131819
 20
6250.873061336109
 30
-901.8044945689517
 11
-21244.25074686445
 21
6261.879786912517
 31
-1125.186478392056
  0
LINE
  5
23B6
330
1F
100
AcDbEntity
  8
TRACE
100
AcDbLine
 10
-21249.06719365593
 20
6234.363054913508
 30
-1203.370140158595
 11
-21273.14941805146
 21
6096.779449546446
 31
-1130.771015320922
  0
LINE
  5
23B7
330
1F
100
AcDbEntity
  8
TRACE
100
AcDbLine
 10
-21273.14941805146
 20
6096.779449546446
 30
-1130.771015320922
 11
-21299.15820777688
 21
5948.189227858996
 31
-1130.771015320922
  0
LINE
  5
23B8
330
1F
100
AcDbEntity
  8
TRACE
100
AcDbLine
 10
-21299.15820777688
 20
5948.189227858996
 30
-1130.771015320922
 11
-21311.68096369761
 21
5876.645757438362
 31
-1225.708360255269
  0
LINE
  5
23B9
330
1F
100
AcDbEntity
  8
TRACE
100
AcDbLine
 10
-21311.68096369761
 20
5876.645757438362
 30
-1225.708360255269
 11
-21307.82781391395
 21
5898.659099335166
 31
-1415.583013933358
  0
LINE
  5
23BA
330
1F
100
AcDbEntity
  8
TRACE
100
AcDbLine
 10
-21074.71192689755
 20
7230.468141444102
 30
-1097.263721366517
 11
-21246.17733131819
 21
6250.873061336109
 31
-1119.60190527258
  0
LINE
  5
23BB
330
1F
100
AcDbEntity
  8
TRACE
100
AcDbLine
 10
-21246.17733131819
 20
6250.873061336109
 30
-1119.60190527258
 11
-21246.17733131819
 21
6250.873061336109
 31
-1415.583013933358
  0
LINE
  5
23BC
330
1F
100
AcDbEntity
  8
TRACE
100
AcDbLine
 10
-21246.17733131819
 20
6250.873061336109
 30
-1415.583013933358
 11
-21074.71192689755
 21
7230.468141444103
 31
-1387.660293098432
  0
LINE
  5
23BD
330
1F
100
AcDbEntity
  8
TRACE
100
AcDbLine
 10
-21254.59643685395
 20
6202.77406206797
 30
2087.87071116726
 11
-21255.4713688044
 21
6197.775508353971
 31
1780.996882935358
  0
LINE
  5
23BE
330
1F
100
AcDbEntity
  8
TRACE
100
AcDbLine
 10
-21255.4713688044
 20
6197.775508353971
 30
1780.996882935358
 11
-21293.64301580941
 21
5979.697944940712
 31
1777.944641591286
  0
LINE
  5
23BF
330
1F
100
AcDbEntity
  8
TRACE
100
AcDbLine
 10
-21293.64301580941
 20
5979.697944940712
 30
1777.944641591286
 11
-21298.56161629633
 21
5951.597601000873
 31
1815.234876936009
  0
LINE
  5
23C0
330
1F
100
AcDbEntity
  8
TRACE
100
AcDbLine
 10
-21298.56161629633
 20
5951.597601000873
 30
1815.234876936009
 11
-21303.59246195618
 21
5922.855991730926
 31
1822.843329459132
  0
LINE
  5
23C1
330
1F
100
AcDbEntity
  8
TRACE
100
AcDbLine
 10
-21303.59246195618
 20
5922.855991730926
 30
1822.843329459132
 11
-21301.40513581012
 21
5935.352354705766
 31
2108.159889659988
  0
LINE
  5
23C2
330
1F
100
AcDbEntity
  8
TRACE
100
AcDbLine
 10
-21301.40513581012
 20
5935.352354705766
 30
2108.159889659988
 11
-21272.96994813232
 21
6097.8047750365
 31
2109.427950962703
  0
LINE
  5
23C3
330
1F
100
AcDbEntity
  8
TRACE
100
AcDbLine
 10
-21171.81973235142
 20
6675.683759229425
 30
2034.300387069046
 11
-21186.65303714207
 21
6590.939944908619
 31
2038.826386144027
  0
LINE
  5
23C4
330
1F
100
AcDbEntity
  8
TRACE
100
AcDbLine
 10
-21190.37662117836
 20
6569.666822119557
 30
2056.370018502433
 11
-21177.58127573512
 21
6642.767617506438
 31
2001.711465709761
  0
LINE
  5
23C5
330
1F
100
AcDbEntity
  8
TRACE
100
AcDbLine
 10
-21177.58127573512
 20
6642.767617506438
 30
2001.711465709761
 11
-21172.41824396473
 21
6672.264416221034
 31
1947.052912917088
  0
LINE
  5
23C6
330
1F
100
AcDbEntity
  8
TRACE
100
AcDbLine
 10
-21172.41824396473
 20
6672.264416221034
 30
1947.052912917088
 11
-21173.98960178442
 21
6663.287127802663
 31
1790.885615190082
  0
LINE
  5
23C7
330
1F
100
AcDbEntity
  8
TRACE
100
AcDbLine
 10
-21173.98960178442
 20
6663.287127802663
 30
1790.885615190082
 11
-21185.21358940797
 21
6599.163620834163
 31
1771.364699444754
  0
LINE
  5
23C8
330
1F
100
AcDbEntity
  8
TRACE
100
AcDbLine
 10
-21185.21358940797
 20
6599.163620834163
 30
1771.364699444754
 11
-21253.67991465765
 21
6208.010224064268
 31
1781.775846979433
  0
LINE
  5
23C9
330
1F
100
AcDbEntity
  8
TRACE
100
AcDbLine
 10
-21253.67991465765
 20
6208.010224064268
 30
1781.775846979433
 11
-21253.00648092073
 21
6211.857602943343
 31
2087.603489342082
  0
LINE
  5
23CA
330
1F
100
AcDbEntity
  8
TRACE
100
AcDbLine
 10
-21171.29584445636
 20
6678.676771179919
 30
2051.164444735096
 11
-21172.86720227605
 21
6669.69948276155
 31
2005.615660153073
  0
LINE
  5
23CB
330
1F
100
AcDbEntity
  8
TRACE
100
AcDbLine
 10
-21172.86720227605
 20
6669.69948276155
 30
2005.615660153073
 11
-21168.82656255389
 21
6692.783969137588
 31
1963.971041778748
  0
LINE
  5
23CC
330
1F
100
AcDbEntity
  8
TRACE
100
AcDbLine
 10
-21168.82656255389
 20
6692.783969137588
 30
1963.971041778748
 11
-21156.03121711065
 21
6765.884764524457
 31
1956.16268112774
  0
LINE
  5
23CD
330
1F
100
AcDbEntity
  8
TRACE
100
AcDbLine
 10
-21156.03121711065
 20
6765.884764524457
 30
1956.16268112774
 11
-21140.76658976494
 21
6853.092757869008
 31
1967.875207986448
  0
LINE
  5
23CE
330
1F
100
AcDbEntity
  8
TRACE
100
AcDbLine
 10
-21140.76658976494
 20
6853.092757869008
 30
1967.875207986448
 11
-21134.70564137192
 21
6887.719423502585
 31
2005.615660153073
  0
LINE
  5
23CF
330
1F
100
AcDbEntity
  8
TRACE
100
AcDbLine
 10
-21134.70564137192
 20
6887.719423502585
 30
2005.615660153073
 11
-21135.15459968324
 21
6885.154490043095
 31
2079.795100455462
  0
LINE
  5
23D0
330
1F
100
AcDbEntity
  8
TRACE
100
AcDbLine
 10
-21009.61082419465
 20
7602.395762253862
 30
-1044.428037306369
 11
-21048.53668094434
 21
7380.009340399123
 31
-1044.428037306369
  0
LINE
  5
23D1
330
1F
100
AcDbEntity
  8
TRACE
100
AcDbLine
 10
-21048.53668094434
 20
7380.009340399123
 30
-1044.428037306369
 11
-21070.78003378697
 21
7252.931350040842
 31
-1066.994854098552
  0
LINE
  5
23D2
330
1F
100
AcDbEntity
  8
TRACE
100
AcDbLine
 10
-21070.78003378697
 20
7252.931350040842
 30
-1066.994854098552
 11
-21074.11653628437
 21
7233.869653937984
 31
-1099.233108132156
  0
LINE
  5
23D3
330
1F
100
AcDbEntity
  8
TRACE
100
AcDbLine
 10
-21074.11653628437
 20
7233.869653937984
 30
-1099.233108132156
 11
-21074.11653628437
 21
7233.869653937984
 31
-1350.691645468897
  0
LINE
  5
23D4
330
1F
100
AcDbEntity
  8
TRACE
100
AcDbLine
 10
-21074.11653628437
 20
7233.869653937984
 30
-1350.691645468897
 11
-21076.34086556268
 21
7221.161889214617
 31
-1392.601401691688
  0
LINE
  5
23D5
330
1F
100
AcDbEntity
  8
TRACE
100
AcDbLine
 10
-21076.34086556268
 20
7221.161889214617
 30
-1392.601401691688
 11
-20993.48440260717
 21
7694.527252569489
 31
-1392.601401691687
  0
LINE
  5
23D6
330
1F
100
AcDbEntity
  8
TRACE
100
AcDbLine
 10
-20993.48440260717
 20
7694.527252569489
 30
-1392.601401691687
 11
-20996.82090510457
 21
7675.465556466639
 31
-1357.139302770395
  0
LINE
  5
23D7
330
1F
100
AcDbEntity
  8
TRACE
100
AcDbLine
 10
-20996.82090510457
 20
7675.465556466639
 30
-1357.139302770395
 11
-21002.38173688028
 21
7643.696095640414
 31
-1350.691645468897
  0
LINE
  5
23D8
330
1F
100
AcDbEntity
  8
TRACE
100
AcDbLine
 10
-21002.38173688028
 20
7643.696095640414
 30
-1350.691645468897
 11
-21006.27432169726
 21
7621.457458356717
 31
-1279.767447626312
  0
LINE
  5
23D9
330
1F
100
AcDbEntity
  8
TRACE
100
AcDbLine
 10
-21006.27432169726
 20
7621.457458356717
 30
-1279.767447626312
 11
-21007.94257723592
 21
7611.926585796396
 31
-1154.038178957939
  0
LINE
  5
23DA
330
1F
100
AcDbEntity
  8
TRACE
100
AcDbLine
 10
-21007.94257723592
 20
7611.926585796396
 30
-1154.038178957939
 11
-21011.27907973332
 21
7592.86488969354
 31
-1066.994854098552
  0
LINE
  5
23DB
330
1F
100
AcDbEntity
  8
TRACE
100
AcDbLine
 10
-21011.27907973332
 20
7592.86488969354
 30
-1066.994854098552
 11
-21009.61082419465
 21
7602.395762253862
 31
-1041.204224892563
  0
LINE
  5
23DC
330
1F
100
AcDbEntity
  8
TRACE
100
AcDbLine
 10
-21356.26035185747
 20
5621.960274596055
 30
6214.40416827659
 11
-21358.25966393352
 21
5610.538050504182
 31
6173.836460280178
  0
LINE
  5
23DD
330
1F
100
AcDbEntity
  8
TRACE
100
AcDbLine
 10
-21358.25966393352
 20
5610.538050504182
 30
6173.836460280178
 11
-21360.25897600956
 21
5599.115826412308
 31
6127.473365427126
  0
LINE
  5
23DE
330
1F
100
AcDbEntity
  8
TRACE
100
AcDbLine
 10
-21360.25897600956
 20
5599.115826412308
 30
6127.473365427126
 11
-21357.26000789549
 21
5616.249162550118
 31
6017.360982677266
  0
LINE
  5
23DF
330
1F
100
AcDbEntity
  8
TRACE
100
AcDbLine
 10
-21357.26000789549
 20
5616.249162550118
 30
6017.360982677266
 11
-21350.76223935838
 21
5653.371415357598
 31
5962.304791302333
  0
LINE
  5
23EC
330
1F
100
AcDbEntity
  8
TRACE
100
AcDbLine
 10
-21383.41212638692
 20
5466.84009256797
 30
4993.086588830933
 11
-21397.7461074652
 21
5384.94895312742
 31
4901.748801695648
  0
LINE
  5
23ED
330
1F
100
AcDbEntity
  8
TRACE
100
AcDbLine
 10
-21397.7461074652
 20
5384.94895312742
 30
4901.748801695648
 11
-21396.72157821473
 21
5390.802167754415
 31
4824.678239252331
  0
LINE
  5
23EE
330
1F
100
AcDbEntity
  8
TRACE
100
AcDbLine
 10
-21396.72157821473
 20
5390.802167754415
 30
4824.678239252331
 11
-21393.22277779168
 21
5410.791084424085
 31
4731.952049546242
  0
LINE
  5
23EF
330
1F
100
AcDbEntity
  8
TRACE
100
AcDbLine
 10
-21393.22277779168
 20
5410.791084424085
 30
4731.952049546242
 11
-21392.72295406264
 21
5413.646615938152
 31
4656.611987936158
  0
LINE
  5
23F0
330
1F
100
AcDbEntity
  8
TRACE
100
AcDbLine
 10
-21392.72295406264
 20
5413.646615938152
 30
4656.611987936158
 11
-21394.72226613869
 21
5402.224391846286
 31
4532.011154281667
  0
LINE
  5
23F1
330
1F
100
AcDbEntity
  8
TRACE
100
AcDbLine
 10
-21394.72226613869
 20
5402.224391846286
 30
4532.011154281667
 11
-21399.22072259976
 21
5376.524363130672
 31
4471.159576050101
  0
LINE
  5
23F2
330
1F
100
AcDbEntity
  8
TRACE
100
AcDbLine
 10
-21399.22072259976
 20
5376.524363130672
 30
4471.159576050101
 11
-21404.71883509885
 21
5345.113222369127
 31
4433.489577718945
  0
LINE
  5
23F3
330
1F
100
AcDbEntity
  8
TRACE
100
AcDbLine
 10
-21404.71883509885
 20
5345.113222369127
 30
4433.489577718945
 11
-21405.71849113687
 21
5339.402110323191
 31
4381.331063535384
  0
LINE
  5
23F4
330
1F
100
AcDbEntity
  8
TRACE
100
AcDbLine
 10
-21405.71849113687
 20
5339.402110323191
 30
4381.331063535384
 11
-21403.21934675185
 21
5353.679914946926
 31
4161.106330509545
  0
LINE
  5
23F5
330
1F
100
AcDbEntity
  8
TRACE
100
AcDbLine
 10
-21403.21934675185
 20
5353.679914946926
 30
4161.106330509545
 11
-21400.22037863778
 21
5370.813251084736
 31
4050.993980233565
  0
LINE
  5
23F6
330
1F
100
AcDbEntity
  8
TRACE
100
AcDbLine
 10
-21400.22037863778
 20
5370.813251084736
 30
4050.993980233565
 11
-21401.2200346758
 21
5365.102139038799
 31
3880.030019252146
  0
LINE
  5
23F7
330
1F
100
AcDbEntity
  8
TRACE
100
AcDbLine
 10
-21401.2200346758
 20
5365.102139038799
 30
3880.030019252146
 11
-21398.72089029078
 21
5379.379943662541
 31
3767.019959310907
  0
LINE
  5
23F8
330
1F
100
AcDbEntity
  8
TRACE
100
AcDbLine
 10
-21398.72089029078
 20
5379.379943662541
 30
3767.019959310907
 11
-21397.72123425276
 21
5385.091055708477
 31
3500.432098958139
  0
LINE
  5
23F9
330
1F
100
AcDbEntity
  8
TRACE
100
AcDbLine
 10
-21397.72123425276
 20
5385.091055708477
 30
3500.432098958139
 11
-21396.71163407772
 21
5390.858979376154
 31
2545.492872473393
  0
LINE
  5
23FA
330
1F
100
AcDbEntity
  8
TRACE
100
AcDbLine
 10
-21396.71163407772
 20
5390.858979376154
 30
2545.492872473393
 11
-21399.70976993873
 21
5373.730397964241
 31
2385.136603298555
  0
LINE
  5
23FB
330
1F
100
AcDbEntity
  8
TRACE
100
AcDbLine
 10
-21399.70976993873
 20
5373.730397964241
 30
2385.136603298555
 11
-21397.71045786268
 21
5385.152622056114
 31
2286.615026735834
  0
LINE
  5
23FC
330
1F
100
AcDbEntity
  8
TRACE
100
AcDbLine
 10
-21397.71045786268
 20
5385.152622056114
 30
2286.615026735834
 11
-21393.71183371059
 21
5407.997070239859
 31
2193.888804555865
  0
LINE
  5
23FD
330
1F
100
AcDbEntity
  8
TRACE
100
AcDbLine
 10
-21393.71183371059
 20
5407.997070239859
 30
2193.888804555865
 11
-21390.71286559652
 21
5425.130406377668
 31
2115.651065754408
  0
LINE
  5
23FE
330
1F
100
AcDbEntity
  8
TRACE
100
AcDbLine
 10
-21390.71286559652
 20
5425.130406377668
 30
2115.651065754408
 11
-21395.71114578664
 21
5396.574846147986
 31
2086.674131471258
  0
LINE
  5
23FF
330
1F
100
AcDbEntity
  8
TRACE
100
AcDbLine
 10
-21395.71114578664
 20
5396.574846147986
 30
2086.674131471258
 11
-21400.20960224771
 21
5370.874817432378
 31
2011.334069861181
  0
LINE
  5
2400
330
1F
100
AcDbEntity
  8
TRACE
100
AcDbLine
 10
-21400.20960224771
 20
5370.874817432378
 30
2011.334069861181
 11
-21398.7101139007
 21
5379.441510010178
 31
1904.119396776574
  0
LINE
  5
2401
330
1F
100
AcDbEntity
  8
TRACE
100
AcDbLine
 10
-21398.7101139007
 20
5379.441510010178
 30
1904.119396776574
 11
-21397.71045786268
 21
5385.152622056113
 31
1785.313949978708
  0
LINE
  5
2402
330
1F
100
AcDbEntity
  8
TRACE
100
AcDbLine
 10
-21397.71045786268
 20
5385.152622056113
 30
1785.313949978708
 11
-21394.21165743964
 21
5405.141538725783
 31
1675.201599702728
  0
LINE
  5
2403
330
1F
100
AcDbEntity
  8
TRACE
100
AcDbLine
 10
-21394.21165743964
 20
5405.141538725783
 30
1675.201599702728
 11
-21399.70976993873
 21
5373.730397964241
 31
1675.201599702728
  0
LINE
  5
2404
330
1F
100
AcDbEntity
  8
TRACE
100
AcDbLine
 10
-21399.70976993873
 20
5373.730397964241
 30
1675.201599702728
 11
-21398.19204924388
 21
5382.401253351538
 31
876.5021553668985
  0
LINE
  5
2405
330
1F
100
AcDbEntity
  8
TRACE
100
AcDbLine
 10
-21398.19204924388
 20
5382.401253351538
 30
876.5021553668985
 11
-21399.05690850712
 21
5377.460245676459
 31
813.715495890281
  0
LINE
  5
2406
330
1F
100
AcDbEntity
  8
TRACE
100
AcDbLine
 10
-21399.05690850712
 20
5377.460245676459
 30
813.715495890281
 11
-21398.54703286342
 21
5380.373204554217
 31
775.2881742533698
  0
LINE
  5
2407
330
1F
100
AcDbEntity
  8
TRACE
100
AcDbLine
 10
-21398.54703286342
 20
5380.373204554217
 30
775.2881742533698
 11
-21397.52728157602
 21
5386.199122309728
 31
668.8740440436422
  0
LINE
  5
2408
330
1F
100
AcDbEntity
  8
TRACE
100
AcDbLine
 10
-21397.52728157602
 20
5386.199122309728
 30
668.8740440436422
 11
-21397.52728157602
 21
5386.199122309728
 31
603.8431898543031
  0
LINE
  5
2409
330
1F
100
AcDbEntity
  8
TRACE
100
AcDbLine
 10
-21397.52728157602
 20
5386.199122309728
 30
603.8431898543031
 11
-21397.01740593232
 21
5389.112081187487
 31
535.85638128148
  0
LINE
  5
240A
330
1F
100
AcDbEntity
  8
TRACE
100
AcDbLine
 10
-21397.01740593232
 20
5389.112081187487
 30
535.85638128148
 11
-21399.1917052819
 21
5376.690141305601
 31
436.0526568413311
  0
LINE
  5
240B
330
1F
100
AcDbEntity
  8
TRACE
100
AcDbLine
 10
-21399.1917052819
 20
5376.690141305601
 30
436.0526568413311
 11
-21398.18582879579
 21
5382.436791251251
 31
-663.5135932592354
  0
LINE
  5
240C
330
1F
100
AcDbEntity
  8
TRACE
100
AcDbLine
 10
-21398.18582879579
 20
5382.436791251251
 30
-663.5135932592354
 11
-21398.68400517858
 21
5379.590671153379
 31
-1047.713907313532
  0
LINE
  5
240D
330
1F
100
AcDbEntity
  8
TRACE
100
AcDbLine
 10
-21398.68400517858
 20
5379.590671153379
 30
-1047.713907313532
 11
-21394.68538102649
 21
5402.435119337123
 31
-1102.770066214579
  0
LINE
  5
240E
330
1F
100
AcDbEntity
  8
TRACE
100
AcDbLine
 10
-21394.68538102649
 20
5402.435119337123
 30
-1102.770066214579
 11
-21393.68572498846
 21
5408.14623138306
 31
-1221.575545486331
  0
LINE
  5
240F
330
1F
100
AcDbEntity
  8
TRACE
100
AcDbLine
 10
-21393.68572498846
 20
5408.14623138306
 30
-1221.575545486331
 11
-21404.18211767768
 21
5348.179530391833
 31
-1276.631704387378
  0
LINE
  5
2410
330
1F
100
AcDbEntity
  8
TRACE
100
AcDbLine
 10
-21404.18211767768
 20
5348.179530391833
 30
-1276.631704387378
 11
-21411.17971852377
 21
5308.201697052484
 31
-1291.120187765896
  0
LINE
  5
2411
330
1F
100
AcDbEntity
  8
TRACE
100
AcDbLine
 10
-21411.17971852377
 20
5308.201697052484
 30
-1291.120187765896
 11
-21419.17696682796
 21
5262.51280068499
 31
-1412.823344229021
  0
LINE
  5
2412
330
1F
100
AcDbEntity
  8
TRACE
100
AcDbLine
 10
-21419.17696682796
 20
5262.51280068499
 30
-1412.823344229021
 11
-21420.17662286598
 21
5256.801688639053
 31
-1520.038017313624
  0
LINE
  5
2413
330
1F
100
AcDbEntity
  8
TRACE
100
AcDbLine
 10
-21420.17662286598
 20
5256.801688639053
 30
-1520.038017313624
 11
-21424.67507932705
 21
5231.101659923448
 31
-1798.216618905773
  0
LINE
  5
2414
330
1F
100
AcDbEntity
  8
TRACE
100
AcDbLine
 10
-21424.67507932705
 20
5231.101659923448
 30
-1798.216618905773
 11
-21424.67507932705
 21
5231.101659923447
 31
-1835.886649710815
  0
LINE
  5
2415
330
1F
100
AcDbEntity
  8
TRACE
100
AcDbLine
 10
-21081.55710809579
 20
7191.361093308614
 30
4304.275357635817
 11
-21270.90203663035
 21
6109.61891293953
 31
4311.89836171758
  0
LINE
  5
2416
330
1F
100
AcDbEntity
  8
TRACE
100
AcDbLine
 10
-21270.90203663035
 20
6109.61891293953
 30
4311.89836171758
 11
-21272.21693269068
 21
6102.106810332575
 31
2108.866738698655
  0
LINE
  5
2417
330
1F
100
AcDbEntity
  8
TRACE
100
AcDbLine
 10
-21272.21693269068
 20
6102.106810332575
 30
2108.866738698655
 11
-21231.4551895381
 21
6334.98179280389
 31
2063.129108413084
  0
LINE
  5
2418
330
1F
100
AcDbEntity
  8
TRACE
100
AcDbLine
 10
-21231.4551895381
 20
6334.98179280389
 30
2063.129108413084
 11
-21221.03934076491
 21
6394.488340190773
 31
2054.681690361893
  0
LINE
  5
2419
330
1F
100
AcDbEntity
  8
TRACE
100
AcDbLine
 10
-21221.03934076491
 20
6394.488340190773
 30
2054.681690361893
 11
-21189.58240103011
 21
6574.204263082535
 31
2052.977306356063
  0
LINE
  5
241A
330
1F
100
AcDbEntity
  8
TRACE
100
AcDbLine
 10
-21172.4720296437
 20
6671.957134488737
 30
2052.050240863657
 11
-21165.20961922019
 21
6713.44784536793
 31
2080.996053942614
  0
LINE
  5
241B
330
1F
100
AcDbEntity
  8
TRACE
100
AcDbLine
 10
-21165.20961922019
 20
6713.44784536793
 30
2080.996053942614
 11
-21097.33582610211
 21
7101.216060369615
 31
2070.752112494846
  0
LINE
  5
241C
330
1F
100
AcDbEntity
  8
TRACE
100
AcDbLine
 10
-21097.33582610211
 20
7101.216060369615
 30
2070.752112494846
 11
-21084.18690021645
 21
7176.336888094677
 31
2116.489742780415
  0
LINE
  5
241D
330
1F
100
AcDbEntity
  8
TRACE
100
AcDbLine
 10
-21084.18690021645
 20
7176.336888094677
 30
2116.489742780415
 11
-21080.24221203546
 21
7198.873195915567
 31
4304.275357635818
  0
POLYLINE
  5
241E
330
1F
100
AcDbEntity
  8
TRACE
100
AcDb3dPolyline
 66
     1
 10
0.0
 20
0.0
 30
0.0
 70
     8
  0
VERTEX
  5
241F
330
241E
100
AcDbEntity
  8
TRACE
100
AcDbVertex
100
AcDb3dPolylineVertex
 10
-21277.3841366603
 20
6072.586175521993
 30
1272.418018944025
 70
    32
  0
VERTEX
  5
2420
330
241E
100
AcDbEntity
  8
TRACE
100
AcDbVertex
100
AcDb3dPolylineVertex
 10
-21276.81280740866
 20
6075.850223601667
 30
1318.789003027587
 70
    32
  0
VERTEX
  5
2421
330
241E
100
AcDbEntity
  8
TRACE
100
AcDbVertex
100
AcDb3dPolylineVertex
 10
-21276.81280740866
 20
6075.850223601667
 30
1320.997153239815
 70
    32
  0
SEQEND
  5
2422
330
241E
100
AcDbEntity
  8
TRACE
  0
POLYLINE
  5
2424
330
1F
100
AcDbEntity
  8
TRACE
100
AcDb3dPolyline
 66
     1
 10
0.0
 20
0.0
 30
0.0
 70
     8
  0
VERTEX
  5
2425
330
2424
100
AcDbEntity
  8
TRACE
100
AcDbVertex
100
AcDb3dPolylineVertex
 10
-21309.06402218657
 20
5891.596546128404
 30
1311.66919232131
 70
    32
  0
VERTEX
  5
2426
330
2424
100
AcDbEntity
  8
TRACE
100
AcDbVertex
100
AcDb3dPolylineVertex
 10
-21309.81924243773
 20
5887.281914585427
 30
1439.733499552744
 70
    32
  0
SEQEND
  5
2427
330
2424
100
AcDbEntity
  8
TRACE
  0
POLYLINE
  5
2428
330
1F
100
AcDbEntity
  8
TRACE
100
AcDb3dPolyline
 66
     1
 10
0.0
 20
0.0
 30
0.0
 70
     8
  0
VERTEX
  5
2429
330
2428
100
AcDbEntity
  8
TRACE
100
AcDbVertex
100
AcDb3dPolylineVertex
 10
-21274.95407610782
 20
6086.469298882167
 30
772.1318639203659
 70
    32
  0
VERTEX
  5
242A
330
2428
100
AcDbEntity
  8
TRACE
100
AcDbVertex
100
AcDb3dPolylineVertex
 10
-21274.95407610782
 20
6086.469298882167
 30
580.3762062578112
 70
    32
  0
VERTEX
  5
242B
330
2428
100
AcDbEntity
  8
TRACE
100
AcDbVertex
100
AcDb3dPolylineVertex
 10
-21323.755128231
 20
5807.665124212157
 30
580.3762062578102
 70
    32
  0
VERTEX
  5
242C
330
2428
100
AcDbEntity
  8
TRACE
100
AcDbVertex
100
AcDb3dPolylineVertex
 10
-21324.83959822331
 20
5801.469463503885
 30
768.988308066825
 70
    32
  0
SEQEND
  5
242D
330
2428
100
AcDbEntity
  8
TRACE
  0
POLYLINE
  5
242E
330
1F
100
AcDbEntity
  8
TRACE
100
AcDb3dPolyline
 66
     1
 10
0.0
 20
0.0
 30
0.0
 70
     8
  0
VERTEX
  5
242F
330
242E
100
AcDbEntity
  8
TRACE
100
AcDbVertex
100
AcDb3dPolylineVertex
 10
-21275.39875006779
 20
6083.928842252346
 30
586.6193616801258
 70
    32
  0
VERTEX
  5
2430
330
242E
100
AcDbEntity
  8
TRACE
100
AcDbVertex
100
AcDb3dPolylineVertex
 10
-21161.52962594625
 20
6734.471930769602
 30
577.1887509105701
 70
    32
  0
VERTEX
  5
2431
330
242E
100
AcDbEntity
  8
TRACE
100
AcDbVertex
100
AcDb3dPolylineVertex
 10
-21155.02282099713
 20
6771.645809295809
 30
759.5137694080344
 70
    32
  0
VERTEX
  5
2432
330
242E
100
AcDbEntity
  8
TRACE
100
AcDbVertex
100
AcDb3dPolylineVertex
 10
-21198.40153066112
 20
6523.819895305452
 30
756.3702419500237
 70
    32
  0
SEQEND
  5
2433
330
242E
100
AcDbEntity
  8
TRACE
  0
POLYLINE
  5
2434
330
1F
100
AcDbEntity
  8
TRACE
100
AcDb3dPolyline
 66
     1
 10
0.0
 20
0.0
 30
0.0
 70
     8
  0
VERTEX
  5
2435
330
2434
100
AcDbEntity
  8
TRACE
100
AcDbVertex
100
AcDb3dPolylineVertex
 10
-21323.71556064373
 20
5807.891176889953
 30
576.67348557248
 70
    32
  0
VERTEX
  5
2436
330
2434
100
AcDbEntity
  8
TRACE
100
AcDbVertex
100
AcDb3dPolylineVertex
 10
-21317.75099069077
 20
5841.967225062028
 30
507.5157111231069
 70
    32
  0
VERTEX
  5
2437
330
2434
100
AcDbEntity
  8
TRACE
100
AcDbVertex
100
AcDb3dPolylineVertex
 10
-21304.19514579636
 20
5919.412812468589
 30
422.6402709881563
 70
    32
  0
VERTEX
  5
2438
330
2434
100
AcDbEntity
  8
TRACE
100
AcDbVertex
100
AcDb3dPolylineVertex
 10
-21280.8790859759
 20
6052.619260526177
 30
356.6260523923198
 70
    32
  0
VERTEX
  5
2439
330
2434
100
AcDbEntity
  8
TRACE
100
AcDbVertex
100
AcDb3dPolylineVertex
 10
-21212.55761150298
 20
6442.945113636525
 30
366.0566347663455
 70
    32
  0
VERTEX
  5
243A
330
2434
100
AcDbEntity
  8
TRACE
100
AcDbVertex
100
AcDb3dPolylineVertex
 10
-21206.05080655386
 20
6480.118992162733
 30
579.8170414260217
 70
    32
  0
SEQEND
  5
243B
330
2434
100
AcDbEntity
  8
TRACE
  0
POLYLINE
  5
2458
330
1F
100
AcDbEntity
  8
TRACE
100
AcDb3dPolyline
 66
     1
 10
0.0
 20
0.0
 30
0.0
 70
     8
  0
VERTEX
  5
2459
330
2458
100
AcDbEntity
  8
TRACE
100
AcDbVertex
100
AcDb3dPolylineVertex
 10
-20481.3889980948
 20
10620.1677950522
 30
-1877.457554775108
 70
    32
  0
VERTEX
  5
245A
330
2458
100
AcDbEntity
  8
TRACE
100
AcDbVertex
100
AcDb3dPolylineVertex
 10
-20530.73914345819
 20
10338.22660835072
 30
-1815.595803309074
 70
    32
  0
SEQEND
  5
245B
330
2458
100
AcDbEntity
  8
TRACE
  0
POLYLINE
  5
245C
330
1F
100
AcDbEntity
  8
TRACE
100
AcDb3dPolyline
 66
     1
 10
0.0
 20
0.0
 30
0.0
 70
     8
  0
VERTEX
  5
245D
330
245C
100
AcDbEntity
  8
TRACE
100
AcDbVertex
100
AcDb3dPolylineVertex
 10
-20528.42162906719
 20
10351.46674680997
 30
-1806.236477524717
 70
    32
  0
VERTEX
  5
245E
330
245C
100
AcDbEntity
  8
TRACE
100
AcDbVertex
100
AcDb3dPolylineVertex
 10
-20529.89235646502
 20
10343.06436775307
 30
-2121.712468242467
 70
    32
  0
VERTEX
  5
245F
330
245C
100
AcDbEntity
  8
TRACE
100
AcDbVertex
100
AcDb3dPolylineVertex
 10
-20529.89235646502
 20
10343.06436775307
 30
-2305.029575781327
 70
    32
  0
VERTEX
  5
2460
330
245C
100
AcDbEntity
  8
TRACE
100
AcDbVertex
100
AcDb3dPolylineVertex
 10
-20532.09844756175
 20
10330.46079916774
 30
-2360.451023841006
 70
    32
  0
VERTEX
  5
2461
330
245C
100
AcDbEntity
  8
TRACE
100
AcDbVertex
100
AcDb3dPolylineVertex
 10
-20528.42162906719
 20
10351.46674680997
 30
-2577.873658099516
 70
    32
  0
VERTEX
  5
2462
330
245C
100
AcDbEntity
  8
TRACE
100
AcDbVertex
100
AcDb3dPolylineVertex
 10
-20531.36308386284
 20
10334.66198869618
 30
-2663.137442038888
 70
    32
  0
VERTEX
  5
2463
330
245C
100
AcDbEntity
  8
TRACE
100
AcDbVertex
100
AcDb3dPolylineVertex
 10
-20529.87101641033
 20
10343.1862851314
 30
-3061.36367599567
 70
    32
  0
VERTEX
  5
2464
330
245C
100
AcDbEntity
  8
TRACE
100
AcDbVertex
100
AcDb3dPolylineVertex
 10
-20585.75875302819
 20
10023.89533536689
 30
-3010.205418775948
 70
    32
  0
VERTEX
  5
2465
330
245C
100
AcDbEntity
  8
TRACE
100
AcDbVertex
100
AcDb3dPolylineVertex
 10
-20592.25158387706
 20
9986.801291953238
 30
-3008.054480764434
 70
    32
  0
SEQEND
  5
2466
330
245C
100
AcDbEntity
  8
TRACE
  0
POLYLINE
  5
2833
330
1F
100
AcDbEntity
  8
TRACE
100
AcDb3dPolyline
 66
     1
 10
0.0
 20
0.0
 30
0.0
 70
     8
  0
VERTEX
  5
2834
330
2833
100
AcDbEntity
  8
TRACE
100
AcDbVertex
100
AcDb3dPolylineVertex
 10
-20479.14090053448
 20
10633.01134980379
 30
-1911.000198158869
 70
    32
  0
VERTEX
  5
2835
330
2833
100
AcDbEntity
  8
TRACE
100
AcDbVertex
100
AcDb3dPolylineVertex
 10
-20480.85980519637
 20
10623.19111489605
 30
-3060.062696564401
 70
    32
  0
SEQEND
  5
2836
330
2833
100
AcDbEntity
  8
TRACE
  0
POLYLINE
  5
2837
330
1F
100
AcDbEntity
  8
TRACE
100
AcDb3dPolyline
 66
     1
 10
0.0
 20
0.0
 30
0.0
 70
     8
  0
VERTEX
  5
2838
330
2837
100
AcDbEntity
  8
TRACE
100
AcDbVertex
100
AcDb3dPolylineVertex
 10
-21302.69877941863
 20
5927.961668995215
 30
2106.158084436743
 70
    32
  0
VERTEX
  5
2839
330
2837
100
AcDbEntity
  8
TRACE
100
AcDbVertex
100
AcDb3dPolylineVertex
 10
-21391.41826762989
 20
5421.100390155336
 30
2115.682925813135
 70
    32
  0
SEQEND
  5
283A
330
2837
100
AcDbEntity
  8
TRACE
  0
POLYLINE
  5
283B
330
1F
100
AcDbEntity
  8
TRACE
100
AcDb3dPolyline
 66
     1
 10
0.0
 20
0.0
 30
0.0
 70
     8
  0
VERTEX
  5
283C
330
283B
100
AcDbEntity
  8
TRACE
100
AcDbVertex
100
AcDb3dPolylineVertex
 10
-21304.34173729543
 20
5918.575323928235
 30
2110.920520083747
 70
    32
  0
VERTEX
  5
283D
330
283B
100
AcDbEntity
  8
TRACE
100
AcDbVertex
100
AcDb3dPolylineVertex
 10
-21305.1632083293
 20
5913.882196553976
 30
1791.838947285754
 70
    32
  0
VERTEX
  5
283E
330
283B
100
AcDbEntity
  8
TRACE
100
AcDbVertex
100
AcDb3dPolylineVertex
 10
-21305.1632083293
 20
5913.882196553977
 30
1772.789324368203
 70
    32
  0
VERTEX
  5
283F
330
283B
100
AcDbEntity
  8
TRACE
100
AcDbVertex
100
AcDb3dPolylineVertex
 10
-21397.16860438962
 20
5388.248272739374
 30
1768.026888721198
 70
    32
  0
SEQEND
  5
2840
330
283B
100
AcDbEntity
  8
TRACE
  0
POLYLINE
  5
2841
330
1F
100
AcDbEntity
  8
TRACE
100
AcDb3dPolyline
 66
     1
 10
0.0
 20
0.0
 30
0.0
 70
     8
  0
VERTEX
  5
2842
330
2841
100
AcDbEntity
  8
TRACE
100
AcDbVertex
100
AcDb3dPolylineVertex
 10
-21348.3226564973
 20
5667.308940401179
 30
5925.459895807843
 70
    32
  0
VERTEX
  5
2843
330
2841
100
AcDbEntity
  8
TRACE
100
AcDbVertex
100
AcDb3dPolylineVertex
 10
-21349.78471906013
 20
5658.956064214922
 30
5823.746464807988
 70
    32
  0
VERTEX
  5
2844
330
2841
100
AcDbEntity
  8
TRACE
100
AcDbVertex
100
AcDb3dPolylineVertex
 10
-21368.79150866322
 20
5550.368809271289
 30
5798.318107058022
 70
    32
  0
VERTEX
  5
2845
330
2841
100
AcDbEntity
  8
TRACE
100
AcDbVertex
100
AcDb3dPolylineVertex
 10
-21387.79830617085
 20
5441.781509168428
 30
5671.176288390586
 70
    32
  0
VERTEX
  5
2846
330
2841
100
AcDbEntity
  8
TRACE
100
AcDbVertex
100
AcDb3dPolylineVertex
 10
-21383.41212638692
 20
5466.840092567969
 30
4993.086588830931
 70
    32
  0
SEQEND
  5
2847
330
2841
100
AcDbEntity
  8
TRACE
  0
POLYLINE
  5
2848
330
1F
100
AcDbEntity
  8
TRACE
100
AcDb3dPolyline
 66
     1
 10
0.0
 20
0.0
 30
0.0
 70
     8
  0
VERTEX
  5
2849
330
2848
100
AcDbEntity
  8
TRACE
100
AcDbVertex
100
AcDb3dPolylineVertex
 10
-21348.38334752727
 20
5666.962207866063
 30
5924.993629767961
 70
    32
  0
VERTEX
  5
284A
330
2848
100
AcDbEntity
  8
TRACE
100
AcDbVertex
100
AcDb3dPolylineVertex
 10
-21347.8866264641
 20
5669.800013610626
 30
5959.549642628972
 70
    32
  0
SEQEND
  5
284B
330
2848
100
AcDbEntity
  8
TRACE
  0
POLYLINE
  5
2854
330
1F
100
AcDbEntity
  8
TRACE
100
AcDb3dPolyline
 66
     1
 10
0.0
 20
0.0
 30
0.0
 70
     8
  0
VERTEX
  5
2855
330
2854
100
AcDbEntity
  8
TRACE
100
AcDbVertex
100
AcDb3dPolylineVertex
 10
-19708.62859436459
 20
15035.00758243738
 30
-1977.489256764133
 70
    32
  0
VERTEX
  5
2856
330
2854
100
AcDbEntity
  8
TRACE
100
AcDbVertex
100
AcDb3dPolylineVertex
 10
-19706.11148171926
 20
15049.38804111807
 30
-2203.675226845657
 70
    32
  0
VERTEX
  5
2857
330
2854
100
AcDbEntity
  8
TRACE
100
AcDbVertex
100
AcDb3dPolylineVertex
 10
-19791.69324051954
 20
14560.45285240747
 30
-2203.675226845657
 70
    32
  0
VERTEX
  5
2858
330
2854
100
AcDbEntity
  8
TRACE
100
AcDbVertex
100
AcDb3dPolylineVertex
 10
-19790.43468814915
 20
14567.64305916821
 30
-1941.007656407144
 70
    32
  0
SEQEND
  5
2859
330
2854
100
AcDbEntity
  8
TRACE
  0
POLYLINE
  5
2861
330
1F
100
AcDbEntity
  8
TRACE
100
AcDb3dPolyline
 66
     1
 10
0.0
 20
0.0
 30
0.0
 70
     8
  0
VERTEX
  5
2862
330
2861
100
AcDbEntity
  8
TRACE
100
AcDbVertex
100
AcDb3dPolylineVertex
 10
-19724.98981470241
 20
14941.53466875169
 30
-2210.971534950008
 70
    32
  0
VERTEX
  5
2863
330
2861
100
AcDbEntity
  8
TRACE
100
AcDbVertex
100
AcDb3dPolylineVertex
 10
-19726.2483670728
 20
14934.34446199096
 30
-2335.008982147296
 70
    32
  0
VERTEX
  5
2864
330
2861
100
AcDbEntity
  8
TRACE
100
AcDbVertex
100
AcDb3dPolylineVertex
 10
-19738.8339223949
 20
14862.44221374671
 30
-2371.490582504286
 70
    32
  0
VERTEX
  5
2865
330
2861
100
AcDbEntity
  8
TRACE
100
AcDbVertex
100
AcDb3dPolylineVertex
 10
-19769.03925042521
 20
14689.87684505605
 30
-2371.490582504286
 70
    32
  0
VERTEX
  5
2866
330
2861
100
AcDbEntity
  8
TRACE
100
AcDbVertex
100
AcDb3dPolylineVertex
 10
-19774.07346781133
 20
14661.11597285389
 30
-2349.601628273615
 70
    32
  0
VERTEX
  5
2867
330
2861
100
AcDbEntity
  8
TRACE
100
AcDbVertex
100
AcDb3dPolylineVertex
 10
-19775.33202808626
 20
14653.92572093392
 30
-2203.675226845657
 70
    32
  0
SEQEND
  5
2868
330
2861
100
AcDbEntity
  8
TRACE
  0
POLYLINE
  5
286A
330
1F
100
AcDbEntity
  8
TRACE
100
AcDb3dPolyline
 66
     1
 10
0.0
 20
0.0
 30
0.0
 70
     8
  0
VERTEX
  5
286B
330
286A
100
AcDbEntity
  8
TRACE
100
AcDbVertex
100
AcDb3dPolylineVertex
 10
-19762.74647276417
 20
14725.82796917817
 30
-2386.083228630604
 70
    32
  0
VERTEX
  5
286C
330
286A
100
AcDbEntity
  8
TRACE
100
AcDbVertex
100
AcDb3dPolylineVertex
 10
-19794.21035316487
 20
14546.07239372677
 30
-2386.083228630605
 70
    32
  0
VERTEX
  5
286D
330
286A
100
AcDbEntity
  8
TRACE
100
AcDbVertex
100
AcDb3dPolylineVertex
 10
-19800.50313082592
 20
14510.12126960465
 30
-2568.49126033317
 70
    32
  0
VERTEX
  5
286E
330
286A
100
AcDbEntity
  8
TRACE
100
AcDbVertex
100
AcDb3dPolylineVertex
 10
-19755.19514273272
 20
14768.96930006104
 30
-2568.49126033317
 70
    32
  0
VERTEX
  5
286F
330
286A
100
AcDbEntity
  8
TRACE
100
AcDbVertex
100
AcDb3dPolylineVertex
 10
-19756.45369510312
 20
14761.77909330029
 30
-2378.786920526252
 70
    32
  0
VERTEX
  5
2870
330
286A
100
AcDbEntity
  8
TRACE
100
AcDbVertex
100
AcDb3dPolylineVertex
 10
-19764.00502513456
 20
14718.63776241744
 30
-2378.786920526252
 70
    32
  0
SEQEND
  5
2871
330
286A
100
AcDbEntity
  8
TRACE
  0
POLYLINE
  5
2877
330
1F
100
AcDbEntity
  8
TRACE
100
AcDb3dPolyline
 66
     1
 10
0.0
 20
0.0
 30
0.0
 70
     8
  0
VERTEX
  5
2878
330
2877
100
AcDbEntity
  8
TRACE
100
AcDbVertex
100
AcDb3dPolylineVertex
 10
-19752.67803008739
 20
14783.34975874173
 30
-2386.083228630604
 70
    32
  0
VERTEX
  5
2879
330
2877
100
AcDbEntity
  8
TRACE
100
AcDbVertex
100
AcDb3dPolylineVertex
 10
-19751.419477717
 20
14790.53996550246
 30
-2568.49126033317
 70
    32
  0
VERTEX
  5
287A
330
2877
100
AcDbEntity
  8
TRACE
100
AcDbVertex
100
AcDb3dPolylineVertex
 10
-19722.47270205708
 20
14955.9151274324
 30
-2590.380214563838
 70
    32
  0
VERTEX
  5
287B
330
2877
100
AcDbEntity
  8
TRACE
100
AcDbVertex
100
AcDb3dPolylineVertex
 10
-19722.47270205708
 20
14955.9151274324
 30
-2371.490582504286
 70
    32
  0
VERTEX
  5
287C
330
2877
100
AcDbEntity
  8
TRACE
100
AcDbVertex
100
AcDb3dPolylineVertex
 10
-19753.93658245779
 20
14776.159551981
 30
-2386.083228630605
 70
    32
  0
SEQEND
  5
287D
330
2877
100
AcDbEntity
  8
TRACE
  0
POLYLINE
  5
287E
330
1F
100
AcDbEntity
  8
TRACE
100
AcDb3dPolyline
 66
     1
 10
0.0
 20
0.0
 30
0.0
 70
     8
  0
VERTEX
  5
287F
330
287E
100
AcDbEntity
  8
TRACE
100
AcDbVertex
100
AcDb3dPolylineVertex
 10
-19800.50313082592
 20
14510.12126960465
 30
-2605.705273838849
 70
    32
  0
VERTEX
  5
2880
330
287E
100
AcDbEntity
  8
TRACE
100
AcDbVertex
100
AcDb3dPolylineVertex
 10
-19751.419477717
 20
14790.53996550246
 30
-2598.408965734498
 70
    32
  0
VERTEX
  5
2881
330
287E
100
AcDbEntity
  8
TRACE
100
AcDbVertex
100
AcDb3dPolylineVertex
 10
-19718.69703704136
 20
14977.48579287382
 30
-2627.594257987136
 70
    32
  0
VERTEX
  5
2882
330
287E
100
AcDbEntity
  8
TRACE
100
AcDbVertex
100
AcDb3dPolylineVertex
 10
-19724.98981470241
 20
14941.53466875169
 30
-2729.742750953754
 70
    32
  0
VERTEX
  5
2883
330
287E
100
AcDbEntity
  8
TRACE
100
AcDbVertex
100
AcDb3dPolylineVertex
 10
-19727.50692734773
 20
14927.154210071
 30
-2751.631705184426
 70
    32
  0
VERTEX
  5
2884
330
287E
100
AcDbEntity
  8
TRACE
100
AcDbVertex
100
AcDb3dPolylineVertex
 10
-19766.52213777989
 20
14704.25730373675
 30
-2758.928013288775
 70
    32
  0
VERTEX
  5
2885
330
287E
100
AcDbEntity
  8
TRACE
100
AcDbVertex
100
AcDb3dPolylineVertex
 10
-19800.50313082592
 20
14510.12126960465
 30
-2758.928013288775
 70
    32
  0
VERTEX
  5
2886
330
287E
100
AcDbEntity
  8
TRACE
100
AcDbVertex
100
AcDb3dPolylineVertex
 10
-19801.76168319631
 20
14502.93106284392
 30
-2605.705273838851
 70
    32
  0
SEQEND
  5
2887
330
287E
100
AcDbEntity
  8
TRACE
  0
VIEWPORT
  5
28E3
102
{ACAD_XDICTIONARY
360
28E4
102
}
330
D2
100
AcDbEntity
 67
     1
  8
0
100
AcDbViewport
 10
128.5
 20
97.5
 30
0.0
 40
346.9697435897436
 41
222.18
 68
     1
 69
     1
 12
128.5
 22
97.5
 13
0.0
 23
0.0
 14
10.0
 24
10.0
 15
10.0
 25
10.0
 16
0.0
 26
0.0
 36
1.0
 17
0.0
 27
0.0
 37
0.0
 42
50.0
 43
0.0
 44
0.0
 45
222.18
 50
0.0
 51
0.0
 72
  1000
 90
   819232
  1

281
     0
 71
     1
 74
     0
110
0.0
120
0.0
130
0.0
111
1.0
121
0.0
131
0.0
112
0.0
122
1.0
132
0.0
 79
     0
146
0.0
170
     0
 61
     5
348
28A9
292
     1
282
     1
141
0.0
142
0.0
 63
   250
421
  3355443
  0
VIEWPORT
  5
28E7
102
{ACAD_XDICTIONARY
360
28E8
102
}
330
D2
100
AcDbEntity
 67
     1
  8
TRACE
100
AcDbViewport
 10
128.5
 20
97.5
 30
0.0
 40
205.6
 41
156.0
 68
     2
 69
     2
 12
-6873.671744201842
 22
1611.362740902029
 13
0.0
 23
0.0
 14
10.0
 24
10.0
 15
10.0
 25
10.0
 16
-0.9850242745307863
 26
0.1724157144378037
 36
0.0
 17
0.0
 27
0.0
 37
0.0
 42
50.0
 43
0.0
 44
0.0
 45
11221.90400113695
 50
0.0
 51
0.0
 72
  1000
 90
   819296
  1

281
     0
 71
     1
 74
     0
110
-21226.21815284714
120
6364.901387337479
130
0.0
111
-0.1724157144378037
121
-0.9850242745307863
131
0.0
112
0.0
122
0.0
132
1.0
 79
     0
146
0.0
170
     0
 61
     5
348
28A9
292
     1
282
     1
141
0.0
142
0.0
 63
   250
421
  3355443
  0
ENDSEC
  0
SECTION
  2
OBJECTS
  0
DICTIONARY
  5
C
330
0
100
AcDbDictionary
281
     1
  3
ACAD_CIP_PREVIOUS_PRODUCT_INFO
350
28D7
  3
ACAD_COLOR
350
6B
  3
ACAD_DETAILVIEWSTYLE
350
28D2
  3
ACAD_GROUP
350
D
  3
ACAD_LAYOUT
350
1A
  3
ACAD_MATERIAL
350
6A
  3
ACAD_MLEADERSTYLE
350
28CE
  3
ACAD_MLINESTYLE
350
17
  3
ACAD_PLOTSETTINGS
350
19
  3
ACAD_PLOTSTYLENAME
350
E
  3
ACAD_SCALELIST
350
28BC
  3
ACAD_SECTIONVIEWSTYLE
350
28D0
  3
ACAD_TABLESTYLE
350
7E
  3
ACAD_VISUALSTYLE
350
28A3
  3
ACDB_RECOMPOSE_DATA
350
2942
  3
AcDbVariableDictionary
350
5E
  3
AcDsDecomposeData
350
2948
  3
CyCurrentView
350
2475
  3
CyPointControl
350
E7
  3
CyPreferences
350
E6
  0
DICTIONARY
  5
27A
330
2
100
AcDbDictionary
280
     1
281
     1
  3
ACAD_LAYERFILTERS
360
244F
  3
ACAD_LAYERSTATES
360
28DB
  3
ACLYDICTIONARY
360
244E
  0
DICTIONARY
  5
28EA
330
10
100
AcDbDictionary
280
     1
281
     1
  3
ADSK_XREC_LAYER_RECONCILED
360
28EB
  0
DICTIONARY
  5
28EC
330
277
100
AcDbDictionary
280
     1
281
     1
  3
ADSK_XREC_LAYER_RECONCILED
360
28ED
  0
DICTIONARY
  5
28EE
330
279
100
AcDbDictionary
280
     1
281
     1
  3
ADSK_XREC_LAYER_RECONCILED
360
28EF
  0
DICTIONARY
  5
E9D
330
1F
100
AcDbDictionary
280
     1
281
     1
  3
ACAD_SORTENTS
360
E9E
  0
DICTIONARY
  5
28E4
330
28E3
100
AcDbDictionary
280
     1
281
     1
  3
ASDK_XREC_ANNOTATION_SCALE_INFO
360
28E5
  0
DICTIONARY
  5
28E8
330
28E7
100
AcDbDictionary
280
     1
281
     1
  3
ASDK_XREC_ANNOTATION_SCALE_INFO
360
28E9
  0
XRECORD
  5
28D7
102
{ACAD_REACTORS
330
C
102
}
330
C
100
AcDbXrecord
280
     1
300
ACD
300
2015
300
ACD_F_S
  0
DICTIONARY
  5
6B
102
{ACAD_REACTORS
330
C
102
}
330
C
100
AcDbDictionary
281
     1
  0
DICTIONARY
  5
28D2
102
{ACAD_REACTORS
330
C
102
}
330
C
100
AcDbDictionary
281
     1
  3
Metric50
350
28D3
  0
DICTIONARY
  5
D
102
{ACAD_REACTORS
330
C
102
}
330
C
100
AcDbDictionary
281
     1
  0
DICTIONARY
  5
1A
102
{ACAD_REACTORS
330
C
102
}
330
C
100
AcDbDictionary
281
     1
  3
Layout1
350
D3
  3
Layout2
350
D7
  3
Model
350
22
  0
DICTIONARY
  5
6A
102
{ACAD_REACTORS
330
C
102
}
330
C
100
AcDbDictionary
281
     1
  3
ByBlock
350
2893
  3
ByLayer
350
288B
  3
Global
350
289B
  0
DICTIONARY
  5
28CE
102
{ACAD_REACTORS
330
C
102
}
330
C
100
AcDbDictionary
281
     1
  3
Standard
350
28CF
  0
DICTIONARY
  5
17
102
{ACAD_REACTORS
330
C
102
}
330
C
100
AcDbDictionary
281
     1
  3
Standard
350
18
  0
DICTIONARY
  5
19
102
{ACAD_REACTORS
330
C
102
}
330
C
100
AcDbDictionary
281
     1
  0
ACDBDICTIONARYWDFLT
  5
E
102
{ACAD_REACTORS
330
C
102
}
330
C
100
AcDbDictionary
281
     1
  3
Normal
350
F
100
AcDbDictionaryWithDefault
340
F
  0
DICTIONARY
  5
28BC
102
{ACAD_REACTORS
330
C
102
}
330
C
100
AcDbDictionary
281
     1
  3
A0
350
28BD
  3
A1
350
28BE
  3
A2
350
28BF
  3
A3
350
28C0
  3
A4
350
28C1
  3
A5
350
28C2
  3
A6
350
28C3
  3
A7
350
28C4
  3
A8
350
28C5
  3
A9
350
28C6
  3
B0
350
28C7
  3
B1
350
28C8
  3
B2
350
28C9
  3
B3
350
28CA
  3
B4
350
28CB
  3
B5
350
28CC
  3
B6
350
28CD
  0
DICTIONARY
  5
28D0
102
{ACAD_REACTORS
330
C
102
}
330
C
100
AcDbDictionary
281
     1
  3
Metric50
350
28D1
  0
DICTIONARY
  5
7E
102
{ACAD_REACTORS
330
C
102
}
330
C
100
AcDbDictionary
281
     1
  3
Standard
350
7F
  0
DICTIONARY
  5
28A3
102
{ACAD_REACTORS
330
C
102
}
330
C
100
AcDbDictionary
281
     1
  3
2dWireframe
350
28A9
  3
Basic
350
28A8
  3
Brighten
350
28AF
  3
ColorChange
350
28B3
  3
Conceptual
350
28AC
  3
Dim
350
28AE
  3
EdgeColorOff
350
28BB
  3
Facepattern
350
28B2
  3
Flat
350
28A4
  3
FlatWithEdges
350
28A5
  3
Gouraud
350
28A6
  3
GouraudWithEdges
350
28A7
  3
Hidden
350
28AB
  3
JitterOff
350
28B9
  3
Linepattern
350
28B1
  3
OverhangOff
350
28BA
  3
Realistic
350
28AD
  3
Shaded
350
28B8
  3
Shaded with edges
350
28B7
  3
Shades of Gray
350
28B4
  3
Sketchy
350
28B5
  3
Thicken
350
28B0
  3
Wireframe
350
28AA
  3
X-Ray
350
28B6
  0
XRECORD
  5
2942
102
{ACAD_REACTORS
330
C
102
}
330
C
100
AcDbXrecord
280
     1
 90
        1
330
7F
  0
DICTIONARY
  5
5E
102
{ACAD_REACTORS
330
C
102
}
330
C
100
AcDbDictionary
281
     1
  3
CANNOSCALE
350
293C
  3
CMLEADERSTYLE
350
2938
  3
CTABLESTYLE
350
84
  3
CVIEWDETAILSTYLE
350
2939
  3
CVIEWSECTIONSTYLE
350
293A
  3
DIMASSOC
350
5F
  3
HIDETEXT
350
63
  3
LAYEREVAL
350
293E
  3
LAYERNOTIFY
350
293F
  3
LIGHTINGUNITS
350
293D
  3
MSLTSCALE
350
293B
  0
DICTIONARY
  5
2948
102
{ACAD_REACTORS
330
C
102
}
330
C
100
AcDbDictionary
281
     1
  3
AcDsRecords
350
294A
  3
AcDsSchemas
350
2949
1001
ACAD
1070
     2
  0
ACAD_PROXY_OBJECT
  5
2475
102
{ACAD_REACTORS
330
C
102
}
330
C
100
AcDbProxyObject
 90
      499
 91
      505
 95
  4980761
 70
     0
161
              4834
310
80000000000000000000000000000000000000000000000000000000000000000000000000000000000000000000000000000000000000000000000000000000000000000000000000000000000000000000000000000000000000000000000000000000000000000000000000000000000000000000000000000000000000
310
00000000000000000000000000000000000000000000000000000000000000000000000000000000000000000000000000000000000000000000000000000000000000000000000000000000000000000000000000000000000000000000000000000000000000000000000000000000000000000000000000000000000000
310
00000000000000000000000000000000000000000000000000000000000000000000000000000000000000003C0FC0000000000000000000000000000000000000000000000000000000000000000000000000003C0FC0000000000000000000000000000000000000000000000000000000000000000000000000003C0FC0
310
000000000000000000000000000000000000000000000000000000000000000000000000003C0FC000000000003C0FC0000000000000000000000000000000000000000000000000000000000000000000000000003C0FC0000000000000000000000000000000000000000000000000000000000000000000000000003C0F
310
C0000000000000000000000000000000000000000000000000000000000000000000000000003C0FC0000000000000000000000000000000000000000000000000170DFD80000000184000003C3BB30158273EDF97E7249900000000184000000C
 94
        0
  0
ACAD_PROXY_OBJECT
  5
E7
102
{ACAD_REACTORS
330
C
102
}
330
C
100
AcDbProxyObject
 90
      499
 91
      507
 95
  4980761
 70
     0
161
                34
310
0000C0000C
 94
        0
  0
ACAD_PROXY_OBJECT
  5
E6
102
{ACAD_REACTORS
330
C
102
}
330
C
100
AcDbProxyObject
 90
      499
 91
      506
 95
  4980761
 70
     0
161
              3584
310
00000000000000000000000002000000000000000000000000000000000000000000000000000000000000000000000000000000000000000000000000000000FCA9F1D24D62503F00000000000000000000000000000000000000000000000000000000000000000000000000000000000000000000000000000000000000
310
001000000000000000FFFFFF0000000000000000000000000000000000000000000000000000000000000000000000000000000000000000000000000000000000000000000000F0BFFA7E6ABC7493783F00000000000000000000000000000000000000000000000000000000000000000000000000000000000000000000
310
00006002000000000000000000000000000000000000000000000000000000000000000000000000000000000000000000000000000000000000000000000000000000000000000014400000000000000000FCA9F1D24D62503F00000000000000009A9999999999A93FFA7E6ABC7493783F00000000000000000000000000
310
0000000000000000000000000000000000000000000000000000000000000000000000000000000000000000000000000000000000000000000000000000000000000000
 94
        0
  0
DICTIONARY
  5
244F
102
{ACAD_REACTORS
330
27A
102
}
330
27A
100
AcDbDictionary
281
     1
  0
DICTIONARY
  5
28DB
102
{ACAD_REACTORS
330
27A
102
}
330
27A
100
AcDbDictionary
281
     1
  0
DICTIONARY
  5
244E
102
{ACAD_REACTORS
330
27A
102
}
330
27A
100
AcDbDictionary
281
     1
1001
ACAD
1000
<All
  0
XRECORD
  5
28EB
102
{ACAD_REACTORS
330
28EA
102
}
330
28EA
100
AcDbXrecord
280
     1
290
     1
  0
XRECORD
  5
28ED
102
{ACAD_REACTORS
330
28EC
102
}
330
28EC
100
AcDbXrecord
280
     1
290
     1
  0
XRECORD
  5
28EF
102
{ACAD_REACTORS
330
28EE
102
}
330
28EE
100
AcDbXrecord
280
     1
290
     1
  0
SORTENTSTABLE
  5
E9E
102
{ACAD_REACTORS
330
E9D
102
}
330
E9D
100
AcDbSortentsTable
330
1F
331
EEC
  5
F9B
331
EAD
  5
594
331
EE8
  5
8DB
331
DA6
  5
E16
331
1522
  5
1AF1
331
EA9
  5
966
331
DA2
  5
E14
331
2386
  5
2406
331
EE4
  5
8D7
331
EE0
  5
822
331
2404
  5
1AAB
331
2382
  5
2402
331
237E
  5
23FE
331
23BD
  5
1B24
331
2400
  5
1AA7
331
23FC
  5
1AA2
331
237A
  5
240F
331
23B9
  5
1FC5
331
23F8
  5
1A9E
331
EA5
  5
EEC
331
EA1
  5
F97
331
D9A
  5
E13
331
EDC
  5
81E
331
ED8
  5
78A
331
23B5
  5
1FCD
331
2376
  5
240B
331
ED4
  5
786
331
10C3
  5
1A28
331
ED0
  5
6F1
331
23B1
  5
1FD7
331
23F4
  5
1A9A
331
2372
  5
2407
331
23AD
  5
1FDD
331
236E
  5
2413
331
1A38
  5
1B34
331
23F0
  5
1A96
331
23A9
  5
1FD9
331
23EC
  5
1A91
331
236A
  5
241B
331
5E4
  5
960
331
512
  5
8DD
331
ECC
  5
6ED
331
EC8
  5
6E9
331
1A34
  5
1B33
331
1951
  5
1B2D
331
23A5
  5
1FE6
331
2366
  5
2417
331
EC4
  5
6CB
331
EC0
  5
6C7
331
23DC
  5
1A42
331
23A1
  5
1FE1
331
239D
  5
210C
331
1A28
  5
1B31
331
23D8
  5
1AD8
331
241B
  5
150E
331
23D4
  5
1AD4
331
2399
  5
210F
331
23D0
  5
1ABD
331
EBC
  5
683
331
EB8
  5
67F
331
152D
  5
1AF3
331
2395
  5
23F8
331
EB4
  5
5FE
331
2417
  5
183D
331
EB0
  5
5DD
331
219B
  5
19E5
331
1529
  5
1AF2
331
2413
  5
1ABB
331
23CC
  5
1AF7
331
2391
  5
23F4
331
238D
  5
23F0
331
240F
  5
1AB7
331
23C8
  5
1B21
331
240B
  5
1AB3
331
23C4
  5
1B1D
331
2389
  5
23FB
331
23C0
  5
1B2A
331
585
  5
8DF
331
EEB
  5
969
331
EE7
  5
8DA
331
EAC
  5
585
331
EA8
  5
EE9
331
2385
  5
2405
331
EE3
  5
8D6
331
130A
  5
1AEB
331
2407
  5
1AAE
331
1A53
  5
1FC6
331
2403
  5
1AAA
331
2381
  5
2401
331
23BC
  5
1CD2
331
23FF
  5
1AA6
331
23B8
  5
1FC4
331
23FB
  5
1AA1
331
2379
  5
240E
331
EDF
  5
821
331
EA4
  5
EEB
331
EA0
  5
F98
331
EDB
  5
81D
331
5EF
  5
962
331
5EB
  5
961
331
ED7
  5
789
331
E9C
  5
96B
331
23B4
  5
1FCC
331
2375
  5
240A
331
ED3
  5
785
331
23F7
  5
1A9D
331
1411
  5
1AEF
331
23B0
  5
1FD6
331
23F3
  5
1A99
331
2371
  5
2416
331
23AC
  5
1FDC
331
236D
  5
241E
331
242E
  5
2434
331
23EF
  5
1A95
331
23A8
  5
1FD8
331
2369
  5
241A
331
ECF
  5
6F0
331
ECB
  5
6EC
331
EC7
  5
6CE
331
C25
  5
DE9
331
23A4
  5
1FE5
331
EC3
  5
6CA
331
23DF
  5
1A53
331
23DB
  5
1AEA
331
23A0
  5
2109
331
239C
  5
210B
331
23D7
  5
1AD7
331
241E
  5
2424
331
241A
  5
150A
331
23D3
  5
1AD3
331
2398
  5
2113
331
EBF
  5
686
331
594
  5
8E0
331
EBB
  5
682
331
5CF
  5
8E2
331
EB7
  5
66C
331
2394
  5
23F7
331
21E5
  5
19DF
331
EB3
  5
5EF
331
23CF
  5
1B1C
331
2416
  5
183C
331
2390
  5
23F3
331
2412
  5
1ABA
331
23CB
  5
1AF6
331
240E
  5
1AB6
331
23C7
  5
1B20
331
238C
  5
23EF
331
2388
  5
23FA
331
240A
  5
1AB2
331
23C3
  5
1B23
331
EAF
  5
5CF
331
EEA
  5
968
331
5FE
  5
963
331
EE6
  5
8D9
331
19DF
  5
1B2F
331
EAB
  5
518
331
2406
  5
1AAD
331
2384
  5
2404
331
EE2
  5
8D5
331
23BF
  5
1B26
331
2380
  5
2400
331
2402
  5
1AA9
331
23FE
  5
1AA5
331
237C
  5
2412
331
23BB
  5
1CCA
331
2378
  5
240D
331
23FA
  5
1AA0
331
EA7
  5
EE8
331
EDE
  5
820
331
EA3
  5
EEA
331
5B7
  5
8E1
331
E9F
  5
F99
331
141C
  5
1AF0
331
EDA
  5
81C
331
23B7
  5
1FC3
331
1A42
  5
1B36
331
ED6
  5
788
331
E9B
  5
96A
331
518
  5
8DE
331
195B
  5
1B2E
331
23B3
  5
1FC7
331
23F6
  5
1A9C
331
2374
  5
2409
331
ED2
  5
784
331
23AF
  5
1FD4
331
2370
  5
2415
331
23F2
  5
1A98
331
23AB
  5
1FDB
331
23EE
  5
1A93
331
236C
  5
241D
331
2368
  5
2419
331
ECE
  5
6EF
331
ECA
  5
6EB
331
1408
  5
1AEE
331
23A7
  5
1FE0
331
EC6
  5
6CD
331
23DE
  5
1A4C
331
23A3
  5
1FE3
331
1A2E
  5
1B32
331
EC2
  5
6C9
331
1400
  5
1AED
331
239F
  5
210E
331
23DA
  5
1ADA
331
239B
  5
210A
331
241D
  5
183A
331
23D6
  5
1AD6
331
21EC
  5
2389
331
2419
  5
199A
331
23D2
  5
1ABF
331
EBE
  5
685
331
B50
  5
DE8
331
1533
  5
1AF4
331
EBA
  5
681
331
2397
  5
2112
331
EB6
  5
618
331
EB2
  5
5EB
331
2415
  5
183B
331
23CE
  5
1B1B
331
2393
  5
23F6
331
238F
  5
23F2
331
2411
  5
1AB9
331
245C
  5
E12
331
23CA
  5
1AF5
331
240D
  5
1AB5
331
23C6
  5
1B1F
331
2458
  5
245C
331
238B
  5
23FD
331
2409
  5
1AB0
331
23C2
  5
1B2C
331
EE9
  5
8DC
331
EAE
  5
5B7
331
EAA
  5
512
331
2387
  5
23F9
331
EE5
  5
8D8
331
EE1
  5
823
331
2405
  5
1AAC
331
2383
  5
2403
331
23BE
  5
1B25
331
237F
  5
23FF
331
2401
  5
1AA8
331
23BA
  5
1CC6
331
23FD
  5
1AA4
331
237B
  5
2410
331
23F9
  5
1A9F
331
EA6
  5
EE7
331
EA2
  5
EF8
331
EDD
  5
81F
331
ED9
  5
78B
331
E9A
  5
967
331
23B6
  5
1CD7
331
2377
  5
240C
331
ED5
  5
787
331
1A3D
  5
1B35
331
ED1
  5
6F2
331
23B2
  5
1FD3
331
2434
  5
2458
331
23F5
  5
1A9B
331
2373
  5
2408
331
23AE
  5
1FDE
331
236F
  5
2414
331
23F1
  5
1A97
331
23AA
  5
1FDA
331
23ED
  5
1A92
331
236B
  5
241C
331
2428
  5
242E
331
ECD
  5
6EE
331
5DD
  5
8E3
331
1028
  5
19A6
331
EC9
  5
6EA
331
E8E
  5
F9A
331
23A6
  5
1FDF
331
2367
  5
2418
331
EC5
  5
6CC
331
618
  5
965
331
EC1
  5
6C8
331
2424
  5
2428
331
23DD
  5
1A46
331
23A2
  5
1FE2
331
239E
  5
210D
331
23D9
  5
1AD9
331
241C
  5
182E
331
23D5
  5
1AD5
331
239A
  5
2110
331
2418
  5
183E
331
23D1
  5
1ABE
331
43F
  5
43F
331
E7A
  5
EF4
331
EBD
  5
684
331
610
  5
964
331
EB9
  5
680
331
EF8
  5
1411
331
E76
  5
EF0
331
1317
  5
1AEC
331
2396
  5
2111
331
EB5
  5
610
331
EF4
  5
F9D
331
19E5
  5
1B30
331
EB1
  5
5E4
331
EF0
  5
F9C
331
2414
  5
1ABC
331
23CD
  5
1B1A
331
2392
  5
23F5
331
238E
  5
23F1
331
2410
  5
1AB8
331
23C9
  5
1B22
331
240C
  5
1AB4
331
23C5
  5
1B1E
331
238A
  5
23FC
331
2408
  5
1AAF
331
23C1
  5
1B2B
  0
XRECORD
  5
28E5
102
{ACAD_REACTORS
330
28E4
102
}
330
28E4
100
AcDbXrecord
280
     1
 90
        1
340
28BD
  0
XRECORD
  5
28E9
102
{ACAD_REACTORS
330
28E8
102
}
330
28E8
100
AcDbXrecord
280
     1
 90
        1
340
28BD
  0
ACDBDETAILVIEWSTYLE
  5
28D3
102
{ACAD_XDICTIONARY
360
297F
102
}
102
{ACAD_REACTORS
330
28D2
102
}
330
28D2
100
AcDbModelDocViewStyle
 70
     0
  3
Metric50
290
     0
100
AcDbDetailViewStyle
 70
     0
 71
     0
 90
        3
 71
     1
340
11
 62
   256
 40
5.0
340
0
 62
   256
 40
5.0
300

 40
0.0
280
     1
 71
     2
340
16
 90
       25
 62
   256
 71
     3
340
11
 62
   256
 40
5.0
 90
        0
 40
15.0
 90
        1
300
%<\AcVar ViewDetailId>% (%<\AcVar ViewScale \f "%sn">%)
 71
     4
340
16
 90
       25
 62
   256
340
16
 90
       25
 62
   256
280
     0
  0
LAYOUT
  5
D3
102
{ACAD_REACTORS
330
1A
102
}
330
1A
100
AcDbPlotSettings
  1

  2
none_device
  4
ISO_A4_(210.00_x_297.00_MM)
  6

 40
7.5
 41
20.0
 42
7.5
 43
20.0
 44
210.0
 45
297.0
 46
0.0
 47
0.0
 48
0.0
 49
0.0
140
0.0
141
0.0
142
1.0
143
1.0
 70
   688
 72
     1
 73
     1
 74
     5
  7

 75
    16
147
1.0
 76
     0
 77
     2
 78
   300
148
0.0
149
0.0
100
AcDbLayout
  1
Layout1
 70
     1
 71
     1
 10
-20.0
 20
-7.5
 11
277.0
 21
202.5
 12
0.0
 22
0.0
 32
0.0
 14
25.69999999999999
 24
19.5
 34
0.0
 15
231.3
 25
175.5
 35
0.0
146
0.0
 13
0.0
 23
0.0
 33
0.0
 16
1.0
 26
0.0
 36
0.0
 17
0.0
 27
1.0
 37
0.0
 76
     0
330
D2
331
28E3
1001
ACAD_PSEXT
1000
None
1000
None
1000
Not applicable
1000
The layout will not be plotted unless a new plotter configuration name is selected.
1070
     0
  0
LAYOUT
  5
D7
102
{ACAD_REACTORS
330
1A
102
}
330
1A
100
AcDbPlotSettings
  1

  2
C:\Documents and Settings\basas\Application Data\Autodesk\AutoCAD 2005\R16.1\enu\plotters\Default Windows System Printer.pc3
  4

  6

 40
0.0
 41
0.0
 42
0.0
 43
0.0
 44
0.0
 45
0.0
 46
0.0
 47
0.0
 48
0.0
 49
0.0
140
0.0
141
0.0
142
1.0
143
1.0
 70
   688
 72
     0
 73
     0
 74
     5
  7

 75
    16
147
1.0
 76
     0
 77
     2
 78
   300
148
0.0
149
0.0
100
AcDbLayout
  1
Layout2
 70
     1
 71
     2
 10
0.0
 20
0.0
 11
12.0
 21
9.0
 12
0.0
 22
0.0
 32
0.0
 14
0.0
 24
0.0
 34
0.0
 15
0.0
 25
0.0
 35
0.0
146
0.0
 13
0.0
 23
0.0
 33
0.0
 16
1.0
 26
0.0
 36
0.0
 17
0.0
 27
1.0
 37
0.0
 76
     0
330
D6
  0
LAYOUT
  5
22
102
{ACAD_REACTORS
330
1A
102
}
330
1A
100
AcDbPlotSettings
  1

  2
none_device
  4
ISO_A4_(210.00_x_297.00_MM)
  6

 40
7.5
 41
20.0
 42
7.5
 43
20.0
 44
210.0
 45
297.0
 46
11.54999923706054
 47
-13.65000009536743
 48
0.0
 49
0.0
140
0.0
141
0.0
142
1.0
143
8.704084754739808
 70
 11952
 72
     1
 73
     0
 74
     0
  7

 75
     0
147
0.1148885871608098
 76
     0
 77
     2
 78
   300
148
0.0
149
0.0
100
AcDbLayout
  1
Model
 70
     1
 71
     0
 10
0.0
 20
0.0
 11
12.0
 21
9.0
 12
0.0
 22
0.0
 32
0.0
 14
0.0
 24
0.0
 34
0.0
 15
0.0
 25
0.0
 35
0.0
146
0.0
 13
0.0
 23
0.0
 33
0.0
 16
1.0
 26
0.0
 36
0.0
 17
0.0
 27
1.0
 37
0.0
 76
     0
330
1F
1001
ACAD_PSEXT
1000
None
1000
None
1000
Not applicable
1000
The layout will not be plotted unless a new plotter configuration name is selected.
1070
     0
  0
MATERIAL
  5
2893
102
{ACAD_XDICTIONARY
360
2894
102
}
102
{ACAD_REACTORS
330
6A
102
}
330
6A
100
AcDbMaterial
  1
ByBlock
 72
     0
 43
0.0008202099737533
 43
0.0
 43
0.0
 43
0.0
 43
0.0
 43
0.0008202099737533
 43
0.0
 43
0.0
 43
0.0
 43
0.0
 43
1.0
 43
0.0
 43
0.0
 43
0.0
 43
0.0
 43
1.0
 77
     0
 47
0.0008202099737533
 47
0.0
 47
0.0
 47
0.0
 47
0.0
 47
0.0008202099737533
 47
0.0
 47
0.0
 47
0.0
 47
0.0
 47
1.0
 47
0.0
 47
0.0
 47
0.0
 47
0.0
 47
1.0
171
     0
 49
0.0008202099737533
 49
0.0
 49
0.0
 49
0.0
 49
0.0
 49
0.0008202099737533
 49
0.0
 49
0.0
 49
0.0
 49
0.0
 49
1.0
 49
0.0
 49
0.0
 49
0.0
 49
0.0
 49
1.0
175
     0
142
0.0008202099737533
142
0.0
142
0.0
142
0.0
142
0.0
142
0.0008202099737533
142
0.0
142
0.0
142
0.0
142
0.0
142
1.0
142
0.0
142
0.0
142
0.0
142
0.0
142
1.0
179
     0
144
0.0008202099737533
144
0.0
144
0.0
144
0.0
144
0.0
144
0.0008202099737533
144
0.0
144
0.0
144
0.0
144
0.0
144
1.0
144
0.0
144
0.0
144
0.0
144
0.0
144
1.0
147
0.0008202099737533
147
0.0
147
0.0
147
0.0
147
0.0
147
0.0008202099737533
147
0.0
147
0.0
147
0.0
147
0.0
147
1.0
147
0.0
147
0.0
147
0.0
147
0.0
147
1.0
  0
MATERIAL
  5
288B
102
{ACAD_XDICTIONARY
360
288C
102
}
102
{ACAD_REACTORS
330
6A
102
}
330
6A
100
AcDbMaterial
  1
ByLayer
 72
     0
 43
0.0008202099737533
 43
0.0
 43
0.0
 43
0.0
 43
0.0
 43
0.0008202099737533
 43
0.0
 43
0.0
 43
0.0
 43
0.0
 43
1.0
 43
0.0
 43
0.0
 43
0.0
 43
0.0
 43
1.0
 77
     0
 47
0.0008202099737533
 47
0.0
 47
0.0
 47
0.0
 47
0.0
 47
0.0008202099737533
 47
0.0
 47
0.0
 47
0.0
 47
0.0
 47
1.0
 47
0.0
 47
0.0
 47
0.0
 47
0.0
 47
1.0
171
     0
 49
0.0008202099737533
 49
0.0
 49
0.0
 49
0.0
 49
0.0
 49
0.0008202099737533
 49
0.0
 49
0.0
 49
0.0
 49
0.0
 49
1.0
 49
0.0
 49
0.0
 49
0.0
 49
0.0
 49
1.0
175
     0
142
0.0008202099737533
142
0.0
142
0.0
142
0.0
142
0.0
142
0.0008202099737533
142
0.0
142
0.0
142
0.0
142
0.0
142
1.0
142
0.0
142
0.0
142
0.0
142
0.0
142
1.0
179
     0
144
0.0008202099737533
144
0.0
144
0.0
144
0.0
144
0.0
144
0.0008202099737533
144
0.0
144
0.0
144
0.0
144
0.0
144
1.0
144
0.0
144
0.0
144
0.0
144
0.0
144
1.0
147
0.0008202099737533
147
0.0
147
0.0
147
0.0
147
0.0
147
0.0008202099737533
147
0.0
147
0.0
147
0.0
147
0.0
147
1.0
147
0.0
147
0.0
147
0.0
147
0.0
147
1.0
  0
MATERIAL
  5
289B
102
{ACAD_XDICTIONARY
360
289C
102
}
102
{ACAD_REACTORS
330
6A
102
}
330
6A
100
AcDbMaterial
  1
Global
 72
     0
 43
0.0008202099737533
 43
0.0
 43
0.0
 43
0.0
 43
0.0
 43
0.0008202099737533
 43
0.0
 43
0.0
 43
0.0
 43
0.0
 43
1.0
 43
0.0
 43
0.0
 43
0.0
 43
0.0
 43
1.0
 77
     0
 47
0.0008202099737533
 47
0.0
 47
0.0
 47
0.0
 47
0.0
 47
0.0008202099737533
 47
0.0
 47
0.0
 47
0.0
 47
0.0
 47
1.0
 47
0.0
 47
0.0
 47
0.0
 47
0.0
 47
1.0
171
     0
 49
0.0008202099737533
 49
0.0
 49
0.0
 49
0.0
 49
0.0
 49
0.0008202099737533
 49
0.0
 49
0.0
 49
0.0
 49
0.0
 49
1.0
 49
0.0
 49
0.0
 49
0.0
 49
0.0
 49
1.0
175
     0
142
0.0008202099737533
142
0.0
142
0.0
142
0.0
142
0.0
142
0.0008202099737533
142
0.0
142
0.0
142
0.0
142
0.0
142
1.0
142
0.0
142
0.0
142
0.0
142
0.0
142
1.0
179
     0
144
0.0008202099737533
144
0.0
144
0.0
144
0.0
144
0.0
144
0.0008202099737533
144
0.0
144
0.0
144
0.0
144
0.0
144
1.0
144
0.0
144
0.0
144
0.0
144
0.0
144
1.0
147
0.0008202099737533
147
0.0
147
0.0
147
0.0
147
0.0
147
0.0008202099737533
147
0.0
147
0.0
147
0.0
147
0.0
147
1.0
147
0.0
147
0.0
147
0.0
147
0.0
147
1.0
  0
MLEADERSTYLE
  5
28CF
102
{ACAD_XDICTIONARY
360
297B
102
}
102
{ACAD_REACTORS
330
28CE
102
}
330
28CE
100
AcDbMLeaderStyle
179
     2
170
     2
171
     1
172
     0
 90
        2
 40
0.0
 41
0.0
173
     1
 91
-1056964608
340
14
 92
       -2
290
     1
 42
2.0
291
     1
 43
0.36
  3
Standard
 44
4.0
300

342
11
174
     1
178
     6
175
     1
176
     0
 93
-1056964608
 45
4.0
292
     0
297
     0
 46
4.0
 94
-1056964608
 47
1.0
 49
1.0
140
1.0
293
     1
141
0.0
294
     1
177
     0
142
1.0
295
     0
296
     0
143
0.125
271
     0
272
     9
273
     9
  0
MLINESTYLE
  5
18
102
{ACAD_REACTORS
330
17
102
}
330
17
100
AcDbMlineStyle
  2
STANDARD
 70
     0
  3

 62
   256
 51
90.0
 52
90.0
 71
     2
 49
0.5
 62
   256
  6
BYLAYER
 49
-0.5
 62
   256
  6
BYLAYER
  0
ACDBPLACEHOLDER
  5
F
102
{ACAD_REACTORS
330
E
102
}
330
E
  0
SCALE
  5
28BD
102
{ACAD_REACTORS
330
28BC
102
}
330
28BC
100
AcDbScale
 70
     0
300
1:1
140
1.0
141
1.0
290
     1
  0
SCALE
  5
28BE
102
{ACAD_REACTORS
330
28BC
102
}
330
28BC
100
AcDbScale
 70
     0
300
1:2
140
1.0
141
2.0
290
     0
  0
SCALE
  5
28BF
102
{ACAD_REACTORS
330
28BC
102
}
330
28BC
100
AcDbScale
 70
     0
300
1:4
140
1.0
141
4.0
290
     0
  0
SCALE
  5
28C0
102
{ACAD_REACTORS
330
28BC
102
}
330
28BC
100
AcDbScale
 70
     0
300
1:5
140
1.0
141
5.0
290
     0
  0
SCALE
  5
28C1
102
{ACAD_REACTORS
330
28BC
102
}
330
28BC
100
AcDbScale
 70
     0
300
1:8
140
1.0
141
8.0
290
     0
  0
SCALE
  5
28C2
102
{ACAD_REACTORS
330
28BC
102
}
330
28BC
100
AcDbScale
 70
     0
300
1:10
140
1.0
141
10.0
290
     0
  0
SCALE
  5
28C3
102
{ACAD_REACTORS
330
28BC
102
}
330
28BC
100
AcDbScale
 70
     0
300
1:16
140
1.0
141
16.0
290
     0
  0
SCALE
  5
28C4
102
{ACAD_REACTORS
330
28BC
102
}
330
28BC
100
AcDbScale
 70
     0
300
1:20
140
1.0
141
20.0
290
     0
  0
SCALE
  5
28C5
102
{ACAD_REACTORS
330
28BC
102
}
330
28BC
100
AcDbScale
 70
     0
300
1:30
140
1.0
141
30.0
290
     0
  0
SCALE
  5
28C6
102
{ACAD_REACTORS
330
28BC
102
}
330
28BC
100
AcDbScale
 70
     0
300
1:40
140
1.0
141
40.0
290
     0
  0
SCALE
  5
28C7
102
{ACAD_REACTORS
330
28BC
102
}
330
28BC
100
AcDbScale
 70
     0
300
1:50
140
1.0
141
50.0
290
     0
  0
SCALE
  5
28C8
102
{ACAD_REACTORS
330
28BC
102
}
330
28BC
100
AcDbScale
 70
     0
300
1:100
140
1.0
141
100.0
290
     0
  0
SCALE
  5
28C9
102
{ACAD_REACTORS
330
28BC
102
}
330
28BC
100
AcDbScale
 70
     0
300
2:1
140
2.0
141
1.0
290
     0
  0
SCALE
  5
28CA
102
{ACAD_REACTORS
330
28BC
102
}
330
28BC
100
AcDbScale
 70
     0
300
4:1
140
4.0
141
1.0
290
     0
  0
SCALE
  5
28CB
102
{ACAD_REACTORS
330
28BC
102
}
330
28BC
100
AcDbScale
 70
     0
300
8:1
140
8.0
141
1.0
290
     0
  0
SCALE
  5
28CC
102
{ACAD_REACTORS
330
28BC
102
}
330
28BC
100
AcDbScale
 70
     0
300
10:1
140
10.0
141
1.0
290
     0
  0
SCALE
  5
28CD
102
{ACAD_REACTORS
330
28BC
102
}
330
28BC
100
AcDbScale
 70
     0
300
100:1
140
100.0
141
1.0
290
     0
  0
ACDBSECTIONVIEWSTYLE
  5
28D1
102
{ACAD_XDICTIONARY
360
297D
102
}
102
{ACAD_REACTORS
330
28D0
102
}
330
28D0
100
AcDbModelDocViewStyle
 70
     0
  3
Metric50
290
     0
100
AcDbSectionViewStyle
 70
     0
 71
     0
 90
      102
 71
     1
340
11
 62
   256
 40
5.0
340
0
340
0
 62
   256
 40
5.0
300
I, O, Q, S, X, Z
 40
10.0
 90
        0
 40
2.5
 90
        0
 71
     2
340
16
 90
       25
 62
   256
340
16
 90
       50
 62
   256
 40
5.0
 40
2.5
 40
5.0
 71
     3
340
11
 62
   256
 40
5.0
 90
        0
 40
15.0
 90
        1
300
%<\AcVar ViewSectionStartId>%-%<\AcVar ViewSectionEndId>% (%<\AcVar ViewScale \f "%sn">%)
 71
     4
 62
   256
 62
   257
300
ANSI31
 40
1.0
 90
        0
290
     0
290
     0
 90
        6
 40
0.0
 40
1.570796326794896
 40
0.2617993877991494
 40
1.308996938995747
 40
-0.2617993877991494
 40
1.832595714594046
  0
TABLESTYLE
  5
7F
102
{ACAD_XDICTIONARY
360
2940
102
}
102
{ACAD_REACTORS
330
7E
102
}
330
7E
100
AcDbTableStyle
280
     0
  3
Standard
 70
     0
 71
     0
 40
1.5
 41
1.5
280
     0
281
     0
  7
Standard
140
4.5
170
     2
 62
     0
 63
     7
283
     0
 90
        4
 91
        0
  1

274
    -2
284
     1
 64
     0
275
    -2
285
     1
 65
     0
276
    -2
286
     1
 66
     0
277
    -2
287
     1
 67
     0
278
    -2
288
     1
 68
     0
279
    -2
289
     1
 69
     0
  7
Standard
140
6.0
170
     5
 62
     0
 63
     7
283
     0
 90
        4
 91
        0
  1

274
    -2
284
     1
 64
     0
275
    -2
285
     1
 65
     0
276
    -2
286
     1
 66
     0
277
    -2
287
     1
 67
     0
278
    -2
288
     1
 68
     0
279
    -2
289
     1
 69
     0
  7
Standard
140
4.5
170
     5
 62
     0
 63
     7
283
     0
 90
        4
 91
        0
  1

274
    -2
284
     1
 64
     0
275
    -2
285
     1
 65
     0
276
    -2
286
     1
 66
     0
277
    -2
287
     1
 67
     0
278
    -2
288
     1
 68
     0
279
    -2
289
     1
 69
     0
  0
VISUALSTYLE
  5
28A9
102
{ACAD_XDICTIONARY
360
2955
102
}
102
{ACAD_REACTORS
330
28A3
102
}
330
28A3
100
AcDbVisualStyle
  2
2dWireframe
 70
     4
177
     2
291
     0
 71
     0
176
     1
 72
     2
176
     1
 73
     0
176
     1
 90
        0
176
     1
 40
0.6
176
     1
 41
30.0
176
     1
 63
     7
421
 16777215
176
     1
 74
     1
176
     1
 91
        4
176
     1
 64
     7
176
     1
 65
   257
176
     1
 75
     1
176
     1
175
     1
176
     1
 42
1.0
176
     1
 92
        0
176
     1
 66
   257
176
     1
 43
1.0
176
     1
 76
     1
176
     1
 77
     6
176
     1
 78
     2
176
     1
 67
     7
176
     1
 79
     5
176
     1
170
     0
176
     1
171
     0
176
     1
290
     0
176
     1
 93
        1
176
     1
 44
0.0
176
     1
173
     0
176
     1
1001
ACAD
1000
AcDbSavedByObjectVersion
1070
     0
  0
VISUALSTYLE
  5
28A8
102
{ACAD_XDICTIONARY
360
2953
102
}
102
{ACAD_REACTORS
330
28A3
102
}
330
28A3
100
AcDbVisualStyle
  2
Basic
 70
     7
177
     2
291
     1
 71
     1
176
     1
 72
     0
176
     1
 73
     1
176
     1
 90
        0
176
     1
 40
0.6
176
     1
 41
30.0
176
     1
 63
     7
421
 16777215
176
     1
 74
     0
176
     1
 91
        4
176
     1
 64
     7
176
     1
 65
   257
176
     1
 75
     1
176
     1
175
     1
176
     1
 42
1.0
176
     1
 92
        8
176
     1
 66
     7
176
     1
 43
1.0
176
     1
 76
     1
176
     1
 77
     6
176
     1
 78
     2
176
     1
 67
     7
176
     1
 79
     5
176
     1
170
     0
176
     1
171
     0
176
     1
290
     0
176
     1
 93
        1
176
     1
 44
0.0
176
     1
173
     0
176
     1
1001
ACAD
1000
AcDbSavedByObjectVersion
1070
     0
  0
VISUALSTYLE
  5
28AF
102
{ACAD_XDICTIONARY
360
2961
102
}
102
{ACAD_REACTORS
330
28A3
102
}
330
28A3
100
AcDbVisualStyle
  2
Brighten
 70
    12
177
     2
291
     1
 71
     2
176
     1
 72
     2
176
     1
 73
     0
176
     1
 90
        0
176
     1
 40
0.6
176
     1
 41
30.0
176
     1
 63
     7
421
 16777215
176
     1
 74
     1
176
     1
 91
        4
176
     1
 64
     7
176
     1
 65
   257
176
     1
 75
     1
176
     1
175
     1
176
     1
 42
1.0
176
     1
 92
        8
176
     1
 66
     7
176
     1
 43
1.0
176
     1
 76
     1
176
     1
 77
     6
176
     1
 78
     2
176
     1
 67
     7
176
     1
 79
     5
176
     1
170
     0
176
     1
171
     0
176
     1
290
     0
176
     1
 93
        1
176
     1
 44
50.0
176
     1
173
     0
176
     1
1001
ACAD
1000
AcDbSavedByObjectVersion
1070
     0
  0
VISUALSTYLE
  5
28B3
102
{ACAD_XDICTIONARY
360
2969
102
}
102
{ACAD_REACTORS
330
28A3
102
}
330
28A3
100
AcDbVisualStyle
  2
ColorChange
 70
    16
177
     2
291
     1
 71
     2
176
     1
 72
     2
176
     1
 73
     3
176
     1
 90
        0
176
     1
 40
0.6
176
     1
 41
30.0
176
     1
 63
     8
421
  8421504
176
     1
 74
     1
176
     1
 91
        4
176
     1
 64
     7
176
     1
 65
   257
176
     1
 75
     1
176
     1
175
     1
176
     1
 42
1.0
176
     1
 92
        8
176
     1
 66
     8
424
  8421504
176
     1
 43
1.0
176
     1
 76
     1
176
     1
 77
     6
176
     1
 78
     2
176
     1
 67
     7
176
     1
 79
     5
176
     1
170
     0
176
     1
171
     0
176
     1
290
     0
176
     1
 93
        1
176
     1
 44
0.0
176
     1
173
     0
176
     1
1001
ACAD
1000
AcDbSavedByObjectVersion
1070
     0
  0
VISUALSTYLE
  5
28AC
102
{ACAD_XDICTIONARY
360
295B
102
}
102
{ACAD_REACTORS
330
28A3
102
}
330
28A3
100
AcDbVisualStyle
  2
Conceptual
 70
     9
177
     2
291
     0
 71
     3
176
     1
 72
     2
176
     1
 73
     0
176
     1
 90
        0
176
     1
 40
0.6
176
     1
 41
30.0
176
     1
 63
     7
421
 16777215
176
     1
 74
     2
176
     1
 91
        2
176
     1
 64
     7
176
     1
 65
   257
176
     1
 75
     1
176
     1
175
     1
176
     1
 42
179.0
176
     1
 92
        8
176
     1
 66
     7
176
     1
 43
1.0
176
     1
 76
     1
176
     1
 77
     6
176
     1
 78
     2
176
     1
 67
     7
176
     1
 79
     3
176
     1
170
     0
176
     1
171
     0
176
     1
290
     0
176
     1
 93
        1
176
     1
 44
0.0
176
     1
173
     0
176
     1
1001
ACAD
1000
AcDbSavedByObjectVersion
1070
     0
  0
VISUALSTYLE
  5
28AE
102
{ACAD_XDICTIONARY
360
295F
102
}
102
{ACAD_REACTORS
330
28A3
102
}
330
28A3
100
AcDbVisualStyle
  2
Dim
 70
    11
177
     2
291
     1
 71
     2
176
     1
 72
     2
176
     1
 73
     0
176
     1
 90
        0
176
     1
 40
0.6
176
     1
 41
30.0
176
     1
 63
     7
421
 16777215
176
     1
 74
     1
176
     1
 91
        4
176
     1
 64
     7
176
     1
 65
   257
176
     1
 75
     1
176
     1
175
     1
176
     1
 42
1.0
176
     1
 92
        8
176
     1
 66
     7
176
     1
 43
1.0
176
     1
 76
     1
176
     1
 77
     6
176
     1
 78
     2
176
     1
 67
     7
176
     1
 79
     5
176
     1
170
     0
176
     1
171
     0
176
     1
290
     0
176
     1
 93
        1
176
     1
 44
-50.0
176
     1
173
     0
176
     1
1001
ACAD
1000
AcDbSavedByObjectVersion
1070
     0
  0
VISUALSTYLE
  5
28BB
102
{ACAD_XDICTIONARY
360
2979
102
}
102
{ACAD_REACTORS
330
28A3
102
}
330
28A3
100
AcDbVisualStyle
  2
EdgeColorOff
 70
    22
177
     2
291
     1
 71
     2
176
     0
 72
     2
176
     0
 73
     0
176
     0
 90
        0
176
     0
 40
0.6
176
     0
 41
30.0
176
     0
 63
     7
421
 16777215
176
     0
 74
     1
176
     0
 91
        4
176
     0
 64
     7
176
     0
 65
   257
176
     0
 75
     1
176
     0
175
     1
176
     0
 42
1.0
176
     0
 92
        8
176
     2
 66
     7
176
     0
 43
1.0
176
     0
 76
     1
176
     0
 77
     6
176
     0
 78
     2
176
     0
 67
     7
176
     0
 79
     5
176
     0
170
     0
176
     0
171
     0
176
     0
290
     0
176
     0
 93
        1
176
     0
 44
0.0
176
     0
173
     0
176
     0
1001
ACAD
1000
AcDbSavedByObjectVersion
1070
     0
  0
VISUALSTYLE
  5
28B2
102
{ACAD_XDICTIONARY
360
2967
102
}
102
{ACAD_REACTORS
330
28A3
102
}
330
28A3
100
AcDbVisualStyle
  2
Facepattern
 70
    15
177
     2
291
     1
 71
     2
176
     1
 72
     2
176
     1
 73
     0
176
     1
 90
        0
176
     1
 40
0.6
176
     1
 41
30.0
176
     1
 63
     7
421
 16777215
176
     1
 74
     1
176
     1
 91
        4
176
     1
 64
     7
176
     1
 65
   257
176
     1
 75
     1
176
     1
175
     1
176
     1
 42
1.0
176
     1
 92
        8
176
     1
 66
     7
176
     1
 43
1.0
176
     1
 76
     1
176
     1
 77
     6
176
     1
 78
     2
176
     1
 67
     7
176
     1
 79
     5
176
     1
170
     0
176
     1
171
     0
176
     1
290
     0
176
     1
 93
        1
176
     1
 44
0.0
176
     1
173
     0
176
     1
1001
ACAD
1000
AcDbSavedByObjectVersion
1070
     0
  0
VISUALSTYLE
  5
28A4
102
{ACAD_XDICTIONARY
360
294B
102
}
102
{ACAD_REACTORS
330
28A3
102
}
330
28A3
100
AcDbVisualStyle
  2
Flat
 70
     0
177
     2
291
     1
 71
     2
176
     1
 72
     1
176
     1
 73
     1
176
     1
 90
        2
176
     1
 40
0.6
176
     1
 41
30.0
176
     1
 63
     7
421
 16777215
176
     1
 74
     0
176
     1
 91
        0
176
     1
 64
     7
176
     1
 65
   257
176
     1
 75
     1
176
     1
175
     1
176
     1
 42
1.0
176
     1
 92
        8
176
     1
 66
     7
176
     1
 43
1.0
176
     1
 76
     1
176
     1
 77
     6
176
     1
 78
     2
176
     1
 67
     7
176
     1
 79
     5
176
     1
170
     0
176
     1
171
     0
176
     1
290
     0
176
     1
 93
       13
176
     1
 44
0.0
176
     1
173
     0
176
     1
1001
ACAD
1000
AcDbSavedByObjectVersion
1070
     0
  0
VISUALSTYLE
  5
28A5
102
{ACAD_XDICTIONARY
360
294D
102
}
102
{ACAD_REACTORS
330
28A3
102
}
330
28A3
100
AcDbVisualStyle
  2
FlatWithEdges
 70
     1
177
     2
291
     1
 71
     2
176
     1
 72
     1
176
     1
 73
     1
176
     1
 90
        2
176
     1
 40
0.6
176
     1
 41
30.0
176
     1
 63
     7
421
 16777215
176
     1
 74
     1
176
     1
 91
        0
176
     1
 64
     7
176
     1
 65
   257
176
     1
 75
     1
176
     1
175
     1
176
     1
 42
1.0
176
     1
 92
        0
176
     1
 66
   257
176
     1
 43
1.0
176
     1
 76
     1
176
     1
 77
     6
176
     1
 78
     2
176
     1
 67
     7
176
     1
 79
     5
176
     1
170
     0
176
     1
171
     0
176
     1
290
     0
176
     1
 93
       13
176
     1
 44
0.0
176
     1
173
     0
176
     1
1001
ACAD
1000
AcDbSavedByObjectVersion
1070
     0
  0
VISUALSTYLE
  5
28A6
102
{ACAD_XDICTIONARY
360
294F
102
}
102
{ACAD_REACTORS
330
28A3
102
}
330
28A3
100
AcDbVisualStyle
  2
Gouraud
 70
     2
177
     2
291
     1
 71
     2
176
     1
 72
     2
176
     1
 73
     1
176
     1
 90
        2
176
     1
 40
0.6
176
     1
 41
30.0
176
     1
 63
     7
421
 16777215
176
     1
 74
     0
176
     1
 91
        0
176
     1
 64
     7
176
     1
 65
   257
176
     1
 75
     1
176
     1
175
     1
176
     1
 42
1.0
176
     1
 92
        0
176
     1
 66
     7
176
     1
 43
1.0
176
     1
 76
     1
176
     1
 77
     6
176
     1
 78
     2
176
     1
 67
     7
176
     1
 79
     5
176
     1
170
     0
176
     1
171
     0
176
     1
290
     0
176
     1
 93
       13
176
     1
 44
0.0
176
     1
173
     0
176
     1
1001
ACAD
1000
AcDbSavedByObjectVersion
1070
     0
  0
VISUALSTYLE
  5
28A7
102
{ACAD_XDICTIONARY
360
2951
102
}
102
{ACAD_REACTORS
330
28A3
102
}
330
28A3
100
AcDbVisualStyle
  2
GouraudWithEdges
 70
     3
177
     2
291
     1
 71
     2
176
     1
 72
     2
176
     1
 73
     1
176
     1
 90
        2
176
     1
 40
0.6
176
     1
 41
30.0
176
     1
 63
     7
421
 16777215
176
     1
 74
     1
176
     1
 91
        0
176
     1
 64
     7
176
     1
 65
   257
176
     1
 75
     1
176
     1
175
     1
176
     1
 42
1.0
176
     1
 92
        0
176
     1
 66
   257
176
     1
 43
1.0
176
     1
 76
     1
176
     1
 77
     6
176
     1
 78
     2
176
     1
 67
     7
176
     1
 79
     5
176
     1
170
     0
176
     1
171
     0
176
     1
290
     0
176
     1
 93
       13
176
     1
 44
0.0
176
     1
173
     0
176
     1
1001
ACAD
1000
AcDbSavedByObjectVersion
1070
     0
  0
VISUALSTYLE
  5
28AB
102
{ACAD_XDICTIONARY
360
2959
102
}
102
{ACAD_REACTORS
330
28A3
102
}
330
28A3
100
AcDbVisualStyle
  2
Hidden
 70
     6
177
     2
291
     0
 71
     1
176
     1
 72
     2
176
     1
 73
     2
176
     1
 90
        0
176
     1
 40
0.6
176
     1
 41
30.0
176
     1
 63
     7
421
 16777215
176
     1
 74
     2
176
     1
 91
        2
176
     1
 64
     7
176
     1
 65
   257
176
     1
 75
     2
176
     1
175
     1
176
     1
 42
40.0
176
     1
 92
        0
176
     1
 66
   257
176
     1
 43
1.0
176
     1
 76
     1
176
     1
 77
     6
176
     1
 78
     2
176
     1
 67
     7
176
     1
 79
     3
176
     1
170
     0
176
     1
171
     0
176
     1
290
     0
176
     1
 93
        1
176
     1
 44
0.0
176
     1
173
     0
176
     1
1001
ACAD
1000
AcDbSavedByObjectVersion
1070
     0
  0
VISUALSTYLE
  5
28B9
102
{ACAD_XDICTIONARY
360
2975
102
}
102
{ACAD_REACTORS
330
28A3
102
}
330
28A3
100
AcDbVisualStyle
  2
JitterOff
 70
    20
177
     2
291
     1
 71
     2
176
     0
 72
     2
176
     0
 73
     0
176
     0
 90
        0
176
     0
 40
0.6
176
     0
 41
30.0
176
     0
 63
     7
421
 16777215
176
     0
 74
     1
176
     0
 91
        4
176
     0
 64
     7
176
     0
 65
   257
176
     0
 75
     1
176
     0
175
     1
176
     0
 42
1.0
176
     0
 92
       10
176
     2
 66
     7
176
     0
 43
1.0
176
     0
 76
     1
176
     0
 77
     6
176
     0
 78
     2
176
     0
 67
     7
176
     0
 79
     5
176
     0
170
     0
176
     0
171
     0
176
     0
290
     0
176
     0
 93
        1
176
     0
 44
0.0
176
     0
173
     0
176
     0
1001
ACAD
1000
AcDbSavedByObjectVersion
1070
     0
  0
VISUALSTYLE
  5
28B1
102
{ACAD_XDICTIONARY
360
2965
102
}
102
{ACAD_REACTORS
330
28A3
102
}
330
28A3
100
AcDbVisualStyle
  2
Linepattern
 70
    14
177
     2
291
     1
 71
     2
176
     1
 72
     2
176
     1
 73
     0
176
     1
 90
        0
176
     1
 40
0.6
176
     1
 41
30.0
176
     1
 63
     7
421
 16777215
176
     1
 74
     1
176
     1
 91
        4
176
     1
 64
     7
176
     1
 65
   257
176
     1
 75
     7
176
     1
175
     7
176
     1
 42
1.0
176
     1
 92
        8
176
     1
 66
     7
176
     1
 43
1.0
176
     1
 76
     1
176
     1
 77
     6
176
     1
 78
     2
176
     1
 67
     7
176
     1
 79
     5
176
     1
170
     0
176
     1
171
     0
176
     1
290
     0
176
     1
 93
        1
176
     1
 44
0.0
176
     1
173
     0
176
     1
1001
ACAD
1000
AcDbSavedByObjectVersion
1070
     0
  0
VISUALSTYLE
  5
28BA
102
{ACAD_XDICTIONARY
360
2977
102
}
102
{ACAD_REACTORS
330
28A3
102
}
330
28A3
100
AcDbVisualStyle
  2
OverhangOff
 70
    21
177
     2
291
     1
 71
     2
176
     0
 72
     2
176
     0
 73
     0
176
     0
 90
        0
176
     0
 40
0.6
176
     0
 41
30.0
176
     0
 63
     7
421
 16777215
176
     0
 74
     1
176
     0
 91
        4
176
     0
 64
     7
176
     0
 65
   257
176
     0
 75
     1
176
     0
175
     1
176
     0
 42
1.0
176
     0
 92
        9
176
     2
 66
     7
176
     0
 43
1.0
176
     0
 76
     1
176
     0
 77
     6
176
     0
 78
     2
176
     0
 67
     7
176
     0
 79
     5
176
     0
170
     0
176
     0
171
     0
176
     0
290
     0
176
     0
 93
        1
176
     0
 44
0.0
176
     0
173
     0
176
     0
1001
ACAD
1000
AcDbSavedByObjectVersion
1070
     0
  0
VISUALSTYLE
  5
28AD
102
{ACAD_XDICTIONARY
360
295D
102
}
102
{ACAD_REACTORS
330
28A3
102
}
330
28A3
100
AcDbVisualStyle
  2
Realistic
 70
     8
177
     2
291
     0
 71
     2
176
     1
 72
     3
176
     1
 73
     0
176
     1
 90
        2
176
     1
 40
0.6
176
     1
 41
30.0
176
     1
 63
     7
421
 16777215
176
     1
 74
     0
176
     1
 91
        0
176
     1
 64
     7
176
     1
 65
   257
176
     1
 75
     1
176
     1
175
     1
176
     1
 42
1.0
176
     1
 92
        8
176
     1
 66
   257
176
     1
 43
1.0
176
     1
 76
     1
176
     1
 77
     6
176
     1
 78
     2
176
     1
 67
     7
176
     1
 79
     3
176
     1
170
     0
176
     1
171
     0
176
     1
290
     0
176
     1
 93
       13
176
     1
 44
0.0
176
     1
173
     0
176
     1
1001
ACAD
1000
AcDbSavedByObjectVersion
1070
     0
  0
VISUALSTYLE
  5
28B8
102
{ACAD_XDICTIONARY
360
2973
102
}
102
{ACAD_REACTORS
330
28A3
102
}
330
28A3
100
AcDbVisualStyle
  2
Shaded
 70
    27
177
     2
291
     0
 71
     2
176
     1
 72
     2
176
     1
 73
     1
176
     1
 90
        2
176
     1
 40
0.6
176
     1
 41
30.0
176
     1
 63
     7
421
 16777215
176
     1
 74
     0
176
     1
 91
        4
176
     1
 64
     7
176
     1
 65
   257
176
     1
 75
     1
176
     1
175
     1
176
     1
 42
1.0
176
     1
 92
        8
176
     1
 66
   257
176
     1
 43
1.0
176
     1
 76
     1
176
     1
 77
     6
176
     1
 78
     2
176
     1
 67
     8
425
  7895160
176
     1
 79
     3
176
     1
170
     0
176
     1
171
     0
176
     1
290
     0
176
     1
 93
        5
176
     1
 44
0.0
176
     1
173
     0
176
     1
1001
ACAD
1000
AcDbSavedByObjectVersion
1070
     0
  0
VISUALSTYLE
  5
28B7
102
{ACAD_XDICTIONARY
360
2971
102
}
102
{ACAD_REACTORS
330
28A3
102
}
330
28A3
100
AcDbVisualStyle
  2
Shaded with edges
 70
    26
177
     2
291
     0
 71
     2
176
     1
 72
     2
176
     1
 73
     1
176
     1
 90
        2
176
     1
 40
0.6
176
     1
 41
30.0
176
     1
 63
     7
421
 16777215
176
     1
 74
     1
176
     1
 91
       10
176
     1
 64
     7
176
     1
 65
   257
176
     1
 75
     2
176
     1
175
     1
176
     1
 42
1.0
176
     1
 92
        8
176
     1
 66
   257
176
     1
 43
1.0
176
     1
 76
     1
176
     1
 77
     6
176
     1
 78
     2
176
     1
 67
     7
176
     1
 79
     3
176
     1
170
     0
176
     1
171
     0
176
     1
290
     0
176
     1
 93
        5
176
     1
 44
0.0
176
     1
173
     0
176
     1
1001
ACAD
1000
AcDbSavedByObjectVersion
1070
     0
  0
VISUALSTYLE
  5
28B4
102
{ACAD_XDICTIONARY
360
296B
102
}
102
{ACAD_REACTORS
330
28A3
102
}
330
28A3
100
AcDbVisualStyle
  2
Shades of Gray
 70
    23
177
     2
291
     0
 71
     2
176
     1
 72
     2
176
     1
 73
     3
176
     1
 90
        0
176
     1
 40
0.6
176
     1
 41
30.0
176
     1
 63
     7
421
 16777215
176
     1
 74
     2
176
     1
 91
        2
176
     1
 64
     7
176
     1
 65
     7
176
     1
 75
     1
176
     1
175
     1
176
     1
 42
40.0
176
     1
 92
        8
176
     1
 66
     7
176
     1
 43
1.0
176
     1
 76
     1
176
     1
 77
     6
176
     1
 78
     2
176
     1
 67
     7
176
     1
 79
     3
176
     1
170
     0
176
     1
171
     0
176
     1
290
     0
176
     1
 93
        1
176
     1
 44
0.0
176
     1
173
     0
176
     1
1001
ACAD
1000
AcDbSavedByObjectVersion
1070
     0
  0
VISUALSTYLE
  5
28B5
102
{ACAD_XDICTIONARY
360
296D
102
}
102
{ACAD_REACTORS
330
28A3
102
}
330
28A3
100
AcDbVisualStyle
  2
Sketchy
 70
    24
177
     2
291
     0
 71
     1
176
     1
 72
     2
176
     1
 73
     2
176
     1
 90
        0
176
     1
 40
0.6
176
     1
 41
30.0
176
     1
 63
     7
421
 16777215
176
     1
 74
     2
176
     1
 91
        2
176
     1
 64
     7
176
     1
 65
     7
176
     1
 75
     1
176
     1
175
     1
176
     1
 42
40.0
176
     1
 92
       11
176
     1
 66
     7
176
     1
 43
1.0
176
     1
 76
     1
176
     1
 77
     6
176
     1
 78
     2
176
     1
 67
     7
176
     1
 79
     6
176
     1
170
     0
176
     1
171
     0
176
     1
290
     0
176
     1
 93
        1
176
     1
 44
0.0
176
     1
173
     0
176
     1
1001
ACAD
1000
AcDbSavedByObjectVersion
1070
     0
  0
VISUALSTYLE
  5
28B0
102
{ACAD_XDICTIONARY
360
2963
102
}
102
{ACAD_REACTORS
330
28A3
102
}
330
28A3
100
AcDbVisualStyle
  2
Thicken
 70
    13
177
     2
291
     1
 71
     2
176
     1
 72
     2
176
     1
 73
     0
176
     1
 90
        0
176
     1
 40
0.6
176
     1
 41
30.0
176
     1
 63
     7
421
 16777215
176
     1
 74
     1
176
     1
 91
        4
176
     1
 64
     7
176
     1
 65
   257
176
     1
 75
     1
176
     1
175
     1
176
     1
 42
1.0
176
     1
 92
       12
176
     1
 66
     7
176
     1
 43
1.0
176
     1
 76
     1
176
     1
 77
     6
176
     1
 78
     2
176
     1
 67
     7
176
     1
 79
     5
176
     1
170
     0
176
     1
171
     0
176
     1
290
     0
176
     1
 93
        1
176
     1
 44
0.0
176
     1
173
     0
176
     1
1001
ACAD
1000
AcDbSavedByObjectVersion
1070
     0
  0
VISUALSTYLE
  5
28AA
102
{ACAD_XDICTIONARY
360
2957
102
}
102
{ACAD_REACTORS
330
28A3
102
}
330
28A3
100
AcDbVisualStyle
  2
Wireframe
 70
     5
177
     2
291
     0
 71
     0
176
     1
 72
     2
176
     1
 73
     0
176
     1
 90
        0
176
     1
 40
0.6
176
     1
 41
30.0
176
     1
 63
     7
421
 16777215
176
     1
 74
     1
176
     1
 91
        4
176
     1
 64
     7
176
     1
 65
   257
176
     1
 75
     1
176
     1
175
     1
176
     1
 42
1.0
176
     1
 92
        0
176
     1
 66
   257
176
     1
 43
1.0
176
     1
 76
     1
176
     1
 77
     6
176
     1
 78
     2
176
     1
 67
     7
176
     1
 79
     3
176
     1
170
     0
176
     1
171
     0
176
     1
290
     0
176
     1
 93
        1
176
     1
 44
0.0
176
     1
173
     0
176
     1
1001
ACAD
1000
AcDbSavedByObjectVersion
1070
     0
  0
VISUALSTYLE
  5
28B6
102
{ACAD_XDICTIONARY
360
296F
102
}
102
{ACAD_REACTORS
330
28A3
102
}
330
28A3
100
AcDbVisualStyle
  2
X-Ray
 70
    25
177
     2
291
     0
 71
     2
176
     1
 72
     2
176
     1
 73
     1
176
     1
 90
        1
176
     1
 40
0.5
176
     1
 41
30.0
176
     1
 63
     7
421
 16777215
176
     1
 74
     1
176
     1
 91
        0
176
     1
 64
     7
176
     1
 65
   257
176
     1
 75
     1
176
     1
175
     1
176
     1
 42
1.0
176
     1
 92
        8
176
     1
 66
     7
176
     1
 43
1.0
176
     1
 76
     1
176
     1
 77
     6
176
     1
 78
     2
176
     1
 67
     7
176
     1
 79
     3
176
     1
170
     0
176
     1
171
     0
176
     1
290
     0
176
     1
 93
       13
176
     1
 44
0.0
176
     1
173
     0
176
     1
1001
ACAD
1000
AcDbSavedByObjectVersion
1070
     0
  0
DICTIONARYVAR
  5
293C
102
{ACAD_REACTORS
330
5E
102
}
330
5E
100
DictionaryVariables
280
     0
  1
1:1
  0
DICTIONARYVAR
  5
2938
102
{ACAD_REACTORS
330
5E
102
}
330
5E
100
DictionaryVariables
280
     0
  1
STANDARD
  0
DICTIONARYVAR
  5
84
102
{ACAD_REACTORS
330
5E
102
}
330
5E
100
DictionaryVariables
280
     0
  1
STANDARD
  0
DICTIONARYVAR
  5
2939
102
{ACAD_REACTORS
330
5E
102
}
330
5E
100
DictionaryVariables
280
     0
  1
Metric50
  0
DICTIONARYVAR
  5
293A
102
{ACAD_REACTORS
330
5E
102
}
330
5E
100
DictionaryVariables
280
     0
  1
Metric50
  0
DICTIONARYVAR
  5
5F
102
{ACAD_REACTORS
330
5E
102
}
330
5E
100
DictionaryVariables
280
     0
  1
2
  0
DICTIONARYVAR
  5
63
102
{ACAD_REACTORS
330
5E
102
}
330
5E
100
DictionaryVariables
280
     0
  1
1
  0
DICTIONARYVAR
  5
293E
102
{ACAD_REACTORS
330
5E
102
}
330
5E
100
DictionaryVariables
280
     0
  1
1
  0
DICTIONARYVAR
  5
293F
102
{ACAD_REACTORS
330
5E
102
}
330
5E
100
DictionaryVariables
280
     0
  1
15
  0
DICTIONARYVAR
  5
293D
102
{ACAD_REACTORS
330
5E
102
}
330
5E
100
DictionaryVariables
280
     0
  1
0
  0
DICTIONARYVAR
  5
293B
102
{ACAD_REACTORS
330
5E
102
}
330
5E
100
DictionaryVariables
280
     0
  1
0
  0
DICTIONARY
  5
294A
102
{ACAD_REACTORS
330
2948
102
}
330
2948
100
AcDbDictionary
281
     1
  0
DICTIONARY
  5
2949
102
{ACAD_REACTORS
330
2948
102
}
330
2948
100
AcDbDictionary
281
     1
  3
8796087845936
350
2943
  3
8796087845952
350
2944
  3
8796087845968
350
2945
  3
8796087845984
350
2946
  3
8796087846000
350
2947
  0
DICTIONARY
  5
297F
330
28D3
100
AcDbDictionary
280
     1
281
     1
  3
ACAD_XREC_ROUNDTRIP
360
2980
  0
DICTIONARY
  5
2894
330
2893
100
AcDbDictionary
280
     1
281
     1
  3
BUMPTILE
360
2896
  3
DIFFUSETILE
360
2895
  3
OPACITYTILE
360
2899
  3
REFLECTIONTILE
360
2898
  3
REFRACTIONTILE
360
289A
  3
SPECULARTILE
360
2897
  0
DICTIONARY
  5
288C
330
288B
100
AcDbDictionary
280
     1
281
     1
  3
BUMPTILE
360
288E
  3
DIFFUSETILE
360
288D
  3
OPACITYTILE
360
2891
  3
REFLECTIONTILE
360
2890
  3
REFRACTIONTILE
360
2892
  3
SPECULARTILE
360
288F
  0
DICTIONARY
  5
289C
330
289B
100
AcDbDictionary
280
     1
281
     1
  3
BUMPTILE
360
289E
  3
DIFFUSETILE
360
289D
  3
OPACITYTILE
360
28A1
  3
REFLECTIONTILE
360
28A0
  3
REFRACTIONTILE
360
28A2
  3
SPECULARTILE
360
289F
  0
DICTIONARY
  5
297B
330
28CF
100
AcDbDictionary
280
     1
281
     1
  3
ACAD_XREC_ROUNDTRIP
360
297C
  0
DICTIONARY
  5
297D
330
28D1
100
AcDbDictionary
280
     1
281
     1
  3
ACAD_XREC_ROUNDTRIP
360
297E
  0
DICTIONARY
  5
2940
330
7F
100
AcDbDictionary
280
     1
281
     1
  3
ACAD_ROUNDTRIP_2008_TABLESTYLE_CELLSTYLEMAP
360
2941
  0
DICTIONARY
  5
2955
330
28A9
100
AcDbDictionary
280
     1
281
     1
  3
ACAD_XREC_ROUNDTRIP
360
2956
  0
DICTIONARY
  5
2953
330
28A8
100
AcDbDictionary
280
     1
281
     1
  3
ACAD_XREC_ROUNDTRIP
360
2954
  0
DICTIONARY
  5
2961
330
28AF
100
AcDbDictionary
280
     1
281
     1
  3
ACAD_XREC_ROUNDTRIP
360
2962
  0
DICTIONARY
  5
2969
330
28B3
100
AcDbDictionary
280
     1
281
     1
  3
ACAD_XREC_ROUNDTRIP
360
296A
  0
DICTIONARY
  5
295B
330
28AC
100
AcDbDictionary
280
     1
281
     1
  3
ACAD_XREC_ROUNDTRIP
360
295C
  0
DICTIONARY
  5
295F
330
28AE
100
AcDbDictionary
280
     1
281
     1
  3
ACAD_XREC_ROUNDTRIP
360
2960
  0
DICTIONARY
  5
2979
330
28BB
100
AcDbDictionary
280
     1
281
     1
  3
ACAD_XREC_ROUNDTRIP
360
297A
  0
DICTIONARY
  5
2967
330
28B2
100
AcDbDictionary
280
     1
281
     1
  3
ACAD_XREC_ROUNDTRIP
360
2968
  0
DICTIONARY
  5
294B
330
28A4
100
AcDbDictionary
280
     1
281
     1
  3
ACAD_XREC_ROUNDTRIP
360
294C
  0
DICTIONARY
  5
294D
330
28A5
100
AcDbDictionary
280
     1
281
     1
  3
ACAD_XREC_ROUNDTRIP
360
294E
  0
DICTIONARY
  5
294F
330
28A6
100
AcDbDictionary
280
     1
281
     1
  3
ACAD_XREC_ROUNDTRIP
360
2950
  0
DICTIONARY
  5
2951
330
28A7
100
AcDbDictionary
280
     1
281
     1
  3
ACAD_XREC_ROUNDTRIP
360
2952
  0
DICTIONARY
  5
2959
330
28AB
100
AcDbDictionary
280
     1
281
     1
  3
ACAD_XREC_ROUNDTRIP
360
295A
  0
DICTIONARY
  5
2975
330
28B9
100
AcDbDictionary
280
     1
281
     1
  3
ACAD_XREC_ROUNDTRIP
360
2976
  0
DICTIONARY
  5
2965
330
28B1
100
AcDbDictionary
280
     1
281
     1
  3
ACAD_XREC_ROUNDTRIP
360
2966
  0
DICTIONARY
  5
2977
330
28BA
100
AcDbDictionary
280
     1
281
     1
  3
ACAD_XREC_ROUNDTRIP
360
2978
  0
DICTIONARY
  5
295D
330
28AD
100
AcDbDictionary
280
     1
281
     1
  3
ACAD_XREC_ROUNDTRIP
360
295E
  0
DICTIONARY
  5
2973
330
28B8
100
AcDbDictionary
280
     1
281
     1
  3
ACAD_XREC_ROUNDTRIP
360
2974
  0
DICTIONARY
  5
2971
330
28B7
100
AcDbDictionary
280
     1
281
     1
  3
ACAD_XREC_ROUNDTRIP
360
2972
  0
DICTIONARY
  5
296B
330
28B4
100
AcDbDictionary
280
     1
281
     1
  3
ACAD_XREC_ROUNDTRIP
360
296C
  0
DICTIONARY
  5
296D
330
28B5
100
AcDbDictionary
280
     1
281
     1
  3
ACAD_XREC_ROUNDTRIP
360
296E
  0
DICTIONARY
  5
2963
330
28B0
100
AcDbDictionary
280
     1
281
     1
  3
ACAD_XREC_ROUNDTRIP
360
2964
  0
DICTIONARY
  5
2957
330
28AA
100
AcDbDictionary
280
     1
281
     1
  3
ACAD_XREC_ROUNDTRIP
360
2958
  0
DICTIONARY
  5
296F
330
28B6
100
AcDbDictionary
280
     1
281
     1
  3
ACAD_XREC_ROUNDTRIP
360
2970
  0
XRECORD
  5
2943
102
{ACAD_REACTORS
330
2949
102
}
330
2949
100
AcDbXrecord
280
     1
  1
AcDb_Thumbnail_Schema
102
{ATTRRECORD
341
2944
  2
AcDbDs::TreatedAsObjectData
280
     1
291
     1
102
ATTRRECORD}
102
{ATTRRECORD
341
2945
  2
AcDbDs::Legacy
280
     1
291
     1
102
ATTRRECORD}
  2
AcDbDs::ID
280
    10
 91
        8
102
{ATTRRECORD
341
2946
  2
AcDs:Indexable
280
     1
291
     1
102
ATTRRECORD}
102
{ATTRRECORD
341
2947
  2
AcDbDs::HandleAttribute
280
     7
282
     1
102
ATTRRECORD}
  2
Thumbnail_Data
280
    15
 91
        0
  0
XRECORD
  5
2944
102
{ACAD_REACTORS
330
2949
102
}
330
2949
100
AcDbXrecord
280
     1
  1
AcDbDs::TreatedAsObjectDataSchema
  2
AcDbDs::TreatedAsObjectData
280
     1
 91
        0
  0
XRECORD
  5
2945
102
{ACAD_REACTORS
330
2949
102
}
330
2949
100
AcDbXrecord
280
     1
  1
AcDbDs::LegacySchema
  2
AcDbDs::Legacy
280
     1
 91
        0
  0
XRECORD
  5
2946
102
{ACAD_REACTORS
330
2949
102
}
330
2949
100
AcDbXrecord
280
     1
  1
AcDbDs::IndexedPropertySchema
  2
AcDs:Indexable
280
     1
 91
        0
  0
XRECORD
  5
2947
102
{ACAD_REACTORS
330
2949
102
}
330
2949
100
AcDbXrecord
280
     1
  1
AcDbDs::HandleAttributeSchema
  2
AcDbDs::HandleAttribute
280
     7
 91
        1
284
     1
  0
XRECORD
  5
2980
102
{ACAD_REACTORS
330
297F
102
}
330
297F
100
AcDbXrecord
280
     1
102
DISPLAYNAME
  1
Metric50
102
FLAGS
 90
        0
  0
XRECORD
  5
2896
102
{ACAD_REACTORS
330
2894
102
}
330
2894
100
AcDbXrecord
280
     1
270
     1
271
     1
  0
XRECORD
  5
2895
102
{ACAD_REACTORS
330
2894
102
}
330
2894
100
AcDbXrecord
280
     1
270
     1
271
     1
  0
XRECORD
  5
2899
102
{ACAD_REACTORS
330
2894
102
}
330
2894
100
AcDbXrecord
280
     1
270
     1
271
     1
  0
XRECORD
  5
2898
102
{ACAD_REACTORS
330
2894
102
}
330
2894
100
AcDbXrecord
280
     1
270
     1
271
     1
  0
XRECORD
  5
289A
102
{ACAD_REACTORS
330
2894
102
}
330
2894
100
AcDbXrecord
280
     1
270
     1
271
     1
  0
XRECORD
  5
2897
102
{ACAD_REACTORS
330
2894
102
}
330
2894
100
AcDbXrecord
280
     1
270
     1
271
     1
  0
XRECORD
  5
288E
102
{ACAD_REACTORS
330
288C
102
}
330
288C
100
AcDbXrecord
280
     1
270
     1
271
     1
  0
XRECORD
  5
288D
102
{ACAD_REACTORS
330
288C
102
}
330
288C
100
AcDbXrecord
280
     1
270
     1
271
     1
  0
XRECORD
  5
2891
102
{ACAD_REACTORS
330
288C
102
}
330
288C
100
AcDbXrecord
280
     1
270
     1
271
     1
  0
XRECORD
  5
2890
102
{ACAD_REACTORS
330
288C
102
}
330
288C
100
AcDbXrecord
280
     1
270
     1
271
     1
  0
XRECORD
  5
2892
102
{ACAD_REACTORS
330
288C
102
}
330
288C
100
AcDbXrecord
280
     1
270
     1
271
     1
  0
XRECORD
  5
288F
102
{ACAD_REACTORS
330
288C
102
}
330
288C
100
AcDbXrecord
280
     1
270
     1
271
     1
  0
XRECORD
  5
289E
102
{ACAD_REACTORS
330
289C
102
}
330
289C
100
AcDbXrecord
280
     1
270
     1
271
     1
  0
XRECORD
  5
289D
102
{ACAD_REACTORS
330
289C
102
}
330
289C
100
AcDbXrecord
280
     1
270
     1
271
     1
  0
XRECORD
  5
28A1
102
{ACAD_REACTORS
330
289C
102
}
330
289C
100
AcDbXrecord
280
     1
270
     1
271
     1
  0
XRECORD
  5
28A0
102
{ACAD_REACTORS
330
289C
102
}
330
289C
100
AcDbXrecord
280
     1
270
     1
271
     1
  0
XRECORD
  5
28A2
102
{ACAD_REACTORS
330
289C
102
}
330
289C
100
AcDbXrecord
280
     1
270
     1
271
     1
  0
XRECORD
  5
289F
102
{ACAD_REACTORS
330
289C
102
}
330
289C
100
AcDbXrecord
280
     1
270
     1
271
     1
  0
XRECORD
  5
297C
102
{ACAD_REACTORS
330
297B
102
}
330
297B
100
AcDbXrecord
280
     1
102
ACAD_ROUNDTRIP_2012_MLEADER_STYLE
298
     1
  0
XRECORD
  5
297E
102
{ACAD_REACTORS
330
297D
102
}
330
297D
100
AcDbXrecord
280
     1
102
DISPLAYNAME
  1
Metric50
102
FLAGS
 90
        0
  0
CELLSTYLEMAP
  5
2941
102
{ACAD_REACTORS
330
2940
102
}
330
2940
100
AcDbCellStyleMap
 90
        3
300
CELLSTYLE
  1
TABLEFORMAT_BEGIN
 90
        5
170
     1
 91
        0
 92
    32768
 62
   257
 93
        1
300
CONTENTFORMAT
  1
CONTENTFORMAT_BEGIN
 90
        0
 91
        0
 92
        4
 93
        0
300

 40
0.0
140
1.0
 94
        5
 62
     0
340
11
144
6.0
309
CONTENTFORMAT_END
171
     1
301
MARGIN
  1
CELLMARGIN_BEGIN
 40
1.5
 40
1.5
 40
1.5
 40
1.5
 40
0.18
 40
0.18
309
CELLMARGIN_END
 94
        6
 95
        1
302
GRIDFORMAT
  1
GRIDFORMAT_BEGIN
 90
        0
 91
        1
 62
     0
 92
       -2
340
0
 93
        0
 40
0.045
309
GRIDFORMAT_END
 95
        2
302
GRIDFORMAT
  1
GRIDFORMAT_BEGIN
 90
        0
 91
        1
 62
     0
 92
       -2
340
0
 93
        0
 40
0.045
309
GRIDFORMAT_END
 95
        4
302
GRIDFORMAT
  1
GRIDFORMAT_BEGIN
 90
        0
 91
        1
 62
     0
 92
       -2
340
0
 93
        0
 40
0.045
309
GRIDFORMAT_END
 95
        8
302
GRIDFORMAT
  1
GRIDFORMAT_BEGIN
 90
        0
 91
        1
 62
     0
 92
       -2
340
0
 93
        0
 40
0.045
309
GRIDFORMAT_END
 95
       16
302
GRIDFORMAT
  1
GRIDFORMAT_BEGIN
 90
        0
 91
        1
 62
     0
 92
       -2
340
0
 93
        0
 40
0.045
309
GRIDFORMAT_END
 95
       32
302
GRIDFORMAT
  1
GRIDFORMAT_BEGIN
 90
        0
 91
        1
 62
     0
 92
       -2
340
0
 93
        0
 40
0.045
309
GRIDFORMAT_END
309
TABLEFORMAT_END
  1
CELLSTYLE_BEGIN
 90
        1
 91
        1
300
_TITLE
309
CELLSTYLE_END
300
CELLSTYLE
  1
TABLEFORMAT_BEGIN
 90
        5
170
     1
 91
        0
 92
        0
 62
   257
 93
        1
300
CONTENTFORMAT
  1
CONTENTFORMAT_BEGIN
 90
        0
 91
        0
 92
        4
 93
        0
300

 40
0.0
140
1.0
 94
        5
 62
     0
340
11
144
4.5
309
CONTENTFORMAT_END
171
     1
301
MARGIN
  1
CELLMARGIN_BEGIN
 40
1.5
 40
1.5
 40
1.5
 40
1.5
 40
0.18
 40
0.18
309
CELLMARGIN_END
 94
        6
 95
        1
302
GRIDFORMAT
  1
GRIDFORMAT_BEGIN
 90
        0
 91
        1
 62
     0
 92
       -2
340
0
 93
        0
 40
0.045
309
GRIDFORMAT_END
 95
        2
302
GRIDFORMAT
  1
GRIDFORMAT_BEGIN
 90
        0
 91
        1
 62
     0
 92
       -2
340
0
 93
        0
 40
0.045
309
GRIDFORMAT_END
 95
        4
302
GRIDFORMAT
  1
GRIDFORMAT_BEGIN
 90
        0
 91
        1
 62
     0
 92
       -2
340
0
 93
        0
 40
0.045
309
GRIDFORMAT_END
 95
        8
302
GRIDFORMAT
  1
GRIDFORMAT_BEGIN
 90
        0
 91
        1
 62
     0
 92
       -2
340
0
 93
        0
 40
0.045
309
GRIDFORMAT_END
 95
       16
302
GRIDFORMAT
  1
GRIDFORMAT_BEGIN
 90
        0
 91
        1
 62
     0
 92
       -2
340
0
 93
        0
 40
0.045
309
GRIDFORMAT_END
 95
       32
302
GRIDFORMAT
  1
GRIDFORMAT_BEGIN
 90
        0
 91
        1
 62
     0
 92
       -2
340
0
 93
        0
 40
0.045
309
GRIDFORMAT_END
309
TABLEFORMAT_END
  1
CELLSTYLE_BEGIN
 90
        2
 91
        1
300
_HEADER
309
CELLSTYLE_END
300
CELLSTYLE
  1
TABLEFORMAT_BEGIN
 90
        5
170
     1
 91
        0
 92
        0
 62
   257
 93
        1
300
CONTENTFORMAT
  1
CONTENTFORMAT_BEGIN
 90
        0
 91
        0
 92
        4
 93
        0
300

 40
0.0
140
1.0
 94
        2
 62
     0
340
11
144
4.5
309
CONTENTFORMAT_END
171
     1
301
MARGIN
  1
CELLMARGIN_BEGIN
 40
1.5
 40
1.5
 40
1.5
 40
1.5
 40
0.18
 40
0.18
309
CELLMARGIN_END
 94
        6
 95
        1
302
GRIDFORMAT
  1
GRIDFORMAT_BEGIN
 90
        0
 91
        1
 62
     0
 92
       -2
340
0
 93
        0
 40
0.045
309
GRIDFORMAT_END
 95
        2
302
GRIDFORMAT
  1
GRIDFORMAT_BEGIN
 90
        0
 91
        1
 62
     0
 92
       -2
340
0
 93
        0
 40
0.045
309
GRIDFORMAT_END
 95
        4
302
GRIDFORMAT
  1
GRIDFORMAT_BEGIN
 90
        0
 91
        1
 62
     0
 92
       -2
340
0
 93
        0
 40
0.045
309
GRIDFORMAT_END
 95
        8
302
GRIDFORMAT
  1
GRIDFORMAT_BEGIN
 90
        0
 91
        1
 62
     0
 92
       -2
340
0
 93
        0
 40
0.045
309
GRIDFORMAT_END
 95
       16
302
GRIDFORMAT
  1
GRIDFORMAT_BEGIN
 90
        0
 91
        1
 62
     0
 92
       -2
340
0
 93
        0
 40
0.045
309
GRIDFORMAT_END
 95
       32
302
GRIDFORMAT
  1
GRIDFORMAT_BEGIN
 90
        0
 91
        1
 62
     0
 92
       -2
340
0
 93
        0
 40
0.045
309
GRIDFORMAT_END
309
TABLEFORMAT_END
  1
CELLSTYLE_BEGIN
 90
        3
 91
        2
300
_DATA
309
CELLSTYLE_END
  0
XRECORD
  5
2956
102
{ACAD_REACTORS
330
2955
102
}
330
2955
100
AcDbXrecord
280
     1
102
RTVSPost2010Prop28
280
     1
102
RTVSPost2010PropOp28
 70
     1
102
RTVSPost2010Prop29
280
     1
102
RTVSPost2010PropOp29
 70
     1
102
RTVSPost2010Prop30
280
     0
102
RTVSPost2010PropOp30
 70
     1
102
RTVSPost2010Prop31
280
     0
102
RTVSPost2010PropOp31
 70
     1
102
RTVSPost2010Prop32
280
     0
102
RTVSPost2010PropOp32
 70
     1
102
RTVSPost2010Prop33
280
     0
102
RTVSPost2010PropOp33
 70
     1
102
RTVSPost2010Prop34
280
     0
102
RTVSPost2010PropOp34
 70
     1
102
RTVSPost2010Prop35
280
     0
102
RTVSPost2010PropOp35
 70
     1
102
RTVSPost2010Prop36
280
     0
102
RTVSPost2010PropOp36
 70
     1
102
RTVSPost2010Prop37
 90
       50
102
RTVSPost2010PropOp37
 70
     1
102
RTVSPost2010Prop38
140
0.0
102
RTVSPost2010PropOp38
 70
     1
102
RTVSPost2010Prop39
140
1.0
102
RTVSPost2010PropOp39
 70
     1
102
RTVSPost2010Prop40
 90
        0
102
RTVSPost2010PropOp40
 70
     1
102
RTVSPost2010Prop41ColorIndex
 90
       18
102
RTVSPost2010Prop41ColorRGB
 90
        0
102
RTVSPost2010PropOp41
 70
     1
102
RTVSPost2010Prop42
 90
       50
102
RTVSPost2010PropOp42
 70
     1
102
RTVSPost2010Prop43
 90
        3
102
RTVSPost2010PropOp43
 70
     1
102
RTVSPost2010Prop44ColorIndex
 90
        5
102
RTVSPost2010Prop44ColorRGB
 90
      255
102
RTVSPost2010PropOp44
 70
     1
102
RTVSPost2010Prop45
280
     0
102
RTVSPost2010PropOp45
 70
     1
102
RTVSPost2010Prop46
 90
       50
102
RTVSPost2010PropOp46
 70
     1
102
RTVSPost2010Prop47
 90
       50
102
RTVSPost2010PropOp47
 70
     1
102
RTVSPost2010Prop48
 90
       50
102
RTVSPost2010PropOp48
 70
     1
102
RTVSPost2010Prop49
280
     0
102
RTVSPost2010PropOp49
 70
     1
102
RTVSPost2010Prop50
 90
       50
102
RTVSPost2010PropOp50
 70
     1
102
RTVSPost2010Prop51ColorIndex
 90
      256
102
RTVSPost2010Prop51ColorRGB
 90
-16777216
102
RTVSPost2010PropOp51
 70
     0
102
RTVSPost2010Prop52
140
1.0
102
RTVSPost2010PropOp52
 70
     0
102
RTVSPost2010Prop53
 90
        2
102
RTVSPost2010PropOp53
 70
     1
102
RTVSPost2010Prop54
  1
strokes_ogs.tif
102
RTVSPost2010PropOp54
 70
     1
102
RTVSPost2010Prop55
280
     0
102
RTVSPost2010PropOp55
 70
     1
102
RTVSPost2010Prop56
140
1.0
102
RTVSPost2010PropOp56
 70
     1
102
RTVSPost2010Prop57
140
1.0
102
RTVSPost2010PropOp57
 70
     1
  0
XRECORD
  5
2954
102
{ACAD_REACTORS
330
2953
102
}
330
2953
100
AcDbXrecord
280
     1
102
RTVSPost2010Prop28
280
     0
102
RTVSPost2010PropOp28
 70
     1
102
RTVSPost2010Prop29
280
     1
102
RTVSPost2010PropOp29
 70
     1
102
RTVSPost2010Prop30
280
     1
102
RTVSPost2010PropOp30
 70
     1
102
RTVSPost2010Prop31
280
     0
102
RTVSPost2010PropOp31
 70
     1
102
RTVSPost2010Prop32
280
     0
102
RTVSPost2010PropOp32
 70
     1
102
RTVSPost2010Prop33
280
     0
102
RTVSPost2010PropOp33
 70
     1
102
RTVSPost2010Prop34
280
     0
102
RTVSPost2010PropOp34
 70
     1
102
RTVSPost2010Prop35
280
     0
102
RTVSPost2010PropOp35
 70
     1
102
RTVSPost2010Prop36
280
     0
102
RTVSPost2010PropOp36
 70
     1
102
RTVSPost2010Prop37
 90
       50
102
RTVSPost2010PropOp37
 70
     1
102
RTVSPost2010Prop38
140
0.0
102
RTVSPost2010PropOp38
 70
     1
102
RTVSPost2010Prop39
140
1.0
102
RTVSPost2010PropOp39
 70
     1
102
RTVSPost2010Prop40
 90
        0
102
RTVSPost2010PropOp40
 70
     1
102
RTVSPost2010Prop41ColorIndex
 90
       18
102
RTVSPost2010Prop41ColorRGB
 90
        0
102
RTVSPost2010PropOp41
 70
     1
102
RTVSPost2010Prop42
 90
       50
102
RTVSPost2010PropOp42
 70
     1
102
RTVSPost2010Prop43
 90
        3
102
RTVSPost2010PropOp43
 70
     1
102
RTVSPost2010Prop44ColorIndex
 90
        5
102
RTVSPost2010Prop44ColorRGB
 90
      255
102
RTVSPost2010PropOp44
 70
     1
102
RTVSPost2010Prop45
280
     0
102
RTVSPost2010PropOp45
 70
     1
102
RTVSPost2010Prop46
 90
       50
102
RTVSPost2010PropOp46
 70
     1
102
RTVSPost2010Prop47
 90
       50
102
RTVSPost2010PropOp47
 70
     1
102
RTVSPost2010Prop48
 90
       50
102
RTVSPost2010PropOp48
 70
     1
102
RTVSPost2010Prop49
280
     0
102
RTVSPost2010PropOp49
 70
     1
102
RTVSPost2010Prop50
 90
       50
102
RTVSPost2010PropOp50
 70
     1
102
RTVSPost2010Prop51ColorIndex
 90
      256
102
RTVSPost2010Prop51ColorRGB
 90
-16777216
102
RTVSPost2010PropOp51
 70
     0
102
RTVSPost2010Prop52
140
1.0
102
RTVSPost2010PropOp52
 70
     0
102
RTVSPost2010Prop53
 90
        2
102
RTVSPost2010PropOp53
 70
     1
102
RTVSPost2010Prop54
  1
strokes_ogs.tif
102
RTVSPost2010PropOp54
 70
     1
102
RTVSPost2010Prop55
280
     0
102
RTVSPost2010PropOp55
 70
     1
102
RTVSPost2010Prop56
140
1.0
102
RTVSPost2010PropOp56
 70
     1
102
RTVSPost2010Prop57
140
1.0
102
RTVSPost2010PropOp57
 70
     1
  0
XRECORD
  5
2962
102
{ACAD_REACTORS
330
2961
102
}
330
2961
100
AcDbXrecord
280
     1
102
RTVSPost2010Prop28
280
     0
102
RTVSPost2010PropOp28
 70
     1
102
RTVSPost2010Prop29
280
     1
102
RTVSPost2010PropOp29
 70
     1
102
RTVSPost2010Prop30
280
     1
102
RTVSPost2010PropOp30
 70
     1
102
RTVSPost2010Prop31
280
     0
102
RTVSPost2010PropOp31
 70
     1
102
RTVSPost2010Prop32
280
     0
102
RTVSPost2010PropOp32
 70
     1
102
RTVSPost2010Prop33
280
     0
102
RTVSPost2010PropOp33
 70
     1
102
RTVSPost2010Prop34
280
     0
102
RTVSPost2010PropOp34
 70
     1
102
RTVSPost2010Prop35
280
     0
102
RTVSPost2010PropOp35
 70
     1
102
RTVSPost2010Prop36
280
     0
102
RTVSPost2010PropOp36
 70
     1
102
RTVSPost2010Prop37
 90
       50
102
RTVSPost2010PropOp37
 70
     1
102
RTVSPost2010Prop38
140
0.0
102
RTVSPost2010PropOp38
 70
     1
102
RTVSPost2010Prop39
140
1.0
102
RTVSPost2010PropOp39
 70
     1
102
RTVSPost2010Prop40
 90
        0
102
RTVSPost2010PropOp40
 70
     1
102
RTVSPost2010Prop41ColorIndex
 90
       18
102
RTVSPost2010Prop41ColorRGB
 90
        0
102
RTVSPost2010PropOp41
 70
     1
102
RTVSPost2010Prop42
 90
       50
102
RTVSPost2010PropOp42
 70
     1
102
RTVSPost2010Prop43
 90
        3
102
RTVSPost2010PropOp43
 70
     1
102
RTVSPost2010Prop44ColorIndex
 90
        5
102
RTVSPost2010Prop44ColorRGB
 90
      255
102
RTVSPost2010PropOp44
 70
     1
102
RTVSPost2010Prop45
280
     0
102
RTVSPost2010PropOp45
 70
     1
102
RTVSPost2010Prop46
 90
       50
102
RTVSPost2010PropOp46
 70
     1
102
RTVSPost2010Prop47
 90
       50
102
RTVSPost2010PropOp47
 70
     1
102
RTVSPost2010Prop48
 90
       50
102
RTVSPost2010PropOp48
 70
     1
102
RTVSPost2010Prop49
280
     0
102
RTVSPost2010PropOp49
 70
     1
102
RTVSPost2010Prop50
 90
       50
102
RTVSPost2010PropOp50
 70
     1
102
RTVSPost2010Prop51ColorIndex
 90
      256
102
RTVSPost2010Prop51ColorRGB
 90
-16777216
102
RTVSPost2010PropOp51
 70
     0
102
RTVSPost2010Prop52
140
1.0
102
RTVSPost2010PropOp52
 70
     0
102
RTVSPost2010Prop53
 90
        2
102
RTVSPost2010PropOp53
 70
     1
102
RTVSPost2010Prop54
  1
strokes_ogs.tif
102
RTVSPost2010PropOp54
 70
     1
102
RTVSPost2010Prop55
280
     0
102
RTVSPost2010PropOp55
 70
     1
102
RTVSPost2010Prop56
140
1.0
102
RTVSPost2010PropOp56
 70
     1
102
RTVSPost2010Prop57
140
1.0
102
RTVSPost2010PropOp57
 70
     1
  0
XRECORD
  5
296A
102
{ACAD_REACTORS
330
2969
102
}
330
2969
100
AcDbXrecord
280
     1
102
RTVSPost2010Prop28
280
     0
102
RTVSPost2010PropOp28
 70
     1
102
RTVSPost2010Prop29
280
     1
102
RTVSPost2010PropOp29
 70
     1
102
RTVSPost2010Prop30
280
     1
102
RTVSPost2010PropOp30
 70
     1
102
RTVSPost2010Prop31
280
     0
102
RTVSPost2010PropOp31
 70
     1
102
RTVSPost2010Prop32
280
     0
102
RTVSPost2010PropOp32
 70
     1
102
RTVSPost2010Prop33
280
     0
102
RTVSPost2010PropOp33
 70
     1
102
RTVSPost2010Prop34
280
     0
102
RTVSPost2010PropOp34
 70
     1
102
RTVSPost2010Prop35
280
     0
102
RTVSPost2010PropOp35
 70
     1
102
RTVSPost2010Prop36
280
     0
102
RTVSPost2010PropOp36
 70
     1
102
RTVSPost2010Prop37
 90
       50
102
RTVSPost2010PropOp37
 70
     1
102
RTVSPost2010Prop38
140
0.0
102
RTVSPost2010PropOp38
 70
     1
102
RTVSPost2010Prop39
140
1.0
102
RTVSPost2010PropOp39
 70
     1
102
RTVSPost2010Prop40
 90
        0
102
RTVSPost2010PropOp40
 70
     1
102
RTVSPost2010Prop41ColorIndex
 90
       18
102
RTVSPost2010Prop41ColorRGB
 90
        0
102
RTVSPost2010PropOp41
 70
     1
102
RTVSPost2010Prop42
 90
       50
102
RTVSPost2010PropOp42
 70
     1
102
RTVSPost2010Prop43
 90
        3
102
RTVSPost2010PropOp43
 70
     1
102
RTVSPost2010Prop44ColorIndex
 90
        5
102
RTVSPost2010Prop44ColorRGB
 90
      255
102
RTVSPost2010PropOp44
 70
     1
102
RTVSPost2010Prop45
280
     0
102
RTVSPost2010PropOp45
 70
     1
102
RTVSPost2010Prop46
 90
       50
102
RTVSPost2010PropOp46
 70
     1
102
RTVSPost2010Prop47
 90
       50
102
RTVSPost2010PropOp47
 70
     1
102
RTVSPost2010Prop48
 90
       50
102
RTVSPost2010PropOp48
 70
     1
102
RTVSPost2010Prop49
280
     0
102
RTVSPost2010PropOp49
 70
     1
102
RTVSPost2010Prop50
 90
       50
102
RTVSPost2010PropOp50
 70
     1
102
RTVSPost2010Prop51ColorIndex
 90
      256
102
RTVSPost2010Prop51ColorRGB
 90
-16777216
102
RTVSPost2010PropOp51
 70
     0
102
RTVSPost2010Prop52
140
1.0
102
RTVSPost2010PropOp52
 70
     0
102
RTVSPost2010Prop53
 90
        2
102
RTVSPost2010PropOp53
 70
     1
102
RTVSPost2010Prop54
  1
strokes_ogs.tif
102
RTVSPost2010PropOp54
 70
     1
102
RTVSPost2010Prop55
280
     0
102
RTVSPost2010PropOp55
 70
     1
102
RTVSPost2010Prop56
140
1.0
102
RTVSPost2010PropOp56
 70
     1
102
RTVSPost2010Prop57
140
1.0
102
RTVSPost2010PropOp57
 70
     1
  0
XRECORD
  5
295C
102
{ACAD_REACTORS
330
295B
102
}
330
295B
100
AcDbXrecord
280
     1
102
RTVSPost2010Prop28
280
     0
102
RTVSPost2010PropOp28
 70
     1
102
RTVSPost2010Prop29
280
     1
102
RTVSPost2010PropOp29
 70
     1
102
RTVSPost2010Prop30
280
     1
102
RTVSPost2010PropOp30
 70
     1
102
RTVSPost2010Prop31
280
     0
102
RTVSPost2010PropOp31
 70
     1
102
RTVSPost2010Prop32
280
     0
102
RTVSPost2010PropOp32
 70
     1
102
RTVSPost2010Prop33
280
     0
102
RTVSPost2010PropOp33
 70
     1
102
RTVSPost2010Prop34
280
     0
102
RTVSPost2010PropOp34
 70
     1
102
RTVSPost2010Prop35
280
     0
102
RTVSPost2010PropOp35
 70
     1
102
RTVSPost2010Prop36
280
     0
102
RTVSPost2010PropOp36
 70
     1
102
RTVSPost2010Prop37
 90
       50
102
RTVSPost2010PropOp37
 70
     1
102
RTVSPost2010Prop38
140
0.0
102
RTVSPost2010PropOp38
 70
     1
102
RTVSPost2010Prop39
140
1.0
102
RTVSPost2010PropOp39
 70
     1
102
RTVSPost2010Prop40
 90
        0
102
RTVSPost2010PropOp40
 70
     1
102
RTVSPost2010Prop41ColorIndex
 90
       18
102
RTVSPost2010Prop41ColorRGB
 90
        0
102
RTVSPost2010PropOp41
 70
     1
102
RTVSPost2010Prop42
 90
       50
102
RTVSPost2010PropOp42
 70
     1
102
RTVSPost2010Prop43
 90
        3
102
RTVSPost2010PropOp43
 70
     1
102
RTVSPost2010Prop44ColorIndex
 90
        5
102
RTVSPost2010Prop44ColorRGB
 90
      255
102
RTVSPost2010PropOp44
 70
     1
102
RTVSPost2010Prop45
280
     0
102
RTVSPost2010PropOp45
 70
     1
102
RTVSPost2010Prop46
 90
       50
102
RTVSPost2010PropOp46
 70
     1
102
RTVSPost2010Prop47
 90
       50
102
RTVSPost2010PropOp47
 70
     1
102
RTVSPost2010Prop48
 90
       50
102
RTVSPost2010PropOp48
 70
     1
102
RTVSPost2010Prop49
280
     0
102
RTVSPost2010PropOp49
 70
     1
102
RTVSPost2010Prop50
 90
       50
102
RTVSPost2010PropOp50
 70
     1
102
RTVSPost2010Prop51ColorIndex
 90
      256
102
RTVSPost2010Prop51ColorRGB
 90
-16777216
102
RTVSPost2010PropOp51
 70
     0
102
RTVSPost2010Prop52
140
1.0
102
RTVSPost2010PropOp52
 70
     0
102
RTVSPost2010Prop53
 90
        2
102
RTVSPost2010PropOp53
 70
     1
102
RTVSPost2010Prop54
  1
strokes_ogs.tif
102
RTVSPost2010PropOp54
 70
     1
102
RTVSPost2010Prop55
280
     0
102
RTVSPost2010PropOp55
 70
     1
102
RTVSPost2010Prop56
140
1.0
102
RTVSPost2010PropOp56
 70
     1
102
RTVSPost2010Prop57
140
1.0
102
RTVSPost2010PropOp57
 70
     1
  0
XRECORD
  5
2960
102
{ACAD_REACTORS
330
295F
102
}
330
295F
100
AcDbXrecord
280
     1
102
RTVSPost2010Prop28
280
     0
102
RTVSPost2010PropOp28
 70
     1
102
RTVSPost2010Prop29
280
     1
102
RTVSPost2010PropOp29
 70
     1
102
RTVSPost2010Prop30
280
     1
102
RTVSPost2010PropOp30
 70
     1
102
RTVSPost2010Prop31
280
     0
102
RTVSPost2010PropOp31
 70
     1
102
RTVSPost2010Prop32
280
     0
102
RTVSPost2010PropOp32
 70
     1
102
RTVSPost2010Prop33
280
     0
102
RTVSPost2010PropOp33
 70
     1
102
RTVSPost2010Prop34
280
     0
102
RTVSPost2010PropOp34
 70
     1
102
RTVSPost2010Prop35
280
     0
102
RTVSPost2010PropOp35
 70
     1
102
RTVSPost2010Prop36
280
     0
102
RTVSPost2010PropOp36
 70
     1
102
RTVSPost2010Prop37
 90
       50
102
RTVSPost2010PropOp37
 70
     1
102
RTVSPost2010Prop38
140
0.0
102
RTVSPost2010PropOp38
 70
     1
102
RTVSPost2010Prop39
140
1.0
102
RTVSPost2010PropOp39
 70
     1
102
RTVSPost2010Prop40
 90
        0
102
RTVSPost2010PropOp40
 70
     1
102
RTVSPost2010Prop41ColorIndex
 90
       18
102
RTVSPost2010Prop41ColorRGB
 90
        0
102
RTVSPost2010PropOp41
 70
     1
102
RTVSPost2010Prop42
 90
       50
102
RTVSPost2010PropOp42
 70
     1
102
RTVSPost2010Prop43
 90
        3
102
RTVSPost2010PropOp43
 70
     1
102
RTVSPost2010Prop44ColorIndex
 90
        5
102
RTVSPost2010Prop44ColorRGB
 90
      255
102
RTVSPost2010PropOp44
 70
     1
102
RTVSPost2010Prop45
280
     0
102
RTVSPost2010PropOp45
 70
     1
102
RTVSPost2010Prop46
 90
       50
102
RTVSPost2010PropOp46
 70
     1
102
RTVSPost2010Prop47
 90
       50
102
RTVSPost2010PropOp47
 70
     1
102
RTVSPost2010Prop48
 90
       50
102
RTVSPost2010PropOp48
 70
     1
102
RTVSPost2010Prop49
280
     0
102
RTVSPost2010PropOp49
 70
     1
102
RTVSPost2010Prop50
 90
       50
102
RTVSPost2010PropOp50
 70
     1
102
RTVSPost2010Prop51ColorIndex
 90
      256
102
RTVSPost2010Prop51ColorRGB
 90
-16777216
102
RTVSPost2010PropOp51
 70
     0
102
RTVSPost2010Prop52
140
1.0
102
RTVSPost2010PropOp52
 70
     0
102
RTVSPost2010Prop53
 90
        2
102
RTVSPost2010PropOp53
 70
     1
102
RTVSPost2010Prop54
  1
strokes_ogs.tif
102
RTVSPost2010PropOp54
 70
     1
102
RTVSPost2010Prop55
280
     0
102
RTVSPost2010PropOp55
 70
     1
102
RTVSPost2010Prop56
140
1.0
102
RTVSPost2010PropOp56
 70
     1
102
RTVSPost2010Prop57
140
1.0
102
RTVSPost2010PropOp57
 70
     1
  0
XRECORD
  5
297A
102
{ACAD_REACTORS
330
2979
102
}
330
2979
100
AcDbXrecord
280
     1
102
RTVSPost2010Prop28
280
     0
102
RTVSPost2010PropOp28
 70
     0
102
RTVSPost2010Prop29
280
     1
102
RTVSPost2010PropOp29
 70
     0
102
RTVSPost2010Prop30
280
     1
102
RTVSPost2010PropOp30
 70
     0
102
RTVSPost2010Prop31
280
     0
102
RTVSPost2010PropOp31
 70
     0
102
RTVSPost2010Prop32
280
     0
102
RTVSPost2010PropOp32
 70
     0
102
RTVSPost2010Prop33
280
     0
102
RTVSPost2010PropOp33
 70
     0
102
RTVSPost2010Prop34
280
     0
102
RTVSPost2010PropOp34
 70
     0
102
RTVSPost2010Prop35
280
     0
102
RTVSPost2010PropOp35
 70
     0
102
RTVSPost2010Prop36
280
     0
102
RTVSPost2010PropOp36
 70
     0
102
RTVSPost2010Prop37
 90
       50
102
RTVSPost2010PropOp37
 70
     0
102
RTVSPost2010Prop38
140
0.0
102
RTVSPost2010PropOp38
 70
     0
102
RTVSPost2010Prop39
140
1.0
102
RTVSPost2010PropOp39
 70
     0
102
RTVSPost2010Prop40
 90
        0
102
RTVSPost2010PropOp40
 70
     0
102
RTVSPost2010Prop41ColorIndex
 90
       18
102
RTVSPost2010Prop41ColorRGB
 90
        0
102
RTVSPost2010PropOp41
 70
     0
102
RTVSPost2010Prop42
 90
       50
102
RTVSPost2010PropOp42
 70
     0
102
RTVSPost2010Prop43
 90
        3
102
RTVSPost2010PropOp43
 70
     0
102
RTVSPost2010Prop44ColorIndex
 90
        5
102
RTVSPost2010Prop44ColorRGB
 90
      255
102
RTVSPost2010PropOp44
 70
     0
102
RTVSPost2010Prop45
280
     0
102
RTVSPost2010PropOp45
 70
     0
102
RTVSPost2010Prop46
 90
       50
102
RTVSPost2010PropOp46
 70
     0
102
RTVSPost2010Prop47
 90
       50
102
RTVSPost2010PropOp47
 70
     0
102
RTVSPost2010Prop48
 90
       50
102
RTVSPost2010PropOp48
 70
     0
102
RTVSPost2010Prop49
280
     0
102
RTVSPost2010PropOp49
 70
     0
102
RTVSPost2010Prop50
 90
       50
102
RTVSPost2010PropOp50
 70
     0
102
RTVSPost2010Prop51ColorIndex
 90
      256
102
RTVSPost2010Prop51ColorRGB
 90
-16777216
102
RTVSPost2010PropOp51
 70
     0
102
RTVSPost2010Prop52
140
1.0
102
RTVSPost2010PropOp52
 70
     0
102
RTVSPost2010Prop53
 90
        2
102
RTVSPost2010PropOp53
 70
     0
102
RTVSPost2010Prop54
  1
strokes_ogs.tif
102
RTVSPost2010PropOp54
 70
     0
102
RTVSPost2010Prop55
280
     0
102
RTVSPost2010PropOp55
 70
     0
102
RTVSPost2010Prop56
140
1.0
102
RTVSPost2010PropOp56
 70
     0
102
RTVSPost2010Prop57
140
1.0
102
RTVSPost2010PropOp57
 70
     0
  0
XRECORD
  5
2968
102
{ACAD_REACTORS
330
2967
102
}
330
2967
100
AcDbXrecord
280
     1
102
RTVSPost2010Prop28
280
     0
102
RTVSPost2010PropOp28
 70
     1
102
RTVSPost2010Prop29
280
     1
102
RTVSPost2010PropOp29
 70
     1
102
RTVSPost2010Prop30
280
     1
102
RTVSPost2010PropOp30
 70
     1
102
RTVSPost2010Prop31
280
     0
102
RTVSPost2010PropOp31
 70
     1
102
RTVSPost2010Prop32
280
     0
102
RTVSPost2010PropOp32
 70
     1
102
RTVSPost2010Prop33
280
     0
102
RTVSPost2010PropOp33
 70
     1
102
RTVSPost2010Prop34
280
     0
102
RTVSPost2010PropOp34
 70
     1
102
RTVSPost2010Prop35
280
     0
102
RTVSPost2010PropOp35
 70
     1
102
RTVSPost2010Prop36
280
     0
102
RTVSPost2010PropOp36
 70
     1
102
RTVSPost2010Prop37
 90
       50
102
RTVSPost2010PropOp37
 70
     1
102
RTVSPost2010Prop38
140
0.0
102
RTVSPost2010PropOp38
 70
     1
102
RTVSPost2010Prop39
140
1.0
102
RTVSPost2010PropOp39
 70
     1
102
RTVSPost2010Prop40
 90
        0
102
RTVSPost2010PropOp40
 70
     1
102
RTVSPost2010Prop41ColorIndex
 90
       18
102
RTVSPost2010Prop41ColorRGB
 90
        0
102
RTVSPost2010PropOp41
 70
     1
102
RTVSPost2010Prop42
 90
       50
102
RTVSPost2010PropOp42
 70
     1
102
RTVSPost2010Prop43
 90
        3
102
RTVSPost2010PropOp43
 70
     1
102
RTVSPost2010Prop44ColorIndex
 90
        5
102
RTVSPost2010Prop44ColorRGB
 90
      255
102
RTVSPost2010PropOp44
 70
     1
102
RTVSPost2010Prop45
280
     0
102
RTVSPost2010PropOp45
 70
     1
102
RTVSPost2010Prop46
 90
       50
102
RTVSPost2010PropOp46
 70
     1
102
RTVSPost2010Prop47
 90
       50
102
RTVSPost2010PropOp47
 70
     1
102
RTVSPost2010Prop48
 90
       50
102
RTVSPost2010PropOp48
 70
     1
102
RTVSPost2010Prop49
280
     0
102
RTVSPost2010PropOp49
 70
     1
102
RTVSPost2010Prop50
 90
       50
102
RTVSPost2010PropOp50
 70
     1
102
RTVSPost2010Prop51ColorIndex
 90
      256
102
RTVSPost2010Prop51ColorRGB
 90
-16777216
102
RTVSPost2010PropOp51
 70
     0
102
RTVSPost2010Prop52
140
1.0
102
RTVSPost2010PropOp52
 70
     0
102
RTVSPost2010Prop53
 90
        2
102
RTVSPost2010PropOp53
 70
     1
102
RTVSPost2010Prop54
  1
strokes_ogs.tif
102
RTVSPost2010PropOp54
 70
     1
102
RTVSPost2010Prop55
280
     0
102
RTVSPost2010PropOp55
 70
     1
102
RTVSPost2010Prop56
140
1.0
102
RTVSPost2010PropOp56
 70
     1
102
RTVSPost2010Prop57
140
1.0
102
RTVSPost2010PropOp57
 70
     1
  0
XRECORD
  5
294C
102
{ACAD_REACTORS
330
294B
102
}
330
294B
100
AcDbXrecord
280
     1
102
RTVSPost2010Prop28
280
     0
102
RTVSPost2010PropOp28
 70
     1
102
RTVSPost2010Prop29
280
     1
102
RTVSPost2010PropOp29
 70
     1
102
RTVSPost2010Prop30
280
     1
102
RTVSPost2010PropOp30
 70
     1
102
RTVSPost2010Prop31
280
     0
102
RTVSPost2010PropOp31
 70
     1
102
RTVSPost2010Prop32
280
     0
102
RTVSPost2010PropOp32
 70
     1
102
RTVSPost2010Prop33
280
     0
102
RTVSPost2010PropOp33
 70
     1
102
RTVSPost2010Prop34
280
     0
102
RTVSPost2010PropOp34
 70
     1
102
RTVSPost2010Prop35
280
     0
102
RTVSPost2010PropOp35
 70
     1
102
RTVSPost2010Prop36
280
     0
102
RTVSPost2010PropOp36
 70
     1
102
RTVSPost2010Prop37
 90
       50
102
RTVSPost2010PropOp37
 70
     1
102
RTVSPost2010Prop38
140
0.0
102
RTVSPost2010PropOp38
 70
     1
102
RTVSPost2010Prop39
140
1.0
102
RTVSPost2010PropOp39
 70
     1
102
RTVSPost2010Prop40
 90
        0
102
RTVSPost2010PropOp40
 70
     1
102
RTVSPost2010Prop41ColorIndex
 90
       18
102
RTVSPost2010Prop41ColorRGB
 90
        0
102
RTVSPost2010PropOp41
 70
     1
102
RTVSPost2010Prop42
 90
       50
102
RTVSPost2010PropOp42
 70
     1
102
RTVSPost2010Prop43
 90
        3
102
RTVSPost2010PropOp43
 70
     1
102
RTVSPost2010Prop44ColorIndex
 90
        5
102
RTVSPost2010Prop44ColorRGB
 90
      255
102
RTVSPost2010PropOp44
 70
     1
102
RTVSPost2010Prop45
280
     0
102
RTVSPost2010PropOp45
 70
     1
102
RTVSPost2010Prop46
 90
       50
102
RTVSPost2010PropOp46
 70
     1
102
RTVSPost2010Prop47
 90
       50
102
RTVSPost2010PropOp47
 70
     1
102
RTVSPost2010Prop48
 90
       50
102
RTVSPost2010PropOp48
 70
     1
102
RTVSPost2010Prop49
280
     0
102
RTVSPost2010PropOp49
 70
     1
102
RTVSPost2010Prop50
 90
       50
102
RTVSPost2010PropOp50
 70
     1
102
RTVSPost2010Prop51ColorIndex
 90
      256
102
RTVSPost2010Prop51ColorRGB
 90
-16777216
102
RTVSPost2010PropOp51
 70
     0
102
RTVSPost2010Prop52
140
1.0
102
RTVSPost2010PropOp52
 70
     0
102
RTVSPost2010Prop53
 90
        2
102
RTVSPost2010PropOp53
 70
     1
102
RTVSPost2010Prop54
  1
strokes_ogs.tif
102
RTVSPost2010PropOp54
 70
     1
102
RTVSPost2010Prop55
280
     0
102
RTVSPost2010PropOp55
 70
     1
102
RTVSPost2010Prop56
140
1.0
102
RTVSPost2010PropOp56
 70
     1
102
RTVSPost2010Prop57
140
1.0
102
RTVSPost2010PropOp57
 70
     1
  0
XRECORD
  5
294E
102
{ACAD_REACTORS
330
294D
102
}
330
294D
100
AcDbXrecord
280
     1
102
RTVSPost2010Prop28
280
     0
102
RTVSPost2010PropOp28
 70
     1
102
RTVSPost2010Prop29
280
     1
102
RTVSPost2010PropOp29
 70
     1
102
RTVSPost2010Prop30
280
     1
102
RTVSPost2010PropOp30
 70
     1
102
RTVSPost2010Prop31
280
     0
102
RTVSPost2010PropOp31
 70
     1
102
RTVSPost2010Prop32
280
     0
102
RTVSPost2010PropOp32
 70
     1
102
RTVSPost2010Prop33
280
     0
102
RTVSPost2010PropOp33
 70
     1
102
RTVSPost2010Prop34
280
     0
102
RTVSPost2010PropOp34
 70
     1
102
RTVSPost2010Prop35
280
     0
102
RTVSPost2010PropOp35
 70
     1
102
RTVSPost2010Prop36
280
     0
102
RTVSPost2010PropOp36
 70
     1
102
RTVSPost2010Prop37
 90
       50
102
RTVSPost2010PropOp37
 70
     1
102
RTVSPost2010Prop38
140
0.0
102
RTVSPost2010PropOp38
 70
     1
102
RTVSPost2010Prop39
140
1.0
102
RTVSPost2010PropOp39
 70
     1
102
RTVSPost2010Prop40
 90
        0
102
RTVSPost2010PropOp40
 70
     1
102
RTVSPost2010Prop41ColorIndex
 90
       18
102
RTVSPost2010Prop41ColorRGB
 90
        0
102
RTVSPost2010PropOp41
 70
     1
102
RTVSPost2010Prop42
 90
       50
102
RTVSPost2010PropOp42
 70
     1
102
RTVSPost2010Prop43
 90
        3
102
RTVSPost2010PropOp43
 70
     1
102
RTVSPost2010Prop44ColorIndex
 90
        5
102
RTVSPost2010Prop44ColorRGB
 90
      255
102
RTVSPost2010PropOp44
 70
     1
102
RTVSPost2010Prop45
280
     0
102
RTVSPost2010PropOp45
 70
     1
102
RTVSPost2010Prop46
 90
       50
102
RTVSPost2010PropOp46
 70
     1
102
RTVSPost2010Prop47
 90
       50
102
RTVSPost2010PropOp47
 70
     1
102
RTVSPost2010Prop48
 90
       50
102
RTVSPost2010PropOp48
 70
     1
102
RTVSPost2010Prop49
280
     0
102
RTVSPost2010PropOp49
 70
     1
102
RTVSPost2010Prop50
 90
       50
102
RTVSPost2010PropOp50
 70
     1
102
RTVSPost2010Prop51ColorIndex
 90
      256
102
RTVSPost2010Prop51ColorRGB
 90
-16777216
102
RTVSPost2010PropOp51
 70
     0
102
RTVSPost2010Prop52
140
1.0
102
RTVSPost2010PropOp52
 70
     0
102
RTVSPost2010Prop53
 90
        2
102
RTVSPost2010PropOp53
 70
     1
102
RTVSPost2010Prop54
  1
strokes_ogs.tif
102
RTVSPost2010PropOp54
 70
     1
102
RTVSPost2010Prop55
280
     0
102
RTVSPost2010PropOp55
 70
     1
102
RTVSPost2010Prop56
140
1.0
102
RTVSPost2010PropOp56
 70
     1
102
RTVSPost2010Prop57
140
1.0
102
RTVSPost2010PropOp57
 70
     1
  0
XRECORD
  5
2950
102
{ACAD_REACTORS
330
294F
102
}
330
294F
100
AcDbXrecord
280
     1
102
RTVSPost2010Prop28
280
     0
102
RTVSPost2010PropOp28
 70
     1
102
RTVSPost2010Prop29
280
     1
102
RTVSPost2010PropOp29
 70
     1
102
RTVSPost2010Prop30
280
     1
102
RTVSPost2010PropOp30
 70
     1
102
RTVSPost2010Prop31
280
     0
102
RTVSPost2010PropOp31
 70
     1
102
RTVSPost2010Prop32
280
     0
102
RTVSPost2010PropOp32
 70
     1
102
RTVSPost2010Prop33
280
     0
102
RTVSPost2010PropOp33
 70
     1
102
RTVSPost2010Prop34
280
     0
102
RTVSPost2010PropOp34
 70
     1
102
RTVSPost2010Prop35
280
     0
102
RTVSPost2010PropOp35
 70
     1
102
RTVSPost2010Prop36
280
     0
102
RTVSPost2010PropOp36
 70
     1
102
RTVSPost2010Prop37
 90
       50
102
RTVSPost2010PropOp37
 70
     1
102
RTVSPost2010Prop38
140
0.0
102
RTVSPost2010PropOp38
 70
     1
102
RTVSPost2010Prop39
140
1.0
102
RTVSPost2010PropOp39
 70
     1
102
RTVSPost2010Prop40
 90
        0
102
RTVSPost2010PropOp40
 70
     1
102
RTVSPost2010Prop41ColorIndex
 90
       18
102
RTVSPost2010Prop41ColorRGB
 90
        0
102
RTVSPost2010PropOp41
 70
     1
102
RTVSPost2010Prop42
 90
       50
102
RTVSPost2010PropOp42
 70
     1
102
RTVSPost2010Prop43
 90
        3
102
RTVSPost2010PropOp43
 70
     1
102
RTVSPost2010Prop44ColorIndex
 90
        5
102
RTVSPost2010Prop44ColorRGB
 90
      255
102
RTVSPost2010PropOp44
 70
     1
102
RTVSPost2010Prop45
280
     0
102
RTVSPost2010PropOp45
 70
     1
102
RTVSPost2010Prop46
 90
       50
102
RTVSPost2010PropOp46
 70
     1
102
RTVSPost2010Prop47
 90
       50
102
RTVSPost2010PropOp47
 70
     1
102
RTVSPost2010Prop48
 90
       50
102
RTVSPost2010PropOp48
 70
     1
102
RTVSPost2010Prop49
280
     0
102
RTVSPost2010PropOp49
 70
     1
102
RTVSPost2010Prop50
 90
       50
102
RTVSPost2010PropOp50
 70
     1
102
RTVSPost2010Prop51ColorIndex
 90
      256
102
RTVSPost2010Prop51ColorRGB
 90
-16777216
102
RTVSPost2010PropOp51
 70
     0
102
RTVSPost2010Prop52
140
1.0
102
RTVSPost2010PropOp52
 70
     0
102
RTVSPost2010Prop53
 90
        2
102
RTVSPost2010PropOp53
 70
     1
102
RTVSPost2010Prop54
  1
strokes_ogs.tif
102
RTVSPost2010PropOp54
 70
     1
102
RTVSPost2010Prop55
280
     0
102
RTVSPost2010PropOp55
 70
     1
102
RTVSPost2010Prop56
140
1.0
102
RTVSPost2010PropOp56
 70
     1
102
RTVSPost2010Prop57
140
1.0
102
RTVSPost2010PropOp57
 70
     1
  0
XRECORD
  5
2952
102
{ACAD_REACTORS
330
2951
102
}
330
2951
100
AcDbXrecord
280
     1
102
RTVSPost2010Prop28
280
     0
102
RTVSPost2010PropOp28
 70
     1
102
RTVSPost2010Prop29
280
     1
102
RTVSPost2010PropOp29
 70
     1
102
RTVSPost2010Prop30
280
     1
102
RTVSPost2010PropOp30
 70
     1
102
RTVSPost2010Prop31
280
     0
102
RTVSPost2010PropOp31
 70
     1
102
RTVSPost2010Prop32
280
     0
102
RTVSPost2010PropOp32
 70
     1
102
RTVSPost2010Prop33
280
     0
102
RTVSPost2010PropOp33
 70
     1
102
RTVSPost2010Prop34
280
     0
102
RTVSPost2010PropOp34
 70
     1
102
RTVSPost2010Prop35
280
     0
102
RTVSPost2010PropOp35
 70
     1
102
RTVSPost2010Prop36
280
     0
102
RTVSPost2010PropOp36
 70
     1
102
RTVSPost2010Prop37
 90
       50
102
RTVSPost2010PropOp37
 70
     1
102
RTVSPost2010Prop38
140
0.0
102
RTVSPost2010PropOp38
 70
     1
102
RTVSPost2010Prop39
140
1.0
102
RTVSPost2010PropOp39
 70
     1
102
RTVSPost2010Prop40
 90
        0
102
RTVSPost2010PropOp40
 70
     1
102
RTVSPost2010Prop41ColorIndex
 90
       18
102
RTVSPost2010Prop41ColorRGB
 90
        0
102
RTVSPost2010PropOp41
 70
     1
102
RTVSPost2010Prop42
 90
       50
102
RTVSPost2010PropOp42
 70
     1
102
RTVSPost2010Prop43
 90
        3
102
RTVSPost2010PropOp43
 70
     1
102
RTVSPost2010Prop44ColorIndex
 90
        5
102
RTVSPost2010Prop44ColorRGB
 90
      255
102
RTVSPost2010PropOp44
 70
     1
102
RTVSPost2010Prop45
280
     0
102
RTVSPost2010PropOp45
 70
     1
102
RTVSPost2010Prop46
 90
       50
102
RTVSPost2010PropOp46
 70
     1
102
RTVSPost2010Prop47
 90
       50
102
RTVSPost2010PropOp47
 70
     1
102
RTVSPost2010Prop48
 90
       50
102
RTVSPost2010PropOp48
 70
     1
102
RTVSPost2010Prop49
280
     0
102
RTVSPost2010PropOp49
 70
     1
102
RTVSPost2010Prop50
 90
       50
102
RTVSPost2010PropOp50
 70
     1
102
RTVSPost2010Prop51ColorIndex
 90
      256
102
RTVSPost2010Prop51ColorRGB
 90
-16777216
102
RTVSPost2010PropOp51
 70
     0
102
RTVSPost2010Prop52
140
1.0
102
RTVSPost2010PropOp52
 70
     0
102
RTVSPost2010Prop53
 90
        2
102
RTVSPost2010PropOp53
 70
     1
102
RTVSPost2010Prop54
  1
strokes_ogs.tif
102
RTVSPost2010PropOp54
 70
     1
102
RTVSPost2010Prop55
280
     0
102
RTVSPost2010PropOp55
 70
     1
102
RTVSPost2010Prop56
140
1.0
102
RTVSPost2010PropOp56
 70
     1
102
RTVSPost2010Prop57
140
1.0
102
RTVSPost2010PropOp57
 70
     1
  0
XRECORD
  5
295A
102
{ACAD_REACTORS
330
2959
102
}
330
2959
100
AcDbXrecord
280
     1
102
RTVSPost2010Prop28
280
     0
102
RTVSPost2010PropOp28
 70
     1
102
RTVSPost2010Prop29
280
     1
102
RTVSPost2010PropOp29
 70
     1
102
RTVSPost2010Prop30
280
     1
102
RTVSPost2010PropOp30
 70
     1
102
RTVSPost2010Prop31
280
     0
102
RTVSPost2010PropOp31
 70
     1
102
RTVSPost2010Prop32
280
     0
102
RTVSPost2010PropOp32
 70
     1
102
RTVSPost2010Prop33
280
     0
102
RTVSPost2010PropOp33
 70
     1
102
RTVSPost2010Prop34
280
     0
102
RTVSPost2010PropOp34
 70
     1
102
RTVSPost2010Prop35
280
     0
102
RTVSPost2010PropOp35
 70
     1
102
RTVSPost2010Prop36
280
     0
102
RTVSPost2010PropOp36
 70
     1
102
RTVSPost2010Prop37
 90
       50
102
RTVSPost2010PropOp37
 70
     1
102
RTVSPost2010Prop38
140
0.0
102
RTVSPost2010PropOp38
 70
     1
102
RTVSPost2010Prop39
140
1.0
102
RTVSPost2010PropOp39
 70
     1
102
RTVSPost2010Prop40
 90
        0
102
RTVSPost2010PropOp40
 70
     1
102
RTVSPost2010Prop41ColorIndex
 90
       18
102
RTVSPost2010Prop41ColorRGB
 90
        0
102
RTVSPost2010PropOp41
 70
     1
102
RTVSPost2010Prop42
 90
       50
102
RTVSPost2010PropOp42
 70
     1
102
RTVSPost2010Prop43
 90
        3
102
RTVSPost2010PropOp43
 70
     1
102
RTVSPost2010Prop44ColorIndex
 90
        5
102
RTVSPost2010Prop44ColorRGB
 90
      255
102
RTVSPost2010PropOp44
 70
     1
102
RTVSPost2010Prop45
280
     0
102
RTVSPost2010PropOp45
 70
     1
102
RTVSPost2010Prop46
 90
       50
102
RTVSPost2010PropOp46
 70
     1
102
RTVSPost2010Prop47
 90
       50
102
RTVSPost2010PropOp47
 70
     1
102
RTVSPost2010Prop48
 90
       50
102
RTVSPost2010PropOp48
 70
     1
102
RTVSPost2010Prop49
280
     0
102
RTVSPost2010PropOp49
 70
     1
102
RTVSPost2010Prop50
 90
       50
102
RTVSPost2010PropOp50
 70
     1
102
RTVSPost2010Prop51ColorIndex
 90
      256
102
RTVSPost2010Prop51ColorRGB
 90
-16777216
102
RTVSPost2010PropOp51
 70
     0
102
RTVSPost2010Prop52
140
1.0
102
RTVSPost2010PropOp52
 70
     0
102
RTVSPost2010Prop53
 90
        2
102
RTVSPost2010PropOp53
 70
     1
102
RTVSPost2010Prop54
  1
strokes_ogs.tif
102
RTVSPost2010PropOp54
 70
     1
102
RTVSPost2010Prop55
280
     0
102
RTVSPost2010PropOp55
 70
     1
102
RTVSPost2010Prop56
140
1.0
102
RTVSPost2010PropOp56
 70
     1
102
RTVSPost2010Prop57
140
1.0
102
RTVSPost2010PropOp57
 70
     1
  0
XRECORD
  5
2976
102
{ACAD_REACTORS
330
2975
102
}
330
2975
100
AcDbXrecord
280
     1
102
RTVSPost2010Prop28
280
     0
102
RTVSPost2010PropOp28
 70
     0
102
RTVSPost2010Prop29
280
     1
102
RTVSPost2010PropOp29
 70
     0
102
RTVSPost2010Prop30
280
     1
102
RTVSPost2010PropOp30
 70
     0
102
RTVSPost2010Prop31
280
     0
102
RTVSPost2010PropOp31
 70
     0
102
RTVSPost2010Prop32
280
     0
102
RTVSPost2010PropOp32
 70
     0
102
RTVSPost2010Prop33
280
     0
102
RTVSPost2010PropOp33
 70
     0
102
RTVSPost2010Prop34
280
     0
102
RTVSPost2010PropOp34
 70
     0
102
RTVSPost2010Prop35
280
     0
102
RTVSPost2010PropOp35
 70
     0
102
RTVSPost2010Prop36
280
     0
102
RTVSPost2010PropOp36
 70
     0
102
RTVSPost2010Prop37
 90
       50
102
RTVSPost2010PropOp37
 70
     0
102
RTVSPost2010Prop38
140
0.0
102
RTVSPost2010PropOp38
 70
     0
102
RTVSPost2010Prop39
140
1.0
102
RTVSPost2010PropOp39
 70
     0
102
RTVSPost2010Prop40
 90
        0
102
RTVSPost2010PropOp40
 70
     0
102
RTVSPost2010Prop41ColorIndex
 90
       18
102
RTVSPost2010Prop41ColorRGB
 90
        0
102
RTVSPost2010PropOp41
 70
     0
102
RTVSPost2010Prop42
 90
       50
102
RTVSPost2010PropOp42
 70
     0
102
RTVSPost2010Prop43
 90
        3
102
RTVSPost2010PropOp43
 70
     0
102
RTVSPost2010Prop44ColorIndex
 90
        5
102
RTVSPost2010Prop44ColorRGB
 90
      255
102
RTVSPost2010PropOp44
 70
     0
102
RTVSPost2010Prop45
280
     0
102
RTVSPost2010PropOp45
 70
     0
102
RTVSPost2010Prop46
 90
       50
102
RTVSPost2010PropOp46
 70
     0
102
RTVSPost2010Prop47
 90
       50
102
RTVSPost2010PropOp47
 70
     0
102
RTVSPost2010Prop48
 90
       50
102
RTVSPost2010PropOp48
 70
     0
102
RTVSPost2010Prop49
280
     0
102
RTVSPost2010PropOp49
 70
     0
102
RTVSPost2010Prop50
 90
       50
102
RTVSPost2010PropOp50
 70
     0
102
RTVSPost2010Prop51ColorIndex
 90
      256
102
RTVSPost2010Prop51ColorRGB
 90
-16777216
102
RTVSPost2010PropOp51
 70
     0
102
RTVSPost2010Prop52
140
1.0
102
RTVSPost2010PropOp52
 70
     0
102
RTVSPost2010Prop53
 90
        2
102
RTVSPost2010PropOp53
 70
     0
102
RTVSPost2010Prop54
  1
strokes_ogs.tif
102
RTVSPost2010PropOp54
 70
     0
102
RTVSPost2010Prop55
280
     0
102
RTVSPost2010PropOp55
 70
     0
102
RTVSPost2010Prop56
140
1.0
102
RTVSPost2010PropOp56
 70
     0
102
RTVSPost2010Prop57
140
1.0
102
RTVSPost2010PropOp57
 70
     0
  0
XRECORD
  5
2966
102
{ACAD_REACTORS
330
2965
102
}
330
2965
100
AcDbXrecord
280
     1
102
RTVSPost2010Prop28
280
     0
102
RTVSPost2010PropOp28
 70
     1
102
RTVSPost2010Prop29
280
     1
102
RTVSPost2010PropOp29
 70
     1
102
RTVSPost2010Prop30
280
     1
102
RTVSPost2010PropOp30
 70
     1
102
RTVSPost2010Prop31
280
     0
102
RTVSPost2010PropOp31
 70
     1
102
RTVSPost2010Prop32
280
     0
102
RTVSPost2010PropOp32
 70
     1
102
RTVSPost2010Prop33
280
     0
102
RTVSPost2010PropOp33
 70
     1
102
RTVSPost2010Prop34
280
     0
102
RTVSPost2010PropOp34
 70
     1
102
RTVSPost2010Prop35
280
     0
102
RTVSPost2010PropOp35
 70
     1
102
RTVSPost2010Prop36
280
     0
102
RTVSPost2010PropOp36
 70
     1
102
RTVSPost2010Prop37
 90
       50
102
RTVSPost2010PropOp37
 70
     1
102
RTVSPost2010Prop38
140
0.0
102
RTVSPost2010PropOp38
 70
     1
102
RTVSPost2010Prop39
140
1.0
102
RTVSPost2010PropOp39
 70
     1
102
RTVSPost2010Prop40
 90
        0
102
RTVSPost2010PropOp40
 70
     1
102
RTVSPost2010Prop41ColorIndex
 90
       18
102
RTVSPost2010Prop41ColorRGB
 90
        0
102
RTVSPost2010PropOp41
 70
     1
102
RTVSPost2010Prop42
 90
       50
102
RTVSPost2010PropOp42
 70
     1
102
RTVSPost2010Prop43
 90
        3
102
RTVSPost2010PropOp43
 70
     1
102
RTVSPost2010Prop44ColorIndex
 90
        5
102
RTVSPost2010Prop44ColorRGB
 90
      255
102
RTVSPost2010PropOp44
 70
     1
102
RTVSPost2010Prop45
280
     0
102
RTVSPost2010PropOp45
 70
     1
102
RTVSPost2010Prop46
 90
       50
102
RTVSPost2010PropOp46
 70
     1
102
RTVSPost2010Prop47
 90
       50
102
RTVSPost2010PropOp47
 70
     1
102
RTVSPost2010Prop48
 90
       50
102
RTVSPost2010PropOp48
 70
     1
102
RTVSPost2010Prop49
280
     0
102
RTVSPost2010PropOp49
 70
     1
102
RTVSPost2010Prop50
 90
       50
102
RTVSPost2010PropOp50
 70
     1
102
RTVSPost2010Prop51ColorIndex
 90
      256
102
RTVSPost2010Prop51ColorRGB
 90
-16777216
102
RTVSPost2010PropOp51
 70
     0
102
RTVSPost2010Prop52
140
1.0
102
RTVSPost2010PropOp52
 70
     0
102
RTVSPost2010Prop53
 90
        2
102
RTVSPost2010PropOp53
 70
     1
102
RTVSPost2010Prop54
  1
strokes_ogs.tif
102
RTVSPost2010PropOp54
 70
     1
102
RTVSPost2010Prop55
280
     0
102
RTVSPost2010PropOp55
 70
     1
102
RTVSPost2010Prop56
140
1.0
102
RTVSPost2010PropOp56
 70
     1
102
RTVSPost2010Prop57
140
1.0
102
RTVSPost2010PropOp57
 70
     1
  0
XRECORD
  5
2978
102
{ACAD_REACTORS
330
2977
102
}
330
2977
100
AcDbXrecord
280
     1
102
RTVSPost2010Prop28
280
     0
102
RTVSPost2010PropOp28
 70
     0
102
RTVSPost2010Prop29
280
     1
102
RTVSPost2010PropOp29
 70
     0
102
RTVSPost2010Prop30
280
     1
102
RTVSPost2010PropOp30
 70
     0
102
RTVSPost2010Prop31
280
     0
102
RTVSPost2010PropOp31
 70
     0
102
RTVSPost2010Prop32
280
     0
102
RTVSPost2010PropOp32
 70
     0
102
RTVSPost2010Prop33
280
     0
102
RTVSPost2010PropOp33
 70
     0
102
RTVSPost2010Prop34
280
     0
102
RTVSPost2010PropOp34
 70
     0
102
RTVSPost2010Prop35
280
     0
102
RTVSPost2010PropOp35
 70
     0
102
RTVSPost2010Prop36
280
     0
102
RTVSPost2010PropOp36
 70
     0
102
RTVSPost2010Prop37
 90
       50
102
RTVSPost2010PropOp37
 70
     0
102
RTVSPost2010Prop38
140
0.0
102
RTVSPost2010PropOp38
 70
     0
102
RTVSPost2010Prop39
140
1.0
102
RTVSPost2010PropOp39
 70
     0
102
RTVSPost2010Prop40
 90
        0
102
RTVSPost2010PropOp40
 70
     0
102
RTVSPost2010Prop41ColorIndex
 90
       18
102
RTVSPost2010Prop41ColorRGB
 90
        0
102
RTVSPost2010PropOp41
 70
     0
102
RTVSPost2010Prop42
 90
       50
102
RTVSPost2010PropOp42
 70
     0
102
RTVSPost2010Prop43
 90
        3
102
RTVSPost2010PropOp43
 70
     0
102
RTVSPost2010Prop44ColorIndex
 90
        5
102
RTVSPost2010Prop44ColorRGB
 90
      255
102
RTVSPost2010PropOp44
 70
     0
102
RTVSPost2010Prop45
280
     0
102
RTVSPost2010PropOp45
 70
     0
102
RTVSPost2010Prop46
 90
       50
102
RTVSPost2010PropOp46
 70
     0
102
RTVSPost2010Prop47
 90
       50
102
RTVSPost2010PropOp47
 70
     0
102
RTVSPost2010Prop48
 90
       50
102
RTVSPost2010PropOp48
 70
     0
102
RTVSPost2010Prop49
280
     0
102
RTVSPost2010PropOp49
 70
     0
102
RTVSPost2010Prop50
 90
       50
102
RTVSPost2010PropOp50
 70
     0
102
RTVSPost2010Prop51ColorIndex
 90
      256
102
RTVSPost2010Prop51ColorRGB
 90
-16777216
102
RTVSPost2010PropOp51
 70
     0
102
RTVSPost2010Prop52
140
1.0
102
RTVSPost2010PropOp52
 70
     0
102
RTVSPost2010Prop53
 90
        2
102
RTVSPost2010PropOp53
 70
     0
102
RTVSPost2010Prop54
  1
strokes_ogs.tif
102
RTVSPost2010PropOp54
 70
     0
102
RTVSPost2010Prop55
280
     0
102
RTVSPost2010PropOp55
 70
     0
102
RTVSPost2010Prop56
140
1.0
102
RTVSPost2010PropOp56
 70
     0
102
RTVSPost2010Prop57
140
1.0
102
RTVSPost2010PropOp57
 70
     0
  0
XRECORD
  5
295E
102
{ACAD_REACTORS
330
295D
102
}
330
295D
100
AcDbXrecord
280
     1
102
RTVSPost2010Prop28
280
     0
102
RTVSPost2010PropOp28
 70
     1
102
RTVSPost2010Prop29
280
     1
102
RTVSPost2010PropOp29
 70
     1
102
RTVSPost2010Prop30
280
     1
102
RTVSPost2010PropOp30
 70
     1
102
RTVSPost2010Prop31
280
     0
102
RTVSPost2010PropOp31
 70
     1
102
RTVSPost2010Prop32
280
     0
102
RTVSPost2010PropOp32
 70
     1
102
RTVSPost2010Prop33
280
     0
102
RTVSPost2010PropOp33
 70
     1
102
RTVSPost2010Prop34
280
     0
102
RTVSPost2010PropOp34
 70
     1
102
RTVSPost2010Prop35
280
     0
102
RTVSPost2010PropOp35
 70
     1
102
RTVSPost2010Prop36
280
     0
102
RTVSPost2010PropOp36
 70
     1
102
RTVSPost2010Prop37
 90
       50
102
RTVSPost2010PropOp37
 70
     1
102
RTVSPost2010Prop38
140
0.0
102
RTVSPost2010PropOp38
 70
     1
102
RTVSPost2010Prop39
140
1.0
102
RTVSPost2010PropOp39
 70
     1
102
RTVSPost2010Prop40
 90
        0
102
RTVSPost2010PropOp40
 70
     1
102
RTVSPost2010Prop41ColorIndex
 90
       18
102
RTVSPost2010Prop41ColorRGB
 90
        0
102
RTVSPost2010PropOp41
 70
     1
102
RTVSPost2010Prop42
 90
       50
102
RTVSPost2010PropOp42
 70
     1
102
RTVSPost2010Prop43
 90
        3
102
RTVSPost2010PropOp43
 70
     1
102
RTVSPost2010Prop44ColorIndex
 90
        5
102
RTVSPost2010Prop44ColorRGB
 90
      255
102
RTVSPost2010PropOp44
 70
     1
102
RTVSPost2010Prop45
280
     0
102
RTVSPost2010PropOp45
 70
     1
102
RTVSPost2010Prop46
 90
       50
102
RTVSPost2010PropOp46
 70
     1
102
RTVSPost2010Prop47
 90
       50
102
RTVSPost2010PropOp47
 70
     1
102
RTVSPost2010Prop48
 90
       50
102
RTVSPost2010PropOp48
 70
     1
102
RTVSPost2010Prop49
280
     0
102
RTVSPost2010PropOp49
 70
     1
102
RTVSPost2010Prop50
 90
       50
102
RTVSPost2010PropOp50
 70
     1
102
RTVSPost2010Prop51ColorIndex
 90
      256
102
RTVSPost2010Prop51ColorRGB
 90
-16777216
102
RTVSPost2010PropOp51
 70
     0
102
RTVSPost2010Prop52
140
1.0
102
RTVSPost2010PropOp52
 70
     0
102
RTVSPost2010Prop53
 90
        2
102
RTVSPost2010PropOp53
 70
     1
102
RTVSPost2010Prop54
  1
strokes_ogs.tif
102
RTVSPost2010PropOp54
 70
     1
102
RTVSPost2010Prop55
280
     0
102
RTVSPost2010PropOp55
 70
     1
102
RTVSPost2010Prop56
140
1.0
102
RTVSPost2010PropOp56
 70
     1
102
RTVSPost2010Prop57
140
1.0
102
RTVSPost2010PropOp57
 70
     1
  0
XRECORD
  5
2974
102
{ACAD_REACTORS
330
2973
102
}
330
2973
100
AcDbXrecord
280
     1
102
RTVSPost2010Prop28
280
     0
102
RTVSPost2010PropOp28
 70
     1
102
RTVSPost2010Prop29
280
     1
102
RTVSPost2010PropOp29
 70
     1
102
RTVSPost2010Prop30
280
     1
102
RTVSPost2010PropOp30
 70
     1
102
RTVSPost2010Prop31
280
     0
102
RTVSPost2010PropOp31
 70
     1
102
RTVSPost2010Prop32
280
     0
102
RTVSPost2010PropOp32
 70
     1
102
RTVSPost2010Prop33
280
     0
102
RTVSPost2010PropOp33
 70
     1
102
RTVSPost2010Prop34
280
     0
102
RTVSPost2010PropOp34
 70
     1
102
RTVSPost2010Prop35
280
     0
102
RTVSPost2010PropOp35
 70
     1
102
RTVSPost2010Prop36
280
     0
102
RTVSPost2010PropOp36
 70
     1
102
RTVSPost2010Prop37
 90
       50
102
RTVSPost2010PropOp37
 70
     1
102
RTVSPost2010Prop38
140
0.0
102
RTVSPost2010PropOp38
 70
     1
102
RTVSPost2010Prop39
140
1.0
102
RTVSPost2010PropOp39
 70
     1
102
RTVSPost2010Prop40
 90
        0
102
RTVSPost2010PropOp40
 70
     1
102
RTVSPost2010Prop41ColorIndex
 90
       18
102
RTVSPost2010Prop41ColorRGB
 90
        0
102
RTVSPost2010PropOp41
 70
     1
102
RTVSPost2010Prop42
 90
       50
102
RTVSPost2010PropOp42
 70
     1
102
RTVSPost2010Prop43
 90
        3
102
RTVSPost2010PropOp43
 70
     1
102
RTVSPost2010Prop44ColorIndex
 90
        5
102
RTVSPost2010Prop44ColorRGB
 90
      255
102
RTVSPost2010PropOp44
 70
     1
102
RTVSPost2010Prop45
280
     0
102
RTVSPost2010PropOp45
 70
     1
102
RTVSPost2010Prop46
 90
       50
102
RTVSPost2010PropOp46
 70
     1
102
RTVSPost2010Prop47
 90
       50
102
RTVSPost2010PropOp47
 70
     1
102
RTVSPost2010Prop48
 90
       50
102
RTVSPost2010PropOp48
 70
     1
102
RTVSPost2010Prop49
280
     0
102
RTVSPost2010PropOp49
 70
     1
102
RTVSPost2010Prop50
 90
       50
102
RTVSPost2010PropOp50
 70
     1
102
RTVSPost2010Prop51ColorIndex
 90
      256
102
RTVSPost2010Prop51ColorRGB
 90
-16777216
102
RTVSPost2010PropOp51
 70
     0
102
RTVSPost2010Prop52
140
1.0
102
RTVSPost2010PropOp52
 70
     0
102
RTVSPost2010Prop53
 90
        2
102
RTVSPost2010PropOp53
 70
     1
102
RTVSPost2010Prop54
  1
strokes_ogs.tif
102
RTVSPost2010PropOp54
 70
     1
102
RTVSPost2010Prop55
280
     0
102
RTVSPost2010PropOp55
 70
     1
102
RTVSPost2010Prop56
140
1.0
102
RTVSPost2010PropOp56
 70
     1
102
RTVSPost2010Prop57
140
1.0
102
RTVSPost2010PropOp57
 70
     1
  0
XRECORD
  5
2972
102
{ACAD_REACTORS
330
2971
102
}
330
2971
100
AcDbXrecord
280
     1
102
RTVSPost2010Prop28
280
     0
102
RTVSPost2010PropOp28
 70
     1
102
RTVSPost2010Prop29
280
     1
102
RTVSPost2010PropOp29
 70
     1
102
RTVSPost2010Prop30
280
     1
102
RTVSPost2010PropOp30
 70
     1
102
RTVSPost2010Prop31
280
     0
102
RTVSPost2010PropOp31
 70
     1
102
RTVSPost2010Prop32
280
     0
102
RTVSPost2010PropOp32
 70
     1
102
RTVSPost2010Prop33
280
     0
102
RTVSPost2010PropOp33
 70
     1
102
RTVSPost2010Prop34
280
     0
102
RTVSPost2010PropOp34
 70
     1
102
RTVSPost2010Prop35
280
     0
102
RTVSPost2010PropOp35
 70
     1
102
RTVSPost2010Prop36
280
     0
102
RTVSPost2010PropOp36
 70
     1
102
RTVSPost2010Prop37
 90
       50
102
RTVSPost2010PropOp37
 70
     1
102
RTVSPost2010Prop38
140
0.0
102
RTVSPost2010PropOp38
 70
     1
102
RTVSPost2010Prop39
140
1.0
102
RTVSPost2010PropOp39
 70
     1
102
RTVSPost2010Prop40
 90
        0
102
RTVSPost2010PropOp40
 70
     1
102
RTVSPost2010Prop41ColorIndex
 90
       18
102
RTVSPost2010Prop41ColorRGB
 90
        0
102
RTVSPost2010PropOp41
 70
     1
102
RTVSPost2010Prop42
 90
       50
102
RTVSPost2010PropOp42
 70
     1
102
RTVSPost2010Prop43
 90
        3
102
RTVSPost2010PropOp43
 70
     1
102
RTVSPost2010Prop44ColorIndex
 90
        5
102
RTVSPost2010Prop44ColorRGB
 90
      255
102
RTVSPost2010PropOp44
 70
     1
102
RTVSPost2010Prop45
280
     0
102
RTVSPost2010PropOp45
 70
     1
102
RTVSPost2010Prop46
 90
       50
102
RTVSPost2010PropOp46
 70
     1
102
RTVSPost2010Prop47
 90
       50
102
RTVSPost2010PropOp47
 70
     1
102
RTVSPost2010Prop48
 90
       50
102
RTVSPost2010PropOp48
 70
     1
102
RTVSPost2010Prop49
280
     0
102
RTVSPost2010PropOp49
 70
     1
102
RTVSPost2010Prop50
 90
       50
102
RTVSPost2010PropOp50
 70
     1
102
RTVSPost2010Prop51ColorIndex
 90
      256
102
RTVSPost2010Prop51ColorRGB
 90
-16777216
102
RTVSPost2010PropOp51
 70
     0
102
RTVSPost2010Prop52
140
1.0
102
RTVSPost2010PropOp52
 70
     0
102
RTVSPost2010Prop53
 90
        2
102
RTVSPost2010PropOp53
 70
     1
102
RTVSPost2010Prop54
  1
strokes_ogs.tif
102
RTVSPost2010PropOp54
 70
     1
102
RTVSPost2010Prop55
280
     0
102
RTVSPost2010PropOp55
 70
     1
102
RTVSPost2010Prop56
140
1.0
102
RTVSPost2010PropOp56
 70
     1
102
RTVSPost2010Prop57
140
1.0
102
RTVSPost2010PropOp57
 70
     1
  0
XRECORD
  5
296C
102
{ACAD_REACTORS
330
296B
102
}
330
296B
100
AcDbXrecord
280
     1
102
RTVSPost2010Prop28
280
     0
102
RTVSPost2010PropOp28
 70
     1
102
RTVSPost2010Prop29
280
     1
102
RTVSPost2010PropOp29
 70
     1
102
RTVSPost2010Prop30
280
     1
102
RTVSPost2010PropOp30
 70
     1
102
RTVSPost2010Prop31
280
     0
102
RTVSPost2010PropOp31
 70
     1
102
RTVSPost2010Prop32
280
     0
102
RTVSPost2010PropOp32
 70
     1
102
RTVSPost2010Prop33
280
     0
102
RTVSPost2010PropOp33
 70
     1
102
RTVSPost2010Prop34
280
     0
102
RTVSPost2010PropOp34
 70
     1
102
RTVSPost2010Prop35
280
     0
102
RTVSPost2010PropOp35
 70
     1
102
RTVSPost2010Prop36
280
     0
102
RTVSPost2010PropOp36
 70
     1
102
RTVSPost2010Prop37
 90
       50
102
RTVSPost2010PropOp37
 70
     1
102
RTVSPost2010Prop38
140
0.0
102
RTVSPost2010PropOp38
 70
     1
102
RTVSPost2010Prop39
140
1.0
102
RTVSPost2010PropOp39
 70
     1
102
RTVSPost2010Prop40
 90
        0
102
RTVSPost2010PropOp40
 70
     1
102
RTVSPost2010Prop41ColorIndex
 90
       18
102
RTVSPost2010Prop41ColorRGB
 90
        0
102
RTVSPost2010PropOp41
 70
     1
102
RTVSPost2010Prop42
 90
       50
102
RTVSPost2010PropOp42
 70
     1
102
RTVSPost2010Prop43
 90
        3
102
RTVSPost2010PropOp43
 70
     1
102
RTVSPost2010Prop44ColorIndex
 90
        5
102
RTVSPost2010Prop44ColorRGB
 90
      255
102
RTVSPost2010PropOp44
 70
     1
102
RTVSPost2010Prop45
280
     0
102
RTVSPost2010PropOp45
 70
     1
102
RTVSPost2010Prop46
 90
       50
102
RTVSPost2010PropOp46
 70
     1
102
RTVSPost2010Prop47
 90
       50
102
RTVSPost2010PropOp47
 70
     1
102
RTVSPost2010Prop48
 90
       50
102
RTVSPost2010PropOp48
 70
     1
102
RTVSPost2010Prop49
280
     0
102
RTVSPost2010PropOp49
 70
     1
102
RTVSPost2010Prop50
 90
       50
102
RTVSPost2010PropOp50
 70
     1
102
RTVSPost2010Prop51ColorIndex
 90
      256
102
RTVSPost2010Prop51ColorRGB
 90
-16777216
102
RTVSPost2010PropOp51
 70
     0
102
RTVSPost2010Prop52
140
1.0
102
RTVSPost2010PropOp52
 70
     0
102
RTVSPost2010Prop53
 90
        2
102
RTVSPost2010PropOp53
 70
     1
102
RTVSPost2010Prop54
  1
strokes_ogs.tif
102
RTVSPost2010PropOp54
 70
     1
102
RTVSPost2010Prop55
280
     0
102
RTVSPost2010PropOp55
 70
     1
102
RTVSPost2010Prop56
140
1.0
102
RTVSPost2010PropOp56
 70
     1
102
RTVSPost2010Prop57
140
1.0
102
RTVSPost2010PropOp57
 70
     1
  0
XRECORD
  5
296E
102
{ACAD_REACTORS
330
296D
102
}
330
296D
100
AcDbXrecord
280
     1
102
RTVSPost2010Prop28
280
     0
102
RTVSPost2010PropOp28
 70
     1
102
RTVSPost2010Prop29
280
     1
102
RTVSPost2010PropOp29
 70
     1
102
RTVSPost2010Prop30
280
     1
102
RTVSPost2010PropOp30
 70
     1
102
RTVSPost2010Prop31
280
     0
102
RTVSPost2010PropOp31
 70
     1
102
RTVSPost2010Prop32
280
     0
102
RTVSPost2010PropOp32
 70
     1
102
RTVSPost2010Prop33
280
     0
102
RTVSPost2010PropOp33
 70
     1
102
RTVSPost2010Prop34
280
     0
102
RTVSPost2010PropOp34
 70
     1
102
RTVSPost2010Prop35
280
     0
102
RTVSPost2010PropOp35
 70
     1
102
RTVSPost2010Prop36
280
     0
102
RTVSPost2010PropOp36
 70
     1
102
RTVSPost2010Prop37
 90
       50
102
RTVSPost2010PropOp37
 70
     1
102
RTVSPost2010Prop38
140
0.0
102
RTVSPost2010PropOp38
 70
     1
102
RTVSPost2010Prop39
140
1.0
102
RTVSPost2010PropOp39
 70
     1
102
RTVSPost2010Prop40
 90
        0
102
RTVSPost2010PropOp40
 70
     1
102
RTVSPost2010Prop41ColorIndex
 90
       18
102
RTVSPost2010Prop41ColorRGB
 90
        0
102
RTVSPost2010PropOp41
 70
     1
102
RTVSPost2010Prop42
 90
       50
102
RTVSPost2010PropOp42
 70
     1
102
RTVSPost2010Prop43
 90
        3
102
RTVSPost2010PropOp43
 70
     1
102
RTVSPost2010Prop44ColorIndex
 90
        5
102
RTVSPost2010Prop44ColorRGB
 90
      255
102
RTVSPost2010PropOp44
 70
     1
102
RTVSPost2010Prop45
280
     0
102
RTVSPost2010PropOp45
 70
     1
102
RTVSPost2010Prop46
 90
       50
102
RTVSPost2010PropOp46
 70
     1
102
RTVSPost2010Prop47
 90
       50
102
RTVSPost2010PropOp47
 70
     1
102
RTVSPost2010Prop48
 90
       50
102
RTVSPost2010PropOp48
 70
     1
102
RTVSPost2010Prop49
280
     0
102
RTVSPost2010PropOp49
 70
     1
102
RTVSPost2010Prop50
 90
       50
102
RTVSPost2010PropOp50
 70
     1
102
RTVSPost2010Prop51ColorIndex
 90
      256
102
RTVSPost2010Prop51ColorRGB
 90
-16777216
102
RTVSPost2010PropOp51
 70
     0
102
RTVSPost2010Prop52
140
1.0
102
RTVSPost2010PropOp52
 70
     0
102
RTVSPost2010Prop53
 90
        2
102
RTVSPost2010PropOp53
 70
     1
102
RTVSPost2010Prop54
  1
strokes_ogs.tif
102
RTVSPost2010PropOp54
 70
     1
102
RTVSPost2010Prop55
280
     0
102
RTVSPost2010PropOp55
 70
     1
102
RTVSPost2010Prop56
140
1.0
102
RTVSPost2010PropOp56
 70
     1
102
RTVSPost2010Prop57
140
1.0
102
RTVSPost2010PropOp57
 70
     1
  0
XRECORD
  5
2964
102
{ACAD_REACTORS
330
2963
102
}
330
2963
100
AcDbXrecord
280
     1
102
RTVSPost2010Prop28
280
     0
102
RTVSPost2010PropOp28
 70
     1
102
RTVSPost2010Prop29
280
     1
102
RTVSPost2010PropOp29
 70
     1
102
RTVSPost2010Prop30
280
     1
102
RTVSPost2010PropOp30
 70
     1
102
RTVSPost2010Prop31
280
     0
102
RTVSPost2010PropOp31
 70
     1
102
RTVSPost2010Prop32
280
     0
102
RTVSPost2010PropOp32
 70
     1
102
RTVSPost2010Prop33
280
     0
102
RTVSPost2010PropOp33
 70
     1
102
RTVSPost2010Prop34
280
     0
102
RTVSPost2010PropOp34
 70
     1
102
RTVSPost2010Prop35
280
     0
102
RTVSPost2010PropOp35
 70
     1
102
RTVSPost2010Prop36
280
     0
102
RTVSPost2010PropOp36
 70
     1
102
RTVSPost2010Prop37
 90
       50
102
RTVSPost2010PropOp37
 70
     1
102
RTVSPost2010Prop38
140
0.0
102
RTVSPost2010PropOp38
 70
     1
102
RTVSPost2010Prop39
140
1.0
102
RTVSPost2010PropOp39
 70
     1
102
RTVSPost2010Prop40
 90
        0
102
RTVSPost2010PropOp40
 70
     1
102
RTVSPost2010Prop41ColorIndex
 90
       18
102
RTVSPost2010Prop41ColorRGB
 90
        0
102
RTVSPost2010PropOp41
 70
     1
102
RTVSPost2010Prop42
 90
       50
102
RTVSPost2010PropOp42
 70
     1
102
RTVSPost2010Prop43
 90
        3
102
RTVSPost2010PropOp43
 70
     1
102
RTVSPost2010Prop44ColorIndex
 90
        5
102
RTVSPost2010Prop44ColorRGB
 90
      255
102
RTVSPost2010PropOp44
 70
     1
102
RTVSPost2010Prop45
280
     0
102
RTVSPost2010PropOp45
 70
     1
102
RTVSPost2010Prop46
 90
       50
102
RTVSPost2010PropOp46
 70
     1
102
RTVSPost2010Prop47
 90
       50
102
RTVSPost2010PropOp47
 70
     1
102
RTVSPost2010Prop48
 90
       50
102
RTVSPost2010PropOp48
 70
     1
102
RTVSPost2010Prop49
280
     0
102
RTVSPost2010PropOp49
 70
     1
102
RTVSPost2010Prop50
 90
       50
102
RTVSPost2010PropOp50
 70
     1
102
RTVSPost2010Prop51ColorIndex
 90
      256
102
RTVSPost2010Prop51ColorRGB
 90
-16777216
102
RTVSPost2010PropOp51
 70
     0
102
RTVSPost2010Prop52
140
1.0
102
RTVSPost2010PropOp52
 70
     0
102
RTVSPost2010Prop53
 90
        2
102
RTVSPost2010PropOp53
 70
     1
102
RTVSPost2010Prop54
  1
strokes_ogs.tif
102
RTVSPost2010PropOp54
 70
     1
102
RTVSPost2010Prop55
280
     0
102
RTVSPost2010PropOp55
 70
     1
102
RTVSPost2010Prop56
140
1.0
102
RTVSPost2010PropOp56
 70
     1
102
RTVSPost2010Prop57
140
1.0
102
RTVSPost2010PropOp57
 70
     1
  0
XRECORD
  5
2958
102
{ACAD_REACTORS
330
2957
102
}
330
2957
100
AcDbXrecord
280
     1
102
RTVSPost2010Prop28
280
     0
102
RTVSPost2010PropOp28
 70
     1
102
RTVSPost2010Prop29
280
     1
102
RTVSPost2010PropOp29
 70
     1
102
RTVSPost2010Prop30
280
     1
102
RTVSPost2010PropOp30
 70
     1
102
RTVSPost2010Prop31
280
     0
102
RTVSPost2010PropOp31
 70
     1
102
RTVSPost2010Prop32
280
     0
102
RTVSPost2010PropOp32
 70
     1
102
RTVSPost2010Prop33
280
     0
102
RTVSPost2010PropOp33
 70
     1
102
RTVSPost2010Prop34
280
     0
102
RTVSPost2010PropOp34
 70
     1
102
RTVSPost2010Prop35
280
     0
102
RTVSPost2010PropOp35
 70
     1
102
RTVSPost2010Prop36
280
     0
102
RTVSPost2010PropOp36
 70
     1
102
RTVSPost2010Prop37
 90
       50
102
RTVSPost2010PropOp37
 70
     1
102
RTVSPost2010Prop38
140
0.0
102
RTVSPost2010PropOp38
 70
     1
102
RTVSPost2010Prop39
140
1.0
102
RTVSPost2010PropOp39
 70
     1
102
RTVSPost2010Prop40
 90
        0
102
RTVSPost2010PropOp40
 70
     1
102
RTVSPost2010Prop41ColorIndex
 90
       18
102
RTVSPost2010Prop41ColorRGB
 90
        0
102
RTVSPost2010PropOp41
 70
     1
102
RTVSPost2010Prop42
 90
       50
102
RTVSPost2010PropOp42
 70
     1
102
RTVSPost2010Prop43
 90
        3
102
RTVSPost2010PropOp43
 70
     1
102
RTVSPost2010Prop44ColorIndex
 90
        5
102
RTVSPost2010Prop44ColorRGB
 90
      255
102
RTVSPost2010PropOp44
 70
     1
102
RTVSPost2010Prop45
280
     0
102
RTVSPost2010PropOp45
 70
     1
102
RTVSPost2010Prop46
 90
       50
102
RTVSPost2010PropOp46
 70
     1
102
RTVSPost2010Prop47
 90
       50
102
RTVSPost2010PropOp47
 70
     1
102
RTVSPost2010Prop48
 90
       50
102
RTVSPost2010PropOp48
 70
     1
102
RTVSPost2010Prop49
280
     0
102
RTVSPost2010PropOp49
 70
     1
102
RTVSPost2010Prop50
 90
       50
102
RTVSPost2010PropOp50
 70
     1
102
RTVSPost2010Prop51ColorIndex
 90
      256
102
RTVSPost2010Prop51ColorRGB
 90
-16777216
102
RTVSPost2010PropOp51
 70
     0
102
RTVSPost2010Prop52
140
1.0
102
RTVSPost2010PropOp52
 70
     0
102
RTVSPost2010Prop53
 90
        2
102
RTVSPost2010PropOp53
 70
     1
102
RTVSPost2010Prop54
  1
strokes_ogs.tif
102
RTVSPost2010PropOp54
 70
     1
102
RTVSPost2010Prop55
280
     0
102
RTVSPost2010PropOp55
 70
     1
102
RTVSPost2010Prop56
140
1.0
102
RTVSPost2010PropOp56
 70
     1
102
RTVSPost2010Prop57
140
1.0
102
RTVSPost2010PropOp57
 70
     1
  0
XRECORD
  5
2970
102
{ACAD_REACTORS
330
296F
102
}
330
296F
100
AcDbXrecord
280
     1
102
RTVSPost2010Prop28
280
     0
102
RTVSPost2010PropOp28
 70
     1
102
RTVSPost2010Prop29
280
     1
102
RTVSPost2010PropOp29
 70
     1
102
RTVSPost2010Prop30
280
     1
102
RTVSPost2010PropOp30
 70
     1
102
RTVSPost2010Prop31
280
     0
102
RTVSPost2010PropOp31
 70
     1
102
RTVSPost2010Prop32
280
     0
102
RTVSPost2010PropOp32
 70
     1
102
RTVSPost2010Prop33
280
     0
102
RTVSPost2010PropOp33
 70
     1
102
RTVSPost2010Prop34
280
     0
102
RTVSPost2010PropOp34
 70
     1
102
RTVSPost2010Prop35
280
     0
102
RTVSPost2010PropOp35
 70
     1
102
RTVSPost2010Prop36
280
     0
102
RTVSPost2010PropOp36
 70
     1
102
RTVSPost2010Prop37
 90
       50
102
RTVSPost2010PropOp37
 70
     1
102
RTVSPost2010Prop38
140
0.0
102
RTVSPost2010PropOp38
 70
     1
102
RTVSPost2010Prop39
140
1.0
102
RTVSPost2010PropOp39
 70
     1
102
RTVSPost2010Prop40
 90
        0
102
RTVSPost2010PropOp40
 70
     1
102
RTVSPost2010Prop41ColorIndex
 90
       18
102
RTVSPost2010Prop41ColorRGB
 90
        0
102
RTVSPost2010PropOp41
 70
     1
102
RTVSPost2010Prop42
 90
       50
102
RTVSPost2010PropOp42
 70
     1
102
RTVSPost2010Prop43
 90
        3
102
RTVSPost2010PropOp43
 70
     1
102
RTVSPost2010Prop44ColorIndex
 90
        5
102
RTVSPost2010Prop44ColorRGB
 90
      255
102
RTVSPost2010PropOp44
 70
     1
102
RTVSPost2010Prop45
280
     0
102
RTVSPost2010PropOp45
 70
     1
102
RTVSPost2010Prop46
 90
       50
102
RTVSPost2010PropOp46
 70
     1
102
RTVSPost2010Prop47
 90
       50
102
RTVSPost2010PropOp47
 70
     1
102
RTVSPost2010Prop48
 90
       50
102
RTVSPost2010PropOp48
 70
     1
102
RTVSPost2010Prop49
280
     0
102
RTVSPost2010PropOp49
 70
     1
102
RTVSPost2010Prop50
 90
       50
102
RTVSPost2010PropOp50
 70
     1
102
RTVSPost2010Prop51ColorIndex
 90
      256
102
RTVSPost2010Prop51ColorRGB
 90
-16777216
102
RTVSPost2010PropOp51
 70
     0
102
RTVSPost2010Prop52
140
1.0
102
RTVSPost2010PropOp52
 70
     0
102
RTVSPost2010Prop53
 90
        2
102
RTVSPost2010PropOp53
 70
     1
102
RTVSPost2010Prop54
  1
strokes_ogs.tif
102
RTVSPost2010PropOp54
 70
     1
102
RTVSPost2010Prop55
280
     0
102
RTVSPost2010PropOp55
 70
     1
102
RTVSPost2010Prop56
140
1.0
102
RTVSPost2010PropOp56
 70
     1
102
RTVSPost2010Prop57
140
1.0
102
RTVSPost2010PropOp57
 70
     1
  0
ENDSEC
  0
EOF
