  0
SECTION
  2
HEADER
  9
$ACADVER
  1
AC1024
  9
$ACADMAINTVER
 70
     6
  9
$DWGCODEPAGE
  3
ANSI_932
  9
$INSBASE
 10
0.0
 20
0.0
 30
0.0
  9
$EXTMIN
 10
-677.162629
 20
-856.68087
 30
1.000000000000000E+20
  9
$EXTMAX
 10
898.152585
 20
1153.050722
 30
-1.000000000000000E+20
  9
$LIMMIN
 10
-677.162629
 20
-856.68087
  9
$LIMMAX
 10
898.152585
 20
1153.050722
  9
$ORTHOMODE
 70
     0
  9
$REGENMODE
 70
     1
  9
$FILLMODE
 70
     1
  9
$QTEXTMODE
 70
     0
  9
$MIRRTEXT
 70
     1
  9
$LTSCALE
 40
1.0
  9
$ATTMODE
 70
     1
  9
$TEXTSIZE
 40
0.0
  9
$TRACEWID
 40
0.05
  9
$TEXTSTYLE
  7
Standard
  9
$CLAYER
  8
0
  9
$CELTYPE
  6
Continuous
  9
$CECOLOR
 62
   256
  9
$CELTSCALE
 40
1.0
  9
$DISPSILH
 70
     0
  9
$DIMSCALE
 40
1.0
  9
$DIMASZ
 40
0.18
  9
$DIMEXO
 40
0.0625
  9
$DIMDLI
 40
0.38
  9
$DIMRND
 40
0.0
  9
$DIMDLE
 40
0.0
  9
$DIMEXE
 40
0.18
  9
$DIMTP
 40
0.0
  9
$DIMTM
 40
0.0
  9
$DIMTXT
 40
0.18
  9
$DIMCEN
 40
0.09
  9
$DIMTSZ
 40
0.0
  9
$DIMTOL
 70
     0
  9
$DIMLIM
 70
     0
  9
$DIMTIH
 70
     1
  9
$DIMTOH
 70
     1
  9
$DIMSE1
 70
     0
  9
$DIMSE2
 70
     0
  9
$DIMTAD
 70
     0
  9
$DIMZIN
 70
     0
  9
$DIMBLK
  1

  9
$DIMASO
 70
     1
  9
$DIMSHO
 70
     1
  9
$DIMPOST
  1

  9
$DIMAPOST
  1

  9
$DIMALT
 70
     0
  9
$DIMALTD
 70
     2
  9
$DIMALTF
 40
25.4
  9
$DIMLFAC
 40
1.0
  9
$DIMTOFL
 70
     0
  9
$DIMTVP
 40
0.0
  9
$DIMTIX
 70
     0
  9
$DIMSOXD
 70
     0
  9
$DIMSAH
 70
     0
  9
$DIMBLK1
  1

  9
$DIMBLK2
  1

  9
$DIMSTYLE
  2
Standard
  9
$DIMCLRD
 70
     0
  9
$DIMCLRE
 70
     0
  9
$DIMCLRT
 70
     0
  9
$DIMTFAC
 40
1.0
  9
$DIMGAP
 40
0.09
  9
$DIMJUST
 70
     0
  9
$DIMSD1
 70
     0
  9
$DIMSD2
 70
     0
  9
$DIMTOLJ
 70
     1
  9
$DIMTZIN
 70
     0
  9
$DIMALTZ
 70
     0
  9
$DIMALTTZ
 70
     0
  9
$DIMUPT
 70
     0
  9
$DIMDEC
 70
     4
  9
$DIMTDEC
 70
     4
  9
$DIMALTU
 70
     2
  9
$DIMALTTD
 70
     2
  9
$DIMTXSTY
  7
Standard
  9
$DIMAUNIT
 70
     0
  9
$DIMADEC
 70
     0
  9
$DIMALTRND
 40
0.0
  9
$DIMAZIN
 70
     0
  9
$DIMDSEP
 70
     0
  9
$DIMATFIT
 70
     3
  9
$DIMFRAC
 70
     0
  9
$DIMLDRBLK
  1

  9
$DIMLUNIT
 70
     2
  9
$DIMLWD
 70
     0
  9
$DIMLWE
 70
     0
  9
$DIMTMOVE
 70
     0
  9
$DIMFXL
 40
1.0
  9
$DIMFXLON
 70
     0
  9
$DIMJOGANG
 40
0.7853981633974483
  9
$DIMTFILL
 70
     0
  9
$DIMTFILLCLR
 70
     0
  9
$DIMARCSYM
 70
     0
  9
$DIMLTYPE
  6

  9
$DIMLTEX1
  6

  9
$DIMLTEX2
  6

  9
$DIMTXTDIRECTION
 70
     0
  9
$LUNITS
 70
     2
  9
$LUPREC
 70
     4
  9
$SKETCHINC
 40
0.1
  9
$FILLETRAD
 40
0.0
  9
$AUNITS
 70
     0
  9
$AUPREC
 70
     0
  9
$MENU
  1
acad
  9
$ELEVATION
 40
0.0
  9
$PELEVATION
 40
0.0
  9
$THICKNESS
 40
0.0
  9
$LIMCHECK
 70
     0
  9
$CHAMFERA
 40
0.0
  9
$CHAMFERB
 40
0.0
  9
$CHAMFERC
 40
0.0
  9
$CHAMFERD
 40
0.0
  9
$SKPOLY
 70
     0
  9
$TDCREATE
 40
2447893.041666667
  9
$TDUCREATE
 40
0.0
  9
$TDUPDATE
 40
2457234.640744213
  9
$TDUUPDATE
 40
2457234.599077547
  9
$TDINDWG
 40
0.0
  9
$TDUSRTIMER
 40
0.0
  9
$USRTIMER
 70
     1
  9
$ANGBASE
 50
0.0
  9
$ANGDIR
 70
     0
  9
$PDMODE
 70
     0
  9
$PDSIZE
 40
0.0
  9
$PLINEWID
 40
0.0
  9
$SPLFRAME
 70
     0
  9
$SPLINETYPE
 70
     6
  9
$SPLINESEGS
 70
     8
  9
$HANDSEED
  5
14A
  9
$SURFTAB1
 70
     6
  9
$SURFTAB2
 70
     6
  9
$SURFTYPE
 70
     6
  9
$SURFU
 70
     6
  9
$SURFV
 70
     6
  9
$UCSBASE
  2

  9
$UCSNAME
  2

  9
$UCSORG
 10
0.0
 20
0.0
 30
0.0
  9
$UCSXDIR
 10
1.0
 20
0.0
 30
0.0
  9
$UCSYDIR
 10
0.0
 20
1.0
 30
0.0
  9
$UCSORTHOREF
  2

  9
$UCSORTHOVIEW
 70
     0
  9
$UCSORGTOP
 10
0.0
 20
0.0
 30
0.0
  9
$UCSORGBOTTOM
 10
0.0
 20
0.0
 30
0.0
  9
$UCSORGLEFT
 10
0.0
 20
0.0
 30
0.0
  9
$UCSORGRIGHT
 10
0.0
 20
0.0
 30
0.0
  9
$UCSORGFRONT
 10
0.0
 20
0.0
 30
0.0
  9
$UCSORGBACK
 10
0.0
 20
0.0
 30
0.0
  9
$PUCSBASE
  2

  9
$PUCSNAME
  2

  9
$PUCSORG
 10
0.0
 20
0.0
 30
0.0
  9
$PUCSXDIR
 10
1.0
 20
0.0
 30
0.0
  9
$PUCSYDIR
 10
0.0
 20
1.0
 30
0.0
  9
$PUCSORTHOREF
  2

  9
$PUCSORTHOVIEW
 70
     0
  9
$PUCSORGTOP
 10
0.0
 20
0.0
 30
0.0
  9
$PUCSORGBOTTOM
 10
0.0
 20
0.0
 30
0.0
  9
$PUCSORGLEFT
 10
0.0
 20
0.0
 30
0.0
  9
$PUCSORGRIGHT
 10
0.0
 20
0.0
 30
0.0
  9
$PUCSORGFRONT
 10
0.0
 20
0.0
 30
0.0
  9
$PUCSORGBACK
 10
0.0
 20
0.0
 30
0.0
  9
$USERI1
 70
     0
  9
$USERI2
 70
     0
  9
$USERI3
 70
     0
  9
$USERI4
 70
     0
  9
$USERI5
 70
     0
  9
$USERR1
 40
0.0
  9
$USERR2
 40
0.0
  9
$USERR3
 40
0.0
  9
$USERR4
 40
0.0
  9
$USERR5
 40
0.0
  9
$WORLDVIEW
 70
     1
  9
$SHADEDGE
 70
     3
  9
$SHADEDIF
 70
    70
  9
$TILEMODE
 70
     1
  9
$MAXACTVP
 70
    16
  9
$PINSBASE
 10
0.0
 20
0.0
 30
0.0
  9
$PLIMCHECK
 70
     0
  9
$PEXTMIN
 10
1.000000000000000E+20
 20
1.000000000000000E+20
 30
1.000000000000000E+20
  9
$PEXTMAX
 10
-1.000000000000000E+20
 20
-1.000000000000000E+20
 30
-1.000000000000000E+20
  9
$PLIMMIN
 10
0.0
 20
0.0
  9
$PLIMMAX
 10
12.0
 20
9.0
  9
$UNITMODE
 70
     0
  9
$VISRETAIN
 70
     0
  9
$PLINEGEN
 70
     1
  9
$PSLTSCALE
 70
     0
  9
$TREEDEPTH
 70
  3020
  9
$CMLSTYLE
  2
Standard
  9
$CMLJUST
 70
     0
  9
$CMLSCALE
 40
1.0
  9
$PROXYGRAPHICS
 70
     0
  9
$MEASUREMENT
 70
     0
  9
$CELWEIGHT
370
     0
  9
$ENDCAPS
280
     0
  9
$JOINSTYLE
280
     0
  9
$LWDISPLAY
290
     0
  9
$INSUNITS
 70
     0
  9
$HYPERLINKBASE
  1

  9
$STYLESHEET
  1

  9
$XEDIT
290
     1
  9
$CEPSNTYPE
380
     0
  9
$PSTYLEMODE
290
     1
  9
$FINGERPRINTGUID
  2

  9
$VERSIONGUID
  2

  9
$EXTNAMES
290
     1
  9
$PSVPSCALE
 40
0.0
  9
$OLESTARTUP
290
     0
  9
$SORTENTS
280
   127
  9
$INDEXCTL
280
     0
  9
$HIDETEXT
280
     1
  9
$XCLIPFRAME
280
     2
  9
$HALOGAP
280
     0
  9
$OBSCOLOR
 70
   257
  9
$OBSLTYPE
280
     0
  9
$INTERSECTIONDISPLAY
280
     0
  9
$INTERSECTIONCOLOR
 70
   257
  9
$DIMASSOC
280
     2
  9
$PROJECTNAME
  1

  9
$CAMERADISPLAY
290
     0
  9
$LENSLENGTH
 40
50.0
  9
$CAMERAHEIGHT
 40
0.0
  9
$STEPSPERSEC
 40
2.0
  9
$STEPSIZE
 40
6.0
  9
$3DDWFPREC
 40
2.0
  9
$PSOLWIDTH
 40
0.25
  9
$PSOLHEIGHT
 40
4.0
  9
$LOFTANG1
 40
1.570796326794897
  9
$LOFTANG2
 40
1.570796326794897
  9
$LOFTMAG1
 40
0.0
  9
$LOFTMAG2
 40
0.0
  9
$LOFTPARAM
 70
     7
  9
$LOFTNORMALS
280
     1
  9
$LATITUDE
 40
37.795
  9
$LONGITUDE
 40
-122.394
  9
$NORTHDIRECTION
 40
0.0
  9
$TIMEZONE
 70
 -8000
  9
$LIGHTGLYPHDISPLAY
280
     1
  9
$TILEMODELIGHTSYNCH
280
     1
  9
$SOLIDHIST
280
     0
  9
$SHOWHIST
280
     1
  9
$DWFFRAME
280
     2
  9
$DGNFRAME
280
     2
  9
$REALWORLDSCALE
290
     1
  9
$INTERFERECOLOR
 62
   256
  9
$CSHADOW
280
     0
  9
$SHADOWPLANELOCATION
 40
0.0
  0
ENDSEC
  0
SECTION
  2
CLASSES
  0
CLASS
  1
LWPOLYLINE
  2
AcDbPolyline
  3
ObjectDBX Classes
 90
        0
 91
        1
280
     0
281
     1
  0
CLASS
  1
IMAGE
  2
AcDbRasterImage
  3
ISM
 90
      127
 91
        5
280
     0
281
     1
  0
CLASS
  1
OLE2FRAME
  2
AcDbOle2Frame
  3
ObjectDBX Classes
 90
        0
 91
        1
280
     0
281
     1
  0
CLASS
  1
HATCH
  2
AcDbHatch
  3
ObjectDBX Classes
 90
        0
 91
        1
280
     0
281
     1
  0
CLASS
  1
DICTIONARYVAR
  2
AcDbDictionaryVar
  3
ObjectDBX Classes
 90
        0
 91
        4
280
     0
281
     0
  0
CLASS
  1
RASTERVARIABLES
  2
AcDbRasterVariables
  3
ISM
 90
        0
 91
        4
280
     0
281
     0
  0
CLASS
  1
IMAGEDEF
  2
AcDbRasterImageDef
  3
ISM
 90
        0
 91
        4
280
     0
281
     0
  0
CLASS
  1
IMAGEDEF_REACTOR
  2
AcDbRasterImageDefReactor
  3
ISM
 90
        1
 91
        4
280
     0
281
     0
  0
CLASS
  1
IDBUFFER
  2
AcDbIdBuffer
  3
ObjectDBX Classes
 90
        0
 91
        4
280
     0
281
     0
  0
CLASS
  1
SPATIAL_FILTER
  2
AcDbSpatialFilter
  3
ObjectDBX Classes
 90
        0
 91
        4
280
     0
281
     0
  0
CLASS
  1
XRECORD
  2
AcDbXrecord
  3
ObjectDBX Classes
 90
        0
 91
        1
280
     0
281
     0
  0
CLASS
  1
SORTENTSTABLE
  2
AcDbSortentsTable
  3
ObjectDBX Classes
 90
        0
 91
        4
280
     0
281
     0
  0
CLASS
  1
LAYER_INDEX
  2
AcDbLayerIndex
  3
ObjectDBX Classes
 90
        0
 91
        4
280
     0
281
     0
  0
CLASS
  1
SPATIAL_INDEX
  2
AcDbSpatialIndex
  3
AutoCAD 2000
 90
        0
 91
        4
280
     0
281
     0
  0
CLASS
  1
OBJECT_PTR
  2
CAseDLPNTableRecord
  3
ASE-LPNTableRecord
 90
        1
 91
        4
280
     0
281
     0
  0
CLASS
  1
LAYOUT
  2
AcDbLayout
  3
ObjectDBX Classes
 90
        0
 91
        1
280
     0
281
     0
  0
CLASS
  1
PLOTSETTINGS
  2
AcDbPlotSettings
  3
ObjectDBX Classes
 90
        0
 91
        4
280
     0
281
     0
  0
CLASS
  1
ACDBDICTIONARYWDFLT
  2
AcDbDictionaryWithDefault
  3
ObjectDBX Classes
 90
        0
 91
        4
280
     0
281
     0
  0
CLASS
  1
ACDBPLACEHOLDER
  2
AcDbPlaceHolder
  3
ObjectDBX Classes
 90
        0
 91
        1
280
     0
281
     0
  0
CLASS
  1
VBA_PROJECT
  2
AcDbVbaProject
  3
ObjectDBX Classes
 90
        0
 91
        1
280
     0
281
     0
  0
CLASS
  1
WIPEOUT
  2
AcDbWipeout
  3
WipeOut|AutoCAD Express Tool|expresstools@autodesk.com
 90
      127
 91
        4
280
     0
281
     1
  0
CLASS
  1
WIPEOUTVARIABLES
  2
AcDbWipeoutVariables
  3
WipeOut|AutoCAD Express Tool|expresstools@autodesk.com
 90
        0
 91
        4
280
     0
281
     0
  0
CLASS
  1
RTEXT
  2
RText
  3
RText|AutoCAD Express Tool|expresstools@autodesk.com
 90
        0
 91
        4
280
     0
281
     1
  0
CLASS
  1
ARCALIGNEDTEXT
  2
AcDbArcAlignedText
  3
ATEXT|AutoCAD Express Tool|expresstools@autodesk.com
 90
        0
 91
        4
280
     0
281
     1
  0
CLASS
  1
SCALE
  2
AcDbScale
  3
ObjectDBX Classes
 90
     1153
 91
        4
280
     0
281
     0
  0
CLASS
  1
VISUALSTYLE
  2
AcDbVisualStyle
  3
ObjectDBX Classes
 90
     4095
 91
        4
280
     0
281
     0
  0
CLASS
  1
MATERIAL
  2
AcDbMaterial
  3
ObjectDBX Classes
 90
     1153
 91
        4
280
     0
281
     0
  0
CLASS
  1
TABLESTYLE
  2
AcDbTableStyle
  3
ObjectDBX Classes
 90
     4095
 91
        4
280
     0
281
     0
  0
CLASS
  1
MLEADERSTYLE
  2
AcDbMLeaderStyle
  3
ACDB_MLEADERSTYLE_CLASS
 90
     4095
 91
        4
280
     0
281
     0
  0
CLASS
  1
CELLSTYLEMAP
  2
AcDbCellStyleMap
  3
ObjectDBX Classes
 90
     1152
 91
        4
280
     0
281
     0
  0
ENDSEC
  0
SECTION
  2
TABLES
  0
TABLE
  2
VPORT
  5
7
330
0
100
AcDbSymbolTable
 70
     1
  0
VPORT
  5
15
330
7
100
AcDbSymbolTableRecord
100
AcDbViewportTableRecord
  2
*ACTIVE
 70
     0
 10
0.0
 20
0.0
 11
1.0
 21
1.0
 12
6.591288
 22
4.579184
 13
0.0
 23
0.0
 14
1.0
 24
1.0
 15
0.0
 25
0.0
 16
0.0
 26
0.0
 36
1.0
 17
0.0
 27
0.0
 37
0.0
 40
9.158369
 41
0.688564
 42
50.0
 43
0.0
 44
0.0
 50
0.0
 51
0.0
 71
     0
 72
   100
 73
     1
 74
     1
 75
     0
 76
     0
 77
     0
 78
     0
281
     0
 65
     0
110
0.0
120
0.0
130
0.0
111
1.0
121
0.0
131
0.0
112
0.0
122
1.0
132
0.0
 79
     0
146
0.0
348
F4
 60
     3
 61
     5
292
     1
282
     1
141
0.0
142
0.0
 63
   256
  0
ENDTAB
  0
TABLE
  2
LTYPE
  5
4
330
0
100
AcDbSymbolTable
 70
     3
  0
LTYPE
  5
11
330
4
100
AcDbSymbolTableRecord
100
AcDbLinetypeTableRecord
  2
ByBlock
 70
     0
  3

 72
    65
 73
     0
 40
0.0
  0
LTYPE
  5
12
330
4
100
AcDbSymbolTableRecord
100
AcDbLinetypeTableRecord
  2
ByLayer
 70
     0
  3

 72
    65
 73
     0
 40
0.0
  0
LTYPE
  5
13
330
4
100
AcDbSymbolTableRecord
100
AcDbLinetypeTableRecord
  2
Continuous
 70
     0
  3
Solid line
 72
    65
 73
     0
 40
0.0
  0
LTYPE
  5
4C
330
4
100
AcDbSymbolTableRecord
100
AcDbLinetypeTableRecord
  2
AI9-LType1
 70
     0
  3
Illustrator Dash Style No.1
 72
    65
 73
     4
 40
3.175
 49
1.411111
 74
     0
 49
-0.705556
 74
     0
 49
0.352778
 74
     0
 49
-0.705556
 74
     0
  0
LTYPE
  5
4F
330
4
100
AcDbSymbolTableRecord
100
AcDbLinetypeTableRecord
  2
AI9-LType2
 70
     0
  3
Illustrator Dash Style No.2
 72
    65
 73
     2
 40
2.116667
 49
1.411111
 74
     0
 49
-0.705556
 74
     0
  0
ENDTAB
  0
TABLE
  2
LAYER
  5
2
330
0
100
AcDbSymbolTable
 70
     2
  0
LAYER
  5
14
330
2
100
AcDbSymbolTableRecord
100
AcDbLayerTableRecord
  2
0
 70
     0
 62
     7
  6
Continuous
370
    -3
390
1D
347
10B
  0
LAYER
  5
28
330
2
100
AcDbSymbolTableRecord
100
AcDbLayerTableRecord
  2
LAYER_1
 70
     0
 62
   160
  6
Continuous
370
    -3
390
1D
347
10B
  0
ENDTAB
  0
TABLE
  2
STYLE
  5
3
330
0
100
AcDbSymbolTable
 70
     5
  0
STYLE
  5
17
330
3
100
AcDbSymbolTableRecord
100
AcDbTextStyleTableRecord
  2
Standard
 70
     0
 40
0.0
 41
1.0
 50
0.0
 71
     0
 42
0.0
  3
txt
  4

  0
STYLE
  5
24
330
3
100
AcDbSymbolTableRecord
100
AcDbTextStyleTableRecord
  2
STD
 70
     0
 40
0.0
 41
1.0
 50
0.0
 71
     0
 42
0.0
  3
txt
  4

  0
STYLE
  5
25
330
3
100
AcDbSymbolTableRecord
100
AcDbTextStyleTableRecord
  2
TATESTD
 70
     4
 40
0.0
 41
1.0
 50
0.0
 71
     0
 42
0.0
  3
txt
  4

  0
STYLE
  5
26
330
3
100
AcDbSymbolTableRecord
100
AcDbTextStyleTableRecord
  2
KANJISTD
 70
     0
 40
0.0
 41
1.0
 50
0.0
 71
     0
 42
0.0
  3
txt
  4
extfont
  0
STYLE
  5
27
330
3
100
AcDbSymbolTableRecord
100
AcDbTextStyleTableRecord
  2
KANJITATE
 70
     4
 40
0.0
 41
1.0
 50
0.0
 71
     0
 42
0.0
  3
txt
  4
extfont
  0
ENDTAB
  0
TABLE
  2
VIEW
  5
5
330
0
100
AcDbSymbolTable
 70
     0
  0
ENDTAB
  0
TABLE
  2
UCS
  5
6
330
0
100
AcDbSymbolTable
 70
     0
  0
ENDTAB
  0
TABLE
  2
APPID
  5
8
330
0
100
AcDbSymbolTable
 70
     1
  0
APPID
  5
16
330
8
100
AcDbSymbolTableRecord
100
AcDbRegAppTableRecord
  2
ACAD
 70
     0
  0
ENDTAB
  0
TABLE
  2
DIMSTYLE
  5
9
330
0
100
AcDbSymbolTable
 70
     1
100
AcDbDimStyleTable
  0
DIMSTYLE
105
18
330
9
100
AcDbSymbolTableRecord
100
AcDbDimStyleTableRecord
  2
Standard
 70
     0
178
     0
340
17
  0
ENDTAB
  0
TABLE
  2
BLOCK_RECORD
  5
1
330
0
100
AcDbSymbolTable
 70
     1
  0
BLOCK_RECORD
  5
A
330
1
100
AcDbSymbolTableRecord
100
AcDbBlockTableRecord
  2
*MODEL_SPACE
340
20
 70
     0
280
     1
281
     0
  0
BLOCK_RECORD
  5
B
330
1
100
AcDbSymbolTableRecord
100
AcDbBlockTableRecord
  2
*PAPER_SPACE
340
21
 70
     0
280
     1
281
     0
  0
BLOCK_RECORD
  5
42
330
1
100
AcDbSymbolTableRecord
100
AcDbBlockTableRecord
  2
AI9-BLK1
340
0
102
{BLKREFS
331
43
102
}
 70
     0
280
     1
281
     0
  0
ENDTAB
  0
ENDSEC
  0
SECTION
  2
BLOCKS
  0
BLOCK
  5
D
330
A
100
AcDbEntity
  8
0
100
AcDbBlockBegin
  2
*MODEL_SPACE
 70
     0
 10
0.0
 20
0.0
 30
0.0
  3
*MODEL_SPACE
  1

  0
ENDBLK
  5
E
330
A
100
AcDbEntity
  8
0
100
AcDbBlockEnd
  0
BLOCK
  5
F
330
B
100
AcDbEntity
 67
     1
  8
0
100
AcDbBlockBegin
  2
*PAPER_SPACE
 70
     0
 10
0.0
 20
0.0
 30
0.0
  3
*PAPER_SPACE
  1

  0
ENDBLK
  5
10
330
B
100
AcDbEntity
 67
     1
  8
0
100
AcDbBlockEnd
  0
BLOCK
  5
44
330
42
100
AcDbEntity
  8
LAYER_1
 62
     7
100
AcDbBlockBegin
  2
AI9-BLK1
 70
     0
 10
0.0
 20
0.0
 30
0.0
  3
AI9-BLK1
  1

  0
CIRCLE
  5
47
330
42
100
AcDbEntity
  8
LAYER_1
 62
     7
100
AcDbCircle
 10
0.000172
 20
-0.003101
 30
0.0
 40
0.783931
  0
LINE
  5
46
330
42
100
AcDbEntity
  8
LAYER_1
 62
     7
100
AcDbLine
 10
0.0
 20
1.564762
 30
0.0
 11
0.0
 21
-1.564762
 31
0.0
  0
LINE
  5
45
330
42
100
AcDbEntity
  8
LAYER_1
 62
     7
100
AcDbLine
 10
-1.564762
 20
-0.003101
 30
0.0
 11
1.564762
 21
-0.003101
 31
0.0
  0
ENDBLK
  5
48
330
42
100
AcDbEntity
  8
LAYER_1
100
AcDbBlockEnd
  0
ENDSEC
  0
SECTION
  2
ENTITIES
  0
LINE
  5
CC
330
A
100
AcDbEntity
  8
LAYER_1
 62
   230
100
AcDbLine
 10
-548.856421
 20
1090.272125
 30
0.0
 11
-548.856421
 21
-832.796023
 31
0.0
  0
LINE
  5
CB
330
A
100
AcDbEntity
  8
LAYER_1
 62
   230
100
AcDbLine
 10
-392.305425
 20
1090.272125
 30
0.0
 11
-392.305425
 21
-832.796023
 31
0.0
  0
LINE
  5
CA
330
A
100
AcDbEntity
  8
LAYER_1
 62
   230
100
AcDbLine
 10
-235.75753
 20
1090.272125
 30
0.0
 11
-235.75753
 21
-832.796023
 31
0.0
  0
LINE
  5
C9
330
A
100
AcDbEntity
  8
LAYER_1
 62
   230
100
AcDbLine
 10
-79.20619
 20
1090.272125
 30
0.0
 11
-79.20619
 21
-832.796023
 31
0.0
  0
LINE
  5
C8
330
A
100
AcDbEntity
  8
LAYER_1
 62
   230
100
AcDbLine
 10
77.344805
 20
1090.272125
 30
0.0
 11
77.344805
 21
-832.796023
 31
0.0
  0
LINE
  5
C7
330
A
100
AcDbEntity
  8
LAYER_1
 62
   230
100
AcDbLine
 10
233.899246
 20
1090.272125
 30
0.0
 11
233.899246
 21
-832.796023
 31
0.0
  0
LINE
  5
C6
330
A
100
AcDbEntity
  8
LAYER_1
 62
   230
100
AcDbLine
 10
390.450241
 20
1090.272125
 30
0.0
 11
390.450241
 21
-832.796023
 31
0.0
  0
LINE
  5
C5
330
A
100
AcDbEntity
  8
LAYER_1
 62
   230
100
AcDbLine
 10
547.001581
 20
1090.272125
 30
0.0
 11
547.001581
 21
-832.796023
 31
0.0
  0
LINE
  5
C4
330
A
100
AcDbEntity
  8
LAYER_1
 62
   230
100
AcDbLine
 10
703.552577
 20
1090.272125
 30
0.0
 11
703.552577
 21
-832.796023
 31
0.0
  0
LINE
  5
C3
330
A
100
AcDbEntity
  8
LAYER_1
 62
   230
100
AcDbLine
 10
860.103573
 20
1090.272125
 30
0.0
 11
860.103573
 21
-832.796023
 31
0.0
  0
LINE
  5
C2
330
A
100
AcDbEntity
  8
LAYER_1
 62
   230
100
AcDbLine
 10
-595.826164
 20
-833.05096
 30
0.0
 11
898.152585
 21
-833.057161
 31
0.0
  0
LINE
  5
C1
330
A
100
AcDbEntity
  8
LAYER_1
 62
   230
100
AcDbLine
 10
-595.826164
 20
-676.503065
 30
0.0
 11
898.152585
 21
-676.503065
 31
0.0
  0
LINE
  5
C0
330
A
100
AcDbEntity
  8
LAYER_1
 62
   230
100
AcDbLine
 10
-595.826164
 20
-519.948625
 30
0.0
 11
898.152585
 21
-519.948625
 31
0.0
  0
LINE
  5
BF
330
A
100
AcDbEntity
  8
LAYER_1
 62
   230
100
AcDbLine
 10
-595.826164
 20
-363.397285
 30
0.0
 11
898.152585
 21
-363.40073
 31
0.0
  0
LINE
  5
BE
330
A
100
AcDbEntity
  8
LAYER_1
 62
   230
100
AcDbLine
 10
-595.826164
 20
-206.846289
 30
0.0
 11
898.152585
 21
-206.84939
 31
0.0
  0
LINE
  5
BD
330
A
100
AcDbEntity
  8
LAYER_1
 62
   230
100
AcDbLine
 10
-595.826164
 20
-50.291848
 30
0.0
 11
898.152585
 21
-50.298394
 31
0.0
  0
LINE
  5
BC
330
A
100
AcDbEntity
  8
LAYER_1
 62
   230
100
AcDbLine
 10
-595.826164
 20
106.256047
 30
0.0
 11
898.152585
 21
106.249501
 31
0.0
  0
LINE
  5
BB
330
A
100
AcDbEntity
  8
LAYER_1
 62
   230
100
AcDbLine
 10
-595.826164
 20
262.810487
 30
0.0
 11
898.152585
 21
262.803942
 31
0.0
  0
LINE
  5
BA
330
A
100
AcDbEntity
  8
LAYER_1
 62
   230
100
AcDbLine
 10
-595.826164
 20
419.358382
 30
0.0
 11
898.152585
 21
419.358382
 31
0.0
  0
LINE
  5
B9
330
A
100
AcDbEntity
  8
LAYER_1
 62
   230
100
AcDbLine
 10
-595.826164
 20
575.912478
 30
0.0
 11
898.152585
 21
575.906277
 31
0.0
  0
LINE
  5
B8
330
A
100
AcDbEntity
  8
LAYER_1
 62
   230
100
AcDbLine
 10
-595.826164
 20
732.463818
 30
0.0
 11
898.152585
 21
732.463818
 31
0.0
  0
LINE
  5
B7
330
A
100
AcDbEntity
  8
LAYER_1
 62
   230
100
AcDbLine
 10
-595.826164
 20
889.018259
 30
0.0
 11
898.152585
 21
889.011713
 31
0.0
  0
LINE
  5
B6
330
A
100
AcDbEntity
  8
LAYER_1
 62
   230
100
AcDbLine
 10
-595.826164
 20
1045.566154
 30
0.0
 11
898.152585
 21
1045.563053
 31
0.0
  0
MTEXT
  5
B5
330
A
100
AcDbEntity
  8
LAYER_1
 62
     7
100
AcDbMText
 10
-677.162629
 20
-815.510105
 30
0.0
 40
30.816531
 41
0.0
 46
0.0
 71
     1
 72
     2
  1
\W1.00;\fMyriad Roman|b0|i0;200
  7
STD
 73
     1
 44
1.0
  0
MTEXT
  5
B4
330
A
100
AcDbEntity
  8
LAYER_1
 62
     7
100
AcDbMText
 10
-677.162629
 20
-658.92397
 30
0.0
 40
30.816531
 41
0.0
 46
0.0
 71
     1
 72
     2
  1
\W1.00;\fMyriad Roman|b0|i0;210
  7
STD
 73
     1
 44
1.0
  0
MTEXT
  5
B3
330
A
100
AcDbEntity
  8
LAYER_1
 62
     7
100
AcDbMText
 10
-677.162629
 20
-502.33749
 30
0.0
 40
30.816531
 41
0.0
 46
0.0
 71
     1
 72
     2
  1
\W1.00;\fMyriad Roman|b0|i0;220
  7
STD
 73
     1
 44
1.0
  0
MTEXT
  5
B2
330
A
100
AcDbEntity
  8
LAYER_1
 62
     7
100
AcDbMText
 10
-677.162629
 20
-345.748254
 30
0.0
 40
30.816531
 41
0.0
 46
0.0
 71
     1
 72
     2
  1
\W1.00;\fMyriad Roman|b0|i0;230
  7
STD
 73
     1
 44
1.0
  0
MTEXT
  5
B1
330
A
100
AcDbEntity
  8
LAYER_1
 62
     7
100
AcDbMText
 10
-677.162629
 20
-189.165219
 30
0.0
 40
30.816531
 41
0.0
 46
0.0
 71
     1
 72
     2
  1
\W1.00;\fMyriad Roman|b0|i0;240
  7
STD
 73
     1
 44
1.0
  0
MTEXT
  5
B0
330
A
100
AcDbEntity
  8
LAYER_1
 62
     7
100
AcDbMText
 10
-677.162629
 20
-32.575638
 30
0.0
 40
30.816531
 41
0.0
 46
0.0
 71
     1
 72
     2
  1
\W1.00;\fMyriad Roman|b0|i0;250
  7
STD
 73
     1
 44
1.0
  0
MTEXT
  5
AF
330
A
100
AcDbEntity
  8
LAYER_1
 62
     7
100
AcDbMText
 10
-677.162629
 20
124.010498
 30
0.0
 40
30.816531
 41
0.0
 46
0.0
 71
     1
 72
     2
  1
\W1.00;\fMyriad Roman|b0|i0;260
  7
STD
 73
     1
 44
1.0
  0
MTEXT
  5
AE
330
A
100
AcDbEntity
  8
LAYER_1
 62
     7
100
AcDbMText
 10
-677.162629
 20
280.599734
 30
0.0
 40
30.816531
 41
0.0
 46
0.0
 71
     1
 72
     2
  1
\W1.00;\fMyriad Roman|b0|i0;270
  7
STD
 73
     1
 44
1.0
  0
MTEXT
  5
AD
330
A
100
AcDbEntity
  8
LAYER_1
 62
     7
100
AcDbMText
 10
-677.162629
 20
437.186214
 30
0.0
 40
30.816531
 41
0.0
 46
0.0
 71
     1
 72
     2
  1
\W1.00;\fMyriad Roman|b0|i0;280
  7
STD
 73
     1
 44
1.0
  0
MTEXT
  5
AC
330
A
100
AcDbEntity
  8
LAYER_1
 62
     7
100
AcDbMText
 10
-677.162629
 20
593.772349
 30
0.0
 40
30.816531
 41
0.0
 46
0.0
 71
     1
 72
     2
  1
\W1.00;\fMyriad Roman|b0|i0;290
  7
STD
 73
     1
 44
1.0
  0
MTEXT
  5
AB
330
A
100
AcDbEntity
  8
LAYER_1
 62
     7
100
AcDbMText
 10
-677.162629
 20
750.352284
 30
0.0
 40
30.816531
 41
0.0
 46
0.0
 71
     1
 72
     2
  1
\W1.00;\fMyriad Roman|b0|i0;300
  7
STD
 73
     1
 44
1.0
  0
MTEXT
  5
AA
330
A
100
AcDbEntity
  8
LAYER_1
 62
     7
100
AcDbMText
 10
-677.162629
 20
906.94152
 30
0.0
 40
30.816531
 41
0.0
 46
0.0
 71
     1
 72
     2
  1
\W1.00;\fMyriad Roman|b0|i0;310
  7
STD
 73
     1
 44
1.0
  0
MTEXT
  5
A9
330
A
100
AcDbEntity
  8
LAYER_1
 62
     7
100
AcDbMText
 10
-677.162629
 20
1063.530756
 30
0.0
 40
30.816531
 41
0.0
 46
0.0
 71
     1
 72
     2
  1
\W1.00;\fMyriad Roman|b0|i0;320
  7
STD
 73
     1
 44
1.0
  0
MTEXT
  5
A8
330
A
100
AcDbEntity
  8
LAYER_1
 62
     7
100
AcDbMText
 10
-581.331613
 20
1149.449715
 30
0.0
 40
30.816531
 41
0.0
 46
0.0
 71
     1
 72
     2
  1
\W1.00;\fMyriad Roman|b0|i0;730
  7
STD
 73
     1
 44
1.0
  0
MTEXT
  5
A7
330
A
100
AcDbEntity
  8
LAYER_1
 62
     7
100
AcDbMText
 10
-425.078619
 20
1149.449715
 30
0.0
 40
30.816531
 41
0.0
 46
0.0
 71
     1
 72
     2
  1
\W1.00;\fMyriad Roman|b0|i0;740
  7
STD
 73
     1
 44
1.0
  0
MTEXT
  5
A6
330
A
100
AcDbEntity
  8
LAYER_1
 62
     7
100
AcDbMText
 10
-268.828725
 20
1149.449715
 30
0.0
 40
30.816531
 41
0.0
 46
0.0
 71
     1
 72
     2
  1
\W1.00;\fMyriad Roman|b0|i0;750
  7
STD
 73
     1
 44
1.0
  0
MTEXT
  5
A5
330
A
100
AcDbEntity
  8
LAYER_1
 62
     7
100
AcDbMText
 10
-112.575385
 20
1149.449715
 30
0.0
 40
30.816531
 41
0.0
 46
0.0
 71
     1
 72
     2
  1
\W1.00;\fMyriad Roman|b0|i0;760
  7
STD
 73
     1
 44
1.0
  0
MTEXT
  5
A4
330
A
100
AcDbEntity
  8
LAYER_1
 62
     7
100
AcDbMText
 10
43.674509
 20
1149.446614
 30
0.0
 40
30.816531
 41
0.0
 46
0.0
 71
     1
 72
     2
  1
\W1.00;\fMyriad Roman|b0|i0;770
  7
STD
 73
     1
 44
1.0
  0
MTEXT
  5
A3
330
A
100
AcDbEntity
  8
LAYER_1
 62
     7
100
AcDbMText
 10
199.929226
 20
1149.446614
 30
0.0
 40
30.816531
 41
0.0
 46
0.0
 71
     1
 72
     2
  1
\W1.00;\fMyriad Roman|b0|i0;780
  7
STD
 73
     1
 44
1.0
  0
MTEXT
  5
A2
330
A
100
AcDbEntity
  8
LAYER_1
 62
     7
100
AcDbMText
 10
356.180843
 20
1149.446614
 30
0.0
 40
30.816531
 41
0.0
 46
0.0
 71
     1
 72
     2
  1
\W1.00;\fMyriad Roman|b0|i0;790
  7
STD
 73
     1
 44
1.0
  0
MTEXT
  5
A1
330
A
100
AcDbEntity
  8
LAYER_1
 62
     7
100
AcDbMText
 10
512.43556
 20
1149.446614
 30
0.0
 40
30.816531
 41
0.0
 46
0.0
 71
     1
 72
     2
  1
\W1.00;\fMyriad Roman|b0|i0;800
  7
STD
 73
     1
 44
1.0
  0
MTEXT
  5
A0
330
A
100
AcDbEntity
  8
LAYER_1
 62
     7
100
AcDbMText
 10
668.687177
 20
1149.446614
 30
0.0
 40
30.816531
 41
0.0
 46
0.0
 71
     1
 72
     2
  1
\W1.00;\fMyriad Roman|b0|i0;810
  7
STD
 73
     1
 44
1.0
  0
MTEXT
  5
9F
330
A
100
AcDbEntity
  8
LAYER_1
 62
     7
100
AcDbMText
 10
824.942239
 20
1149.446614
 30
0.0
 40
30.816531
 41
0.0
 46
0.0
 71
     1
 72
     2
  1
\W1.00;\fMyriad Roman|b0|i0;820
  7
STD
 73
     1
 44
1.0
  0
HATCH
  5
9E
330
A
100
AcDbEntity
  8
LAYER_1
 62
   252
100
AcDbHatch
 10
0.0
 20
0.0
 30
0.0
210
0.0
220
0.0
230
1.0
  2
SOLID
 70
     1
 71
     0
 91
        1
 92
        1
 93
        1
 72
     4
 94
        3
 73
     0
 74
     0
 95
       41
 96
       37
 40
0.0
 40
0.0
 40
0.0
 40
0.0
 40
1.0
 40
1.0
 40
1.0
 40
2.0
 40
2.0
 40
2.0
 40
3.0
 40
3.0
 40
3.0
 40
4.0
 40
4.0
 40
4.0
 40
5.0
 40
5.0
 40
5.0
 40
6.0
 40
6.0
 40
6.0
 40
7.0
 40
7.0
 40
7.0
 40
8.0
 40
8.0
 40
8.0
 40
9.0
 40
9.0
 40
9.0
 40
10.0
 40
10.0
 40
10.0
 40
11.0
 40
11.0
 40
11.0
 40
12.0
 40
12.0
 40
12.0
 40
12.0
 10
269.5580512152778
 20
639.136181640625
 10
268.6750732421875
 20
639.4035210503472
 10
268.1941379123264
 20
639.6364095052082
 10
267.2984130859375
 20
639.8975477430555
 10
266.7155029296875
 20
640.066357421875
 10
266.3392985026042
 20
640.0381076388888
 10
265.7784369574653
 20
640.2703070746527
 10
265.0901068793402
 20
640.5638292100693
 10
264.6346652560763
 20
640.525244140625
 10
263.9270426432291
 20
640.7774251302083
 10
263.4426622178819
 20
640.9586371527777
 10
262.8404595269097
 20
640.9269422743055
 10
262.7829264322916
 20
641.4430175781249
 10
262.6682047526041
 20
642.0869059244791
 10
262.5059407552083
 20
642.488259548611
 10
262.5059407552083
 20
643.1321478949652
 10
262.5059407552083
 20
644.8912136501735
 10
264.3573350694444
 20
645.8313802083333
 10
266.1195014105903
 20
645.8313802083333
 10
267.7032118055556
 20
645.8313802083333
 10
268.6306315104167
 20
645.7197591145833
 10
270.1409613715277
 20
645.1971381293403
 10
271.0938747829861
 20
644.8657199435763
 10
271.5686089409722
 20
644.4643663194444
 10
272.3206732855903
 20
643.8046305338542
 10
272.8050537109375
 20
643.3743381076388
 10
273.3852077907986
 20
643.1672878689236
 10
273.3852077907986
 20
642.5202989366319
 10
273.3852077907986
 20
641.6345648871527
 10
272.8498399522569
 20
641.1946261935764
 10
272.2696858723958
 20
640.5317898220486
 10
271.5338134765625
 20
639.6904975043402
 10
270.9343668619791
 20
639.0280056423611
 10
269.8095431857639
 20
639.0280056423611
 10
269.7203152126736
 20
639.0280056423611
 10
269.6407335069444
 20
639.1106879340277
 10
269.5580512152778
 20
639.136181640625
 97
        0
 97
        0
 75
     0
 76
     1
 98
        1
 10
0.0
 20
0.0
  0
SPLINE
  5
9D
330
A
100
AcDbEntity
  8
LAYER_1
 62
     7
100
AcDbSpline
210
0.0
220
0.0
230
1.0
 70
     8
 71
     3
 72
    11
 73
     7
 74
     0
 42
0.000000001
 43
0.00000001
 40
0.0
 40
0.0
 40
0.0
 40
0.0
 40
1.0
 40
1.0
 40
1.0
 40
2.0
 40
2.0
 40
2.0
 40
2.0
 10
247.6048692491319
 20
648.447585720486
 30
0.0
 10
248.0575547960069
 20
648.224343532986
 30
0.0
 10
248.2615044487847
 20
647.9377115885416
 30
0.0
 10
248.7586317274305
 20
647.9377115885416
 30
0.0
 10
248.921240234375
 20
647.9377115885416
 30
0.0
 10
248.8861002604166
 20
648.1926486545138
 30
0.0
 10
248.8861002604166
 20
648.3552571614583
 30
0.0
  0
SPLINE
  5
9C
330
A
100
AcDbEntity
  8
LAYER_1
 62
     7
100
AcDbSpline
210
0.0
220
0.0
230
1.0
 70
     8
 71
     3
 72
    14
 73
    10
 74
     0
 42
0.000000001
 43
0.00000001
 40
0.0
 40
0.0
 40
0.0
 40
0.0
 40
1.0
 40
1.0
 40
1.0
 40
2.0
 40
2.0
 40
2.0
 40
3.0
 40
3.0
 40
3.0
 40
3.0
 10
249.7687337239583
 20
648.447585720486
 30
0.0
 10
249.7463406032986
 20
648.2977240668403
 30
0.0
 10
249.7208468967014
 20
648.2119411892361
 30
0.0
 10
249.7208468967014
 20
648.0617350260416
 30
0.0
 10
249.7208468967014
 20
647.3830512152778
 30
0.0
 10
250.6100260416667
 20
647.408544921875
 30
0.0
 10
251.2315212673611
 20
647.1536078559027
 30
0.0
 10
251.291810438368
 20
647.294167751736
 30
0.0
 10
251.3365966796875
 20
647.408544921875
 30
0.0
 10
251.3682915581597
 20
647.5680528428819
 30
0.0
  0
SPLINE
  5
9B
330
A
100
AcDbEntity
  8
LAYER_1
 62
     7
100
AcDbSpline
210
0.0
220
0.0
230
1.0
 70
     8
 71
     3
 72
    20
 73
    16
 74
     0
 42
0.000000001
 43
0.00000001
 40
0.0
 40
0.0
 40
0.0
 40
0.0
 40
1.0
 40
1.0
 40
1.0
 40
2.0
 40
2.0
 40
2.0
 40
3.0
 40
3.0
 40
3.0
 40
4.0
 40
4.0
 40
4.0
 40
5.0
 40
5.0
 40
5.0
 40
5.0
 10
253.4494737413194
 20
647.8040418836805
 30
0.0
 10
253.5035617404514
 20
647.408544921875
 30
0.0
 10
253.4494737413194
 20
646.8797227647569
 30
0.0
 10
253.8411810980903
 20
646.8797227647569
 30
0.0
 10
254.2077392578125
 20
646.8797227647569
 30
0.0
 10
254.4182345920139
 20
646.9689507378472
 30
0.0
 10
254.78134765625
 20
646.9689507378472
 30
0.0
 10
255.2688286675347
 20
646.9689507378472
 30
0.0
 10
255.533412000868
 20
646.835281032986
 30
0.0
 10
256.0146918402777
 20
646.835281032986
 30
0.0
 10
256.1549072265625
 20
646.835281032986
 30
0.0
 10
256.2024495442708
 20
646.9944444444444
 30
0.0
 10
256.2024495442708
 20
647.1346598307291
 30
0.0
 10
256.2024495442708
 20
647.2810763888888
 30
0.0
 10
256.1325141059028
 20
647.3830512152778
 30
0.0
 10
256.110120985243
 20
647.5236111111111
 30
0.0
  0
SPLINE
  5
9A
330
A
100
AcDbEntity
  8
LAYER_1
 62
     7
100
AcDbSpline
210
0.0
220
0.0
230
1.0
 70
     8
 71
     3
 72
    17
 73
    13
 74
     0
 42
0.000000001
 43
0.00000001
 40
0.0
 40
0.0
 40
0.0
 40
0.0
 40
1.0
 40
1.0
 40
1.0
 40
2.0
 40
2.0
 40
2.0
 40
3.0
 40
3.0
 40
3.0
 40
4.0
 40
4.0
 40
4.0
 40
4.0
 10
257.0406412760416
 20
647.294167751736
 30
0.0
 10
257.0981743706597
 20
646.9465576171874
 30
0.0
 10
257.2352891710069
 20
646.5672526041666
 30
0.0
 10
257.5791097005208
 20
646.5672526041666
 30
0.0
 10
257.8247450086805
 20
646.5672526041666
 30
0.0
 10
257.9487684461805
 20
646.478369140625
 30
0.0
 10
258.1909586588541
 20
646.478369140625
 30
0.0
 10
258.398353407118
 20
646.478369140625
 30
0.0
 10
258.5258219401042
 20
646.5100640190972
 30
0.0
 10
258.7359727647569
 20
646.5004177517361
 30
0.0
 10
258.745619032118
 20
646.6823187934027
 30
0.0
 10
258.745619032118
 20
646.7842936197916
 30
0.0
 10
258.7359727647569
 20
646.9689507378472
 30
0.0
  0
SPLINE
  5
99
330
A
100
AcDbEntity
  8
LAYER_1
 62
     7
100
AcDbSpline
210
0.0
220
0.0
230
1.0
 70
    11
 71
     3
 72
    47
 73
    43
 74
     0
 42
0.000000001
 43
0.00000001
 40
0.0
 40
0.0
 40
0.0
 40
0.0
 40
1.0
 40
1.0
 40
1.0
 40
2.0
 40
2.0
 40
2.0
 40
3.0
 40
3.0
 40
3.0
 40
4.0
 40
4.0
 40
4.0
 40
5.0
 40
5.0
 40
5.0
 40
6.0
 40
6.0
 40
6.0
 40
7.0
 40
7.0
 40
7.0
 40
8.0
 40
8.0
 40
8.0
 40
9.0
 40
9.0
 40
9.0
 40
10.0
 40
10.0
 40
10.0
 40
11.0
 40
11.0
 40
11.0
 40
12.0
 40
12.0
 40
12.0
 40
13.0
 40
13.0
 40
13.0
 40
14.0
 40
14.0
 40
14.0
 40
14.0
 10
257.8181993272569
 20
644.8081868489583
 30
0.0
 10
257.2001491970486
 20
644.9931884765624
 30
0.0
 10
256.8749321831597
 20
645.3118598090277
 30
0.0
 10
256.2186414930555
 20
645.3118598090277
 30
0.0
 10
255.8520833333333
 20
645.3118598090277
 30
0.0
 10
255.4824245876736
 20
645.1079101562499
 30
0.0
 10
255.4824245876736
 20
644.7382514105902
 30
0.0
 10
255.4824245876736
 20
644.4960611979166
 30
0.0
 10
255.8076416015625
 20
644.4388726128471
 30
0.0
 10
255.8076416015625
 20
644.1963378906249
 30
0.0
 10
255.8076416015625
 20
643.2151746961805
 30
0.0
 10
255.4824245876736
 20
642.6894531249999
 30
0.0
 10
255.4824245876736
 20
641.7110460069443
 30
0.0
 10
255.4824245876736
 20
641.3985758463541
 30
0.0
 10
255.6670817057291
 20
641.2390679253472
 30
0.0
 10
255.762855360243
 20
640.9462348090277
 30
0.0
 10
255.8520833333333
 20
640.6847520616319
 30
0.0
 10
255.69912109375
 20
640.2579047309027
 30
0.0
 10
255.9891981336805
 20
640.2579047309027
 30
0.0
 10
256.4384385850694
 20
640.2579047309027
 30
0.0
 10
256.457386610243
 20
640.9462348090277
 30
0.0
 10
256.9131727430556
 20
640.9462348090277
 30
0.0
 10
257.4040988498264
 20
640.9462348090277
 30
0.0
 10
257.604603407118
 20
640.4904486762152
 30
0.0
 10
258.0955295138889
 20
640.4904486762152
 30
0.0
 10
258.4682888454861
 20
640.4904486762152
 30
0.0
 10
258.6498453776042
 20
640.751931423611
 30
0.0
 10
259.0195041232639
 20
640.7643337673611
 30
0.0
 10
259.2840874565972
 20
640.7774251302083
 30
0.0
 10
259.5486707899306
 20
640.6272189670138
 30
0.0
 10
259.711279296875
 20
640.812220594618
 30
0.0
 10
259.94072265625
 20
641.0640570746527
 30
0.0
 10
259.8005072699652
 20
641.3730821397569
 30
0.0
 10
259.8005072699652
 20
641.7330946180555
 30
0.0
 10
259.8005072699652
 20
642.2750081380208
 30
0.0
 10
259.433949110243
 20
642.5268446180555
 30
0.0
 10
259.433949110243
 20
643.0684136284722
 30
0.0
 10
259.433949110243
 20
643.3681369357638
 30
0.0
 10
259.7557210286458
 20
643.4570203993055
 30
0.0
 10
259.7557210286458
 20
643.7567437065971
 30
0.0
 10
259.7557210286458
 20
644.6903645833332
 30
0.0
 10
258.5957573784722
 20
644.2666178385416
 30
0.0
 10
257.8181993272569
 20
644.8081868489583
 30
0.0
  0
SPLINE
  5
98
330
A
100
AcDbEntity
  8
LAYER_1
 62
     7
100
AcDbSpline
210
0.0
220
0.0
230
1.0
 70
     8
 71
     3
 72
    17
 73
    13
 74
     0
 42
0.000000001
 43
0.00000001
 40
0.0
 40
0.0
 40
0.0
 40
0.0
 40
1.0
 40
1.0
 40
1.0
 40
2.0
 40
2.0
 40
2.0
 40
3.0
 40
3.0
 40
3.0
 40
4.0
 40
4.0
 40
4.0
 40
4.0
 10
259.6155056423611
 20
647.0199381510416
 30
0.0
 10
259.7205810546875
 20
646.3825954861111
 30
0.0
 10
260.4822916666666
 20
646.4973171657986
 30
0.0
 10
261.0782931857639
 20
646.2933675130208
 30
0.0
 10
261.5306342230903
 20
646.1404052734374
 30
0.0
 10
261.7600775824653
 20
645.9237087673611
 30
0.0
 10
262.2348117404514
 20
645.9237087673611
 30
0.0
 10
262.8084201388889
 20
645.9237087673611
 30
0.0
 10
263.5222439236111
 20
646.0608235677083
 30
0.0
 10
263.5222439236111
 20
646.6340874565972
 30
0.0
 10
263.5222439236111
 20
647.007191297743
 30
0.0
 10
263.1432834201389
 20
647.077126736111
 30
0.0
 10
262.875599500868
 20
647.3386094835068
 30
0.0
  0
SPLINE
  5
97
330
A
100
AcDbEntity
  8
LAYER_1
 62
     7
100
AcDbSpline
210
0.0
220
0.0
230
1.0
 70
    11
 71
     3
 72
    14
 73
    10
 74
     0
 42
0.000000001
 43
0.00000001
 40
0.0
 40
0.0
 40
0.0
 40
0.0
 40
1.0
 40
1.0
 40
1.0
 40
2.0
 40
2.0
 40
2.0
 40
3.0
 40
3.0
 40
3.0
 40
3.0
 10
265.0487657335069
 20
646.9689507378472
 30
0.0
 10
265.0487657335069
 20
646.4973171657986
 30
0.0
 10
265.2430691189236
 20
645.9684950086805
 30
0.0
 10
265.7178032769097
 20
645.9684950086805
 30
0.0
 10
266.094007703993
 20
645.9684950086805
 30
0.0
 10
266.1990831163194
 20
646.4335828993055
 30
0.0
 10
266.1990831163194
 20
646.8097873263888
 30
0.0
 10
266.1990831163194
 20
647.2621283637152
 30
0.0
 10
265.0487657335069
 20
647.4150906032986
 30
0.0
 10
265.0487657335069
 20
646.9689507378472
 30
0.0
  0
SPLINE
  5
96
330
A
100
AcDbEntity
  8
LAYER_1
 62
     7
100
AcDbSpline
210
0.0
220
0.0
230
1.0
 70
    11
 71
     3
 72
    26
 73
    22
 74
     0
 42
0.000000001
 43
0.00000001
 40
0.0
 40
0.0
 40
0.0
 40
0.0
 40
1.0
 40
1.0
 40
1.0
 40
2.0
 40
2.0
 40
2.0
 40
3.0
 40
3.0
 40
3.0
 40
4.0
 40
4.0
 40
4.0
 40
5.0
 40
5.0
 40
5.0
 40
6.0
 40
6.0
 40
6.0
 40
7.0
 40
7.0
 40
7.0
 40
7.0
 10
270.7497097439236
 20
646.4208360460069
 30
0.0
 10
270.6222412109375
 20
646.4208360460069
 30
0.0
 10
270.5585069444444
 20
646.4687228732638
 30
0.0
 10
270.4406846788194
 20
646.5131646050347
 30
0.0
 10
270.4406846788194
 20
646.5131646050347
 30
0.0
 10
270.2112413194444
 20
646.4687228732638
 30
0.0
 10
270.2112413194444
 20
646.4687228732638
 30
0.0
 10
270.1984944661458
 20
646.3633029513888
 30
0.0
 10
270.1633544921875
 20
646.2933675130208
 30
0.0
 10
270.1633544921875
 20
646.1913926866318
 30
0.0
 10
270.1633544921875
 20
645.6398328993055
 30
0.0
 10
270.8454833984375
 20
645.4999620225694
 30
0.0
 10
271.3966986762152
 20
645.4999620225694
 30
0.0
 10
271.7408637152777
 20
645.4999620225694
 30
0.0
 10
271.99580078125
 20
645.7993408203124
 30
0.0
 10
271.99580078125
 20
646.146950954861
 30
0.0
 10
271.99580078125
 20
646.5927463107638
 30
0.0
 10
271.8555853949653
 20
646.8669759114583
 30
0.0
 10
271.5338134765625
 20
647.1921929253472
 30
0.0
 10
271.2371907552083
 20
646.895570203993
 30
0.0
 10
271.1769015842013
 20
646.4208360460069
 30
0.0
 10
270.7497097439236
 20
646.4208360460069
 30
0.0
  0
SPLINE
  5
95
330
A
100
AcDbEntity
  8
LAYER_1
 62
     7
100
AcDbSpline
210
0.0
220
0.0
230
1.0
 70
     8
 71
     3
 72
    35
 73
    31
 74
     0
 42
0.000000001
 43
0.00000001
 40
0.0
 40
0.0
 40
0.0
 40
0.0
 40
1.0
 40
1.0
 40
1.0
 40
2.0
 40
2.0
 40
2.0
 40
3.0
 40
3.0
 40
3.0
 40
4.0
 40
4.0
 40
4.0
 40
5.0
 40
5.0
 40
5.0
 40
6.0
 40
6.0
 40
6.0
 40
7.0
 40
7.0
 40
7.0
 40
8.0
 40
8.0
 40
8.0
 40
9.0
 40
9.0
 40
9.0
 40
10.0
 40
10.0
 40
10.0
 40
10.0
 10
273.3307752821181
 20
646.0063910590277
 30
0.0
 10
273.4454969618055
 20
645.6494791666667
 30
0.0
 10
273.8695882161458
 20
645.6815185546874
 30
0.0
 10
274.2519938151041
 20
645.6815185546874
 30
0.0
 10
274.7267279730902
 20
645.6815185546874
 30
0.0
 10
274.978564453125
 20
645.8665201822917
 30
0.0
 10
275.4501980251736
 20
645.8665201822917
 30
0.0
 10
276.0045138888889
 20
645.8665201822917
 30
0.0
 10
276.3007921006944
 20
645.8665201822917
 30
0.0
 10
276.8554524739583
 20
645.8665201822917
 30
0.0
 10
277.0721489800347
 20
645.8665201822917
 30
0.0
 10
277.1262369791667
 20
646.1593532986111
 30
0.0
 10
277.1517306857639
 20
646.3729492187499
 30
0.0
 10
277.2664523654514
 20
645.6625705295138
 30
0.0
 10
277.6106174045138
 20
645.2129855685763
 30
0.0
 10
278.2448594835069
 20
644.8977593315972
 30
0.0
 10
278.8660101996527
 20
644.5918348524305
 30
0.0
 10
279.3758843315972
 20
644.8846679687499
 30
0.0
 10
280.0421657986111
 20
644.7193033854167
 30
0.0
 10
281.068115234375
 20
644.4388726128471
 30
0.0
 10
281.4601671006944
 20
643.5307454427083
 30
0.0
 10
282.5309027777777
 20
643.5307454427083
 30
0.0
 10
282.7951416015625
 20
643.5307454427083
 30
0.0
 10
282.9322564019097
 20
643.6675157335069
 30
0.0
 10
283.1999403211805
 20
643.6675157335069
 30
0.0
 10
283.878968641493
 20
643.6675157335069
 30
0.0
 10
284.1656005859375
 20
643.1163004557291
 30
0.0
 10
284.8473849826389
 20
643.1163004557291
 30
0.0
 10
285.3892985026042
 20
643.1163004557291
 30
0.0
 10
285.5484619140625
 20
643.5975802951389
 30
0.0
 10
286.0200954861111
 20
643.849072265625
 30
0.0
  0
SPLINE
  5
94
330
A
100
AcDbEntity
  8
LAYER_1
 62
     7
100
AcDbSpline
210
0.0
220
0.0
230
1.0
 70
    11
 71
     3
 72
    23
 73
    19
 74
     0
 42
0.000000001
 43
0.00000001
 40
0.0
 40
0.0
 40
0.0
 40
0.0
 40
1.0
 40
1.0
 40
1.0
 40
2.0
 40
2.0
 40
2.0
 40
3.0
 40
3.0
 40
3.0
 40
4.0
 40
4.0
 40
4.0
 40
5.0
 40
5.0
 40
5.0
 40
6.0
 40
6.0
 40
6.0
 40
6.0
 10
284.2389811197916
 20
638.9959662543403
 30
0.0
 10
284.2389811197916
 20
638.4671440972222
 30
0.0
 10
284.8125895182291
 20
638.3841172960069
 30
0.0
 10
285.1119683159722
 20
637.9600260416667
 30
0.0
 10
285.4785264756944
 20
637.434304470486
 30
0.0
 10
285.7813503689236
 20
636.8989366319444
 30
0.0
 10
286.4376410590277
 20
636.8989366319444
 30
0.0
 10
286.9888563368056
 20
636.8989366319444
 30
0.0
 10
287.7729600694444
 20
636.8066080729166
 30
0.0
 10
287.7729600694444
 20
637.3612684461805
 30
0.0
 10
287.7729600694444
 20
638.1546739366319
 30
0.0
 10
287.1704128689236
 20
638.4764458550346
 30
0.0
 10
286.8486409505208
 20
639.2030164930555
 30
0.0
 10
286.5844021267361
 20
639.8021185980903
 30
0.0
 10
286.526869032118
 20
640.5762315538194
 30
0.0
 10
285.8705783420139
 20
640.5762315538194
 30
0.0
 10
284.9844997829861
 20
640.5762315538194
 30
0.0
 10
284.2389811197916
 20
639.8851453993055
 30
0.0
 10
284.2389811197916
 20
638.9959662543403
 30
0.0
  0
SPLINE
  5
93
330
A
100
AcDbEntity
  8
LAYER_1
 62
     7
100
AcDbSpline
210
0.0
220
0.0
230
1.0
 70
     8
 71
     3
 72
    17
 73
    13
 74
     0
 42
0.000000001
 43
0.00000001
 40
0.0
 40
0.0
 40
0.0
 40
0.0
 40
1.0
 40
1.0
 40
1.0
 40
2.0
 40
2.0
 40
2.0
 40
3.0
 40
3.0
 40
3.0
 40
4.0
 40
4.0
 40
4.0
 40
4.0
 10
286.4917290581597
 20
642.829324001736
 30
0.0
 10
287.0463894314236
 20
642.5967800564235
 30
0.0
 10
287.4222493489583
 20
642.5967800564235
 30
0.0
 10
288.0247965494792
 20
642.5967800564235
 30
0.0
 10
288.4230495876736
 20
642.5967800564235
 30
0.0
 10
288.6555935329861
 20
642.5967800564235
 30
0.0
 10
289.0603922526041
 20
642.5967800564235
 30
0.0
 10
289.0603922526041
 20
642.5967800564235
 30
0.0
 10
291.9632297092014
 20
641.9659830729166
 30
0.0
 10
291.9632297092014
 20
641.9659830729166
 30
0.0
 10
292.1258382161458
 20
642.0011230468749
 30
0.0
 10
292.2150661892361
 20
642.0548665364582
 30
0.0
 10
292.3297878689236
 20
642.1506401909721
 30
0.0
  0
SPLINE
  5
92
330
A
100
AcDbEntity
  8
LAYER_1
 62
     7
100
AcDbSpline
210
0.0
220
0.0
230
1.0
 70
     8
 71
     3
 72
    14
 73
    10
 74
     0
 42
0.000000001
 43
0.00000001
 40
0.0
 40
0.0
 40
0.0
 40
0.0
 40
1.0
 40
1.0
 40
1.0
 40
2.0
 40
2.0
 40
2.0
 40
3.0
 40
3.0
 40
3.0
 40
3.0
 10
293.0243191189236
 20
642.0011230468749
 30
0.0
 10
293.3943223741319
 20
641.4495632595485
 30
0.0
 10
293.9358913845486
 20
641.4495632595485
 30
0.0
 10
294.5890814887152
 20
641.3603352864583
 30
0.0
 10
295.0290201822916
 20
641.2997016059027
 30
0.0
 10
295.1564887152778
 20
640.8504611545138
 30
0.0
 10
295.5960828993055
 20
640.8504611545138
 30
0.0
 10
295.7555908203125
 20
640.8504611545138
 30
0.0
 10
295.7300971137153
 20
641.1053982204861
 30
0.0
 10
295.7300971137153
 20
641.2645616319444
 30
0.0
  0
SPLINE
  5
91
330
A
100
AcDbEntity
  8
LAYER_1
 62
     7
100
AcDbSpline
210
0.0
220
0.0
230
1.0
 70
    11
 71
     3
 72
    26
 73
    22
 74
     0
 42
0.000000001
 43
0.00000001
 40
0.0
 40
0.0
 40
0.0
 40
0.0
 40
1.0
 40
1.0
 40
1.0
 40
2.0
 40
2.0
 40
2.0
 40
3.0
 40
3.0
 40
3.0
 40
4.0
 40
4.0
 40
4.0
 40
5.0
 40
5.0
 40
5.0
 40
6.0
 40
6.0
 40
6.0
 40
7.0
 40
7.0
 40
7.0
 40
7.0
 10
291.3768744574652
 20
638.5946126302083
 30
0.0
 10
291.3768744574652
 20
638.0654459635416
 30
0.0
 10
292.033509657118
 20
637.9155843098957
 30
0.0
 10
292.5623318142361
 20
637.9155843098957
 30
0.0
 10
293.0339653862847
 20
637.9155843098957
 30
0.0
 10
293.3016493055555
 20
637.8676974826388
 30
0.0
 10
293.7732828776041
 20
637.8676974826388
 30
0.0
 10
293.9486382378472
 20
637.8676974826388
 30
0.0
 10
294.0537136501736
 20
637.7788140190971
 30
0.0
 10
294.222523328993
 20
637.7788140190971
 30
0.0
 10
294.5446397569444
 20
637.7788140190971
 30
0.0
 10
294.8664116753472
 20
637.9731174045138
 30
0.0
 10
294.8664116753472
 20
638.3010904947917
 30
0.0
 10
294.8664116753472
 20
639.1168891059027
 30
0.0
 10
294.2356146918402
 20
639.6557020399305
 30
0.0
 10
293.4387641059027
 20
639.8369140624999
 30
0.0
 10
292.9319905598958
 20
639.9581814236111
 30
0.0
 10
292.6804985894097
 20
639.5185872395833
 30
0.0
 10
292.205419921875
 20
639.2825981987846
 30
0.0
 10
291.8392062717014
 20
639.1010416666666
 30
0.0
 10
291.3768744574652
 20
639.0087131076389
 30
0.0
 10
291.3768744574652
 20
638.5946126302083
 30
0.0
  0
SPLINE
  5
90
330
A
100
AcDbEntity
  8
LAYER_1
 62
     7
100
AcDbSpline
210
0.0
220
0.0
230
1.0
 70
     8
 71
     3
 72
    11
 73
     7
 74
     0
 42
0.000000001
 43
0.00000001
 40
0.0
 40
0.0
 40
0.0
 40
0.0
 40
1.0
 40
1.0
 40
1.0
 40
2.0
 40
2.0
 40
2.0
 40
2.0
 10
296.6189317491319
 20
640.9396891276041
 30
0.0
 10
296.9503499348958
 20
640.2641059027777
 30
0.0
 10
297.6421251085069
 20
640.2034722222222
 30
0.0
 10
298.3779975043403
 20
640.2034722222222
 30
0.0
 10
298.575745985243
 20
640.2034722222222
 30
0.0
 10
298.6904676649305
 20
640.2768527560763
 30
0.0
 10
298.8658230251736
 20
640.3467881944443
 30
0.0
  0
SPLINE
  5
8F
330
A
100
AcDbEntity
  8
LAYER_1
 62
     7
100
AcDbSpline
210
0.0
220
0.0
230
1.0
 70
     8
 71
     3
 72
    11
 73
     7
 74
     0
 42
0.000000001
 43
0.00000001
 40
0.0
 40
0.0
 40
0.0
 40
0.0
 40
1.0
 40
1.0
 40
1.0
 40
2.0
 40
2.0
 40
2.0
 40
2.0
 10
299.3756971571181
 20
640.4808024088541
 30
0.0
 10
299.5731011284722
 20
639.9581814236111
 30
0.0
 10
300.1849500868055
 20
640.0794487847222
 30
0.0
 10
300.7489122178819
 20
639.9898763020833
 30
0.0
 10
301.1726589626736
 20
639.9168402777777
 30
0.0
 10
301.335267469618
 20
639.5247884114583
 30
0.0
 10
301.7655598958333
 20
639.5695746527778
 30
0.0
  0
SPLINE
  5
8E
330
A
100
AcDbEntity
  8
LAYER_1
 62
     7
100
AcDbSpline
210
0.0
220
0.0
230
1.0
 70
     8
 71
     3
 72
    14
 73
    10
 74
     0
 42
0.000000001
 43
0.00000001
 40
0.0
 40
0.0
 40
0.0
 40
0.0
 40
1.0
 40
1.0
 40
1.0
 40
2.0
 40
2.0
 40
2.0
 40
3.0
 40
3.0
 40
3.0
 40
3.0
 10
302.0904324001736
 20
639.5185872395833
 30
0.0
 10
302.5400173611111
 20
639.3687255859375
 30
0.0
 10
302.8170030381944
 20
639.3366861979166
 30
0.0
 10
303.288636610243
 20
639.3366861979166
 30
0.0
 10
303.5435736762153
 20
639.3366861979166
 30
0.0
 10
303.6806884765625
 20
639.4290147569444
 30
0.0
 10
303.9356255425347
 20
639.4290147569444
 30
0.0
 10
304.2670437282986
 20
639.4290147569444
 30
0.0
 10
304.4647922092013
 20
639.3559787326388
 30
0.0
 10
304.7993109809028
 20
639.37802734375
 30
0.0
  0
SPLINE
  5
8D
330
A
100
AcDbEntity
  8
LAYER_1
 62
     7
100
AcDbSpline
210
0.0
220
0.0
230
1.0
 70
     8
 71
     3
 72
    14
 73
    10
 74
     0
 42
0.000000001
 43
0.00000001
 40
0.0
 40
0.0
 40
0.0
 40
0.0
 40
1.0
 40
1.0
 40
1.0
 40
2.0
 40
2.0
 40
2.0
 40
3.0
 40
3.0
 40
3.0
 40
3.0
 10
305.3153862847222
 20
639.3366861979166
 30
0.0
 10
305.6468044704861
 20
639.136181640625
 30
0.0
 10
305.9113878038194
 20
639.2064615885416
 30
0.0
 10
306.271400282118
 20
639.0562554253472
 30
0.0
 10
306.7557807074652
 20
638.8495496961805
 30
0.0
 10
306.8705023871527
 20
638.3203830295138
 30
0.0
 10
307.3996690538194
 20
638.3203830295138
 30
0.0
 10
308.0814534505208
 20
638.3203830295138
 30
0.0
 10
308.448011610243
 20
638.5946126302083
 30
0.0
 10
309.0343668619792
 20
638.9194851345486
 30
0.0
  0
SPLINE
  5
8C
330
A
100
AcDbEntity
  8
LAYER_1
 62
     7
100
AcDbSpline
210
0.0
220
0.0
230
1.0
 70
     8
 71
     3
 72
    11
 73
     7
 74
     0
 42
0.000000001
 43
0.00000001
 40
0.0
 40
0.0
 40
0.0
 40
0.0
 40
1.0
 40
1.0
 40
1.0
 40
2.0
 40
2.0
 40
2.0
 40
2.0
 10
309.5504421657986
 20
637.8136094835069
 30
0.0
 10
309.5504421657986
 20
637.5045844184027
 30
0.0
 10
309.9073540581597
 20
637.3547227647568
 30
0.0
 10
310.2167236328125
 20
637.3547227647568
 30
0.0
 10
310.5257486979166
 20
637.3547227647568
 30
0.0
 10
310.7104058159722
 20
637.3991644965278
 30
0.0
 10
311.0101291232639
 20
637.4949381510417
 30
0.0
  0
SPLINE
  5
8B
330
A
100
AcDbEntity
  8
LAYER_1
 62
     7
100
AcDbSpline
210
0.0
220
0.0
230
1.0
 70
     8
 71
     3
 72
    14
 73
    10
 74
     0
 42
0.000000001
 43
0.00000001
 40
0.0
 40
0.0
 40
0.0
 40
0.0
 40
1.0
 40
1.0
 40
1.0
 40
2.0
 40
2.0
 40
2.0
 40
3.0
 40
3.0
 40
3.0
 40
3.0
 10
312.0808648003472
 20
637.5362792968749
 30
0.0
 10
312.3771430121528
 20
636.8259006076388
 30
0.0
 10
313.2311821831597
 20
637.0904839409721
 30
0.0
 10
314.0056396484375
 20
637.0329508463541
 30
0.0
 10
314.5217149522569
 20
636.9850640190972
 30
0.0
 10
314.7511583116319
 20
636.618505859375
 30
0.0
 10
315.2706787109375
 20
636.618505859375
 30
0.0
 10
315.4522352430556
 20
636.618505859375
 30
0.0
 10
315.5700575086805
 20
636.6984320746527
 30
0.0
 10
315.7071723090277
 20
636.8004069010416
 30
0.0
  0
SPLINE
  5
8A
330
A
100
AcDbEntity
  8
LAYER_1
 62
     7
100
AcDbSpline
210
0.0
220
0.0
230
1.0
 70
     8
 71
     3
 72
    14
 73
    10
 74
     0
 42
0.000000001
 43
0.00000001
 40
0.0
 40
0.0
 40
0.0
 40
0.0
 40
1.0
 40
1.0
 40
1.0
 40
2.0
 40
2.0
 40
2.0
 40
3.0
 40
3.0
 40
3.0
 40
3.0
 10
316.7269205729166
 20
637.2179524739582
 30
0.0
 10
316.8192491319444
 20
636.4655436197916
 30
0.0
 10
317.8104031032986
 20
636.7080783420138
 30
0.0
 10
318.5593668619791
 20
636.618505859375
 30
0.0
 10
319.7575710720486
 20
636.4655436197916
 30
0.0
 10
320.3342800564236
 20
635.8347466362846
 30
0.0
 10
321.5290391710069
 20
635.8347466362846
 30
0.0
 10
321.8063693576389
 20
635.8347466362846
 30
0.0
 10
321.9817247178819
 20
636.0035563151041
 30
0.0
 10
322.109193250868
 20
636.2519476996528
 30
0.0
  0
SPLINE
  5
89
330
A
100
AcDbEntity
  8
LAYER_1
 62
     7
100
AcDbSpline
210
0.0
220
0.0
230
1.0
 70
     8
 71
     3
 72
    11
 73
     7
 74
     0
 42
0.000000001
 43
0.00000001
 40
0.0
 40
0.0
 40
0.0
 40
0.0
 40
1.0
 40
1.0
 40
1.0
 40
2.0
 40
2.0
 40
2.0
 40
2.0
 10
322.7113959418402
 20
636.0163031684027
 30
0.0
 10
322.7751302083333
 20
635.4905815972222
 30
0.0
 10
323.2850043402777
 20
635.2039496527777
 30
0.0
 10
323.8141710069444
 20
635.2039496527777
 30
0.0
 10
324.0911566840277
 20
635.2039496527777
 30
0.0
 10
324.1486897786458
 20
635.5543158637153
 30
0.0
 10
324.1262966579861
 20
635.8347466362846
 30
0.0
  0
SPLINE
  5
88
330
A
100
AcDbEntity
  8
LAYER_1
 62
     7
100
AcDbSpline
210
0.0
220
0.0
230
1.0
 70
     8
 71
     3
 72
    20
 73
    16
 74
     0
 42
0.000000001
 43
0.00000001
 40
0.0
 40
0.0
 40
0.0
 40
0.0
 40
1.0
 40
1.0
 40
1.0
 40
2.0
 40
2.0
 40
2.0
 40
3.0
 40
3.0
 40
3.0
 40
4.0
 40
4.0
 40
4.0
 40
5.0
 40
5.0
 40
5.0
 40
5.0
 10
324.5948296440972
 20
635.3758599175346
 30
0.0
 10
324.5820827907986
 20
635.2738850911458
 30
0.0
 10
324.5500434027778
 20
635.2039496527777
 30
0.0
 10
324.5500434027778
 20
635.0954291449652
 30
0.0
 10
324.5500434027778
 20
634.9169731987847
 30
0.0
 10
324.7350450303819
 20
634.7767578124999
 30
0.0
 10
324.9197021484375
 20
634.7767578124999
 30
0.0
 10
325.2414740668402
 20
634.7767578124999
 30
0.0
 10
325.4233751085069
 20
634.9614149305555
 30
0.0
 10
325.7482476128472
 20
634.9614149305555
 30
0.0
 10
326.933704969618
 20
634.9614149305555
 30
0.0
 10
327.7209092881944
 20
633.8079969618055
 30
0.0
 10
327.7209092881944
 20
632.6194390190972
 30
0.0
 10
327.7209092881944
 20
632.2976671006944
 30
0.0
 10
327.6123887803819
 20
632.1192111545138
 30
0.0
 10
327.5806939019097
 20
631.7939941406249
 30
0.0
  0
SPLINE
  5
87
330
A
100
AcDbEntity
  8
LAYER_1
 62
     7
100
AcDbSpline
210
0.0
220
0.0
230
1.0
 70
     8
 71
     3
 72
    11
 73
     7
 74
     0
 42
0.000000001
 43
0.00000001
 40
0.0
 40
0.0
 40
0.0
 40
0.0
 40
1.0
 40
1.0
 40
1.0
 40
2.0
 40
2.0
 40
2.0
 40
2.0
 10
325.146044921875
 20
618.7157226562499
 30
0.0
 10
324.9517415364583
 20
618.7384602864582
 30
0.0
 10
324.8273735894097
 20
618.8052951388888
 30
0.0
 10
324.6902587890625
 20
618.945166015625
 30
0.0
 10
325.0792100694444
 20
619.0281928168403
 30
0.0
 10
325.2414740668402
 20
619.2448893229166
 30
0.0
 10
325.5635904947916
 20
619.4522840711805
 30
0.0
  0
SPLINE
  5
86
330
A
100
AcDbEntity
  8
LAYER_1
 62
     7
100
AcDbSpline
210
0.0
220
0.0
230
1.0
 70
     8
 71
     3
 72
    17
 73
    13
 74
     0
 42
0.000000001
 43
0.00000001
 40
0.0
 40
0.0
 40
0.0
 40
0.0
 40
1.0
 40
1.0
 40
1.0
 40
2.0
 40
2.0
 40
2.0
 40
3.0
 40
3.0
 40
3.0
 40
4.0
 40
4.0
 40
4.0
 40
4.0
 10
325.7930338541667
 20
620.3728135850694
 30
0.0
 10
325.5859836154514
 20
620.3728135850694
 30
0.0
 10
325.4678168402777
 20
620.3411187065972
 30
0.0
 10
325.2638671875
 20
620.3411187065972
 30
0.0
 10
325.1715386284722
 20
620.3411187065972
 30
0.0
 10
325.1587917751736
 20
620.449294704861
 30
0.0
 10
325.091956922743
 20
620.5068277994791
 30
0.0
 10
325.091956922743
 20
620.5068277994791
 30
0.0
 10
325.1016031901041
 20
621.6350965711805
 30
0.0
 10
325.1016031901041
 20
621.6350965711805
 30
0.0
 10
325.321400282118
 20
621.5775634765624
 30
0.0
 10
325.4678168402777
 20
621.6158040364583
 30
0.0
 10
325.7003607855902
 20
621.6636908637153
 30
0.0
  0
SPLINE
  5
85
330
A
100
AcDbEntity
  8
LAYER_1
 62
     7
100
AcDbSpline
210
0.0
220
0.0
230
1.0
 70
     8
 71
     3
 72
     8
 73
     4
 74
     0
 42
0.000000001
 43
0.00000001
 40
0.0
 40
0.0
 40
0.0
 40
0.0
 40
1.0
 40
1.0
 40
1.0
 40
1.0
 10
325.4678168402777
 20
622.1704644097222
 30
0.0
 10
325.4678168402777
 20
623.0468967013888
 30
0.0
 10
325.7930338541667
 20
623.4830457899305
 30
0.0
 10
326.0703640407986
 20
624.3243381076388
 30
0.0
  0
SPLINE
  5
84
330
A
100
AcDbEntity
  8
LAYER_1
 62
     7
100
AcDbSpline
210
0.0
220
0.0
230
1.0
 70
     8
 71
     3
 72
     8
 73
     4
 74
     0
 42
0.000000001
 43
0.00000001
 40
0.0
 40
0.0
 40
0.0
 40
0.0
 40
1.0
 40
1.0
 40
1.0
 40
1.0
 10
325.9776909722222
 20
624.9299858940972
 30
0.0
 10
326.2646674262152
 20
626.115443250868
 30
0.0
 10
326.2198811848958
 20
627.0108235677083
 30
0.0
 10
327.1662489149305
 20
627.8204210069443
 30
0.0
  0
SPLINE
  5
83
330
A
100
AcDbEntity
  8
LAYER_1
 62
     7
100
AcDbSpline
210
0.0
220
0.0
230
1.0
 70
     8
 71
     3
 72
     8
 73
     4
 74
     0
 42
0.000000001
 43
0.00000001
 40
0.0
 40
0.0
 40
0.0
 40
0.0
 40
1.0
 40
1.0
 40
1.0
 40
1.0
 10
327.1249077690972
 20
628.9800401475694
 30
0.0
 10
327.2299831814236
 20
629.5822428385416
 30
0.0
 10
327.163148328993
 20
629.9711941189236
 30
0.0
 10
327.4501247829861
 20
630.4907145182291
 30
0.0
  0
SPLINE
  5
82
330
A
100
AcDbEntity
  8
LAYER_1
 62
     7
100
AcDbSpline
210
0.0
220
0.0
230
1.0
 70
     8
 71
     3
 72
    26
 73
    22
 74
     0
 42
0.000000001
 43
0.00000001
 40
0.0
 40
0.0
 40
0.0
 40
0.0
 40
1.0
 40
1.0
 40
1.0
 40
2.0
 40
2.0
 40
2.0
 40
3.0
 40
3.0
 40
3.0
 40
4.0
 40
4.0
 40
4.0
 40
5.0
 40
5.0
 40
5.0
 40
6.0
 40
6.0
 40
6.0
 40
7.0
 40
7.0
 40
7.0
 40
7.0
 10
325.2862603081597
 20
618.6233940972222
 30
0.0
 10
325.0792100694444
 20
618.4163438585069
 30
0.0
 10
324.8721598307291
 20
618.2633816189235
 30
0.0
 10
324.8721598307291
 20
617.9640028211805
 30
0.0
 10
324.8721598307291
 20
617.8044949001736
 30
0.0
 10
325.0568169487847
 20
617.737660047743
 30
0.0
 10
325.0568169487847
 20
617.5753960503472
 30
0.0
 10
325.0568169487847
 20
617.001443142361
 30
0.0
 10
324.3781331380208
 20
616.9570014105902
 30
0.0
 10
324.0911566840277
 20
616.472620985243
 30
0.0
 10
323.6260687934027
 20
615.7078097873264
 30
0.0
 10
323.7183973524305
 20
615.1214545355903
 30
0.0
 10
323.4986002604167
 20
614.2546685112846
 30
0.0
 10
323.3869791666667
 20
613.7957817925346
 30
0.0
 10
323.0397135416666
 20
613.5918321397569
 30
0.0
 10
323.0397135416666
 20
613.1074517144096
 30
0.0
 10
323.0397135416666
 20
612.629616970486
 30
0.0
 10
323.4445122612847
 20
612.2758056640624
 30
0.0
 10
323.9127007378472
 20
612.2758056640624
 30
0.0
 10
323.9127007378472
 20
612.2758056640624
 30
0.0
 10
323.950941297743
 20
612.0877034505207
 30
0.0
 10
323.950941297743
 20
612.0877034505207
 30
0.0
  0
SPLINE
  5
81
330
A
100
AcDbEntity
  8
LAYER_1
 62
     7
100
AcDbSpline
210
0.0
220
0.0
230
1.0
 70
     8
 71
     3
 72
    23
 73
    19
 74
     0
 42
0.000000001
 43
0.00000001
 40
0.0
 40
0.0
 40
0.0
 40
0.0
 40
1.0
 40
1.0
 40
1.0
 40
2.0
 40
2.0
 40
2.0
 40
3.0
 40
3.0
 40
3.0
 40
4.0
 40
4.0
 40
4.0
 40
5.0
 40
5.0
 40
5.0
 40
6.0
 40
6.0
 40
6.0
 40
6.0
 10
322.9856255425347
 20
611.9027018229166
 30
0.0
 10
322.8388644748264
 20
611.9157931857638
 30
0.0
 10
322.7561821831597
 20
611.947488064236
 30
0.0
 10
322.6063205295139
 20
611.947488064236
 30
0.0
 10
322.2015218098958
 20
611.947488064236
 30
0.0
 10
322.1219401041666
 20
611.4314127604166
 30
0.0
 10
322.0644070095486
 20
611.0393608940972
 30
0.0
 10
321.9848253038194
 20
610.4750542534722
 30
0.0
 10
321.9021430121527
 20
610.1532823350694
 30
0.0
 10
321.9021430121527
 20
609.5800184461805
 30
0.0
 10
321.9021430121527
 20
608.9075358072917
 30
0.0
 10
321.9021430121527
 20
608.5440782335069
 30
0.0
 10
321.9021430121527
 20
607.8746961805555
 30
0.0
 10
321.9021430121527
 20
607.6900390625
 30
0.0
 10
321.9465847439236
 20
607.4478488498263
 30
0.0
 10
322.1346869574652
 20
607.4478488498263
 30
0.0
 10
322.4788519965277
 20
607.4478488498263
 30
0.0
 10
322.5615342881944
 20
607.8016601562499
 30
0.0
 10
322.8929524739583
 20
607.9098361545139
 30
0.0
  0
SPLINE
  5
80
330
A
100
AcDbEntity
  8
LAYER_1
 62
     7
100
AcDbSpline
210
0.0
220
0.0
230
1.0
 70
     8
 71
     3
 72
    32
 73
    28
 74
     0
 42
0.000000001
 43
0.00000001
 40
0.0
 40
0.0
 40
0.0
 40
0.0
 40
1.0
 40
1.0
 40
1.0
 40
2.0
 40
2.0
 40
2.0
 40
3.0
 40
3.0
 40
3.0
 40
4.0
 40
4.0
 40
4.0
 40
5.0
 40
5.0
 40
5.0
 40
6.0
 40
6.0
 40
6.0
 40
7.0
 40
7.0
 40
7.0
 40
8.0
 40
8.0
 40
8.0
 40
9.0
 40
9.0
 40
9.0
 40
9.0
 10
322.6159667968749
 20
606.8487467447916
 30
0.0
 10
322.4213189019097
 20
606.899734157986
 30
0.0
 10
322.3193440755208
 20
606.9796603732639
 30
0.0
 10
322.1122938368055
 20
606.9796603732639
 30
0.0
 10
321.2933946397569
 20
606.9796603732639
 30
0.0
 10
321.2455078125
 20
605.8799858940972
 30
0.0
 10
321.2455078125
 20
605.0579861111111
 30
0.0
 10
321.2455078125
 20
604.6786810980902
 30
0.0
 10
321.2455078125
 20
604.471630859375
 30
0.0
 10
321.2455078125
 20
604.0892252604166
 30
0.0
 10
321.2455078125
 20
604.0892252604166
 30
0.0
 10
321.3826226128472
 20
603.9555555555555
 30
0.0
 10
321.3826226128472
 20
603.9555555555555
 30
0.0
 10
321.3826226128472
 20
603.9555555555555
 30
0.0
 10
321.7395345052083
 20
604.264236111111
 30
0.0
 10
321.7395345052083
 20
604.264236111111
 30
0.0
 10
321.7395345052083
 20
604.264236111111
 30
0.0
 10
322.0168646918402
 20
604.3028211805555
 30
0.0
 10
322.0168646918402
 20
604.3028211805555
 30
0.0
 10
322.0296115451388
 20
604.2294406467013
 30
0.0
 10
322.1122938368055
 20
604.2104926215277
 30
0.0
 10
322.1122938368055
 20
604.13056640625
 30
0.0
 10
322.1122938368055
 20
603.1142632378471
 30
0.0
 10
321.4432562934027
 20
602.6677788628472
 30
0.0
 10
321.3378363715278
 20
601.6514756944443
 30
0.0
 10
321.3378363715278
 20
601.6514756944443
 30
0.0
 10
321.2455078125
 20
601.7913465711805
 30
0.0
 10
321.2455078125
 20
601.7913465711805
 30
0.0
  0
SPLINE
  5
7F
330
A
100
AcDbEntity
  8
LAYER_1
 62
     7
100
AcDbSpline
210
0.0
220
0.0
230
1.0
 70
     8
 71
     3
 72
    14
 73
    10
 74
     0
 42
0.000000001
 43
0.00000001
 40
0.0
 40
0.0
 40
0.0
 40
0.0
 40
1.0
 40
1.0
 40
1.0
 40
2.0
 40
2.0
 40
2.0
 40
3.0
 40
3.0
 40
3.0
 40
3.0
 10
321.0067626953125
 20
600.6282823350693
 30
0.0
 10
320.8792941623263
 20
600.4436252170138
 30
0.0
 10
320.7773193359375
 20
600.3161566840278
 30
0.0
 10
320.7773193359375
 20
600.0867133246527
 30
0.0
 10
320.7773193359375
 20
599.8889648437499
 30
0.0
 10
320.9588758680555
 20
599.8000813802083
 30
0.0
 10
320.9588758680555
 20
599.6023328993055
 30
0.0
 10
320.9588758680555
 20
599.0669650607638
 30
0.0
 10
320.6815456814236
 20
598.7865342881944
 30
0.0
 10
320.6367594401041
 20
598.2449652777777
 30
0.0
  0
SPLINE
  5
7E
330
A
100
AcDbEntity
  8
LAYER_1
 62
     7
100
AcDbSpline
210
0.0
220
0.0
230
1.0
 70
     8
 71
     3
 72
     8
 73
     4
 74
     0
 42
0.000000001
 43
0.00000001
 40
0.0
 40
0.0
 40
0.0
 40
0.0
 40
1.0
 40
1.0
 40
1.0
 40
1.0
 10
320.4073160807291
 20
596.9447862413194
 30
0.0
 10
320.4073160807291
 20
596.5237955729166
 30
0.0
 10
320.3949137369792
 20
596.2819498697916
 30
0.0
 10
320.3597737630208
 20
595.8547580295138
 30
0.0
  0
SPLINE
  5
7D
330
A
100
AcDbEntity
  8
LAYER_1
 62
     7
100
AcDbSpline
210
0.0
220
0.0
230
1.0
 70
     8
 71
     3
 72
    17
 73
    13
 74
     0
 42
0.000000001
 43
0.00000001
 40
0.0
 40
0.0
 40
0.0
 40
0.0
 40
1.0
 40
1.0
 40
1.0
 40
2.0
 40
2.0
 40
2.0
 40
3.0
 40
3.0
 40
3.0
 40
4.0
 40
4.0
 40
4.0
 40
4.0
 10
320.1813178168402
 20
595.1540256076388
 30
0.0
 10
320.0411024305556
 20
594.1880208333333
 30
0.0
 10
320.1813178168402
 20
593.6209581163193
 30
0.0
 10
319.9484293619792
 20
592.6811360677083
 30
0.0
 10
319.8085584852431
 20
592.1264756944444
 30
0.0
 10
319.4516465928819
 20
591.8715386284722
 30
0.0
 10
319.4516465928819
 20
591.2979302300347
 30
0.0
 10
319.4516465928819
 20
590.8579915364583
 30
0.0
 10
318.8077582465277
 20
590.8135498046875
 30
0.0
 10
318.8077582465277
 20
590.373611111111
 30
0.0
 10
318.8077582465277
 20
589.6342936197916
 30
0.0
 10
319.0372016059027
 20
589.220193142361
 30
0.0
 10
319.0372016059027
 20
588.4870768229166
 30
0.0
  0
SPLINE
  5
7C
330
A
100
AcDbEntity
  8
LAYER_1
 62
     7
100
AcDbSpline
210
0.0
220
0.0
230
1.0
 70
     8
 71
     3
 72
    11
 73
     7
 74
     0
 42
0.000000001
 43
0.00000001
 40
0.0
 40
0.0
 40
0.0
 40
0.0
 40
1.0
 40
1.0
 40
1.0
 40
2.0
 40
2.0
 40
2.0
 40
2.0
 10
319.0754421657986
 20
587.9710015190972
 30
0.0
 10
318.8652913411458
 20
587.432533094618
 30
0.0
 10
318.4763400607638
 20
587.203089735243
 30
0.0
 10
318.4763400607638
 20
586.6260362413194
 30
0.0
 10
318.4763400607638
 20
586.3266574435763
 30
0.0
 10
318.5083794487847
 20
586.1671495225694
 30
0.0
 10
318.5686686197917
 20
585.8677707248263
 30
0.0
  0
SPLINE
  5
7B
330
A
100
AcDbEntity
  8
LAYER_1
 62
     7
100
AcDbSpline
210
0.0
220
0.0
230
1.0
 70
     8
 71
     3
 72
    11
 73
     7
 74
     0
 42
0.000000001
 43
0.00000001
 40
0.0
 40
0.0
 40
0.0
 40
0.0
 40
1.0
 40
1.0
 40
1.0
 40
2.0
 40
2.0
 40
2.0
 40
2.0
 10
318.3392252604166
 20
585.3072536892361
 30
0.0
 10
317.8741373697916
 20
585.1542914496528
 30
0.0
 10
317.7370225694444
 20
584.7078070746527
 30
0.0
 10
317.7370225694444
 20
584.2234266493055
 30
0.0
 10
317.7370225694444
 20
583.933349609375
 30
0.0
 10
317.7273763020833
 20
583.7583387586805
 30
0.0
 10
317.7849093967014
 20
583.4717068142361
 30
0.0
  0
SPLINE
  5
7A
330
A
100
AcDbEntity
  8
LAYER_1
 62
     7
100
AcDbSpline
210
0.0
220
0.0
230
1.0
 70
     8
 71
     3
 72
    11
 73
     7
 74
     0
 42
0.000000001
 43
0.00000001
 40
0.0
 40
0.0
 40
0.0
 40
0.0
 40
1.0
 40
1.0
 40
1.0
 40
2.0
 40
2.0
 40
2.0
 40
2.0
 10
317.6925808376736
 20
583.3249457465278
 30
0.0
 10
317.6925808376736
 20
582.5218939887152
 30
0.0
 10
317.4152506510416
 20
582.0695529513888
 30
0.0
 10
317.4152506510416
 20
581.2661566840277
 30
0.0
 10
317.4152506510416
 20
580.5654242621528
 30
0.0
 10
317.5330729166666
 20
580.1699273003471
 30
0.0
 10
317.5999077690972
 20
579.4691948784722
 30
0.0
  0
SPLINE
  5
79
330
A
100
AcDbEntity
  8
LAYER_1
 62
     7
100
AcDbSpline
210
0.0
220
0.0
230
1.0
 70
     8
 71
     3
 72
    11
 73
     7
 74
     0
 42
0.000000001
 43
0.00000001
 40
0.0
 40
0.0
 40
0.0
 40
0.0
 40
1.0
 40
1.0
 40
1.0
 40
2.0
 40
2.0
 40
2.0
 40
2.0
 10
315.8952745225694
 20
576.4223524305555
 30
0.0
 10
315.8952745225694
 20
575.8012017144097
 30
0.0
 10
315.573158094618
 20
575.4666829427083
 30
0.0
 10
315.573158094618
 20
574.8451877170138
 30
0.0
 10
315.573158094618
 20
574.3387586805555
 30
0.0
 10
315.9779568142361
 20
574.0838216145833
 30
0.0
 10
315.8952745225694
 20
573.5767035590277
 30
0.0
  0
SPLINE
  5
78
330
A
100
AcDbEntity
  8
LAYER_1
 62
     7
100
AcDbSpline
210
0.0
220
0.0
230
1.0
 70
     8
 71
     3
 72
    29
 73
    25
 74
     0
 42
0.000000001
 43
0.00000001
 40
0.0
 40
0.0
 40
0.0
 40
0.0
 40
1.0
 40
1.0
 40
1.0
 40
2.0
 40
2.0
 40
2.0
 40
3.0
 40
3.0
 40
3.0
 40
4.0
 40
4.0
 40
4.0
 40
5.0
 40
5.0
 40
5.0
 40
6.0
 40
6.0
 40
6.0
 40
7.0
 40
7.0
 40
7.0
 40
8.0
 40
8.0
 40
8.0
 40
8.0
 10
315.8952745225694
 20
572.8821723090277
 30
0.0
 10
315.6337917751736
 20
572.0760199652777
 30
0.0
 10
315.4808295355903
 20
571.6136881510416
 30
0.0
 10
315.4808295355903
 20
570.7820421006944
 30
0.0
 10
315.4808295355903
 20
570.2277262369792
 30
0.0
 10
315.4808295355903
 20
569.931103515625
 30
0.0
 10
315.4808295355903
 20
569.3798882378471
 30
0.0
 10
315.4808295355903
 20
568.4083713107639
 30
0.0
 10
314.8021457248263
 20
567.9618869357638
 30
0.0
 10
314.8021457248263
 20
566.9931260850694
 30
0.0
 10
314.8021457248263
 20
566.706494140625
 30
0.0
 10
315.0346896701388
 20
566.5948730468749
 30
0.0
 10
315.0346896701388
 20
566.3016954210069
 30
0.0
 10
315.0346896701388
 20
565.2660997178818
 30
0.0
 10
313.7885986328125
 20
564.9632758246528
 30
0.0
 10
313.7885986328125
 20
563.9307807074653
 30
0.0
 10
313.7885986328125
 20
563.5356282552083
 30
0.0
 10
313.7885986328125
 20
563.3316786024305
 30
0.0
 10
313.7885986328125
 20
562.9396267361111
 30
0.0
 10
313.7885986328125
 20
562.5734130859374
 30
0.0
 10
313.1898410373263
 20
562.586159939236
 30
0.0
 10
313.1898410373263
 20
562.2134006076388
 30
0.0
 10
313.1898410373263
 20
561.76416015625
 30
0.0
 10
313.5626003689236
 20
561.6139539930555
 30
0.0
 10
313.7441569010417
 20
561.2032986111111
 30
0.0
  0
SPLINE
  5
77
330
A
100
AcDbEntity
  8
LAYER_1
 62
     7
100
AcDbSpline
210
0.0
220
0.0
230
1.0
 70
     8
 71
     3
 72
    23
 73
    19
 74
     0
 42
0.000000001
 43
0.00000001
 40
0.0
 40
0.0
 40
0.0
 40
0.0
 40
1.0
 40
1.0
 40
1.0
 40
2.0
 40
2.0
 40
2.0
 40
3.0
 40
3.0
 40
3.0
 40
4.0
 40
4.0
 40
4.0
 40
5.0
 40
5.0
 40
5.0
 40
6.0
 40
6.0
 40
6.0
 40
6.0
 10
313.090966796875
 20
559.6288899739583
 30
0.0
 10
312.6637749565972
 20
559.6288899739583
 30
0.0
 10
312.3643961588542
 20
559.2402832031249
 30
0.0
 10
312.3643961588542
 20
558.809646267361
 30
0.0
 10
312.3643961588542
 20
558.3159640842014
 30
0.0
 10
312.3643961588542
 20
558.0482801649305
 30
0.0
 10
312.3643961588542
 20
557.5542534722222
 30
0.0
 10
312.3643961588542
 20
556.5730902777777
 30
0.0
 10
311.6729654947916
 20
556.1045572916667
 30
0.0
 10
311.6729654947916
 20
555.1227050781249
 30
0.0
 10
311.6729654947916
 20
554.3899332682291
 30
0.0
 10
312.0870659722222
 20
554.0264756944443
 30
0.0
 10
312.0870659722222
 20
553.2937038845486
 30
0.0
 10
312.0870659722222
 20
552.7965766059027
 30
0.0
 10
312.0426242404513
 20
552.5319932725694
 30
0.0
 10
312.0870659722222
 20
552.0383110894097
 30
0.0
 10
312.1700927734375
 20
552.0731065538193
 30
0.0
 10
312.2145345052083
 20
552.1147922092014
 30
0.0
 10
312.2720675998264
 20
552.1785264756944
 30
0.0
  0
SPLINE
  5
76
330
A
100
AcDbEntity
  8
LAYER_1
 62
     7
100
AcDbSpline
210
0.0
220
0.0
230
1.0
 70
    11
 71
     3
 72
    23
 73
    19
 74
     0
 42
0.000000001
 43
0.00000001
 40
0.0
 40
0.0
 40
0.0
 40
0.0
 40
1.0
 40
1.0
 40
1.0
 40
2.0
 40
2.0
 40
2.0
 40
3.0
 40
3.0
 40
3.0
 40
4.0
 40
4.0
 40
4.0
 40
5.0
 40
5.0
 40
5.0
 40
6.0
 40
6.0
 40
6.0
 40
6.0
 10
308.9961263020833
 20
607.4860894097221
 30
0.0
 10
308.9961263020833
 20
607.1739637586805
 30
0.0
 10
309.2383165147569
 20
607.0750895182291
 30
0.0
 10
309.4550130208333
 20
606.8552924262152
 30
0.0
 10
309.7099500868055
 20
606.600355360243
 30
0.0
 10
309.7798855251736
 20
606.2052029079861
 30
0.0
 10
310.1464436848958
 20
606.2052029079861
 30
0.0
 10
310.908154296875
 20
606.2052029079861
 30
0.0
 10
311.8862169053819
 20
606.3133789062499
 30
0.0
 10
311.8862169053819
 20
607.0750895182291
 30
0.0
 10
311.8862169053819
 20
607.6707465277777
 30
0.0
 10
311.4721164279513
 20
608.2223063151041
 30
0.0
 10
310.8730143229166
 20
608.2223063151041
 30
0.0
 10
310.2963053385416
 20
608.2223063151041
 30
0.0
 10
309.9617865668403
 20
608.1296332465278
 30
0.0
 10
309.4550130208333
 20
607.8557481553819
 30
0.0
 10
309.260365125868
 20
607.7472276475694
 30
0.0
 10
308.9961263020833
 20
607.7155327690972
 30
0.0
 10
308.9961263020833
 20
607.4860894097221
 30
0.0
  0
SPLINE
  5
75
330
A
100
AcDbEntity
  8
LAYER_1
 62
     7
100
AcDbSpline
210
0.0
220
0.0
230
1.0
 70
    11
 71
     3
 72
    38
 73
    34
 74
     0
 42
0.000000001
 43
0.00000001
 40
0.0
 40
0.0
 40
0.0
 40
0.0
 40
1.0
 40
1.0
 40
1.0
 40
2.0
 40
2.0
 40
2.0
 40
3.0
 40
3.0
 40
3.0
 40
4.0
 40
4.0
 40
4.0
 40
5.0
 40
5.0
 40
5.0
 40
6.0
 40
6.0
 40
6.0
 40
7.0
 40
7.0
 40
7.0
 40
8.0
 40
8.0
 40
8.0
 40
9.0
 40
9.0
 40
9.0
 40
10.0
 40
10.0
 40
10.0
 40
11.0
 40
11.0
 40
11.0
 40
11.0
 10
271.489027235243
 20
596.9
 30
0.0
 10
271.4318386501736
 20
596.7311903211805
 30
0.0
 10
271.3519124348958
 20
596.6257703993055
 30
0.0
 10
271.3519124348958
 20
596.44111328125
 30
0.0
 10
271.3519124348958
 20
595.6828477647568
 30
0.0
 10
271.6037489149305
 20
595.2780490451388
 30
0.0
 10
271.6736843532986
 20
594.5166829427083
 30
0.0
 10
271.7408637152777
 20
593.7356797960069
 30
0.0
 10
271.8107991536458
 20
592.7190321180555
 30
0.0
 10
272.5949028862847
 20
592.7190321180555
 30
0.0
 10
273.5509168836805
 20
592.7190321180555
 30
0.0
 10
274.0893853081597
 20
592.9519205729166
 30
0.0
 10
275.0261067708333
 20
593.1400227864583
 30
0.0
 10
275.5201334635416
 20
593.2289062499999
 30
0.0
 10
276.2243109809028
 20
593.1400227864583
 30
0.0
 10
276.2243109809028
 20
593.6402506510416
 30
0.0
 10
276.2243109809028
 20
593.9206814236111
 30
0.0
 10
275.9821207682292
 20
594.032302517361
 30
0.0
 10
275.9025390625
 20
594.2872395833333
 30
0.0
 10
275.7750705295139
 20
594.6885932074653
 30
0.0
 10
275.8897922092013
 20
595.0837456597221
 30
0.0
 10
275.5807671440972
 20
595.351429578993
 30
0.0
 10
275.2810438368055
 20
595.6032660590278
 30
0.0
 10
274.8765896267361
 20
595.3352376302083
 30
0.0
 10
274.5672200520833
 20
595.5777723524305
 30
0.0
 10
274.1148790147569
 20
595.9250379774305
 30
0.0
 10
273.9650173611111
 20
596.3039984809027
 30
0.0
 10
273.5061306423611
 20
596.6257703993055
 30
0.0
 10
273.2639404296875
 20
596.7980251736111
 30
0.0
 10
273.0344970703125
 20
596.5878743489583
 30
0.0
 10
272.7351182725694
 20
596.6257703993055
 30
0.0
 10
272.2379909939236
 20
596.6833034939235
 30
0.0
 10
271.9830539279513
 20
596.8552137586805
 30
0.0
 10
271.489027235243
 20
596.9
 30
0.0
  0
SPLINE
  5
74
330
A
100
AcDbEntity
  8
LAYER_1
 62
     7
100
AcDbSpline
210
0.0
220
0.0
230
1.0
 70
    11
 71
     3
 72
    20
 73
    16
 74
     0
 42
0.000000001
 43
0.00000001
 40
0.0
 40
0.0
 40
0.0
 40
0.0
 40
1.0
 40
1.0
 40
1.0
 40
2.0
 40
2.0
 40
2.0
 40
3.0
 40
3.0
 40
3.0
 40
4.0
 40
4.0
 40
4.0
 40
5.0
 40
5.0
 40
5.0
 40
5.0
 10
275.7209825303819
 20
596.5558349609374
 30
0.0
 10
275.7209825303819
 20
596.103493923611
 30
0.0
 10
276.1064887152777
 20
595.7593288845486
 30
0.0
 10
276.5526285807292
 20
595.7593288845486
 30
0.0
 10
276.7565782335069
 20
595.7593288845486
 30
0.0
 10
276.8013644748264
 20
596.0142659505208
 30
0.0
 10
276.8013644748264
 20
596.2244167751736
 30
0.0
 10
276.8013644748264
 20
596.6833034939235
 30
0.0
 10
276.8013644748264
 20
596.9447862413194
 30
0.0
 10
276.8013644748264
 20
597.4098741319444
 30
0.0
 10
276.6800971137152
 20
597.4098741319444
 30
0.0
 10
276.5974148220486
 20
597.4098741319444
 30
0.0
 10
276.4699462890625
 20
597.4098741319444
 30
0.0
 10
276.0331081814236
 20
597.4098741319444
 30
0.0
 10
275.7209825303819
 20
596.9923285590277
 30
0.0
 10
275.7209825303819
 20
596.5558349609374
 30
0.0
  0
SPLINE
  5
73
330
A
100
AcDbEntity
  8
LAYER_1
 62
     7
100
AcDbSpline
210
0.0
220
0.0
230
1.0
 70
    11
 71
     3
 72
    23
 73
    19
 74
     0
 42
0.000000001
 43
0.00000001
 40
0.0
 40
0.0
 40
0.0
 40
0.0
 40
1.0
 40
1.0
 40
1.0
 40
2.0
 40
2.0
 40
2.0
 40
3.0
 40
3.0
 40
3.0
 40
4.0
 40
4.0
 40
4.0
 40
5.0
 40
5.0
 40
5.0
 40
6.0
 40
6.0
 40
6.0
 40
6.0
 10
275.9504258897569
 20
598.9298502604166
 30
0.0
 10
275.8005642361111
 20
599.0221788194444
 30
0.0
 10
275.7209825303819
 20
599.1561930338542
 30
0.0
 10
275.5394259982639
 20
599.1561930338542
 30
0.0
 10
275.1473741319444
 20
599.1561930338542
 30
0.0
 10
275.1825141059027
 20
598.5953314887153
 30
0.0
 10
275.1825141059027
 20
598.2001790364583
 30
0.0
 10
275.1825141059027
 20
598.0155219184027
 30
0.0
 10
275.1825141059027
 20
597.9259494357639
 30
0.0
 10
275.1825141059027
 20
597.7412923177083
 30
0.0
 10
275.4119574652777
 20
597.7412923177083
 30
0.0
 10
275.5232340494791
 20
597.7412923177083
 30
0.0
 10
275.7561225043402
 20
597.7412923177083
 30
0.0
 10
276.2529052734375
 20
597.7412923177083
 30
0.0
 10
276.9667290581597
 20
597.6138237847222
 30
0.0
 10
276.9667290581597
 20
598.110951063368
 30
0.0
 10
276.9667290581597
 20
598.569837782118
 30
0.0
 10
276.3328314887153
 20
598.6749131944443
 30
0.0
 10
275.9504258897569
 20
598.9298502604166
 30
0.0
  0
SPLINE
  5
72
330
A
100
AcDbEntity
  8
LAYER_1
 62
     7
100
AcDbSpline
210
0.0
220
0.0
230
1.0
 70
    11
 71
     3
 72
    32
 73
    28
 74
     0
 42
0.000000001
 43
0.00000001
 40
0.0
 40
0.0
 40
0.0
 40
0.0
 40
1.0
 40
1.0
 40
1.0
 40
2.0
 40
2.0
 40
2.0
 40
3.0
 40
3.0
 40
3.0
 40
4.0
 40
4.0
 40
4.0
 40
5.0
 40
5.0
 40
5.0
 40
6.0
 40
6.0
 40
6.0
 40
7.0
 40
7.0
 40
7.0
 40
8.0
 40
8.0
 40
8.0
 40
9.0
 40
9.0
 40
9.0
 40
9.0
 10
272.2283447265625
 20
598.4678629557291
 30
0.0
 10
272.2283447265625
 20
598.4678629557291
 30
0.0
 10
271.9510145399306
 20
598.5570909288194
 30
0.0
 10
271.9510145399306
 20
598.5570909288194
 30
0.0
 10
271.7791042751736
 20
598.38828125
 30
0.0
 10
271.5782552083333
 20
598.2828613281249
 30
0.0
 10
271.5782552083333
 20
598.041015625
 30
0.0
 10
271.5782552083333
 20
597.6617106119791
 30
0.0
 10
271.6612820095486
 20
597.1866319444443
 30
0.0
 10
272.0436876085069
 20
597.1866319444443
 30
0.0
 10
272.5949028862847
 20
597.1866319444443
 30
0.0
 10
272.8849799262152
 20
597.5056477864583
 30
0.0
 10
273.436195203993
 20
597.5056477864583
 30
0.0
 10
273.7803602430556
 20
597.5056477864583
 30
0.0
 10
273.9874104817708
 20
597.3716335720486
 30
0.0
 10
274.3346761067708
 20
597.3716335720486
 30
0.0
 10
274.589613172743
 20
597.3716335720486
 30
0.0
 10
274.8858913845486
 20
597.4670627170138
 30
0.0
 10
274.8858913845486
 20
597.715798611111
 30
0.0
 10
274.8858913845486
 20
598.0024305555555
 30
0.0
 10
274.5768663194444
 20
598.0727105034722
 30
0.0
 10
274.3794623480903
 20
598.2828613281249
 30
0.0
 10
273.9109293619791
 20
598.7803331163194
 30
0.0
 10
273.4234483506944
 20
598.8568142361111
 30
0.0
 10
272.7351182725694
 20
598.9298502604166
 30
0.0
 10
272.5246229383681
 20
598.7803331163194
 30
0.0
 10
272.4195475260416
 20
598.6273708767361
 30
0.0
 10
272.2283447265625
 20
598.4678629557291
 30
0.0
  0
SPLINE
  5
71
330
A
100
AcDbEntity
  8
LAYER_1
 62
     7
100
AcDbSpline
210
0.0
220
0.0
230
1.0
 70
    11
 71
     3
 72
    23
 73
    19
 74
     0
 42
0.000000001
 43
0.00000001
 40
0.0
 40
0.0
 40
0.0
 40
0.0
 40
1.0
 40
1.0
 40
1.0
 40
2.0
 40
2.0
 40
2.0
 40
3.0
 40
3.0
 40
3.0
 40
4.0
 40
4.0
 40
4.0
 40
5.0
 40
5.0
 40
5.0
 40
6.0
 40
6.0
 40
6.0
 40
6.0
 10
276.6897433810764
 20
594.9690239800346
 30
0.0
 10
276.5622748480902
 20
595.0038194444444
 30
0.0
 10
276.4823486328125
 20
595.064453125
 30
0.0
 10
276.3455783420139
 20
595.064453125
 30
0.0
 10
276.195716688368
 20
595.064453125
 30
0.0
 10
276.1254367404514
 20
594.962478298611
 30
0.0
 10
275.9983127170138
 20
594.8763509114583
 30
0.0
 10
276.1829698350694
 20
594.5035915798611
 30
0.0
 10
276.2274115668403
 20
594.2231608072916
 30
0.0
 10
276.2274115668403
 20
593.7963134765624
 30
0.0
 10
276.2274115668403
 20
593.633704969618
 30
0.0
 10
276.3200846354167
 20
593.4648952907986
 30
0.0
 10
276.4823486328125
 20
593.4648952907986
 30
0.0
 10
277.1165907118055
 20
593.4648952907986
 30
0.0
 10
276.9191867404514
 20
594.3382269965277
 30
0.0
 10
277.0594021267361
 20
594.9690239800346
 30
0.0
 10
276.9574273003472
 20
595.0169108072917
 30
0.0
 10
276.8013644748264
 20
594.9500759548611
 30
0.0
 10
276.6897433810764
 20
594.9690239800346
 30
0.0
  0
SPLINE
  5
70
330
A
100
AcDbEntity
  8
LAYER_1
 62
     7
100
AcDbSpline
210
0.0
220
0.0
230
1.0
 70
     8
 71
     3
 72
    14
 73
    10
 74
     0
 42
0.000000001
 43
0.00000001
 40
0.0
 40
0.0
 40
0.0
 40
0.0
 40
1.0
 40
1.0
 40
1.0
 40
2.0
 40
2.0
 40
2.0
 40
3.0
 40
3.0
 40
3.0
 40
3.0
 10
273.60810546875
 20
596.5303412543402
 30
0.0
 10
273.6273980034722
 20
596.7663302951388
 30
0.0
 10
273.8344482421875
 20
596.9
 30
0.0
 10
274.0669921875
 20
596.9
 30
0.0
 10
274.4239040798611
 20
596.9
 30
0.0
 10
274.6309543185764
 20
596.6450629340277
 30
0.0
 10
274.8032090928819
 20
596.3453396267361
 30
0.0
 10
274.5641194661458
 20
596.2244167751736
 30
0.0
 10
274.3856635199652
 20
596.211669921875
 30
0.0
 10
274.1117784288194
 20
596.1193413628472
 30
0.0
  0
SPLINE
  5
6F
330
A
100
AcDbEntity
  8
LAYER_1
 62
     7
100
AcDbSpline
210
0.0
220
0.0
230
1.0
 70
    11
 71
     3
 72
    17
 73
    13
 74
     0
 42
0.000000001
 43
0.00000001
 40
0.0
 40
0.0
 40
0.0
 40
0.0
 40
1.0
 40
1.0
 40
1.0
 40
2.0
 40
2.0
 40
2.0
 40
3.0
 40
3.0
 40
3.0
 40
4.0
 40
4.0
 40
4.0
 40
4.0
 10
274.8032090928819
 20
596.2915961371527
 30
0.0
 10
274.7904622395833
 20
596.211669921875
 30
0.0
 10
274.7108805338542
 20
596.1989230685764
 30
0.0
 10
274.7108805338542
 20
596.1193413628472
 30
0.0
 10
274.7108805338542
 20
595.9250379774305
 30
0.0
 10
274.8858913845486
 20
595.7593288845486
 30
0.0
 10
275.0805392795139
 20
595.7593288845486
 30
0.0
 10
275.2173095703125
 20
595.7593288845486
 30
0.0
 10
275.3447781032986
 20
595.8867974175347
 30
0.0
 10
275.3447781032986
 20
596.0270128038194
 30
0.0
 10
275.3447781032986
 20
596.2564561631943
 30
0.0
 10
275.0326524522569
 20
596.2819498697916
 30
0.0
 10
274.8032090928819
 20
596.2915961371527
 30
0.0
  0
SPLINE
  5
6E
330
A
100
AcDbEntity
  8
LAYER_1
 62
     7
100
AcDbSpline
210
0.0
220
0.0
230
1.0
 70
     8
 71
     3
 72
    41
 73
    37
 74
     0
 42
0.000000001
 43
0.00000001
 40
0.0
 40
0.0
 40
0.0
 40
0.0
 40
1.0
 40
1.0
 40
1.0
 40
2.0
 40
2.0
 40
2.0
 40
3.0
 40
3.0
 40
3.0
 40
4.0
 40
4.0
 40
4.0
 40
5.0
 40
5.0
 40
5.0
 40
6.0
 40
6.0
 40
6.0
 40
7.0
 40
7.0
 40
7.0
 40
8.0
 40
8.0
 40
8.0
 40
9.0
 40
9.0
 40
9.0
 40
10.0
 40
10.0
 40
10.0
 40
11.0
 40
11.0
 40
11.0
 40
12.0
 40
12.0
 40
12.0
 40
12.0
 10
257.2700846354167
 20
614.57333984375
 30
0.0
 10
257.1109212239583
 20
614.3790364583333
 30
0.0
 10
257.0058458116319
 20
614.1971354166666
 30
0.0
 10
256.9927544487847
 20
613.9297960069443
 30
0.0
 10
256.9927544487847
 20
613.9297960069443
 30
0.0
 10
257.3403645833333
 20
611.4059190538194
 30
0.0
 10
257.3403645833333
 20
611.4059190538194
 30
0.0
 10
257.3403645833333
 20
610.9532335069443
 30
0.0
 10
257.3403645833333
 20
610.6920952690972
 30
0.0
 10
257.3403645833333
 20
610.2456108940971
 30
0.0
 10
257.3403645833333
 20
610.1246880425347
 30
0.0
 10
257.2700846354167
 20
610.0671549479166
 30
0.0
 10
257.2700846354167
 20
609.9589789496528
 30
0.0
 10
257.2700846354167
 20
609.3250813802083
 30
0.0
 10
257.5953016493056
 20
608.9964192708333
 30
0.0
 10
257.5953016493056
 20
608.3656222873263
 30
0.0
 10
257.5953016493056
 20
607.7761664496527
 30
0.0
 10
257.3627577039931
 20
607.4478488498263
 30
0.0
 10
257.3627577039931
 20
606.8618381076388
 30
0.0
 10
257.3627577039931
 20
605.8227973090277
 30
0.0
 10
257.5570610894097
 20
605.2329969618055
 30
0.0
 10
257.5570610894097
 20
604.1974012586805
 30
0.0
 10
257.5570610894097
 20
603.0088433159722
 30
0.0
 10
257.5570610894097
 20
602.3398057725694
 30
0.0
 10
257.5570610894097
 20
601.1512478298611
 30
0.0
 10
257.5570610894097
 20
600.6572211371528
 30
0.0
 10
257.6397433810764
 20
600.2589680989582
 30
0.0
 10
257.3179714626736
 20
599.9020562065972
 30
0.0
 10
257.0182481553819
 20
599.5768391927082
 30
0.0
 10
256.6489339192708
 20
599.7552951388889
 30
0.0
 10
256.2120958116319
 20
599.7552951388889
 30
0.0
 10
254.4275363498264
 20
599.9399522569444
 30
0.0
 10
253.4460286458333
 20
600.2651692708333
 30
0.0
 10
251.798583984375
 20
600.9917399088541
 30
0.0
 10
251.3937852647569
 20
601.157449001736
 30
0.0
 10
251.0148247612847
 20
601.0361816406249
 30
0.0
 10
250.7405951605903
 20
601.3551974826388
 30
0.0
  0
SPLINE
  5
6D
330
A
100
AcDbEntity
  8
LAYER_1
 62
     7
100
AcDbSpline
210
0.0
220
0.0
230
1.0
 70
     8
 71
     3
 72
    26
 73
    22
 74
     0
 42
0.000000001
 43
0.00000001
 40
0.0
 40
0.0
 40
0.0
 40
0.0
 40
1.0
 40
1.0
 40
1.0
 40
2.0
 40
2.0
 40
2.0
 40
3.0
 40
3.0
 40
3.0
 40
4.0
 40
4.0
 40
4.0
 40
5.0
 40
5.0
 40
5.0
 40
6.0
 40
6.0
 40
6.0
 40
7.0
 40
7.0
 40
7.0
 40
7.0
 10
244.3802598741319
 20
604.0830240885416
 30
0.0
 10
244.7178792317708
 20
603.575906032986
 30
0.0
 10
244.6031575520833
 20
603.101171875
 30
0.0
 10
244.9824625651042
 20
602.6553765190972
 30
0.0
 10
245.5943115234375
 20
601.9284613715278
 30
0.0
 10
246.3622233072917
 20
602.0435275607638
 30
0.0
 10
247.3182373046875
 20
601.9284613715278
 30
0.0
 10
247.8026177300347
 20
601.8712727864582
 30
0.0
 10
248.0448079427083
 20
601.6514756944443
 30
0.0
 10
248.5291883680555
 20
601.6514756944443
 30
0.0
 10
248.9560356987847
 20
601.6514756944443
 30
0.0
 10
249.1982259114583
 20
601.6514756944443
 30
0.0
 10
249.6254177517361
 20
601.6514756944443
 30
0.0
 10
249.6347195095486
 20
601.7565511067708
 30
0.0
 10
249.6698594835069
 20
601.8264865451388
 30
0.0
 10
249.6698594835069
 20
601.9284613715278
 30
0.0
 10
249.6698594835069
 20
602.0083875868055
 30
0.0
 10
249.5775309244791
 20
602.0338812934027
 30
0.0
 10
249.5775309244791
 20
602.1134629991319
 30
0.0
 10
249.5775309244791
 20
602.17099609375
 30
0.0
 10
249.6254177517361
 20
602.1899441189236
 30
0.0
 10
249.6254177517361
 20
602.2536783854166
 30
0.0
  0
SPLINE
  5
6C
330
A
100
AcDbEntity
  8
LAYER_1
 62
     7
100
AcDbSpline
210
0.0
220
0.0
230
1.0
 70
     8
 71
     3
 72
    32
 73
    28
 74
     0
 42
0.000000001
 43
0.00000001
 40
0.0
 40
0.0
 40
0.0
 40
0.0
 40
1.0
 40
1.0
 40
1.0
 40
2.0
 40
2.0
 40
2.0
 40
3.0
 40
3.0
 40
3.0
 40
4.0
 40
4.0
 40
4.0
 40
5.0
 40
5.0
 40
5.0
 40
6.0
 40
6.0
 40
6.0
 40
7.0
 40
7.0
 40
7.0
 40
8.0
 40
8.0
 40
8.0
 40
9.0
 40
9.0
 40
9.0
 40
9.0
 10
242.4044976128472
 20
616.1346571180555
 30
0.0
 10
242.4044976128472
 20
616.6831163194444
 30
0.0
 10
242.5412679036458
 20
616.9890407986111
 30
0.0
 10
242.5412679036458
 20
617.5306098090277
 30
0.0
 10
242.5412679036458
 20
617.9254177517361
 30
0.0
 10
242.5412679036458
 20
618.1293674045138
 30
0.0
 10
242.5412679036458
 20
618.5248643663194
 30
0.0
 10
242.6911295572916
 20
618.6712809244791
 30
0.0
 10
242.8058512369792
 20
618.7987494574652
 30
0.0
 10
243.0290934244792
 20
618.7987494574652
 30
0.0
 10
244.0295491536458
 20
618.7987494574652
 30
0.0
 10
244.5490695529514
 20
618.2919759114583
 30
0.0
 10
245.549525282118
 20
618.2919759114583
 30
0.0
 10
245.7662217881944
 20
618.2919759114583
 30
0.0
 10
245.8712972005208
 20
618.473876953125
 30
0.0
 10
246.0914388020833
 20
618.473876953125
 30
0.0
 10
246.5503255208333
 20
618.473876953125
 30
0.0
 10
246.8052625868055
 20
618.473876953125
 30
0.0
 10
247.2641493055555
 20
618.473876953125
 30
0.0
 10
248.1626302083333
 20
618.473876953125
 30
0.0
 10
249.3959743923611
 20
618.486279296875
 30
0.0
 10
249.3959743923611
 20
617.5877983940971
 30
0.0
 10
249.3959743923611
 20
617.0972167968749
 30
0.0
 10
248.9784288194444
 20
616.877419704861
 30
0.0
 10
248.9784288194444
 20
616.3799479166667
 30
0.0
 10
248.9784288194444
 20
616.2621256510416
 30
0.0
 10
248.9784288194444
 20
616.2080376519096
 30
0.0
 10
248.9784288194444
 20
616.0933159722222
 30
0.0
  0
SPLINE
  5
6B
330
A
100
AcDbEntity
  8
LAYER_1
 62
     7
100
AcDbSpline
210
0.0
220
0.0
230
1.0
 70
     8
 71
     3
 72
    14
 73
    10
 74
     0
 42
0.000000001
 43
0.00000001
 40
0.0
 40
0.0
 40
0.0
 40
0.0
 40
1.0
 40
1.0
 40
1.0
 40
2.0
 40
2.0
 40
2.0
 40
3.0
 40
3.0
 40
3.0
 40
3.0
 10
240.5179633246528
 20
603.8980224609375
 30
0.0
 10
240.6581787109375
 20
603.6110460069444
 30
0.0
 10
240.8524820963542
 20
603.388148328993
 30
0.0
 10
241.1742540147569
 20
603.388148328993
 30
0.0
 10
241.3144694010416
 20
603.388148328993
 30
0.0
 10
241.3940511067708
 20
603.388148328993
 30
0.0
 10
241.531165907118
 20
603.388148328993
 30
0.0
 10
241.531165907118
 20
603.388148328993
 30
0.0
 10
241.531165907118
 20
604.3152235243055
 30
0.0
 10
241.531165907118
 20
604.3152235243055
 30
0.0
  0
SPLINE
  5
6A
330
A
100
AcDbEntity
  8
LAYER_1
 62
     7
100
AcDbSpline
210
0.0
220
0.0
230
1.0
 70
     8
 71
     3
 72
    20
 73
    16
 74
     0
 42
0.000000001
 43
0.00000001
 40
0.0
 40
0.0
 40
0.0
 40
0.0
 40
1.0
 40
1.0
 40
1.0
 40
2.0
 40
2.0
 40
2.0
 40
3.0
 40
3.0
 40
3.0
 40
4.0
 40
4.0
 40
4.0
 40
5.0
 40
5.0
 40
5.0
 40
5.0
 10
240.4252902560764
 20
604.4078965928819
 30
0.0
 10
240.4383816189236
 20
604.2897298177082
 30
0.0
 10
240.4731770833333
 20
604.2294406467013
 30
0.0
 10
240.4731770833333
 20
604.1178195529513
 30
0.0
 10
240.4731770833333
 20
603.8280870225694
 30
0.0
 10
240.1834445529514
 20
603.6430853949652
 30
0.0
 10
239.8964680989583
 20
603.617591688368
 30
0.0
 10
239.8964680989583
 20
603.617591688368
 30
0.0
 10
237.2802625868055
 20
604.0347927517361
 30
0.0
 10
237.2802625868055
 20
604.0347927517361
 30
0.0
 10
236.8086290147569
 20
603.9679578993055
 30
0.0
 10
236.531298828125
 20
603.8980224609375
 30
0.0
 10
236.0596652560764
 20
603.8980224609375
 30
0.0
 10
235.8174750434028
 20
603.8980224609375
 30
0.0
 10
235.6328179253472
 20
603.9555555555555
 30
0.0
 10
235.4636637369792
 20
604.13056640625
 30
0.0
  0
SPLINE
  5
69
330
A
100
AcDbEntity
  8
LAYER_1
 62
     7
100
AcDbSpline
210
0.0
220
0.0
230
1.0
 70
    11
 71
     3
 72
    14
 73
    10
 74
     0
 42
0.000000001
 43
0.00000001
 40
0.0
 40
0.0
 40
0.0
 40
0.0
 40
1.0
 40
1.0
 40
1.0
 40
2.0
 40
2.0
 40
2.0
 40
3.0
 40
3.0
 40
3.0
 40
3.0
 10
233.0738009982639
 20
605.3256700303818
 30
0.0
 10
233.0738009982639
 20
604.6628336588541
 30
0.0
 10
233.5581814236111
 20
604.0892252604166
 30
0.0
 10
234.2144721137153
 20
604.0892252604166
 30
0.0
 10
234.8359673394097
 20
604.0892252604166
 30
0.0
 10
235.0433620876736
 20
604.8412896050347
 30
0.0
 10
235.0433620876736
 20
605.4596842447916
 30
0.0
 10
235.0433620876736
 20
606.2337972005208
 30
0.0
 10
233.0738009982639
 20
606.0970269097222
 30
0.0
 10
233.0738009982639
 20
605.3256700303818
 30
0.0
  0
SPLINE
  5
68
330
A
100
AcDbEntity
  8
LAYER_1
 62
     7
100
AcDbSpline
210
0.0
220
0.0
230
1.0
 70
    11
 71
     3
 72
    23
 73
    19
 74
     0
 42
0.000000001
 43
0.00000001
 40
0.0
 40
0.0
 40
0.0
 40
0.0
 40
1.0
 40
1.0
 40
1.0
 40
2.0
 40
2.0
 40
2.0
 40
3.0
 40
3.0
 40
3.0
 40
4.0
 40
4.0
 40
4.0
 40
5.0
 40
5.0
 40
5.0
 40
6.0
 40
6.0
 40
6.0
 40
6.0
 10
231.7257351345486
 20
606.6895833333333
 30
0.0
 10
231.7257351345486
 20
606.3133789062499
 30
0.0
 10
232.0158121744792
 20
605.9788601345485
 30
0.0
 10
232.3982177734375
 20
605.9788601345485
 30
0.0
 10
232.7775227864583
 20
605.9788601345485
 30
0.0
 10
232.7775227864583
 20
606.4728868272568
 30
0.0
 10
232.9273844401041
 20
606.8074055989583
 30
0.0
 10
233.1216878255208
 20
607.234597439236
 30
0.0
 10
233.5581814236111
 20
607.3937608506944
 30
0.0
 10
233.5581814236111
 20
607.8746961805555
 30
0.0
 10
233.5581814236111
 20
608.1172309027777
 30
0.0
 10
233.2808512369791
 20
608.2223063151041
 30
0.0
 10
233.0421061197916
 20
608.2223063151041
 30
0.0
 10
232.5353325737847
 20
608.2223063151041
 30
0.0
 10
232.4746988932291
 20
607.6170030381944
 30
0.0
 10
232.1880669487847
 20
607.2118598090277
 30
0.0
 10
232.0382052951389
 20
607.001708984375
 30
0.0
 10
231.7257351345486
 20
606.9569227430555
 30
0.0
 10
231.7257351345486
 20
606.6895833333333
 30
0.0
  0
SPLINE
  5
67
330
A
100
AcDbEntity
  8
LAYER_1
 62
     7
100
AcDbSpline
210
0.0
220
0.0
230
1.0
 70
     8
 71
     3
 72
    20
 73
    16
 74
     0
 42
0.000000001
 43
0.00000001
 40
0.0
 40
0.0
 40
0.0
 40
0.0
 40
1.0
 40
1.0
 40
1.0
 40
2.0
 40
2.0
 40
2.0
 40
3.0
 40
3.0
 40
3.0
 40
4.0
 40
4.0
 40
4.0
 40
5.0
 40
5.0
 40
5.0
 40
5.0
 10
233.7524848090277
 20
605.8799858940972
 30
0.0
 10
233.730091688368
 20
606.0584418402777
 30
0.0
 10
233.66015625
 20
606.1542154947916
 30
0.0
 10
233.66015625
 20
606.3388726128471
 30
0.0
 10
233.66015625
 20
606.66064453125
 30
0.0
 10
233.9819281684028
 20
606.7150770399305
 30
0.0
 10
234.1700303819444
 20
606.9824164496528
 30
0.0
 10
234.3388400607639
 20
607.2373535156249
 30
0.0
 10
234.2051703559028
 20
607.466796875
 30
0.0
 10
234.3040445963541
 20
607.753773328993
 30
0.0
 10
234.8935004340277
 20
607.4351019965277
 30
0.0
 10
235.1322455512152
 20
606.899734157986
 30
0.0
 10
235.1322455512152
 20
606.2210503472222
 30
0.0
 10
235.1322455512152
 20
605.9916069878471
 30
0.0
 10
234.9634358723958
 20
605.8420898437499
 30
0.0
 10
234.7660319010417
 20
605.7401150173611
 30
0.0
  0
SPLINE
  5
66
330
A
100
AcDbEntity
  8
LAYER_1
 62
     7
100
AcDbSpline
210
0.0
220
0.0
230
1.0
 70
    11
 71
     3
 72
    35
 73
    31
 74
     0
 42
0.000000001
 43
0.00000001
 40
0.0
 40
0.0
 40
0.0
 40
0.0
 40
1.0
 40
1.0
 40
1.0
 40
2.0
 40
2.0
 40
2.0
 40
3.0
 40
3.0
 40
3.0
 40
4.0
 40
4.0
 40
4.0
 40
5.0
 40
5.0
 40
5.0
 40
6.0
 40
6.0
 40
6.0
 40
7.0
 40
7.0
 40
7.0
 40
8.0
 40
8.0
 40
8.0
 40
9.0
 40
9.0
 40
9.0
 40
10.0
 40
10.0
 40
10.0
 40
10.0
 10
234.5365885416666
 20
613.4709092881944
 30
0.0
 10
234.2241183810764
 20
613.4709092881944
 30
0.0
 10
234.236865234375
 20
613.0375162760416
 30
0.0
 10
233.9819281684028
 20
612.8714626736111
 30
0.0
 10
233.6952962239583
 20
612.689906141493
 30
0.0
 10
233.312890625
 20
612.9417426215277
 30
0.0
 10
233.0738009982639
 20
612.689906141493
 30
0.0
 10
232.8891438802083
 20
612.4956027560763
 30
0.0
 10
232.9366861979167
 20
612.272705078125
 30
0.0
 10
232.9366861979167
 20
611.9984754774305
 30
0.0
 10
232.9366861979167
 20
610.7272352430555
 30
0.0
 10
233.5102945963542
 20
609.76123046875
 30
0.0
 10
234.6733588324653
 20
609.2451551649305
 30
0.0
 10
235.1229437934028
 20
609.0474066840277
 30
0.0
 10
235.3203477647569
 20
608.6460530598957
 30
0.0
 10
235.8143744574652
 20
608.6460530598957
 30
0.0
 10
236.2605143229166
 20
608.6460530598957
 30
0.0
 10
236.0789577907986
 20
609.311990017361
 30
0.0
 10
236.184033203125
 20
609.7519287109375
 30
0.0
 10
236.3338948567708
 20
610.3861707899305
 30
0.0
 10
236.7831353081597
 20
610.6600558810763
 30
0.0
 10
236.7831353081597
 20
611.3163465711805
 30
0.0
 10
236.7831353081597
 20
611.813818359375
 30
0.0
 10
236.3211480034722
 20
612.0177680121527
 30
0.0
 10
236.3211480034722
 20
612.5145507812499
 30
0.0
 10
236.3211480034722
 20
612.6165256076388
 30
0.0
 10
236.3211480034722
 20
612.6771592881944
 30
0.0
 10
236.3211480034722
 20
612.7825792100693
 30
0.0
 10
235.5752848307291
 20
612.7825792100693
 30
0.0
 10
235.2852077907986
 20
613.4709092881944
 30
0.0
 10
234.5365885416666
 20
613.4709092881944
 30
0.0
  0
SPLINE
  5
65
330
A
100
AcDbEntity
  8
LAYER_1
 62
     7
100
AcDbSpline
210
0.0
220
0.0
230
1.0
 70
     8
 71
     3
 72
     8
 73
     4
 74
     0
 42
0.000000001
 43
0.00000001
 40
0.0
 40
0.0
 40
0.0
 40
0.0
 40
1.0
 40
1.0
 40
1.0
 40
1.0
 10
236.190234375
 20
618.486279296875
 30
0.0
 10
237.5510470920139
 20
618.3240152994791
 30
0.0
 10
239.0582763671875
 20
618.7033203125
 30
0.0
 10
239.4982150607639
 20
617.390394422743
 30
0.0
  0
SPLINE
  5
64
330
A
100
AcDbEntity
  8
LAYER_1
 62
     7
100
AcDbSpline
210
0.0
220
0.0
230
1.0
 70
     8
 71
     3
 72
    20
 73
    16
 74
     0
 42
0.000000001
 43
0.00000001
 40
0.0
 40
0.0
 40
0.0
 40
0.0
 40
1.0
 40
1.0
 40
1.0
 40
2.0
 40
2.0
 40
2.0
 40
3.0
 40
3.0
 40
3.0
 40
4.0
 40
4.0
 40
4.0
 40
5.0
 40
5.0
 40
5.0
 40
5.0
 10
239.9219618055555
 20
617.4286349826389
 30
0.0
 10
239.7975938585069
 20
617.8234429253472
 30
0.0
 10
239.459974500868
 20
617.9702039930555
 30
0.0
 10
239.459974500868
 20
618.3843044704861
 30
0.0
 10
239.459974500868
 20
618.5117730034722
 30
0.0
 10
239.5650499131944
 20
618.613747829861
 30
0.0
 10
239.6925184461805
 20
618.613747829861
 30
0.0
 10
239.9571017795139
 20
618.613747829861
 30
0.0
 10
240.1069634331597
 20
618.473876953125
 30
0.0
 10
240.3712022569444
 20
618.473876953125
 30
0.0
 10
240.5658501519097
 20
618.473876953125
 30
0.0
 10
240.6802273220486
 20
618.5693060980902
 30
0.0
 10
240.8779758029514
 20
618.5693060980902
 30
0.0
 10
241.2252414279514
 20
618.5693060980902
 30
0.0
 10
241.2572808159722
 20
618.1104193793402
 30
0.0
 10
241.5694064670139
 20
617.9829508463541
 30
0.0
  0
SPLINE
  5
63
330
A
100
AcDbEntity
  8
LAYER_1
 62
     7
100
AcDbSpline
210
0.0
220
0.0
230
1.0
 70
    11
 71
     3
 72
    26
 73
    22
 74
     0
 42
0.000000001
 43
0.00000001
 40
0.0
 40
0.0
 40
0.0
 40
0.0
 40
1.0
 40
1.0
 40
1.0
 40
2.0
 40
2.0
 40
2.0
 40
3.0
 40
3.0
 40
3.0
 40
4.0
 40
4.0
 40
4.0
 40
5.0
 40
5.0
 40
5.0
 40
6.0
 40
6.0
 40
6.0
 40
7.0
 40
7.0
 40
7.0
 40
7.0
 10
287.9290228949653
 20
639.6205620659722
 30
0.0
 10
287.9290228949653
 20
639.0087131076389
 30
0.0
 10
288.3431233723958
 20
638.4223578559028
 30
0.0
 10
288.9518717447916
 20
638.4223578559028
 30
0.0
 10
289.4937852647569
 20
638.4223578559028
 30
0.0
 10
289.7487223307292
 20
638.7155354817708
 30
0.0
 10
290.2203559027777
 20
638.9770182291666
 30
0.0
 10
290.6441026475694
 20
639.2030164930555
 30
0.0
 10
291.2208116319444
 20
639.2381564670138
 30
0.0
 10
291.2208116319444
 20
639.734939236111
 30
0.0
 10
291.2208116319444
 20
640.0219156901042
 30
0.0
 10
290.9117865668402
 20
640.1049424913194
 30
0.0
 10
290.7267849392361
 20
640.2958007812499
 30
0.0
 10
290.4177598741319
 20
640.6210177951389
 30
0.0
 10
290.1979627821181
 20
640.9396891276041
 30
0.0
 10
289.739076063368
 20
640.9396891276041
 30
0.0
 10
289.1017333984375
 20
640.9396891276041
 30
0.0
 10
288.8850368923611
 20
640.4232693142361
 30
0.0
 10
288.3879096137152
 20
640.0346625434028
 30
0.0
 10
288.2032524956597
 20
639.8851453993055
 30
0.0
 10
287.9290228949653
 20
639.8624077690972
 30
0.0
 10
287.9290228949653
 20
639.6205620659722
 30
0.0
  0
SPLINE
  5
62
330
A
100
AcDbEntity
  8
LAYER_1
  6
AI9-LType2
 62
     7
100
AcDbSpline
210
0.0
220
0.0
230
1.0
 70
     8
 71
     3
 72
    32
 73
    28
 74
     0
 42
0.000000001
 43
0.00000001
 40
0.0
 40
0.0
 40
0.0
 40
0.0
 40
1.0
 40
1.0
 40
1.0
 40
2.0
 40
2.0
 40
2.0
 40
3.0
 40
3.0
 40
3.0
 40
4.0
 40
4.0
 40
4.0
 40
5.0
 40
5.0
 40
5.0
 40
6.0
 40
6.0
 40
6.0
 40
7.0
 40
7.0
 40
7.0
 40
8.0
 40
8.0
 40
8.0
 40
9.0
 40
9.0
 40
9.0
 40
9.0
 10
246.5916666666666
 20
648.5847005208333
 30
0.0
 10
244.5235758463541
 20
648.9957004123263
 30
0.0
 10
243.2774848090278
 20
649.4101453993055
 30
0.0
 10
241.072279188368
 20
649.4101453993055
 30
0.0
 10
238.8639729817708
 20
649.4101453993055
 30
0.0
 10
237.7580973307292
 20
650.6524468315972
 30
0.0
 10
237.3408962673611
 20
648.9957004123263
 30
0.0
 10
236.9295518663194
 20
647.3386094835068
 30
0.0
 10
236.3783365885417
 20
644.5787434895833
 30
0.0
 10
236.6525661892361
 20
643.0622124565972
 30
0.0
 10
236.9295518663194
 20
641.5387912326388
 30
0.0
 10
237.2068820529514
 20
637.2623942057292
 30
0.0
 10
237.0666666666666
 20
635.7455186631944
 30
0.0
 10
236.9295518663194
 20
634.2220974392361
 30
0.0
 10
237.0666666666666
 20
632.1509060329861
 30
0.0
 10
236.9295518663194
 20
630.6371310763889
 30
0.0
 10
236.7893364800347
 20
629.1171549479166
 30
0.0
 10
235.6838053385416
 20
627.326394314236
 30
0.0
 10
234.5844753689236
 20
626.3576334635416
 30
0.0
 10
233.4785997178819
 20
625.3888726128472
 30
0.0
 10
233.0641547309027
 20
622.7664659288193
 30
0.0
 10
233.0641547309027
 20
621.2461452907986
 30
0.0
 10
233.0641547309027
 20
619.7261691623263
 30
0.0
 10
233.7524848090277
 20
616.5556477864583
 30
0.0
 10
234.0298149956597
 20
615.4463270399305
 30
0.0
 10
234.3040445963541
 20
614.3438964843749
 30
0.0
 10
234.0298149956597
 20
612.9637912326389
 30
0.0
 10
234.0298149956597
 20
612.9637912326389
 30
0.0
  0
SPLINE
  5
61
330
A
100
AcDbEntity
  8
LAYER_1
  6
AI9-LType2
 62
     7
100
AcDbSpline
210
0.0
220
0.0
230
1.0
 70
     8
 71
     3
 72
    14
 73
    10
 74
     0
 42
0.000000001
 43
0.00000001
 40
0.0
 40
0.0
 40
0.0
 40
0.0
 40
1.0
 40
1.0
 40
1.0
 40
2.0
 40
2.0
 40
2.0
 40
3.0
 40
3.0
 40
3.0
 40
3.0
 10
236.6525661892361
 20
643.1958821614583
 30
0.0
 10
238.0354275173611
 20
642.7817816840277
 30
0.0
 10
239.2749728732639
 20
643.4701117621527
 30
0.0
 10
240.5179633246528
 20
643.7505425347222
 30
0.0
 10
241.7637098524305
 20
644.024427625868
 30
0.0
 10
243.2774848090278
 20
645.4076334635416
 30
0.0
 10
243.4177001953125
 20
646.5131646050347
 30
0.0
 10
243.5579155815972
 20
647.6159396701388
 30
0.0
 10
243.4177001953125
 20
649.1390163845485
 30
0.0
 10
243.4177001953125
 20
649.1390163845485
 30
0.0
  0
SPLINE
  5
60
330
A
100
AcDbEntity
  8
LAYER_1
  6
AI9-LType2
 62
     7
100
AcDbSpline
210
0.0
220
0.0
230
1.0
 70
    11
 71
     3
 72
    23
 73
    19
 74
     0
 42
0.000000001
 43
0.00000001
 40
0.0
 40
0.0
 40
0.0
 40
0.0
 40
1.0
 40
1.0
 40
1.0
 40
2.0
 40
2.0
 40
2.0
 40
3.0
 40
3.0
 40
3.0
 40
4.0
 40
4.0
 40
4.0
 40
5.0
 40
5.0
 40
5.0
 40
6.0
 40
6.0
 40
6.0
 40
6.0
 10
245.6260064019097
 20
645.4076334635416
 30
0.0
 10
244.2462456597222
 20
645.6815185546874
 30
0.0
 10
243.1438151041666
 20
646.3729492187499
 30
0.0
 10
243.1438151041666
 20
644.5787434895833
 30
0.0
 10
243.1438151041666
 20
642.7817816840277
 30
0.0
 10
243.6919297960069
 20
641.8130208333333
 30
0.0
 10
244.6572455512153
 20
641.6790066189236
 30
0.0
 10
245.6260064019097
 20
641.5387912326388
 30
0.0
 10
247.2830973307291
 20
641.2645616319444
 30
0.0
 10
248.3889729817708
 20
641.2645616319444
 30
0.0
 10
249.4948486328125
 20
641.2645616319444
 30
0.0
 10
251.0113796657986
 20
641.6790066189236
 30
0.0
 10
250.597279188368
 20
642.9216525607638
 30
0.0
 10
250.1831787109375
 20
644.1646430121527
 30
0.0
 10
249.908949110243
 20
644.4388726128471
 30
0.0
 10
248.9401882595486
 20
644.7193033854167
 30
0.0
 10
247.9745279947917
 20
644.9931884765624
 30
0.0
 10
247.0092122395833
 20
645.129958767361
 30
0.0
 10
245.6260064019097
 20
645.4076334635416
 30
0.0
  0
SPLINE
  5
5F
330
A
100
AcDbEntity
  8
LAYER_1
  6
AI9-LType2
 62
     7
100
AcDbSpline
210
0.0
220
0.0
230
1.0
 70
     8
 71
     3
 72
    35
 73
    31
 74
     0
 42
0.000000001
 43
0.00000001
 40
0.0
 40
0.0
 40
0.0
 40
0.0
 40
1.0
 40
1.0
 40
1.0
 40
2.0
 40
2.0
 40
2.0
 40
3.0
 40
3.0
 40
3.0
 40
4.0
 40
4.0
 40
4.0
 40
5.0
 40
5.0
 40
5.0
 40
6.0
 40
6.0
 40
6.0
 40
7.0
 40
7.0
 40
7.0
 40
8.0
 40
8.0
 40
8.0
 40
9.0
 40
9.0
 40
9.0
 40
10.0
 40
10.0
 40
10.0
 40
10.0
 10
255.4283365885416
 20
641.8130208333333
 30
0.0
 10
254.0485758463541
 20
641.6790066189236
 30
0.0
 10
253.2200303819444
 20
641.2645616319444
 30
0.0
 10
251.9770399305555
 20
640.8504611545138
 30
0.0
 10
250.7374945746527
 20
640.4394612630208
 30
0.0
 10
249.0773030598958
 20
638.7823703342013
 30
0.0
 10
250.3199490017361
 20
637.8136094835069
 30
0.0
 10
251.5660400390625
 20
636.8479492187499
 30
0.0
 10
254.5997911241319
 20
636.2936333550347
 30
0.0
 10
255.8424370659722
 20
634.9169731987847
 30
0.0
 10
257.0854275173611
 20
633.533767361111
 30
0.0
 10
261.0910400390625
 20
632.1509060329861
 30
0.0
 10
263.159130859375
 20
631.0484754774305
 30
0.0
 10
265.230322265625
 20
629.9457004123263
 30
0.0
 10
268.1304036458333
 20
630.2230305989583
 30
0.0
 10
270.1984944661458
 20
630.9113606770833
 30
0.0
 10
272.2731309678819
 20
631.6027913411458
 30
0.0
 10
274.6182074652777
 20
631.7368055555555
 30
0.0
 10
275.5869683159722
 20
632.9794514973958
 30
0.0
 10
276.5526285807292
 20
634.2220974392361
 30
0.0
 10
278.7640353732639
 20
634.9169731987847
 30
0.0
 10
276.9667290581597
 20
636.0197482638888
 30
0.0
 10
275.1728678385417
 20
637.1252794053819
 30
0.0
 10
273.789662000868
 20
637.2623942057292
 30
0.0
 10
271.7184705946181
 20
638.2280544704861
 30
0.0
 10
269.6503797743055
 20
639.1933702256944
 30
0.0
 10
267.8561740451389
 20
639.610915798611
 30
0.0
 10
266.1990831163194
 20
640.1590304904513
 30
0.0
 10
264.5388916015625
 20
640.7102457682291
 30
0.0
 10
259.711279296875
 20
641.6790066189236
 30
0.0
 10
259.711279296875
 20
641.6790066189236
 30
0.0
  0
SPLINE
  5
5E
330
A
100
AcDbEntity
  8
LAYER_1
  6
AI9-LType2
 62
     7
100
AcDbSpline
210
0.0
220
0.0
230
1.0
 70
     8
 71
     3
 72
    23
 73
    19
 74
     0
 42
0.000000001
 43
0.00000001
 40
0.0
 40
0.0
 40
0.0
 40
0.0
 40
1.0
 40
1.0
 40
1.0
 40
2.0
 40
2.0
 40
2.0
 40
3.0
 40
3.0
 40
3.0
 40
4.0
 40
4.0
 40
4.0
 40
5.0
 40
5.0
 40
5.0
 40
6.0
 40
6.0
 40
6.0
 40
6.0
 10
262.8818006727431
 20
640.9906765407985
 30
0.0
 10
262.6048149956597
 20
642.5075520833333
 30
0.0
 10
262.3305853949652
 20
643.336097547743
 30
0.0
 10
263.0220160590277
 20
644.3048583984374
 30
0.0
 10
263.7103461371527
 20
645.2705186631944
 30
0.0
 10
264.9564371744792
 20
645.9588487413193
 30
0.0
 10
266.7506429036458
 20
645.8217339409722
 30
0.0
 10
268.5445041232639
 20
645.6815185546874
 30
0.0
 10
270.8899251302083
 20
645.129958767361
 30
0.0
 10
271.7184705946181
 20
644.3048583984374
 30
0.0
 10
272.5470160590277
 20
643.4701117621527
 30
0.0
 10
273.6528917100694
 20
643.0622124565972
 30
0.0
 10
273.3755615234375
 20
642.2333224826389
 30
0.0
 10
273.101331922743
 20
641.4051215277777
 30
0.0
 10
271.4442409939236
 20
639.4707004123263
 30
0.0
 10
271.4442409939236
 20
639.4707004123263
 30
0.0
 10
271.4442409939236
 20
639.4707004123263
 30
0.0
 10
269.7905951605903
 20
638.9194851345486
 30
0.0
 10
269.7905951605903
 20
638.9194851345486
 30
0.0
  0
SPLINE
  5
5D
330
A
100
AcDbEntity
  8
LAYER_1
  6
AI9-LType2
 62
     7
100
AcDbSpline
210
0.0
220
0.0
230
1.0
 70
     8
 71
     3
 72
    20
 73
    16
 74
     0
 42
0.000000001
 43
0.00000001
 40
0.0
 40
0.0
 40
0.0
 40
0.0
 40
1.0
 40
1.0
 40
1.0
 40
2.0
 40
2.0
 40
2.0
 40
3.0
 40
3.0
 40
3.0
 40
4.0
 40
4.0
 40
4.0
 40
5.0
 40
5.0
 40
5.0
 40
5.0
 10
236.7893364800347
 20
639.4707004123263
 30
0.0
 10
238.0354275173611
 20
639.0562554253472
 30
0.0
 10
240.5179633246528
 20
638.0909396701388
 30
0.0
 10
240.5179633246528
 20
638.0909396701388
 30
0.0
 10
240.5179633246528
 20
638.0909396701388
 30
0.0
 10
242.3152696397569
 20
637.2623942057292
 30
0.0
 10
242.3152696397569
 20
635.7455186631944
 30
0.0
 10
242.3152696397569
 20
634.2220974392361
 30
0.0
 10
242.1750542534722
 20
632.1509060329861
 30
0.0
 10
241.6234944661458
 20
631.0484754774305
 30
0.0
 10
241.072279188368
 20
629.9457004123263
 30
0.0
 10
240.3808485243055
 20
628.5624945746528
 30
0.0
 10
239.5523030598958
 20
628.5624945746528
 30
0.0
 10
238.7237575954861
 20
628.5624945746528
 30
0.0
 10
236.6525661892361
 20
629.1171549479166
 30
0.0
 10
236.6525661892361
 20
629.1171549479166
 30
0.0
  0
SPLINE
  5
5C
330
A
100
AcDbEntity
  8
LAYER_1
  6
AI9-LType2
 62
     7
100
AcDbSpline
210
0.0
220
0.0
230
1.0
 70
     8
 71
     3
 72
   107
 73
   103
 74
     0
 42
0.000000001
 43
0.00000001
 40
0.0
 40
0.0
 40
0.0
 40
0.0
 40
1.0
 40
1.0
 40
1.0
 40
2.0
 40
2.0
 40
2.0
 40
3.0
 40
3.0
 40
3.0
 40
4.0
 40
4.0
 40
4.0
 40
5.0
 40
5.0
 40
5.0
 40
6.0
 40
6.0
 40
6.0
 40
7.0
 40
7.0
 40
7.0
 40
8.0
 40
8.0
 40
8.0
 40
9.0
 40
9.0
 40
9.0
 40
10.0
 40
10.0
 40
10.0
 40
11.0
 40
11.0
 40
11.0
 40
12.0
 40
12.0
 40
12.0
 40
13.0
 40
13.0
 40
13.0
 40
14.0
 40
14.0
 40
14.0
 40
15.0
 40
15.0
 40
15.0
 40
16.0
 40
16.0
 40
16.0
 40
17.0
 40
17.0
 40
17.0
 40
18.0
 40
18.0
 40
18.0
 40
19.0
 40
19.0
 40
19.0
 40
20.0
 40
20.0
 40
20.0
 40
21.0
 40
21.0
 40
21.0
 40
22.0
 40
22.0
 40
22.0
 40
23.0
 40
23.0
 40
23.0
 40
24.0
 40
24.0
 40
24.0
 40
25.0
 40
25.0
 40
25.0
 40
26.0
 40
26.0
 40
26.0
 40
27.0
 40
27.0
 40
27.0
 40
28.0
 40
28.0
 40
28.0
 40
29.0
 40
29.0
 40
29.0
 40
30.0
 40
30.0
 40
30.0
 40
31.0
 40
31.0
 40
31.0
 40
32.0
 40
32.0
 40
32.0
 40
33.0
 40
33.0
 40
33.0
 40
34.0
 40
34.0
 40
34.0
 40
34.0
 10
252.25126953125
 20
636.9850640190972
 30
0.0
 10
250.874609375
 20
635.7455186631944
 30
0.0
 10
247.9745279947917
 20
634.6365424262152
 30
0.0
 10
248.3889729817708
 20
632.845437282986
 30
0.0
 10
248.8030734592014
 20
631.0484754774305
 30
0.0
 10
249.3546332465278
 20
630.2230305989583
 30
0.0
 10
248.1116427951389
 20
629.5284993489582
 30
0.0
 10
246.8689968532986
 20
628.8401692708333
 30
0.0
 10
245.0747911241319
 20
628.2889539930555
 30
0.0
 10
244.3833604600694
 20
627.4600640190972
 30
0.0
 10
243.6919297960069
 20
626.6318630642361
 30
0.0
 10
242.4520399305555
 20
625.3888726128472
 30
0.0
 10
244.3833604600694
 20
624.5603271484374
 30
0.0
 10
246.3177815755208
 20
623.7317816840277
 30
0.0
 10
247.837757703993
 20
623.3176812065972
 30
0.0
 10
248.1116427951389
 20
622.2118055555555
 30
0.0
 10
248.3889729817708
 20
621.109375
 30
0.0
 10
248.2487575954861
 20
620.2804850260416
 30
0.0
 10
248.6663031684027
 20
619.3151692708333
 30
0.0
 10
249.0773030598958
 20
618.3464084201388
 30
0.0
 10
248.8030734592014
 20
616.6893174913193
 30
0.0
 10
250.1831787109375
 20
616.1412027994791
 30
0.0
 10
251.5660400390625
 20
615.5868869357638
 30
0.0
 10
256.1197672526042
 20
613.2380208333333
 30
0.0
 10
257.0854275173611
 20
614.2036810980902
 30
0.0
 10
258.0541883680555
 20
615.1724419487847
 30
0.0
 10
259.5710639105902
 20
617.6580783420138
 30
0.0
 10
261.2247097439236
 20
617.5244086371528
 30
0.0
 10
262.8818006727431
 20
617.3776475694444
 30
0.0
 10
267.5788438585069
 20
615.3126573350694
 30
0.0
 10
268.9589491102431
 20
614.7579969618055
 30
0.0
 10
270.3387098524306
 20
614.2036810980902
 30
0.0
 10
275.0326524522569
 20
611.8582600911458
 30
0.0
 10
277.1038438585069
 20
611.307044813368
 30
0.0
 10
279.1719346788194
 20
610.7527289496527
 30
0.0
 10
281.5239013671875
 20
610.8894992404513
 30
0.0
 10
282.2122314453125
 20
609.5128390842013
 30
0.0
 10
282.903662109375
 20
608.1296332465278
 30
0.0
 10
284.974853515625
 20
607.5753173828125
 30
0.0
 10
284.974853515625
 20
607.5753173828125
 30
0.0
 10
284.974853515625
 20
607.5753173828125
 30
0.0
 10
285.9405137803819
 20
607.5753173828125
 30
0.0
 10
286.0807291666666
 20
609.0983940972221
 30
0.0
 10
286.2178439670138
 20
610.6156141493055
 30
0.0
 10
287.7378200954861
 20
610.4784993489583
 30
0.0
 10
288.0086046006944
 20
611.4438151041666
 30
0.0
 10
288.2859347873264
 20
612.4094753689236
 30
0.0
 10
287.7378200954861
 20
615.720556640625
 30
0.0
 10
288.1457194010416
 20
617.2439778645833
 30
0.0
 10
288.5632649739583
 20
618.7605088975694
 30
0.0
 10
289.1144802517361
 20
621.937575954861
 30
0.0
 10
290.9086859809028
 20
622.7664659288193
 30
0.0
 10
292.7059922960069
 20
623.591566297743
 30
0.0
 10
295.1912841796875
 20
624.1458821614583
 30
0.0
 10
296.4311740451388
 20
623.1771213107638
 30
0.0
 10
297.6738199869791
 20
622.2118055555555
 30
0.0
 10
298.3652506510417
 20
620.6949300130208
 30
0.0
 10
298.2250352647569
 20
618.486279296875
 30
0.0
 10
298.0879204644097
 20
616.2752170138888
 30
0.0
 10
297.2597195095486
 20
606.8873318142361
 30
0.0
 10
298.3652506510417
 20
604.9560112847222
 30
0.0
 10
299.4711263020833
 20
603.0246907552083
 30
0.0
 10
299.7450113932292
 20
601.7789442274305
 30
0.0
 10
301.5392171223958
 20
602.7442599826388
 30
0.0
 10
303.3365234375
 20
603.7130208333333
 30
0.0
 10
306.3702745225694
 20
604.4047960069444
 30
0.0
 10
306.7878200954861
 20
605.3735568576388
 30
0.0
 10
307.1988199869791
 20
606.3326714409721
 30
0.0
 10
308.3046956380208
 20
608.5440782335069
 30
0.0
 10
308.3046956380208
 20
608.5440782335069
 30
0.0
 10
308.3046956380208
 20
608.5440782335069
 30
0.0
 10
313.1388536241319
 20
611.0331597222222
 30
0.0
 10
313.1388536241319
 20
611.0331597222222
 30
0.0
 10
313.1388536241319
 20
611.0331597222222
 30
0.0
 10
316.0354899088541
 20
612.1355902777777
 30
0.0
 10
317.0008056640625
 20
613.6555664062499
 30
0.0
 10
317.9695665147569
 20
615.1724419487847
 30
0.0
 10
319.9039876302083
 20
616.2752170138888
 30
0.0
 10
317.6956814236111
 20
617.5244086371528
 30
0.0
 10
315.4842746310763
 20
618.7605088975694
 30
0.0
 10
313.549853515625
 20
619.0347384982638
 30
0.0
 10
311.7587483723958
 20
620.0034993489583
 30
0.0
 10
309.9617865668403
 20
620.9722601996527
 30
0.0
 10
307.7531358506944
 20
621.8004611545139
 30
0.0
 10
308.7187961154514
 20
623.1771213107638
 30
0.0
 10
309.6844563802083
 20
624.5603271484374
 30
0.0
 10
312.3103081597222
 20
625.8029730902778
 30
0.0
 10
312.5841932508681
 20
627.4600640190972
 30
0.0
 10
312.8615234375
 20
629.1171549479166
 30
0.0
 10
313.549853515625
 20
629.2542697482638
 30
0.0
 10
311.7587483723958
 20
629.6683702256944
 30
0.0
 10
309.9617865668403
 20
630.0828152126736
 30
0.0
 10
307.7531358506944
 20
629.1171549479166
 30
0.0
 10
305.2643988715278
 20
630.4972601996527
 30
0.0
 10
302.7822075737847
 20
631.8766764322916
 30
0.0
 10
297.5367051866319
 20
631.0484754774305
 30
0.0
 10
295.7428439670139
 20
632.845437282986
 30
0.0
 10
293.9486382378472
 20
634.6365424262152
 30
0.0
 10
292.2915473090277
 20
635.8791883680555
 30
0.0
 10
291.3258870442708
 20
636.2936333550347
 30
0.0
 10
290.3571261935763
 20
636.7080783420138
 30
0.0
 10
287.7378200954861
 20
637.3991644965278
 30
0.0
 10
287.7378200954861
 20
637.3991644965278
 30
0.0
  0
SPLINE
  5
5B
330
A
100
AcDbEntity
  8
LAYER_1
  6
AI9-LType2
 62
     7
100
AcDbSpline
210
0.0
220
0.0
230
1.0
 70
     8
 71
     3
 72
    17
 73
    13
 74
     0
 42
0.000000001
 43
0.00000001
 40
0.0
 40
0.0
 40
0.0
 40
0.0
 40
1.0
 40
1.0
 40
1.0
 40
2.0
 40
2.0
 40
2.0
 40
3.0
 40
3.0
 40
3.0
 40
4.0
 40
4.0
 40
4.0
 40
4.0
 10
289.2515950520833
 20
636.7080783420138
 30
0.0
 10
290.2203559027777
 20
637.8136094835069
 30
0.0
 10
291.1856716579861
 20
638.0909396701388
 30
0.0
 10
292.0142171223958
 20
637.9538248697916
 30
0.0
 10
292.8427625868055
 20
637.8136094835069
 30
0.0
 10
296.0167290581597
 20
637.6733940972222
 30
0.0
 10
297.2597195095486
 20
637.2623942057292
 30
0.0
 10
298.5023654513889
 20
636.8448486328124
 30
0.0
 10
302.5079779730902
 20
636.1565185546874
 30
0.0
 10
303.8877387152777
 20
636.2936333550347
 30
0.0
 10
305.2643988715278
 20
636.4338487413194
 30
0.0
 10
307.8902506510416
 20
638.2280544704861
 30
0.0
 10
307.8902506510416
 20
638.2280544704861
 30
0.0
  0
SPLINE
  5
5A
330
A
100
AcDbEntity
  8
LAYER_1
  6
AI9-LType2
 62
     7
100
AcDbSpline
210
0.0
220
0.0
230
1.0
 70
     8
 71
     3
 72
    14
 73
    10
 74
     0
 42
0.000000001
 43
0.00000001
 40
0.0
 40
0.0
 40
0.0
 40
0.0
 40
1.0
 40
1.0
 40
1.0
 40
2.0
 40
2.0
 40
2.0
 40
3.0
 40
3.0
 40
3.0
 40
3.0
 10
284.4205376519097
 20
639.7480305989583
 30
0.0
 10
283.4548773871527
 20
640.5762315538194
 30
0.0
 10
283.1775472005208
 20
641.4051215277777
 30
0.0
 10
281.6575710720486
 20
641.6790066189236
 30
0.0
 10
280.1406955295139
 20
641.959437391493
 30
0.0
 10
279.4492648654514
 20
641.959437391493
 30
0.0
 10
278.483949110243
 20
642.7817816840277
 30
0.0
 10
277.5182888454861
 20
643.6165283203125
 30
0.0
 10
276.1385281032986
 20
645.9588487413193
 30
0.0
 10
276.1385281032986
 20
645.9588487413193
 30
0.0
  0
SPLINE
  5
59
330
A
100
AcDbEntity
  8
LAYER_1
  6
AI9-LType2
 62
     7
100
AcDbSpline
210
0.0
220
0.0
230
1.0
 70
     8
 71
     3
 72
    26
 73
    22
 74
     0
 42
0.000000001
 43
0.00000001
 40
0.0
 40
0.0
 40
0.0
 40
0.0
 40
1.0
 40
1.0
 40
1.0
 40
2.0
 40
2.0
 40
2.0
 40
3.0
 40
3.0
 40
3.0
 40
4.0
 40
4.0
 40
4.0
 40
5.0
 40
5.0
 40
5.0
 40
6.0
 40
6.0
 40
6.0
 40
7.0
 40
7.0
 40
7.0
 40
7.0
 10
320.3184326171875
 20
596.2595567491319
 30
0.0
 10
318.6578965928819
 20
596.5303412543402
 30
0.0
 10
317.0008056640625
 20
596.3997721354166
 30
0.0
 10
315.3437147352431
 20
596.5303412543402
 30
0.0
 10
313.6900689019097
 20
596.6705566406249
 30
0.0
 10
303.8877387152777
 20
599.5706380208333
 30
0.0
 10
302.0938774956597
 20
600.5393988715277
 30
0.0
 10
300.299671766493
 20
601.504714626736
 30
0.0
 10
300.8508870442708
 20
601.6418294270833
 30
0.0
 10
299.0535807291666
 20
602.3332600911458
 30
0.0
 10
297.2597195095486
 20
603.0246907552083
 30
0.0
 10
290.9086859809028
 20
604.6786810980902
 30
0.0
 10
289.2515950520833
 20
605.0931260850693
 30
0.0
 10
287.5976047092013
 20
605.5106716579861
 30
0.0
 10
276.6897433810764
 20
606.7533175998263
 30
0.0
 10
274.2041069878472
 20
607.0272026909722
 30
0.0
 10
271.7184705946181
 20
607.3014322916666
 30
0.0
 10
265.6447672526041
 20
608.9585232204861
 30
0.0
 10
263.8505615234375
 20
609.9238389756944
 30
0.0
 10
262.0532552083333
 20
610.8894992404513
 30
0.0
 10
256.9483127170139
 20
613.6555664062499
 30
0.0
 10
256.9483127170139
 20
613.6555664062499
 30
0.0
  0
SPLINE
  5
58
330
A
100
AcDbEntity
  8
LAYER_1
  6
AI9-LType2
 62
     7
100
AcDbSpline
210
0.0
220
0.0
230
1.0
 70
    11
 71
     3
 72
    23
 73
    19
 74
     0
 42
0.000000001
 43
0.00000001
 40
0.0
 40
0.0
 40
0.0
 40
0.0
 40
1.0
 40
1.0
 40
1.0
 40
2.0
 40
2.0
 40
2.0
 40
3.0
 40
3.0
 40
3.0
 40
4.0
 40
4.0
 40
4.0
 40
5.0
 40
5.0
 40
5.0
 40
6.0
 40
6.0
 40
6.0
 40
6.0
 10
283.1775472005208
 20
595.0169108072917
 30
0.0
 10
282.7634467230902
 20
596.6705566406249
 30
0.0
 10
283.3181070963541
 20
597.7729871961805
 30
0.0
 10
282.3524468315972
 20
598.3276475694444
 30
0.0
 10
281.3836859809027
 20
598.8823079427083
 30
0.0
 10
281.1063557942708
 20
598.8823079427083
 30
0.0
 10
280.4180257161458
 20
597.9135470920138
 30
0.0
 10
279.7265950520833
 20
596.9447862413194
 30
0.0
 10
278.6238199869791
 20
595.7083414713541
 30
0.0
 10
278.3433892144097
 20
594.7426812065971
 30
0.0
 10
278.0726047092014
 20
593.7739203559028
 30
0.0
 10
277.1038438585069
 20
592.8051595052083
 30
0.0
 10
278.6238199869791
 20
591.979714626736
 30
0.0
 10
280.1406955295139
 20
591.1515136718749
 30
0.0
 10
282.626331922743
 20
591.979714626736
 30
0.0
 10
282.626331922743
 20
591.979714626736
 30
0.0
 10
282.626331922743
 20
591.979714626736
 30
0.0
 10
283.5919921875
 20
593.3598198784722
 30
0.0
 10
283.1775472005208
 20
595.0169108072917
 30
0.0
  0
SPLINE
  5
57
330
A
100
AcDbEntity
  8
LAYER_1
  6
AI9-LType2
 62
     7
100
AcDbSpline
210
0.0
220
0.0
230
1.0
 70
     8
 71
     3
 72
    11
 73
     7
 74
     0
 42
0.000000001
 43
0.00000001
 40
0.0
 40
0.0
 40
0.0
 40
0.0
 40
1.0
 40
1.0
 40
1.0
 40
2.0
 40
2.0
 40
2.0
 40
2.0
 10
257.3627577039931
 20
599.7105088975694
 30
0.0
 10
258.8827338324652
 20
599.4300781249999
 30
0.0
 10
263.8505615234375
 20
598.1939778645833
 30
0.0
 10
264.9564371744792
 20
597.9135470920138
 30
0.0
 10
266.0588677300347
 20
597.6393174913194
 30
0.0
 10
271.4442409939236
 20
596.9447862413194
 30
0.0
 10
271.4442409939236
 20
596.9447862413194
 30
0.0
  0
LINE
  5
56
330
A
100
AcDbEntity
  8
LAYER_1
  6
AI9-LType2
 62
     7
100
AcDbLine
 10
277.103844
 20
597.499102
 30
0.0
 11
279.86371
 21
597.084657
 31
0.0
  0
SPLINE
  5
55
330
A
100
AcDbEntity
  8
LAYER_1
  6
AI9-LType2
 62
     7
100
AcDbSpline
210
0.0
220
0.0
230
1.0
 70
     8
 71
     3
 72
    17
 73
    13
 74
     0
 42
0.000000001
 43
0.00000001
 40
0.0
 40
0.0
 40
0.0
 40
0.0
 40
1.0
 40
1.0
 40
1.0
 40
2.0
 40
2.0
 40
2.0
 40
3.0
 40
3.0
 40
3.0
 40
4.0
 40
4.0
 40
4.0
 40
4.0
 10
282.903662109375
 20
596.8107720269097
 30
0.0
 10
284.8346381293402
 20
596.6705566406249
 30
0.0
 10
294.0857530381944
 20
595.0169108072917
 30
0.0
 10
295.6057291666667
 20
594.599365234375
 30
0.0
 10
297.1195041232639
 20
594.1880208333333
 30
0.0
 10
301.6794325086805
 20
591.979714626736
 30
0.0
 10
304.3021837022569
 20
591.4253987630208
 30
0.0
 10
306.9214898003472
 20
590.8772840711805
 30
0.0
 10
312.0329779730902
 20
592.1202745225694
 30
0.0
 10
313.8302842881944
 20
592.3941596137153
 30
0.0
 10
315.621044921875
 20
592.668044704861
 30
0.0
 10
320.1813178168402
 20
593.3598198784722
 30
0.0
 10
320.1813178168402
 20
593.3598198784722
 30
0.0
  0
SPLINE
  5
54
330
A
100
AcDbEntity
  8
LAYER_1
  6
AI9-LType2
 62
     7
100
AcDbSpline
210
0.0
220
0.0
230
1.0
 70
     8
 71
     3
 72
    14
 73
    10
 74
     0
 42
0.000000001
 43
0.00000001
 40
0.0
 40
0.0
 40
0.0
 40
0.0
 40
1.0
 40
1.0
 40
1.0
 40
2.0
 40
2.0
 40
2.0
 40
3.0
 40
3.0
 40
3.0
 40
3.0
 10
311.7587483723958
 20
597.4291666666666
 30
0.0
 10
312.5841932508681
 20
598.8120279947916
 30
0.0
 10
313.4096381293402
 20
599.7807888454861
 30
0.0
 10
314.8627794053819
 20
600.1948893229167
 30
0.0
 10
316.3124755859375
 20
600.6062337239583
 30
0.0
 10
317.0741861979166
 20
600.6062337239583
 30
0.0
 10
318.3840115017361
 20
600.1249538845485
 30
0.0
 10
319.6934922960069
 20
599.6405734592013
 30
0.0
 10
320.9364827473958
 20
599.2964084201388
 30
0.0
 10
320.9364827473958
 20
599.2964084201388
 30
0.0
  0
SPLINE
  5
53
330
A
100
AcDbEntity
  8
LAYER_1
  6
AI9-LType2
 62
     7
100
AcDbSpline
210
0.0
220
0.0
230
1.0
 70
     8
 71
     3
 72
    38
 73
    34
 74
     0
 42
0.000000001
 43
0.00000001
 40
0.0
 40
0.0
 40
0.0
 40
0.0
 40
1.0
 40
1.0
 40
1.0
 40
2.0
 40
2.0
 40
2.0
 40
3.0
 40
3.0
 40
3.0
 40
4.0
 40
4.0
 40
4.0
 40
5.0
 40
5.0
 40
5.0
 40
6.0
 40
6.0
 40
6.0
 40
7.0
 40
7.0
 40
7.0
 40
8.0
 40
8.0
 40
8.0
 40
9.0
 40
9.0
 40
9.0
 40
10.0
 40
10.0
 40
10.0
 40
11.0
 40
11.0
 40
11.0
 40
11.0
 10
259.711279296875
 20
565.5434299045138
 30
0.0
 10
260.810609266493
 20
566.6458604600693
 30
0.0
 10
261.7125352647569
 20
567.1939751519096
 30
0.0
 10
261.9864203559027
 20
568.5069010416667
 30
0.0
 10
262.2637505425347
 20
569.8198269314236
 30
0.0
 10
261.7759250217014
 20
570.3073079427082
 30
0.0
 10
262.6778510199653
 20
570.8523220486111
 30
0.0
 10
263.5732313368055
 20
571.406982421875
 30
0.0
 10
264.8861572265625
 20
572.3054633246527
 30
0.0
 10
266.0588677300347
 20
572.8566786024305
 30
0.0
 10
267.2315782335069
 20
573.4113389756944
 30
0.0
 10
269.7172146267361
 20
574.2395399305555
 30
0.0
 10
270.8899251302083
 20
574.3067192925347
 30
0.0
 10
272.065736219618
 20
574.3766547309027
 30
0.0
 10
273.6528917100694
 20
574.1027696397568
 30
0.0
 10
274.4814371744791
 20
574.6508843315971
 30
0.0
 10
275.3099826388889
 20
575.2052001953125
 30
0.0
 10
275.4467529296875
 20
575.4122504340277
 30
0.0
 10
276.5526285807292
 20
575.2723795572916
 30
0.0
 10
277.6585042317708
 20
575.1383653428819
 30
0.0
 10
279.3121500651042
 20
575.4122504340277
 30
0.0
 10
279.4492648654514
 20
574.5871500651041
 30
0.0
 10
279.5894802517361
 20
573.7586046006944
 30
0.0
 10
278.7640353732639
 20
573.2742241753472
 30
0.0
 10
278.6909993489583
 20
572.3054633246527
 30
0.0
 10
278.6238199869791
 20
571.3367024739583
 30
0.0
 10
278.2799994574652
 20
570.3073079427082
 30
0.0
 10
278.9679850260416
 20
569.4722167968749
 30
0.0
 10
279.6597601996527
 20
568.6502170138889
 30
0.0
 10
279.4492648654514
 20
568.5069010416667
 30
0.0
 10
280.4883056640625
 20
568.1627360026041
 30
0.0
 10
281.5239013671875
 20
567.8154703776041
 30
0.0
 10
282.4192816840277
 20
566.3654296875
 30
0.0
 10
282.4192816840277
 20
566.3654296875
 30
0.0
  0
SPLINE
  5
52
330
A
100
AcDbEntity
  8
LAYER_1
  6
AI9-LType2
 62
     7
100
AcDbSpline
210
0.0
220
0.0
230
1.0
 70
    11
 71
     3
 72
    23
 73
    19
 74
     0
 42
0.000000001
 43
0.00000001
 40
0.0
 40
0.0
 40
0.0
 40
0.0
 40
1.0
 40
1.0
 40
1.0
 40
2.0
 40
2.0
 40
2.0
 40
3.0
 40
3.0
 40
3.0
 40
4.0
 40
4.0
 40
4.0
 40
5.0
 40
5.0
 40
5.0
 40
6.0
 40
6.0
 40
6.0
 40
6.0
 10
291.1508761935764
 20
633.7094672309028
 30
0.0
 10
290.427406141493
 20
633.8141981336805
 30
0.0
 10
290.0129611545138
 20
633.7763020833332
 30
0.0
 10
289.7008355034722
 20
633.2598822699653
 30
0.0
 10
289.3918104383681
 20
632.7407063802083
 30
0.0
 10
289.1527208116319
 20
632.1509060329861
 30
0.0
 10
289.5285807291667
 20
631.7719455295138
 30
0.0
 10
289.910986328125
 20
631.3922960069444
 30
0.0
 10
290.8735460069444
 20
631.2586263020833
 30
0.0
 10
291.4278618706597
 20
631.3254611545138
 30
0.0
 10
291.9794216579861
 20
631.3922960069444
 30
0.0
 10
292.5337375217014
 20
631.3922960069444
 30
0.0
 10
292.7728271484375
 20
631.9469563802082
 30
0.0
 10
293.0150173611111
 20
632.4981716579861
 30
0.0
 10
293.292347547743
 20
632.6387315538194
 30
0.0
 10
292.8079671223958
 20
632.9474121093749
 30
0.0
 10
292.3235866970486
 20
633.2598822699653
 30
0.0
 10
291.8774468315972
 20
633.6040473090277
 30
0.0
 10
291.1508761935764
 20
633.7094672309028
 30
0.0
  0
SPLINE
  5
51
330
A
100
AcDbEntity
  8
LAYER_1
  6
AI9-LType2
 62
     7
100
AcDbSpline
210
0.0
220
0.0
230
1.0
 70
    11
 71
     3
 72
    29
 73
    25
 74
     0
 42
0.000000001
 43
0.00000001
 40
0.0
 40
0.0
 40
0.0
 40
0.0
 40
1.0
 40
1.0
 40
1.0
 40
2.0
 40
2.0
 40
2.0
 40
3.0
 40
3.0
 40
3.0
 40
4.0
 40
4.0
 40
4.0
 40
5.0
 40
5.0
 40
5.0
 40
6.0
 40
6.0
 40
6.0
 40
7.0
 40
7.0
 40
7.0
 40
8.0
 40
8.0
 40
8.0
 40
8.0
 10
274.2041069878472
 20
630.5289550781249
 30
0.0
 10
273.5126763237847
 20
630.3952853732638
 30
0.0
 10
273.1685112847222
 20
630.6691704644097
 30
0.0
 10
272.859486219618
 20
629.9074598524305
 30
0.0
 10
272.5470160590277
 20
629.1488498263889
 30
0.0
 10
272.1325710720486
 20
628.4257242838542
 30
0.0
 10
272.3399658203125
 20
627.7725341796875
 30
0.0
 10
272.5470160590277
 20
627.1162434895833
 30
0.0
 10
272.5470160590277
 20
626.2494574652777
 30
0.0
 10
273.4454969618055
 20
625.7009982638888
 30
0.0
 10
274.3412217881944
 20
625.1466824001735
 30
0.0
 10
276.0014133029514
 20
624.4583523220485
 30
0.0
 10
276.4823486328125
 20
624.5603271484374
 30
0.0
 10
276.9667290581597
 20
624.6623019748263
 30
0.0
 10
278.8980495876736
 20
626.2873535156249
 30
0.0
 10
278.5859239366319
 20
627.6323187934028
 30
0.0
 10
278.2799994574652
 20
628.9800401475694
 30
0.0
 10
277.967529296875
 20
629.5698404947916
 30
0.0
 10
277.620263671875
 20
629.9074598524305
 30
0.0
 10
277.2760986328125
 20
630.2547254774305
 30
0.0
 10
276.9987684461805
 20
630.6019911024305
 30
0.0
 10
276.2752983940972
 20
630.6019911024305
 30
0.0
 10
275.5521728515625
 20
630.6019911024305
 30
0.0
 10
274.8955376519097
 20
630.6691704644097
 30
0.0
 10
274.2041069878472
 20
630.5289550781249
 30
0.0
  0
SPLINE
  5
50
330
A
100
AcDbEntity
  8
LAYER_1
  6
AI9-LType2
 62
     7
100
AcDbSpline
210
0.0
220
0.0
230
1.0
 70
    11
 71
     3
 72
    20
 73
    16
 74
     0
 42
0.000000001
 43
0.00000001
 40
0.0
 40
0.0
 40
0.0
 40
0.0
 40
1.0
 40
1.0
 40
1.0
 40
2.0
 40
2.0
 40
2.0
 40
3.0
 40
3.0
 40
3.0
 40
4.0
 40
4.0
 40
4.0
 40
5.0
 40
5.0
 40
5.0
 40
5.0
 10
291.399267578125
 20
610.277650282118
 30
0.0
 10
290.2138102213542
 20
609.8122178819444
 30
0.0
 10
289.2546956380208
 20
608.5695719401041
 30
0.0
 10
290.47529296875
 20
607.6486979166666
 30
0.0
 10
291.9091417100694
 20
606.5683159722222
 30
0.0
 10
292.8014214409722
 20
606.9314290364583
 30
0.0
 10
294.327943250868
 20
607.4922905815972
 30
0.0
 10
295.0958550347222
 20
607.7699652777777
 30
0.0
 10
297.0078830295138
 20
608.3308268229166
 30
0.0
 10
296.7116048177083
 20
609.5703721788194
 30
0.0
 10
296.5872368706597
 20
610.118142361111
 30
0.0
 10
295.5261474609375
 20
610.5804741753471
 30
0.0
 10
295.0128282335069
 20
610.7237901475694
 30
0.0
 10
293.8880045572917
 20
611.0393608940972
 30
0.0
 10
292.4541558159722
 20
610.6982964409722
 30
0.0
 10
291.399267578125
 20
610.277650282118
 30
0.0
  0
SPLINE
  5
4E
330
A
100
AcDbEntity
  8
LAYER_1
 62
     7
100
AcDbSpline
210
0.0
220
0.0
230
1.0
 70
     8
 71
     3
 72
    38
 73
    34
 74
     0
 42
0.000000001
 43
0.00000001
 40
0.0
 40
0.0
 40
0.0
 40
0.0
 40
1.0
 40
1.0
 40
1.0
 40
2.0
 40
2.0
 40
2.0
 40
3.0
 40
3.0
 40
3.0
 40
4.0
 40
4.0
 40
4.0
 40
5.0
 40
5.0
 40
5.0
 40
6.0
 40
6.0
 40
6.0
 40
7.0
 40
7.0
 40
7.0
 40
8.0
 40
8.0
 40
8.0
 40
9.0
 40
9.0
 40
9.0
 40
10.0
 40
10.0
 40
10.0
 40
11.0
 40
11.0
 40
11.0
 40
11.0
 10
234.0298149956597
 20
603.9903510199653
 30
0.0
 10
233.3414849175347
 20
603.0246907552083
 30
0.0
 10
232.512939453125
 20
600.9503987630208
 30
0.0
 10
232.3727240668402
 20
599.0221788194444
 30
0.0
 10
232.235609266493
 20
597.0846571180555
 30
0.0
 10
230.9929633246527
 20
589.3538628472222
 30
0.0
 10
230.0273030598958
 20
587.8373318142361
 30
0.0
 10
229.0619873046875
 20
586.3173556857638
 30
0.0
 10
228.2330973307292
 20
582.7323893229166
 30
0.0
 10
228.2330973307292
 20
581.2089680989583
 30
0.0
 10
228.2330973307292
 20
579.6920925564235
 30
0.0
 10
227.5385660807291
 20
577.7611165364583
 30
0.0
 10
226.0247911241319
 20
576.9294704861111
 30
0.0
 10
224.5048149956597
 20
576.1005805121528
 30
0.0
 10
217.4592502170139
 20
576.1005805121528
 30
0.0
 10
215.2540445963541
 20
576.6517957899305
 30
0.0
 10
213.0457383897569
 20
577.2064561631944
 30
0.0
 10
210.697216796875
 20
579.1377766927083
 30
0.0
 10
209.3140109592014
 20
582.037513563368
 30
0.0
 10
207.9373508029514
 20
584.9406955295138
 30
0.0
 10
206.4204752604167
 20
587.8404324001735
 30
0.0
 10
207.1088053385417
 20
589.220193142361
 30
0.0
 10
207.8002360026042
 20
590.5968532986111
 30
0.0
 10
208.4854654947916
 20
593.7739203559028
 30
0.0
 10
209.731556532118
 20
594.7426812065971
 30
0.0
 10
210.9742024739583
 20
595.7083414713541
 30
0.0
 10
214.0110541449653
 20
598.4678629557291
 30
0.0
 10
214.9767144097222
 20
599.5768391927082
 30
0.0
 10
215.9454752604167
 20
600.6792697482638
 30
0.0
 10
216.2228054470486
 20
601.3675998263889
 30
0.0
 10
216.3599202473958
 20
603.0246907552083
 30
0.0
 10
216.5001356336805
 20
604.6817816840277
 30
0.0
 10
216.6307047526041
 20
607.1674180772569
 30
0.0
 10
216.6307047526041
 20
607.1674180772569
 30
0.0
  0
LINE
  5
4D
330
A
100
AcDbEntity
  8
LAYER_1
  6
AI9-LType1
 62
     7
100
AcDbLine
 10
237.340896
 20
564.644604
 30
0.0
 11
314.932715
 21
567.681456
 31
0.0
  0
CIRCLE
  5
4B
330
A
100
AcDbEntity
  8
LAYER_1
 62
     7
100
AcDbCircle
 10
312.157174
 20
576.447846
 30
0.0
 40
0.783931
  0
LINE
  5
4A
330
A
100
AcDbEntity
  8
LAYER_1
 62
     7
100
AcDbLine
 10
312.157346
 20
578.016054
 30
0.0
 11
312.157346
 21
574.886529
 31
0.0
  0
LINE
  5
49
330
A
100
AcDbEntity
  8
LAYER_1
 62
     7
100
AcDbLine
 10
310.592584
 20
576.447846
 30
0.0
 11
313.725209
 21
576.447846
 31
0.0
  0
INSERT
  5
43
330
A
100
AcDbEntity
  8
LAYER_1
 62
     7
100
AcDbBlockReference
  2
AI9-BLK1
 10
233.800372
 20
576.457492
 30
0.0
  0
MTEXT
  5
41
330
A
100
AcDbEntity
  8
LAYER_1
 62
     7
100
AcDbMText
 10
304.187462
 20
577.212332
 30
0.0
 40
1.232675
 41
0.0
 46
0.0
 71
     1
 72
     2
  1
\W1.00;\fHelvetica|b0|i0;785/290
  7
STD
 73
     1
 44
1.0
  0
MTEXT
  5
40
330
A
100
AcDbEntity
  8
LAYER_1
 62
     7
100
AcDbMText
 10
235.686906
 20
577.132751
 30
0.0
 40
1.232675
 41
0.0
 46
0.0
 71
     1
 72
     2
  1
\W1.00;\fHelvetica|b0|i0;780/290
  7
STD
 73
     1
 44
1.0
  0
MTEXT
  5
3F
330
A
100
AcDbEntity
  8
LAYER_1
 62
     7
100
AcDbMText
 10
237.847325
 20
647.430055
 30
0.0
 40
1.643461
 41
0.0
 46
0.0
 71
     1
 72
     2
  1
\W1.00;\fHelvetica|b1|i0;766
  7
STD
 73
     1
 44
1.0
  0
MTEXT
  5
3E
330
A
100
AcDbEntity
  8
LAYER_1
 62
     7
100
AcDbMText
 10
237.614781
 20
634.329735
 30
0.0
 40
1.643461
 41
0.0
 46
0.0
 71
     1
 72
     2
  1
\W1.00;\fHelvetica|b1|i0;766
  7
STD
 73
     1
 44
1.0
  0
MTEXT
  5
3D
330
A
100
AcDbEntity
  8
LAYER_1
 62
     7
100
AcDbMText
 10
244.858095
 20
644.1958
 30
0.0
 40
1.643461
 41
0.0
 46
0.0
 71
     1
 72
     2
  1
\W1.00;\fHelvetica|b1|i0;764
  7
STD
 73
     1
 44
1.0
  0
MTEXT
  5
3C
330
A
100
AcDbEntity
  8
LAYER_1
 62
     7
100
AcDbMText
 10
262.426359
 20
636.643461
 30
0.0
 40
1.643461
 41
0.0
 46
0.0
 71
     1
 72
     2
  1
\W1.00;\fHelvetica|b1|i0;766
  7
STD
 73
     1
 44
1.0
  0
MTEXT
  5
3B
330
A
100
AcDbEntity
  8
LAYER_1
 62
     7
100
AcDbMText
 10
265.584134
 20
643.730367
 30
0.0
 40
1.643461
 41
0.0
 46
0.0
 71
     1
 72
     2
  1
\W1.00;\fHelvetica|b1|i0;811
  7
STD
 73
     1
 44
1.0
  0
MTEXT
  5
3A
330
A
100
AcDbEntity
  8
LAYER_1
 62
     7
100
AcDbMText
 10
273.67184
 20
628.785199
 30
0.0
 40
1.643461
 41
0.0
 46
0.0
 71
     1
 72
     2
  1
\W1.00;\fHelvetica|b1|i0;764
  7
STD
 73
     1
 44
1.0
  0
MTEXT
  5
39
330
A
100
AcDbEntity
  8
LAYER_1
 62
     7
100
AcDbMText
 10
290.162823
 20
629.785654
 30
0.0
 40
1.643461
 41
0.0
 46
0.0
 71
     1
 72
     2
  1
\W1.00;\fHelvetica|b1|i0;764
  7
STD
 73
     1
 44
1.0
  0
MTEXT
  5
38
330
A
100
AcDbEntity
  8
LAYER_1
 62
     7
100
AcDbMText
 10
268.047377
 20
622.080354
 30
0.0
 40
1.643461
 41
0.0
 46
0.0
 71
     1
 72
     2
  1
\W1.00;\fHelvetica|b1|i0;766
  7
STD
 73
     1
 44
1.0
  0
MTEXT
  5
37
330
A
100
AcDbEntity
  8
LAYER_1
 62
     7
100
AcDbMText
 10
291.55223
 20
609.827527
 30
0.0
 40
1.643461
 41
0.0
 46
0.0
 71
     1
 72
     2
  1
\W1.00;\fHelvetica|b1|i0;766
  7
STD
 73
     1
 44
1.0
  0
MTEXT
  5
36
330
A
100
AcDbEntity
  8
LAYER_1
 62
     7
100
AcDbMText
 10
243.083181
 20
611.137353
 30
0.0
 40
1.643461
 41
0.0
 46
0.0
 71
     1
 72
     2
  1
\W1.00;\fHelvetica|b1|i0;824
  7
STD
 73
     1
 44
1.0
  0
MTEXT
  5
35
330
A
100
AcDbEntity
  8
LAYER_1
 62
     7
100
AcDbMText
 10
243.545169
 20
632.787366
 30
0.0
 40
1.643461
 41
0.0
 46
0.0
 71
     1
 72
     2
  1
\W1.00;\fHelvetica|b1|i0;793
  7
STD
 73
     1
 44
1.0
  0
LINE
  5
34
330
A
100
AcDbEntity
  8
LAYER_1
 62
     7
100
AcDbLine
 10
291.934635
 20
630.070068
 30
0.0
 11
290.781217
 21
632.686274
 31
0.0
  0
MTEXT
  5
33
330
A
100
AcDbEntity
  8
LAYER_1
 62
     7
100
AcDbMText
 10
296.249273
 20
643.653886
 30
0.0
 40
1.643461
 41
0.0
 46
0.0
 71
     1
 72
     2
  1
\W1.00;\fHelvetica|b1|i0;536
  7
STD
 73
     1
 44
1.0
  0
MTEXT
  5
32
330
A
100
AcDbEntity
  8
LAYER_1
 62
     7
100
AcDbMText
 10
296.016729
 20
639.7282
 30
0.0
 40
1.643461
 41
0.0
 46
0.0
 71
     1
 72
     2
  1
\W1.00;\fHelvetica|b1|i0;787
  7
STD
 73
     1
 44
1.0
  0
MTEXT
  5
31
330
A
100
AcDbEntity
  8
LAYER_1
 62
     7
100
AcDbMText
 10
316.516425
 20
628.013842
 30
0.0
 40
1.643461
 41
0.0
 46
0.0
 71
     1
 72
     2
  1
\W1.00;\fHelvetica|b1|i0;763
  7
STD
 73
     1
 44
1.0
  0
MTEXT
  5
30
330
A
100
AcDbEntity
  8
LAYER_1
 62
     7
100
AcDbMText
 10
315.050882
 20
599.11707
 30
0.0
 40
1.643461
 41
0.0
 46
0.0
 71
     1
 72
     2
  1
\W1.00;\fHelvetica|b1|i0;766
  7
STD
 73
     1
 44
1.0
  0
MTEXT
  5
2F
330
A
100
AcDbEntity
  8
LAYER_1
 62
     7
100
AcDbMText
 10
291.087142
 20
615.069585
 30
0.0
 40
1.643461
 41
0.0
 46
0.0
 71
     1
 72
     2
  1
\W1.00;\fHelvetica|b1|i0;734
  7
STD
 73
     1
 44
1.0
  0
MTEXT
  5
2E
330
A
100
AcDbEntity
  8
LAYER_1
 62
     7
100
AcDbMText
 10
280.532747
 20
603.049646
 30
0.0
 40
1.643461
 41
0.0
 46
0.0
 71
     1
 72
     2
  1
\W1.00;\fHelvetica|b1|i0;877
  7
STD
 73
     1
 44
1.0
  0
MTEXT
  5
2D
330
A
100
AcDbEntity
  8
LAYER_1
 62
     7
100
AcDbMText
 10
268.047377
 20
591.877202
 30
0.0
 40
1.643461
 41
0.0
 46
0.0
 71
     1
 72
     2
  1
\W1.00;\fHelvetica|b1|i0;873
  7
STD
 73
     1
 44
1.0
  0
MTEXT
  5
2C
330
A
100
AcDbEntity
  8
LAYER_1
 62
     7
100
AcDbMText
 10
278.837416
 20
594.420027
 30
0.0
 40
1.643461
 41
0.0
 46
0.0
 71
     1
 72
     2
  1
\W1.00;\fHelvetica|b1|i0;766
  7
STD
 73
     1
 44
1.0
  0
LINE
  5
2B
330
A
100
AcDbEntity
  8
LAYER_1
 62
     7
100
AcDbLine
 10
270.128215
 20
592.464095
 30
0.0
 11
272.903928
 21
594.784022
 31
0.0
  0
MTEXT
  5
2A
330
A
100
AcDbEntity
  8
LAYER_1
 62
     7
100
AcDbMText
 10
289.009405
 20
581.475769
 30
0.0
 40
1.643461
 41
0.0
 46
0.0
 71
     1
 72
     2
  1
\W1.00;\fHelvetica|b1|i0;745
  7
STD
 73
     1
 44
1.0
  0
MTEXT
  5
29
330
A
100
AcDbEntity
  8
LAYER_1
 62
     7
100
AcDbMText
 10
268.436328
 20
570.300224
 30
0.0
 40
1.643461
 41
0.0
 46
0.0
 71
     1
 72
     2
  1
\W1.00;\fHelvetica|b1|i0;734
  7
STD
 73
     1
 44
1.0
  0
ENDSEC
  0
SECTION
  2
OBJECTS
  0
DICTIONARY
  5
19
330
0
100
AcDbDictionary
281
     1
  3
ACAD_DETAILVIEWSTYLE
350
148
  3
ACAD_GROUP
350
1A
  3
ACAD_LAYOUT
350
1E
  3
ACAD_MATERIAL
350
108
  3
ACAD_MLEADERSTYLE
350
10E
  3
ACAD_MLINESTYLE
350
1B
  3
ACAD_PLOTSETTINGS
350
22
  3
ACAD_PLOTSTYLENAME
350
1F
  3
ACAD_SCALELIST
350
CD
  3
ACAD_SECTIONVIEWSTYLE
350
149
  3
ACAD_TABLESTYLE
350
10C
  3
ACAD_VISUALSTYLE
350
EF
  3
ACAD_WIPEOUT_VARS
350
23
  3
ACDB_RECOMPOSE_DATA
350
144
  3
AcDbVariableDictionary
350
110
  0
DICTIONARY
  5
148
102
{ACAD_REACTORS
330
19
102
}
330
19
100
AcDbDictionary
281
     1
  0
DICTIONARY
  5
1A
102
{ACAD_REACTORS
330
19
102
}
330
19
100
AcDbDictionary
281
     1
  0
DICTIONARY
  5
1E
102
{ACAD_REACTORS
330
19
102
}
330
19
100
AcDbDictionary
281
     1
  3
Layout1
350
21
  3
Model
350
20
  0
DICTIONARY
  5
108
102
{ACAD_REACTORS
330
19
102
}
330
19
100
AcDbDictionary
281
     1
  3
ByBlock
350
10A
  3
ByLayer
350
109
  3
Global
350
10B
  0
DICTIONARY
  5
10E
102
{ACAD_REACTORS
330
19
102
}
330
19
100
AcDbDictionary
281
     1
  3
Standard
350
10F
  0
DICTIONARY
  5
1B
102
{ACAD_REACTORS
330
19
102
}
330
19
100
AcDbDictionary
281
     1
  3
Standard
350
1C
  0
DICTIONARY
  5
22
102
{ACAD_REACTORS
330
19
102
}
330
19
100
AcDbDictionary
281
     1
  0
ACDBDICTIONARYWDFLT
  5
1F
102
{ACAD_REACTORS
330
19
102
}
330
19
100
AcDbDictionary
281
     1
  3
Normal
350
1D
100
AcDbDictionaryWithDefault
340
1D
  0
DICTIONARY
  5
CD
102
{ACAD_REACTORS
330
19
102
}
330
19
100
AcDbDictionary
281
     1
  3
A0
350
CE
  3
A1
350
CF
  3
A2
350
D0
  3
A3
350
D1
  3
A4
350
D2
  3
A5
350
D3
  3
A6
350
D4
  3
A7
350
D5
  3
A8
350
D6
  3
A9
350
D7
  3
B0
350
D8
  3
B1
350
D9
  3
B2
350
DA
  3
B3
350
DB
  3
B4
350
DC
  3
B5
350
DD
  3
B6
350
DE
  3
B7
350
DF
  3
B8
350
E0
  3
B9
350
E1
  3
C0
350
E2
  3
C1
350
E3
  3
C2
350
E4
  3
C3
350
E5
  3
C4
350
E6
  3
C5
350
E7
  3
C6
350
E8
  3
C7
350
E9
  3
C8
350
EA
  3
C9
350
EB
  3
D0
350
EC
  3
D1
350
ED
  3
D2
350
EE
  0
DICTIONARY
  5
149
102
{ACAD_REACTORS
330
19
102
}
330
19
100
AcDbDictionary
281
     1
  0
DICTIONARY
  5
10C
102
{ACAD_REACTORS
330
19
102
}
330
19
100
AcDbDictionary
281
     1
  3
Standard
350
10D
  0
DICTIONARY
  5
EF
102
{ACAD_REACTORS
330
19
102
}
330
19
100
AcDbDictionary
281
     1
  3
2dWireframe
350
F4
  3
Basic
350
F7
  3
Brighten
350
FB
  3
ColorChange
350
FF
  3
Conceptual
350
F9
  3
Dim
350
FA
  3
EdgeColorOff
350
102
  3
Facepattern
350
FE
  3
Flat
350
F0
  3
FlatWithEdges
350
F1
  3
Gouraud
350
F2
  3
GouraudWithEdges
350
F3
  3
Hidden
350
F6
  3
JitterOff
350
100
  3
Linepattern
350
FD
  3
OverhangOff
350
101
  3
Realistic
350
F8
  3
Shaded
350
107
  3
Shaded with edges
350
106
  3
Shades of Gray
350
103
  3
Sketchy
350
104
  3
Thicken
350
FC
  3
Wireframe
350
F5
  3
X-Ray
350
105
  0
WIPEOUTVARIABLES
  5
23
330
19
100
AcDbWipeoutVariables
 70
     1
  0
XRECORD
  5
144
102
{ACAD_REACTORS
330
19
102
}
330
19
100
AcDbXrecord
280
     1
 90
        1
330
10D
  0
DICTIONARY
  5
110
102
{ACAD_REACTORS
330
19
102
}
330
19
100
AcDbDictionary
281
     1
  3
CANNOSCALE
350
111
  3
CMLEADERSTYLE
350
146
  3
CTABLESTYLE
350
145
  3
MSLTSCALE
350
147
  0
LAYOUT
  5
21
102
{ACAD_REACTORS
330
1E
102
}
330
1E
100
AcDbPlotSettings
  1

  2

  4

  6

 40
0.0
 41
0.0
 42
0.0
 43
0.0
 44
0.0
 45
0.0
 46
0.0
 47
0.0
 48
0.0
 49
0.0
140
0.0
141
0.0
142
1.0
143
1.0
 70
     0
 72
     0
 73
     0
 74
     0
  7

 75
     0
 76
     0
 77
     2
 78
   300
147
1.0
148
0.0
149
0.0
100
AcDbLayout
  1
Layout1
 70
     0
 71
     0
 10
0.0
 20
0.0
 11
0.0
 21
0.0
 12
0.0
 22
0.0
 32
0.0
 14
0.0
 24
0.0
 34
0.0
 15
0.0
 25
0.0
 35
0.0
146
0.0
 13
0.0
 23
0.0
 33
0.0
 16
0.0
 26
0.0
 36
0.0
 17
0.0
 27
0.0
 37
0.0
 76
     0
330
B
  0
LAYOUT
  5
20
102
{ACAD_REACTORS
330
1E
102
}
330
1E
100
AcDbPlotSettings
  1

  2

  4

  6

 40
0.0
 41
0.0
 42
0.0
 43
0.0
 44
0.0
 45
0.0
 46
0.0
 47
0.0
 48
0.0
 49
0.0
140
0.0
141
0.0
142
1.0
143
1.0
 70
  1024
 72
     0
 73
     0
 74
     0
  7

 75
     0
 76
     0
 77
     2
 78
   300
147
1.0
148
0.0
149
0.0
100
AcDbLayout
  1
Model
 70
     0
 71
     1
 10
0.0
 20
0.0
 11
0.0
 21
0.0
 12
0.0
 22
0.0
 32
0.0
 14
0.0
 24
0.0
 34
0.0
 15
0.0
 25
0.0
 35
0.0
146
0.0
 13
0.0
 23
0.0
 33
0.0
 16
0.0
 26
0.0
 36
0.0
 17
0.0
 27
0.0
 37
0.0
 76
     0
330
A
331
15
  0
MATERIAL
  5
10A
102
{ACAD_REACTORS
330
108
102
}
330
108
100
AcDbMaterial
  1
ByBlock
 72
     1
 94
      127
  0
MATERIAL
  5
109
102
{ACAD_REACTORS
330
108
102
}
330
108
100
AcDbMaterial
  1
ByLayer
 72
     1
 94
      127
  0
MATERIAL
  5
10B
102
{ACAD_REACTORS
330
108
102
}
330
108
100
AcDbMaterial
  1
Global
 72
     1
 94
      127
  0
MLEADERSTYLE
  5
10F
102
{ACAD_REACTORS
330
10E
102
}
330
10E
100
AcDbMLeaderStyle
179
     2
170
     2
171
     1
172
     0
 90
        2
 40
0.0
 41
0.0
173
     1
 91
-1056964608
340
11
 92
       -2
290
     1
 42
0.09
291
     1
 43
0.36
  3
Standard
341
0
 44
0.18
300

342
17
174
     1
178
     6
175
     1
176
     0
 93
-1056964608
 45
0.18
292
     0
297
     0
 46
0.18
343
0
 94
-1056964608
 47
1.0
 49
1.0
140
1.0
293
     1
141
0.0
294
     1
177
     0
142
1.0
295
     0
296
     0
143
0.125
271
     0
272
     9
273
     9
  0
MLINESTYLE
  5
1C
102
{ACAD_REACTORS
330
1B
102
}
330
1B
100
AcDbMlineStyle
  2
Standard
 70
     0
  3

 62
     0
 51
90.0
 52
90.0
 71
     2
 49
0.5
 62
   256
  6
BYLAYER
 49
-0.5
 62
   256
  6
BYLAYER
  0
ACDBPLACEHOLDER
  5
1D
102
{ACAD_REACTORS
330
1F
102
}
330
1F
  0
SCALE
  5
CE
102
{ACAD_REACTORS
330
CD
102
}
330
CD
100
AcDbScale
 70
     0
300
1:1
140
1.0
141
1.0
290
     1
  0
SCALE
  5
CF
102
{ACAD_REACTORS
330
CD
102
}
330
CD
100
AcDbScale
 70
     0
300
1:2
140
1.0
141
2.0
290
     0
  0
SCALE
  5
D0
102
{ACAD_REACTORS
330
CD
102
}
330
CD
100
AcDbScale
 70
     0
300
1:4
140
1.0
141
4.0
290
     0
  0
SCALE
  5
D1
102
{ACAD_REACTORS
330
CD
102
}
330
CD
100
AcDbScale
 70
     0
300
1:5
140
1.0
141
5.0
290
     0
  0
SCALE
  5
D2
102
{ACAD_REACTORS
330
CD
102
}
330
CD
100
AcDbScale
 70
     0
300
1:8
140
1.0
141
8.0
290
     0
  0
SCALE
  5
D3
102
{ACAD_REACTORS
330
CD
102
}
330
CD
100
AcDbScale
 70
     0
300
1:10
140
1.0
141
10.0
290
     0
  0
SCALE
  5
D4
102
{ACAD_REACTORS
330
CD
102
}
330
CD
100
AcDbScale
 70
     0
300
1:16
140
1.0
141
16.0
290
     0
  0
SCALE
  5
D5
102
{ACAD_REACTORS
330
CD
102
}
330
CD
100
AcDbScale
 70
     0
300
1:20
140
1.0
141
20.0
290
     0
  0
SCALE
  5
D6
102
{ACAD_REACTORS
330
CD
102
}
330
CD
100
AcDbScale
 70
     0
300
1:30
140
1.0
141
30.0
290
     0
  0
SCALE
  5
D7
102
{ACAD_REACTORS
330
CD
102
}
330
CD
100
AcDbScale
 70
     0
300
1:40
140
1.0
141
40.0
290
     0
  0
SCALE
  5
D8
102
{ACAD_REACTORS
330
CD
102
}
330
CD
100
AcDbScale
 70
     0
300
1:50
140
1.0
141
50.0
290
     0
  0
SCALE
  5
D9
102
{ACAD_REACTORS
330
CD
102
}
330
CD
100
AcDbScale
 70
     0
300
1:100
140
1.0
141
100.0
290
     0
  0
SCALE
  5
DA
102
{ACAD_REACTORS
330
CD
102
}
330
CD
100
AcDbScale
 70
     0
300
2:1
140
2.0
141
1.0
290
     0
  0
SCALE
  5
DB
102
{ACAD_REACTORS
330
CD
102
}
330
CD
100
AcDbScale
 70
     0
300
4:1
140
4.0
141
1.0
290
     0
  0
SCALE
  5
DC
102
{ACAD_REACTORS
330
CD
102
}
330
CD
100
AcDbScale
 70
     0
300
8:1
140
8.0
141
1.0
290
     0
  0
SCALE
  5
DD
102
{ACAD_REACTORS
330
CD
102
}
330
CD
100
AcDbScale
 70
     0
300
10:1
140
10.0
141
1.0
290
     0
  0
SCALE
  5
DE
102
{ACAD_REACTORS
330
CD
102
}
330
CD
100
AcDbScale
 70
     0
300
100:1
140
100.0
141
1.0
290
     0
  0
SCALE
  5
DF
102
{ACAD_REACTORS
330
CD
102
}
330
CD
100
AcDbScale
 70
     0
300
1/128" = 1'-0"
140
0.0078125
141
12.0
290
     0
  0
SCALE
  5
E0
102
{ACAD_REACTORS
330
CD
102
}
330
CD
100
AcDbScale
 70
     0
300
1/64" = 1'-0"
140
0.015625
141
12.0
290
     0
  0
SCALE
  5
E1
102
{ACAD_REACTORS
330
CD
102
}
330
CD
100
AcDbScale
 70
     0
300
1/32" = 1'-0"
140
0.03125
141
12.0
290
     0
  0
SCALE
  5
E2
102
{ACAD_REACTORS
330
CD
102
}
330
CD
100
AcDbScale
 70
     0
300
1/16" = 1'-0"
140
0.0625
141
12.0
290
     0
  0
SCALE
  5
E3
102
{ACAD_REACTORS
330
CD
102
}
330
CD
100
AcDbScale
 70
     0
300
3/32" = 1'-0"
140
0.09375
141
12.0
290
     0
  0
SCALE
  5
E4
102
{ACAD_REACTORS
330
CD
102
}
330
CD
100
AcDbScale
 70
     0
300
1/8" = 1'-0"
140
0.125
141
12.0
290
     0
  0
SCALE
  5
E5
102
{ACAD_REACTORS
330
CD
102
}
330
CD
100
AcDbScale
 70
     0
300
3/16" = 1'-0"
140
0.1875
141
12.0
290
     0
  0
SCALE
  5
E6
102
{ACAD_REACTORS
330
CD
102
}
330
CD
100
AcDbScale
 70
     0
300
1/4" = 1'-0"
140
0.25
141
12.0
290
     0
  0
SCALE
  5
E7
102
{ACAD_REACTORS
330
CD
102
}
330
CD
100
AcDbScale
 70
     0
300
3/8" = 1'-0"
140
0.375
141
12.0
290
     0
  0
SCALE
  5
E8
102
{ACAD_REACTORS
330
CD
102
}
330
CD
100
AcDbScale
 70
     0
300
1/2" = 1'-0"
140
0.5
141
12.0
290
     0
  0
SCALE
  5
E9
102
{ACAD_REACTORS
330
CD
102
}
330
CD
100
AcDbScale
 70
     0
300
3/4" = 1'-0"
140
0.75
141
12.0
290
     0
  0
SCALE
  5
EA
102
{ACAD_REACTORS
330
CD
102
}
330
CD
100
AcDbScale
 70
     0
300
1" = 1'-0"
140
1.0
141
12.0
290
     0
  0
SCALE
  5
EB
102
{ACAD_REACTORS
330
CD
102
}
330
CD
100
AcDbScale
 70
     0
300
1-1/2" = 1'-0"
140
1.5
141
12.0
290
     0
  0
SCALE
  5
EC
102
{ACAD_REACTORS
330
CD
102
}
330
CD
100
AcDbScale
 70
     0
300
3" = 1'-0"
140
3.0
141
12.0
290
     0
  0
SCALE
  5
ED
102
{ACAD_REACTORS
330
CD
102
}
330
CD
100
AcDbScale
 70
     0
300
6" = 1'-0"
140
6.0
141
12.0
290
     0
  0
SCALE
  5
EE
102
{ACAD_REACTORS
330
CD
102
}
330
CD
100
AcDbScale
 70
     0
300
1'-0" = 1'-0"
140
12.0
141
12.0
290
     0
  0
TABLESTYLE
  5
10D
102
{ACAD_REACTORS
330
10C
102
}
102
{ACAD_XDICTIONARY
360
142
102
}
330
10C
100
AcDbTableStyle
  3
Standard
 70
     0
 71
     0
 40
0.06
 41
0.06
280
     0
281
     0
  7
Standard
140
0.18
170
     2
 62
     0
 63
   257
283
     0
 90
        4
 91
        0
  1

274
    -2
284
     1
 64
     0
275
    -2
285
     1
 65
     0
276
    -2
286
     1
 66
     0
277
    -2
287
     1
 67
     0
278
    -2
288
     1
 68
     0
279
    -2
289
     1
 69
     0
  7
Standard
140
0.25
170
     5
 62
     0
 63
   257
283
     0
 90
        4
 91
        0
  1

274
    -2
284
     1
 64
     0
275
    -2
285
     1
 65
     0
276
    -2
286
     1
 66
     0
277
    -2
287
     1
 67
     0
278
    -2
288
     1
 68
     0
279
    -2
289
     1
 69
     0
  7
Standard
140
0.18
170
     5
 62
     0
 63
   257
283
     0
 90
        4
 91
        0
  1

274
    -2
284
     1
 64
     0
275
    -2
285
     1
 65
     0
276
    -2
286
     1
 66
     0
277
    -2
287
     1
 67
     0
278
    -2
288
     1
 68
     0
279
    -2
289
     1
 69
     0
  0
VISUALSTYLE
  5
F4
102
{ACAD_REACTORS
330
EF
102
}
102
{ACAD_XDICTIONARY
360
11A
102
}
330
EF
100
AcDbVisualStyle
  2
2dWireframe
 70
     4
177
     2
291
     0
 71
     0
176
     1
 72
     2
176
     1
 73
     0
176
     1
 90
        0
176
     1
 40
0.6
176
     1
 41
30.0
176
     1
 62
     5
 63
     7
421
 16777215
176
     1
 74
     1
176
     1
 91
        4
176
     1
 64
     7
176
     1
 65
   257
176
     1
 75
     1
176
     1
175
     1
176
     1
 42
1.0
176
     1
 92
        0
176
     1
 66
   257
176
     1
 43
1.0
176
     1
 76
     1
176
     1
 77
     6
176
     1
 78
     2
176
     1
 67
     7
176
     1
 79
     5
176
     1
170
     0
176
     1
171
     0
176
     1
290
     0
176
     1
 93
        1
176
     1
 44
0.0
176
     1
173
     0
176
     1
  0
VISUALSTYLE
  5
F7
102
{ACAD_REACTORS
330
EF
102
}
102
{ACAD_XDICTIONARY
360
120
102
}
330
EF
100
AcDbVisualStyle
  2
Basic
 70
     7
177
     2
291
     1
 71
     1
176
     1
 72
     0
176
     1
 73
     1
176
     1
 90
        0
176
     1
 40
0.6
176
     1
 41
30.0
176
     1
 62
     5
 63
     7
421
 16777215
176
     1
 74
     0
176
     1
 91
        4
176
     1
 64
     7
176
     1
 65
   257
176
     1
 75
     1
176
     1
175
     1
176
     1
 42
1.0
176
     1
 92
        8
176
     1
 66
     7
176
     1
 43
1.0
176
     1
 76
     1
176
     1
 77
     6
176
     1
 78
     2
176
     1
 67
     7
176
     1
 79
     5
176
     1
170
     0
176
     1
171
     0
176
     1
290
     0
176
     1
 93
        1
176
     1
 44
0.0
176
     1
173
     0
176
     1
  0
VISUALSTYLE
  5
FB
102
{ACAD_REACTORS
330
EF
102
}
102
{ACAD_XDICTIONARY
360
128
102
}
330
EF
100
AcDbVisualStyle
  2
Brighten
 70
    12
177
     2
291
     1
 71
     2
176
     1
 72
     2
176
     1
 73
     0
176
     1
 90
        0
176
     1
 40
0.6
176
     1
 41
30.0
176
     1
 62
     5
 63
     7
421
 16777215
176
     1
 74
     1
176
     1
 91
        4
176
     1
 64
     7
176
     1
 65
   257
176
     1
 75
     1
176
     1
175
     1
176
     1
 42
1.0
176
     1
 92
        8
176
     1
 66
     7
176
     1
 43
1.0
176
     1
 76
     1
176
     1
 77
     6
176
     1
 78
     2
176
     1
 67
     7
176
     1
 79
     5
176
     1
170
     0
176
     1
171
     0
176
     1
290
     0
176
     1
 93
        1
176
     1
 44
50.0
176
     1
173
     0
176
     1
  0
VISUALSTYLE
  5
FF
102
{ACAD_REACTORS
330
EF
102
}
102
{ACAD_XDICTIONARY
360
130
102
}
330
EF
100
AcDbVisualStyle
  2
ColorChange
 70
    16
177
     2
291
     1
 71
     2
176
     1
 72
     2
176
     1
 73
     3
176
     1
 90
        0
176
     1
 40
0.6
176
     1
 41
30.0
176
     1
 62
     5
 63
     8
421
  8421504
176
     1
 74
     1
176
     1
 91
        4
176
     1
 64
     7
176
     1
 65
   257
176
     1
 75
     1
176
     1
175
     1
176
     1
 42
1.0
176
     1
 92
        8
176
     1
 66
     8
424
  8421504
176
     1
 43
1.0
176
     1
 76
     1
176
     1
 77
     6
176
     1
 78
     2
176
     1
 67
     7
176
     1
 79
     5
176
     1
170
     0
176
     1
171
     0
176
     1
290
     0
176
     1
 93
        1
176
     1
 44
0.0
176
     1
173
     0
176
     1
  0
VISUALSTYLE
  5
F9
102
{ACAD_REACTORS
330
EF
102
}
102
{ACAD_XDICTIONARY
360
124
102
}
330
EF
100
AcDbVisualStyle
  2
Conceptual
 70
     9
177
     2
291
     0
 71
     3
176
     1
 72
     2
176
     1
 73
     0
176
     1
 90
        0
176
     1
 40
0.6
176
     1
 41
30.0
176
     1
 62
     5
 63
     7
421
 16777215
176
     1
 74
     2
176
     1
 91
        2
176
     1
 64
     7
176
     1
 65
   257
176
     1
 75
     1
176
     1
175
     1
176
     1
 42
179.0
176
     1
 92
        8
176
     1
 66
     7
176
     1
 43
1.0
176
     1
 76
     1
176
     1
 77
     6
176
     1
 78
     2
176
     1
 67
     7
176
     1
 79
     3
176
     1
170
     0
176
     1
171
     0
176
     1
290
     0
176
     1
 93
        1
176
     1
 44
0.0
176
     1
173
     0
176
     1
  0
VISUALSTYLE
  5
FA
102
{ACAD_REACTORS
330
EF
102
}
102
{ACAD_XDICTIONARY
360
126
102
}
330
EF
100
AcDbVisualStyle
  2
Dim
 70
    11
177
     2
291
     1
 71
     2
176
     1
 72
     2
176
     1
 73
     0
176
     1
 90
        0
176
     1
 40
0.6
176
     1
 41
30.0
176
     1
 62
     5
 63
     7
421
 16777215
176
     1
 74
     1
176
     1
 91
        4
176
     1
 64
     7
176
     1
 65
   257
176
     1
 75
     1
176
     1
175
     1
176
     1
 42
1.0
176
     1
 92
        8
176
     1
 66
     7
176
     1
 43
1.0
176
     1
 76
     1
176
     1
 77
     6
176
     1
 78
     2
176
     1
 67
     7
176
     1
 79
     5
176
     1
170
     0
176
     1
171
     0
176
     1
290
     0
176
     1
 93
        1
176
     1
 44
-50.0
176
     1
173
     0
176
     1
  0
VISUALSTYLE
  5
102
102
{ACAD_REACTORS
330
EF
102
}
102
{ACAD_XDICTIONARY
360
136
102
}
330
EF
100
AcDbVisualStyle
  2
EdgeColorOff
 70
    22
177
     2
291
     1
 71
     2
176
     0
 72
     2
176
     0
 73
     0
176
     0
 90
        0
176
     0
 40
0.6
176
     0
 41
30.0
176
     0
 62
     5
 63
     7
421
 16777215
176
     0
 74
     1
176
     0
 91
        4
176
     0
 64
     7
176
     0
 65
   257
176
     0
 75
     1
176
     0
175
     1
176
     0
 42
1.0
176
     0
 92
        8
176
     2
 66
     7
176
     0
 43
1.0
176
     0
 76
     1
176
     0
 77
     6
176
     0
 78
     2
176
     0
 67
     7
176
     0
 79
     5
176
     0
170
     0
176
     0
171
     0
176
     0
290
     0
176
     0
 93
        1
176
     0
 44
0.0
176
     0
173
     0
176
     0
  0
VISUALSTYLE
  5
FE
102
{ACAD_REACTORS
330
EF
102
}
102
{ACAD_XDICTIONARY
360
12E
102
}
330
EF
100
AcDbVisualStyle
  2
Facepattern
 70
    15
177
     2
291
     1
 71
     2
176
     1
 72
     2
176
     1
 73
     0
176
     1
 90
        0
176
     1
 40
0.6
176
     1
 41
30.0
176
     1
 62
     5
 63
     7
421
 16777215
176
     1
 74
     1
176
     1
 91
        4
176
     1
 64
     7
176
     1
 65
   257
176
     1
 75
     1
176
     1
175
     1
176
     1
 42
1.0
176
     1
 92
        8
176
     1
 66
     7
176
     1
 43
1.0
176
     1
 76
     1
176
     1
 77
     6
176
     1
 78
     2
176
     1
 67
     7
176
     1
 79
     5
176
     1
170
     0
176
     1
171
     0
176
     1
290
     0
176
     1
 93
        1
176
     1
 44
0.0
176
     1
173
     0
176
     1
  0
VISUALSTYLE
  5
F0
102
{ACAD_REACTORS
330
EF
102
}
102
{ACAD_XDICTIONARY
360
112
102
}
330
EF
100
AcDbVisualStyle
  2
Flat
 70
     0
177
     2
291
     1
 71
     2
176
     1
 72
     1
176
     1
 73
     1
176
     1
 90
        2
176
     1
 40
0.6
176
     1
 41
30.0
176
     1
 62
     5
 63
     7
421
 16777215
176
     1
 74
     0
176
     1
 91
        0
176
     1
 64
     7
176
     1
 65
   257
176
     1
 75
     1
176
     1
175
     1
176
     1
 42
1.0
176
     1
 92
        8
176
     1
 66
     7
176
     1
 43
1.0
176
     1
 76
     1
176
     1
 77
     6
176
     1
 78
     2
176
     1
 67
     7
176
     1
 79
     5
176
     1
170
     0
176
     1
171
     0
176
     1
290
     0
176
     1
 93
       13
176
     1
 44
0.0
176
     1
173
     0
176
     1
  0
VISUALSTYLE
  5
F1
102
{ACAD_REACTORS
330
EF
102
}
102
{ACAD_XDICTIONARY
360
114
102
}
330
EF
100
AcDbVisualStyle
  2
FlatWithEdges
 70
     1
177
     2
291
     1
 71
     2
176
     1
 72
     1
176
     1
 73
     1
176
     1
 90
        2
176
     1
 40
0.6
176
     1
 41
30.0
176
     1
 62
     5
 63
     7
421
 16777215
176
     1
 74
     1
176
     1
 91
        0
176
     1
 64
     7
176
     1
 65
   257
176
     1
 75
     1
176
     1
175
     1
176
     1
 42
1.0
176
     1
 92
        0
176
     1
 66
   257
176
     1
 43
1.0
176
     1
 76
     1
176
     1
 77
     6
176
     1
 78
     2
176
     1
 67
     7
176
     1
 79
     5
176
     1
170
     0
176
     1
171
     0
176
     1
290
     0
176
     1
 93
       13
176
     1
 44
0.0
176
     1
173
     0
176
     1
  0
VISUALSTYLE
  5
F2
102
{ACAD_REACTORS
330
EF
102
}
102
{ACAD_XDICTIONARY
360
116
102
}
330
EF
100
AcDbVisualStyle
  2
Gouraud
 70
     2
177
     2
291
     1
 71
     2
176
     1
 72
     2
176
     1
 73
     1
176
     1
 90
        2
176
     1
 40
0.6
176
     1
 41
30.0
176
     1
 62
     5
 63
     7
421
 16777215
176
     1
 74
     0
176
     1
 91
        0
176
     1
 64
     7
176
     1
 65
   257
176
     1
 75
     1
176
     1
175
     1
176
     1
 42
1.0
176
     1
 92
        0
176
     1
 66
     7
176
     1
 43
1.0
176
     1
 76
     1
176
     1
 77
     6
176
     1
 78
     2
176
     1
 67
     7
176
     1
 79
     5
176
     1
170
     0
176
     1
171
     0
176
     1
290
     0
176
     1
 93
       13
176
     1
 44
0.0
176
     1
173
     0
176
     1
  0
VISUALSTYLE
  5
F3
102
{ACAD_REACTORS
330
EF
102
}
102
{ACAD_XDICTIONARY
360
118
102
}
330
EF
100
AcDbVisualStyle
  2
GouraudWithEdges
 70
     3
177
     2
291
     1
 71
     2
176
     1
 72
     2
176
     1
 73
     1
176
     1
 90
        2
176
     1
 40
0.6
176
     1
 41
30.0
176
     1
 62
     5
 63
     7
421
 16777215
176
     1
 74
     1
176
     1
 91
        0
176
     1
 64
     7
176
     1
 65
   257
176
     1
 75
     1
176
     1
175
     1
176
     1
 42
1.0
176
     1
 92
        0
176
     1
 66
   257
176
     1
 43
1.0
176
     1
 76
     1
176
     1
 77
     6
176
     1
 78
     2
176
     1
 67
     7
176
     1
 79
     5
176
     1
170
     0
176
     1
171
     0
176
     1
290
     0
176
     1
 93
       13
176
     1
 44
0.0
176
     1
173
     0
176
     1
  0
VISUALSTYLE
  5
F6
102
{ACAD_REACTORS
330
EF
102
}
102
{ACAD_XDICTIONARY
360
11E
102
}
330
EF
100
AcDbVisualStyle
  2
Hidden
 70
     6
177
     2
291
     0
 71
     1
176
     1
 72
     2
176
     1
 73
     2
176
     1
 90
        0
176
     1
 40
0.6
176
     1
 41
30.0
176
     1
 62
     5
 63
     7
421
 16777215
176
     1
 74
     2
176
     1
 91
        2
176
     1
 64
     7
176
     1
 65
   257
176
     1
 75
     2
176
     1
175
     1
176
     1
 42
40.0
176
     1
 92
        0
176
     1
 66
   257
176
     1
 43
1.0
176
     1
 76
     1
176
     1
 77
     6
176
     1
 78
     2
176
     1
 67
     7
176
     1
 79
     3
176
     1
170
     0
176
     1
171
     0
176
     1
290
     0
176
     1
 93
        1
176
     1
 44
0.0
176
     1
173
     0
176
     1
  0
VISUALSTYLE
  5
100
102
{ACAD_REACTORS
330
EF
102
}
102
{ACAD_XDICTIONARY
360
132
102
}
330
EF
100
AcDbVisualStyle
  2
JitterOff
 70
    20
177
     2
291
     1
 71
     2
176
     0
 72
     2
176
     0
 73
     0
176
     0
 90
        0
176
     0
 40
0.6
176
     0
 41
30.0
176
     0
 62
     5
 63
     7
421
 16777215
176
     0
 74
     1
176
     0
 91
        4
176
     0
 64
     7
176
     0
 65
   257
176
     0
 75
     1
176
     0
175
     1
176
     0
 42
1.0
176
     0
 92
       10
176
     2
 66
     7
176
     0
 43
1.0
176
     0
 76
     1
176
     0
 77
     6
176
     0
 78
     2
176
     0
 67
     7
176
     0
 79
     5
176
     0
170
     0
176
     0
171
     0
176
     0
290
     0
176
     0
 93
        1
176
     0
 44
0.0
176
     0
173
     0
176
     0
  0
VISUALSTYLE
  5
FD
102
{ACAD_REACTORS
330
EF
102
}
102
{ACAD_XDICTIONARY
360
12C
102
}
330
EF
100
AcDbVisualStyle
  2
Linepattern
 70
    14
177
     2
291
     1
 71
     2
176
     1
 72
     2
176
     1
 73
     0
176
     1
 90
        0
176
     1
 40
0.6
176
     1
 41
30.0
176
     1
 62
     5
 63
     7
421
 16777215
176
     1
 74
     1
176
     1
 91
        4
176
     1
 64
     7
176
     1
 65
   257
176
     1
 75
     7
176
     1
175
     7
176
     1
 42
1.0
176
     1
 92
        8
176
     1
 66
     7
176
     1
 43
1.0
176
     1
 76
     1
176
     1
 77
     6
176
     1
 78
     2
176
     1
 67
     7
176
     1
 79
     5
176
     1
170
     0
176
     1
171
     0
176
     1
290
     0
176
     1
 93
        1
176
     1
 44
0.0
176
     1
173
     0
176
     1
  0
VISUALSTYLE
  5
101
102
{ACAD_REACTORS
330
EF
102
}
102
{ACAD_XDICTIONARY
360
134
102
}
330
EF
100
AcDbVisualStyle
  2
OverhangOff
 70
    21
177
     2
291
     1
 71
     2
176
     0
 72
     2
176
     0
 73
     0
176
     0
 90
        0
176
     0
 40
0.6
176
     0
 41
30.0
176
     0
 62
     5
 63
     7
421
 16777215
176
     0
 74
     1
176
     0
 91
        4
176
     0
 64
     7
176
     0
 65
   257
176
     0
 75
     1
176
     0
175
     1
176
     0
 42
1.0
176
     0
 92
        9
176
     2
 66
     7
176
     0
 43
1.0
176
     0
 76
     1
176
     0
 77
     6
176
     0
 78
     2
176
     0
 67
     7
176
     0
 79
     5
176
     0
170
     0
176
     0
171
     0
176
     0
290
     0
176
     0
 93
        1
176
     0
 44
0.0
176
     0
173
     0
176
     0
  0
VISUALSTYLE
  5
F8
102
{ACAD_REACTORS
330
EF
102
}
102
{ACAD_XDICTIONARY
360
122
102
}
330
EF
100
AcDbVisualStyle
  2
Realistic
 70
     8
177
     2
291
     0
 71
     2
176
     1
 72
     3
176
     1
 73
     0
176
     1
 90
        2
176
     1
 40
0.6
176
     1
 41
30.0
176
     1
 62
     5
 63
     7
421
 16777215
176
     1
 74
     0
176
     1
 91
        0
176
     1
 64
     7
176
     1
 65
   257
176
     1
 75
     1
176
     1
175
     1
176
     1
 42
1.0
176
     1
 92
        8
176
     1
 66
   257
176
     1
 43
1.0
176
     1
 76
     1
176
     1
 77
     6
176
     1
 78
     2
176
     1
 67
     7
176
     1
 79
     3
176
     1
170
     0
176
     1
171
     0
176
     1
290
     0
176
     1
 93
       13
176
     1
 44
0.0
176
     1
173
     0
176
     1
  0
VISUALSTYLE
  5
107
102
{ACAD_REACTORS
330
EF
102
}
102
{ACAD_XDICTIONARY
360
140
102
}
330
EF
100
AcDbVisualStyle
  2
Shaded
 70
    27
177
     2
291
     0
 71
     2
176
     1
 72
     2
176
     1
 73
     1
176
     1
 90
        2
176
     1
 40
0.6
176
     1
 41
30.0
176
     1
 62
     5
 63
     7
421
 16777215
176
     1
 74
     0
176
     1
 91
        4
176
     1
 64
     7
176
     1
 65
   257
176
     1
 75
     1
176
     1
175
     1
176
     1
 42
1.0
176
     1
 92
        8
176
     1
 66
   257
176
     1
 43
1.0
176
     1
 76
     1
176
     1
 77
     6
176
     1
 78
     2
176
     1
 67
     8
425
  7895160
176
     1
 79
     3
176
     1
170
     0
176
     1
171
     0
176
     1
290
     0
176
     1
 93
        5
176
     1
 44
0.0
176
     1
173
     0
176
     1
  0
VISUALSTYLE
  5
106
102
{ACAD_REACTORS
330
EF
102
}
102
{ACAD_XDICTIONARY
360
13E
102
}
330
EF
100
AcDbVisualStyle
  2
Shaded with edges
 70
    26
177
     2
291
     0
 71
     2
176
     1
 72
     2
176
     1
 73
     1
176
     1
 90
        2
176
     1
 40
0.6
176
     1
 41
30.0
176
     1
 62
     5
 63
     7
421
 16777215
176
     1
 74
     1
176
     1
 91
       10
176
     1
 64
     7
176
     1
 65
   257
176
     1
 75
     2
176
     1
175
     1
176
     1
 42
1.0
176
     1
 92
        8
176
     1
 66
   257
176
     1
 43
1.0
176
     1
 76
     1
176
     1
 77
     6
176
     1
 78
     2
176
     1
 67
     7
176
     1
 79
     3
176
     1
170
     0
176
     1
171
     0
176
     1
290
     0
176
     1
 93
        5
176
     1
 44
0.0
176
     1
173
     0
176
     1
  0
VISUALSTYLE
  5
103
102
{ACAD_REACTORS
330
EF
102
}
102
{ACAD_XDICTIONARY
360
138
102
}
330
EF
100
AcDbVisualStyle
  2
Shades of Gray
 70
    23
177
     2
291
     0
 71
     2
176
     1
 72
     2
176
     1
 73
     3
176
     1
 90
        0
176
     1
 40
0.6
176
     1
 41
30.0
176
     1
 62
     5
 63
     7
421
 16777215
176
     1
 74
     2
176
     1
 91
        2
176
     1
 64
     7
176
     1
 65
     7
176
     1
 75
     1
176
     1
175
     1
176
     1
 42
40.0
176
     1
 92
        8
176
     1
 66
     7
176
     1
 43
1.0
176
     1
 76
     1
176
     1
 77
     6
176
     1
 78
     2
176
     1
 67
     7
176
     1
 79
     3
176
     1
170
     0
176
     1
171
     0
176
     1
290
     0
176
     1
 93
        1
176
     1
 44
0.0
176
     1
173
     0
176
     1
  0
VISUALSTYLE
  5
104
102
{ACAD_REACTORS
330
EF
102
}
102
{ACAD_XDICTIONARY
360
13A
102
}
330
EF
100
AcDbVisualStyle
  2
Sketchy
 70
    24
177
     2
291
     0
 71
     1
176
     1
 72
     2
176
     1
 73
     2
176
     1
 90
        0
176
     1
 40
0.6
176
     1
 41
30.0
176
     1
 62
     5
 63
     7
421
 16777215
176
     1
 74
     2
176
     1
 91
        2
176
     1
 64
     7
176
     1
 65
     7
176
     1
 75
     1
176
     1
175
     1
176
     1
 42
40.0
176
     1
 92
       11
176
     1
 66
     7
176
     1
 43
1.0
176
     1
 76
     1
176
     1
 77
     6
176
     1
 78
     2
176
     1
 67
     7
176
     1
 79
     6
176
     1
170
     0
176
     1
171
     0
176
     1
290
     0
176
     1
 93
        1
176
     1
 44
0.0
176
     1
173
     0
176
     1
  0
VISUALSTYLE
  5
FC
102
{ACAD_REACTORS
330
EF
102
}
102
{ACAD_XDICTIONARY
360
12A
102
}
330
EF
100
AcDbVisualStyle
  2
Thicken
 70
    13
177
     2
291
     1
 71
     2
176
     1
 72
     2
176
     1
 73
     0
176
     1
 90
        0
176
     1
 40
0.6
176
     1
 41
30.0
176
     1
 62
     5
 63
     7
421
 16777215
176
     1
 74
     1
176
     1
 91
        4
176
     1
 64
     7
176
     1
 65
   257
176
     1
 75
     1
176
     1
175
     1
176
     1
 42
1.0
176
     1
 92
       12
176
     1
 66
     7
176
     1
 43
1.0
176
     1
 76
     1
176
     1
 77
     6
176
     1
 78
     2
176
     1
 67
     7
176
     1
 79
     5
176
     1
170
     0
176
     1
171
     0
176
     1
290
     0
176
     1
 93
        1
176
     1
 44
0.0
176
     1
173
     0
176
     1
  0
VISUALSTYLE
  5
F5
102
{ACAD_REACTORS
330
EF
102
}
102
{ACAD_XDICTIONARY
360
11C
102
}
330
EF
100
AcDbVisualStyle
  2
Wireframe
 70
     5
177
     2
291
     0
 71
     0
176
     1
 72
     2
176
     1
 73
     0
176
     1
 90
        0
176
     1
 40
0.6
176
     1
 41
30.0
176
     1
 62
     5
 63
     7
421
 16777215
176
     1
 74
     1
176
     1
 91
        4
176
     1
 64
     7
176
     1
 65
   257
176
     1
 75
     1
176
     1
175
     1
176
     1
 42
1.0
176
     1
 92
        0
176
     1
 66
   257
176
     1
 43
1.0
176
     1
 76
     1
176
     1
 77
     6
176
     1
 78
     2
176
     1
 67
     7
176
     1
 79
     3
176
     1
170
     0
176
     1
171
     0
176
     1
290
     0
176
     1
 93
        1
176
     1
 44
0.0
176
     1
173
     0
176
     1
  0
VISUALSTYLE
  5
105
102
{ACAD_REACTORS
330
EF
102
}
102
{ACAD_XDICTIONARY
360
13C
102
}
330
EF
100
AcDbVisualStyle
  2
X-Ray
 70
    25
177
     2
291
     0
 71
     2
176
     1
 72
     2
176
     1
 73
     1
176
     1
 90
        1
176
     1
 40
0.5
176
     1
 41
30.0
176
     1
 62
     5
 63
     7
421
 16777215
176
     1
 74
     1
176
     1
 91
        0
176
     1
 64
     7
176
     1
 65
   257
176
     1
 75
     1
176
     1
175
     1
176
     1
 42
1.0
176
     1
 92
        8
176
     1
 66
     7
176
     1
 43
1.0
176
     1
 76
     1
176
     1
 77
     6
176
     1
 78
     2
176
     1
 67
     7
176
     1
 79
     3
176
     1
170
     0
176
     1
171
     0
176
     1
290
     0
176
     1
 93
       13
176
     1
 44
0.0
176
     1
173
     0
176
     1
  0
DICTIONARYVAR
  5
111
102
{ACAD_REACTORS
330
110
102
}
330
110
100
DictionaryVariables
280
     0
  1
1:1
  0
DICTIONARYVAR
  5
146
102
{ACAD_REACTORS
330
110
102
}
330
110
100
DictionaryVariables
280
     0
  1
Standard
  0
DICTIONARYVAR
  5
145
102
{ACAD_REACTORS
330
110
102
}
330
110
100
DictionaryVariables
280
     0
  1
Standard
  0
DICTIONARYVAR
  5
147
102
{ACAD_REACTORS
330
110
102
}
330
110
100
DictionaryVariables
280
     0
  1
0
  0
DICTIONARY
  5
142
330
10D
100
AcDbDictionary
280
     1
281
     1
  3
ACAD_ROUNDTRIP_2008_TABLESTYLE_CELLSTYLEMAP
360
143
  0
DICTIONARY
  5
11A
330
F4
100
AcDbDictionary
280
     1
281
     1
  3
ACAD_XREC_ROUNDTRIP
360
11B
  0
DICTIONARY
  5
120
330
F7
100
AcDbDictionary
280
     1
281
     1
  3
ACAD_XREC_ROUNDTRIP
360
121
  0
DICTIONARY
  5
128
330
FB
100
AcDbDictionary
280
     1
281
     1
  3
ACAD_XREC_ROUNDTRIP
360
129
  0
DICTIONARY
  5
130
330
FF
100
AcDbDictionary
280
     1
281
     1
  3
ACAD_XREC_ROUNDTRIP
360
131
  0
DICTIONARY
  5
124
330
F9
100
AcDbDictionary
280
     1
281
     1
  3
ACAD_XREC_ROUNDTRIP
360
125
  0
DICTIONARY
  5
126
330
FA
100
AcDbDictionary
280
     1
281
     1
  3
ACAD_XREC_ROUNDTRIP
360
127
  0
DICTIONARY
  5
136
330
102
100
AcDbDictionary
280
     1
281
     1
  3
ACAD_XREC_ROUNDTRIP
360
137
  0
DICTIONARY
  5
12E
330
FE
100
AcDbDictionary
280
     1
281
     1
  3
ACAD_XREC_ROUNDTRIP
360
12F
  0
DICTIONARY
  5
112
330
F0
100
AcDbDictionary
280
     1
281
     1
  3
ACAD_XREC_ROUNDTRIP
360
113
  0
DICTIONARY
  5
114
330
F1
100
AcDbDictionary
280
     1
281
     1
  3
ACAD_XREC_ROUNDTRIP
360
115
  0
DICTIONARY
  5
116
330
F2
100
AcDbDictionary
280
     1
281
     1
  3
ACAD_XREC_ROUNDTRIP
360
117
  0
DICTIONARY
  5
118
330
F3
100
AcDbDictionary
280
     1
281
     1
  3
ACAD_XREC_ROUNDTRIP
360
119
  0
DICTIONARY
  5
11E
330
F6
100
AcDbDictionary
280
     1
281
     1
  3
ACAD_XREC_ROUNDTRIP
360
11F
  0
DICTIONARY
  5
132
330
100
100
AcDbDictionary
280
     1
281
     1
  3
ACAD_XREC_ROUNDTRIP
360
133
  0
DICTIONARY
  5
12C
330
FD
100
AcDbDictionary
280
     1
281
     1
  3
ACAD_XREC_ROUNDTRIP
360
12D
  0
DICTIONARY
  5
134
330
101
100
AcDbDictionary
280
     1
281
     1
  3
ACAD_XREC_ROUNDTRIP
360
135
  0
DICTIONARY
  5
122
330
F8
100
AcDbDictionary
280
     1
281
     1
  3
ACAD_XREC_ROUNDTRIP
360
123
  0
DICTIONARY
  5
140
330
107
100
AcDbDictionary
280
     1
281
     1
  3
ACAD_XREC_ROUNDTRIP
360
141
  0
DICTIONARY
  5
13E
330
106
100
AcDbDictionary
280
     1
281
     1
  3
ACAD_XREC_ROUNDTRIP
360
13F
  0
DICTIONARY
  5
138
330
103
100
AcDbDictionary
280
     1
281
     1
  3
ACAD_XREC_ROUNDTRIP
360
139
  0
DICTIONARY
  5
13A
330
104
100
AcDbDictionary
280
     1
281
     1
  3
ACAD_XREC_ROUNDTRIP
360
13B
  0
DICTIONARY
  5
12A
330
FC
100
AcDbDictionary
280
     1
281
     1
  3
ACAD_XREC_ROUNDTRIP
360
12B
  0
DICTIONARY
  5
11C
330
F5
100
AcDbDictionary
280
     1
281
     1
  3
ACAD_XREC_ROUNDTRIP
360
11D
  0
DICTIONARY
  5
13C
330
105
100
AcDbDictionary
280
     1
281
     1
  3
ACAD_XREC_ROUNDTRIP
360
13D
  0
CELLSTYLEMAP
  5
143
102
{ACAD_REACTORS
330
142
102
}
330
142
100
AcDbCellStyleMap
 90
        3
300
CELLSTYLE
  1
TABLEFORMAT_BEGIN
 90
        5
170
     1
 91
        0
 92
    32768
 62
   257
 93
        1
300
CONTENTFORMAT
  1
CONTENTFORMAT_BEGIN
 90
        0
 91
        0
 92
        4
 93
        0
300

 40
0.0
140
1.0
 94
        5
 62
     0
340
17
144
0.25
309
CONTENTFORMAT_END
171
     1
301
MARGIN
  1
CELLMARGIN_BEGIN
 40
0.06
 40
0.06
 40
0.06
 40
0.06
 40
0.06
 40
0.06
309
CELLMARGIN_END
 94
        6
 95
        1
302
GRIDFORMAT
  1
GRIDFORMAT_BEGIN
 90
        0
 91
        1
 62
     0
 92
       -2
340
11
 93
        0
 40
0.045
309
GRIDFORMAT_END
 95
        2
302
GRIDFORMAT
  1
GRIDFORMAT_BEGIN
 90
        0
 91
        1
 62
     0
 92
       -2
340
11
 93
        0
 40
0.045
309
GRIDFORMAT_END
 95
        4
302
GRIDFORMAT
  1
GRIDFORMAT_BEGIN
 90
        0
 91
        1
 62
     0
 92
       -2
340
11
 93
        0
 40
0.045
309
GRIDFORMAT_END
 95
        8
302
GRIDFORMAT
  1
GRIDFORMAT_BEGIN
 90
        0
 91
        1
 62
     0
 92
       -2
340
11
 93
        0
 40
0.045
309
GRIDFORMAT_END
 95
       16
302
GRIDFORMAT
  1
GRIDFORMAT_BEGIN
 90
        0
 91
        1
 62
     0
 92
       -2
340
11
 93
        0
 40
0.045
309
GRIDFORMAT_END
 95
       32
302
GRIDFORMAT
  1
GRIDFORMAT_BEGIN
 90
        0
 91
        1
 62
     0
 92
       -2
340
11
 93
        0
 40
0.045
309
GRIDFORMAT_END
309
TABLEFORMAT_END
  1
CELLSTYLE_BEGIN
 90
        1
 91
        1
300
_TITLE
309
CELLSTYLE_END
300
CELLSTYLE
  1
TABLEFORMAT_BEGIN
 90
        5
170
     1
 91
        0
 92
        0
 62
   257
 93
        1
300
CONTENTFORMAT
  1
CONTENTFORMAT_BEGIN
 90
        0
 91
        0
 92
        4
 93
        0
300

 40
0.0
140
1.0
 94
        5
 62
     0
340
17
144
0.18
309
CONTENTFORMAT_END
171
     1
301
MARGIN
  1
CELLMARGIN_BEGIN
 40
0.06
 40
0.06
 40
0.06
 40
0.06
 40
0.06
 40
0.06
309
CELLMARGIN_END
 94
        6
 95
        1
302
GRIDFORMAT
  1
GRIDFORMAT_BEGIN
 90
        0
 91
        1
 62
     0
 92
       -2
340
11
 93
        0
 40
0.045
309
GRIDFORMAT_END
 95
        2
302
GRIDFORMAT
  1
GRIDFORMAT_BEGIN
 90
        0
 91
        1
 62
     0
 92
       -2
340
11
 93
        0
 40
0.045
309
GRIDFORMAT_END
 95
        4
302
GRIDFORMAT
  1
GRIDFORMAT_BEGIN
 90
        0
 91
        1
 62
     0
 92
       -2
340
11
 93
        0
 40
0.045
309
GRIDFORMAT_END
 95
        8
302
GRIDFORMAT
  1
GRIDFORMAT_BEGIN
 90
        0
 91
        1
 62
     0
 92
       -2
340
11
 93
        0
 40
0.045
309
GRIDFORMAT_END
 95
       16
302
GRIDFORMAT
  1
GRIDFORMAT_BEGIN
 90
        0
 91
        1
 62
     0
 92
       -2
340
11
 93
        0
 40
0.045
309
GRIDFORMAT_END
 95
       32
302
GRIDFORMAT
  1
GRIDFORMAT_BEGIN
 90
        0
 91
        1
 62
     0
 92
       -2
340
11
 93
        0
 40
0.045
309
GRIDFORMAT_END
309
TABLEFORMAT_END
  1
CELLSTYLE_BEGIN
 90
        2
 91
        1
300
_HEADER
309
CELLSTYLE_END
300
CELLSTYLE
  1
TABLEFORMAT_BEGIN
 90
        5
170
     1
 91
        0
 92
        0
 62
   257
 93
        1
300
CONTENTFORMAT
  1
CONTENTFORMAT_BEGIN
 90
        0
 91
        0
 92
        4
 93
        0
300

 40
0.0
140
1.0
 94
        2
 62
     0
340
17
144
0.18
309
CONTENTFORMAT_END
171
     1
301
MARGIN
  1
CELLMARGIN_BEGIN
 40
0.06
 40
0.06
 40
0.06
 40
0.06
 40
0.06
 40
0.06
309
CELLMARGIN_END
 94
        6
 95
        1
302
GRIDFORMAT
  1
GRIDFORMAT_BEGIN
 90
        0
 91
        1
 62
     0
 92
       -2
340
11
 93
        0
 40
0.045
309
GRIDFORMAT_END
 95
        2
302
GRIDFORMAT
  1
GRIDFORMAT_BEGIN
 90
        0
 91
        1
 62
     0
 92
       -2
340
11
 93
        0
 40
0.045
309
GRIDFORMAT_END
 95
        4
302
GRIDFORMAT
  1
GRIDFORMAT_BEGIN
 90
        0
 91
        1
 62
     0
 92
       -2
340
11
 93
        0
 40
0.045
309
GRIDFORMAT_END
 95
        8
302
GRIDFORMAT
  1
GRIDFORMAT_BEGIN
 90
        0
 91
        1
 62
     0
 92
       -2
340
11
 93
        0
 40
0.045
309
GRIDFORMAT_END
 95
       16
302
GRIDFORMAT
  1
GRIDFORMAT_BEGIN
 90
        0
 91
        1
 62
     0
 92
       -2
340
11
 93
        0
 40
0.045
309
GRIDFORMAT_END
 95
       32
302
GRIDFORMAT
  1
GRIDFORMAT_BEGIN
 90
        0
 91
        1
 62
     0
 92
       -2
340
11
 93
        0
 40
0.045
309
GRIDFORMAT_END
309
TABLEFORMAT_END
  1
CELLSTYLE_BEGIN
 90
        3
 91
        2
300
_DATA
309
CELLSTYLE_END
  0
XRECORD
  5
11B
102
{ACAD_REACTORS
330
11A
102
}
330
11A
100
AcDbXrecord
280
     1
102
RTVSPost2010Prop28
280
     1
102
RTVSPost2010PropOp28
 70
     1
102
RTVSPost2010Prop29
280
     1
102
RTVSPost2010PropOp29
 70
     1
102
RTVSPost2010Prop30
280
     0
102
RTVSPost2010PropOp30
 70
     1
102
RTVSPost2010Prop31
280
     0
102
RTVSPost2010PropOp31
 70
     1
102
RTVSPost2010Prop32
280
     0
102
RTVSPost2010PropOp32
 70
     1
102
RTVSPost2010Prop33
280
     0
102
RTVSPost2010PropOp33
 70
     1
102
RTVSPost2010Prop34
280
     0
102
RTVSPost2010PropOp34
 70
     1
102
RTVSPost2010Prop35
280
     0
102
RTVSPost2010PropOp35
 70
     1
102
RTVSPost2010Prop36
280
     0
102
RTVSPost2010PropOp36
 70
     1
102
RTVSPost2010Prop37
 90
       50
102
RTVSPost2010PropOp37
 70
     1
102
RTVSPost2010Prop38
140
0.0
102
RTVSPost2010PropOp38
 70
     1
102
RTVSPost2010Prop39
140
1.0
102
RTVSPost2010PropOp39
 70
     1
102
RTVSPost2010Prop40
 90
        0
102
RTVSPost2010PropOp40
 70
     1
102
RTVSPost2010Prop41ColorIndex
 90
       18
102
RTVSPost2010Prop41ColorRGB
 90
        0
102
RTVSPost2010PropOp41
 70
     1
102
RTVSPost2010Prop42
 90
       50
102
RTVSPost2010PropOp42
 70
     1
102
RTVSPost2010Prop43
 90
        3
102
RTVSPost2010PropOp43
 70
     1
102
RTVSPost2010Prop44ColorIndex
 90
        5
102
RTVSPost2010Prop44ColorRGB
 90
      255
102
RTVSPost2010PropOp44
 70
     1
102
RTVSPost2010Prop45
280
     0
102
RTVSPost2010PropOp45
 70
     1
102
RTVSPost2010Prop46
 90
       50
102
RTVSPost2010PropOp46
 70
     1
102
RTVSPost2010Prop47
 90
       50
102
RTVSPost2010PropOp47
 70
     1
102
RTVSPost2010Prop48
 90
       50
102
RTVSPost2010PropOp48
 70
     1
102
RTVSPost2010Prop49
280
     0
102
RTVSPost2010PropOp49
 70
     1
102
RTVSPost2010Prop50
 90
       50
102
RTVSPost2010PropOp50
 70
     1
102
RTVSPost2010Prop51ColorIndex
 90
      256
102
RTVSPost2010Prop51ColorRGB
 90
-16777216
102
RTVSPost2010PropOp51
 70
     0
102
RTVSPost2010Prop52
140
1.0
102
RTVSPost2010PropOp52
 70
     0
102
RTVSPost2010Prop53
 90
        2
102
RTVSPost2010PropOp53
 70
     1
102
RTVSPost2010Prop54
  1
strokes_ogs.tif
102
RTVSPost2010PropOp54
 70
     1
102
RTVSPost2010Prop55
280
     0
102
RTVSPost2010PropOp55
 70
     1
102
RTVSPost2010Prop56
140
1.0
102
RTVSPost2010PropOp56
 70
     1
102
RTVSPost2010Prop57
140
1.0
102
RTVSPost2010PropOp57
 70
     1
  0
XRECORD
  5
121
102
{ACAD_REACTORS
330
120
102
}
330
120
100
AcDbXrecord
280
     1
102
RTVSPost2010Prop28
280
     0
102
RTVSPost2010PropOp28
 70
     1
102
RTVSPost2010Prop29
280
     1
102
RTVSPost2010PropOp29
 70
     1
102
RTVSPost2010Prop30
280
     1
102
RTVSPost2010PropOp30
 70
     1
102
RTVSPost2010Prop31
280
     0
102
RTVSPost2010PropOp31
 70
     1
102
RTVSPost2010Prop32
280
     0
102
RTVSPost2010PropOp32
 70
     1
102
RTVSPost2010Prop33
280
     0
102
RTVSPost2010PropOp33
 70
     1
102
RTVSPost2010Prop34
280
     0
102
RTVSPost2010PropOp34
 70
     1
102
RTVSPost2010Prop35
280
     0
102
RTVSPost2010PropOp35
 70
     1
102
RTVSPost2010Prop36
280
     0
102
RTVSPost2010PropOp36
 70
     1
102
RTVSPost2010Prop37
 90
       50
102
RTVSPost2010PropOp37
 70
     1
102
RTVSPost2010Prop38
140
0.0
102
RTVSPost2010PropOp38
 70
     1
102
RTVSPost2010Prop39
140
1.0
102
RTVSPost2010PropOp39
 70
     1
102
RTVSPost2010Prop40
 90
        0
102
RTVSPost2010PropOp40
 70
     1
102
RTVSPost2010Prop41ColorIndex
 90
       18
102
RTVSPost2010Prop41ColorRGB
 90
        0
102
RTVSPost2010PropOp41
 70
     1
102
RTVSPost2010Prop42
 90
       50
102
RTVSPost2010PropOp42
 70
     1
102
RTVSPost2010Prop43
 90
        3
102
RTVSPost2010PropOp43
 70
     1
102
RTVSPost2010Prop44ColorIndex
 90
        5
102
RTVSPost2010Prop44ColorRGB
 90
      255
102
RTVSPost2010PropOp44
 70
     1
102
RTVSPost2010Prop45
280
     0
102
RTVSPost2010PropOp45
 70
     1
102
RTVSPost2010Prop46
 90
       50
102
RTVSPost2010PropOp46
 70
     1
102
RTVSPost2010Prop47
 90
       50
102
RTVSPost2010PropOp47
 70
     1
102
RTVSPost2010Prop48
 90
       50
102
RTVSPost2010PropOp48
 70
     1
102
RTVSPost2010Prop49
280
     0
102
RTVSPost2010PropOp49
 70
     1
102
RTVSPost2010Prop50
 90
       50
102
RTVSPost2010PropOp50
 70
     1
102
RTVSPost2010Prop51ColorIndex
 90
      256
102
RTVSPost2010Prop51ColorRGB
 90
-16777216
102
RTVSPost2010PropOp51
 70
     0
102
RTVSPost2010Prop52
140
1.0
102
RTVSPost2010PropOp52
 70
     0
102
RTVSPost2010Prop53
 90
        2
102
RTVSPost2010PropOp53
 70
     1
102
RTVSPost2010Prop54
  1
strokes_ogs.tif
102
RTVSPost2010PropOp54
 70
     1
102
RTVSPost2010Prop55
280
     0
102
RTVSPost2010PropOp55
 70
     1
102
RTVSPost2010Prop56
140
1.0
102
RTVSPost2010PropOp56
 70
     1
102
RTVSPost2010Prop57
140
1.0
102
RTVSPost2010PropOp57
 70
     1
  0
XRECORD
  5
129
102
{ACAD_REACTORS
330
128
102
}
330
128
100
AcDbXrecord
280
     1
102
RTVSPost2010Prop28
280
     0
102
RTVSPost2010PropOp28
 70
     1
102
RTVSPost2010Prop29
280
     1
102
RTVSPost2010PropOp29
 70
     1
102
RTVSPost2010Prop30
280
     1
102
RTVSPost2010PropOp30
 70
     1
102
RTVSPost2010Prop31
280
     0
102
RTVSPost2010PropOp31
 70
     1
102
RTVSPost2010Prop32
280
     0
102
RTVSPost2010PropOp32
 70
     1
102
RTVSPost2010Prop33
280
     0
102
RTVSPost2010PropOp33
 70
     1
102
RTVSPost2010Prop34
280
     0
102
RTVSPost2010PropOp34
 70
     1
102
RTVSPost2010Prop35
280
     0
102
RTVSPost2010PropOp35
 70
     1
102
RTVSPost2010Prop36
280
     0
102
RTVSPost2010PropOp36
 70
     1
102
RTVSPost2010Prop37
 90
       50
102
RTVSPost2010PropOp37
 70
     1
102
RTVSPost2010Prop38
140
0.0
102
RTVSPost2010PropOp38
 70
     1
102
RTVSPost2010Prop39
140
1.0
102
RTVSPost2010PropOp39
 70
     1
102
RTVSPost2010Prop40
 90
        0
102
RTVSPost2010PropOp40
 70
     1
102
RTVSPost2010Prop41ColorIndex
 90
       18
102
RTVSPost2010Prop41ColorRGB
 90
        0
102
RTVSPost2010PropOp41
 70
     1
102
RTVSPost2010Prop42
 90
       50
102
RTVSPost2010PropOp42
 70
     1
102
RTVSPost2010Prop43
 90
        3
102
RTVSPost2010PropOp43
 70
     1
102
RTVSPost2010Prop44ColorIndex
 90
        5
102
RTVSPost2010Prop44ColorRGB
 90
      255
102
RTVSPost2010PropOp44
 70
     1
102
RTVSPost2010Prop45
280
     0
102
RTVSPost2010PropOp45
 70
     1
102
RTVSPost2010Prop46
 90
       50
102
RTVSPost2010PropOp46
 70
     1
102
RTVSPost2010Prop47
 90
       50
102
RTVSPost2010PropOp47
 70
     1
102
RTVSPost2010Prop48
 90
       50
102
RTVSPost2010PropOp48
 70
     1
102
RTVSPost2010Prop49
280
     0
102
RTVSPost2010PropOp49
 70
     1
102
RTVSPost2010Prop50
 90
       50
102
RTVSPost2010PropOp50
 70
     1
102
RTVSPost2010Prop51ColorIndex
 90
      256
102
RTVSPost2010Prop51ColorRGB
 90
-16777216
102
RTVSPost2010PropOp51
 70
     0
102
RTVSPost2010Prop52
140
1.0
102
RTVSPost2010PropOp52
 70
     0
102
RTVSPost2010Prop53
 90
        2
102
RTVSPost2010PropOp53
 70
     1
102
RTVSPost2010Prop54
  1
strokes_ogs.tif
102
RTVSPost2010PropOp54
 70
     1
102
RTVSPost2010Prop55
280
     0
102
RTVSPost2010PropOp55
 70
     1
102
RTVSPost2010Prop56
140
1.0
102
RTVSPost2010PropOp56
 70
     1
102
RTVSPost2010Prop57
140
1.0
102
RTVSPost2010PropOp57
 70
     1
  0
XRECORD
  5
131
102
{ACAD_REACTORS
330
130
102
}
330
130
100
AcDbXrecord
280
     1
102
RTVSPost2010Prop28
280
     0
102
RTVSPost2010PropOp28
 70
     1
102
RTVSPost2010Prop29
280
     1
102
RTVSPost2010PropOp29
 70
     1
102
RTVSPost2010Prop30
280
     1
102
RTVSPost2010PropOp30
 70
     1
102
RTVSPost2010Prop31
280
     0
102
RTVSPost2010PropOp31
 70
     1
102
RTVSPost2010Prop32
280
     0
102
RTVSPost2010PropOp32
 70
     1
102
RTVSPost2010Prop33
280
     0
102
RTVSPost2010PropOp33
 70
     1
102
RTVSPost2010Prop34
280
     0
102
RTVSPost2010PropOp34
 70
     1
102
RTVSPost2010Prop35
280
     0
102
RTVSPost2010PropOp35
 70
     1
102
RTVSPost2010Prop36
280
     0
102
RTVSPost2010PropOp36
 70
     1
102
RTVSPost2010Prop37
 90
       50
102
RTVSPost2010PropOp37
 70
     1
102
RTVSPost2010Prop38
140
0.0
102
RTVSPost2010PropOp38
 70
     1
102
RTVSPost2010Prop39
140
1.0
102
RTVSPost2010PropOp39
 70
     1
102
RTVSPost2010Prop40
 90
        0
102
RTVSPost2010PropOp40
 70
     1
102
RTVSPost2010Prop41ColorIndex
 90
       18
102
RTVSPost2010Prop41ColorRGB
 90
        0
102
RTVSPost2010PropOp41
 70
     1
102
RTVSPost2010Prop42
 90
       50
102
RTVSPost2010PropOp42
 70
     1
102
RTVSPost2010Prop43
 90
        3
102
RTVSPost2010PropOp43
 70
     1
102
RTVSPost2010Prop44ColorIndex
 90
        5
102
RTVSPost2010Prop44ColorRGB
 90
      255
102
RTVSPost2010PropOp44
 70
     1
102
RTVSPost2010Prop45
280
     0
102
RTVSPost2010PropOp45
 70
     1
102
RTVSPost2010Prop46
 90
       50
102
RTVSPost2010PropOp46
 70
     1
102
RTVSPost2010Prop47
 90
       50
102
RTVSPost2010PropOp47
 70
     1
102
RTVSPost2010Prop48
 90
       50
102
RTVSPost2010PropOp48
 70
     1
102
RTVSPost2010Prop49
280
     0
102
RTVSPost2010PropOp49
 70
     1
102
RTVSPost2010Prop50
 90
       50
102
RTVSPost2010PropOp50
 70
     1
102
RTVSPost2010Prop51ColorIndex
 90
      256
102
RTVSPost2010Prop51ColorRGB
 90
-16777216
102
RTVSPost2010PropOp51
 70
     0
102
RTVSPost2010Prop52
140
1.0
102
RTVSPost2010PropOp52
 70
     0
102
RTVSPost2010Prop53
 90
        2
102
RTVSPost2010PropOp53
 70
     1
102
RTVSPost2010Prop54
  1
strokes_ogs.tif
102
RTVSPost2010PropOp54
 70
     1
102
RTVSPost2010Prop55
280
     0
102
RTVSPost2010PropOp55
 70
     1
102
RTVSPost2010Prop56
140
1.0
102
RTVSPost2010PropOp56
 70
     1
102
RTVSPost2010Prop57
140
1.0
102
RTVSPost2010PropOp57
 70
     1
  0
XRECORD
  5
125
102
{ACAD_REACTORS
330
124
102
}
330
124
100
AcDbXrecord
280
     1
102
RTVSPost2010Prop28
280
     0
102
RTVSPost2010PropOp28
 70
     1
102
RTVSPost2010Prop29
280
     1
102
RTVSPost2010PropOp29
 70
     1
102
RTVSPost2010Prop30
280
     1
102
RTVSPost2010PropOp30
 70
     1
102
RTVSPost2010Prop31
280
     0
102
RTVSPost2010PropOp31
 70
     1
102
RTVSPost2010Prop32
280
     0
102
RTVSPost2010PropOp32
 70
     1
102
RTVSPost2010Prop33
280
     0
102
RTVSPost2010PropOp33
 70
     1
102
RTVSPost2010Prop34
280
     0
102
RTVSPost2010PropOp34
 70
     1
102
RTVSPost2010Prop35
280
     0
102
RTVSPost2010PropOp35
 70
     1
102
RTVSPost2010Prop36
280
     0
102
RTVSPost2010PropOp36
 70
     1
102
RTVSPost2010Prop37
 90
       50
102
RTVSPost2010PropOp37
 70
     1
102
RTVSPost2010Prop38
140
0.0
102
RTVSPost2010PropOp38
 70
     1
102
RTVSPost2010Prop39
140
1.0
102
RTVSPost2010PropOp39
 70
     1
102
RTVSPost2010Prop40
 90
        0
102
RTVSPost2010PropOp40
 70
     1
102
RTVSPost2010Prop41ColorIndex
 90
       18
102
RTVSPost2010Prop41ColorRGB
 90
        0
102
RTVSPost2010PropOp41
 70
     1
102
RTVSPost2010Prop42
 90
       50
102
RTVSPost2010PropOp42
 70
     1
102
RTVSPost2010Prop43
 90
        3
102
RTVSPost2010PropOp43
 70
     1
102
RTVSPost2010Prop44ColorIndex
 90
        5
102
RTVSPost2010Prop44ColorRGB
 90
      255
102
RTVSPost2010PropOp44
 70
     1
102
RTVSPost2010Prop45
280
     0
102
RTVSPost2010PropOp45
 70
     1
102
RTVSPost2010Prop46
 90
       50
102
RTVSPost2010PropOp46
 70
     1
102
RTVSPost2010Prop47
 90
       50
102
RTVSPost2010PropOp47
 70
     1
102
RTVSPost2010Prop48
 90
       50
102
RTVSPost2010PropOp48
 70
     1
102
RTVSPost2010Prop49
280
     0
102
RTVSPost2010PropOp49
 70
     1
102
RTVSPost2010Prop50
 90
       50
102
RTVSPost2010PropOp50
 70
     1
102
RTVSPost2010Prop51ColorIndex
 90
      256
102
RTVSPost2010Prop51ColorRGB
 90
-16777216
102
RTVSPost2010PropOp51
 70
     0
102
RTVSPost2010Prop52
140
1.0
102
RTVSPost2010PropOp52
 70
     0
102
RTVSPost2010Prop53
 90
        2
102
RTVSPost2010PropOp53
 70
     1
102
RTVSPost2010Prop54
  1
strokes_ogs.tif
102
RTVSPost2010PropOp54
 70
     1
102
RTVSPost2010Prop55
280
     0
102
RTVSPost2010PropOp55
 70
     1
102
RTVSPost2010Prop56
140
1.0
102
RTVSPost2010PropOp56
 70
     1
102
RTVSPost2010Prop57
140
1.0
102
RTVSPost2010PropOp57
 70
     1
  0
XRECORD
  5
127
102
{ACAD_REACTORS
330
126
102
}
330
126
100
AcDbXrecord
280
     1
102
RTVSPost2010Prop28
280
     0
102
RTVSPost2010PropOp28
 70
     1
102
RTVSPost2010Prop29
280
     1
102
RTVSPost2010PropOp29
 70
     1
102
RTVSPost2010Prop30
280
     1
102
RTVSPost2010PropOp30
 70
     1
102
RTVSPost2010Prop31
280
     0
102
RTVSPost2010PropOp31
 70
     1
102
RTVSPost2010Prop32
280
     0
102
RTVSPost2010PropOp32
 70
     1
102
RTVSPost2010Prop33
280
     0
102
RTVSPost2010PropOp33
 70
     1
102
RTVSPost2010Prop34
280
     0
102
RTVSPost2010PropOp34
 70
     1
102
RTVSPost2010Prop35
280
     0
102
RTVSPost2010PropOp35
 70
     1
102
RTVSPost2010Prop36
280
     0
102
RTVSPost2010PropOp36
 70
     1
102
RTVSPost2010Prop37
 90
       50
102
RTVSPost2010PropOp37
 70
     1
102
RTVSPost2010Prop38
140
0.0
102
RTVSPost2010PropOp38
 70
     1
102
RTVSPost2010Prop39
140
1.0
102
RTVSPost2010PropOp39
 70
     1
102
RTVSPost2010Prop40
 90
        0
102
RTVSPost2010PropOp40
 70
     1
102
RTVSPost2010Prop41ColorIndex
 90
       18
102
RTVSPost2010Prop41ColorRGB
 90
        0
102
RTVSPost2010PropOp41
 70
     1
102
RTVSPost2010Prop42
 90
       50
102
RTVSPost2010PropOp42
 70
     1
102
RTVSPost2010Prop43
 90
        3
102
RTVSPost2010PropOp43
 70
     1
102
RTVSPost2010Prop44ColorIndex
 90
        5
102
RTVSPost2010Prop44ColorRGB
 90
      255
102
RTVSPost2010PropOp44
 70
     1
102
RTVSPost2010Prop45
280
     0
102
RTVSPost2010PropOp45
 70
     1
102
RTVSPost2010Prop46
 90
       50
102
RTVSPost2010PropOp46
 70
     1
102
RTVSPost2010Prop47
 90
       50
102
RTVSPost2010PropOp47
 70
     1
102
RTVSPost2010Prop48
 90
       50
102
RTVSPost2010PropOp48
 70
     1
102
RTVSPost2010Prop49
280
     0
102
RTVSPost2010PropOp49
 70
     1
102
RTVSPost2010Prop50
 90
       50
102
RTVSPost2010PropOp50
 70
     1
102
RTVSPost2010Prop51ColorIndex
 90
      256
102
RTVSPost2010Prop51ColorRGB
 90
-16777216
102
RTVSPost2010PropOp51
 70
     0
102
RTVSPost2010Prop52
140
1.0
102
RTVSPost2010PropOp52
 70
     0
102
RTVSPost2010Prop53
 90
        2
102
RTVSPost2010PropOp53
 70
     1
102
RTVSPost2010Prop54
  1
strokes_ogs.tif
102
RTVSPost2010PropOp54
 70
     1
102
RTVSPost2010Prop55
280
     0
102
RTVSPost2010PropOp55
 70
     1
102
RTVSPost2010Prop56
140
1.0
102
RTVSPost2010PropOp56
 70
     1
102
RTVSPost2010Prop57
140
1.0
102
RTVSPost2010PropOp57
 70
     1
  0
XRECORD
  5
137
102
{ACAD_REACTORS
330
136
102
}
330
136
100
AcDbXrecord
280
     1
102
RTVSPost2010Prop28
280
     0
102
RTVSPost2010PropOp28
 70
     0
102
RTVSPost2010Prop29
280
     1
102
RTVSPost2010PropOp29
 70
     0
102
RTVSPost2010Prop30
280
     1
102
RTVSPost2010PropOp30
 70
     0
102
RTVSPost2010Prop31
280
     0
102
RTVSPost2010PropOp31
 70
     0
102
RTVSPost2010Prop32
280
     0
102
RTVSPost2010PropOp32
 70
     0
102
RTVSPost2010Prop33
280
     0
102
RTVSPost2010PropOp33
 70
     0
102
RTVSPost2010Prop34
280
     0
102
RTVSPost2010PropOp34
 70
     0
102
RTVSPost2010Prop35
280
     0
102
RTVSPost2010PropOp35
 70
     0
102
RTVSPost2010Prop36
280
     0
102
RTVSPost2010PropOp36
 70
     0
102
RTVSPost2010Prop37
 90
       50
102
RTVSPost2010PropOp37
 70
     0
102
RTVSPost2010Prop38
140
0.0
102
RTVSPost2010PropOp38
 70
     0
102
RTVSPost2010Prop39
140
1.0
102
RTVSPost2010PropOp39
 70
     0
102
RTVSPost2010Prop40
 90
        0
102
RTVSPost2010PropOp40
 70
     0
102
RTVSPost2010Prop41ColorIndex
 90
       18
102
RTVSPost2010Prop41ColorRGB
 90
        0
102
RTVSPost2010PropOp41
 70
     0
102
RTVSPost2010Prop42
 90
       50
102
RTVSPost2010PropOp42
 70
     0
102
RTVSPost2010Prop43
 90
        3
102
RTVSPost2010PropOp43
 70
     0
102
RTVSPost2010Prop44ColorIndex
 90
        5
102
RTVSPost2010Prop44ColorRGB
 90
      255
102
RTVSPost2010PropOp44
 70
     0
102
RTVSPost2010Prop45
280
     0
102
RTVSPost2010PropOp45
 70
     0
102
RTVSPost2010Prop46
 90
       50
102
RTVSPost2010PropOp46
 70
     0
102
RTVSPost2010Prop47
 90
       50
102
RTVSPost2010PropOp47
 70
     0
102
RTVSPost2010Prop48
 90
       50
102
RTVSPost2010PropOp48
 70
     0
102
RTVSPost2010Prop49
280
     0
102
RTVSPost2010PropOp49
 70
     0
102
RTVSPost2010Prop50
 90
       50
102
RTVSPost2010PropOp50
 70
     0
102
RTVSPost2010Prop51ColorIndex
 90
      256
102
RTVSPost2010Prop51ColorRGB
 90
-16777216
102
RTVSPost2010PropOp51
 70
     0
102
RTVSPost2010Prop52
140
1.0
102
RTVSPost2010PropOp52
 70
     0
102
RTVSPost2010Prop53
 90
        2
102
RTVSPost2010PropOp53
 70
     0
102
RTVSPost2010Prop54
  1
strokes_ogs.tif
102
RTVSPost2010PropOp54
 70
     0
102
RTVSPost2010Prop55
280
     0
102
RTVSPost2010PropOp55
 70
     0
102
RTVSPost2010Prop56
140
1.0
102
RTVSPost2010PropOp56
 70
     0
102
RTVSPost2010Prop57
140
1.0
102
RTVSPost2010PropOp57
 70
     0
  0
XRECORD
  5
12F
102
{ACAD_REACTORS
330
12E
102
}
330
12E
100
AcDbXrecord
280
     1
102
RTVSPost2010Prop28
280
     0
102
RTVSPost2010PropOp28
 70
     1
102
RTVSPost2010Prop29
280
     1
102
RTVSPost2010PropOp29
 70
     1
102
RTVSPost2010Prop30
280
     1
102
RTVSPost2010PropOp30
 70
     1
102
RTVSPost2010Prop31
280
     0
102
RTVSPost2010PropOp31
 70
     1
102
RTVSPost2010Prop32
280
     0
102
RTVSPost2010PropOp32
 70
     1
102
RTVSPost2010Prop33
280
     0
102
RTVSPost2010PropOp33
 70
     1
102
RTVSPost2010Prop34
280
     0
102
RTVSPost2010PropOp34
 70
     1
102
RTVSPost2010Prop35
280
     0
102
RTVSPost2010PropOp35
 70
     1
102
RTVSPost2010Prop36
280
     0
102
RTVSPost2010PropOp36
 70
     1
102
RTVSPost2010Prop37
 90
       50
102
RTVSPost2010PropOp37
 70
     1
102
RTVSPost2010Prop38
140
0.0
102
RTVSPost2010PropOp38
 70
     1
102
RTVSPost2010Prop39
140
1.0
102
RTVSPost2010PropOp39
 70
     1
102
RTVSPost2010Prop40
 90
        0
102
RTVSPost2010PropOp40
 70
     1
102
RTVSPost2010Prop41ColorIndex
 90
       18
102
RTVSPost2010Prop41ColorRGB
 90
        0
102
RTVSPost2010PropOp41
 70
     1
102
RTVSPost2010Prop42
 90
       50
102
RTVSPost2010PropOp42
 70
     1
102
RTVSPost2010Prop43
 90
        3
102
RTVSPost2010PropOp43
 70
     1
102
RTVSPost2010Prop44ColorIndex
 90
        5
102
RTVSPost2010Prop44ColorRGB
 90
      255
102
RTVSPost2010PropOp44
 70
     1
102
RTVSPost2010Prop45
280
     0
102
RTVSPost2010PropOp45
 70
     1
102
RTVSPost2010Prop46
 90
       50
102
RTVSPost2010PropOp46
 70
     1
102
RTVSPost2010Prop47
 90
       50
102
RTVSPost2010PropOp47
 70
     1
102
RTVSPost2010Prop48
 90
       50
102
RTVSPost2010PropOp48
 70
     1
102
RTVSPost2010Prop49
280
     0
102
RTVSPost2010PropOp49
 70
     1
102
RTVSPost2010Prop50
 90
       50
102
RTVSPost2010PropOp50
 70
     1
102
RTVSPost2010Prop51ColorIndex
 90
      256
102
RTVSPost2010Prop51ColorRGB
 90
-16777216
102
RTVSPost2010PropOp51
 70
     0
102
RTVSPost2010Prop52
140
1.0
102
RTVSPost2010PropOp52
 70
     0
102
RTVSPost2010Prop53
 90
        2
102
RTVSPost2010PropOp53
 70
     1
102
RTVSPost2010Prop54
  1
strokes_ogs.tif
102
RTVSPost2010PropOp54
 70
     1
102
RTVSPost2010Prop55
280
     0
102
RTVSPost2010PropOp55
 70
     1
102
RTVSPost2010Prop56
140
1.0
102
RTVSPost2010PropOp56
 70
     1
102
RTVSPost2010Prop57
140
1.0
102
RTVSPost2010PropOp57
 70
     1
  0
XRECORD
  5
113
102
{ACAD_REACTORS
330
112
102
}
330
112
100
AcDbXrecord
280
     1
102
RTVSPost2010Prop28
280
     0
102
RTVSPost2010PropOp28
 70
     1
102
RTVSPost2010Prop29
280
     1
102
RTVSPost2010PropOp29
 70
     1
102
RTVSPost2010Prop30
280
     1
102
RTVSPost2010PropOp30
 70
     1
102
RTVSPost2010Prop31
280
     0
102
RTVSPost2010PropOp31
 70
     1
102
RTVSPost2010Prop32
280
     0
102
RTVSPost2010PropOp32
 70
     1
102
RTVSPost2010Prop33
280
     0
102
RTVSPost2010PropOp33
 70
     1
102
RTVSPost2010Prop34
280
     0
102
RTVSPost2010PropOp34
 70
     1
102
RTVSPost2010Prop35
280
     0
102
RTVSPost2010PropOp35
 70
     1
102
RTVSPost2010Prop36
280
     0
102
RTVSPost2010PropOp36
 70
     1
102
RTVSPost2010Prop37
 90
       50
102
RTVSPost2010PropOp37
 70
     1
102
RTVSPost2010Prop38
140
0.0
102
RTVSPost2010PropOp38
 70
     1
102
RTVSPost2010Prop39
140
1.0
102
RTVSPost2010PropOp39
 70
     1
102
RTVSPost2010Prop40
 90
        0
102
RTVSPost2010PropOp40
 70
     1
102
RTVSPost2010Prop41ColorIndex
 90
       18
102
RTVSPost2010Prop41ColorRGB
 90
        0
102
RTVSPost2010PropOp41
 70
     1
102
RTVSPost2010Prop42
 90
       50
102
RTVSPost2010PropOp42
 70
     1
102
RTVSPost2010Prop43
 90
        3
102
RTVSPost2010PropOp43
 70
     1
102
RTVSPost2010Prop44ColorIndex
 90
        5
102
RTVSPost2010Prop44ColorRGB
 90
      255
102
RTVSPost2010PropOp44
 70
     1
102
RTVSPost2010Prop45
280
     0
102
RTVSPost2010PropOp45
 70
     1
102
RTVSPost2010Prop46
 90
       50
102
RTVSPost2010PropOp46
 70
     1
102
RTVSPost2010Prop47
 90
       50
102
RTVSPost2010PropOp47
 70
     1
102
RTVSPost2010Prop48
 90
       50
102
RTVSPost2010PropOp48
 70
     1
102
RTVSPost2010Prop49
280
     0
102
RTVSPost2010PropOp49
 70
     1
102
RTVSPost2010Prop50
 90
       50
102
RTVSPost2010PropOp50
 70
     1
102
RTVSPost2010Prop51ColorIndex
 90
      256
102
RTVSPost2010Prop51ColorRGB
 90
-16777216
102
RTVSPost2010PropOp51
 70
     0
102
RTVSPost2010Prop52
140
1.0
102
RTVSPost2010PropOp52
 70
     0
102
RTVSPost2010Prop53
 90
        2
102
RTVSPost2010PropOp53
 70
     1
102
RTVSPost2010Prop54
  1
strokes_ogs.tif
102
RTVSPost2010PropOp54
 70
     1
102
RTVSPost2010Prop55
280
     0
102
RTVSPost2010PropOp55
 70
     1
102
RTVSPost2010Prop56
140
1.0
102
RTVSPost2010PropOp56
 70
     1
102
RTVSPost2010Prop57
140
1.0
102
RTVSPost2010PropOp57
 70
     1
  0
XRECORD
  5
115
102
{ACAD_REACTORS
330
114
102
}
330
114
100
AcDbXrecord
280
     1
102
RTVSPost2010Prop28
280
     0
102
RTVSPost2010PropOp28
 70
     1
102
RTVSPost2010Prop29
280
     1
102
RTVSPost2010PropOp29
 70
     1
102
RTVSPost2010Prop30
280
     1
102
RTVSPost2010PropOp30
 70
     1
102
RTVSPost2010Prop31
280
     0
102
RTVSPost2010PropOp31
 70
     1
102
RTVSPost2010Prop32
280
     0
102
RTVSPost2010PropOp32
 70
     1
102
RTVSPost2010Prop33
280
     0
102
RTVSPost2010PropOp33
 70
     1
102
RTVSPost2010Prop34
280
     0
102
RTVSPost2010PropOp34
 70
     1
102
RTVSPost2010Prop35
280
     0
102
RTVSPost2010PropOp35
 70
     1
102
RTVSPost2010Prop36
280
     0
102
RTVSPost2010PropOp36
 70
     1
102
RTVSPost2010Prop37
 90
       50
102
RTVSPost2010PropOp37
 70
     1
102
RTVSPost2010Prop38
140
0.0
102
RTVSPost2010PropOp38
 70
     1
102
RTVSPost2010Prop39
140
1.0
102
RTVSPost2010PropOp39
 70
     1
102
RTVSPost2010Prop40
 90
        0
102
RTVSPost2010PropOp40
 70
     1
102
RTVSPost2010Prop41ColorIndex
 90
       18
102
RTVSPost2010Prop41ColorRGB
 90
        0
102
RTVSPost2010PropOp41
 70
     1
102
RTVSPost2010Prop42
 90
       50
102
RTVSPost2010PropOp42
 70
     1
102
RTVSPost2010Prop43
 90
        3
102
RTVSPost2010PropOp43
 70
     1
102
RTVSPost2010Prop44ColorIndex
 90
        5
102
RTVSPost2010Prop44ColorRGB
 90
      255
102
RTVSPost2010PropOp44
 70
     1
102
RTVSPost2010Prop45
280
     0
102
RTVSPost2010PropOp45
 70
     1
102
RTVSPost2010Prop46
 90
       50
102
RTVSPost2010PropOp46
 70
     1
102
RTVSPost2010Prop47
 90
       50
102
RTVSPost2010PropOp47
 70
     1
102
RTVSPost2010Prop48
 90
       50
102
RTVSPost2010PropOp48
 70
     1
102
RTVSPost2010Prop49
280
     0
102
RTVSPost2010PropOp49
 70
     1
102
RTVSPost2010Prop50
 90
       50
102
RTVSPost2010PropOp50
 70
     1
102
RTVSPost2010Prop51ColorIndex
 90
      256
102
RTVSPost2010Prop51ColorRGB
 90
-16777216
102
RTVSPost2010PropOp51
 70
     0
102
RTVSPost2010Prop52
140
1.0
102
RTVSPost2010PropOp52
 70
     0
102
RTVSPost2010Prop53
 90
        2
102
RTVSPost2010PropOp53
 70
     1
102
RTVSPost2010Prop54
  1
strokes_ogs.tif
102
RTVSPost2010PropOp54
 70
     1
102
RTVSPost2010Prop55
280
     0
102
RTVSPost2010PropOp55
 70
     1
102
RTVSPost2010Prop56
140
1.0
102
RTVSPost2010PropOp56
 70
     1
102
RTVSPost2010Prop57
140
1.0
102
RTVSPost2010PropOp57
 70
     1
  0
XRECORD
  5
117
102
{ACAD_REACTORS
330
116
102
}
330
116
100
AcDbXrecord
280
     1
102
RTVSPost2010Prop28
280
     0
102
RTVSPost2010PropOp28
 70
     1
102
RTVSPost2010Prop29
280
     1
102
RTVSPost2010PropOp29
 70
     1
102
RTVSPost2010Prop30
280
     1
102
RTVSPost2010PropOp30
 70
     1
102
RTVSPost2010Prop31
280
     0
102
RTVSPost2010PropOp31
 70
     1
102
RTVSPost2010Prop32
280
     0
102
RTVSPost2010PropOp32
 70
     1
102
RTVSPost2010Prop33
280
     0
102
RTVSPost2010PropOp33
 70
     1
102
RTVSPost2010Prop34
280
     0
102
RTVSPost2010PropOp34
 70
     1
102
RTVSPost2010Prop35
280
     0
102
RTVSPost2010PropOp35
 70
     1
102
RTVSPost2010Prop36
280
     0
102
RTVSPost2010PropOp36
 70
     1
102
RTVSPost2010Prop37
 90
       50
102
RTVSPost2010PropOp37
 70
     1
102
RTVSPost2010Prop38
140
0.0
102
RTVSPost2010PropOp38
 70
     1
102
RTVSPost2010Prop39
140
1.0
102
RTVSPost2010PropOp39
 70
     1
102
RTVSPost2010Prop40
 90
        0
102
RTVSPost2010PropOp40
 70
     1
102
RTVSPost2010Prop41ColorIndex
 90
       18
102
RTVSPost2010Prop41ColorRGB
 90
        0
102
RTVSPost2010PropOp41
 70
     1
102
RTVSPost2010Prop42
 90
       50
102
RTVSPost2010PropOp42
 70
     1
102
RTVSPost2010Prop43
 90
        3
102
RTVSPost2010PropOp43
 70
     1
102
RTVSPost2010Prop44ColorIndex
 90
        5
102
RTVSPost2010Prop44ColorRGB
 90
      255
102
RTVSPost2010PropOp44
 70
     1
102
RTVSPost2010Prop45
280
     0
102
RTVSPost2010PropOp45
 70
     1
102
RTVSPost2010Prop46
 90
       50
102
RTVSPost2010PropOp46
 70
     1
102
RTVSPost2010Prop47
 90
       50
102
RTVSPost2010PropOp47
 70
     1
102
RTVSPost2010Prop48
 90
       50
102
RTVSPost2010PropOp48
 70
     1
102
RTVSPost2010Prop49
280
     0
102
RTVSPost2010PropOp49
 70
     1
102
RTVSPost2010Prop50
 90
       50
102
RTVSPost2010PropOp50
 70
     1
102
RTVSPost2010Prop51ColorIndex
 90
      256
102
RTVSPost2010Prop51ColorRGB
 90
-16777216
102
RTVSPost2010PropOp51
 70
     0
102
RTVSPost2010Prop52
140
1.0
102
RTVSPost2010PropOp52
 70
     0
102
RTVSPost2010Prop53
 90
        2
102
RTVSPost2010PropOp53
 70
     1
102
RTVSPost2010Prop54
  1
strokes_ogs.tif
102
RTVSPost2010PropOp54
 70
     1
102
RTVSPost2010Prop55
280
     0
102
RTVSPost2010PropOp55
 70
     1
102
RTVSPost2010Prop56
140
1.0
102
RTVSPost2010PropOp56
 70
     1
102
RTVSPost2010Prop57
140
1.0
102
RTVSPost2010PropOp57
 70
     1
  0
XRECORD
  5
119
102
{ACAD_REACTORS
330
118
102
}
330
118
100
AcDbXrecord
280
     1
102
RTVSPost2010Prop28
280
     0
102
RTVSPost2010PropOp28
 70
     1
102
RTVSPost2010Prop29
280
     1
102
RTVSPost2010PropOp29
 70
     1
102
RTVSPost2010Prop30
280
     1
102
RTVSPost2010PropOp30
 70
     1
102
RTVSPost2010Prop31
280
     0
102
RTVSPost2010PropOp31
 70
     1
102
RTVSPost2010Prop32
280
     0
102
RTVSPost2010PropOp32
 70
     1
102
RTVSPost2010Prop33
280
     0
102
RTVSPost2010PropOp33
 70
     1
102
RTVSPost2010Prop34
280
     0
102
RTVSPost2010PropOp34
 70
     1
102
RTVSPost2010Prop35
280
     0
102
RTVSPost2010PropOp35
 70
     1
102
RTVSPost2010Prop36
280
     0
102
RTVSPost2010PropOp36
 70
     1
102
RTVSPost2010Prop37
 90
       50
102
RTVSPost2010PropOp37
 70
     1
102
RTVSPost2010Prop38
140
0.0
102
RTVSPost2010PropOp38
 70
     1
102
RTVSPost2010Prop39
140
1.0
102
RTVSPost2010PropOp39
 70
     1
102
RTVSPost2010Prop40
 90
        0
102
RTVSPost2010PropOp40
 70
     1
102
RTVSPost2010Prop41ColorIndex
 90
       18
102
RTVSPost2010Prop41ColorRGB
 90
        0
102
RTVSPost2010PropOp41
 70
     1
102
RTVSPost2010Prop42
 90
       50
102
RTVSPost2010PropOp42
 70
     1
102
RTVSPost2010Prop43
 90
        3
102
RTVSPost2010PropOp43
 70
     1
102
RTVSPost2010Prop44ColorIndex
 90
        5
102
RTVSPost2010Prop44ColorRGB
 90
      255
102
RTVSPost2010PropOp44
 70
     1
102
RTVSPost2010Prop45
280
     0
102
RTVSPost2010PropOp45
 70
     1
102
RTVSPost2010Prop46
 90
       50
102
RTVSPost2010PropOp46
 70
     1
102
RTVSPost2010Prop47
 90
       50
102
RTVSPost2010PropOp47
 70
     1
102
RTVSPost2010Prop48
 90
       50
102
RTVSPost2010PropOp48
 70
     1
102
RTVSPost2010Prop49
280
     0
102
RTVSPost2010PropOp49
 70
     1
102
RTVSPost2010Prop50
 90
       50
102
RTVSPost2010PropOp50
 70
     1
102
RTVSPost2010Prop51ColorIndex
 90
      256
102
RTVSPost2010Prop51ColorRGB
 90
-16777216
102
RTVSPost2010PropOp51
 70
     0
102
RTVSPost2010Prop52
140
1.0
102
RTVSPost2010PropOp52
 70
     0
102
RTVSPost2010Prop53
 90
        2
102
RTVSPost2010PropOp53
 70
     1
102
RTVSPost2010Prop54
  1
strokes_ogs.tif
102
RTVSPost2010PropOp54
 70
     1
102
RTVSPost2010Prop55
280
     0
102
RTVSPost2010PropOp55
 70
     1
102
RTVSPost2010Prop56
140
1.0
102
RTVSPost2010PropOp56
 70
     1
102
RTVSPost2010Prop57
140
1.0
102
RTVSPost2010PropOp57
 70
     1
  0
XRECORD
  5
11F
102
{ACAD_REACTORS
330
11E
102
}
330
11E
100
AcDbXrecord
280
     1
102
RTVSPost2010Prop28
280
     0
102
RTVSPost2010PropOp28
 70
     1
102
RTVSPost2010Prop29
280
     1
102
RTVSPost2010PropOp29
 70
     1
102
RTVSPost2010Prop30
280
     1
102
RTVSPost2010PropOp30
 70
     1
102
RTVSPost2010Prop31
280
     0
102
RTVSPost2010PropOp31
 70
     1
102
RTVSPost2010Prop32
280
     0
102
RTVSPost2010PropOp32
 70
     1
102
RTVSPost2010Prop33
280
     0
102
RTVSPost2010PropOp33
 70
     1
102
RTVSPost2010Prop34
280
     0
102
RTVSPost2010PropOp34
 70
     1
102
RTVSPost2010Prop35
280
     0
102
RTVSPost2010PropOp35
 70
     1
102
RTVSPost2010Prop36
280
     0
102
RTVSPost2010PropOp36
 70
     1
102
RTVSPost2010Prop37
 90
       50
102
RTVSPost2010PropOp37
 70
     1
102
RTVSPost2010Prop38
140
0.0
102
RTVSPost2010PropOp38
 70
     1
102
RTVSPost2010Prop39
140
1.0
102
RTVSPost2010PropOp39
 70
     1
102
RTVSPost2010Prop40
 90
        0
102
RTVSPost2010PropOp40
 70
     1
102
RTVSPost2010Prop41ColorIndex
 90
       18
102
RTVSPost2010Prop41ColorRGB
 90
        0
102
RTVSPost2010PropOp41
 70
     1
102
RTVSPost2010Prop42
 90
       50
102
RTVSPost2010PropOp42
 70
     1
102
RTVSPost2010Prop43
 90
        3
102
RTVSPost2010PropOp43
 70
     1
102
RTVSPost2010Prop44ColorIndex
 90
        5
102
RTVSPost2010Prop44ColorRGB
 90
      255
102
RTVSPost2010PropOp44
 70
     1
102
RTVSPost2010Prop45
280
     0
102
RTVSPost2010PropOp45
 70
     1
102
RTVSPost2010Prop46
 90
       50
102
RTVSPost2010PropOp46
 70
     1
102
RTVSPost2010Prop47
 90
       50
102
RTVSPost2010PropOp47
 70
     1
102
RTVSPost2010Prop48
 90
       50
102
RTVSPost2010PropOp48
 70
     1
102
RTVSPost2010Prop49
280
     0
102
RTVSPost2010PropOp49
 70
     1
102
RTVSPost2010Prop50
 90
       50
102
RTVSPost2010PropOp50
 70
     1
102
RTVSPost2010Prop51ColorIndex
 90
      256
102
RTVSPost2010Prop51ColorRGB
 90
-16777216
102
RTVSPost2010PropOp51
 70
     0
102
RTVSPost2010Prop52
140
1.0
102
RTVSPost2010PropOp52
 70
     0
102
RTVSPost2010Prop53
 90
        2
102
RTVSPost2010PropOp53
 70
     1
102
RTVSPost2010Prop54
  1
strokes_ogs.tif
102
RTVSPost2010PropOp54
 70
     1
102
RTVSPost2010Prop55
280
     0
102
RTVSPost2010PropOp55
 70
     1
102
RTVSPost2010Prop56
140
1.0
102
RTVSPost2010PropOp56
 70
     1
102
RTVSPost2010Prop57
140
1.0
102
RTVSPost2010PropOp57
 70
     1
  0
XRECORD
  5
133
102
{ACAD_REACTORS
330
132
102
}
330
132
100
AcDbXrecord
280
     1
102
RTVSPost2010Prop28
280
     0
102
RTVSPost2010PropOp28
 70
     0
102
RTVSPost2010Prop29
280
     1
102
RTVSPost2010PropOp29
 70
     0
102
RTVSPost2010Prop30
280
     1
102
RTVSPost2010PropOp30
 70
     0
102
RTVSPost2010Prop31
280
     0
102
RTVSPost2010PropOp31
 70
     0
102
RTVSPost2010Prop32
280
     0
102
RTVSPost2010PropOp32
 70
     0
102
RTVSPost2010Prop33
280
     0
102
RTVSPost2010PropOp33
 70
     0
102
RTVSPost2010Prop34
280
     0
102
RTVSPost2010PropOp34
 70
     0
102
RTVSPost2010Prop35
280
     0
102
RTVSPost2010PropOp35
 70
     0
102
RTVSPost2010Prop36
280
     0
102
RTVSPost2010PropOp36
 70
     0
102
RTVSPost2010Prop37
 90
       50
102
RTVSPost2010PropOp37
 70
     0
102
RTVSPost2010Prop38
140
0.0
102
RTVSPost2010PropOp38
 70
     0
102
RTVSPost2010Prop39
140
1.0
102
RTVSPost2010PropOp39
 70
     0
102
RTVSPost2010Prop40
 90
        0
102
RTVSPost2010PropOp40
 70
     0
102
RTVSPost2010Prop41ColorIndex
 90
       18
102
RTVSPost2010Prop41ColorRGB
 90
        0
102
RTVSPost2010PropOp41
 70
     0
102
RTVSPost2010Prop42
 90
       50
102
RTVSPost2010PropOp42
 70
     0
102
RTVSPost2010Prop43
 90
        3
102
RTVSPost2010PropOp43
 70
     0
102
RTVSPost2010Prop44ColorIndex
 90
        5
102
RTVSPost2010Prop44ColorRGB
 90
      255
102
RTVSPost2010PropOp44
 70
     0
102
RTVSPost2010Prop45
280
     0
102
RTVSPost2010PropOp45
 70
     0
102
RTVSPost2010Prop46
 90
       50
102
RTVSPost2010PropOp46
 70
     0
102
RTVSPost2010Prop47
 90
       50
102
RTVSPost2010PropOp47
 70
     0
102
RTVSPost2010Prop48
 90
       50
102
RTVSPost2010PropOp48
 70
     0
102
RTVSPost2010Prop49
280
     0
102
RTVSPost2010PropOp49
 70
     0
102
RTVSPost2010Prop50
 90
       50
102
RTVSPost2010PropOp50
 70
     0
102
RTVSPost2010Prop51ColorIndex
 90
      256
102
RTVSPost2010Prop51ColorRGB
 90
-16777216
102
RTVSPost2010PropOp51
 70
     0
102
RTVSPost2010Prop52
140
1.0
102
RTVSPost2010PropOp52
 70
     0
102
RTVSPost2010Prop53
 90
        2
102
RTVSPost2010PropOp53
 70
     0
102
RTVSPost2010Prop54
  1
strokes_ogs.tif
102
RTVSPost2010PropOp54
 70
     0
102
RTVSPost2010Prop55
280
     0
102
RTVSPost2010PropOp55
 70
     0
102
RTVSPost2010Prop56
140
1.0
102
RTVSPost2010PropOp56
 70
     0
102
RTVSPost2010Prop57
140
1.0
102
RTVSPost2010PropOp57
 70
     0
  0
XRECORD
  5
12D
102
{ACAD_REACTORS
330
12C
102
}
330
12C
100
AcDbXrecord
280
     1
102
RTVSPost2010Prop28
280
     0
102
RTVSPost2010PropOp28
 70
     1
102
RTVSPost2010Prop29
280
     1
102
RTVSPost2010PropOp29
 70
     1
102
RTVSPost2010Prop30
280
     1
102
RTVSPost2010PropOp30
 70
     1
102
RTVSPost2010Prop31
280
     0
102
RTVSPost2010PropOp31
 70
     1
102
RTVSPost2010Prop32
280
     0
102
RTVSPost2010PropOp32
 70
     1
102
RTVSPost2010Prop33
280
     0
102
RTVSPost2010PropOp33
 70
     1
102
RTVSPost2010Prop34
280
     0
102
RTVSPost2010PropOp34
 70
     1
102
RTVSPost2010Prop35
280
     0
102
RTVSPost2010PropOp35
 70
     1
102
RTVSPost2010Prop36
280
     0
102
RTVSPost2010PropOp36
 70
     1
102
RTVSPost2010Prop37
 90
       50
102
RTVSPost2010PropOp37
 70
     1
102
RTVSPost2010Prop38
140
0.0
102
RTVSPost2010PropOp38
 70
     1
102
RTVSPost2010Prop39
140
1.0
102
RTVSPost2010PropOp39
 70
     1
102
RTVSPost2010Prop40
 90
        0
102
RTVSPost2010PropOp40
 70
     1
102
RTVSPost2010Prop41ColorIndex
 90
       18
102
RTVSPost2010Prop41ColorRGB
 90
        0
102
RTVSPost2010PropOp41
 70
     1
102
RTVSPost2010Prop42
 90
       50
102
RTVSPost2010PropOp42
 70
     1
102
RTVSPost2010Prop43
 90
        3
102
RTVSPost2010PropOp43
 70
     1
102
RTVSPost2010Prop44ColorIndex
 90
        5
102
RTVSPost2010Prop44ColorRGB
 90
      255
102
RTVSPost2010PropOp44
 70
     1
102
RTVSPost2010Prop45
280
     0
102
RTVSPost2010PropOp45
 70
     1
102
RTVSPost2010Prop46
 90
       50
102
RTVSPost2010PropOp46
 70
     1
102
RTVSPost2010Prop47
 90
       50
102
RTVSPost2010PropOp47
 70
     1
102
RTVSPost2010Prop48
 90
       50
102
RTVSPost2010PropOp48
 70
     1
102
RTVSPost2010Prop49
280
     0
102
RTVSPost2010PropOp49
 70
     1
102
RTVSPost2010Prop50
 90
       50
102
RTVSPost2010PropOp50
 70
     1
102
RTVSPost2010Prop51ColorIndex
 90
      256
102
RTVSPost2010Prop51ColorRGB
 90
-16777216
102
RTVSPost2010PropOp51
 70
     0
102
RTVSPost2010Prop52
140
1.0
102
RTVSPost2010PropOp52
 70
     0
102
RTVSPost2010Prop53
 90
        2
102
RTVSPost2010PropOp53
 70
     1
102
RTVSPost2010Prop54
  1
strokes_ogs.tif
102
RTVSPost2010PropOp54
 70
     1
102
RTVSPost2010Prop55
280
     0
102
RTVSPost2010PropOp55
 70
     1
102
RTVSPost2010Prop56
140
1.0
102
RTVSPost2010PropOp56
 70
     1
102
RTVSPost2010Prop57
140
1.0
102
RTVSPost2010PropOp57
 70
     1
  0
XRECORD
  5
135
102
{ACAD_REACTORS
330
134
102
}
330
134
100
AcDbXrecord
280
     1
102
RTVSPost2010Prop28
280
     0
102
RTVSPost2010PropOp28
 70
     0
102
RTVSPost2010Prop29
280
     1
102
RTVSPost2010PropOp29
 70
     0
102
RTVSPost2010Prop30
280
     1
102
RTVSPost2010PropOp30
 70
     0
102
RTVSPost2010Prop31
280
     0
102
RTVSPost2010PropOp31
 70
     0
102
RTVSPost2010Prop32
280
     0
102
RTVSPost2010PropOp32
 70
     0
102
RTVSPost2010Prop33
280
     0
102
RTVSPost2010PropOp33
 70
     0
102
RTVSPost2010Prop34
280
     0
102
RTVSPost2010PropOp34
 70
     0
102
RTVSPost2010Prop35
280
     0
102
RTVSPost2010PropOp35
 70
     0
102
RTVSPost2010Prop36
280
     0
102
RTVSPost2010PropOp36
 70
     0
102
RTVSPost2010Prop37
 90
       50
102
RTVSPost2010PropOp37
 70
     0
102
RTVSPost2010Prop38
140
0.0
102
RTVSPost2010PropOp38
 70
     0
102
RTVSPost2010Prop39
140
1.0
102
RTVSPost2010PropOp39
 70
     0
102
RTVSPost2010Prop40
 90
        0
102
RTVSPost2010PropOp40
 70
     0
102
RTVSPost2010Prop41ColorIndex
 90
       18
102
RTVSPost2010Prop41ColorRGB
 90
        0
102
RTVSPost2010PropOp41
 70
     0
102
RTVSPost2010Prop42
 90
       50
102
RTVSPost2010PropOp42
 70
     0
102
RTVSPost2010Prop43
 90
        3
102
RTVSPost2010PropOp43
 70
     0
102
RTVSPost2010Prop44ColorIndex
 90
        5
102
RTVSPost2010Prop44ColorRGB
 90
      255
102
RTVSPost2010PropOp44
 70
     0
102
RTVSPost2010Prop45
280
     0
102
RTVSPost2010PropOp45
 70
     0
102
RTVSPost2010Prop46
 90
       50
102
RTVSPost2010PropOp46
 70
     0
102
RTVSPost2010Prop47
 90
       50
102
RTVSPost2010PropOp47
 70
     0
102
RTVSPost2010Prop48
 90
       50
102
RTVSPost2010PropOp48
 70
     0
102
RTVSPost2010Prop49
280
     0
102
RTVSPost2010PropOp49
 70
     0
102
RTVSPost2010Prop50
 90
       50
102
RTVSPost2010PropOp50
 70
     0
102
RTVSPost2010Prop51ColorIndex
 90
      256
102
RTVSPost2010Prop51ColorRGB
 90
-16777216
102
RTVSPost2010PropOp51
 70
     0
102
RTVSPost2010Prop52
140
1.0
102
RTVSPost2010PropOp52
 70
     0
102
RTVSPost2010Prop53
 90
        2
102
RTVSPost2010PropOp53
 70
     0
102
RTVSPost2010Prop54
  1
strokes_ogs.tif
102
RTVSPost2010PropOp54
 70
     0
102
RTVSPost2010Prop55
280
     0
102
RTVSPost2010PropOp55
 70
     0
102
RTVSPost2010Prop56
140
1.0
102
RTVSPost2010PropOp56
 70
     0
102
RTVSPost2010Prop57
140
1.0
102
RTVSPost2010PropOp57
 70
     0
  0
XRECORD
  5
123
102
{ACAD_REACTORS
330
122
102
}
330
122
100
AcDbXrecord
280
     1
102
RTVSPost2010Prop28
280
     0
102
RTVSPost2010PropOp28
 70
     1
102
RTVSPost2010Prop29
280
     1
102
RTVSPost2010PropOp29
 70
     1
102
RTVSPost2010Prop30
280
     1
102
RTVSPost2010PropOp30
 70
     1
102
RTVSPost2010Prop31
280
     0
102
RTVSPost2010PropOp31
 70
     1
102
RTVSPost2010Prop32
280
     0
102
RTVSPost2010PropOp32
 70
     1
102
RTVSPost2010Prop33
280
     0
102
RTVSPost2010PropOp33
 70
     1
102
RTVSPost2010Prop34
280
     0
102
RTVSPost2010PropOp34
 70
     1
102
RTVSPost2010Prop35
280
     0
102
RTVSPost2010PropOp35
 70
     1
102
RTVSPost2010Prop36
280
     0
102
RTVSPost2010PropOp36
 70
     1
102
RTVSPost2010Prop37
 90
       50
102
RTVSPost2010PropOp37
 70
     1
102
RTVSPost2010Prop38
140
0.0
102
RTVSPost2010PropOp38
 70
     1
102
RTVSPost2010Prop39
140
1.0
102
RTVSPost2010PropOp39
 70
     1
102
RTVSPost2010Prop40
 90
        0
102
RTVSPost2010PropOp40
 70
     1
102
RTVSPost2010Prop41ColorIndex
 90
       18
102
RTVSPost2010Prop41ColorRGB
 90
        0
102
RTVSPost2010PropOp41
 70
     1
102
RTVSPost2010Prop42
 90
       50
102
RTVSPost2010PropOp42
 70
     1
102
RTVSPost2010Prop43
 90
        3
102
RTVSPost2010PropOp43
 70
     1
102
RTVSPost2010Prop44ColorIndex
 90
        5
102
RTVSPost2010Prop44ColorRGB
 90
      255
102
RTVSPost2010PropOp44
 70
     1
102
RTVSPost2010Prop45
280
     0
102
RTVSPost2010PropOp45
 70
     1
102
RTVSPost2010Prop46
 90
       50
102
RTVSPost2010PropOp46
 70
     1
102
RTVSPost2010Prop47
 90
       50
102
RTVSPost2010PropOp47
 70
     1
102
RTVSPost2010Prop48
 90
       50
102
RTVSPost2010PropOp48
 70
     1
102
RTVSPost2010Prop49
280
     0
102
RTVSPost2010PropOp49
 70
     1
102
RTVSPost2010Prop50
 90
       50
102
RTVSPost2010PropOp50
 70
     1
102
RTVSPost2010Prop51ColorIndex
 90
      256
102
RTVSPost2010Prop51ColorRGB
 90
-16777216
102
RTVSPost2010PropOp51
 70
     0
102
RTVSPost2010Prop52
140
1.0
102
RTVSPost2010PropOp52
 70
     0
102
RTVSPost2010Prop53
 90
        2
102
RTVSPost2010PropOp53
 70
     1
102
RTVSPost2010Prop54
  1
strokes_ogs.tif
102
RTVSPost2010PropOp54
 70
     1
102
RTVSPost2010Prop55
280
     0
102
RTVSPost2010PropOp55
 70
     1
102
RTVSPost2010Prop56
140
1.0
102
RTVSPost2010PropOp56
 70
     1
102
RTVSPost2010Prop57
140
1.0
102
RTVSPost2010PropOp57
 70
     1
  0
XRECORD
  5
141
102
{ACAD_REACTORS
330
140
102
}
330
140
100
AcDbXrecord
280
     1
102
RTVSPost2010Prop28
280
     0
102
RTVSPost2010PropOp28
 70
     1
102
RTVSPost2010Prop29
280
     1
102
RTVSPost2010PropOp29
 70
     1
102
RTVSPost2010Prop30
280
     1
102
RTVSPost2010PropOp30
 70
     1
102
RTVSPost2010Prop31
280
     0
102
RTVSPost2010PropOp31
 70
     1
102
RTVSPost2010Prop32
280
     0
102
RTVSPost2010PropOp32
 70
     1
102
RTVSPost2010Prop33
280
     0
102
RTVSPost2010PropOp33
 70
     1
102
RTVSPost2010Prop34
280
     0
102
RTVSPost2010PropOp34
 70
     1
102
RTVSPost2010Prop35
280
     0
102
RTVSPost2010PropOp35
 70
     1
102
RTVSPost2010Prop36
280
     0
102
RTVSPost2010PropOp36
 70
     1
102
RTVSPost2010Prop37
 90
       50
102
RTVSPost2010PropOp37
 70
     1
102
RTVSPost2010Prop38
140
0.0
102
RTVSPost2010PropOp38
 70
     1
102
RTVSPost2010Prop39
140
1.0
102
RTVSPost2010PropOp39
 70
     1
102
RTVSPost2010Prop40
 90
        0
102
RTVSPost2010PropOp40
 70
     1
102
RTVSPost2010Prop41ColorIndex
 90
       18
102
RTVSPost2010Prop41ColorRGB
 90
        0
102
RTVSPost2010PropOp41
 70
     1
102
RTVSPost2010Prop42
 90
       50
102
RTVSPost2010PropOp42
 70
     1
102
RTVSPost2010Prop43
 90
        3
102
RTVSPost2010PropOp43
 70
     1
102
RTVSPost2010Prop44ColorIndex
 90
        5
102
RTVSPost2010Prop44ColorRGB
 90
      255
102
RTVSPost2010PropOp44
 70
     1
102
RTVSPost2010Prop45
280
     0
102
RTVSPost2010PropOp45
 70
     1
102
RTVSPost2010Prop46
 90
       50
102
RTVSPost2010PropOp46
 70
     1
102
RTVSPost2010Prop47
 90
       50
102
RTVSPost2010PropOp47
 70
     1
102
RTVSPost2010Prop48
 90
       50
102
RTVSPost2010PropOp48
 70
     1
102
RTVSPost2010Prop49
280
     0
102
RTVSPost2010PropOp49
 70
     1
102
RTVSPost2010Prop50
 90
       50
102
RTVSPost2010PropOp50
 70
     1
102
RTVSPost2010Prop51ColorIndex
 90
      256
102
RTVSPost2010Prop51ColorRGB
 90
-16777216
102
RTVSPost2010PropOp51
 70
     0
102
RTVSPost2010Prop52
140
1.0
102
RTVSPost2010PropOp52
 70
     0
102
RTVSPost2010Prop53
 90
        2
102
RTVSPost2010PropOp53
 70
     1
102
RTVSPost2010Prop54
  1
strokes_ogs.tif
102
RTVSPost2010PropOp54
 70
     1
102
RTVSPost2010Prop55
280
     0
102
RTVSPost2010PropOp55
 70
     1
102
RTVSPost2010Prop56
140
1.0
102
RTVSPost2010PropOp56
 70
     1
102
RTVSPost2010Prop57
140
1.0
102
RTVSPost2010PropOp57
 70
     1
  0
XRECORD
  5
13F
102
{ACAD_REACTORS
330
13E
102
}
330
13E
100
AcDbXrecord
280
     1
102
RTVSPost2010Prop28
280
     0
102
RTVSPost2010PropOp28
 70
     1
102
RTVSPost2010Prop29
280
     1
102
RTVSPost2010PropOp29
 70
     1
102
RTVSPost2010Prop30
280
     1
102
RTVSPost2010PropOp30
 70
     1
102
RTVSPost2010Prop31
280
     0
102
RTVSPost2010PropOp31
 70
     1
102
RTVSPost2010Prop32
280
     0
102
RTVSPost2010PropOp32
 70
     1
102
RTVSPost2010Prop33
280
     0
102
RTVSPost2010PropOp33
 70
     1
102
RTVSPost2010Prop34
280
     0
102
RTVSPost2010PropOp34
 70
     1
102
RTVSPost2010Prop35
280
     0
102
RTVSPost2010PropOp35
 70
     1
102
RTVSPost2010Prop36
280
     0
102
RTVSPost2010PropOp36
 70
     1
102
RTVSPost2010Prop37
 90
       50
102
RTVSPost2010PropOp37
 70
     1
102
RTVSPost2010Prop38
140
0.0
102
RTVSPost2010PropOp38
 70
     1
102
RTVSPost2010Prop39
140
1.0
102
RTVSPost2010PropOp39
 70
     1
102
RTVSPost2010Prop40
 90
        0
102
RTVSPost2010PropOp40
 70
     1
102
RTVSPost2010Prop41ColorIndex
 90
       18
102
RTVSPost2010Prop41ColorRGB
 90
        0
102
RTVSPost2010PropOp41
 70
     1
102
RTVSPost2010Prop42
 90
       50
102
RTVSPost2010PropOp42
 70
     1
102
RTVSPost2010Prop43
 90
        3
102
RTVSPost2010PropOp43
 70
     1
102
RTVSPost2010Prop44ColorIndex
 90
        5
102
RTVSPost2010Prop44ColorRGB
 90
      255
102
RTVSPost2010PropOp44
 70
     1
102
RTVSPost2010Prop45
280
     0
102
RTVSPost2010PropOp45
 70
     1
102
RTVSPost2010Prop46
 90
       50
102
RTVSPost2010PropOp46
 70
     1
102
RTVSPost2010Prop47
 90
       50
102
RTVSPost2010PropOp47
 70
     1
102
RTVSPost2010Prop48
 90
       50
102
RTVSPost2010PropOp48
 70
     1
102
RTVSPost2010Prop49
280
     0
102
RTVSPost2010PropOp49
 70
     1
102
RTVSPost2010Prop50
 90
       50
102
RTVSPost2010PropOp50
 70
     1
102
RTVSPost2010Prop51ColorIndex
 90
      256
102
RTVSPost2010Prop51ColorRGB
 90
-16777216
102
RTVSPost2010PropOp51
 70
     0
102
RTVSPost2010Prop52
140
1.0
102
RTVSPost2010PropOp52
 70
     0
102
RTVSPost2010Prop53
 90
        2
102
RTVSPost2010PropOp53
 70
     1
102
RTVSPost2010Prop54
  1
strokes_ogs.tif
102
RTVSPost2010PropOp54
 70
     1
102
RTVSPost2010Prop55
280
     0
102
RTVSPost2010PropOp55
 70
     1
102
RTVSPost2010Prop56
140
1.0
102
RTVSPost2010PropOp56
 70
     1
102
RTVSPost2010Prop57
140
1.0
102
RTVSPost2010PropOp57
 70
     1
  0
XRECORD
  5
139
102
{ACAD_REACTORS
330
138
102
}
330
138
100
AcDbXrecord
280
     1
102
RTVSPost2010Prop28
280
     0
102
RTVSPost2010PropOp28
 70
     1
102
RTVSPost2010Prop29
280
     1
102
RTVSPost2010PropOp29
 70
     1
102
RTVSPost2010Prop30
280
     1
102
RTVSPost2010PropOp30
 70
     1
102
RTVSPost2010Prop31
280
     0
102
RTVSPost2010PropOp31
 70
     1
102
RTVSPost2010Prop32
280
     0
102
RTVSPost2010PropOp32
 70
     1
102
RTVSPost2010Prop33
280
     0
102
RTVSPost2010PropOp33
 70
     1
102
RTVSPost2010Prop34
280
     0
102
RTVSPost2010PropOp34
 70
     1
102
RTVSPost2010Prop35
280
     0
102
RTVSPost2010PropOp35
 70
     1
102
RTVSPost2010Prop36
280
     0
102
RTVSPost2010PropOp36
 70
     1
102
RTVSPost2010Prop37
 90
       50
102
RTVSPost2010PropOp37
 70
     1
102
RTVSPost2010Prop38
140
0.0
102
RTVSPost2010PropOp38
 70
     1
102
RTVSPost2010Prop39
140
1.0
102
RTVSPost2010PropOp39
 70
     1
102
RTVSPost2010Prop40
 90
        0
102
RTVSPost2010PropOp40
 70
     1
102
RTVSPost2010Prop41ColorIndex
 90
       18
102
RTVSPost2010Prop41ColorRGB
 90
        0
102
RTVSPost2010PropOp41
 70
     1
102
RTVSPost2010Prop42
 90
       50
102
RTVSPost2010PropOp42
 70
     1
102
RTVSPost2010Prop43
 90
        3
102
RTVSPost2010PropOp43
 70
     1
102
RTVSPost2010Prop44ColorIndex
 90
        5
102
RTVSPost2010Prop44ColorRGB
 90
      255
102
RTVSPost2010PropOp44
 70
     1
102
RTVSPost2010Prop45
280
     0
102
RTVSPost2010PropOp45
 70
     1
102
RTVSPost2010Prop46
 90
       50
102
RTVSPost2010PropOp46
 70
     1
102
RTVSPost2010Prop47
 90
       50
102
RTVSPost2010PropOp47
 70
     1
102
RTVSPost2010Prop48
 90
       50
102
RTVSPost2010PropOp48
 70
     1
102
RTVSPost2010Prop49
280
     0
102
RTVSPost2010PropOp49
 70
     1
102
RTVSPost2010Prop50
 90
       50
102
RTVSPost2010PropOp50
 70
     1
102
RTVSPost2010Prop51ColorIndex
 90
      256
102
RTVSPost2010Prop51ColorRGB
 90
-16777216
102
RTVSPost2010PropOp51
 70
     0
102
RTVSPost2010Prop52
140
1.0
102
RTVSPost2010PropOp52
 70
     0
102
RTVSPost2010Prop53
 90
        2
102
RTVSPost2010PropOp53
 70
     1
102
RTVSPost2010Prop54
  1
strokes_ogs.tif
102
RTVSPost2010PropOp54
 70
     1
102
RTVSPost2010Prop55
280
     0
102
RTVSPost2010PropOp55
 70
     1
102
RTVSPost2010Prop56
140
1.0
102
RTVSPost2010PropOp56
 70
     1
102
RTVSPost2010Prop57
140
1.0
102
RTVSPost2010PropOp57
 70
     1
  0
XRECORD
  5
13B
102
{ACAD_REACTORS
330
13A
102
}
330
13A
100
AcDbXrecord
280
     1
102
RTVSPost2010Prop28
280
     0
102
RTVSPost2010PropOp28
 70
     1
102
RTVSPost2010Prop29
280
     1
102
RTVSPost2010PropOp29
 70
     1
102
RTVSPost2010Prop30
280
     1
102
RTVSPost2010PropOp30
 70
     1
102
RTVSPost2010Prop31
280
     0
102
RTVSPost2010PropOp31
 70
     1
102
RTVSPost2010Prop32
280
     0
102
RTVSPost2010PropOp32
 70
     1
102
RTVSPost2010Prop33
280
     0
102
RTVSPost2010PropOp33
 70
     1
102
RTVSPost2010Prop34
280
     0
102
RTVSPost2010PropOp34
 70
     1
102
RTVSPost2010Prop35
280
     0
102
RTVSPost2010PropOp35
 70
     1
102
RTVSPost2010Prop36
280
     0
102
RTVSPost2010PropOp36
 70
     1
102
RTVSPost2010Prop37
 90
       50
102
RTVSPost2010PropOp37
 70
     1
102
RTVSPost2010Prop38
140
0.0
102
RTVSPost2010PropOp38
 70
     1
102
RTVSPost2010Prop39
140
1.0
102
RTVSPost2010PropOp39
 70
     1
102
RTVSPost2010Prop40
 90
        0
102
RTVSPost2010PropOp40
 70
     1
102
RTVSPost2010Prop41ColorIndex
 90
       18
102
RTVSPost2010Prop41ColorRGB
 90
        0
102
RTVSPost2010PropOp41
 70
     1
102
RTVSPost2010Prop42
 90
       50
102
RTVSPost2010PropOp42
 70
     1
102
RTVSPost2010Prop43
 90
        3
102
RTVSPost2010PropOp43
 70
     1
102
RTVSPost2010Prop44ColorIndex
 90
        5
102
RTVSPost2010Prop44ColorRGB
 90
      255
102
RTVSPost2010PropOp44
 70
     1
102
RTVSPost2010Prop45
280
     0
102
RTVSPost2010PropOp45
 70
     1
102
RTVSPost2010Prop46
 90
       50
102
RTVSPost2010PropOp46
 70
     1
102
RTVSPost2010Prop47
 90
       50
102
RTVSPost2010PropOp47
 70
     1
102
RTVSPost2010Prop48
 90
       50
102
RTVSPost2010PropOp48
 70
     1
102
RTVSPost2010Prop49
280
     0
102
RTVSPost2010PropOp49
 70
     1
102
RTVSPost2010Prop50
 90
       50
102
RTVSPost2010PropOp50
 70
     1
102
RTVSPost2010Prop51ColorIndex
 90
      256
102
RTVSPost2010Prop51ColorRGB
 90
-16777216
102
RTVSPost2010PropOp51
 70
     0
102
RTVSPost2010Prop52
140
1.0
102
RTVSPost2010PropOp52
 70
     0
102
RTVSPost2010Prop53
 90
        2
102
RTVSPost2010PropOp53
 70
     1
102
RTVSPost2010Prop54
  1
strokes_ogs.tif
102
RTVSPost2010PropOp54
 70
     1
102
RTVSPost2010Prop55
280
     0
102
RTVSPost2010PropOp55
 70
     1
102
RTVSPost2010Prop56
140
1.0
102
RTVSPost2010PropOp56
 70
     1
102
RTVSPost2010Prop57
140
1.0
102
RTVSPost2010PropOp57
 70
     1
  0
XRECORD
  5
12B
102
{ACAD_REACTORS
330
12A
102
}
330
12A
100
AcDbXrecord
280
     1
102
RTVSPost2010Prop28
280
     0
102
RTVSPost2010PropOp28
 70
     1
102
RTVSPost2010Prop29
280
     1
102
RTVSPost2010PropOp29
 70
     1
102
RTVSPost2010Prop30
280
     1
102
RTVSPost2010PropOp30
 70
     1
102
RTVSPost2010Prop31
280
     0
102
RTVSPost2010PropOp31
 70
     1
102
RTVSPost2010Prop32
280
     0
102
RTVSPost2010PropOp32
 70
     1
102
RTVSPost2010Prop33
280
     0
102
RTVSPost2010PropOp33
 70
     1
102
RTVSPost2010Prop34
280
     0
102
RTVSPost2010PropOp34
 70
     1
102
RTVSPost2010Prop35
280
     0
102
RTVSPost2010PropOp35
 70
     1
102
RTVSPost2010Prop36
280
     0
102
RTVSPost2010PropOp36
 70
     1
102
RTVSPost2010Prop37
 90
       50
102
RTVSPost2010PropOp37
 70
     1
102
RTVSPost2010Prop38
140
0.0
102
RTVSPost2010PropOp38
 70
     1
102
RTVSPost2010Prop39
140
1.0
102
RTVSPost2010PropOp39
 70
     1
102
RTVSPost2010Prop40
 90
        0
102
RTVSPost2010PropOp40
 70
     1
102
RTVSPost2010Prop41ColorIndex
 90
       18
102
RTVSPost2010Prop41ColorRGB
 90
        0
102
RTVSPost2010PropOp41
 70
     1
102
RTVSPost2010Prop42
 90
       50
102
RTVSPost2010PropOp42
 70
     1
102
RTVSPost2010Prop43
 90
        3
102
RTVSPost2010PropOp43
 70
     1
102
RTVSPost2010Prop44ColorIndex
 90
        5
102
RTVSPost2010Prop44ColorRGB
 90
      255
102
RTVSPost2010PropOp44
 70
     1
102
RTVSPost2010Prop45
280
     0
102
RTVSPost2010PropOp45
 70
     1
102
RTVSPost2010Prop46
 90
       50
102
RTVSPost2010PropOp46
 70
     1
102
RTVSPost2010Prop47
 90
       50
102
RTVSPost2010PropOp47
 70
     1
102
RTVSPost2010Prop48
 90
       50
102
RTVSPost2010PropOp48
 70
     1
102
RTVSPost2010Prop49
280
     0
102
RTVSPost2010PropOp49
 70
     1
102
RTVSPost2010Prop50
 90
       50
102
RTVSPost2010PropOp50
 70
     1
102
RTVSPost2010Prop51ColorIndex
 90
      256
102
RTVSPost2010Prop51ColorRGB
 90
-16777216
102
RTVSPost2010PropOp51
 70
     0
102
RTVSPost2010Prop52
140
1.0
102
RTVSPost2010PropOp52
 70
     0
102
RTVSPost2010Prop53
 90
        2
102
RTVSPost2010PropOp53
 70
     1
102
RTVSPost2010Prop54
  1
strokes_ogs.tif
102
RTVSPost2010PropOp54
 70
     1
102
RTVSPost2010Prop55
280
     0
102
RTVSPost2010PropOp55
 70
     1
102
RTVSPost2010Prop56
140
1.0
102
RTVSPost2010PropOp56
 70
     1
102
RTVSPost2010Prop57
140
1.0
102
RTVSPost2010PropOp57
 70
     1
  0
XRECORD
  5
11D
102
{ACAD_REACTORS
330
11C
102
}
330
11C
100
AcDbXrecord
280
     1
102
RTVSPost2010Prop28
280
     0
102
RTVSPost2010PropOp28
 70
     1
102
RTVSPost2010Prop29
280
     1
102
RTVSPost2010PropOp29
 70
     1
102
RTVSPost2010Prop30
280
     1
102
RTVSPost2010PropOp30
 70
     1
102
RTVSPost2010Prop31
280
     0
102
RTVSPost2010PropOp31
 70
     1
102
RTVSPost2010Prop32
280
     0
102
RTVSPost2010PropOp32
 70
     1
102
RTVSPost2010Prop33
280
     0
102
RTVSPost2010PropOp33
 70
     1
102
RTVSPost2010Prop34
280
     0
102
RTVSPost2010PropOp34
 70
     1
102
RTVSPost2010Prop35
280
     0
102
RTVSPost2010PropOp35
 70
     1
102
RTVSPost2010Prop36
280
     0
102
RTVSPost2010PropOp36
 70
     1
102
RTVSPost2010Prop37
 90
       50
102
RTVSPost2010PropOp37
 70
     1
102
RTVSPost2010Prop38
140
0.0
102
RTVSPost2010PropOp38
 70
     1
102
RTVSPost2010Prop39
140
1.0
102
RTVSPost2010PropOp39
 70
     1
102
RTVSPost2010Prop40
 90
        0
102
RTVSPost2010PropOp40
 70
     1
102
RTVSPost2010Prop41ColorIndex
 90
       18
102
RTVSPost2010Prop41ColorRGB
 90
        0
102
RTVSPost2010PropOp41
 70
     1
102
RTVSPost2010Prop42
 90
       50
102
RTVSPost2010PropOp42
 70
     1
102
RTVSPost2010Prop43
 90
        3
102
RTVSPost2010PropOp43
 70
     1
102
RTVSPost2010Prop44ColorIndex
 90
        5
102
RTVSPost2010Prop44ColorRGB
 90
      255
102
RTVSPost2010PropOp44
 70
     1
102
RTVSPost2010Prop45
280
     0
102
RTVSPost2010PropOp45
 70
     1
102
RTVSPost2010Prop46
 90
       50
102
RTVSPost2010PropOp46
 70
     1
102
RTVSPost2010Prop47
 90
       50
102
RTVSPost2010PropOp47
 70
     1
102
RTVSPost2010Prop48
 90
       50
102
RTVSPost2010PropOp48
 70
     1
102
RTVSPost2010Prop49
280
     0
102
RTVSPost2010PropOp49
 70
     1
102
RTVSPost2010Prop50
 90
       50
102
RTVSPost2010PropOp50
 70
     1
102
RTVSPost2010Prop51ColorIndex
 90
      256
102
RTVSPost2010Prop51ColorRGB
 90
-16777216
102
RTVSPost2010PropOp51
 70
     0
102
RTVSPost2010Prop52
140
1.0
102
RTVSPost2010PropOp52
 70
     0
102
RTVSPost2010Prop53
 90
        2
102
RTVSPost2010PropOp53
 70
     1
102
RTVSPost2010Prop54
  1
strokes_ogs.tif
102
RTVSPost2010PropOp54
 70
     1
102
RTVSPost2010Prop55
280
     0
102
RTVSPost2010PropOp55
 70
     1
102
RTVSPost2010Prop56
140
1.0
102
RTVSPost2010PropOp56
 70
     1
102
RTVSPost2010Prop57
140
1.0
102
RTVSPost2010PropOp57
 70
     1
  0
XRECORD
  5
13D
102
{ACAD_REACTORS
330
13C
102
}
330
13C
100
AcDbXrecord
280
     1
102
RTVSPost2010Prop28
280
     0
102
RTVSPost2010PropOp28
 70
     1
102
RTVSPost2010Prop29
280
     1
102
RTVSPost2010PropOp29
 70
     1
102
RTVSPost2010Prop30
280
     1
102
RTVSPost2010PropOp30
 70
     1
102
RTVSPost2010Prop31
280
     0
102
RTVSPost2010PropOp31
 70
     1
102
RTVSPost2010Prop32
280
     0
102
RTVSPost2010PropOp32
 70
     1
102
RTVSPost2010Prop33
280
     0
102
RTVSPost2010PropOp33
 70
     1
102
RTVSPost2010Prop34
280
     0
102
RTVSPost2010PropOp34
 70
     1
102
RTVSPost2010Prop35
280
     0
102
RTVSPost2010PropOp35
 70
     1
102
RTVSPost2010Prop36
280
     0
102
RTVSPost2010PropOp36
 70
     1
102
RTVSPost2010Prop37
 90
       50
102
RTVSPost2010PropOp37
 70
     1
102
RTVSPost2010Prop38
140
0.0
102
RTVSPost2010PropOp38
 70
     1
102
RTVSPost2010Prop39
140
1.0
102
RTVSPost2010PropOp39
 70
     1
102
RTVSPost2010Prop40
 90
        0
102
RTVSPost2010PropOp40
 70
     1
102
RTVSPost2010Prop41ColorIndex
 90
       18
102
RTVSPost2010Prop41ColorRGB
 90
        0
102
RTVSPost2010PropOp41
 70
     1
102
RTVSPost2010Prop42
 90
       50
102
RTVSPost2010PropOp42
 70
     1
102
RTVSPost2010Prop43
 90
        3
102
RTVSPost2010PropOp43
 70
     1
102
RTVSPost2010Prop44ColorIndex
 90
        5
102
RTVSPost2010Prop44ColorRGB
 90
      255
102
RTVSPost2010PropOp44
 70
     1
102
RTVSPost2010Prop45
280
     0
102
RTVSPost2010PropOp45
 70
     1
102
RTVSPost2010Prop46
 90
       50
102
RTVSPost2010PropOp46
 70
     1
102
RTVSPost2010Prop47
 90
       50
102
RTVSPost2010PropOp47
 70
     1
102
RTVSPost2010Prop48
 90
       50
102
RTVSPost2010PropOp48
 70
     1
102
RTVSPost2010Prop49
280
     0
102
RTVSPost2010PropOp49
 70
     1
102
RTVSPost2010Prop50
 90
       50
102
RTVSPost2010PropOp50
 70
     1
102
RTVSPost2010Prop51ColorIndex
 90
      256
102
RTVSPost2010Prop51ColorRGB
 90
-16777216
102
RTVSPost2010PropOp51
 70
     0
102
RTVSPost2010Prop52
140
1.0
102
RTVSPost2010PropOp52
 70
     0
102
RTVSPost2010Prop53
 90
        2
102
RTVSPost2010PropOp53
 70
     1
102
RTVSPost2010Prop54
  1
strokes_ogs.tif
102
RTVSPost2010PropOp54
 70
     1
102
RTVSPost2010Prop55
280
     0
102
RTVSPost2010PropOp55
 70
     1
102
RTVSPost2010Prop56
140
1.0
102
RTVSPost2010PropOp56
 70
     1
102
RTVSPost2010Prop57
140
1.0
102
RTVSPost2010PropOp57
 70
     1
  0
ENDSEC
  0
EOF
