  0
SECTION
  2
HEADER
  9
$ACADVER
  1
AC1024
  9
$ACADMAINTVER
 70
     6
  9
$DWGCODEPAGE
  3
ANSI_932
  9
$INSBASE
 10
0.0
 20
0.0
 30
0.0
  9
$EXTMIN
 10
-677.162629
 20
-856.68087
 30
1.000000000000000E+20
  9
$EXTMAX
 10
898.152585
 20
1153.050722
 30
-1.000000000000000E+20
  9
$LIMMIN
 10
-677.162629
 20
-856.68087
  9
$LIMMAX
 10
898.152585
 20
1153.050722
  9
$ORTHOMODE
 70
     0
  9
$REGENMODE
 70
     1
  9
$FILLMODE
 70
     1
  9
$QTEXTMODE
 70
     0
  9
$MIRRTEXT
 70
     1
  9
$LTSCALE
 40
1.0
  9
$ATTMODE
 70
     1
  9
$TEXTSIZE
 40
0.0
  9
$TRACEWID
 40
0.05
  9
$TEXTSTYLE
  7
Standard
  9
$CLAYER
  8
0
  9
$CELTYPE
  6
Continuous
  9
$CECOLOR
 62
   256
  9
$CELTSCALE
 40
1.0
  9
$DISPSILH
 70
     0
  9
$DIMSCALE
 40
1.0
  9
$DIMASZ
 40
0.18
  9
$DIMEXO
 40
0.0625
  9
$DIMDLI
 40
0.38
  9
$DIMRND
 40
0.0
  9
$DIMDLE
 40
0.0
  9
$DIMEXE
 40
0.18
  9
$DIMTP
 40
0.0
  9
$DIMTM
 40
0.0
  9
$DIMTXT
 40
0.18
  9
$DIMCEN
 40
0.09
  9
$DIMTSZ
 40
0.0
  9
$DIMTOL
 70
     0
  9
$DIMLIM
 70
     0
  9
$DIMTIH
 70
     1
  9
$DIMTOH
 70
     1
  9
$DIMSE1
 70
     0
  9
$DIMSE2
 70
     0
  9
$DIMTAD
 70
     0
  9
$DIMZIN
 70
     0
  9
$DIMBLK
  1

  9
$DIMASO
 70
     1
  9
$DIMSHO
 70
     1
  9
$DIMPOST
  1

  9
$DIMAPOST
  1

  9
$DIMALT
 70
     0
  9
$DIMALTD
 70
     2
  9
$DIMALTF
 40
25.4
  9
$DIMLFAC
 40
1.0
  9
$DIMTOFL
 70
     0
  9
$DIMTVP
 40
0.0
  9
$DIMTIX
 70
     0
  9
$DIMSOXD
 70
     0
  9
$DIMSAH
 70
     0
  9
$DIMBLK1
  1

  9
$DIMBLK2
  1

  9
$DIMSTYLE
  2
Standard
  9
$DIMCLRD
 70
     0
  9
$DIMCLRE
 70
     0
  9
$DIMCLRT
 70
     0
  9
$DIMTFAC
 40
1.0
  9
$DIMGAP
 40
0.09
  9
$DIMJUST
 70
     0
  9
$DIMSD1
 70
     0
  9
$DIMSD2
 70
     0
  9
$DIMTOLJ
 70
     1
  9
$DIMTZIN
 70
     0
  9
$DIMALTZ
 70
     0
  9
$DIMALTTZ
 70
     0
  9
$DIMUPT
 70
     0
  9
$DIMDEC
 70
     4
  9
$DIMTDEC
 70
     4
  9
$DIMALTU
 70
     2
  9
$DIMALTTD
 70
     2
  9
$DIMTXSTY
  7
Standard
  9
$DIMAUNIT
 70
     0
  9
$DIMADEC
 70
     0
  9
$DIMALTRND
 40
0.0
  9
$DIMAZIN
 70
     0
  9
$DIMDSEP
 70
     0
  9
$DIMATFIT
 70
     3
  9
$DIMFRAC
 70
     0
  9
$DIMLDRBLK
  1

  9
$DIMLUNIT
 70
     2
  9
$DIMLWD
 70
     0
  9
$DIMLWE
 70
     0
  9
$DIMTMOVE
 70
     0
  9
$DIMFXL
 40
1.0
  9
$DIMFXLON
 70
     0
  9
$DIMJOGANG
 40
0.7853981633974483
  9
$DIMTFILL
 70
     0
  9
$DIMTFILLCLR
 70
     0
  9
$DIMARCSYM
 70
     0
  9
$DIMLTYPE
  6

  9
$DIMLTEX1
  6

  9
$DIMLTEX2
  6

  9
$DIMTXTDIRECTION
 70
     0
  9
$LUNITS
 70
     2
  9
$LUPREC
 70
     4
  9
$SKETCHINC
 40
0.1
  9
$FILLETRAD
 40
0.0
  9
$AUNITS
 70
     0
  9
$AUPREC
 70
     0
  9
$MENU
  1
acad
  9
$ELEVATION
 40
0.0
  9
$PELEVATION
 40
0.0
  9
$THICKNESS
 40
0.0
  9
$LIMCHECK
 70
     0
  9
$CHAMFERA
 40
0.0
  9
$CHAMFERB
 40
0.0
  9
$CHAMFERC
 40
0.0
  9
$CHAMFERD
 40
0.0
  9
$SKPOLY
 70
     0
  9
$TDCREATE
 40
2447893.041666667
  9
$TDUCREATE
 40
0.0
  9
$TDUPDATE
 40
2457234.640768009
  9
$TDUUPDATE
 40
2457234.599101343
  9
$TDINDWG
 40
0.0
  9
$TDUSRTIMER
 40
0.0
  9
$USRTIMER
 70
     1
  9
$ANGBASE
 50
0.0
  9
$ANGDIR
 70
     0
  9
$PDMODE
 70
     0
  9
$PDSIZE
 40
0.0
  9
$PLINEWID
 40
0.0
  9
$SPLFRAME
 70
     0
  9
$SPLINETYPE
 70
     6
  9
$SPLINESEGS
 70
     8
  9
$HANDSEED
  5
1F4
  9
$SURFTAB1
 70
     6
  9
$SURFTAB2
 70
     6
  9
$SURFTYPE
 70
     6
  9
$SURFU
 70
     6
  9
$SURFV
 70
     6
  9
$UCSBASE
  2

  9
$UCSNAME
  2

  9
$UCSORG
 10
0.0
 20
0.0
 30
0.0
  9
$UCSXDIR
 10
1.0
 20
0.0
 30
0.0
  9
$UCSYDIR
 10
0.0
 20
1.0
 30
0.0
  9
$UCSORTHOREF
  2

  9
$UCSORTHOVIEW
 70
     0
  9
$UCSORGTOP
 10
0.0
 20
0.0
 30
0.0
  9
$UCSORGBOTTOM
 10
0.0
 20
0.0
 30
0.0
  9
$UCSORGLEFT
 10
0.0
 20
0.0
 30
0.0
  9
$UCSORGRIGHT
 10
0.0
 20
0.0
 30
0.0
  9
$UCSORGFRONT
 10
0.0
 20
0.0
 30
0.0
  9
$UCSORGBACK
 10
0.0
 20
0.0
 30
0.0
  9
$PUCSBASE
  2

  9
$PUCSNAME
  2

  9
$PUCSORG
 10
0.0
 20
0.0
 30
0.0
  9
$PUCSXDIR
 10
1.0
 20
0.0
 30
0.0
  9
$PUCSYDIR
 10
0.0
 20
1.0
 30
0.0
  9
$PUCSORTHOREF
  2

  9
$PUCSORTHOVIEW
 70
     0
  9
$PUCSORGTOP
 10
0.0
 20
0.0
 30
0.0
  9
$PUCSORGBOTTOM
 10
0.0
 20
0.0
 30
0.0
  9
$PUCSORGLEFT
 10
0.0
 20
0.0
 30
0.0
  9
$PUCSORGRIGHT
 10
0.0
 20
0.0
 30
0.0
  9
$PUCSORGFRONT
 10
0.0
 20
0.0
 30
0.0
  9
$PUCSORGBACK
 10
0.0
 20
0.0
 30
0.0
  9
$USERI1
 70
     0
  9
$USERI2
 70
     0
  9
$USERI3
 70
     0
  9
$USERI4
 70
     0
  9
$USERI5
 70
     0
  9
$USERR1
 40
0.0
  9
$USERR2
 40
0.0
  9
$USERR3
 40
0.0
  9
$USERR4
 40
0.0
  9
$USERR5
 40
0.0
  9
$WORLDVIEW
 70
     1
  9
$SHADEDGE
 70
     3
  9
$SHADEDIF
 70
    70
  9
$TILEMODE
 70
     1
  9
$MAXACTVP
 70
    16
  9
$PINSBASE
 10
0.0
 20
0.0
 30
0.0
  9
$PLIMCHECK
 70
     0
  9
$PEXTMIN
 10
1.000000000000000E+20
 20
1.000000000000000E+20
 30
1.000000000000000E+20
  9
$PEXTMAX
 10
-1.000000000000000E+20
 20
-1.000000000000000E+20
 30
-1.000000000000000E+20
  9
$PLIMMIN
 10
0.0
 20
0.0
  9
$PLIMMAX
 10
12.0
 20
9.0
  9
$UNITMODE
 70
     0
  9
$VISRETAIN
 70
     0
  9
$PLINEGEN
 70
     1
  9
$PSLTSCALE
 70
     0
  9
$TREEDEPTH
 70
  3020
  9
$CMLSTYLE
  2
Standard
  9
$CMLJUST
 70
     0
  9
$CMLSCALE
 40
1.0
  9
$PROXYGRAPHICS
 70
     0
  9
$MEASUREMENT
 70
     0
  9
$CELWEIGHT
370
     0
  9
$ENDCAPS
280
     0
  9
$JOINSTYLE
280
     0
  9
$LWDISPLAY
290
     0
  9
$INSUNITS
 70
     0
  9
$HYPERLINKBASE
  1

  9
$STYLESHEET
  1

  9
$XEDIT
290
     1
  9
$CEPSNTYPE
380
     0
  9
$PSTYLEMODE
290
     1
  9
$FINGERPRINTGUID
  2

  9
$VERSIONGUID
  2

  9
$EXTNAMES
290
     1
  9
$PSVPSCALE
 40
0.0
  9
$OLESTARTUP
290
     0
  9
$SORTENTS
280
   127
  9
$INDEXCTL
280
     0
  9
$HIDETEXT
280
     1
  9
$XCLIPFRAME
280
     2
  9
$HALOGAP
280
     0
  9
$OBSCOLOR
 70
   257
  9
$OBSLTYPE
280
     0
  9
$INTERSECTIONDISPLAY
280
     0
  9
$INTERSECTIONCOLOR
 70
   257
  9
$DIMASSOC
280
     2
  9
$PROJECTNAME
  1

  9
$CAMERADISPLAY
290
     0
  9
$LENSLENGTH
 40
50.0
  9
$CAMERAHEIGHT
 40
0.0
  9
$STEPSPERSEC
 40
2.0
  9
$STEPSIZE
 40
6.0
  9
$3DDWFPREC
 40
2.0
  9
$PSOLWIDTH
 40
0.25
  9
$PSOLHEIGHT
 40
4.0
  9
$LOFTANG1
 40
1.570796326794897
  9
$LOFTANG2
 40
1.570796326794897
  9
$LOFTMAG1
 40
0.0
  9
$LOFTMAG2
 40
0.0
  9
$LOFTPARAM
 70
     7
  9
$LOFTNORMALS
280
     1
  9
$LATITUDE
 40
37.795
  9
$LONGITUDE
 40
-122.394
  9
$NORTHDIRECTION
 40
0.0
  9
$TIMEZONE
 70
 -8000
  9
$LIGHTGLYPHDISPLAY
280
     1
  9
$TILEMODELIGHTSYNCH
280
     1
  9
$SOLIDHIST
280
     0
  9
$SHOWHIST
280
     1
  9
$DWFFRAME
280
     2
  9
$DGNFRAME
280
     2
  9
$REALWORLDSCALE
290
     1
  9
$INTERFERECOLOR
 62
   256
  9
$CSHADOW
280
     0
  9
$SHADOWPLANELOCATION
 40
0.0
  0
ENDSEC
  0
SECTION
  2
CLASSES
  0
CLASS
  1
LWPOLYLINE
  2
AcDbPolyline
  3
ObjectDBX Classes
 90
        0
 91
        1
280
     0
281
     1
  0
CLASS
  1
IMAGE
  2
AcDbRasterImage
  3
ISM
 90
      127
 91
        5
280
     0
281
     1
  0
CLASS
  1
OLE2FRAME
  2
AcDbOle2Frame
  3
ObjectDBX Classes
 90
        0
 91
        1
280
     0
281
     1
  0
CLASS
  1
HATCH
  2
AcDbHatch
  3
ObjectDBX Classes
 90
        0
 91
        1
280
     0
281
     1
  0
CLASS
  1
DICTIONARYVAR
  2
AcDbDictionaryVar
  3
ObjectDBX Classes
 90
        0
 91
        4
280
     0
281
     0
  0
CLASS
  1
RASTERVARIABLES
  2
AcDbRasterVariables
  3
ISM
 90
        0
 91
        4
280
     0
281
     0
  0
CLASS
  1
IMAGEDEF
  2
AcDbRasterImageDef
  3
ISM
 90
        0
 91
        4
280
     0
281
     0
  0
CLASS
  1
IMAGEDEF_REACTOR
  2
AcDbRasterImageDefReactor
  3
ISM
 90
        1
 91
        4
280
     0
281
     0
  0
CLASS
  1
IDBUFFER
  2
AcDbIdBuffer
  3
ObjectDBX Classes
 90
        0
 91
        4
280
     0
281
     0
  0
CLASS
  1
SPATIAL_FILTER
  2
AcDbSpatialFilter
  3
ObjectDBX Classes
 90
        0
 91
        4
280
     0
281
     0
  0
CLASS
  1
XRECORD
  2
AcDbXrecord
  3
ObjectDBX Classes
 90
        0
 91
        1
280
     0
281
     0
  0
CLASS
  1
SORTENTSTABLE
  2
AcDbSortentsTable
  3
ObjectDBX Classes
 90
        0
 91
        4
280
     0
281
     0
  0
CLASS
  1
LAYER_INDEX
  2
AcDbLayerIndex
  3
ObjectDBX Classes
 90
        0
 91
        4
280
     0
281
     0
  0
CLASS
  1
SPATIAL_INDEX
  2
AcDbSpatialIndex
  3
AutoCAD 2000
 90
        0
 91
        4
280
     0
281
     0
  0
CLASS
  1
OBJECT_PTR
  2
CAseDLPNTableRecord
  3
ASE-LPNTableRecord
 90
        1
 91
        4
280
     0
281
     0
  0
CLASS
  1
LAYOUT
  2
AcDbLayout
  3
ObjectDBX Classes
 90
        0
 91
        1
280
     0
281
     0
  0
CLASS
  1
PLOTSETTINGS
  2
AcDbPlotSettings
  3
ObjectDBX Classes
 90
        0
 91
        4
280
     0
281
     0
  0
CLASS
  1
ACDBDICTIONARYWDFLT
  2
AcDbDictionaryWithDefault
  3
ObjectDBX Classes
 90
        0
 91
        4
280
     0
281
     0
  0
CLASS
  1
ACDBPLACEHOLDER
  2
AcDbPlaceHolder
  3
ObjectDBX Classes
 90
        0
 91
        1
280
     0
281
     0
  0
CLASS
  1
VBA_PROJECT
  2
AcDbVbaProject
  3
ObjectDBX Classes
 90
        0
 91
        1
280
     0
281
     0
  0
CLASS
  1
WIPEOUT
  2
AcDbWipeout
  3
WipeOut|AutoCAD Express Tool|expresstools@autodesk.com
 90
      127
 91
        4
280
     0
281
     1
  0
CLASS
  1
WIPEOUTVARIABLES
  2
AcDbWipeoutVariables
  3
WipeOut|AutoCAD Express Tool|expresstools@autodesk.com
 90
        0
 91
        4
280
     0
281
     0
  0
CLASS
  1
RTEXT
  2
RText
  3
RText|AutoCAD Express Tool|expresstools@autodesk.com
 90
        0
 91
        4
280
     0
281
     1
  0
CLASS
  1
ARCALIGNEDTEXT
  2
AcDbArcAlignedText
  3
ATEXT|AutoCAD Express Tool|expresstools@autodesk.com
 90
        0
 91
        4
280
     0
281
     1
  0
CLASS
  1
SCALE
  2
AcDbScale
  3
ObjectDBX Classes
 90
     1153
 91
        4
280
     0
281
     0
  0
CLASS
  1
VISUALSTYLE
  2
AcDbVisualStyle
  3
ObjectDBX Classes
 90
     4095
 91
        4
280
     0
281
     0
  0
CLASS
  1
MATERIAL
  2
AcDbMaterial
  3
ObjectDBX Classes
 90
     1153
 91
        4
280
     0
281
     0
  0
CLASS
  1
TABLESTYLE
  2
AcDbTableStyle
  3
ObjectDBX Classes
 90
     4095
 91
        4
280
     0
281
     0
  0
CLASS
  1
MLEADERSTYLE
  2
AcDbMLeaderStyle
  3
ACDB_MLEADERSTYLE_CLASS
 90
     4095
 91
        4
280
     0
281
     0
  0
CLASS
  1
CELLSTYLEMAP
  2
AcDbCellStyleMap
  3
ObjectDBX Classes
 90
     1152
 91
        4
280
     0
281
     0
  0
ENDSEC
  0
SECTION
  2
TABLES
  0
TABLE
  2
VPORT
  5
7
330
0
100
AcDbSymbolTable
 70
     1
  0
VPORT
  5
15
330
7
100
AcDbSymbolTableRecord
100
AcDbViewportTableRecord
  2
*ACTIVE
 70
     0
 10
0.0
 20
0.0
 11
1.0
 21
1.0
 12
6.591288
 22
4.579184
 13
0.0
 23
0.0
 14
1.0
 24
1.0
 15
0.0
 25
0.0
 16
0.0
 26
0.0
 36
1.0
 17
0.0
 27
0.0
 37
0.0
 40
9.158369
 41
0.688564
 42
50.0
 43
0.0
 44
0.0
 50
0.0
 51
0.0
 71
     0
 72
   100
 73
     1
 74
     1
 75
     0
 76
     0
 77
     0
 78
     0
281
     0
 65
     0
110
0.0
120
0.0
130
0.0
111
1.0
121
0.0
131
0.0
112
0.0
122
1.0
132
0.0
 79
     0
146
0.0
348
19E
 60
     3
 61
     5
292
     1
282
     1
141
0.0
142
0.0
 63
   256
  0
ENDTAB
  0
TABLE
  2
LTYPE
  5
4
330
0
100
AcDbSymbolTable
 70
     4
  0
LTYPE
  5
11
330
4
100
AcDbSymbolTableRecord
100
AcDbLinetypeTableRecord
  2
ByBlock
 70
     0
  3

 72
    65
 73
     0
 40
0.0
  0
LTYPE
  5
12
330
4
100
AcDbSymbolTableRecord
100
AcDbLinetypeTableRecord
  2
ByLayer
 70
     0
  3

 72
    65
 73
     0
 40
0.0
  0
LTYPE
  5
13
330
4
100
AcDbSymbolTableRecord
100
AcDbLinetypeTableRecord
  2
Continuous
 70
     0
  3
Solid line
 72
    65
 73
     0
 40
0.0
  0
LTYPE
  5
FC
330
4
100
AcDbSymbolTableRecord
100
AcDbLinetypeTableRecord
  2
AI9-LType1
 70
     0
  3
Illustrator Dash Style No.1
 72
    65
 73
     4
 40
2.822222
 49
1.411111
 74
     0
 49
-0.705556
 74
     0
 49
0.0
 74
     0
 49
-0.705556
 74
     0
  0
LTYPE
  5
111
330
4
100
AcDbSymbolTableRecord
100
AcDbLinetypeTableRecord
  2
AI9-LType2
 70
     0
  3
Illustrator Dash Style No.2
 72
    65
 73
     2
 40
2.116667
 49
1.411111
 74
     0
 49
-0.705556
 74
     0
  0
LTYPE
  5
113
330
4
100
AcDbSymbolTableRecord
100
AcDbLinetypeTableRecord
  2
AI9-LType3
 70
     0
  3
Illustrator Dash Style No.3
 72
    65
 73
     0
 40
0.0
  0
ENDTAB
  0
TABLE
  2
LAYER
  5
2
330
0
100
AcDbSymbolTable
 70
     2
  0
LAYER
  5
14
330
2
100
AcDbSymbolTableRecord
100
AcDbLayerTableRecord
  2
0
 70
     0
 62
     7
  6
Continuous
370
    -3
390
1D
347
1B5
  0
LAYER
  5
28
330
2
100
AcDbSymbolTableRecord
100
AcDbLayerTableRecord
  2
LAYER_1
 70
     0
 62
   160
  6
Continuous
370
    -3
390
1D
347
1B5
  0
ENDTAB
  0
TABLE
  2
STYLE
  5
3
330
0
100
AcDbSymbolTable
 70
     5
  0
STYLE
  5
17
330
3
100
AcDbSymbolTableRecord
100
AcDbTextStyleTableRecord
  2
Standard
 70
     0
 40
0.0
 41
1.0
 50
0.0
 71
     0
 42
0.0
  3
txt
  4

  0
STYLE
  5
24
330
3
100
AcDbSymbolTableRecord
100
AcDbTextStyleTableRecord
  2
STD
 70
     0
 40
0.0
 41
1.0
 50
0.0
 71
     0
 42
0.0
  3
txt
  4

  0
STYLE
  5
25
330
3
100
AcDbSymbolTableRecord
100
AcDbTextStyleTableRecord
  2
TATESTD
 70
     4
 40
0.0
 41
1.0
 50
0.0
 71
     0
 42
0.0
  3
txt
  4

  0
STYLE
  5
26
330
3
100
AcDbSymbolTableRecord
100
AcDbTextStyleTableRecord
  2
KANJISTD
 70
     0
 40
0.0
 41
1.0
 50
0.0
 71
     0
 42
0.0
  3
txt
  4
extfont
  0
STYLE
  5
27
330
3
100
AcDbSymbolTableRecord
100
AcDbTextStyleTableRecord
  2
KANJITATE
 70
     4
 40
0.0
 41
1.0
 50
0.0
 71
     0
 42
0.0
  3
txt
  4
extfont
  0
ENDTAB
  0
TABLE
  2
VIEW
  5
5
330
0
100
AcDbSymbolTable
 70
     0
  0
ENDTAB
  0
TABLE
  2
UCS
  5
6
330
0
100
AcDbSymbolTable
 70
     0
  0
ENDTAB
  0
TABLE
  2
APPID
  5
8
330
0
100
AcDbSymbolTable
 70
     1
  0
APPID
  5
16
330
8
100
AcDbSymbolTableRecord
100
AcDbRegAppTableRecord
  2
ACAD
 70
     0
  0
ENDTAB
  0
TABLE
  2
DIMSTYLE
  5
9
330
0
100
AcDbSymbolTable
 70
     1
100
AcDbDimStyleTable
  0
DIMSTYLE
105
18
330
9
100
AcDbSymbolTableRecord
100
AcDbDimStyleTableRecord
  2
Standard
 70
     0
178
     0
340
17
  0
ENDTAB
  0
TABLE
  2
BLOCK_RECORD
  5
1
330
0
100
AcDbSymbolTable
 70
    41
  0
BLOCK_RECORD
  5
A
330
1
100
AcDbSymbolTableRecord
100
AcDbBlockTableRecord
  2
*MODEL_SPACE
340
20
 70
     0
280
     1
281
     0
  0
BLOCK_RECORD
  5
B
330
1
100
AcDbSymbolTableRecord
100
AcDbBlockTableRecord
  2
*PAPER_SPACE
340
21
 70
     0
280
     1
281
     0
  0
BLOCK_RECORD
  5
2C
330
1
100
AcDbSymbolTableRecord
100
AcDbBlockTableRecord
  2
AI9-BLK1
340
0
102
{BLKREFS
331
2D
102
}
 70
     0
280
     1
281
     0
  0
BLOCK_RECORD
  5
2F
330
1
100
AcDbSymbolTableRecord
100
AcDbBlockTableRecord
  2
AI9-BLK2
340
0
102
{BLKREFS
331
30
102
}
 70
     0
280
     1
281
     0
  0
BLOCK_RECORD
  5
32
330
1
100
AcDbSymbolTableRecord
100
AcDbBlockTableRecord
  2
AI9-BLK3
340
0
102
{BLKREFS
331
33
102
}
 70
     0
280
     1
281
     0
  0
BLOCK_RECORD
  5
35
330
1
100
AcDbSymbolTableRecord
100
AcDbBlockTableRecord
  2
AI9-BLK4
340
0
102
{BLKREFS
331
36
102
}
 70
     0
280
     1
281
     0
  0
BLOCK_RECORD
  5
3F
330
1
100
AcDbSymbolTableRecord
100
AcDbBlockTableRecord
  2
AI9-BLK5
340
0
102
{BLKREFS
331
40
102
}
 70
     0
280
     1
281
     0
  0
BLOCK_RECORD
  5
42
330
1
100
AcDbSymbolTableRecord
100
AcDbBlockTableRecord
  2
AI9-BLK6
340
0
102
{BLKREFS
331
43
102
}
 70
     0
280
     1
281
     0
  0
BLOCK_RECORD
  5
45
330
1
100
AcDbSymbolTableRecord
100
AcDbBlockTableRecord
  2
AI9-BLK7
340
0
102
{BLKREFS
331
46
102
}
 70
     0
280
     1
281
     0
  0
BLOCK_RECORD
  5
48
330
1
100
AcDbSymbolTableRecord
100
AcDbBlockTableRecord
  2
AI9-BLK8
340
0
102
{BLKREFS
331
49
102
}
 70
     0
280
     1
281
     0
  0
BLOCK_RECORD
  5
60
330
1
100
AcDbSymbolTableRecord
100
AcDbBlockTableRecord
  2
AI9-BLK9
340
0
102
{BLKREFS
331
61
102
}
 70
     0
280
     1
281
     0
  0
BLOCK_RECORD
  5
65
330
1
100
AcDbSymbolTableRecord
100
AcDbBlockTableRecord
  2
AI9-BLK10
340
0
102
{BLKREFS
331
66
102
}
 70
     0
280
     1
281
     0
  0
BLOCK_RECORD
  5
6A
330
1
100
AcDbSymbolTableRecord
100
AcDbBlockTableRecord
  2
AI9-BLK11
340
0
102
{BLKREFS
331
6B
102
}
 70
     0
280
     1
281
     0
  0
BLOCK_RECORD
  5
6F
330
1
100
AcDbSymbolTableRecord
100
AcDbBlockTableRecord
  2
AI9-BLK12
340
0
102
{BLKREFS
331
70
102
}
 70
     0
280
     1
281
     0
  0
BLOCK_RECORD
  5
74
330
1
100
AcDbSymbolTableRecord
100
AcDbBlockTableRecord
  2
AI9-BLK13
340
0
102
{BLKREFS
331
75
102
}
 70
     0
280
     1
281
     0
  0
BLOCK_RECORD
  5
79
330
1
100
AcDbSymbolTableRecord
100
AcDbBlockTableRecord
  2
AI9-BLK14
340
0
102
{BLKREFS
331
7A
102
}
 70
     0
280
     1
281
     0
  0
BLOCK_RECORD
  5
7E
330
1
100
AcDbSymbolTableRecord
100
AcDbBlockTableRecord
  2
AI9-BLK15
340
0
102
{BLKREFS
331
7F
102
}
 70
     0
280
     1
281
     0
  0
BLOCK_RECORD
  5
83
330
1
100
AcDbSymbolTableRecord
100
AcDbBlockTableRecord
  2
AI9-BLK16
340
0
102
{BLKREFS
331
84
102
}
 70
     0
280
     1
281
     0
  0
BLOCK_RECORD
  5
88
330
1
100
AcDbSymbolTableRecord
100
AcDbBlockTableRecord
  2
AI9-BLK17
340
0
102
{BLKREFS
331
89
102
}
 70
     0
280
     1
281
     0
  0
BLOCK_RECORD
  5
8D
330
1
100
AcDbSymbolTableRecord
100
AcDbBlockTableRecord
  2
AI9-BLK18
340
0
102
{BLKREFS
331
8E
102
}
 70
     0
280
     1
281
     0
  0
BLOCK_RECORD
  5
92
330
1
100
AcDbSymbolTableRecord
100
AcDbBlockTableRecord
  2
AI9-BLK19
340
0
102
{BLKREFS
331
93
102
}
 70
     0
280
     1
281
     0
  0
BLOCK_RECORD
  5
97
330
1
100
AcDbSymbolTableRecord
100
AcDbBlockTableRecord
  2
AI9-BLK20
340
0
102
{BLKREFS
331
98
102
}
 70
     0
280
     1
281
     0
  0
BLOCK_RECORD
  5
9C
330
1
100
AcDbSymbolTableRecord
100
AcDbBlockTableRecord
  2
AI9-BLK21
340
0
102
{BLKREFS
331
9D
102
}
 70
     0
280
     1
281
     0
  0
BLOCK_RECORD
  5
A1
330
1
100
AcDbSymbolTableRecord
100
AcDbBlockTableRecord
  2
AI9-BLK22
340
0
102
{BLKREFS
331
A2
102
}
 70
     0
280
     1
281
     0
  0
BLOCK_RECORD
  5
A5
330
1
100
AcDbSymbolTableRecord
100
AcDbBlockTableRecord
  2
AI9-BLK23
340
0
102
{BLKREFS
331
A6
102
}
 70
     0
280
     1
281
     0
  0
BLOCK_RECORD
  5
A8
330
1
100
AcDbSymbolTableRecord
100
AcDbBlockTableRecord
  2
AI9-BLK24
340
0
102
{BLKREFS
331
A9
102
}
 70
     0
280
     1
281
     0
  0
BLOCK_RECORD
  5
AB
330
1
100
AcDbSymbolTableRecord
100
AcDbBlockTableRecord
  2
AI9-BLK25
340
0
102
{BLKREFS
331
AC
102
}
 70
     0
280
     1
281
     0
  0
BLOCK_RECORD
  5
B0
330
1
100
AcDbSymbolTableRecord
100
AcDbBlockTableRecord
  2
AI9-BLK26
340
0
102
{BLKREFS
331
B1
102
}
 70
     0
280
     1
281
     0
  0
BLOCK_RECORD
  5
B5
330
1
100
AcDbSymbolTableRecord
100
AcDbBlockTableRecord
  2
AI9-BLK27
340
0
102
{BLKREFS
331
B6
102
}
 70
     0
280
     1
281
     0
  0
BLOCK_RECORD
  5
BA
330
1
100
AcDbSymbolTableRecord
100
AcDbBlockTableRecord
  2
AI9-BLK28
340
0
102
{BLKREFS
331
BB
102
}
 70
     0
280
     1
281
     0
  0
BLOCK_RECORD
  5
BF
330
1
100
AcDbSymbolTableRecord
100
AcDbBlockTableRecord
  2
AI9-BLK29
340
0
102
{BLKREFS
331
C0
102
}
 70
     0
280
     1
281
     0
  0
BLOCK_RECORD
  5
C4
330
1
100
AcDbSymbolTableRecord
100
AcDbBlockTableRecord
  2
AI9-BLK30
340
0
102
{BLKREFS
331
C5
102
}
 70
     0
280
     1
281
     0
  0
BLOCK_RECORD
  5
C9
330
1
100
AcDbSymbolTableRecord
100
AcDbBlockTableRecord
  2
AI9-BLK31
340
0
102
{BLKREFS
331
CA
102
}
 70
     0
280
     1
281
     0
  0
BLOCK_RECORD
  5
D0
330
1
100
AcDbSymbolTableRecord
100
AcDbBlockTableRecord
  2
AI9-BLK32
340
0
102
{BLKREFS
331
D1
102
}
 70
     0
280
     1
281
     0
  0
BLOCK_RECORD
  5
D3
330
1
100
AcDbSymbolTableRecord
100
AcDbBlockTableRecord
  2
AI9-BLK33
340
0
102
{BLKREFS
331
D4
102
}
 70
     0
280
     1
281
     0
  0
BLOCK_RECORD
  5
D8
330
1
100
AcDbSymbolTableRecord
100
AcDbBlockTableRecord
  2
AI9-BLK34
340
0
102
{BLKREFS
331
D9
102
}
 70
     0
280
     1
281
     0
  0
BLOCK_RECORD
  5
DD
330
1
100
AcDbSymbolTableRecord
100
AcDbBlockTableRecord
  2
AI9-BLK35
340
0
102
{BLKREFS
331
DE
102
}
 70
     0
280
     1
281
     0
  0
BLOCK_RECORD
  5
E2
330
1
100
AcDbSymbolTableRecord
100
AcDbBlockTableRecord
  2
AI9-BLK36
340
0
102
{BLKREFS
331
E3
102
}
 70
     0
280
     1
281
     0
  0
BLOCK_RECORD
  5
E7
330
1
100
AcDbSymbolTableRecord
100
AcDbBlockTableRecord
  2
AI9-BLK37
340
0
102
{BLKREFS
331
E8
102
}
 70
     0
280
     1
281
     0
  0
BLOCK_RECORD
  5
EC
330
1
100
AcDbSymbolTableRecord
100
AcDbBlockTableRecord
  2
AI9-BLK38
340
0
102
{BLKREFS
331
ED
102
}
 70
     0
280
     1
281
     0
  0
BLOCK_RECORD
  5
F1
330
1
100
AcDbSymbolTableRecord
100
AcDbBlockTableRecord
  2
AI9-BLK39
340
0
102
{BLKREFS
331
F2
102
}
 70
     0
280
     1
281
     0
  0
BLOCK_RECORD
  5
F6
330
1
100
AcDbSymbolTableRecord
100
AcDbBlockTableRecord
  2
AI9-BLK40
340
0
102
{BLKREFS
331
F7
102
}
 70
     0
280
     1
281
     0
  0
BLOCK_RECORD
  5
108
330
1
100
AcDbSymbolTableRecord
100
AcDbBlockTableRecord
  2
AI9-BLK41
340
0
102
{BLKREFS
331
109
102
}
 70
     0
280
     1
281
     0
  0
ENDTAB
  0
ENDSEC
  0
SECTION
  2
BLOCKS
  0
BLOCK
  5
D
330
A
100
AcDbEntity
  8
0
100
AcDbBlockBegin
  2
*MODEL_SPACE
 70
     0
 10
0.0
 20
0.0
 30
0.0
  3
*MODEL_SPACE
  1

  0
ENDBLK
  5
E
330
A
100
AcDbEntity
  8
0
100
AcDbBlockEnd
  0
BLOCK
  5
F
330
B
100
AcDbEntity
 67
     1
  8
0
100
AcDbBlockBegin
  2
*PAPER_SPACE
 70
     0
 10
0.0
 20
0.0
 30
0.0
  3
*PAPER_SPACE
  1

  0
ENDBLK
  5
10
330
B
100
AcDbEntity
 67
     1
  8
0
100
AcDbBlockEnd
  0
BLOCK
  5
2E
330
2C
100
AcDbEntity
  8
LAYER_1
 62
     7
100
AcDbBlockBegin
  2
AI9-BLK1
 70
     0
 10
0.0
 20
0.0
 30
0.0
  3
AI9-BLK1
  1

  0
INSERT
  5
30
330
2C
100
AcDbEntity
  8
LAYER_1
 62
     7
100
AcDbBlockReference
  2
AI9-BLK2
 10
0.0
 20
0.0
 30
0.0
  0
ENDBLK
  5
3E
330
2C
100
AcDbEntity
  8
LAYER_1
100
AcDbBlockEnd
  0
BLOCK
  5
31
330
2F
100
AcDbEntity
  8
LAYER_1
 62
     7
100
AcDbBlockBegin
  2
AI9-BLK2
 70
     0
 10
0.0
 20
0.0
 30
0.0
  3
AI9-BLK2
  1

  0
INSERT
  5
33
330
2F
100
AcDbEntity
  8
LAYER_1
 62
     7
100
AcDbBlockReference
  2
AI9-BLK3
 10
0.0
 20
0.0
 30
0.0
  0
ENDBLK
  5
3D
330
2F
100
AcDbEntity
  8
LAYER_1
100
AcDbBlockEnd
  0
BLOCK
  5
34
330
32
100
AcDbEntity
  8
LAYER_1
 62
     7
100
AcDbBlockBegin
  2
AI9-BLK3
 70
     0
 10
0.0
 20
0.0
 30
0.0
  3
AI9-BLK3
  1

  0
INSERT
  5
36
330
32
100
AcDbEntity
  8
LAYER_1
 62
     7
100
AcDbBlockReference
  2
AI9-BLK4
 10
0.0
 20
0.0
 30
0.0
  0
ENDBLK
  5
3C
330
32
100
AcDbEntity
  8
LAYER_1
100
AcDbBlockEnd
  0
BLOCK
  5
37
330
35
100
AcDbEntity
  8
LAYER_1
 62
     7
100
AcDbBlockBegin
  2
AI9-BLK4
 70
     0
 10
0.0
 20
0.0
 30
0.0
  3
AI9-BLK4
  1

  0
CIRCLE
  5
3A
330
35
100
AcDbEntity
  8
LAYER_1
 62
     7
100
AcDbCircle
 10
0.000172
 20
-0.000345
 30
0.0
 40
1.000111
  0
LINE
  5
39
330
35
100
AcDbEntity
  8
LAYER_1
 62
     7
100
AcDbLine
 10
-0.000172
 20
1.999878
 30
0.0
 11
-0.000172
 21
-1.999878
 31
0.0
  0
LINE
  5
38
330
35
100
AcDbEntity
  8
LAYER_1
 62
     7
100
AcDbLine
 10
-2.00005
 20
-0.000345
 30
0.0
 11
2.00005
 21
-0.000345
 31
0.0
  0
ENDBLK
  5
3B
330
35
100
AcDbEntity
  8
LAYER_1
100
AcDbBlockEnd
  0
BLOCK
  5
41
330
3F
100
AcDbEntity
  8
LAYER_1
 62
     7
100
AcDbBlockBegin
  2
AI9-BLK5
 70
     0
 10
0.0
 20
0.0
 30
0.0
  3
AI9-BLK5
  1

  0
INSERT
  5
43
330
3F
100
AcDbEntity
  8
LAYER_1
 62
     7
100
AcDbBlockReference
  2
AI9-BLK6
 10
0.0
 20
0.0
 30
0.0
  0
ENDBLK
  5
51
330
3F
100
AcDbEntity
  8
LAYER_1
100
AcDbBlockEnd
  0
BLOCK
  5
44
330
42
100
AcDbEntity
  8
LAYER_1
 62
     7
100
AcDbBlockBegin
  2
AI9-BLK6
 70
     0
 10
0.0
 20
0.0
 30
0.0
  3
AI9-BLK6
  1

  0
INSERT
  5
46
330
42
100
AcDbEntity
  8
LAYER_1
 62
     7
100
AcDbBlockReference
  2
AI9-BLK7
 10
0.0
 20
0.0
 30
0.0
  0
ENDBLK
  5
50
330
42
100
AcDbEntity
  8
LAYER_1
100
AcDbBlockEnd
  0
BLOCK
  5
47
330
45
100
AcDbEntity
  8
LAYER_1
 62
     7
100
AcDbBlockBegin
  2
AI9-BLK7
 70
     0
 10
0.0
 20
0.0
 30
0.0
  3
AI9-BLK7
  1

  0
INSERT
  5
49
330
45
100
AcDbEntity
  8
LAYER_1
 62
     7
100
AcDbBlockReference
  2
AI9-BLK8
 10
0.0
 20
0.0
 30
0.0
  0
ENDBLK
  5
4F
330
45
100
AcDbEntity
  8
LAYER_1
100
AcDbBlockEnd
  0
BLOCK
  5
4A
330
48
100
AcDbEntity
  8
LAYER_1
 62
     7
100
AcDbBlockBegin
  2
AI9-BLK8
 70
     0
 10
0.0
 20
0.0
 30
0.0
  3
AI9-BLK8
  1

  0
CIRCLE
  5
4D
330
48
100
AcDbEntity
  8
LAYER_1
 62
     7
100
AcDbCircle
 10
0.000172
 20
-0.000345
 30
0.0
 40
1.000111
  0
LINE
  5
4C
330
48
100
AcDbEntity
  8
LAYER_1
 62
     7
100
AcDbLine
 10
-0.000172
 20
1.999878
 30
0.0
 11
-0.000172
 21
-1.999878
 31
0.0
  0
LINE
  5
4B
330
48
100
AcDbEntity
  8
LAYER_1
 62
     7
100
AcDbLine
 10
-2.00005
 20
-0.000345
 30
0.0
 11
2.00005
 21
-0.000345
 31
0.0
  0
ENDBLK
  5
4E
330
48
100
AcDbEntity
  8
LAYER_1
100
AcDbBlockEnd
  0
BLOCK
  5
62
330
60
100
AcDbEntity
  8
LAYER_1
 62
     7
100
AcDbBlockBegin
  2
AI9-BLK9
 70
     0
 10
0.0
 20
0.0
 30
0.0
  3
AI9-BLK9
  1

  0
HATCH
  5
63
330
60
100
AcDbEntity
  8
LAYER_1
 62
     7
100
AcDbHatch
 10
0.0
 20
0.0
 30
0.0
210
0.0
220
0.0
230
1.0
  2
SOLID
 70
     1
 71
     0
 91
        1
 92
        1
 93
        1
 72
     4
 94
        3
 73
     0
 74
     0
 95
       14
 96
       10
 40
0.0
 40
0.0
 40
0.0
 40
0.0
 40
1.0
 40
1.0
 40
1.0
 40
2.0
 40
2.0
 40
2.0
 40
3.0
 40
3.0
 40
3.0
 40
3.0
 10
-0.3632853190104166
 20
0.1607137044270833
 10
-0.3632853190104166
 20
0.1607137044270833
 10
-0.0990464952256944
 20
0.2916273328993055
 10
0.3632853190104166
 20
-0.4445895724826389
 10
-0.0925008138020833
 20
0.2978285047743055
 10
0.2199693467881944
 20
0.4445895724826389
 10
0.2134236653645833
 20
0.4445895724826389
 10
0.2134236653645833
 20
0.4445895724826389
 10
-0.3632853190104166
 20
0.1607137044270833
 10
-0.3632853190104166
 20
0.1607137044270833
 97
        0
 97
        0
 75
     0
 76
     1
 98
        1
 10
0.0
 20
0.0
  0
ENDBLK
  5
64
330
60
100
AcDbEntity
  8
LAYER_1
100
AcDbBlockEnd
  0
BLOCK
  5
67
330
65
100
AcDbEntity
  8
LAYER_1
 62
     7
100
AcDbBlockBegin
  2
AI9-BLK10
 70
     0
 10
0.0
 20
0.0
 30
0.0
  3
AI9-BLK10
  1

  0
HATCH
  5
68
330
65
100
AcDbEntity
  8
LAYER_1
 62
     7
100
AcDbHatch
 10
0.0
 20
0.0
 30
0.0
210
0.0
220
0.0
230
1.0
  2
SOLID
 70
     1
 71
     0
 91
        1
 92
        1
 93
        1
 72
     4
 94
        3
 73
     0
 74
     0
 95
       14
 96
       10
 40
0.0
 40
0.0
 40
0.0
 40
0.0
 40
1.0
 40
1.0
 40
1.0
 40
2.0
 40
2.0
 40
2.0
 40
3.0
 40
3.0
 40
3.0
 40
3.0
 10
-0.4047987196180555
 20
0.1755276150173611
 10
-0.4047987196180555
 20
0.1755276150173611
 10
-0.1274685329861111
 20
0.3856784396701389
 10
0.4047987196180555
 20
-0.5004001193576388
 10
-0.117822265625
 20
0.4049709743923611
 10
0.2166965060763889
 20
0.50694580078125
 10
0.1719102647569444
 20
0.5004001193576388
 10
0.1719102647569444
 20
0.5004001193576388
 10
-0.4047987196180555
 20
0.1755276150173611
 10
-0.4047987196180555
 20
0.1755276150173611
 97
        0
 97
        0
 75
     0
 76
     1
 98
        1
 10
0.0
 20
0.0
  0
ENDBLK
  5
69
330
65
100
AcDbEntity
  8
LAYER_1
100
AcDbBlockEnd
  0
BLOCK
  5
6C
330
6A
100
AcDbEntity
  8
LAYER_1
 62
     7
100
AcDbBlockBegin
  2
AI9-BLK11
 70
     0
 10
0.0
 20
0.0
 30
0.0
  3
AI9-BLK11
  1

  0
HATCH
  5
6D
330
6A
100
AcDbEntity
  8
LAYER_1
 62
     7
100
AcDbHatch
 10
0.0
 20
0.0
 30
0.0
210
0.0
220
0.0
230
1.0
  2
SOLID
 70
     1
 71
     0
 91
        1
 92
        1
 93
        1
 72
     4
 94
        3
 73
     0
 74
     0
 95
       14
 96
       10
 40
0.0
 40
0.0
 40
0.0
 40
0.0
 40
1.0
 40
1.0
 40
1.0
 40
2.0
 40
2.0
 40
2.0
 40
3.0
 40
3.0
 40
3.0
 40
3.0
 10
-0.3696587456597222
 20
0.23409423828125
 10
-0.3696587456597222
 20
0.23409423828125
 10
-0.0926730685763889
 20
0.4063490125868055
 10
0.3696587456597222
 20
-0.5465643988715277
 10
-0.0861273871527778
 20
0.4190958658854166
 10
0.2132514105902778
 20
0.5465643988715277
 10
0.2132514105902778
 20
0.5465643988715277
 10
0.2132514105902778
 20
0.5465643988715277
 10
-0.3696587456597222
 20
0.23409423828125
 10
-0.3696587456597222
 20
0.23409423828125
 97
        0
 97
        0
 75
     0
 76
     1
 98
        1
 10
0.0
 20
0.0
  0
ENDBLK
  5
6E
330
6A
100
AcDbEntity
  8
LAYER_1
100
AcDbBlockEnd
  0
BLOCK
  5
71
330
6F
100
AcDbEntity
  8
LAYER_1
 62
     7
100
AcDbBlockBegin
  2
AI9-BLK12
 70
     0
 10
0.0
 20
0.0
 30
0.0
  3
AI9-BLK12
  1

  0
HATCH
  5
72
330
6F
100
AcDbEntity
  8
LAYER_1
 62
     7
100
AcDbHatch
 10
0.0
 20
0.0
 30
0.0
210
0.0
220
0.0
230
1.0
  2
SOLID
 70
     1
 71
     0
 91
        1
 92
        1
 93
        1
 72
     4
 94
        3
 73
     0
 74
     0
 95
       14
 96
       10
 40
0.0
 40
0.0
 40
0.0
 40
0.0
 40
1.0
 40
1.0
 40
1.0
 40
2.0
 40
2.0
 40
2.0
 40
3.0
 40
3.0
 40
3.0
 40
3.0
 10
-0.3522610134548611
 20
0.1846571180555555
 10
-0.3522610134548611
 20
0.1846571180555555
 10
-0.0366902669270833
 20
0.3762044270833333
 10
0.3522610134548611
 20
-0.5098741319444444
 10
-0.0556382921006944
 20
0.3696587456597222
 10
0.22789306640625
 20
0.5098741319444444
 10
0.22789306640625
 20
0.5098741319444444
 10
0.22789306640625
 20
0.5098741319444444
 10
-0.3522610134548611
 20
0.1846571180555555
 10
-0.3522610134548611
 20
0.1846571180555555
 97
        0
 97
        0
 75
     0
 76
     1
 98
        1
 10
0.0
 20
0.0
  0
ENDBLK
  5
73
330
6F
100
AcDbEntity
  8
LAYER_1
100
AcDbBlockEnd
  0
BLOCK
  5
76
330
74
100
AcDbEntity
  8
LAYER_1
 62
     7
100
AcDbBlockBegin
  2
AI9-BLK13
 70
     0
 10
0.0
 20
0.0
 30
0.0
  3
AI9-BLK13
  1

  0
HATCH
  5
77
330
74
100
AcDbEntity
  8
LAYER_1
 62
     7
100
AcDbHatch
 10
0.0
 20
0.0
 30
0.0
210
0.0
220
0.0
230
1.0
  2
SOLID
 70
     1
 71
     0
 91
        1
 92
        1
 93
        1
 72
     4
 94
        3
 73
     0
 74
     0
 95
       14
 96
       10
 40
0.0
 40
0.0
 40
0.0
 40
0.0
 40
1.0
 40
1.0
 40
1.0
 40
2.0
 40
2.0
 40
2.0
 40
3.0
 40
3.0
 40
3.0
 40
3.0
 10
-0.3569118923611111
 20
0.1944756401909722
 10
-0.3569118923611111
 20
0.1944756401909722
 10
-0.0509874131944444
 20
0.3408921983506944
 10
0.3569118923611111
 20
-0.4683607313368055
 10
-0.0285942925347222
 20
0.3501939561631944
 10
0.2263427734375
 20
0.4683607313368055
 10
0.2232421875
 20
0.4683607313368055
 10
0.2232421875
 20
0.4683607313368055
 10
-0.3569118923611111
 20
0.1944756401909722
 10
-0.3569118923611111
 20
0.1944756401909722
 97
        0
 97
        0
 75
     0
 76
     1
 98
        1
 10
0.0
 20
0.0
  0
ENDBLK
  5
78
330
74
100
AcDbEntity
  8
LAYER_1
100
AcDbBlockEnd
  0
BLOCK
  5
7B
330
79
100
AcDbEntity
  8
LAYER_1
 62
     7
100
AcDbBlockBegin
  2
AI9-BLK14
 70
     0
 10
0.0
 20
0.0
 30
0.0
  3
AI9-BLK14
  1

  0
HATCH
  5
7C
330
79
100
AcDbEntity
  8
LAYER_1
 62
     7
100
AcDbHatch
 10
0.0
 20
0.0
 30
0.0
210
0.0
220
0.0
230
1.0
  2
SOLID
 70
     1
 71
     0
 91
        1
 92
        1
 93
        1
 72
     4
 94
        3
 73
     0
 74
     0
 95
       14
 96
       10
 40
0.0
 40
0.0
 40
0.0
 40
0.0
 40
1.0
 40
1.0
 40
1.0
 40
2.0
 40
2.0
 40
2.0
 40
3.0
 40
3.0
 40
3.0
 40
3.0
 10
-0.4189236111111111
 20
0.0125745985243056
 10
-0.4189236111111111
 20
0.0125745985243056
 10
-0.1322916666666666
 20
0.3091973198784722
 10
0.4189236111111111
 20
-0.4876532660590278
 10
-0.1353922526041667
 20
0.2964504665798611
 10
0.1260904947916667
 20
0.4876532660590278
 10
0.1226453993055555
 20
0.4876532660590278
 10
0.1226453993055555
 20
0.4876532660590278
 10
-0.4189236111111111
 20
0.0125745985243056
 10
-0.4189236111111111
 20
0.0125745985243056
 97
        0
 97
        0
 75
     0
 76
     1
 98
        1
 10
0.0
 20
0.0
  0
ENDBLK
  5
7D
330
79
100
AcDbEntity
  8
LAYER_1
100
AcDbBlockEnd
  0
BLOCK
  5
80
330
7E
100
AcDbEntity
  8
LAYER_1
 62
     7
100
AcDbBlockBegin
  2
AI9-BLK15
 70
     0
 10
0.0
 20
0.0
 30
0.0
  3
AI9-BLK15
  1

  0
HATCH
  5
81
330
7E
100
AcDbEntity
  8
LAYER_1
 62
     7
100
AcDbHatch
 10
0.0
 20
0.0
 30
0.0
210
0.0
220
0.0
230
1.0
  2
SOLID
 70
     1
 71
     0
 91
        1
 92
        1
 93
        1
 72
     4
 94
        3
 73
     0
 74
     0
 95
       14
 96
       10
 40
0.0
 40
0.0
 40
0.0
 40
0.0
 40
1.0
 40
1.0
 40
1.0
 40
2.0
 40
2.0
 40
2.0
 40
3.0
 40
3.0
 40
3.0
 40
3.0
 10
-0.2614827473958333
 20
-0.3379638671875
 10
-0.2614827473958333
 20
-0.3379638671875
 10
-0.3889512803819444
 20
-0.117822265625
 10
0.5033284505208333
 20
0.3379638671875
 10
-0.3824055989583333
 20
-0.0954291449652778
 10
-0.5033284505208333
 20
0.2135959201388889
 10
-0.5033284505208333
 20
0.2135959201388889
 10
-0.5033284505208333
 20
0.2135959201388889
 10
-0.2614827473958333
 20
-0.3379638671875
 10
-0.2614827473958333
 20
-0.3379638671875
 97
        0
 97
        0
 75
     0
 76
     1
 98
        1
 10
0.0
 20
0.0
  0
ENDBLK
  5
82
330
7E
100
AcDbEntity
  8
LAYER_1
100
AcDbBlockEnd
  0
BLOCK
  5
85
330
83
100
AcDbEntity
  8
LAYER_1
 62
     7
100
AcDbBlockBegin
  2
AI9-BLK16
 70
     0
 10
0.0
 20
0.0
 30
0.0
  3
AI9-BLK16
  1

  0
HATCH
  5
86
330
83
100
AcDbEntity
  8
LAYER_1
 62
     7
100
AcDbHatch
 10
0.0
 20
0.0
 30
0.0
210
0.0
220
0.0
230
1.0
  2
SOLID
 70
     1
 71
     0
 91
        1
 92
        1
 93
        1
 72
     4
 94
        3
 73
     0
 74
     0
 95
       14
 96
       10
 40
0.0
 40
0.0
 40
0.0
 40
0.0
 40
1.0
 40
1.0
 40
1.0
 40
2.0
 40
2.0
 40
2.0
 40
3.0
 40
3.0
 40
3.0
 40
3.0
 10
0.3059244791666667
 20
-0.1067979600694444
 10
0.3059244791666667
 20
-0.1067979600694444
 10
0.0351399739583333
 20
-0.1643310546875
 10
-0.0475423177083333
 20
0.2215196397569444
 10
0.0161919487847222
 20
-0.1643310546875
 10
-0.3090250651041667
 20
-0.2215196397569444
 10
-0.3059244791666667
 20
-0.2215196397569444
 10
-0.3059244791666667
 20
-0.2215196397569444
 10
0.3059244791666667
 20
-0.1067979600694444
 10
0.3059244791666667
 20
-0.1067979600694444
 97
        0
 97
        0
 75
     0
 76
     1
 98
        1
 10
0.0
 20
0.0
  0
ENDBLK
  5
87
330
83
100
AcDbEntity
  8
LAYER_1
100
AcDbBlockEnd
  0
BLOCK
  5
8A
330
88
100
AcDbEntity
  8
LAYER_1
 62
     7
100
AcDbBlockBegin
  2
AI9-BLK17
 70
     0
 10
0.0
 20
0.0
 30
0.0
  3
AI9-BLK17
  1

  0
HATCH
  5
8B
330
88
100
AcDbEntity
  8
LAYER_1
 62
     7
100
AcDbHatch
 10
0.0
 20
0.0
 30
0.0
210
0.0
220
0.0
230
1.0
  2
SOLID
 70
     1
 71
     0
 91
        1
 92
        1
 93
        1
 72
     4
 94
        3
 73
     0
 74
     0
 95
       14
 96
       10
 40
0.0
 40
0.0
 40
0.0
 40
0.0
 40
1.0
 40
1.0
 40
1.0
 40
2.0
 40
2.0
 40
2.0
 40
3.0
 40
3.0
 40
3.0
 40
3.0
 10
0.3681084526909722
 20
-0.1546847873263889
 10
0.3681084526909722
 20
-0.1546847873263889
 10
0.0173977322048611
 20
-0.2632052951388889
 10
-0.3140204535590278
 20
0.4030761718749999
 10
0.00465087890625
 20
-0.2756076388888888
 10
-0.3712090386284722
 20
-0.4030761718749999
 10
-0.3681084526909722
 20
-0.4030761718749999
 10
-0.3681084526909722
 20
-0.4030761718749999
 10
0.3681084526909722
 20
-0.1546847873263889
 10
0.3681084526909722
 20
-0.1546847873263889
 97
        0
 97
        0
 75
     0
 76
     1
 98
        1
 10
0.0
 20
0.0
  0
ENDBLK
  5
8C
330
88
100
AcDbEntity
  8
LAYER_1
100
AcDbBlockEnd
  0
BLOCK
  5
8F
330
8D
100
AcDbEntity
  8
LAYER_1
 62
     7
100
AcDbBlockBegin
  2
AI9-BLK18
 70
     0
 10
0.0
 20
0.0
 30
0.0
  3
AI9-BLK18
  1

  0
HATCH
  5
90
330
8D
100
AcDbEntity
  8
LAYER_1
 62
     7
100
AcDbHatch
 10
0.0
 20
0.0
 30
0.0
210
0.0
220
0.0
230
1.0
  2
SOLID
 70
     1
 71
     0
 91
        1
 92
        1
 93
        1
 72
     4
 94
        3
 73
     0
 74
     0
 95
       14
 96
       10
 40
0.0
 40
0.0
 40
0.0
 40
0.0
 40
1.0
 40
1.0
 40
1.0
 40
2.0
 40
2.0
 40
2.0
 40
3.0
 40
3.0
 40
3.0
 40
3.0
 10
0.3059244791666667
 20
-0.0926730685763889
 10
0.3059244791666667
 20
-0.0926730685763889
 10
0.0416856553819444
 20
-0.2166965060763889
 10
-0.2866319444444444
 20
0.3248725043402778
 10
0.0320393880208333
 20
-0.2263427734375
 10
-0.3059244791666667
 20
-0.3248725043402778
 10
-0.3059244791666667
 20
-0.3248725043402778
 10
-0.3059244791666667
 20
-0.3248725043402778
 10
0.3059244791666667
 20
-0.0926730685763889
 10
0.3059244791666667
 20
-0.0926730685763889
 97
        0
 97
        0
 75
     0
 76
     1
 98
        1
 10
0.0
 20
0.0
  0
ENDBLK
  5
91
330
8D
100
AcDbEntity
  8
LAYER_1
100
AcDbBlockEnd
  0
BLOCK
  5
94
330
92
100
AcDbEntity
  8
LAYER_1
 62
     7
100
AcDbBlockBegin
  2
AI9-BLK19
 70
     0
 10
0.0
 20
0.0
 30
0.0
  3
AI9-BLK19
  1

  0
HATCH
  5
95
330
92
100
AcDbEntity
  8
LAYER_1
 62
     7
100
AcDbHatch
 10
0.0
 20
0.0
 30
0.0
210
0.0
220
0.0
230
1.0
  2
SOLID
 70
     1
 71
     0
 91
        1
 92
        1
 93
        1
 72
     4
 94
        3
 73
     0
 74
     0
 95
       14
 96
       10
 40
0.0
 40
0.0
 40
0.0
 40
0.0
 40
1.0
 40
1.0
 40
1.0
 40
2.0
 40
2.0
 40
2.0
 40
3.0
 40
3.0
 40
3.0
 40
3.0
 10
0.3074747721354166
 20
-0.0253214518229167
 10
0.3074747721354166
 20
-0.0253214518229167
 10
-0.0080959743923611
 20
-0.1403876410590278
 10
-0.0876776801215278
 20
0.2103230794270833
 10
-0.0270439995659722
 20
-0.1465888129340278
 10
-0.3109198676215277
 20
-0.2103230794270833
 10
-0.3074747721354166
 20
-0.2103230794270833
 10
-0.3074747721354166
 20
-0.2103230794270833
 10
0.3074747721354166
 20
-0.0253214518229167
 10
0.3074747721354166
 20
-0.0253214518229167
 97
        0
 97
        0
 75
     0
 76
     1
 98
        1
 10
0.0
 20
0.0
  0
ENDBLK
  5
96
330
92
100
AcDbEntity
  8
LAYER_1
100
AcDbBlockEnd
  0
BLOCK
  5
99
330
97
100
AcDbEntity
  8
LAYER_1
 62
     7
100
AcDbBlockBegin
  2
AI9-BLK20
 70
     0
 10
0.0
 20
0.0
 30
0.0
  3
AI9-BLK20
  1

  0
HATCH
  5
9A
330
97
100
AcDbEntity
  8
LAYER_1
 62
     7
100
AcDbHatch
 10
0.0
 20
0.0
 30
0.0
210
0.0
220
0.0
230
1.0
  2
SOLID
 70
     1
 71
     0
 91
        1
 92
        1
 93
        1
 72
     4
 94
        3
 73
     0
 74
     0
 95
       14
 96
       10
 40
0.0
 40
0.0
 40
0.0
 40
0.0
 40
1.0
 40
1.0
 40
1.0
 40
2.0
 40
2.0
 40
2.0
 40
3.0
 40
3.0
 40
3.0
 40
3.0
 10
0.291455078125
 20
-0.0859551323784722
 10
0.291455078125
 20
-0.0859551323784722
 10
0.0048231336805556
 20
-0.1431437174479167
 10
-0.0875054253472222
 20
0.2072224934895833
 10
-0.0048231336805556
 20
-0.1496893988715278
 10
-0.291455078125
 20
-0.2072224934895833
 10
-0.291455078125
 20
-0.2072224934895833
 10
-0.291455078125
 20
-0.2072224934895833
 10
0.291455078125
 20
-0.0859551323784722
 10
0.291455078125
 20
-0.0859551323784722
 97
        0
 97
        0
 75
     0
 76
     1
 98
        1
 10
0.0
 20
0.0
  0
ENDBLK
  5
9B
330
97
100
AcDbEntity
  8
LAYER_1
100
AcDbBlockEnd
  0
BLOCK
  5
9E
330
9C
100
AcDbEntity
  8
LAYER_1
 62
     7
100
AcDbBlockBegin
  2
AI9-BLK21
 70
     0
 10
0.0
 20
0.0
 30
0.0
  3
AI9-BLK21
  1

  0
HATCH
  5
9F
330
9C
100
AcDbEntity
  8
LAYER_1
 62
     7
100
AcDbHatch
 10
0.0
 20
0.0
 30
0.0
210
0.0
220
0.0
230
1.0
  2
SOLID
 70
     1
 71
     0
 91
        1
 92
        1
 93
        1
 72
     4
 94
        3
 73
     0
 74
     0
 95
       14
 96
       10
 40
0.0
 40
0.0
 40
0.0
 40
0.0
 40
1.0
 40
1.0
 40
1.0
 40
2.0
 40
2.0
 40
2.0
 40
3.0
 40
3.0
 40
3.0
 40
3.0
 10
0.2628607855902778
 20
-0.0621839735243055
 10
0.2659613715277778
 20
-0.0432359483506944
 10
0.0334174262152778
 20
-0.1641587999131944
 10
-0.1577853732638889
 20
0.2595879448784722
 10
0.0237711588541667
 20
-0.1707044813368056
 10
-0.2628607855902778
 20
-0.2471856011284722
 10
-0.2628607855902778
 20
-0.2595879448784722
 10
-0.2628607855902778
 20
-0.2595879448784722
 10
0.2628607855902778
 20
-0.0621839735243055
 10
0.2628607855902778
 20
-0.0621839735243055
 97
        0
 97
        0
 75
     0
 76
     1
 98
        1
 10
0.0
 20
0.0
  0
ENDBLK
  5
A0
330
9C
100
AcDbEntity
  8
LAYER_1
100
AcDbBlockEnd
  0
BLOCK
  5
A3
330
A1
100
AcDbEntity
  8
LAYER_1
 62
     7
100
AcDbBlockBegin
  2
AI9-BLK22
 70
     0
 10
0.0
 20
0.0
 30
0.0
  3
AI9-BLK22
  1

  0
ENDBLK
  5
A4
330
A1
100
AcDbEntity
  8
LAYER_1
100
AcDbBlockEnd
  0
BLOCK
  5
A7
330
A5
100
AcDbEntity
  8
LAYER_1
 62
     7
100
AcDbBlockBegin
  2
AI9-BLK23
 70
     0
 10
0.0
 20
0.0
 30
0.0
  3
AI9-BLK23
  1

  0
INSERT
  5
A9
330
A5
100
AcDbEntity
  8
LAYER_1
 62
     7
100
AcDbBlockReference
  2
AI9-BLK24
 10
0.0
 20
0.0
 30
0.0
  0
ENDBLK
  5
CF
330
A5
100
AcDbEntity
  8
LAYER_1
100
AcDbBlockEnd
  0
BLOCK
  5
AA
330
A8
100
AcDbEntity
  8
LAYER_1
 62
     7
100
AcDbBlockBegin
  2
AI9-BLK24
 70
     0
 10
0.0
 20
0.0
 30
0.0
  3
AI9-BLK24
  1

  0
INSERT
  5
CA
330
A8
100
AcDbEntity
  8
LAYER_1
 62
     7
100
AcDbBlockReference
  2
AI9-BLK31
 10
-3.151573
 20
0.9114
 30
0.0
  0
INSERT
  5
C5
330
A8
100
AcDbEntity
  8
LAYER_1
 62
     7
100
AcDbBlockReference
  2
AI9-BLK30
 10
-3.790466
 20
-0.157785
 30
0.0
  0
INSERT
  5
C0
330
A8
100
AcDbEntity
  8
LAYER_1
 62
     7
100
AcDbBlockReference
  2
AI9-BLK29
 10
-3.358796
 20
-1.010102
 30
0.0
  0
INSERT
  5
BB
330
A8
100
AcDbEntity
  8
LAYER_1
 62
     7
100
AcDbBlockReference
  2
AI9-BLK28
 10
-1.062812
 20
-0.49885
 30
0.0
  0
INSERT
  5
B6
330
A8
100
AcDbEntity
  8
LAYER_1
 62
     7
100
AcDbBlockReference
  2
AI9-BLK27
 10
2.767617
 20
0.492304
 30
0.0
  0
INSERT
  5
B1
330
A8
100
AcDbEntity
  8
LAYER_1
 62
     7
100
AcDbBlockReference
  2
AI9-BLK26
 10
3.330029
 20
0.850939
 30
0.0
  0
INSERT
  5
AC
330
A8
100
AcDbEntity
  8
LAYER_1
 62
     7
100
AcDbBlockReference
  2
AI9-BLK25
 10
3.973745
 20
1.221975
 30
0.0
  0
ENDBLK
  5
CE
330
A8
100
AcDbEntity
  8
LAYER_1
100
AcDbBlockEnd
  0
BLOCK
  5
AD
330
AB
100
AcDbEntity
  8
LAYER_1
 62
     7
100
AcDbBlockBegin
  2
AI9-BLK25
 70
     0
 10
0.0
 20
0.0
 30
0.0
  3
AI9-BLK25
  1

  0
HATCH
  5
AE
330
AB
100
AcDbEntity
  8
LAYER_1
 62
     7
100
AcDbHatch
 10
0.0
 20
0.0
 30
0.0
210
0.0
220
0.0
230
1.0
  2
SOLID
 70
     1
 71
     0
 91
        1
 92
        1
 93
        1
 72
     4
 94
        3
 73
     0
 74
     0
 95
       14
 96
       10
 40
0.0
 40
0.0
 40
0.0
 40
0.0
 40
1.0
 40
1.0
 40
1.0
 40
2.0
 40
2.0
 40
2.0
 40
3.0
 40
3.0
 40
3.0
 40
3.0
 10
0.3028238932291666
 20
0.0461642795138889
 10
0.3090250651041667
 20
0.0527099609375
 10
0.0988742404513889
 20
-0.1192003038194444
 10
-0.3028238932291666
 20
0.2439127604166667
 10
0.1274685329861111
 20
-0.1322916666666666
 10
-0.1498616536458333
 20
-0.2466688368055555
 10
-0.1467610677083333
 20
-0.2439127604166667
 10
0.0447862413194444
 20
-0.1257459852430556
 10
0.1212673611111111
 20
-0.0747585720486111
 10
0.3028238932291666
 20
0.0461642795138889
 97
        0
 97
        0
 75
     0
 76
     1
 98
        1
 10
0.0
 20
0.0
  0
ENDBLK
  5
AF
330
AB
100
AcDbEntity
  8
LAYER_1
100
AcDbBlockEnd
  0
BLOCK
  5
B2
330
B0
100
AcDbEntity
  8
LAYER_1
 62
     7
100
AcDbBlockBegin
  2
AI9-BLK26
 70
     0
 10
0.0
 20
0.0
 30
0.0
  3
AI9-BLK26
  1

  0
HATCH
  5
B3
330
B0
100
AcDbEntity
  8
LAYER_1
 62
     7
100
AcDbHatch
 10
0.0
 20
0.0
 30
0.0
210
0.0
220
0.0
230
1.0
  2
SOLID
 70
     1
 71
     0
 91
        1
 92
        1
 93
        1
 72
     4
 94
        3
 73
     0
 74
     0
 95
       14
 96
       10
 40
0.0
 40
0.0
 40
0.0
 40
0.0
 40
1.0
 40
1.0
 40
1.0
 40
2.0
 40
2.0
 40
2.0
 40
3.0
 40
3.0
 40
3.0
 40
3.0
 10
0.2644110785590277
 20
-0.0065456814236111
 10
0.2644110785590277
 20
-0.0031005859375
 10
0.0349677191840278
 20
-0.1340142144097222
 10
-0.2644110785590277
 20
0.2835313585069444
 10
0.0222208658854167
 20
-0.1467610677083333
 10
-0.2485636393229166
 20
-0.2835313585069444
 10
-0.2485636393229166
 20
-0.2835313585069444
 10
-0.0670071072048611
 20
-0.1881022135416667
 10
0.0797539605034722
 20
-0.1278130425347222
 10
0.2644110785590277
 20
-0.0065456814236111
 97
        0
 97
        0
 75
     0
 76
     1
 98
        1
 10
0.0
 20
0.0
  0
ENDBLK
  5
B4
330
B0
100
AcDbEntity
  8
LAYER_1
100
AcDbBlockEnd
  0
BLOCK
  5
B7
330
B5
100
AcDbEntity
  8
LAYER_1
 62
     7
100
AcDbBlockBegin
  2
AI9-BLK27
 70
     0
 10
0.0
 20
0.0
 30
0.0
  3
AI9-BLK27
  1

  0
HATCH
  5
B8
330
B5
100
AcDbEntity
  8
LAYER_1
 62
     7
100
AcDbHatch
 10
0.0
 20
0.0
 30
0.0
210
0.0
220
0.0
230
1.0
  2
SOLID
 70
     1
 71
     0
 91
        1
 92
        1
 93
        1
 72
     4
 94
        3
 73
     0
 74
     0
 95
       14
 96
       10
 40
0.0
 40
0.0
 40
0.0
 40
0.0
 40
1.0
 40
1.0
 40
1.0
 40
2.0
 40
2.0
 40
2.0
 40
3.0
 40
3.0
 40
3.0
 40
3.0
 10
0.2821533203125
 20
0.049609375
 10
0.3138481987847222
 20
0.0751030815972222
 10
0.0175699869791667
 20
-0.1164442274305556
 10
-0.2118733723958333
 20
0.2628607855902778
 10
0.0303168402777778
 20
-0.1098985460069444
 10
-0.2532145182291666
 20
-0.2439127604166667
 10
-0.2821533203125
 20
-0.2628607855902778
 10
-0.2821533203125
 20
-0.2628607855902778
 10
0.2821533203125
 20
0.049609375
 10
0.2821533203125
 20
0.049609375
 97
        0
 97
        0
 75
     0
 76
     1
 98
        1
 10
0.0
 20
0.0
  0
ENDBLK
  5
B9
330
B5
100
AcDbEntity
  8
LAYER_1
100
AcDbBlockEnd
  0
BLOCK
  5
BC
330
BA
100
AcDbEntity
  8
LAYER_1
 62
     7
100
AcDbBlockBegin
  2
AI9-BLK28
 70
     0
 10
0.0
 20
0.0
 30
0.0
  3
AI9-BLK28
  1

  0
HATCH
  5
BD
330
BA
100
AcDbEntity
  8
LAYER_1
 62
     7
100
AcDbHatch
 10
0.0
 20
0.0
 30
0.0
210
0.0
220
0.0
230
1.0
  2
SOLID
 70
     1
 71
     0
 91
        1
 92
        1
 93
        1
 72
     4
 94
        3
 73
     0
 74
     0
 95
       14
 96
       10
 40
0.0
 40
0.0
 40
0.0
 40
0.0
 40
1.0
 40
1.0
 40
1.0
 40
2.0
 40
2.0
 40
2.0
 40
3.0
 40
3.0
 40
3.0
 40
3.0
 10
0.3043741861979166
 20
-0.1894802517361111
 10
0.3043741861979166
 20
-0.1894802517361111
 10
0.00155029296875
 20
-0.3234944661458333
 10
-0.2692342122395833
 20
0.4061767578125
 10
-0.0173977322048611
 20
-0.3234944661458333
 10
-0.3043741861979166
 20
-0.3999755859375
 10
-0.3043741861979166
 20
-0.4061767578125
 10
-0.3043741861979166
 20
-0.4061767578125
 10
0.3043741861979166
 20
-0.1894802517361111
 10
0.3043741861979166
 20
-0.1894802517361111
 97
        0
 97
        0
 75
     0
 76
     1
 98
        1
 10
0.0
 20
0.0
  0
ENDBLK
  5
BE
330
BA
100
AcDbEntity
  8
LAYER_1
100
AcDbBlockEnd
  0
BLOCK
  5
C1
330
BF
100
AcDbEntity
  8
LAYER_1
 62
     7
100
AcDbBlockBegin
  2
AI9-BLK29
 70
     0
 10
0.0
 20
0.0
 30
0.0
  3
AI9-BLK29
  1

  0
HATCH
  5
C2
330
BF
100
AcDbEntity
  8
LAYER_1
 62
     7
100
AcDbHatch
 10
0.0
 20
0.0
 30
0.0
210
0.0
220
0.0
230
1.0
  2
SOLID
 70
     1
 71
     0
 91
        1
 92
        1
 93
        1
 72
     4
 94
        3
 73
     0
 74
     0
 95
       14
 96
       10
 40
0.0
 40
0.0
 40
0.0
 40
0.0
 40
1.0
 40
1.0
 40
1.0
 40
2.0
 40
2.0
 40
2.0
 40
3.0
 40
3.0
 40
3.0
 40
3.0
 10
0.2166965060763889
 20
-0.4557861328125
 10
0.2166965060763889
 20
-0.4716335720486111
 10
-0.1336697048611111
 20
-0.4557861328125
 10
0.3951524522569444
 20
0.4557861328125
 10
-0.117822265625
 20
-0.4685329861111111
 10
-0.4044542100694444
 20
-0.3538113064236111
 10
-0.3951524522569444
 20
-0.3476101345486111
 10
-0.1688096788194444
 20
-0.4302924262152778
 10
-0.0158474392361111
 20
-0.4716335720486111
 10
0.2166965060763889
 20
-0.4557861328125
 97
        0
 97
        0
 75
     0
 76
     1
 98
        1
 10
0.0
 20
0.0
  0
ENDBLK
  5
C3
330
BF
100
AcDbEntity
  8
LAYER_1
100
AcDbBlockEnd
  0
BLOCK
  5
C6
330
C4
100
AcDbEntity
  8
LAYER_1
 62
     7
100
AcDbBlockBegin
  2
AI9-BLK30
 70
     0
 10
0.0
 20
0.0
 30
0.0
  3
AI9-BLK30
  1

  0
HATCH
  5
C7
330
C4
100
AcDbEntity
  8
LAYER_1
 62
     7
100
AcDbHatch
 10
0.0
 20
0.0
 30
0.0
210
0.0
220
0.0
230
1.0
  2
SOLID
 70
     1
 71
     0
 91
        1
 92
        1
 93
        1
 72
     4
 94
        3
 73
     0
 74
     0
 95
       14
 96
       10
 40
0.0
 40
0.0
 40
0.0
 40
0.0
 40
1.0
 40
1.0
 40
1.0
 40
2.0
 40
2.0
 40
2.0
 40
3.0
 40
3.0
 40
3.0
 40
3.0
 10
-0.4861029730902777
 20
-0.3265950520833333
 10
-0.5081515842013888
 20
-0.3331407335069444
 10
-0.5115966796875
 20
0.0113688151041667
 10
0.4861029730902777
 20
-0.0017225477430556
 10
-0.396875
 20
0.0206705729166667
 10
-0.4254692925347222
 20
0.3076470269097222
 10
-0.4254692925347222
 20
0.3265950520833333
 10
-0.4733561197916666
 20
0.1195448133680555
 10
-0.524343532986111
 20
-0.1195448133680555
 10
-0.4861029730902777
 20
-0.3265950520833333
 97
        0
 97
        0
 75
     0
 76
     1
 98
        1
 10
0.0
 20
0.0
  0
ENDBLK
  5
C8
330
C4
100
AcDbEntity
  8
LAYER_1
100
AcDbBlockEnd
  0
BLOCK
  5
CB
330
C9
100
AcDbEntity
  8
LAYER_1
 62
     7
100
AcDbBlockBegin
  2
AI9-BLK31
 70
     0
 10
0.0
 20
0.0
 30
0.0
  3
AI9-BLK31
  1

  0
HATCH
  5
CC
330
C9
100
AcDbEntity
  8
LAYER_1
 62
     7
100
AcDbHatch
 10
0.0
 20
0.0
 30
0.0
210
0.0
220
0.0
230
1.0
  2
SOLID
 70
     1
 71
     0
 91
        1
 92
        1
 93
        1
 72
     4
 94
        3
 73
     0
 74
     0
 95
       14
 96
       10
 40
0.0
 40
0.0
 40
0.0
 40
0.0
 40
1.0
 40
1.0
 40
1.0
 40
2.0
 40
2.0
 40
2.0
 40
3.0
 40
3.0
 40
3.0
 40
3.0
 10
-0.2964504665798611
 20
0.17208251953125
 10
-0.2964504665798611
 20
0.17208251953125
 10
-0.0318671332465278
 20
0.3918796115451388
 10
0.2964504665798611
 20
-0.5162475585937499
 10
0.0349677191840278
 20
0.40462646484375
 10
0.28060302734375
 20
0.51934814453125
 10
0.28060302734375
 20
0.5162475585937499
 10
0.28060302734375
 20
0.5162475585937499
 10
-0.2964504665798611
 20
0.17208251953125
 10
-0.2964504665798611
 20
0.17208251953125
 97
        0
 97
        0
 75
     0
 76
     1
 98
        1
 10
0.0
 20
0.0
  0
ENDBLK
  5
CD
330
C9
100
AcDbEntity
  8
LAYER_1
100
AcDbBlockEnd
  0
BLOCK
  5
D2
330
D0
100
AcDbEntity
  8
LAYER_1
 62
     7
100
AcDbBlockBegin
  2
AI9-BLK32
 70
     0
 10
0.0
 20
0.0
 30
0.0
  3
AI9-BLK32
  1

  0
INSERT
  5
F7
330
D0
100
AcDbEntity
  8
LAYER_1
 62
     7
100
AcDbBlockReference
  2
AI9-BLK40
 10
8.82065
 20
34.487645
 30
0.0
  0
INSERT
  5
F2
330
D0
100
AcDbEntity
  8
LAYER_1
 62
     7
100
AcDbBlockReference
  2
AI9-BLK39
 10
3.81441
 20
24.747671
 30
0.0
  0
INSERT
  5
ED
330
D0
100
AcDbEntity
  8
LAYER_1
 62
     7
100
AcDbBlockReference
  2
AI9-BLK38
 10
0.505051
 20
14.813049
 30
0.0
  0
INSERT
  5
E8
330
D0
100
AcDbEntity
  8
LAYER_1
 62
     7
100
AcDbBlockReference
  2
AI9-BLK37
 10
-2.205206
 20
5.552633
 30
0.0
  0
INSERT
  5
E3
330
D0
100
AcDbEntity
  8
LAYER_1
 62
     7
100
AcDbBlockReference
  2
AI9-BLK36
 10
-4.595241
 20
-4.204911
 30
0.0
  0
INSERT
  5
DE
330
D0
100
AcDbEntity
  8
LAYER_1
 62
     7
100
AcDbBlockReference
  2
AI9-BLK35
 10
-6.700022
 20
-15.066608
 30
0.0
  0
INSERT
  5
D9
330
D0
100
AcDbEntity
  8
LAYER_1
 62
     7
100
AcDbBlockReference
  2
AI9-BLK34
 10
-8.583455
 20
-25.52678
 30
0.0
  0
INSERT
  5
D4
330
D0
100
AcDbEntity
  8
LAYER_1
 62
     7
100
AcDbBlockReference
  2
AI9-BLK33
 10
-8.988082
 20
-34.831982
 30
0.0
  0
ENDBLK
  5
FB
330
D0
100
AcDbEntity
  8
LAYER_1
100
AcDbBlockEnd
  0
BLOCK
  5
D5
330
D3
100
AcDbEntity
  8
LAYER_1
 62
     7
100
AcDbBlockBegin
  2
AI9-BLK33
 70
     0
 10
0.0
 20
0.0
 30
0.0
  3
AI9-BLK33
  1

  0
HATCH
  5
D6
330
D3
100
AcDbEntity
  8
LAYER_1
 62
     7
100
AcDbHatch
 10
0.0
 20
0.0
 30
0.0
210
0.0
220
0.0
230
1.0
  2
SOLID
 70
     1
 71
     0
 91
        1
 92
        1
 93
        1
 72
     4
 94
        3
 73
     0
 74
     0
 95
       14
 96
       10
 40
0.0
 40
0.0
 40
0.0
 40
0.0
 40
1.0
 40
1.0
 40
1.0
 40
2.0
 40
2.0
 40
2.0
 40
3.0
 40
3.0
 40
3.0
 40
3.0
 10
1.688958062065972
 20
-0.5145250108506944
 10
1.688958062065972
 20
-0.5145250108506944
 10
1.749591742621528
 20
0.0080959743923611
 10
-1.822627766927083
 20
0.5021226671006944
 10
1.752692328559028
 20
0.0018948025173611
 10
1.822627766927083
 20
0.5210706922743055
 10
1.822627766927083
 20
0.5145250108506944
 10
1.822627766927083
 20
0.5145250108506944
 10
1.688958062065972
 20
-0.5145250108506944
 10
1.688958062065972
 20
-0.5145250108506944
 97
        0
 97
        0
 75
     0
 76
     1
 98
        1
 10
0.0
 20
0.0
  0
ENDBLK
  5
D7
330
D3
100
AcDbEntity
  8
LAYER_1
100
AcDbBlockEnd
  0
BLOCK
  5
DA
330
D8
100
AcDbEntity
  8
LAYER_1
 62
     7
100
AcDbBlockBegin
  2
AI9-BLK34
 70
     0
 10
0.0
 20
0.0
 30
0.0
  3
AI9-BLK34
  1

  0
HATCH
  5
DB
330
D8
100
AcDbEntity
  8
LAYER_1
 62
     7
100
AcDbHatch
 10
0.0
 20
0.0
 30
0.0
210
0.0
220
0.0
230
1.0
  2
SOLID
 70
     1
 71
     0
 91
        1
 92
        1
 93
        1
 72
     4
 94
        3
 73
     0
 74
     0
 95
       14
 96
       10
 40
0.0
 40
0.0
 40
0.0
 40
0.0
 40
1.0
 40
1.0
 40
1.0
 40
2.0
 40
2.0
 40
2.0
 40
3.0
 40
3.0
 40
3.0
 40
3.0
 10
2.004356553819444
 20
-0.5179701063368055
 10
2.004356553819444
 20
-0.5179701063368055
 10
2.039496527777778
 20
-0.1228176540798611
 10
-2.080837673611111
 20
0.5179701063368055
 10
2.046042209201389
 20
-0.11007080078125
 10
2.080837673611111
 20
0.2692342122395833
 10
2.080837673611111
 20
0.2692342122395833
 10
2.080837673611111
 20
0.2692342122395833
 10
2.004356553819444
 20
-0.5179701063368055
 10
2.004356553819444
 20
-0.5179701063368055
 97
        0
 97
        0
 75
     0
 76
     1
 98
        1
 10
0.0
 20
0.0
  0
ENDBLK
  5
DC
330
D8
100
AcDbEntity
  8
LAYER_1
100
AcDbBlockEnd
  0
BLOCK
  5
DF
330
DD
100
AcDbEntity
  8
LAYER_1
 62
     7
100
AcDbBlockBegin
  2
AI9-BLK35
 70
     0
 10
0.0
 20
0.0
 30
0.0
  3
AI9-BLK35
  1

  0
HATCH
  5
E0
330
DD
100
AcDbEntity
  8
LAYER_1
 62
     7
100
AcDbHatch
 10
0.0
 20
0.0
 30
0.0
210
0.0
220
0.0
230
1.0
  2
SOLID
 70
     1
 71
     0
 91
        1
 92
        1
 93
        1
 72
     4
 94
        3
 73
     0
 74
     0
 95
       14
 96
       10
 40
0.0
 40
0.0
 40
0.0
 40
0.0
 40
1.0
 40
1.0
 40
1.0
 40
2.0
 40
2.0
 40
2.0
 40
3.0
 40
3.0
 40
3.0
 40
3.0
 10
1.685685221354166
 20
-0.5639621310763888
 10
1.685685221354166
 20
-0.5705078124999999
 10
1.825900607638889
 20
-0.0096462673611111
 10
-1.94716796875
 20
0.4778347439236111
 10
1.819699435763889
 20
-0.0031005859375
 10
1.9502685546875
 20
0.5701633029513888
 10
1.94716796875
 20
0.5639621310763888
 10
1.940622287326389
 20
0.3855061848958333
 10
1.714279513888889
 20
-0.4364935980902777
 10
1.685685221354166
 20
-0.5639621310763888
 97
        0
 97
        0
 75
     0
 76
     1
 98
        1
 10
0.0
 20
0.0
  0
ENDBLK
  5
E1
330
DD
100
AcDbEntity
  8
LAYER_1
100
AcDbBlockEnd
  0
BLOCK
  5
E4
330
E2
100
AcDbEntity
  8
LAYER_1
 62
     7
100
AcDbBlockBegin
  2
AI9-BLK36
 70
     0
 10
0.0
 20
0.0
 30
0.0
  3
AI9-BLK36
  1

  0
HATCH
  5
E5
330
E2
100
AcDbEntity
  8
LAYER_1
 62
     7
100
AcDbHatch
 10
0.0
 20
0.0
 30
0.0
210
0.0
220
0.0
230
1.0
  2
SOLID
 70
     1
 71
     0
 91
        1
 92
        1
 93
        1
 72
     4
 94
        3
 73
     0
 74
     0
 95
       14
 96
       10
 40
0.0
 40
0.0
 40
0.0
 40
0.0
 40
1.0
 40
1.0
 40
1.0
 40
2.0
 40
2.0
 40
2.0
 40
3.0
 40
3.0
 40
3.0
 40
3.0
 10
1.645894368489583
 20
-0.7951280381944443
 10
1.645894368489583
 20
-0.7951280381944443
 10
1.846743435329861
 20
-0.2690619574652778
 10
-1.999705674913194
 20
0.7951280381944443
 10
1.849844021267361
 20
-0.2756076388888888
 10
2.002806260850694
 20
0.2118733723958333
 10
1.999705674913194
 20
0.2180745442708333
 10
1.999705674913194
 20
0.2180745442708333
 10
1.645894368489583
 20
-0.7951280381944443
 10
1.645894368489583
 20
-0.7951280381944443
 97
        0
 97
        0
 75
     0
 76
     1
 98
        1
 10
0.0
 20
0.0
  0
ENDBLK
  5
E6
330
E2
100
AcDbEntity
  8
LAYER_1
100
AcDbBlockEnd
  0
BLOCK
  5
E9
330
E7
100
AcDbEntity
  8
LAYER_1
 62
     7
100
AcDbBlockBegin
  2
AI9-BLK37
 70
     0
 10
0.0
 20
0.0
 30
0.0
  3
AI9-BLK37
  1

  0
HATCH
  5
EA
330
E7
100
AcDbEntity
  8
LAYER_1
 62
     7
100
AcDbHatch
 10
0.0
 20
0.0
 30
0.0
210
0.0
220
0.0
230
1.0
  2
SOLID
 70
     1
 71
     0
 91
        1
 92
        1
 93
        1
 72
     4
 94
        3
 73
     0
 74
     0
 95
       14
 96
       10
 40
0.0
 40
0.0
 40
0.0
 40
0.0
 40
1.0
 40
1.0
 40
1.0
 40
2.0
 40
2.0
 40
2.0
 40
3.0
 40
3.0
 40
3.0
 40
3.0
 10
1.875165473090278
 20
-0.7503417968749999
 10
1.8944580078125
 20
-0.7248480902777777
 10
2.060167100694444
 20
0.0303168402777778
 10
-2.136648220486111
 20
0.7503417968749999
 10
1.989887152777778
 20
0.0303168402777778
 10
2.136648220486111
 20
0.6962537977430555
 10
2.136648220486111
 20
0.7027994791666666
 10
2.136648220486111
 20
0.7027994791666666
 10
1.875165473090278
 20
-0.7503417968749999
 10
1.875165473090278
 20
-0.7503417968749999
 97
        0
 97
        0
 75
     0
 76
     1
 98
        1
 10
0.0
 20
0.0
  0
ENDBLK
  5
EB
330
E7
100
AcDbEntity
  8
LAYER_1
100
AcDbBlockEnd
  0
BLOCK
  5
EE
330
EC
100
AcDbEntity
  8
LAYER_1
 62
     7
100
AcDbBlockBegin
  2
AI9-BLK38
 70
     0
 10
0.0
 20
0.0
 30
0.0
  3
AI9-BLK38
  1

  0
HATCH
  5
EF
330
EC
100
AcDbEntity
  8
LAYER_1
 62
     7
100
AcDbHatch
 10
0.0
 20
0.0
 30
0.0
210
0.0
220
0.0
230
1.0
  2
SOLID
 70
     1
 71
     0
 91
        1
 92
        1
 93
        1
 72
     4
 94
        3
 73
     0
 74
     0
 95
       14
 96
       10
 40
0.0
 40
0.0
 40
0.0
 40
0.0
 40
1.0
 40
1.0
 40
1.0
 40
2.0
 40
2.0
 40
2.0
 40
3.0
 40
3.0
 40
3.0
 40
3.0
 10
1.50068359375
 20
-0.7727349175347221
 10
1.50068359375
 20
-0.7727349175347221
 10
1.676038953993055
 20
-0.1639865451388889
 10
-1.851394314236111
 20
0.7727349175347221
 10
1.666392686631944
 20
-0.1832790798611111
 10
1.851394314236111
 20
0.4096218532986111
 10
1.851394314236111
 20
0.3775824652777777
 10
1.851394314236111
 20
0.3775824652777777
 10
1.50068359375
 20
-0.7727349175347221
 10
1.50068359375
 20
-0.7727349175347221
 97
        0
 97
        0
 75
     0
 76
     1
 98
        1
 10
0.0
 20
0.0
  0
ENDBLK
  5
F0
330
EC
100
AcDbEntity
  8
LAYER_1
100
AcDbBlockEnd
  0
BLOCK
  5
F3
330
F1
100
AcDbEntity
  8
LAYER_1
 62
     7
100
AcDbBlockBegin
  2
AI9-BLK39
 70
     0
 10
0.0
 20
0.0
 30
0.0
  3
AI9-BLK39
  1

  0
HATCH
  5
F4
330
F1
100
AcDbEntity
  8
LAYER_1
 62
     7
100
AcDbHatch
 10
0.0
 20
0.0
 30
0.0
210
0.0
220
0.0
230
1.0
  2
SOLID
 70
     1
 71
     0
 91
        1
 92
        1
 93
        1
 72
     4
 94
        3
 73
     0
 74
     0
 95
       14
 96
       10
 40
0.0
 40
0.0
 40
0.0
 40
0.0
 40
1.0
 40
1.0
 40
1.0
 40
2.0
 40
2.0
 40
2.0
 40
3.0
 40
3.0
 40
3.0
 40
3.0
 10
1.741495768229167
 20
-0.9911539713541666
 10
1.741495768229167
 20
-0.9911539713541666
 10
2.0091796875
 20
-0.3028238932291666
 10
-2.251369900173611
 20
0.9911539713541666
 10
2.015380859375
 20
-0.3028238932291666
 10
2.264116753472222
 20
0.3855061848958333
 10
2.251369900173611
 20
0.3503662109375
 10
2.251369900173611
 20
0.3503662109375
 10
1.741495768229167
 20
-0.9911539713541666
 10
1.741495768229167
 20
-0.9911539713541666
 97
        0
 97
        0
 75
     0
 76
     1
 98
        1
 10
0.0
 20
0.0
  0
ENDBLK
  5
F5
330
F1
100
AcDbEntity
  8
LAYER_1
100
AcDbBlockEnd
  0
BLOCK
  5
F8
330
F6
100
AcDbEntity
  8
LAYER_1
 62
     7
100
AcDbBlockBegin
  2
AI9-BLK40
 70
     0
 10
0.0
 20
0.0
 30
0.0
  3
AI9-BLK40
  1

  0
HATCH
  5
F9
330
F6
100
AcDbEntity
  8
LAYER_1
 62
     7
100
AcDbHatch
 10
0.0
 20
0.0
 30
0.0
210
0.0
220
0.0
230
1.0
  2
SOLID
 70
     1
 71
     0
 91
        1
 92
        1
 93
        1
 72
     4
 94
        3
 73
     0
 74
     0
 95
       14
 96
       10
 40
0.0
 40
0.0
 40
0.0
 40
0.0
 40
1.0
 40
1.0
 40
1.0
 40
2.0
 40
2.0
 40
2.0
 40
3.0
 40
3.0
 40
3.0
 40
3.0
 10
1.413350423177083
 20
-0.8588623046874999
 10
1.371664767795139
 20
-0.9897759331597221
 10
2.104781087239583
 20
-0.3427870008680555
 10
-1.990059407552083
 20
0.8588623046874999
 10
2.015553114149305
 20
-0.2821533203125
 10
2.021754286024305
 20
0.3841281467013888
 10
1.990059407552083
 20
0.2725070529513889
 10
1.990059407552083
 20
0.2725070529513889
 10
1.413350423177083
 20
-0.8588623046874999
 10
1.413350423177083
 20
-0.8588623046874999
 97
        0
 97
        0
 75
     0
 76
     1
 98
        1
 10
0.0
 20
0.0
  0
ENDBLK
  5
FA
330
F6
100
AcDbEntity
  8
LAYER_1
100
AcDbBlockEnd
  0
BLOCK
  5
10A
330
108
100
AcDbEntity
  8
LAYER_1
 62
     7
100
AcDbBlockBegin
  2
AI9-BLK41
 70
     0
 10
0.0
 20
0.0
 30
0.0
  3
AI9-BLK41
  1

  0
SPLINE
  5
10B
330
108
100
AcDbEntity
  8
LAYER_1
 62
     7
100
AcDbSpline
210
0.0
220
0.0
230
1.0
 70
     8
 71
     3
 72
    77
 73
    73
 74
     0
 42
0.000000001
 43
0.00000001
 40
0.0
 40
0.0
 40
0.0
 40
0.0
 40
1.0
 40
1.0
 40
1.0
 40
2.0
 40
2.0
 40
2.0
 40
3.0
 40
3.0
 40
3.0
 40
4.0
 40
4.0
 40
4.0
 40
5.0
 40
5.0
 40
5.0
 40
6.0
 40
6.0
 40
6.0
 40
7.0
 40
7.0
 40
7.0
 40
8.0
 40
8.0
 40
8.0
 40
9.0
 40
9.0
 40
9.0
 40
10.0
 40
10.0
 40
10.0
 40
11.0
 40
11.0
 40
11.0
 40
12.0
 40
12.0
 40
12.0
 40
13.0
 40
13.0
 40
13.0
 40
14.0
 40
14.0
 40
14.0
 40
15.0
 40
15.0
 40
15.0
 40
16.0
 40
16.0
 40
16.0
 40
17.0
 40
17.0
 40
17.0
 40
18.0
 40
18.0
 40
18.0
 40
19.0
 40
19.0
 40
19.0
 40
20.0
 40
20.0
 40
20.0
 40
21.0
 40
21.0
 40
21.0
 40
22.0
 40
22.0
 40
22.0
 40
23.0
 40
23.0
 40
23.0
 40
24.0
 40
24.0
 40
24.0
 40
24.0
 10
-6.124518500434027
 20
21.42547946506076
 30
0.0
 10
-5.898175726996527
 20
21.09406127929687
 30
0.0
 10
-5.678378634982638
 20
20.65722317165799
 30
0.0
 10
-5.566757541232638
 20
20.24622328016493
 30
0.0
 10
-5.378655327690971
 20
19.59613376193576
 30
0.0
 10
-5.439289008246528
 20
18.91400485568576
 30
0.0
 10
-5.280125596788194
 20
18.2577141655816
 30
0.0
 10
-5.018642849392361
 20
17.18043280707465
 30
0.0
 10
-4.894274902343749
 20
16.09074910481771
 30
0.0
 10
-4.585249837239583
 20
15.0362053765191
 30
0.0
 10
-4.400592719184028
 20
14.40816446940104
 30
0.0
 10
-4.196643066406249
 20
13.67849324544271
 30
0.0
 10
-3.900020345052083
 20
13.0890374077691
 30
0.0
 10
-3.329857042100694
 20
11.95766805013021
 30
0.0
 10
-2.450324164496528
 20
11.0302483452691
 30
0.0
 10
-1.803335232204861
 20
9.947110324435762
 30
0.0
 10
-1.513258192274305
 20
9.46548597547743
 30
0.0
 10
-1.264866807725694
 20
9.061031765407986
 30
0.0
 10
-0.9014092339409722
 20
8.624193657769096
 30
0.0
 10
-0.5989298502604166
 20
8.257980007595485
 30
0.0
 10
-0.41392822265625
 20
7.818041314019096
 30
0.0
 10
-0.1018025716145833
 20
7.435635715060763
 30
0.0
 10
0.4876532660590278
 20
6.715610758463541
 30
0.0
 10
0.9210462782118055
 20
5.861571587456597
 30
0.0
 10
1.53634033203125
 20
5.147747802734375
 30
0.0
 10
2.151289876302083
 20
4.440469699435764
 30
0.0
 10
2.473061794704861
 20
3.570238579644097
 30
0.0
 10
2.960542805989583
 20
2.783378770616319
 30
0.0
 10
3.234772406684027
 20
2.336894395616319
 30
0.0
 10
3.362240939670138
 20
1.833910454644097
 30
0.0
 10
3.60133056640625
 20
1.368478054470486
 30
0.0
 10
3.852822536892361
 20
0.8713507758246527
 30
0.0
 10
4.072619628906249
 20
0.3807691786024305
 30
0.0
 10
4.280014377170138
 20
-0.135650634765625
 30
0.0
 10
4.353050401475694
 20
-0.3141065809461806
 30
0.0
 10
4.400937228732639
 20
-0.5053093804253471
 30
0.0
 10
4.477418348524306
 20
-0.6837653266059027
 30
0.0
 10
4.611432562934027
 20
-1.015183512369792
 30
0.0
 10
4.834330240885416
 20
-1.282867431640625
 30
0.0
 10
4.945951334635416
 20
-1.627032470703125
 30
0.0
 10
5.083066134982638
 20
-2.057324896918403
 30
0.0
 10
5.21053466796875
 20
-2.49381849500868
 30
0.0
 10
5.372798665364583
 20
-2.914464653862847
 30
0.0
 10
5.634281412760416
 20
-3.574200439453125
 30
0.0
 10
5.774496799045139
 20
-4.361060248480903
 30
0.0
 10
5.943306477864583
 20
-5.049390326605902
 30
0.0
 10
6.137609863281249
 20
-5.836594645182291
 30
0.0
 10
6.121762424045138
 20
-6.531470404730902
 30
0.0
 10
6.112116156684027
 20
-7.324875895182291
 30
0.0
 10
6.109015570746527
 20
-7.633900960286458
 30
0.0
 10
6.01978759765625
 20
-7.927078586154513
 30
0.0
 10
5.984647623697916
 20
-8.23300306532118
 30
0.0
 10
5.917812771267361
 20
-8.860699462890624
 30
0.0
 10
5.972245279947916
 20
-9.49494154188368
 30
0.0
 10
5.905065917968749
 20
-10.11643676757812
 30
0.0
 10
5.873371039496528
 20
-10.4444098578559
 30
0.0
 10
5.771396213107638
 20
-10.77582804361979
 30
0.0
 10
5.755204264322916
 20
-11.09759996202257
 30
0.0
 10
5.729710557725694
 20
-11.67775404188368
 30
0.0
 10
5.825484212239583
 20
-12.29580417209201
 30
0.0
 10
5.755204264322916
 20
-12.86321139865451
 30
0.0
 10
5.67562255859375
 20
-13.57703518337673
 30
0.0
 10
5.704216851128471
 20
-14.27811211480035
 30
0.0
 10
5.662875705295138
 20
-14.98228963216146
 30
0.0
 10
5.621534559461805
 20
-15.75674709743923
 30
0.0
 10
5.455825466579861
 20
-16.56634453667535
 30
0.0
 10
5.302863226996528
 20
-17.33115573459201
 30
0.0
 10
5.038279893663194
 20
-18.63409084743924
 30
0.0
 10
5.073419867621527
 20
-20.01075100368923
 30
0.0
 10
4.821583387586805
 20
-21.32057630750868
 30
0.0
 10
4.796089680989583
 20
-21.31437513563368
 30
0.0
 10
4.780242241753472
 20
-21.29852769639757
 30
0.0
 10
4.774041069878471
 20
-21.26958889431424
 30
0.0
  0
ENDBLK
  5
10C
330
108
100
AcDbEntity
  8
LAYER_1
100
AcDbBlockEnd
  0
ENDSEC
  0
SECTION
  2
ENTITIES
  0
LINE
  5
176
330
A
100
AcDbEntity
  8
LAYER_1
 62
   230
100
AcDbLine
 10
-548.856421
 20
1090.272125
 30
0.0
 11
-548.856421
 21
-832.796023
 31
0.0
  0
LINE
  5
175
330
A
100
AcDbEntity
  8
LAYER_1
 62
   230
100
AcDbLine
 10
-392.305425
 20
1090.272125
 30
0.0
 11
-392.305425
 21
-832.796023
 31
0.0
  0
LINE
  5
174
330
A
100
AcDbEntity
  8
LAYER_1
 62
   230
100
AcDbLine
 10
-235.75753
 20
1090.272125
 30
0.0
 11
-235.75753
 21
-832.796023
 31
0.0
  0
LINE
  5
173
330
A
100
AcDbEntity
  8
LAYER_1
 62
   230
100
AcDbLine
 10
-79.20619
 20
1090.272125
 30
0.0
 11
-79.20619
 21
-832.796023
 31
0.0
  0
LINE
  5
172
330
A
100
AcDbEntity
  8
LAYER_1
 62
   230
100
AcDbLine
 10
77.344805
 20
1090.272125
 30
0.0
 11
77.344805
 21
-832.796023
 31
0.0
  0
LINE
  5
171
330
A
100
AcDbEntity
  8
LAYER_1
 62
   230
100
AcDbLine
 10
233.899246
 20
1090.272125
 30
0.0
 11
233.899246
 21
-832.796023
 31
0.0
  0
LINE
  5
170
330
A
100
AcDbEntity
  8
LAYER_1
 62
   230
100
AcDbLine
 10
390.450241
 20
1090.272125
 30
0.0
 11
390.450241
 21
-832.796023
 31
0.0
  0
LINE
  5
16F
330
A
100
AcDbEntity
  8
LAYER_1
 62
   230
100
AcDbLine
 10
547.001581
 20
1090.272125
 30
0.0
 11
547.001581
 21
-832.796023
 31
0.0
  0
LINE
  5
16E
330
A
100
AcDbEntity
  8
LAYER_1
 62
   230
100
AcDbLine
 10
703.552577
 20
1090.272125
 30
0.0
 11
703.552577
 21
-832.796023
 31
0.0
  0
LINE
  5
16D
330
A
100
AcDbEntity
  8
LAYER_1
 62
   230
100
AcDbLine
 10
860.103573
 20
1090.272125
 30
0.0
 11
860.103573
 21
-832.796023
 31
0.0
  0
LINE
  5
16C
330
A
100
AcDbEntity
  8
LAYER_1
 62
   230
100
AcDbLine
 10
-595.826164
 20
-833.05096
 30
0.0
 11
898.152585
 21
-833.057161
 31
0.0
  0
LINE
  5
16B
330
A
100
AcDbEntity
  8
LAYER_1
 62
   230
100
AcDbLine
 10
-595.826164
 20
-676.503065
 30
0.0
 11
898.152585
 21
-676.503065
 31
0.0
  0
LINE
  5
16A
330
A
100
AcDbEntity
  8
LAYER_1
 62
   230
100
AcDbLine
 10
-595.826164
 20
-519.948625
 30
0.0
 11
898.152585
 21
-519.948625
 31
0.0
  0
LINE
  5
169
330
A
100
AcDbEntity
  8
LAYER_1
 62
   230
100
AcDbLine
 10
-595.826164
 20
-363.397285
 30
0.0
 11
898.152585
 21
-363.40073
 31
0.0
  0
LINE
  5
168
330
A
100
AcDbEntity
  8
LAYER_1
 62
   230
100
AcDbLine
 10
-595.826164
 20
-206.846289
 30
0.0
 11
898.152585
 21
-206.84939
 31
0.0
  0
LINE
  5
167
330
A
100
AcDbEntity
  8
LAYER_1
 62
   230
100
AcDbLine
 10
-595.826164
 20
-50.291848
 30
0.0
 11
898.152585
 21
-50.298394
 31
0.0
  0
LINE
  5
166
330
A
100
AcDbEntity
  8
LAYER_1
 62
   230
100
AcDbLine
 10
-595.826164
 20
106.256047
 30
0.0
 11
898.152585
 21
106.249501
 31
0.0
  0
LINE
  5
165
330
A
100
AcDbEntity
  8
LAYER_1
 62
   230
100
AcDbLine
 10
-595.826164
 20
262.810487
 30
0.0
 11
898.152585
 21
262.803942
 31
0.0
  0
LINE
  5
164
330
A
100
AcDbEntity
  8
LAYER_1
 62
   230
100
AcDbLine
 10
-595.826164
 20
419.358382
 30
0.0
 11
898.152585
 21
419.358382
 31
0.0
  0
LINE
  5
163
330
A
100
AcDbEntity
  8
LAYER_1
 62
   230
100
AcDbLine
 10
-595.826164
 20
575.912478
 30
0.0
 11
898.152585
 21
575.906277
 31
0.0
  0
LINE
  5
162
330
A
100
AcDbEntity
  8
LAYER_1
 62
   230
100
AcDbLine
 10
-595.826164
 20
732.463818
 30
0.0
 11
898.152585
 21
732.463818
 31
0.0
  0
LINE
  5
161
330
A
100
AcDbEntity
  8
LAYER_1
 62
   230
100
AcDbLine
 10
-595.826164
 20
889.018259
 30
0.0
 11
898.152585
 21
889.011713
 31
0.0
  0
LINE
  5
160
330
A
100
AcDbEntity
  8
LAYER_1
 62
   230
100
AcDbLine
 10
-595.826164
 20
1045.566154
 30
0.0
 11
898.152585
 21
1045.563053
 31
0.0
  0
MTEXT
  5
15F
330
A
100
AcDbEntity
  8
LAYER_1
 62
     7
100
AcDbMText
 10
-677.162629
 20
-815.510105
 30
0.0
 40
30.816531
 41
0.0
 46
0.0
 71
     1
 72
     2
  1
\W1.00;\fMyriad Roman|b0|i0;200
  7
STD
 73
     1
 44
1.0
  0
MTEXT
  5
15E
330
A
100
AcDbEntity
  8
LAYER_1
 62
     7
100
AcDbMText
 10
-677.162629
 20
-658.92397
 30
0.0
 40
30.816531
 41
0.0
 46
0.0
 71
     1
 72
     2
  1
\W1.00;\fMyriad Roman|b0|i0;210
  7
STD
 73
     1
 44
1.0
  0
MTEXT
  5
15D
330
A
100
AcDbEntity
  8
LAYER_1
 62
     7
100
AcDbMText
 10
-677.162629
 20
-502.33749
 30
0.0
 40
30.816531
 41
0.0
 46
0.0
 71
     1
 72
     2
  1
\W1.00;\fMyriad Roman|b0|i0;220
  7
STD
 73
     1
 44
1.0
  0
MTEXT
  5
15C
330
A
100
AcDbEntity
  8
LAYER_1
 62
     7
100
AcDbMText
 10
-677.162629
 20
-345.748254
 30
0.0
 40
30.816531
 41
0.0
 46
0.0
 71
     1
 72
     2
  1
\W1.00;\fMyriad Roman|b0|i0;230
  7
STD
 73
     1
 44
1.0
  0
MTEXT
  5
15B
330
A
100
AcDbEntity
  8
LAYER_1
 62
     7
100
AcDbMText
 10
-677.162629
 20
-189.165219
 30
0.0
 40
30.816531
 41
0.0
 46
0.0
 71
     1
 72
     2
  1
\W1.00;\fMyriad Roman|b0|i0;240
  7
STD
 73
     1
 44
1.0
  0
MTEXT
  5
15A
330
A
100
AcDbEntity
  8
LAYER_1
 62
     7
100
AcDbMText
 10
-677.162629
 20
-32.575638
 30
0.0
 40
30.816531
 41
0.0
 46
0.0
 71
     1
 72
     2
  1
\W1.00;\fMyriad Roman|b0|i0;250
  7
STD
 73
     1
 44
1.0
  0
MTEXT
  5
159
330
A
100
AcDbEntity
  8
LAYER_1
 62
     7
100
AcDbMText
 10
-677.162629
 20
124.010498
 30
0.0
 40
30.816531
 41
0.0
 46
0.0
 71
     1
 72
     2
  1
\W1.00;\fMyriad Roman|b0|i0;260
  7
STD
 73
     1
 44
1.0
  0
MTEXT
  5
158
330
A
100
AcDbEntity
  8
LAYER_1
 62
     7
100
AcDbMText
 10
-677.162629
 20
280.599734
 30
0.0
 40
30.816531
 41
0.0
 46
0.0
 71
     1
 72
     2
  1
\W1.00;\fMyriad Roman|b0|i0;270
  7
STD
 73
     1
 44
1.0
  0
MTEXT
  5
157
330
A
100
AcDbEntity
  8
LAYER_1
 62
     7
100
AcDbMText
 10
-677.162629
 20
437.186214
 30
0.0
 40
30.816531
 41
0.0
 46
0.0
 71
     1
 72
     2
  1
\W1.00;\fMyriad Roman|b0|i0;280
  7
STD
 73
     1
 44
1.0
  0
MTEXT
  5
156
330
A
100
AcDbEntity
  8
LAYER_1
 62
     7
100
AcDbMText
 10
-677.162629
 20
593.772349
 30
0.0
 40
30.816531
 41
0.0
 46
0.0
 71
     1
 72
     2
  1
\W1.00;\fMyriad Roman|b0|i0;290
  7
STD
 73
     1
 44
1.0
  0
MTEXT
  5
155
330
A
100
AcDbEntity
  8
LAYER_1
 62
     7
100
AcDbMText
 10
-677.162629
 20
750.352284
 30
0.0
 40
30.816531
 41
0.0
 46
0.0
 71
     1
 72
     2
  1
\W1.00;\fMyriad Roman|b0|i0;300
  7
STD
 73
     1
 44
1.0
  0
MTEXT
  5
154
330
A
100
AcDbEntity
  8
LAYER_1
 62
     7
100
AcDbMText
 10
-677.162629
 20
906.94152
 30
0.0
 40
30.816531
 41
0.0
 46
0.0
 71
     1
 72
     2
  1
\W1.00;\fMyriad Roman|b0|i0;310
  7
STD
 73
     1
 44
1.0
  0
MTEXT
  5
153
330
A
100
AcDbEntity
  8
LAYER_1
 62
     7
100
AcDbMText
 10
-677.162629
 20
1063.530756
 30
0.0
 40
30.816531
 41
0.0
 46
0.0
 71
     1
 72
     2
  1
\W1.00;\fMyriad Roman|b0|i0;320
  7
STD
 73
     1
 44
1.0
  0
MTEXT
  5
152
330
A
100
AcDbEntity
  8
LAYER_1
 62
     7
100
AcDbMText
 10
-581.331613
 20
1149.449715
 30
0.0
 40
30.816531
 41
0.0
 46
0.0
 71
     1
 72
     2
  1
\W1.00;\fMyriad Roman|b0|i0;730
  7
STD
 73
     1
 44
1.0
  0
MTEXT
  5
151
330
A
100
AcDbEntity
  8
LAYER_1
 62
     7
100
AcDbMText
 10
-425.078619
 20
1149.449715
 30
0.0
 40
30.816531
 41
0.0
 46
0.0
 71
     1
 72
     2
  1
\W1.00;\fMyriad Roman|b0|i0;740
  7
STD
 73
     1
 44
1.0
  0
MTEXT
  5
150
330
A
100
AcDbEntity
  8
LAYER_1
 62
     7
100
AcDbMText
 10
-268.828725
 20
1149.449715
 30
0.0
 40
30.816531
 41
0.0
 46
0.0
 71
     1
 72
     2
  1
\W1.00;\fMyriad Roman|b0|i0;750
  7
STD
 73
     1
 44
1.0
  0
MTEXT
  5
14F
330
A
100
AcDbEntity
  8
LAYER_1
 62
     7
100
AcDbMText
 10
-112.575385
 20
1149.449715
 30
0.0
 40
30.816531
 41
0.0
 46
0.0
 71
     1
 72
     2
  1
\W1.00;\fMyriad Roman|b0|i0;760
  7
STD
 73
     1
 44
1.0
  0
MTEXT
  5
14E
330
A
100
AcDbEntity
  8
LAYER_1
 62
     7
100
AcDbMText
 10
43.674509
 20
1149.446614
 30
0.0
 40
30.816531
 41
0.0
 46
0.0
 71
     1
 72
     2
  1
\W1.00;\fMyriad Roman|b0|i0;770
  7
STD
 73
     1
 44
1.0
  0
MTEXT
  5
14D
330
A
100
AcDbEntity
  8
LAYER_1
 62
     7
100
AcDbMText
 10
199.929226
 20
1149.446614
 30
0.0
 40
30.816531
 41
0.0
 46
0.0
 71
     1
 72
     2
  1
\W1.00;\fMyriad Roman|b0|i0;780
  7
STD
 73
     1
 44
1.0
  0
MTEXT
  5
14C
330
A
100
AcDbEntity
  8
LAYER_1
 62
     7
100
AcDbMText
 10
356.180843
 20
1149.446614
 30
0.0
 40
30.816531
 41
0.0
 46
0.0
 71
     1
 72
     2
  1
\W1.00;\fMyriad Roman|b0|i0;790
  7
STD
 73
     1
 44
1.0
  0
MTEXT
  5
14B
330
A
100
AcDbEntity
  8
LAYER_1
 62
     7
100
AcDbMText
 10
512.43556
 20
1149.446614
 30
0.0
 40
30.816531
 41
0.0
 46
0.0
 71
     1
 72
     2
  1
\W1.00;\fMyriad Roman|b0|i0;800
  7
STD
 73
     1
 44
1.0
  0
MTEXT
  5
14A
330
A
100
AcDbEntity
  8
LAYER_1
 62
     7
100
AcDbMText
 10
668.687177
 20
1149.446614
 30
0.0
 40
30.816531
 41
0.0
 46
0.0
 71
     1
 72
     2
  1
\W1.00;\fMyriad Roman|b0|i0;810
  7
STD
 73
     1
 44
1.0
  0
MTEXT
  5
149
330
A
100
AcDbEntity
  8
LAYER_1
 62
     7
100
AcDbMText
 10
824.942239
 20
1149.446614
 30
0.0
 40
30.816531
 41
0.0
 46
0.0
 71
     1
 72
     2
  1
\W1.00;\fMyriad Roman|b0|i0;820
  7
STD
 73
     1
 44
1.0
  0
MTEXT
  5
148
330
A
100
AcDbEntity
  8
LAYER_1
 62
     7
100
AcDbMText
 10
508.738973
 20
753.957059
 30
0.0
 40
1.643461
 41
0.0
 46
0.0
 71
     1
 72
     2
  1
\W1.00;\fHelvetica|b1|i0;856
  7
STD
 73
     1
 44
1.0
  0
MTEXT
  5
147
330
A
100
AcDbEntity
  8
LAYER_1
 62
     7
100
AcDbMText
 10
517.495717
 20
739.699876
 30
0.0
 40
1.643461
 41
0.0
 46
0.0
 71
     1
 72
     2
  1
\W1.00;\fHelvetica|b1|i0;795
  7
STD
 73
     1
 44
1.0
  0
MTEXT
  5
146
330
A
100
AcDbEntity
  8
LAYER_1
 62
     7
100
AcDbMText
 10
526.603171
 20
776.910696
 30
0.0
 40
1.643461
 41
0.0
 46
0.0
 71
     1
 72
     2
  1
\W1.00;\fHelvetica|b1|i0;659
  7
STD
 73
     1
 44
1.0
  0
MTEXT
  5
145
330
A
100
AcDbEntity
  8
LAYER_1
 62
     7
100
AcDbMText
 10
492.343764
 20
770.202751
 30
0.0
 40
1.643461
 41
0.0
 46
0.0
 71
     1
 72
     2
  1
\W1.00;\fHelvetica|b1|i0;778
  7
STD
 73
     1
 44
1.0
  0
MTEXT
  5
144
330
A
100
AcDbEntity
  8
LAYER_1
 62
     7
100
AcDbMText
 10
451.159025
 20
772.146474
 30
0.0
 40
1.643461
 41
0.0
 46
0.0
 71
     1
 72
     2
  1
\W1.00;\fHelvetica|b1|i0;856
  7
STD
 73
     1
 44
1.0
  0
MTEXT
  5
143
330
A
100
AcDbEntity
  8
LAYER_1
 62
     7
100
AcDbMText
 10
419.815202
 20
777.599027
 30
0.0
 40
1.643461
 41
0.0
 46
0.0
 71
     1
 72
     2
  1
\W1.00;\fHelvetica|b1|i0;655/1
  7
STD
 73
     1
 44
1.0
  0
MTEXT
  5
142
330
A
100
AcDbEntity
  8
LAYER_1
 62
     7
100
AcDbMText
 10
407.808011
 20
765.72895
 30
0.0
 40
1.643461
 41
0.0
 46
0.0
 71
     1
 72
     2
  1
\W1.00;\fHelvetica|b1|i0;613
  7
STD
 73
     1
 44
1.0
  0
MTEXT
  5
141
330
A
100
AcDbEntity
  8
LAYER_1
 62
     7
100
AcDbMText
 10
398.142795
 20
766.002835
 30
0.0
 40
1.643461
 41
0.0
 46
0.0
 71
     1
 72
     2
  1
\W1.00;\fHelvetica|b1|i0;616
  7
STD
 73
     1
 44
1.0
  0
MTEXT
  5
140
330
A
100
AcDbEntity
  8
LAYER_1
 62
     7
100
AcDbMText
 10
457.503857
 20
804.867302
 30
0.0
 40
1.643461
 41
0.0
 46
0.0
 71
     1
 72
     2
  1
\W1.00;\fHelvetica|b1|i0;658
  7
STD
 73
     1
 44
1.0
  0
MTEXT
  5
13F
330
A
100
AcDbEntity
  8
LAYER_1
 62
     7
100
AcDbMText
 10
436.522881
 20
727.233798
 30
0.0
 40
1.643461
 41
0.0
 46
0.0
 71
     1
 72
     2
  1
\W1.00;\fHelvetica|b1|i0;614
  7
STD
 73
     1
 44
1.0
  0
MTEXT
  5
13E
330
A
100
AcDbEntity
  8
LAYER_1
 62
     7
100
AcDbMText
 10
391.444496
 20
770.973763
 30
0.0
 40
1.643461
 41
0.0
 46
0.0
 71
     1
 72
     2
  1
\W1.00;\fHelvetica|b1|i0;613
  7
STD
 73
     1
 44
1.0
  0
MTEXT
  5
13D
330
A
100
AcDbEntity
  8
LAYER_1
 62
     7
100
AcDbMText
 10
458.822984
 20
742.112131
 30
0.0
 40
1.643461
 41
0.0
 46
0.0
 71
     1
 72
     2
  1
\W1.00;\fHelvetica|b1|i0;534
  7
STD
 73
     1
 44
1.0
  0
MTEXT
  5
13C
330
A
100
AcDbEntity
  8
LAYER_1
 62
     7
100
AcDbMText
 10
385.874121
 20
797.561219
 30
0.0
 40
2.099868
 41
0.0
 46
0.0
 71
     1
 72
     2
  1
\fHelvetica|b1|i0;
  7
STD
 73
     1
 44
1.0
  0
MTEXT
  5
13B
330
A
100
AcDbEntity
  8
LAYER_1
 62
     7
100
AcDbMText
 10
385.319461
 20
796.145354
 30
0.0
 40
1.643461
 41
0.0
 46
0.0
 71
     1
 72
     2
  1
\W1.00;\fHelvetica|b1|i0;518
  7
STD
 73
     1
 44
1.0
  0
MTEXT
  5
13A
330
A
100
AcDbEntity
  8
LAYER_1
 62
     7
100
AcDbMText
 10
470.986583
 20
734.908023
 30
0.0
 40
2.099868
 41
0.0
 46
0.0
 71
     1
 72
     2
  1
\fHelvetica|b0|i0;
  7
STD
 73
     1
 44
1.0
  0
MTEXT
  5
139
330
A
100
AcDbEntity
  8
LAYER_1
 62
     7
100
AcDbMText
 10
527.261469
 20
796.67022
 30
0.0
 40
1.643435
 41
0.0
 46
0.0
 71
     1
 72
     2
  1
\fHelvetica|b0|i0;Differential  Machine Edge
  7
STD
 11
0.980019007652982
 21
-0.1989038577777328
 31
0.0
 73
     1
 44
1.0
  0
MTEXT
  5
138
330
A
100
AcDbEntity
  8
LAYER_1
 62
     7
100
AcDbMText
 10
524.359804
 20
751.913861
 30
0.0
 40
1.643435
 41
0.0
 46
0.0
 71
     1
 72
     2
  1
\W1.00;\fHelvetica|b0|i0;Edge of Moat
  7
STD
 11
0.8309100665364344
 21
-0.5564067409084994
 31
0.0
 73
     1
 44
1.0
  0
MTEXT
  5
137
330
A
100
AcDbEntity
  8
LAYER_1
 62
     7
100
AcDbMText
 10
469.253011
 20
738.144759
 30
0.0
 40
1.643461
 41
0.0
 46
0.0
 71
     1
 72
     2
  1
\W1.00;\fHelvetica|b0|i0;Baulk
  7
STD
 73
     1
 44
1.0
  0
MTEXT
  5
136
330
A
100
AcDbEntity
  8
LAYER_1
 62
     7
100
AcDbMText
 10
476.241387
 20
738.144759
 30
0.0
 40
1.643461
 41
0.0
 46
0.0
 71
     1
 72
     2
  1
\W1.00;\fHelvetica|b0|i0;Trench
  7
STD
 73
     1
 44
1.0
  0
SPLINE
  5
135
330
A
100
AcDbEntity
  8
LAYER_1
 62
     7
100
AcDbSpline
210
0.0
220
0.0
230
1.0
 70
     8
 71
     3
 72
    50
 73
    46
 74
     0
 42
0.000000001
 43
0.00000001
 40
0.0
 40
0.0
 40
0.0
 40
0.0
 40
1.0
 40
1.0
 40
1.0
 40
2.0
 40
2.0
 40
2.0
 40
3.0
 40
3.0
 40
3.0
 40
4.0
 40
4.0
 40
4.0
 40
5.0
 40
5.0
 40
5.0
 40
6.0
 40
6.0
 40
6.0
 40
7.0
 40
7.0
 40
7.0
 40
8.0
 40
8.0
 40
8.0
 40
9.0
 40
9.0
 40
9.0
 40
10.0
 40
10.0
 40
10.0
 40
11.0
 40
11.0
 40
11.0
 40
12.0
 40
12.0
 40
12.0
 40
13.0
 40
13.0
 40
13.0
 40
14.0
 40
14.0
 40
14.0
 40
15.0
 40
15.0
 40
15.0
 40
15.0
 10
429.4835177951388
 20
728.9045179578992
 30
0.0
 10
429.6905680338541
 20
728.9300116644964
 30
0.0
 10
429.8848714192708
 20
728.649580891927
 30
0.0
 10
430.0123399522569
 20
728.5286580403645
 30
0.0
 10
430.1783935546875
 20
728.3691501193575
 30
0.0
 10
430.3757975260417
 20
728.3502020941839
 30
0.0
 10
430.5955946180555
 20
728.3309095594617
 30
0.0
 10
430.9811008029513
 20
728.2926689995659
 30
0.0
 10
431.1023681640625
 20
727.9168090820311
 30
0.0
 10
431.1213161892361
 20
727.5757446289061
 30
0.0
 10
431.1278618706597
 20
727.438629828559
 30
0.0
 10
431.0641276041666
 20
727.2794664171006
 30
0.0
 10
430.9428602430555
 20
727.1933390299479
 30
0.0
 10
430.8250379774305
 20
727.107211642795
 30
0.0
 10
430.6210883246528
 20
727.1327053493923
 30
0.0
 10
430.4712266710069
 20
727.1265041775173
 30
0.0
 10
430.363050672743
 20
727.1199584960937
 30
0.0
 10
430.2641764322916
 20
727.1871378580729
 30
0.0
 10
430.1591010199652
 20
727.1805921766493
 30
0.0
 10
430.0826199001736
 20
727.1805921766493
 30
0.0
 10
429.910365125868
 20
727.0879191080728
 30
0.0
 10
429.8628228081597
 20
727.0307305230034
 30
0.0
 10
429.8052897135416
 20
726.973541937934
 30
0.0
 10
429.8083902994791
 20
726.8839694552951
 30
0.0
 10
429.722607421875
 20
726.8395277235243
 30
0.0
 10
429.7064154730903
 20
726.8267808702257
 30
0.0
 10
429.6778211805555
 20
726.8205796983507
 30
0.0
 10
429.6554280598958
 20
726.814034016927
 30
0.0
 10
429.563099500868
 20
726.7819946289062
 30
0.0
 10
429.4611246744792
 20
726.7885403103298
 30
0.0
 10
429.3687961154513
 20
726.7757934570312
 30
0.0
 10
429.2413275824653
 20
726.756500922309
 30
0.0
 10
429.1362521701388
 20
726.7630466037326
 30
0.0
 10
429.0087836371528
 20
726.7885403103298
 30
0.0
 10
428.9195556640624
 20
726.8074883355034
 30
0.0
 10
428.7090603298611
 20
726.8329820421006
 30
0.0
 10
428.6580729166666
 20
726.9094631618923
 30
0.0
 10
428.6101860894097
 20
726.979743109809
 30
0.0
 10
428.639124891493
 20
727.1423516167534
 30
0.0
 10
428.6580729166666
 20
727.215387641059
 30
0.0
 10
428.7252522786458
 20
727.4513766818576
 30
0.0
 10
428.9385036892361
 20
727.5915920681423
 30
0.0
 10
428.9577962239583
 20
727.8527303059896
 30
0.0
 10
428.9767442491319
 20
728.1586547851562
 30
0.0
 10
429.0215304904514
 20
728.7419094509548
 30
0.0
 10
429.38154296875
 20
728.8693779839409
 30
0.0
  0
SPLINE
  5
134
330
A
100
AcDbEntity
  8
LAYER_1
 62
     7
100
AcDbSpline
210
0.0
220
0.0
230
1.0
 70
    11
 71
     3
 72
    35
 73
    31
 74
     0
 42
0.000000001
 43
0.00000001
 40
0.0
 40
0.0
 40
0.0
 40
0.0
 40
1.0
 40
1.0
 40
1.0
 40
2.0
 40
2.0
 40
2.0
 40
3.0
 40
3.0
 40
3.0
 40
4.0
 40
4.0
 40
4.0
 40
5.0
 40
5.0
 40
5.0
 40
6.0
 40
6.0
 40
6.0
 40
7.0
 40
7.0
 40
7.0
 40
8.0
 40
8.0
 40
8.0
 40
9.0
 40
9.0
 40
9.0
 40
10.0
 40
10.0
 40
10.0
 40
10.0
 10
432.5234700520833
 20
726.8074883355034
 30
0.0
 10
432.8039008246527
 20
726.9990356445312
 30
0.0
 10
432.8200927734375
 20
727.5406046549479
 30
0.0
 10
432.3929009331597
 20
727.502364095052
 30
0.0
 10
432.2271918402777
 20
727.4834160698784
 30
0.0
 10
432.0645833333333
 20
727.4675686306423
 30
0.0
 10
431.905419921875
 20
727.4420749240451
 30
0.0
 10
431.628089735243
 20
727.4003892686632
 30
0.0
 10
431.5199137369791
 20
727.1933390299479
 30
0.0
 10
431.3858995225694
 20
726.979743109809
 30
0.0
 10
431.3221652560763
 20
726.8812133789062
 30
0.0
 10
431.2394829644097
 20
726.8012871636284
 30
0.0
 10
431.1977973090277
 20
726.6800198025173
 30
0.0
 10
431.1533555772569
 20
726.5590969509548
 30
0.0
 10
431.0865207248264
 20
726.3582478841145
 30
0.0
 10
431.1151150173611
 20
726.2342244466145
 30
0.0
 10
431.1499104817708
 20
726.1002102322047
 30
0.0
 10
431.3094184027777
 20
726.0619696723089
 30
0.0
 10
431.4337863498263
 20
726.0654147677951
 30
0.0
 10
431.5898491753472
 20
726.0654147677951
 30
0.0
 10
431.6473822699652
 20
726.1511976453993
 30
0.0
 10
431.7714057074652
 20
726.2342244466145
 30
0.0
 10
431.8544325086805
 20
726.285211859809
 30
0.0
 10
431.9533067491319
 20
726.2948581271701
 30
0.0
 10
432.0390896267361
 20
726.3392998589409
 30
0.0
 10
432.1124701605902
 20
726.3806410047742
 30
0.0
 10
432.1507107204861
 20
726.4540215386284
 30
0.0
 10
432.198597547743
 20
726.5208563910589
 30
0.0
 10
432.2909261067708
 20
726.6610717773436
 30
0.0
 10
432.3898003472222
 20
726.7120591905382
 30
0.0
 10
432.5234700520833
 20
726.8074883355034
 30
0.0
  0
SPLINE
  5
133
330
A
100
AcDbEntity
  8
LAYER_1
 62
     7
100
AcDbSpline
210
0.0
220
0.0
230
1.0
 70
    11
 71
     3
 72
    23
 73
    19
 74
     0
 42
0.000000001
 43
0.00000001
 40
0.0
 40
0.0
 40
0.0
 40
0.0
 40
1.0
 40
1.0
 40
1.0
 40
2.0
 40
2.0
 40
2.0
 40
3.0
 40
3.0
 40
3.0
 40
4.0
 40
4.0
 40
4.0
 40
5.0
 40
5.0
 40
5.0
 40
6.0
 40
6.0
 40
6.0
 40
6.0
 10
429.451478407118
 20
724.8382717556423
 30
0.0
 10
429.2475287543402
 20
725.0422214084201
 30
0.0
 10
429.3718967013888
 20
725.3991333007812
 30
0.0
 10
429.6874674479166
 20
725.3099053276909
 30
0.0
 10
429.8052897135416
 20
725.27786593967
 30
0.0
 10
429.9010633680555
 20
725.1696899414062
 30
0.0
 10
429.9647976345486
 20
725.0677151150173
 30
0.0
 10
430.0123399522569
 20
724.9974351671007
 30
0.0
 10
430.1019124348958
 20
724.8637654622395
 30
0.0
 10
430.0857204861111
 20
724.7745374891492
 30
0.0
 10
430.0667724609374
 20
724.6632609049478
 30
0.0
 10
429.9837456597222
 20
724.6915106879339
 30
0.0
 10
429.8914171006944
 20
724.6694620768228
 30
0.0
 10
429.8149359809028
 20
724.6501695421007
 30
0.0
 10
429.7797960069444
 20
724.6215752495659
 30
0.0
 10
429.7002143012152
 20
724.6632609049478
 30
0.0
 10
429.610986328125
 20
724.7046020507812
 30
0.0
 10
429.5186577690972
 20
724.7714369032118
 30
0.0
 10
429.451478407118
 20
724.8382717556423
 30
0.0
  0
SPLINE
  5
132
330
A
100
AcDbEntity
  8
LAYER_1
 62
     7
100
AcDbSpline
210
0.0
220
0.0
230
1.0
 70
    11
 71
     3
 72
    50
 73
    46
 74
     0
 42
0.000000001
 43
0.00000001
 40
0.0
 40
0.0
 40
0.0
 40
0.0
 40
1.0
 40
1.0
 40
1.0
 40
2.0
 40
2.0
 40
2.0
 40
3.0
 40
3.0
 40
3.0
 40
4.0
 40
4.0
 40
4.0
 40
5.0
 40
5.0
 40
5.0
 40
6.0
 40
6.0
 40
6.0
 40
7.0
 40
7.0
 40
7.0
 40
8.0
 40
8.0
 40
8.0
 40
9.0
 40
9.0
 40
9.0
 40
10.0
 40
10.0
 40
10.0
 40
11.0
 40
11.0
 40
11.0
 40
12.0
 40
12.0
 40
12.0
 40
13.0
 40
13.0
 40
13.0
 40
14.0
 40
14.0
 40
14.0
 40
15.0
 40
15.0
 40
15.0
 40
15.0
 10
434.0086507161458
 20
724.1561428493923
 30
0.0
 10
433.9480170355902
 20
723.8281697591145
 30
0.0
 10
433.8653347439236
 20
723.6338663736979
 30
0.0
 10
433.5942057291666
 20
723.4554104275173
 30
0.0
 10
433.4381429036458
 20
723.3534356011284
 30
0.0
 10
433.352015516493
 20
723.1811808268228
 30
0.0
 10
433.1546115451388
 20
723.1177910698784
 30
0.0
 10
432.8324951171875
 20
723.0158162434896
 30
0.0
 10
432.5107231987847
 20
723.0761054144965
 30
0.0
 10
432.1793050130208
 20
723.0792060004339
 30
0.0
 10
431.9722547743055
 20
723.08265109592
 30
0.0
 10
431.7493570963541
 20
723.1143459743923
 30
0.0
 10
431.56435546875
 20
723.200473361545
 30
0.0
 10
431.4909749348958
 20
723.2356133355034
 30
0.0
 10
431.4113932291666
 20
723.2673082139756
 30
0.0
 10
431.3380126953124
 20
723.308649359809
 30
0.0
 10
431.2139892578124
 20
723.3692830403645
 30
0.0
 10
431.057581922743
 20
723.3851304796007
 30
0.0
 10
430.9204671223958
 20
723.4423190646701
 30
0.0
 10
430.7134168836805
 20
723.531891547309
 30
0.0
 10
430.4967203776041
 20
723.7482435438368
 30
0.0
 10
430.4298855251736
 20
723.9652845594618
 30
0.0
 10
430.3406575520833
 20
724.2712090386284
 30
0.0
 10
430.2707221137152
 20
724.5960815429687
 30
0.0
 10
430.480872938368
 20
724.8510186089409
 30
0.0
 10
430.5701009114583
 20
724.9719414605034
 30
0.0
 10
430.7006700303819
 20
724.9974351671007
 30
0.0
 10
430.8250379774305
 20
725.0711602105034
 30
0.0
 10
430.9366590711805
 20
725.144196234809
 30
0.0
 10
431.0320882161458
 20
725.2461710611979
 30
0.0
 10
431.163001844618
 20
725.2909573025173
 30
0.0
 10
431.3669514973958
 20
725.3608927408853
 30
0.0
 10
431.682177734375
 20
725.3353990342881
 30
0.0
 10
431.8957736545138
 20
725.3288533528645
 30
0.0
 10
432.0773301866319
 20
725.3164510091145
 30
0.0
 10
432.2495849609375
 20
725.2844116210937
 30
0.0
 10
432.4376871744792
 20
725.2971584743923
 30
0.0
 10
432.6319905598958
 20
725.3033596462673
 30
0.0
 10
432.8262939453124
 20
725.2971584743923
 30
0.0
 10
433.0143961588541
 20
725.2399698893229
 30
0.0
 10
433.1639133029514
 20
725.2013848198784
 30
0.0
 10
433.3137749565972
 20
725.1855373806422
 30
0.0
 10
433.4605360243055
 20
725.1249037000867
 30
0.0
 10
433.7823079427083
 20
725.0039808485243
 30
0.0
 10
434.0658393012152
 20
724.4941067165798
 30
0.0
 10
434.0086507161458
 20
724.1561428493923
 30
0.0
  0
SPLINE
  5
131
330
A
100
AcDbEntity
  8
LAYER_1
 62
     7
100
AcDbSpline
210
0.0
220
0.0
230
1.0
 70
    11
 71
     3
 72
    38
 73
    34
 74
     0
 42
0.000000001
 43
0.00000001
 40
0.0
 40
0.0
 40
0.0
 40
0.0
 40
1.0
 40
1.0
 40
1.0
 40
2.0
 40
2.0
 40
2.0
 40
3.0
 40
3.0
 40
3.0
 40
4.0
 40
4.0
 40
4.0
 40
5.0
 40
5.0
 40
5.0
 40
6.0
 40
6.0
 40
6.0
 40
7.0
 40
7.0
 40
7.0
 40
8.0
 40
8.0
 40
8.0
 40
9.0
 40
9.0
 40
9.0
 40
10.0
 40
10.0
 40
10.0
 40
11.0
 40
11.0
 40
11.0
 40
11.0
 10
437.370374891493
 20
723.0602579752604
 30
0.0
 10
437.2684000651041
 20
723.1556871202256
 30
0.0
 10
437.1443766276041
 20
723.2831556532118
 30
0.0
 10
437.0933892144097
 20
723.4168253580729
 30
0.0
 10
437.0517035590277
 20
723.5222452799478
 30
0.0
 10
437.0899441189236
 20
723.601826985677
 30
0.0
 10
437.1123372395833
 20
723.7038018120659
 30
0.0
 10
437.1567789713541
 20
723.9142971462672
 30
0.0
 10
437.1536783854166
 20
724.2136759440103
 30
0.0
 10
437.4372097439236
 20
724.220221625434
 30
0.0
 10
437.593617078993
 20
724.2264227973089
 30
0.0
 10
437.7593261718749
 20
724.1692342122395
 30
0.0
 10
437.9091878255208
 20
724.1371948242187
 30
0.0
 10
438.0652506510417
 20
724.1086005316839
 30
0.0
 10
438.2116672092013
 20
724.0831068250867
 30
0.0
 10
438.3456814236111
 20
724.003180609809
 30
0.0
 10
438.5144911024305
 20
723.9012057834201
 30
0.0
 10
438.6388590494792
 20
723.8247246636284
 30
0.0
 10
438.7663275824652
 20
723.671762424045
 30
0.0
 10
438.864857313368
 20
723.54153781467
 30
0.0
 10
438.9065429687499
 20
723.3913316514756
 30
0.0
 10
438.9158447265625
 20
723.2290676540798
 30
0.0
 10
438.9254909939236
 20
723.0475111219617
 30
0.0
 10
438.9065429687499
 20
722.8945488823784
 30
0.0
 10
438.7663275824652
 20
722.7670803493922
 30
0.0
 10
438.6323133680555
 20
722.6554592556423
 30
0.0
 10
438.4314643012152
 20
722.6843980577256
 30
0.0
 10
438.2660997178819
 20
722.6747517903646
 30
0.0
 10
438.0490587022569
 20
722.6682061089409
 30
0.0
 10
437.8867947048611
 20
722.6589043511284
 30
0.0
 10
437.705238172743
 20
722.7670803493922
 30
0.0
 10
437.5839708116319
 20
722.8466620551214
 30
0.0
 10
437.4692491319444
 20
722.9517374674479
 30
0.0
 10
437.370374891493
 20
723.0602579752604
 30
0.0
  0
SPLINE
  5
130
330
A
100
AcDbEntity
  8
LAYER_1
 62
     7
100
AcDbSpline
210
0.0
220
0.0
230
1.0
 70
    11
 71
     3
 72
    44
 73
    40
 74
     0
 42
0.000000001
 43
0.00000001
 40
0.0
 40
0.0
 40
0.0
 40
0.0
 40
1.0
 40
1.0
 40
1.0
 40
2.0
 40
2.0
 40
2.0
 40
3.0
 40
3.0
 40
3.0
 40
4.0
 40
4.0
 40
4.0
 40
5.0
 40
5.0
 40
5.0
 40
6.0
 40
6.0
 40
6.0
 40
7.0
 40
7.0
 40
7.0
 40
8.0
 40
8.0
 40
8.0
 40
9.0
 40
9.0
 40
9.0
 40
10.0
 40
10.0
 40
10.0
 40
11.0
 40
11.0
 40
11.0
 40
12.0
 40
12.0
 40
12.0
 40
13.0
 40
13.0
 40
13.0
 40
13.0
 10
436.1180826822916
 20
721.9829766167534
 30
0.0
 10
436.2679443359374
 20
721.8810017903645
 30
0.0
 10
436.446400282118
 20
721.712192111545
 30
0.0
 10
436.6407036675347
 20
721.7218383789062
 30
0.0
 10
437.0038167317708
 20
721.7411309136284
 30
0.0
 10
437.3927680121527
 20
722.3591810438368
 30
0.0
 10
436.9307807074653
 20
722.5341918945312
 30
0.0
 10
436.7426784939236
 20
722.6013712565103
 30
0.0
 10
436.5993625217013
 20
722.7608791775173
 30
0.0
 10
436.4209065755208
 20
722.8466620551214
 30
0.0
 10
436.3316786024305
 20
722.8883477105034
 30
0.0
 10
436.2390055338541
 20
722.8628540039061
 30
0.0
 10
436.1466769748263
 20
722.8883477105034
 30
0.0
 10
436.0767415364583
 20
722.9007500542534
 30
0.0
 10
436.0161078559028
 20
722.9420912000868
 30
0.0
 10
435.9554741753472
 20
722.9613837348089
 30
0.0
 10
435.8218044704861
 20
723.0027248806423
 30
0.0
 10
435.6688422309027
 20
723.0347642686631
 30
0.0
 10
435.534828016493
 20
723.073004828559
 30
0.0
 10
435.3277777777777
 20
723.127092827691
 30
0.0
 10
435.1334743923611
 20
723.1301934136284
 30
0.0
 10
434.9198784722222
 20
723.1239922417534
 30
0.0
 10
434.7765625
 20
723.1177910698784
 30
0.0
 10
434.6680419921875
 20
723.073004828559
 30
0.0
 10
434.658740234375
 20
722.907295735677
 30
0.0
 10
434.6556396484374
 20
722.8563083224826
 30
0.0
 10
434.6680419921875
 20
722.7987752278646
 30
0.0
 10
434.7031819661458
 20
722.7543334960936
 30
0.0
 10
434.7831081814236
 20
722.6554592556423
 30
0.0
 10
434.8881835937499
 20
722.6396118164062
 30
0.0
 10
434.9994601779513
 20
722.6013712565103
 30
0.0
 10
435.1941080729166
 20
722.5217895507811
 30
0.0
 10
435.3184760199653
 20
722.3591810438368
 30
0.0
 10
435.5189805772569
 20
722.2954467773437
 30
0.0
 10
435.6275010850694
 20
722.2634073893229
 30
0.0
 10
435.7008816189236
 20
722.2062188042534
 30
0.0
 10
435.7932101779513
 20
722.1424845377603
 30
0.0
 10
435.8951850043402
 20
722.0787502712673
 30
0.0
 10
436.0161078559028
 20
722.05325656467
 30
0.0
 10
436.1180826822916
 20
721.9829766167534
 30
0.0
  0
SPLINE
  5
12F
330
A
100
AcDbEntity
  8
LAYER_1
 62
     7
100
AcDbSpline
210
0.0
220
0.0
230
1.0
 70
    11
 71
     3
 72
    47
 73
    43
 74
     0
 42
0.000000001
 43
0.00000001
 40
0.0
 40
0.0
 40
0.0
 40
0.0
 40
1.0
 40
1.0
 40
1.0
 40
2.0
 40
2.0
 40
2.0
 40
3.0
 40
3.0
 40
3.0
 40
4.0
 40
4.0
 40
4.0
 40
5.0
 40
5.0
 40
5.0
 40
6.0
 40
6.0
 40
6.0
 40
7.0
 40
7.0
 40
7.0
 40
8.0
 40
8.0
 40
8.0
 40
9.0
 40
9.0
 40
9.0
 40
10.0
 40
10.0
 40
10.0
 40
11.0
 40
11.0
 40
11.0
 40
12.0
 40
12.0
 40
12.0
 40
13.0
 40
13.0
 40
13.0
 40
14.0
 40
14.0
 40
14.0
 40
14.0
 10
442.647572157118
 20
721.8334594726562
 30
0.0
 10
442.6027859157986
 20
721.9064954969617
 30
0.0
 10
442.4977105034722
 20
721.9385348849826
 30
0.0
 10
442.4212293836805
 20
721.9640285915798
 30
0.0
 10
442.2203803168402
 20
722.0339640299478
 30
0.0
 10
441.9974826388889
 20
722.0883965386284
 30
0.0
 10
441.7869873046874
 20
722.1200914171006
 30
0.0
 10
441.6629638671874
 20
722.1424845377603
 30
0.0
 10
441.5354953342014
 20
722.1393839518229
 30
0.0
 10
441.4335205078124
 20
722.2062188042534
 30
0.0
 10
441.2516194661458
 20
722.3081936306423
 30
0.0
 10
441.2102783203125
 20
722.4673570421006
 30
0.0
 10
441.0766086154513
 20
722.6141181098089
 30
0.0
 10
440.9587863498264
 20
722.741586642795
 30
0.0
 10
440.7675835503472
 20
722.7222941080729
 30
0.0
 10
440.6080756293402
 20
722.7477878146701
 30
0.0
 10
440.4806070963541
 20
722.7670803493922
 30
0.0
 10
440.0982014973958
 20
722.8053209092882
 30
0.0
 10
439.9865804036458
 20
722.7222941080729
 30
0.0
 10
439.8467095269097
 20
722.6141181098089
 30
0.0
 10
439.8976969401041
 20
722.3688273111978
 30
0.0
 10
439.9038981119791
 20
722.2317125108507
 30
0.0
 10
439.9135443793402
 20
722.0215616861979
 30
0.0
 10
440.0089735243055
 20
721.7473320855034
 30
0.0
 10
440.1302408854166
 20
721.5719767252604
 30
0.0
 10
440.2670111762152
 20
721.3776733398437
 30
0.0
 10
440.4998996310763
 20
721.237457953559
 30
0.0
 10
440.6559624565972
 20
721.0528008355034
 30
0.0
 10
440.8278727213541
 20
720.8488511827256
 30
0.0
 10
441.0032280815972
 20
720.6638495551215
 30
0.0
 10
441.1882297092013
 20
720.4726467556422
 30
0.0
 10
441.3473931206597
 20
720.3069376627603
 30
0.0
 10
441.6278238932291
 20
720.2686971028645
 30
0.0
 10
441.8445203993055
 20
720.3389770507812
 30
0.0
 10
442.0295220269097
 20
720.3961656358506
 30
0.0
 10
442.0994574652777
 20
720.5684204101561
 30
0.0
 10
442.1790391710069
 20
720.7241387261284
 30
0.0
 10
442.2844590928819
 20
720.9187866210937
 30
0.0
 10
442.3864339192708
 20
721.0972425672743
 30
0.0
 10
442.5104573567708
 20
721.2787990993922
 30
0.0
 10
442.6158772786458
 20
721.4286607530381
 30
0.0
 10
442.7622938368055
 20
721.6515584309896
 30
0.0
 10
442.647572157118
 20
721.8334594726562
 30
0.0
  0
SPLINE
  5
12E
330
A
100
AcDbEntity
  8
LAYER_1
 62
     7
100
AcDbSpline
210
0.0
220
0.0
230
1.0
 70
    11
 71
     3
 72
    32
 73
    28
 74
     0
 42
0.000000001
 43
0.00000001
 40
0.0
 40
0.0
 40
0.0
 40
0.0
 40
1.0
 40
1.0
 40
1.0
 40
2.0
 40
2.0
 40
2.0
 40
3.0
 40
3.0
 40
3.0
 40
4.0
 40
4.0
 40
4.0
 40
5.0
 40
5.0
 40
5.0
 40
6.0
 40
6.0
 40
6.0
 40
7.0
 40
7.0
 40
7.0
 40
8.0
 40
8.0
 40
8.0
 40
9.0
 40
9.0
 40
9.0
 40
9.0
 10
439.5183919270833
 20
721.5719767252604
 30
0.0
 10
439.6010742187499
 20
721.5399373372395
 30
0.0
 10
439.6903021918403
 20
721.5051418728298
 30
0.0
 10
439.7478352864583
 20
721.4476087782117
 30
0.0
 10
440.0823540581597
 20
721.0782945421006
 30
0.0
 10
439.6713541666666
 20
720.4247599283854
 30
0.0
 10
439.1900743272569
 20
720.6194078233507
 30
0.0
 10
439.1232394748263
 20
720.6449015299479
 30
0.0
 10
439.0688069661458
 20
720.6986450195312
 30
0.0
 10
439.0116183810763
 20
720.7434312608507
 30
0.0
 10
438.8393636067708
 20
720.8998385959201
 30
0.0
 10
438.5334391276041
 20
720.9666734483507
 30
0.0
 10
438.4731499565972
 20
721.231256781684
 30
0.0
 10
438.44765625
 20
721.3587253146701
 30
0.0
 10
438.4793511284722
 20
721.5051418728298
 30
0.0
 10
438.4889973958333
 20
721.6326104058159
 30
0.0
 10
438.4986436631944
 20
721.7280395507812
 30
0.0
 10
438.4889973958333
 20
721.8810017903645
 30
0.0
 10
438.5399848090277
 20
721.9705742730034
 30
0.0
 10
438.6705539279513
 20
722.1807250976561
 30
0.0
 10
438.970277235243
 20
722.0150160047742
 30
0.0
 10
439.088099500868
 20
721.8875474717881
 30
0.0
 10
439.1804280598958
 20
721.7855726453993
 30
0.0
 10
439.2889485677083
 20
721.6994452582464
 30
0.0
 10
439.4067708333333
 20
721.6260647243923
 30
0.0
 10
439.435365125868
 20
721.6071166992186
 30
0.0
 10
439.4801513671874
 20
721.59436984592
 30
0.0
 10
439.5183919270833
 20
721.5719767252604
 30
0.0
  0
SPLINE
  5
12D
330
A
100
AcDbEntity
  8
LAYER_1
 62
     7
100
AcDbSpline
210
0.0
220
0.0
230
1.0
 70
    11
 71
     3
 72
    47
 73
    43
 74
     0
 42
0.000000001
 43
0.00000001
 40
0.0
 40
0.0
 40
0.0
 40
0.0
 40
1.0
 40
1.0
 40
1.0
 40
2.0
 40
2.0
 40
2.0
 40
3.0
 40
3.0
 40
3.0
 40
4.0
 40
4.0
 40
4.0
 40
5.0
 40
5.0
 40
5.0
 40
6.0
 40
6.0
 40
6.0
 40
7.0
 40
7.0
 40
7.0
 40
8.0
 40
8.0
 40
8.0
 40
9.0
 40
9.0
 40
9.0
 40
10.0
 40
10.0
 40
10.0
 40
11.0
 40
11.0
 40
11.0
 40
12.0
 40
12.0
 40
12.0
 40
13.0
 40
13.0
 40
13.0
 40
14.0
 40
14.0
 40
14.0
 40
14.0
 10
437.9250352647569
 20
719.5769219292534
 30
0.0
 10
437.7338324652777
 20
719.6506469726562
 30
0.0
 10
437.4978434244791
 20
719.7781155056423
 30
0.0
 10
437.4468560112847
 20
719.9944675021701
 30
0.0
 10
437.3958685980903
 20
720.223910861545
 30
0.0
 10
437.5839708116319
 20
720.4437079535589
 30
0.0
 10
437.6797444661458
 20
720.6383558485243
 30
0.0
 10
437.9439832899305
 20
721.1609768337673
 30
0.0
 10
438.5017442491319
 20
720.730684407552
 30
0.0
 10
438.8235161675347
 20
720.4981404622395
 30
0.0
 10
438.9923258463541
 20
720.3706719292534
 30
0.0
 10
439.2028211805555
 20
720.1729234483506
 30
0.0
 10
439.4098714192708
 20
720.1253811306423
 30
0.0
 10
439.5852267795138
 20
720.084039984809
 30
0.0
 10
439.7254421657986
 20
720.1922159830729
 30
0.0
 10
439.8911512586805
 20
720.2304565429687
 30
0.0
 10
440.1109483506944
 20
720.2748982747395
 30
0.0
 10
440.3214436848958
 20
720.2814439561631
 30
0.0
 10
440.5350396050347
 20
720.2494045681423
 30
0.0
 10
440.8440646701388
 20
720.2049628363715
 30
0.0
 10
441.1021023220486
 20
720.2370022243923
 30
0.0
 10
441.3442925347222
 20
720.0137600368923
 30
0.0
 10
441.6691650390625
 20
719.7174818250868
 30
0.0
 10
441.8541666666666
 20
719.1690226236979
 30
0.0
 10
441.7043050130208
 20
718.7421752929687
 30
0.0
 10
441.5830376519097
 20
718.3883639865451
 30
0.0
 10
441.0700629340278
 20
718.6498467339409
 30
0.0
 10
440.8313178168402
 20
718.7645684136284
 30
0.0
 10
440.6559624565972
 20
718.8537963867187
 30
0.0
 10
440.470960828993
 20
718.9623168945312
 30
0.0
 10
440.2832031249999
 20
719.0098592122395
 30
0.0
 10
440.1364420572916
 20
719.0480997721354
 30
0.0
 10
439.9772786458333
 20
719.0195054796006
 30
0.0
 10
439.830517578125
 20
719.060846625434
 30
0.0
 10
439.7316433376736
 20
719.0959865993923
 30
0.0
 10
439.6458604600694
 20
719.1566202799479
 30
0.0
 10
439.5500868055555
 20
719.1917602539062
 30
0.0
 10
439.2824028862847
 20
719.290289984809
 30
0.0
 10
438.9575303819444
 20
719.4466973198784
 30
0.0
 10
438.677099609375
 20
719.465645345052
 30
0.0
 10
438.393568250868
 20
719.4845933702256
 30
0.0
 10
438.1830729166666
 20
719.4783921983507
 30
0.0
 10
437.9250352647569
 20
719.5769219292534
 30
0.0
  0
SPLINE
  5
12C
330
A
100
AcDbEntity
  8
LAYER_1
 62
     7
100
AcDbSpline
210
0.0
220
0.0
230
1.0
 70
    11
 71
     3
 72
    23
 73
    19
 74
     0
 42
0.000000001
 43
0.00000001
 40
0.0
 40
0.0
 40
0.0
 40
0.0
 40
1.0
 40
1.0
 40
1.0
 40
2.0
 40
2.0
 40
2.0
 40
3.0
 40
3.0
 40
3.0
 40
4.0
 40
4.0
 40
4.0
 40
5.0
 40
5.0
 40
5.0
 40
6.0
 40
6.0
 40
6.0
 40
6.0
 10
434.158167860243
 20
721.1037882486978
 30
0.0
 10
434.4516899956597
 20
720.8836466471354
 30
0.0
 10
434.7734619140625
 20
720.772370062934
 30
0.0
 10
434.9739664713541
 20
721.0782945421006
 30
0.0
 10
435.1207275390624
 20
721.301192220052
 30
0.0
 10
434.9932590060764
 20
721.6071166992186
 30
0.0
 10
434.8020562065972
 20
721.7535332573784
 30
0.0
 10
434.5884602864583
 20
721.925788031684
 30
0.0
 10
434.4482449001736
 20
721.9130411783854
 30
0.0
 10
434.199853515625
 20
721.925788031684
 30
0.0
 10
433.97041015625
 20
721.9385348849826
 30
0.0
 10
433.4126491970486
 20
722.1807250976561
 30
0.0
 10
433.3489149305555
 20
721.8110663519965
 30
0.0
 10
433.3137749565972
 20
721.6198635525172
 30
0.0
 10
433.5146240234375
 20
721.5116875542534
 30
0.0
 10
433.6548394097222
 20
721.4317613389757
 30
0.0
 10
433.8398410373263
 20
721.3332316080729
 30
0.0
 10
433.9862575954861
 20
721.2247111002604
 30
0.0
 10
434.158167860243
 20
721.1037882486978
 30
0.0
  0
SPLINE
  5
12B
330
A
100
AcDbEntity
  8
LAYER_1
 62
     7
100
AcDbSpline
210
0.0
220
0.0
230
1.0
 70
    11
 71
     3
 72
    23
 73
    19
 74
     0
 42
0.000000001
 43
0.00000001
 40
0.0
 40
0.0
 40
0.0
 40
0.0
 40
1.0
 40
1.0
 40
1.0
 40
2.0
 40
2.0
 40
2.0
 40
3.0
 40
3.0
 40
3.0
 40
4.0
 40
4.0
 40
4.0
 40
5.0
 40
5.0
 40
5.0
 40
6.0
 40
6.0
 40
6.0
 40
6.0
 10
437.3290337456597
 20
720.7658243815104
 30
0.0
 10
437.3417805989583
 20
721.1037882486978
 30
0.0
 10
436.8191596137152
 20
721.1864705403646
 30
0.0
 10
436.5673231336805
 20
721.2787990993922
 30
0.0
 10
436.3092854817708
 20
721.37112765842
 30
0.0
 10
435.987513563368
 20
721.4414076063367
 30
0.0
 10
435.7546251085069
 20
721.253305392795
 30
0.0
 10
435.5031331380208
 20
721.0397094726562
 30
0.0
 10
435.4776394314236
 20
720.6383558485243
 30
0.0
 10
435.7708170572917
 20
720.4726467556422
 30
0.0
 10
435.9172336154513
 20
720.3961656358506
 30
0.0
 10
436.0829427083333
 20
720.3644707573784
 30
0.0
 10
436.223158094618
 20
720.2748982747395
 30
0.0
 10
436.3633734809027
 20
720.1922159830729
 30
0.0
 10
436.5228814019097
 20
720.1095336914062
 30
0.0
 10
436.6978922526041
 20
720.1029880099826
 30
0.0
 10
437.0262098524305
 20
720.084039984809
 30
0.0
 10
437.3162868923611
 20
720.4598999023436
 30
0.0
 10
437.3290337456597
 20
720.7658243815104
 30
0.0
  0
SPLINE
  5
12A
330
A
100
AcDbEntity
  8
LAYER_1
 62
     7
100
AcDbSpline
210
0.0
220
0.0
230
1.0
 70
    11
 71
     3
 72
    35
 73
    31
 74
     0
 42
0.000000001
 43
0.00000001
 40
0.0
 40
0.0
 40
0.0
 40
0.0
 40
1.0
 40
1.0
 40
1.0
 40
2.0
 40
2.0
 40
2.0
 40
3.0
 40
3.0
 40
3.0
 40
4.0
 40
4.0
 40
4.0
 40
5.0
 40
5.0
 40
5.0
 40
6.0
 40
6.0
 40
6.0
 40
7.0
 40
7.0
 40
7.0
 40
8.0
 40
8.0
 40
8.0
 40
9.0
 40
9.0
 40
9.0
 40
10.0
 40
10.0
 40
10.0
 40
10.0
 10
433.9862575954861
 20
725.2654635959201
 30
0.0
 10
434.0372450086805
 20
725.3991333007812
 30
0.0
 10
434.2126003689236
 20
725.5393486870659
 30
0.0
 10
434.3400689019097
 20
725.5968817816839
 30
0.0
 10
434.4547905815972
 20
725.6478691948784
 30
0.0
 10
434.6425482855902
 20
725.7463989257811
 30
0.0
 10
434.7700168185763
 20
725.778438313802
 30
0.0
 10
434.9550184461805
 20
725.8197794596354
 30
0.0
 10
435.0283989800347
 20
725.6857652452256
 30
0.0
 10
435.181361219618
 20
725.5934366861978
 30
0.0
 10
435.3598171657986
 20
725.4756144205728
 30
0.0
 10
435.6051079644097
 20
725.4246270073784
 30
0.0
 10
435.7356770833333
 20
725.2461710611979
 30
0.0
 10
435.882093641493
 20
725.0391208224826
 30
0.0
 10
435.6688422309027
 20
724.9371459960937
 30
0.0
 10
435.6498942057291
 20
724.7300957573784
 30
0.0
 10
435.6368028428819
 20
724.5516398111979
 30
0.0
 10
435.6877902560764
 20
724.3731838650173
 30
0.0
 10
435.6498942057291
 20
724.2009290907117
 30
0.0
 10
435.5572211371527
 20
723.7420423719617
 30
0.0
 10
435.1686143663194
 20
723.8567640516493
 30
0.0
 10
434.8117024739583
 20
723.8440171983507
 30
0.0
 10
434.5757134331597
 20
723.8343709309895
 30
0.0
 10
434.4069037543402
 20
723.7868286132812
 30
0.0
 10
434.2601426866319
 20
723.9749308268229
 30
0.0
 10
434.145765516493
 20
724.1244479709201
 30
0.0
 10
434.0306993272569
 20
724.3828301323784
 30
0.0
 10
433.9990044487847
 20
724.5705878363715
 30
0.0
 10
433.97041015625
 20
724.7424981011284
 30
0.0
 10
433.928724500868
 20
725.1059556749132
 30
0.0
 10
433.9862575954861
 20
725.2654635959201
 30
0.0
  0
SPLINE
  5
129
330
A
100
AcDbEntity
  8
LAYER_1
 62
     7
100
AcDbSpline
210
0.0
220
0.0
230
1.0
 70
    11
 71
     3
 72
    32
 73
    28
 74
     0
 42
0.000000001
 43
0.00000001
 40
0.0
 40
0.0
 40
0.0
 40
0.0
 40
1.0
 40
1.0
 40
1.0
 40
2.0
 40
2.0
 40
2.0
 40
3.0
 40
3.0
 40
3.0
 40
4.0
 40
4.0
 40
4.0
 40
5.0
 40
5.0
 40
5.0
 40
6.0
 40
6.0
 40
6.0
 40
7.0
 40
7.0
 40
7.0
 40
8.0
 40
8.0
 40
8.0
 40
9.0
 40
9.0
 40
9.0
 40
9.0
 10
422.6419026692708
 20
727.0052368164062
 30
0.0
 10
422.9254340277777
 20
727.1644002278645
 30
0.0
 10
422.9285346137152
 20
727.5278578016492
 30
0.0
 10
422.6704969618055
 20
727.6970119900172
 30
0.0
 10
422.5588758680555
 20
727.7700480143228
 30
0.0
 10
422.3993679470486
 20
727.8148342556423
 30
0.0
 10
422.2973931206597
 20
727.9102634006076
 30
0.0
 10
422.208509657118
 20
727.9963907877603
 30
0.0
 10
422.1478759765625
 20
728.0952650282118
 30
0.0
 10
422.0459011501736
 20
728.1748467339409
 30
0.0
 10
421.8130126953125
 20
728.362604437934
 30
0.0
 10
421.7048366970486
 20
728.5410603841145
 30
0.0
 10
421.3892659505208
 20
728.5572523328992
 30
0.0
 10
420.9717203776041
 20
728.5827460394964
 30
0.0
 10
420.1624674479166
 20
728.2482272677951
 30
0.0
 10
420.1945068359375
 20
727.731807454427
 30
0.0
 10
420.20380859375
 20
727.5468058268228
 30
0.0
 10
420.6533935546875
 20
727.2984144422743
 30
0.0
 10
420.838050672743
 20
727.2601738823784
 30
0.0
 10
421.0323540581597
 20
727.215387641059
 30
0.0
 10
421.2266574435764
 20
727.1933390299479
 30
0.0
 10
421.4306070963542
 20
727.1805921766493
 30
0.0
 10
421.638001844618
 20
727.1740464952256
 30
0.0
 10
421.7782172309027
 20
727.043477376302
 30
0.0
 10
421.9628743489583
 20
726.9542494032117
 30
0.0
 10
422.208509657118
 20
726.8329820421006
 30
0.0
 10
422.4059136284722
 20
726.8715671115451
 30
0.0
 10
422.6419026692708
 20
727.0052368164062
 30
0.0
  0
SPLINE
  5
128
330
A
100
AcDbEntity
  8
LAYER_1
 62
     7
100
AcDbSpline
210
0.0
220
0.0
230
1.0
 70
    11
 71
     3
 72
    23
 73
    19
 74
     0
 42
0.000000001
 43
0.00000001
 40
0.0
 40
0.0
 40
0.0
 40
0.0
 40
1.0
 40
1.0
 40
1.0
 40
2.0
 40
2.0
 40
2.0
 40
3.0
 40
3.0
 40
3.0
 40
4.0
 40
4.0
 40
4.0
 40
5.0
 40
5.0
 40
5.0
 40
6.0
 40
6.0
 40
6.0
 40
6.0
 10
424.3499810112847
 20
728.8628323025173
 30
0.0
 10
424.7099934895833
 20
728.7705037434895
 30
0.0
 10
425.0507134331597
 20
728.7071139865451
 30
0.0
 10
425.4203721788194
 20
728.7581013997395
 30
0.0
 10
425.8124240451389
 20
728.8183905707465
 30
0.0
 10
425.7710828993055
 20
728.9110636393228
 30
0.0
 10
425.538538953993
 20
729.1849487304687
 30
0.0
 10
425.4110704210069
 20
729.3313652886284
 30
0.0
 10
425.3280436197916
 20
729.4047458224826
 30
0.0
 10
425.1368408203124
 20
729.4908732096353
 30
0.0
 10
424.8405626085069
 20
729.6183417426215
 30
0.0
 10
424.5856255425347
 20
729.9817993164062
 30
0.0
 10
424.2318142361111
 20
729.9177205403645
 30
0.0
 10
423.9930691189236
 20
729.8798244900173
 30
0.0
 10
423.4225613064236
 20
729.4302395290798
 30
0.0
 10
423.5562310112847
 20
729.1498087565103
 30
0.0
 10
423.6582058376736
 20
728.9300116644964
 30
0.0
 10
424.1522325303819
 20
728.9172648111978
 30
0.0
 10
424.3499810112847
 20
728.8628323025173
 30
0.0
  0
SPLINE
  5
127
330
A
100
AcDbEntity
  8
LAYER_1
 62
     7
100
AcDbSpline
210
0.0
220
0.0
230
1.0
 70
    11
 71
     3
 72
    41
 73
    37
 74
     0
 42
0.000000001
 43
0.00000001
 40
0.0
 40
0.0
 40
0.0
 40
0.0
 40
1.0
 40
1.0
 40
1.0
 40
2.0
 40
2.0
 40
2.0
 40
3.0
 40
3.0
 40
3.0
 40
4.0
 40
4.0
 40
4.0
 40
5.0
 40
5.0
 40
5.0
 40
6.0
 40
6.0
 40
6.0
 40
7.0
 40
7.0
 40
7.0
 40
8.0
 40
8.0
 40
8.0
 40
9.0
 40
9.0
 40
9.0
 40
10.0
 40
10.0
 40
10.0
 40
11.0
 40
11.0
 40
11.0
 40
12.0
 40
12.0
 40
12.0
 40
12.0
 10
424.4199164496528
 20
730.1347615559895
 30
0.0
 10
424.1970187717013
 20
730.2525838216145
 30
0.0
 10
423.4225613064236
 20
730.6956231011284
 30
0.0
 10
423.9865234375
 20
730.9119750976562
 30
0.0
 10
424.056458875868
 20
730.9374688042534
 30
0.0
 10
424.1394856770833
 20
730.9250664605034
 30
0.0
 10
424.215966796875
 20
730.9374688042534
 30
0.0
 10
424.3754747178819
 20
730.9567613389756
 30
0.0
 10
424.5315375434027
 20
730.9950018988715
 30
0.0
 10
424.6938015407986
 20
731.0077487521701
 30
0.0
 10
424.9838785807291
 20
731.0204956054687
 30
0.0
 10
425.3855767144097
 20
730.9119750976562
 30
0.0
 10
425.6498155381944
 20
730.7975979275172
 30
0.0
 10
425.9174994574652
 20
730.6825317382812
 30
0.0
 10
426.1948296440972
 20
730.5743557400173
 30
0.0
 10
426.4242730034722
 20
730.3990003797743
 30
0.0
 10
426.6633626302083
 20
730.2112426757811
 30
0.0
 10
426.8673122829861
 20
730.0134941948784
 30
0.0
 10
427.1253499348958
 20
729.8412394205728
 30
0.0
 10
427.2845133463541
 20
729.733063422309
 30
0.0
 10
427.7148057725694
 20
729.2486829969617
 30
0.0
 10
427.3389458550347
 20
729.1563544379339
 30
0.0
 10
427.1956298828125
 20
729.1243150499131
 30
0.0
 10
426.9820339626736
 20
729.2104424370659
 30
0.0
 10
426.8352728949652
 20
729.2424818250868
 30
0.0
 10
426.6633626302083
 20
729.274176703559
 30
0.0
 10
426.4942084418402
 20
729.274176703559
 30
0.0
 10
426.3288438585069
 20
729.3444566514756
 30
0.0
 10
426.1882839626736
 20
729.4112915039062
 30
0.0
 10
426.0801079644097
 20
729.509821234809
 30
0.0
 10
425.9271457248263
 20
729.5511623806423
 30
0.0
 10
425.7772840711805
 20
729.5928480360243
 30
0.0
 10
425.6150200737847
 20
729.5993937174478
 30
0.0
 10
425.4682590060763
 20
729.6565823025173
 30
0.0
 10
425.1175482855903
 20
729.796797688802
 30
0.0
 10
424.7544352213541
 20
729.9590616861979
 30
0.0
 10
424.4199164496528
 20
730.1347615559895
 30
0.0
  0
SPLINE
  5
126
330
A
100
AcDbEntity
  8
LAYER_1
 62
     7
100
AcDbSpline
210
0.0
220
0.0
230
1.0
 70
    11
 71
     3
 72
    20
 73
    16
 74
     0
 42
0.000000001
 43
0.00000001
 40
0.0
 40
0.0
 40
0.0
 40
0.0
 40
1.0
 40
1.0
 40
1.0
 40
2.0
 40
2.0
 40
2.0
 40
3.0
 40
3.0
 40
3.0
 40
4.0
 40
4.0
 40
4.0
 40
5.0
 40
5.0
 40
5.0
 40
5.0
 10
421.8991400824652
 20
730.8258477105034
 30
0.0
 10
421.8195583767361
 20
731.0459893120659
 30
0.0
 10
421.7430772569444
 20
731.5272691514756
 30
0.0
 10
421.9342800564236
 20
731.7215725368923
 30
0.0
 10
422.1478759765625
 20
731.9413696289062
 30
0.0
 10
422.6129638671875
 20
731.680231391059
 30
0.0
 10
422.8169135199652
 20
731.568610297309
 30
0.0
 10
423.1100911458333
 20
731.4156480577257
 30
0.0
 10
423.2792453342013
 20
731.1669121636284
 30
0.0
 10
423.1738254123263
 20
730.8258477105034
 30
0.0
 10
423.0942437065972
 20
730.5647094726562
 30
0.0
 10
423.0783962673611
 20
729.9590616861979
 30
0.0
 10
422.6928900824652
 20
730.08997531467
 30
0.0
 10
422.3614718967013
 20
730.2046969943576
 30
0.0
 10
422.0169623480903
 20
730.4916734483506
 30
0.0
 10
421.8991400824652
 20
730.8258477105034
 30
0.0
  0
SPLINE
  5
125
330
A
100
AcDbEntity
  8
LAYER_1
 62
     7
100
AcDbSpline
210
0.0
220
0.0
230
1.0
 70
    11
 71
     3
 72
    20
 73
    16
 74
     0
 42
0.000000001
 43
0.00000001
 40
0.0
 40
0.0
 40
0.0
 40
0.0
 40
1.0
 40
1.0
 40
1.0
 40
2.0
 40
2.0
 40
2.0
 40
3.0
 40
3.0
 40
3.0
 40
4.0
 40
4.0
 40
4.0
 40
5.0
 40
5.0
 40
5.0
 40
5.0
 10
423.9737765842013
 20
726.5208563910589
 30
0.0
 10
423.7856743706597
 20
726.6545260959201
 30
0.0
 10
423.2854465060764
 20
726.9349568684895
 30
0.0
 10
423.7284857855902
 20
727.11341281467
 30
0.0
 10
423.9706759982639
 20
727.2219333224825
 30
0.0
 10
424.2893473307291
 20
727.0879191080728
 30
0.0
 10
424.5187906901041
 20
727.0052368164062
 30
0.0
 10
424.7640814887152
 20
726.9067070855034
 30
0.0
 10
425.13994140625
 20
726.6676174587673
 30
0.0
 10
425.1526882595486
 20
726.3740953233506
 30
0.0
 10
425.1719807942708
 20
725.9982354058159
 30
0.0
 10
424.7192952473958
 20
726.1766913519965
 30
0.0
 10
424.5187906901041
 20
726.2786661783854
 30
0.0
 10
424.3403347439236
 20
726.3740953233506
 30
0.0
 10
424.1394856770833
 20
726.3995890299478
 30
0.0
 10
423.9737765842013
 20
726.5208563910589
 30
0.0
  0
SPLINE
  5
124
330
A
100
AcDbEntity
  8
LAYER_1
 62
     7
100
AcDbSpline
210
0.0
220
0.0
230
1.0
 70
    11
 71
     3
 72
    20
 73
    16
 74
     0
 42
0.000000001
 43
0.00000001
 40
0.0
 40
0.0
 40
0.0
 40
0.0
 40
1.0
 40
1.0
 40
1.0
 40
2.0
 40
2.0
 40
2.0
 40
3.0
 40
3.0
 40
3.0
 40
4.0
 40
4.0
 40
4.0
 40
5.0
 40
5.0
 40
5.0
 40
5.0
 10
424.8181694878472
 20
727.1616441514757
 30
0.0
 10
424.738587782118
 20
727.454477267795
 30
0.0
 10
424.8119683159722
 20
727.8017428927951
 30
0.0
 10
425.0762071397569
 20
727.7762491861979
 30
0.0
 10
425.2195231119791
 20
727.7573011610242
 30
0.0
 10
425.1719807942708
 20
727.7094143337673
 30
0.0
 10
425.2326144748263
 20
727.5853908962673
 30
0.0
 10
425.2770562065972
 20
727.4896172417534
 30
0.0
 10
425.3759304470486
 20
727.4003892686632
 30
0.0
 10
425.433119032118
 20
727.3049601236978
 30
0.0
 10
425.5574869791666
 20
727.0879191080728
 30
0.0
 10
425.6243218315972
 20
726.855719672309
 30
0.0
 10
425.3345893012153
 20
726.7757934570312
 30
0.0
 10
425.0638047960069
 20
726.7055135091146
 30
0.0
 10
424.8884494357638
 20
726.9129082573784
 30
0.0
 10
424.8181694878472
 20
727.1616441514757
 30
0.0
  0
SPLINE
  5
123
330
A
100
AcDbEntity
  8
LAYER_1
 62
     7
100
AcDbSpline
210
0.0
220
0.0
230
1.0
 70
    11
 71
     3
 72
    14
 73
    10
 74
     0
 42
0.000000001
 43
0.00000001
 40
0.0
 40
0.0
 40
0.0
 40
0.0
 40
1.0
 40
1.0
 40
1.0
 40
2.0
 40
2.0
 40
2.0
 40
3.0
 40
3.0
 40
3.0
 40
3.0
 10
424.1394856770833
 20
728.1397067599826
 30
0.0
 10
423.9544840494791
 20
728.2289347330728
 30
0.0
 10
423.7729275173611
 20
728.2416815863714
 30
0.0
 10
423.645458984375
 20
728.0504787868923
 30
0.0
 10
423.4129150390625
 20
727.7032131618923
 30
0.0
 10
423.9069417317708
 20
727.5151109483506
 30
0.0
 10
424.1808268229166
 20
727.4799709743922
 30
0.0
 10
424.7099934895833
 20
727.4227823893228
 30
0.0
 10
424.4612575954861
 20
727.9774427625867
 30
0.0
 10
424.1394856770833
 20
728.1397067599826
 30
0.0
  0
SPLINE
  5
122
330
A
100
AcDbEntity
  8
LAYER_1
 62
     7
100
AcDbSpline
210
0.0
220
0.0
230
1.0
 70
    11
 71
     3
 72
    23
 73
    19
 74
     0
 42
0.000000001
 43
0.00000001
 40
0.0
 40
0.0
 40
0.0
 40
0.0
 40
1.0
 40
1.0
 40
1.0
 40
2.0
 40
2.0
 40
2.0
 40
3.0
 40
3.0
 40
3.0
 40
4.0
 40
4.0
 40
4.0
 40
5.0
 40
5.0
 40
5.0
 40
6.0
 40
6.0
 40
6.0
 40
6.0
 10
423.0656494140625
 20
728.2034410264756
 30
0.0
 10
422.7786729600694
 20
728.2227335611979
 30
0.0
 10
422.3676730685763
 20
728.4900729709201
 30
0.0
 10
422.1733696831597
 20
728.5383043077256
 30
0.0
 10
421.8546983506944
 20
728.6240871853298
 30
0.0
 10
421.0705946180555
 20
728.8566311306423
 30
0.0
 10
421.4626464843749
 20
729.3189629448784
 30
0.0
 10
421.5966606987847
 20
729.4843275282118
 30
0.0
 10
421.7303304036458
 20
729.796797688802
 30
0.0
 10
421.9949137369791
 20
729.733063422309
 30
0.0
 10
422.3197862413194
 20
729.6503811306422
 30
0.0
 10
422.6512044270833
 20
729.4367852105034
 30
0.0
 10
422.8806477864583
 20
729.1976955837673
 30
0.0
 10
423.0591037326388
 20
729.0095933702256
 30
0.0
 10
423.5117892795138
 20
728.5827460394964
 30
0.0
 10
423.3109402126736
 20
728.2957695855034
 30
0.0
 10
423.2568522135416
 20
728.2161878797742
 30
0.0
 10
423.1676242404513
 20
728.190694173177
 30
0.0
 10
423.0656494140625
 20
728.2034410264756
 30
0.0
  0
SPLINE
  5
121
330
A
100
AcDbEntity
  8
LAYER_1
 62
     7
100
AcDbSpline
210
0.0
220
0.0
230
1.0
 70
    11
 71
     3
 72
    23
 73
    19
 74
     0
 42
0.000000001
 43
0.00000001
 40
0.0
 40
0.0
 40
0.0
 40
0.0
 40
1.0
 40
1.0
 40
1.0
 40
2.0
 40
2.0
 40
2.0
 40
3.0
 40
3.0
 40
3.0
 40
4.0
 40
4.0
 40
4.0
 40
5.0
 40
5.0
 40
5.0
 40
6.0
 40
6.0
 40
6.0
 40
6.0
 10
486.2252739800347
 20
769.7512925889756
 30
0.0
 10
485.6547661675347
 20
770.3534952799479
 30
0.0
 10
486.0499186197916
 20
771.7363566080728
 30
0.0
 10
487.0121337890624
 20
771.2264824761284
 30
0.0
 10
487.1716417100694
 20
771.1403550889756
 30
0.0
 10
487.3500976562499
 20
770.9749905056423
 30
0.0
 10
487.4586181640624
 20
770.8409762912326
 30
0.0
 10
487.6846164279514
 20
770.5732923719618
 30
0.0
 10
488.048074001736
 20
770.2928615993923
 30
0.0
 10
488.1913899739583
 20
769.9676445855034
 30
0.0
 10
488.2613254123264
 20
769.792633734809
 30
0.0
 10
488.3922390407986
 20
769.445368109809
 30
0.0
 10
488.1979356553819
 20
769.3241007486979
 30
0.0
 10
488.0735677083333
 20
769.2445190429687
 30
0.0
 10
487.6305284288194
 20
769.2986070421006
 30
0.0
 10
487.4965142144097
 20
769.3241007486979
 30
0.0
 10
487.0920600043402
 20
769.3812893337673
 30
0.0
 10
486.5119059244791
 20
769.451569281684
 30
0.0
 10
486.2252739800347
 20
769.7512925889756
 30
0.0
  0
SPLINE
  5
120
330
A
100
AcDbEntity
  8
LAYER_1
 62
     7
100
AcDbSpline
210
0.0
220
0.0
230
1.0
 70
    11
 71
     3
 72
    23
 73
    19
 74
     0
 42
0.000000001
 43
0.00000001
 40
0.0
 40
0.0
 40
0.0
 40
0.0
 40
1.0
 40
1.0
 40
1.0
 40
2.0
 40
2.0
 40
2.0
 40
3.0
 40
3.0
 40
3.0
 40
4.0
 40
4.0
 40
4.0
 40
5.0
 40
5.0
 40
5.0
 40
6.0
 40
6.0
 40
6.0
 40
6.0
 10
484.0200683593749
 20
764.5633232964409
 30
0.0
 10
484.0073215060763
 20
764.87854953342
 30
0.0
 10
484.0772569444444
 20
765.1686265733506
 30
0.0
 10
484.3545871310764
 20
765.1941202799478
 30
0.0
 10
484.7211452907986
 20
765.2327053493923
 30
0.0
 10
485.0908040364583
 20
764.6718438042534
 30
0.0
 10
485.2785617404513
 20
764.4293090820312
 30
0.0
 10
485.4635633680555
 20
764.190219455295
 30
0.0
 10
486.0499186197916
 20
763.5756144205728
 30
0.0
 10
485.6930067274305
 20
763.2469523111979
 30
0.0
 10
485.4732096354166
 20
763.0495483398437
 30
0.0
 10
484.5202962239583
 20
763.1005357530381
 30
0.0
 10
484.2973985460069
 20
763.3234334309896
 30
0.0
 10
484.1568386501735
 20
763.4605482313367
 30
0.0
 10
484.1823323567708
 20
763.6104098849826
 30
0.0
 10
484.1409912109374
 20
763.7985120985243
 30
0.0
 10
484.1123969184027
 20
763.94837375217
 30
0.0
 10
484.0293701171875
 20
764.2701456705729
 30
0.0
 10
484.0200683593749
 20
764.5633232964409
 30
0.0
  0
SPLINE
  5
11F
330
A
100
AcDbEntity
  8
LAYER_1
 62
     7
100
AcDbSpline
210
0.0
220
0.0
230
1.0
 70
    11
 71
     3
 72
    20
 73
    16
 74
     0
 42
0.000000001
 43
0.00000001
 40
0.0
 40
0.0
 40
0.0
 40
0.0
 40
1.0
 40
1.0
 40
1.0
 40
2.0
 40
2.0
 40
2.0
 40
3.0
 40
3.0
 40
3.0
 40
4.0
 40
4.0
 40
4.0
 40
5.0
 40
5.0
 40
5.0
 40
5.0
 10
486.1997802734375
 20
757.578047688802
 30
0.0
 10
486.1997802734375
 20
757.8202379014756
 30
0.0
 10
485.9892849392361
 20
758.5564548068576
 30
0.0
 10
485.7250461154513
 20
758.655329047309
 30
0.0
 10
485.3681342230902
 20
758.795199924045
 30
0.0
 10
485.2117268880208
 20
758.314264594184
 30
0.0
 10
485.2882080078124
 20
758.0465806749131
 30
0.0
 10
485.342640516493
 20
757.8774264865451
 30
0.0
 10
485.4539171006944
 20
757.7244642469617
 30
0.0
 10
485.4987033420139
 20
757.5460083007812
 30
0.0
 10
485.5496907552083
 20
757.3420586480034
 30
0.0
 10
485.5431450737847
 20
757.1381089952256
 30
0.0
 10
485.6099799262153
 20
756.9407050238715
 30
0.0
 10
486.0054768880208
 20
756.8928181966145
 30
0.0
 10
486.1997802734375
 20
757.2211357964409
 30
0.0
 10
486.1997802734375
 20
757.578047688802
 30
0.0
  0
SPLINE
  5
11E
330
A
100
AcDbEntity
  8
LAYER_1
 62
     7
100
AcDbSpline
210
0.0
220
0.0
230
1.0
 70
    11
 71
     3
 72
    41
 73
    37
 74
     0
 42
0.000000001
 43
0.00000001
 40
0.0
 40
0.0
 40
0.0
 40
0.0
 40
1.0
 40
1.0
 40
1.0
 40
2.0
 40
2.0
 40
2.0
 40
3.0
 40
3.0
 40
3.0
 40
4.0
 40
4.0
 40
4.0
 40
5.0
 40
5.0
 40
5.0
 40
6.0
 40
6.0
 40
6.0
 40
7.0
 40
7.0
 40
7.0
 40
8.0
 40
8.0
 40
8.0
 40
9.0
 40
9.0
 40
9.0
 40
10.0
 40
10.0
 40
10.0
 40
11.0
 40
11.0
 40
11.0
 40
12.0
 40
12.0
 40
12.0
 40
12.0
 10
492.356165907118
 20
763.7409790039062
 30
0.0
 10
492.7451171874999
 20
763.8078138563368
 30
0.0
 10
493.1433702256944
 20
763.8429538302951
 30
0.0
 10
493.5419677734375
 20
763.8684475368923
 30
0.0
 10
493.8031060112847
 20
763.890840657552
 30
0.0
 10
494.2048041449652
 20
764.0978908962672
 30
0.0
 10
494.4500949435763
 20
763.9897148980034
 30
0.0
 10
494.5934109157986
 20
763.9228800455728
 30
0.0
 10
494.6251057942708
 20
763.7475246853298
 30
0.0
 10
494.7815131293402
 20
763.6837904188368
 30
0.0
 10
494.991663953993
 20
763.5945624457464
 30
0.0
 10
495.2497016059027
 20
763.7285766601561
 30
0.0
 10
495.3740695529514
 20
763.4670939127603
 30
0.0
 10
495.6228054470486
 20
762.9506740993922
 30
0.0
 10
495.157373046875
 20
762.568268500434
 30
0.0
 10
494.7429280598958
 20
762.4728393554686
 30
0.0
 10
494.3226264105903
 20
762.3801662868923
 30
0.0
 10
493.9877631293402
 20
762.1286743164062
 30
0.0
 10
493.6119032118055
 20
761.9533189561631
 30
0.0
 10
493.2294976128472
 20
761.771762424045
 30
0.0
 10
492.7737114800347
 20
761.6856350368923
 30
0.0
 10
492.3658121744791
 20
761.5678127712673
 30
0.0
 10
491.8717854817708
 20
761.4244967990451
 30
0.0
 10
491.5148735894097
 20
761.708028157552
 30
0.0
 10
491.1931016710069
 20
762.039446343316
 30
0.0
 10
491.0401394314235
 20
762.1924085828992
 30
0.0
 10
490.8840766059027
 20
762.396358235677
 30
0.0
 10
490.8744303385416
 20
762.6130547417534
 30
0.0
 10
490.861683485243
 20
762.9062323676214
 30
0.0
 10
491.0783799913194
 20
763.0016615125868
 30
0.0
 10
491.2344428168402
 20
763.2121568467882
 30
0.0
 10
491.4004964192708
 20
763.4288533528645
 30
0.0
 10
491.3970513237847
 20
763.6293579101562
 30
0.0
 10
491.6647352430555
 20
763.6965372721354
 30
0.0
 10
491.8783311631944
 20
763.7475246853298
 30
0.0
 10
492.1332682291666
 20
763.709284125434
 30
0.0
 10
492.356165907118
 20
763.7409790039062
 30
0.0
  0
SPLINE
  5
11D
330
A
100
AcDbEntity
  8
LAYER_1
 62
     7
100
AcDbSpline
210
0.0
220
0.0
230
1.0
 70
    11
 71
     3
 72
    32
 73
    28
 74
     0
 42
0.000000001
 43
0.00000001
 40
0.0
 40
0.0
 40
0.0
 40
0.0
 40
1.0
 40
1.0
 40
1.0
 40
2.0
 40
2.0
 40
2.0
 40
3.0
 40
3.0
 40
3.0
 40
4.0
 40
4.0
 40
4.0
 40
5.0
 40
5.0
 40
5.0
 40
6.0
 40
6.0
 40
6.0
 40
7.0
 40
7.0
 40
7.0
 40
8.0
 40
8.0
 40
8.0
 40
9.0
 40
9.0
 40
9.0
 40
9.0
 10
492.0409396701389
 20
766.9883260091145
 30
0.0
 10
492.3086235894097
 20
767.2019219292534
 30
0.0
 10
492.627294921875
 20
767.4437676323784
 30
0.0
 10
492.9680148654513
 20
767.3355916341145
 30
0.0
 10
493.2932318793402
 20
767.2336168077256
 30
0.0
 10
493.3569661458333
 20
766.9821248372396
 30
0.0
 10
493.497181532118
 20
766.7140964084201
 30
0.0
 10
493.6053575303819
 20
766.5070461697048
 30
0.0
 10
493.7138780381944
 20
766.3254896375868
 30
0.0
 10
493.7138780381944
 20
766.0801988389757
 30
0.0
 10
493.7169786241319
 20
765.4745510525173
 30
0.0
 10
493.1688639322916
 20
765.33743625217
 30
0.0
 10
492.7675103081597
 20
765.0060180664062
 30
0.0
 10
492.3785590277777
 20
764.6842461480034
 30
0.0
 10
492.0471408420138
 20
764.2701456705729
 30
0.0
 10
491.5403672960069
 20
764.1712714301215
 30
0.0
 10
491.3174696180555
 20
764.1299302842881
 30
0.0
 10
490.6611789279514
 20
763.9642211914062
 30
0.0
 10
490.4985704210069
 20
764.190219455295
 30
0.0
 10
490.3869493272569
 20
764.3593736436632
 30
0.0
 10
490.4062418619791
 20
765.1176391601562
 30
0.0
 10
490.4827229817708
 20
765.3091864691839
 30
0.0
 10
490.6036458333333
 20
765.6116658528645
 30
0.0
 10
491.0304931640625
 20
765.9334377712673
 30
0.0
 10
491.2185953776041
 20
766.226959906684
 30
0.0
 10
491.4035970052083
 20
766.5197930230034
 30
0.0
 10
491.7636094835069
 20
766.7685289171006
 30
0.0
 10
492.0409396701389
 20
766.9883260091145
 30
0.0
  0
SPLINE
  5
11C
330
A
100
AcDbEntity
  8
LAYER_1
 62
     7
100
AcDbSpline
210
0.0
220
0.0
230
1.0
 70
    11
 71
     3
 72
   104
 73
   100
 74
     0
 42
0.000000001
 43
0.00000001
 40
0.0
 40
0.0
 40
0.0
 40
0.0
 40
1.0
 40
1.0
 40
1.0
 40
2.0
 40
2.0
 40
2.0
 40
3.0
 40
3.0
 40
3.0
 40
4.0
 40
4.0
 40
4.0
 40
5.0
 40
5.0
 40
5.0
 40
6.0
 40
6.0
 40
6.0
 40
7.0
 40
7.0
 40
7.0
 40
8.0
 40
8.0
 40
8.0
 40
9.0
 40
9.0
 40
9.0
 40
10.0
 40
10.0
 40
10.0
 40
11.0
 40
11.0
 40
11.0
 40
12.0
 40
12.0
 40
12.0
 40
13.0
 40
13.0
 40
13.0
 40
14.0
 40
14.0
 40
14.0
 40
15.0
 40
15.0
 40
15.0
 40
16.0
 40
16.0
 40
16.0
 40
17.0
 40
17.0
 40
17.0
 40
18.0
 40
18.0
 40
18.0
 40
19.0
 40
19.0
 40
19.0
 40
20.0
 40
20.0
 40
20.0
 40
21.0
 40
21.0
 40
21.0
 40
22.0
 40
22.0
 40
22.0
 40
23.0
 40
23.0
 40
23.0
 40
24.0
 40
24.0
 40
24.0
 40
25.0
 40
25.0
 40
25.0
 40
26.0
 40
26.0
 40
26.0
 40
27.0
 40
27.0
 40
27.0
 40
28.0
 40
28.0
 40
28.0
 40
29.0
 40
29.0
 40
29.0
 40
30.0
 40
30.0
 40
30.0
 40
31.0
 40
31.0
 40
31.0
 40
32.0
 40
32.0
 40
32.0
 40
33.0
 40
33.0
 40
33.0
 40
33.0
 10
515.1695882161458
 20
737.6168199327257
 30
0.0
 10
514.9849310980902
 20
738.0440117730034
 30
0.0
 10
515.1378933376735
 20
738.5314927842882
 30
0.0
 10
515.4055772569444
 20
738.8853040907118
 30
0.0
 10
515.6284749348957
 20
739.1781372070312
 30
0.0
 10
515.6698160807291
 20
739.5254028320312
 30
0.0
 10
515.9281982421875
 20
739.7965318467881
 30
0.0
 10
516.0425754123263
 20
739.9240003797743
 30
0.0
 10
516.1576416015624
 20
740.0132283528645
 30
0.0
 10
516.2627170138888
 20
740.1599894205729
 30
0.0
 10
516.3168050130208
 20
740.2299248589409
 30
0.0
 10
516.3646918402777
 20
740.3129516601562
 30
0.0
 10
516.4187798394097
 20
740.3894327799478
 30
0.0
 10
516.6737169053819
 20
740.746344672309
 30
0.0
 10
516.9954888237846
 20
741.0329766167534
 30
0.0
 10
517.2314778645833
 20
741.4091810438367
 30
0.0
 10
517.3620469835068
 20
741.6193318684896
 30
0.0
 10
517.5721978081597
 20
741.7564466688367
 30
0.0
 10
517.6838189019097
 20
741.9824449327256
 30
0.0
 10
517.7761474609374
 20
742.1643459743923
 30
0.0
 10
517.830579969618
 20
742.3648505316839
 30
0.0
 10
517.9132622612847
 20
742.5433064778645
 30
0.0
 10
518.0055908203125
 20
742.7569023980034
 30
0.0
 10
518.1044650607638
 20
742.9766994900173
 30
0.0
 10
518.2701741536458
 20
743.1427530924478
 30
0.0
 10
518.5347574869792
 20
743.4038913302951
 30
0.0
 10
518.6336317274305
 20
743.2254353841145
 30
0.0
 10
518.8916693793402
 20
743.0531806098089
 30
0.0
 10
519.0763264973958
 20
742.9322577582465
 30
0.0
 10
519.2868218315972
 20
742.811334906684
 30
0.0
 10
519.4587320963541
 20
742.6707750108507
 30
0.0
 10
519.6151394314236
 20
742.5433064778645
 30
0.0
 10
519.7426079644097
 20
742.3648505316839
 30
0.0
 10
519.901771375868
 20
742.2311808268229
 30
0.0
 10
520.1026204427083
 20
742.0720174153645
 30
0.0
 10
520.2841769748263
 20
741.9507500542534
 30
0.0
 10
520.4498860677082
 20
741.7433553059896
 30
0.0
 10
520.6124945746527
 20
741.5490519205729
 30
0.0
 10
520.7685574001736
 20
741.3643948025173
 30
0.0
 10
520.9694064670139
 20
741.2017862955729
 30
0.0
 10
521.1351155598958
 20
741.0646714952256
 30
0.0
 10
521.1540635850694
 20
740.9692423502604
 30
0.0
 10
521.224343532986
 20
740.7718383789062
 30
0.0
 10
521.4027994791667
 20
740.2681654188367
 30
0.0
 10
522.078382703993
 20
740.1152031792534
 30
0.0
 10
522.4704345703125
 20
739.8189249674479
 30
0.0
 10
522.6519911024305
 20
739.6818101671006
 30
0.0
 10
522.7601671006944
 20
739.4461656358507
 30
0.0
 10
522.9548149956597
 20
739.3376451280382
 30
0.0
 10
523.1587646484375
 20
739.2167222764756
 30
0.0
 10
523.3689154730903
 20
739.2611640082465
 30
0.0
 10
523.518777126736
 20
739.0382663302951
 30
0.0
 10
523.6238525390625
 20
738.8787584092881
 30
0.0
 10
523.6080050998263
 20
738.8022772894965
 30
0.0
 10
523.5952582465277
 20
738.6172756618923
 30
0.0
 10
523.579066297743
 20
738.3051500108506
 30
0.0
 10
523.6555474175346
 20
737.9799329969618
 30
0.0
 10
523.5921576605903
 20
737.6740085177951
 30
0.0
 10
523.572865125868
 20
737.5627319335937
 30
0.0
 10
523.5346245659722
 20
737.4700588650173
 30
0.0
 10
523.4901828342014
 20
737.3680840386284
 30
0.0
 10
523.4071560329861
 20
737.1706800672742
 30
0.0
 10
523.39130859375
 20
737.0018703884548
 30
0.0
 10
523.3561686197917
 20
736.7882744683159
 30
0.0
 10
523.3179280598957
 20
736.5653767903646
 30
0.0
 10
523.2063069661458
 20
736.4027682834201
 30
0.0
 10
523.1108778211805
 20
736.2019192165798
 30
0.0
 10
523.0089029947916
 20
735.997969563802
 30
0.0
 10
522.9131293402777
 20
735.7874742296007
 30
0.0
 10
522.8273464626735
 20
735.5835245768228
 30
0.0
 10
522.7122802734375
 20
735.309639485677
 30
0.0
 10
522.6709391276041
 20
735.0037150065103
 30
0.0
 10
522.5562174479167
 20
734.7263848198784
 30
0.0
 10
522.5021294487847
 20
734.5958157009547
 30
0.0
 10
522.431849500868
 20
734.4046129014756
 30
0.0
 10
522.307826063368
 20
734.3250311957464
 30
0.0
 10
522.1707112630207
 20
734.2323581271701
 30
0.0
 10
522.0463433159722
 20
734.3026380750867
 30
0.0
 10
521.8933810763889
 20
734.3026380750867
 30
0.0
 10
521.3866075303819
 20
734.3026380750867
 30
0.0
 10
520.9917995876735
 20
734.6120076497396
 30
0.0
 10
520.5170654296875
 20
734.7649698893229
 30
0.0
 10
520.0581787109375
 20
734.9082858615451
 30
0.0
 10
519.5737982855902
 20
735.0006144205729
 30
0.0
 10
519.1114664713541
 20
735.1566772460936
 30
0.0
 10
518.7958957248263
 20
735.2586520724826
 30
0.0
 10
518.4582763671874
 20
735.252106391059
 30
0.0
 10
518.1585530598958
 20
735.3671725802951
 30
0.0
 10
517.9005154079861
 20
735.4626017252604
 30
0.0
 10
517.6042371961805
 20
735.5487291124132
 30
0.0
 10
517.3524007161458
 20
735.6792982313367
 30
0.0
 10
516.7818929036458
 20
735.9790215386284
 30
0.0
 10
516.3963867187499
 20
736.4758043077256
 30
0.0
 10
515.883412000868
 20
736.8458075629339
 30
0.0
 10
515.7400960286458
 20
736.9477823893228
 30
0.0
 10
515.653968641493
 20
737.1069458007812
 30
0.0
 10
515.5233995225694
 20
737.2216674804687
 30
0.0
 10
515.3673366970486
 20
737.3556816948784
 30
0.0
 10
515.2526150173611
 20
737.4190714518229
 30
0.0
 10
515.1695882161458
 20
737.6168199327257
 30
0.0
  0
SPLINE
  5
11B
330
A
100
AcDbEntity
  8
LAYER_1
 62
     7
100
AcDbSpline
210
0.0
220
0.0
230
1.0
 70
    11
 71
     3
 72
    14
 73
    10
 74
     0
 42
0.000000001
 43
0.00000001
 40
0.0
 40
0.0
 40
0.0
 40
0.0
 40
1.0
 40
1.0
 40
1.0
 40
2.0
 40
2.0
 40
2.0
 40
3.0
 40
3.0
 40
3.0
 40
3.0
 10
493.7459174262152
 20
765.6595526801215
 30
0.0
 10
493.5640163845486
 20
765.3663750542534
 30
0.0
 10
494.0611436631944
 20
765.321588812934
 30
0.0
 10
494.2364990234374
 20
765.3281344943575
 30
0.0
 10
494.5072835286458
 20
765.33743625217
 30
0.0
 10
494.5679172092014
 20
765.6340589735242
 30
0.0
 10
494.297132703993
 20
765.7425794813367
 30
0.0
 10
494.1407253689235
 20
765.7997680664062
 30
0.0
 10
493.844447157118
 20
765.8190606011284
 30
0.0
 10
493.7459174262152
 20
765.6595526801215
 30
0.0
  0
SPLINE
  5
11A
330
A
100
AcDbEntity
  8
LAYER_1
 62
     7
100
AcDbSpline
210
0.0
220
0.0
230
1.0
 70
    11
 71
     3
 72
    62
 73
    58
 74
     0
 42
0.000000001
 43
0.00000001
 40
0.0
 40
0.0
 40
0.0
 40
0.0
 40
1.0
 40
1.0
 40
1.0
 40
2.0
 40
2.0
 40
2.0
 40
3.0
 40
3.0
 40
3.0
 40
4.0
 40
4.0
 40
4.0
 40
5.0
 40
5.0
 40
5.0
 40
6.0
 40
6.0
 40
6.0
 40
7.0
 40
7.0
 40
7.0
 40
8.0
 40
8.0
 40
8.0
 40
9.0
 40
9.0
 40
9.0
 40
10.0
 40
10.0
 40
10.0
 40
11.0
 40
11.0
 40
11.0
 40
12.0
 40
12.0
 40
12.0
 40
13.0
 40
13.0
 40
13.0
 40
14.0
 40
14.0
 40
14.0
 40
15.0
 40
15.0
 40
15.0
 40
16.0
 40
16.0
 40
16.0
 40
17.0
 40
17.0
 40
17.0
 40
18.0
 40
18.0
 40
18.0
 40
19.0
 40
19.0
 40
19.0
 40
19.0
 10
491.9038248697916
 20
767.0679077148437
 30
0.0
 10
491.9737603081597
 20
767.1285413953992
 30
0.0
 10
492.0471408420138
 20
767.1826293945312
 30
0.0
 10
492.1332682291666
 20
767.220869954427
 30
0.0
 10
492.3627115885416
 20
767.3417928059895
 30
0.0
 10
492.6496880425347
 20
767.3672865125867
 30
0.0
 10
492.6496880425347
 20
767.6863023546006
 30
0.0
 10
492.6496880425347
 20
767.9698337131076
 30
0.0
 10
492.4040527343749
 20
768.1417439778645
 30
0.0
 10
492.238343641493
 20
768.3360473632812
 30
0.0
 10
491.9324191623264
 20
768.6964043511284
 30
0.0
 10
491.5820529513888
 20
769.0181762695312
 30
0.0
 10
491.2537353515625
 20
769.3654418945312
 30
0.0
 10
491.084925672743
 20
769.5376966688367
 30
0.0
 10
490.9416097005208
 20
769.7382012261284
 30
0.0
 10
490.737660047743
 20
769.8722154405381
 30
0.0
 10
490.5939995659722
 20
769.9676445855034
 30
0.0
 10
490.4062418619791
 20
769.974190266927
 30
0.0
 10
490.2436333550347
 20
770.0062296549479
 30
0.0
 10
490.0458848741319
 20
770.0441257052951
 30
0.0
 10
489.9025689019097
 20
770.0761650933159
 30
0.0
 10
489.7337592230903
 20
769.9676445855034
 30
0.0
 10
489.5649495442708
 20
769.8656697591146
 30
0.0
 10
489.4436821831597
 20
769.6937594943576
 30
0.0
 10
489.2938205295138
 20
769.5662909613715
 30
0.0
 10
489.1694525824652
 20
769.457770453559
 30
0.0
 10
489.0485297309027
 20
769.3113538953992
 30
0.0
 10
488.908314344618
 20
769.2317721896701
 30
0.0
 10
488.7298583984374
 20
769.1328979492187
 30
0.0
 10
488.5386555989583
 20
769.0691636827256
 30
0.0
 10
488.3698459201389
 20
768.9478963216145
 30
0.0
 10
488.0194797092013
 20
768.6964043511284
 30
0.0
 10
487.9746934678819
 20
768.5210489908853
 30
0.0
 10
488.1469482421875
 20
768.1355428059895
 30
0.0
 10
488.2358317057291
 20
767.9346937391492
 30
0.0
 10
488.3698459201389
 20
767.7627834743923
 30
0.0
 10
488.4621744791666
 20
767.5684800889757
 30
0.0
 10
488.5641493055555
 20
767.3548841688367
 30
0.0
 10
488.6120361328125
 20
767.1188951280382
 30
0.0
 10
488.7522515190972
 20
766.9149454752603
 30
0.0
 10
489.0164903428819
 20
766.5259941948784
 30
0.0
 10
489.2876193576388
 20
766.1408325195312
 30
0.0
 10
489.6159369574652
 20
765.7935668945312
 30
0.0
 10
489.7974934895833
 20
765.5989189995659
 30
0.0
 10
490.0748236762153
 20
765.2706013997395
 30
0.0
 10
490.3232150607639
 20
765.1624254014756
 30
0.0
 10
490.3711018880208
 20
765.2389065212673
 30
0.0
 10
490.3614556206597
 20
765.3184882269965
 30
0.0
 10
490.4062418619791
 20
765.4046156141492
 30
0.0
 10
490.4792778862847
 20
765.544831000434
 30
0.0
 10
490.6356852213541
 20
765.6595526801215
 30
0.0
 10
490.7245686848958
 20
765.7997680664062
 30
0.0
 10
490.9319634331597
 20
766.1184393988715
 30
0.0
 10
491.2185953776041
 20
766.3923244900172
 30
0.0
 10
491.4990261501736
 20
766.6534627278645
 30
0.0
 10
491.6392415364583
 20
766.7809312608506
 30
0.0
 10
491.7574083116319
 20
766.9404391818575
 30
0.0
 10
491.9038248697916
 20
767.0679077148437
 30
0.0
  0
SPLINE
  5
119
330
A
100
AcDbEntity
  8
LAYER_1
  6
AI9-LType3
 62
     7
100
AcDbSpline
210
0.0
220
0.0
230
1.0
 70
    11
 71
     3
 72
    20
 73
    16
 74
     0
 42
0.000000001
 43
0.00000001
 40
0.0
 40
0.0
 40
0.0
 40
0.0
 40
1.0
 40
1.0
 40
1.0
 40
2.0
 40
2.0
 40
2.0
 40
3.0
 40
3.0
 40
3.0
 40
4.0
 40
4.0
 40
4.0
 40
5.0
 40
5.0
 40
5.0
 40
5.0
 10
443.9925374348958
 20
719.465645345052
 30
0.0
 10
443.906410047743
 20
719.3702162000867
 30
0.0
 10
443.84267578125
 20
719.1979614257812
 30
0.0
 10
443.906410047743
 20
719.07669406467
 30
0.0
 10
443.9890923394097
 20
718.9140855577257
 30
0.0
 10
444.2057888454861
 20
718.936823187934
 30
0.0
 10
444.3525499131944
 20
718.9878106011284
 30
0.0
 10
444.4448784722222
 20
719.0160603841146
 30
0.0
 10
444.6233344184027
 20
719.0098592122395
 30
0.0
 10
444.6998155381944
 20
719.0704928927951
 30
0.0
 10
444.8176378038194
 20
719.1597208658853
 30
0.0
 10
444.648828125
 20
719.3285305447048
 30
0.0
 10
444.5850938585069
 20
719.401911078559
 30
0.0
 10
444.419384765625
 20
719.6024156358507
 30
0.0
 10
444.1802951388888
 20
719.695088704427
 30
0.0
 10
443.9925374348958
 20
719.465645345052
 30
0.0
  0
SPLINE
  5
118
330
A
100
AcDbEntity
  8
LAYER_1
  6
AI9-LType3
 62
     7
100
AcDbSpline
210
0.0
220
0.0
230
1.0
 70
     8
 71
     3
 72
     8
 73
     4
 74
     0
 42
0.000000001
 43
0.00000001
 40
0.0
 40
0.0
 40
0.0
 40
0.0
 40
1.0
 40
1.0
 40
1.0
 40
1.0
 10
397.0145263671874
 20
745.6152981228298
 30
0.0
 10
423.814613172743
 20
730.9567613389756
 30
0.0
 10
398.3911865234375
 20
744.8666788736979
 30
0.0
 10
422.437953016493
 20
731.7088256835937
 30
0.0
  0
SPLINE
  5
117
330
A
100
AcDbEntity
  8
LAYER_1
  6
AI9-LType3
 62
     7
100
AcDbSpline
210
0.0
220
0.0
230
1.0
 70
     8
 71
     3
 72
    11
 73
     7
 74
     0
 42
0.000000001
 43
0.00000001
 40
0.0
 40
0.0
 40
0.0
 40
0.0
 40
1.0
 40
1.0
 40
1.0
 40
2.0
 40
2.0
 40
2.0
 40
2.0
 10
413.2092312282986
 20
782.8226738823784
 30
0.0
 10
413.3907877604166
 20
783.8265747070312
 30
0.0
 10
413.1806369357639
 20
784.9007554796007
 30
0.0
 10
413.4579671223958
 20
785.9012112087673
 30
0.0
 10
413.6839653862847
 20
786.7170098198784
 30
0.0
 10
414.4901177300347
 20
787.8835191514756
 30
0.0
 10
415.3507025824653
 20
788.064731174045
 30
0.0
  0
SPLINE
  5
116
330
A
100
AcDbEntity
  8
LAYER_1
  6
AI9-LType3
 62
     7
100
AcDbSpline
210
0.0
220
0.0
230
1.0
 70
     8
 71
     3
 72
    41
 73
    37
 74
     0
 42
0.000000001
 43
0.00000001
 40
0.0
 40
0.0
 40
0.0
 40
0.0
 40
1.0
 40
1.0
 40
1.0
 40
2.0
 40
2.0
 40
2.0
 40
3.0
 40
3.0
 40
3.0
 40
4.0
 40
4.0
 40
4.0
 40
5.0
 40
5.0
 40
5.0
 40
6.0
 40
6.0
 40
6.0
 40
7.0
 40
7.0
 40
7.0
 40
8.0
 40
8.0
 40
8.0
 40
9.0
 40
9.0
 40
9.0
 40
10.0
 40
10.0
 40
10.0
 40
11.0
 40
11.0
 40
11.0
 40
12.0
 40
12.0
 40
12.0
 40
12.0
 10
414.6496256510416
 20
787.7333129882812
 30
0.0
 10
416.8100450303819
 20
789.3173678927951
 30
0.0
 10
419.7132269965277
 20
789.7218221028645
 30
0.0
 10
422.3104844835069
 20
790.0821790907117
 30
0.0
 10
423.5341824001736
 20
790.2509887695312
 30
0.0
 10
424.8212700737847
 20
790.2985310872396
 30
0.0
 10
425.9939805772569
 20
789.8589369032118
 30
0.0
 10
427.615931532118
 20
789.2532891167534
 30
0.0
 10
428.5626437717013
 20
788.3134670681422
 30
0.0
 10
429.0597710503472
 20
786.6625773111979
 30
0.0
 10
429.6395806206597
 20
784.7347018771701
 30
0.0
 10
429.722607421875
 20
782.7048516167534
 30
0.0
 10
429.9327582465277
 20
780.706696234809
 30
0.0
 10
430.0667724609374
 20
779.4609497070312
 30
0.0
 10
430.2004421657986
 20
778.2310506184895
 30
0.0
 10
429.9551513671875
 20
776.9849595811631
 30
0.0
 10
429.6905680338541
 20
775.66858859592
 30
0.0
 10
428.6646185980902
 20
774.1679050021701
 30
0.0
 10
427.4884629991319
 20
773.4988674587673
 30
0.0
 10
426.0291205512152
 20
772.6637763129339
 30
0.0
 10
424.5122450086805
 20
772.5170152452256
 30
0.0
 10
422.8744466145833
 20
772.268623860677
 30
0.0
 10
421.4815945095486
 20
772.0615736219618
 30
0.0
 10
419.9809109157986
 20
772.1731947157117
 30
0.0
 10
418.5756564670139
 20
772.1921427408854
 30
0.0
 10
417.3423122829861
 20
772.211090766059
 30
0.0
 10
416.2970703125
 20
772.6892700195311
 30
0.0
 10
415.6852213541666
 20
773.8047919379339
 30
0.0
 10
415.0509792751736
 20
774.964411078559
 30
0.0
 10
414.8439290364583
 20
776.2966295030382
 30
0.0
 10
414.4773708767361
 20
777.552022298177
 30
0.0
 10
414.0505235460069
 20
779.0241115993923
 30
0.0
 10
413.6681179470486
 20
780.4934448242187
 30
0.0
 10
413.3814860026041
 20
782.0006740993923
 30
0.0
 10
413.3015597873264
 20
782.4054728190104
 30
0.0
 10
413.3973334418403
 20
782.9694349500867
 30
0.0
 10
413.1389512803819
 20
783.278460015191
 30
0.0
  0
SPLINE
  5
115
330
A
100
AcDbEntity
  8
LAYER_1
  6
AI9-LType3
 62
     7
100
AcDbSpline
210
0.0
220
0.0
230
1.0
 70
     8
 71
     3
 72
    41
 73
    37
 74
     0
 42
0.000000001
 43
0.00000001
 40
0.0
 40
0.0
 40
0.0
 40
0.0
 40
1.0
 40
1.0
 40
1.0
 40
2.0
 40
2.0
 40
2.0
 40
3.0
 40
3.0
 40
3.0
 40
4.0
 40
4.0
 40
4.0
 40
5.0
 40
5.0
 40
5.0
 40
6.0
 40
6.0
 40
6.0
 40
7.0
 40
7.0
 40
7.0
 40
8.0
 40
8.0
 40
8.0
 40
9.0
 40
9.0
 40
9.0
 40
10.0
 40
10.0
 40
10.0
 40
11.0
 40
11.0
 40
11.0
 40
12.0
 40
12.0
 40
12.0
 40
12.0
 10
430.1239610460069
 20
777.61575656467
 30
0.0
 10
430.8856716579861
 20
775.9555650499132
 30
0.0
 10
432.322620985243
 20
774.7349677191839
 30
0.0
 10
433.6069525824652
 20
773.4826755099825
 30
0.0
 10
434.2508409288194
 20
772.8642808702256
 30
0.0
 10
434.7638156467013
 20
772.1222073025173
 30
0.0
 10
435.4204508463541
 20
771.5200046115451
 30
0.0
 10
436.6723985460069
 20
770.3917358398437
 30
0.0
 10
437.9377821180555
 20
769.3048082139757
 30
0.0
 10
439.3430365668402
 20
768.3808336046006
 30
0.0
 10
439.8146701388889
 20
768.0687079535589
 30
0.0
 10
440.1619357638888
 20
767.6828572591145
 30
0.0
 10
440.6559624565972
 20
767.4120727539062
 30
0.0
 10
442.0929117838541
 20
766.6279690212673
 30
0.0
 10
443.4092827690972
 20
765.6406046549479
 30
0.0
 10
444.8496771918402
 20
764.862702094184
 30
0.0
 10
446.0096408420138
 20
764.2384507921006
 30
0.0
 10
447.1279188368055
 20
763.890840657552
 30
0.0
 10
448.3709092881944
 20
763.4670939127603
 30
0.0
 10
449.5880615234374
 20
763.0495483398437
 30
0.0
 10
450.9040879991319
 20
762.8135592990451
 30
0.0
 10
452.1853190104166
 20
762.7150295681423
 30
0.0
 10
453.3769775390625
 20
762.6130547417534
 30
0.0
 10
454.5624348958333
 20
762.4029039171006
 30
0.0
 10
455.725843641493
 20
762.1348754882812
 30
0.0
 10
457.4208306206597
 20
761.7462687174478
 30
0.0
 10
459.1099609375
 20
761.2109008789062
 30
0.0
 10
460.6554307725694
 20
760.4267971462673
 30
0.0
 10
461.9077229817708
 20
759.7960001627604
 30
0.0
 10
463.1824083116319
 20
759.1586574978298
 30
0.0
 10
464.345472547743
 20
758.3938462999131
 30
0.0
 10
465.0627414279513
 20
757.9160115559895
 30
0.0
 10
465.827552625868
 20
757.3455037434895
 30
0.0
 10
466.5923638237847
 20
756.9661987304687
 30
0.0
 10
467.2965413411458
 20
756.6123874240451
 30
0.0
 10
468.1088948567708
 20
756.2778686523437
 30
0.0
 10
468.357630750868
 20
755.436920844184
 30
0.0
  0
SPLINE
  5
114
330
A
100
AcDbEntity
  8
LAYER_1
  6
AI9-LType3
 62
     7
100
AcDbSpline
210
0.0
220
0.0
230
1.0
 70
     8
 71
     3
 72
    26
 73
    22
 74
     0
 42
0.000000001
 43
0.00000001
 40
0.0
 40
0.0
 40
0.0
 40
0.0
 40
1.0
 40
1.0
 40
1.0
 40
2.0
 40
2.0
 40
2.0
 40
3.0
 40
3.0
 40
3.0
 40
4.0
 40
4.0
 40
4.0
 40
5.0
 40
5.0
 40
5.0
 40
6.0
 40
6.0
 40
6.0
 40
7.0
 40
7.0
 40
7.0
 40
7.0
 10
468.3000976562499
 20
755.5388956705729
 30
0.0
 10
469.163783094618
 20
754.9428941514756
 30
0.0
 10
470.2631130642361
 20
754.5701348198784
 30
0.0
 10
471.2511664496527
 20
754.1684366861979
 30
0.0
 10
472.7869900173611
 20
753.5372951931423
 30
0.0
 10
474.2049913194444
 20
752.7790296766492
 30
0.0
 10
475.7887017144097
 20
752.2626098632812
 30
0.0
 10
477.4078965928819
 20
751.7272420247396
 30
0.0
 10
478.8513916015625
 20
750.8160142686631
 30
0.0
 10
480.460595703125
 20
750.2486070421006
 30
0.0
 10
481.4834445529514
 20
749.882393391927
 30
0.0
 10
482.4363579644097
 20
749.4073147243923
 30
0.0
 10
483.4750542534722
 20
749.0793416341145
 30
0.0
 10
484.548890516493
 20
748.7444783528645
 30
0.0
 10
485.6230712890625
 20
748.4006578233506
 30
0.0
 10
486.6552218967013
 20
747.9448716905381
 30
0.0
 10
487.407630750868
 20
747.6134535047743
 30
0.0
 10
488.0160346137152
 20
747.1449205186631
 30
0.0
 10
488.6981635199652
 20
746.6987806532118
 30
0.0
 10
489.2748725043402
 20
746.3225762261284
 30
0.0
 10
490.0269368489583
 20
746.0231974283854
 30
0.0
 10
490.3166693793402
 20
745.3221204969617
 30
0.0
  0
SPLINE
  5
112
330
A
100
AcDbEntity
  8
LAYER_1
  6
AI9-LType2
 62
     7
100
AcDbSpline
210
0.0
220
0.0
230
1.0
 70
    11
 71
     3
 72
    23
 73
    19
 74
     0
 42
0.000000001
 43
0.00000001
 40
0.0
 40
0.0
 40
0.0
 40
0.0
 40
1.0
 40
1.0
 40
1.0
 40
2.0
 40
2.0
 40
2.0
 40
3.0
 40
3.0
 40
3.0
 40
4.0
 40
4.0
 40
4.0
 40
5.0
 40
5.0
 40
5.0
 40
6.0
 40
6.0
 40
6.0
 40
6.0
 10
467.1339328342013
 20
779.2253051757812
 30
0.0
 10
466.751527235243
 20
776.7045288085936
 30
0.0
 10
465.4003607855902
 20
774.4483357747395
 30
0.0
 10
462.9274712456597
 20
773.5622572157117
 30
0.0
 10
461.821595594618
 20
773.1609035915798
 30
0.0
 10
460.0787217881944
 20
773.3776000976562
 30
0.0
 10
458.9569986979166
 20
773.645284016927
 30
0.0
 10
454.8780056423611
 20
774.6267917209201
 30
0.0
 10
453.7628282335069
 20
781.3571302625867
 30
0.0
 10
455.4867540147569
 20
784.5372979058159
 30
0.0
 10
456.190931532118
 20
785.8374769422742
 30
0.0
 10
457.7746419270833
 20
787.0994154188368
 30
0.0
 10
459.0972140842014
 20
787.6857706705729
 30
0.0
 10
460.5978976779513
 20
788.3517076280381
 30
0.0
 10
462.675634765625
 20
788.8488349066839
 30
0.0
 10
464.1542697482639
 20
787.8449340820312
 30
0.0
 10
466.7546278211805
 20
786.0827677408854
 30
0.0
 10
467.5704264322916
 20
782.1377888997395
 30
0.0
 10
467.1339328342013
 20
779.2253051757812
 30
0.0
  0
SPLINE
  5
110
330
A
100
AcDbEntity
  8
LAYER_1
 62
     7
100
AcDbSpline
210
0.0
220
0.0
230
1.0
 70
     8
 71
     3
 72
     8
 73
     4
 74
     0
 42
0.000000001
 43
0.00000001
 40
0.0
 40
0.0
 40
0.0
 40
0.0
 40
1.0
 40
1.0
 40
1.0
 40
1.0
 10
468.9057454427083
 20
783.3993828667534
 30
0.0
 10
468.2429090711805
 20
723.4233710394965
 30
0.0
 10
468.2429090711805
 20
723.4233710394965
 30
0.0
 10
468.2429090711805
 20
723.4233710394965
 30
0.0
  0
SPLINE
  5
10F
330
A
100
AcDbEntity
  8
LAYER_1
 62
     7
100
AcDbSpline
210
0.0
220
0.0
230
1.0
 70
     8
 71
     3
 72
    14
 73
    10
 74
     0
 42
0.000000001
 43
0.00000001
 40
0.0
 40
0.0
 40
0.0
 40
0.0
 40
1.0
 40
1.0
 40
1.0
 40
2.0
 40
2.0
 40
2.0
 40
3.0
 40
3.0
 40
3.0
 40
3.0
 10
476.7033745659722
 20
781.4143188476562
 30
0.0
 10
476.4229437934027
 20
752.5306382921007
 30
0.0
 10
476.5920979817708
 20
763.5563218858506
 30
0.0
 10
476.5376654730902
 20
752.4252183702256
 30
0.0
 10
476.4835774739583
 20
741.2941148546006
 30
0.0
 10
476.4835774739583
 20
741.2941148546006
 30
0.0
 10
476.4835774739583
 20
741.2941148546006
 30
0.0
 10
476.5824517144097
 20
723.5539401584201
 30
0.0
 10
476.5790066189236
 20
723.66556125217
 30
0.0
 10
476.5790066189236
 20
723.66556125217
 30
0.0
  0
SPLINE
  5
10E
330
A
100
AcDbEntity
  8
LAYER_1
 62
     7
100
AcDbSpline
210
0.0
220
0.0
230
1.0
 70
     8
 71
     3
 72
     8
 73
     4
 74
     0
 42
0.000000001
 43
0.00000001
 40
0.0
 40
0.0
 40
0.0
 40
0.0
 40
1.0
 40
1.0
 40
1.0
 40
1.0
 10
476.5824517144097
 20
752.6450154622395
 30
0.0
 10
483.1405354817708
 20
752.6863566080729
 30
0.0
 10
483.1405354817708
 20
752.6863566080729
 30
0.0
 10
483.1405354817708
 20
752.6863566080729
 30
0.0
  0
SPLINE
  5
10D
330
A
100
AcDbEntity
  8
LAYER_1
 62
     7
100
AcDbSpline
210
0.0
220
0.0
230
1.0
 70
     8
 71
     3
 72
     8
 73
     4
 74
     0
 42
0.000000001
 43
0.00000001
 40
0.0
 40
0.0
 40
0.0
 40
0.0
 40
1.0
 40
1.0
 40
1.0
 40
1.0
 10
483.1405354817708
 20
752.6863566080729
 30
0.0
 10
482.8759521484375
 20
723.314850531684
 30
0.0
 10
482.9238389756944
 20
723.4743584526909
 30
0.0
 10
482.9238389756944
 20
723.4743584526909
 30
0.0
  0
INSERT
  5
109
330
A
100
AcDbEntity
  8
LAYER_1
 62
     7
100
AcDbBlockReference
  2
AI9-BLK41
 10
421.299866
 20
753.628504
 30
0.0
  0
SPLINE
  5
107
330
A
100
AcDbEntity
  8
LAYER_1
 62
     7
100
AcDbSpline
210
0.0
220
0.0
230
1.0
 70
     8
 71
     3
 72
   179
 73
   175
 74
     0
 42
0.000000001
 43
0.00000001
 40
0.0
 40
0.0
 40
0.0
 40
0.0
 40
1.0
 40
1.0
 40
1.0
 40
2.0
 40
2.0
 40
2.0
 40
3.0
 40
3.0
 40
3.0
 40
4.0
 40
4.0
 40
4.0
 40
5.0
 40
5.0
 40
5.0
 40
6.0
 40
6.0
 40
6.0
 40
7.0
 40
7.0
 40
7.0
 40
8.0
 40
8.0
 40
8.0
 40
9.0
 40
9.0
 40
9.0
 40
10.0
 40
10.0
 40
10.0
 40
11.0
 40
11.0
 40
11.0
 40
12.0
 40
12.0
 40
12.0
 40
13.0
 40
13.0
 40
13.0
 40
14.0
 40
14.0
 40
14.0
 40
15.0
 40
15.0
 40
15.0
 40
16.0
 40
16.0
 40
16.0
 40
17.0
 40
17.0
 40
17.0
 40
18.0
 40
18.0
 40
18.0
 40
19.0
 40
19.0
 40
19.0
 40
20.0
 40
20.0
 40
20.0
 40
21.0
 40
21.0
 40
21.0
 40
22.0
 40
22.0
 40
22.0
 40
23.0
 40
23.0
 40
23.0
 40
24.0
 40
24.0
 40
24.0
 40
25.0
 40
25.0
 40
25.0
 40
26.0
 40
26.0
 40
26.0
 40
27.0
 40
27.0
 40
27.0
 40
28.0
 40
28.0
 40
28.0
 40
29.0
 40
29.0
 40
29.0
 40
30.0
 40
30.0
 40
30.0
 40
31.0
 40
31.0
 40
31.0
 40
32.0
 40
32.0
 40
32.0
 40
33.0
 40
33.0
 40
33.0
 40
34.0
 40
34.0
 40
34.0
 40
35.0
 40
35.0
 40
35.0
 40
36.0
 40
36.0
 40
36.0
 40
37.0
 40
37.0
 40
37.0
 40
38.0
 40
38.0
 40
38.0
 40
39.0
 40
39.0
 40
39.0
 40
40.0
 40
40.0
 40
40.0
 40
41.0
 40
41.0
 40
41.0
 40
42.0
 40
42.0
 40
42.0
 40
43.0
 40
43.0
 40
43.0
 40
44.0
 40
44.0
 40
44.0
 40
45.0
 40
45.0
 40
45.0
 40
46.0
 40
46.0
 40
46.0
 40
47.0
 40
47.0
 40
47.0
 40
48.0
 40
48.0
 40
48.0
 40
49.0
 40
49.0
 40
49.0
 40
50.0
 40
50.0
 40
50.0
 40
51.0
 40
51.0
 40
51.0
 40
52.0
 40
52.0
 40
52.0
 40
53.0
 40
53.0
 40
53.0
 40
54.0
 40
54.0
 40
54.0
 40
55.0
 40
55.0
 40
55.0
 40
56.0
 40
56.0
 40
56.0
 40
57.0
 40
57.0
 40
57.0
 40
58.0
 40
58.0
 40
58.0
 40
58.0
 10
401.4187364366319
 20
819.3420640733506
 30
0.0
 10
401.1923936631944
 20
818.7495076497395
 30
0.0
 10
400.9309109157986
 20
818.070479329427
 30
0.0
 10
400.6794189453125
 20
817.4493286132812
 30
0.0
 10
400.5388590494791
 20
817.1048190646701
 30
0.0
 10
400.4434299045138
 20
816.735504828559
 30
0.0
 10
400.2970133463541
 20
816.3909952799478
 30
0.0
 10
400.1884928385416
 20
816.1426038953992
 30
0.0
 10
400.0992648654513
 20
815.8621731228297
 30
0.0
 10
399.9655951605902
 20
815.6327297634548
 30
0.0
 10
399.7805935329861
 20
815.3140584309895
 30
0.0
 10
399.5766438802083
 20
815.0463745117187
 30
0.0
 10
399.481214735243
 20
814.6863620334201
 30
0.0
 10
399.3630479600694
 20
814.2305759006076
 30
0.0
 10
399.2069851345486
 20
813.7844360351562
 30
0.0
 10
399.0412760416666
 20
813.3448418511284
 30
0.0
 10
398.9010606553819
 20
812.9748385959201
 30
0.0
 10
398.8149332682291
 20
812.5924329969617
 30
0.0
 10
398.6333767361111
 20
812.2486124674479
 30
0.0
 10
398.4614664713541
 20
811.9013468424479
 30
0.0
 10
398.3243516710069
 20
811.5409898546006
 30
0.0
 10
398.1682888454861
 20
811.1902791341145
 30
0.0
 10
398.110755750868
 20
811.0566094292534
 30
0.0
 10
398.0246283637152
 20
810.9229397243923
 30
0.0
 10
397.9612386067708
 20
810.7858249240451
 30
0.0
 10
397.8592637803819
 20
810.5784301757811
 30
0.0
 10
397.8461724175347
 20
810.3427856445312
 30
0.0
 10
397.757288953993
 20
810.1326348198784
 30
0.0
 10
397.5977810329861
 20
809.7502292209201
 30
0.0
 10
397.3269965277777
 20
809.393317328559
 30
0.0
 10
397.1388943142361
 20
809.0236585828992
 30
0.0
 10
396.8967041015625
 20
808.5423787434895
 30
0.0
 10
396.5270453559027
 20
808.0869371202256
 30
0.0
 10
396.3327419704861
 20
807.5894653320312
 30
0.0
 10
396.2655626085069
 20
807.4013631184895
 30
0.0
 10
396.1890814887153
 20
807.2518459743923
 30
0.0
 10
396.09365234375
 20
807.0830362955728
 30
0.0
 10
395.7208930121527
 20
806.3978068033854
 30
0.0
 10
395.462855360243
 20
805.6650349934895
 30
0.0
 10
395.1503851996528
 20
804.9574123806423
 30
0.0
 10
394.8413601345486
 20
804.2563354492187
 30
0.0
 10
394.433460828993
 20
803.6286390516492
 30
0.0
 10
394.0892957899305
 20
802.9561564127604
 30
0.0
 10
393.8502061631944
 20
802.4845228407117
 30
0.0
 10
393.6844970703125
 20
801.9746487087673
 30
0.0
 10
393.4836480034722
 20
801.49026828342
 30
0.0
 10
393.292445203993
 20
801.0441284179686
 30
0.0
 10
392.9865207248263
 20
800.668268500434
 30
0.0
 10
392.7794704861111
 20
800.2379760742186
 30
0.0
 10
392.5276340060764
 20
799.7250013563367
 30
0.0
 10
392.2344563802083
 20
799.2785169813367
 30
0.0
 10
392.0432535807291
 20
798.7431491427951
 30
0.0
 10
391.8682427300347
 20
798.2401652018228
 30
0.0
 10
391.5526719835069
 20
797.80677218967
 30
0.0
 10
391.3425211588541
 20
797.3127454969617
 30
0.0
 10
391.1130777994791
 20
796.7518839518228
 30
0.0
 10
390.9470241970486
 20
796.1686292860243
 30
0.0
 10
390.7051784939236
 20
795.6170694986978
 30
0.0
 10
390.5298231336805
 20
795.2126152886284
 30
0.0
 10
390.3896077473958
 20
794.7633748372396
 30
0.0
 10
390.2621392144097
 20
794.3458292643228
 30
0.0
 10
389.9241753472222
 20
793.262346733941
 30
0.0
 10
389.3347195095486
 20
792.3256252712673
 30
0.0
 10
388.9554144965277
 20
791.2610907660589
 30
0.0
 10
388.7931504991319
 20
790.8022040473089
 30
0.0
 10
388.6622368706597
 20
790.3371161566839
 30
0.0
 10
388.4806803385416
 20
789.8813300238714
 30
0.0
 10
388.3118706597222
 20
789.4479370117186
 30
0.0
 10
388.1620090060763
 20
788.9890502929687
 30
0.0
 10
388.0441867404514
 20
788.5394653320312
 30
0.0
 10
387.70966796875
 20
787.2716701931423
 30
0.0
 10
387.2411349826389
 20
786.0224785698784
 30
0.0
 10
386.9669053819444
 20
784.7412475585937
 30
0.0
 10
386.861829969618
 20
784.2568671332465
 30
0.0
 10
386.8363362630208
 20
783.7404473198784
 30
0.0
 10
386.6771728515625
 20
783.2719143337673
 30
0.0
 10
386.5304117838541
 20
782.8419664171006
 30
0.0
 10
386.4156901041666
 20
782.4244208441839
 30
0.0
 10
386.291322157118
 20
781.9813815646701
 30
0.0
 10
386.0873725043402
 20
781.2551554361978
 30
0.0
 10
385.8358805338542
 20
780.534785970052
 30
0.0
 10
385.6829182942708
 20
779.7889227973089
 30
0.0
 10
385.5396023220486
 20
779.0978366427951
 30
0.0
 10
385.3387532552083
 20
778.3805677625867
 30
0.0
 10
385.249525282118
 20
777.6825914171006
 30
0.0
 10
385.2240315755208
 20
777.4627943250867
 30
0.0
 10
385.1950927734375
 20
777.2333509657117
 30
0.0
 10
385.1730441623263
 20
777.0104532877604
 30
0.0
 10
385.0710693359375
 20
775.8346421983506
 30
0.0
 10
384.8002848307291
 20
774.6460842556423
 30
0.0
 10
384.443372938368
 20
773.5178154839409
 30
0.0
 10
384.2359781901041
 20
772.8484334309895
 30
0.0
 10
384.108509657118
 20
772.1601033528646
 30
0.0
 10
383.8694200303819
 20
771.5069132486979
 30
0.0
 10
383.643421766493
 20
770.8792168511284
 30
0.0
 10
383.4267252604166
 20
770.2546210394964
 30
0.0
 10
383.2289767795139
 20
769.6172783745659
 30
0.0
 10
383.1049533420139
 20
769.2317721896701
 30
0.0
 10
382.9805853949653
 20
768.8397203233507
 30
0.0
 10
382.8627631293402
 20
768.4573147243923
 30
0.0
 10
382.7160020616319
 20
767.9536417643228
 30
0.0
 10
382.4131781684027
 20
767.4248196072048
 30
0.0
 10
382.3559895833333
 20
766.9021986219617
 30
0.0
 10
382.3146484375
 20
766.5452867296007
 30
0.0
 10
382.3366970486111
 20
766.1787285698784
 30
0.0
 10
382.2347222222222
 20
765.8252617730034
 30
0.0
 10
382.1423936631944
 20
765.481096733941
 30
0.0
 10
382.0245713975694
 20
765.1241848415798
 30
0.0
 10
381.9129503038194
 20
764.7831203884548
 30
0.0
 10
381.8206217447917
 20
764.4899427625867
 30
0.0
 10
381.7885823567708
 20
764.1809176974825
 30
0.0
 10
381.7090006510416
 20
763.8842949761284
 30
0.0
 10
381.6070258246527
 20
763.5084350585937
 30
0.0
 10
381.6135715060764
 20
763.0912339952256
 30
0.0
 10
381.5463921440972
 20
762.7088283962673
 30
0.0
 10
381.4733561197916
 20
762.3133314344617
 30
0.0
 10
381.4826578776041
 20
761.879938422309
 30
0.0
 10
381.3775824652777
 20
761.4913316514757
 30
0.0
 10
381.28525390625
 20
761.1406209309895
 30
0.0
 10
381.1767333984375
 20
760.8092027452257
 30
0.0
 10
381.113343641493
 20
760.4460896809895
 30
0.0
 10
380.9982774522569
 20
759.7832533094618
 30
0.0
 10
380.896302625868
 20
759.1173163519965
 30
0.0
 10
380.8263671875
 20
758.4448337131075
 30
0.0
 10
380.7850260416666
 20
758.0338338216145
 30
0.0
 10
380.6923529730902
 20
757.6162882486979
 30
0.0
 10
380.5648844401042
 20
757.2400838216145
 30
0.0
 10
380.4949490017361
 20
757.0457804361979
 30
0.0
 10
380.5393907335069
 20
756.9407050238715
 30
0.0
 10
380.5524820963541
 20
756.7464016384548
 30
0.0
 10
380.5617838541666
 20
756.5648451063367
 30
0.0
 10
380.5045952690972
 20
756.3863891601562
 30
0.0
 10
380.4822021484375
 20
756.2044881184895
 30
0.0
 10
380.4026204427083
 20
755.5898830837673
 30
0.0
 10
380.3230387369791
 20
754.9714884440103
 30
0.0
 10
380.2527587890625
 20
754.3530938042534
 30
0.0
 10
380.1890245225694
 20
753.7605373806423
 30
0.0
 10
380.1411376953125
 20
753.1614352756076
 30
0.0
 10
380.0295166015625
 20
752.5719794379339
 30
0.0
 10
379.9371880425347
 20
752.0972452799479
 30
0.0
 10
379.7811252170139
 20
751.6032185872396
 30
0.0
 10
379.6887966579861
 20
751.1188381618923
 30
0.0
 10
379.5930230034722
 20
750.6186102973089
 30
0.0
 10
379.561328125
 20
750.1087361653645
 30
0.0
 10
379.4562527126736
 20
749.6147094726562
 30
0.0
 10
379.3253390842013
 20
749.0059611002604
 30
0.0
 10
379.1503282335069
 20
748.4130601671006
 30
0.0
 10
379.0896945529514
 20
747.7919094509548
 30
0.0
 10
379.0514539930555
 20
747.3840101453992
 30
0.0
 10
378.9587809244791
 20
746.9854125976561
 30
0.0
 10
378.9398328993055
 20
746.5775132921007
 30
0.0
 10
378.9174397786458
 20
746.1441202799479
 30
0.0
 10
378.8568060980903
 20
745.7300198025173
 30
0.0
 10
378.8347574869791
 20
745.2966267903645
 30
0.0
 10
378.7965169270833
 20
744.6148423936631
 30
0.0
 10
378.831312391493
 20
743.9199666341145
 30
0.0
 10
378.7965169270833
 20
743.2381822374131
 30
0.0
 10
378.7679226345486
 20
742.6583726671006
 30
0.0
 10
378.6721489800347
 20
742.1037122938368
 30
0.0
 10
378.6659478081597
 20
741.5173570421006
 30
0.0
 10
378.6594021267361
 20
740.9947360568576
 30
0.0
 10
378.5763753255208
 20
740.4273288302951
 30
0.0
 10
378.4967936197916
 20
739.9112535264757
 30
0.0
 10
378.3345296223958
 20
738.8660115559895
 30
0.0
 10
378.3438313802083
 20
737.7987209743923
 30
0.0
 10
378.1398817274305
 20
736.7693264431423
 30
0.0
 10
378.0506537543403
 20
736.3135403103298
 30
0.0
 10
378.0413519965277
 20
735.8384616427951
 30
0.0
 10
377.8787434895833
 20
735.3988674587673
 30
0.0
 10
377.671693250868
 20
734.8252590603298
 30
0.0
 10
377.5917670355902
 20
734.2261569552951
 30
0.0
 10
377.4611979166666
 20
733.6301554361978
 30
0.0
 10
377.3878173828124
 20
733.2573961046006
 30
0.0
 10
377.384716796875
 20
732.8880818684895
 30
0.0
 10
377.2923882378472
 20
732.5149780273437
 30
0.0
  0
SPLINE
  5
106
330
A
100
AcDbEntity
  8
LAYER_1
 62
     7
100
AcDbSpline
210
0.0
220
0.0
230
1.0
 70
     8
 71
     3
 72
    44
 73
    40
 74
     0
 42
0.000000001
 43
0.00000001
 40
0.0
 40
0.0
 40
0.0
 40
0.0
 40
1.0
 40
1.0
 40
1.0
 40
2.0
 40
2.0
 40
2.0
 40
3.0
 40
3.0
 40
3.0
 40
4.0
 40
4.0
 40
4.0
 40
5.0
 40
5.0
 40
5.0
 40
6.0
 40
6.0
 40
6.0
 40
7.0
 40
7.0
 40
7.0
 40
8.0
 40
8.0
 40
8.0
 40
9.0
 40
9.0
 40
9.0
 40
10.0
 40
10.0
 40
10.0
 40
11.0
 40
11.0
 40
11.0
 40
12.0
 40
12.0
 40
12.0
 40
13.0
 40
13.0
 40
13.0
 40
13.0
 10
373.5351671006944
 20
706.722237141927
 30
0.0
 10
373.7646104600694
 20
708.3472886827257
 30
0.0
 10
374.8418918185764
 20
709.6698608398436
 30
0.0
 10
375.2814860026041
 20
711.2249769422742
 30
0.0
 10
375.5174750434027
 20
712.0473212348089
 30
0.0
 10
375.9315755208333
 20
712.8341810438368
 30
0.0
 10
376.0845377604167
 20
713.665827094184
 30
0.0
 10
376.2120062934027
 20
714.354157172309
 30
0.0
 10
376.4955376519097
 20
715.0838283962673
 30
0.0
 10
376.7249810112847
 20
715.7563110351562
 30
0.0
 10
376.8906901041667
 20
716.2468926323784
 30
0.0
 10
377.1328803168403
 20
716.7057793511284
 30
0.0
 10
377.2445014105903
 20
717.2094523111979
 30
0.0
 10
377.336829969618
 20
717.6142510308159
 30
0.0
 10
377.3750705295138
 20
717.9935560438367
 30
0.0
 10
377.4963378906249
 20
718.3883639865451
 30
0.0
 10
377.8883897569444
 20
719.7078355577256
 30
0.0
 10
378.3121365017361
 20
720.9983683268229
 30
0.0
 10
378.6594021267361
 20
722.320940483941
 30
0.0
 10
378.7548312717013
 20
722.6871541341145
 30
0.0
 10
378.7644775390625
 20
723.0220174153645
 30
0.0
 10
378.9398328993055
 20
723.372383626302
 30
0.0
 10
379.2488579644097
 20
723.996979437934
 30
0.0
 10
379.4686550564236
 20
724.7170043945312
 30
0.0
 10
379.7332383897569
 20
725.367438422309
 30
0.0
 10
380.0935953776041
 20
726.2466267903645
 30
0.0
 10
380.3419867621528
 20
727.1678453233507
 30
0.0
 10
380.7212917751736
 20
728.0408325195311
 30
0.0
 10
381.1002522786458
 20
728.9045179578992
 30
0.0
 10
381.2184190538194
 20
729.8543307834201
 30
0.0
 10
381.626318359375
 20
730.7080254448784
 30
0.0
 10
382.0597113715277
 20
731.6068508572048
 30
0.0
 10
382.3432427300347
 20
732.5628648546007
 30
0.0
 10
382.6298746744791
 20
733.5026869032117
 30
0.0
 10
382.731849500868
 20
733.8313490125868
 30
0.0
 10
382.8817111545139
 20
734.1179809570311
 30
0.0
 10
383.0060791015625
 20
734.4335517035589
 30
0.0
 10
383.2896104600694
 20
735.1632229275173
 30
0.0
 10
383.5128526475694
 20
735.9535278320312
 30
0.0
 10
383.7515977647569
 20
736.6894002278646
 30
0.0
  0
SPLINE
  5
105
330
A
100
AcDbEntity
  8
LAYER_1
 62
     7
100
AcDbSpline
210
0.0
220
0.0
230
1.0
 70
     8
 71
     3
 72
    35
 73
    31
 74
     0
 42
0.000000001
 43
0.00000001
 40
0.0
 40
0.0
 40
0.0
 40
0.0
 40
1.0
 40
1.0
 40
1.0
 40
2.0
 40
2.0
 40
2.0
 40
3.0
 40
3.0
 40
3.0
 40
4.0
 40
4.0
 40
4.0
 40
5.0
 40
5.0
 40
5.0
 40
6.0
 40
6.0
 40
6.0
 40
7.0
 40
7.0
 40
7.0
 40
8.0
 40
8.0
 40
8.0
 40
9.0
 40
9.0
 40
9.0
 40
10.0
 40
10.0
 40
10.0
 40
10.0
 10
390.3193277994791
 20
750.5958726671006
 30
0.0
 10
390.1984049479166
 20
750.1948635525173
 30
0.0
 10
389.9913547092013
 20
749.840707736545
 30
0.0
 10
389.8253011067708
 20
749.4583021375868
 30
0.0
 10
389.6757839626736
 20
749.1013902452256
 30
0.0
 10
389.6406439887152
 20
748.7065823025173
 30
0.0
 10
389.4749348958333
 20
748.3558715820312
 30
0.0
 10
389.2995795355902
 20
747.9796671549478
 30
0.0
 10
389.2010498046874
 20
747.5972615559895
 30
0.0
 10
389.0542887369791
 20
747.2214016384548
 30
0.0
 10
388.8696316189236
 20
746.7435668945312
 30
0.0
 10
388.5668077256944
 20
746.3101738823784
 30
0.0
 10
388.3435655381944
 20
745.8512871636284
 30
0.0
 10
388.0824273003472
 20
745.3159193250867
 30
0.0
 10
387.8433376736111
 20
744.7678046332464
 30
0.0
 10
387.5277669270833
 20
744.2610310872395
 30
0.0
 10
387.2666286892361
 20
743.8372843424479
 30
0.0
 10
386.9128173828125
 20
743.4803724500867
 30
0.0
 10
386.686474609375
 20
743.0342325846353
 30
0.0
 10
386.4063883463541
 20
742.4892184787326
 30
0.0
 10
386.1989935980902
 20
741.9094089084201
 30
0.0
 10
385.9251085069444
 20
741.3643948025173
 30
0.0
 10
385.6605251736111
 20
740.8417738172742
 30
0.0
 10
385.367347547743
 20
740.3412014431423
 30
0.0
 10
385.1348036024305
 20
739.8092787000868
 30
0.0
 10
384.7238037109375
 20
738.8787584092881
 30
0.0
 10
384.3062581380208
 20
738.0119723849825
 30
0.0
 10
383.8949137369791
 20
737.075250922309
 30
0.0
 10
383.7230034722222
 20
736.6831990559895
 30
0.0
 10
383.6082817925347
 20
736.2656534830728
 30
0.0
 10
383.5445475260416
 20
735.8419067382812
 30
0.0
  0
SPLINE
  5
104
330
A
100
AcDbEntity
  8
LAYER_1
 62
     7
100
AcDbSpline
210
0.0
220
0.0
230
1.0
 70
     8
 71
     3
 72
   185
 73
   181
 74
     0
 42
0.000000001
 43
0.00000001
 40
0.0
 40
0.0
 40
0.0
 40
0.0
 40
1.0
 40
1.0
 40
1.0
 40
2.0
 40
2.0
 40
2.0
 40
3.0
 40
3.0
 40
3.0
 40
4.0
 40
4.0
 40
4.0
 40
5.0
 40
5.0
 40
5.0
 40
6.0
 40
6.0
 40
6.0
 40
7.0
 40
7.0
 40
7.0
 40
8.0
 40
8.0
 40
8.0
 40
9.0
 40
9.0
 40
9.0
 40
10.0
 40
10.0
 40
10.0
 40
11.0
 40
11.0
 40
11.0
 40
12.0
 40
12.0
 40
12.0
 40
13.0
 40
13.0
 40
13.0
 40
14.0
 40
14.0
 40
14.0
 40
15.0
 40
15.0
 40
15.0
 40
16.0
 40
16.0
 40
16.0
 40
17.0
 40
17.0
 40
17.0
 40
18.0
 40
18.0
 40
18.0
 40
19.0
 40
19.0
 40
19.0
 40
20.0
 40
20.0
 40
20.0
 40
21.0
 40
21.0
 40
21.0
 40
22.0
 40
22.0
 40
22.0
 40
23.0
 40
23.0
 40
23.0
 40
24.0
 40
24.0
 40
24.0
 40
25.0
 40
25.0
 40
25.0
 40
26.0
 40
26.0
 40
26.0
 40
27.0
 40
27.0
 40
27.0
 40
28.0
 40
28.0
 40
28.0
 40
29.0
 40
29.0
 40
29.0
 40
30.0
 40
30.0
 40
30.0
 40
31.0
 40
31.0
 40
31.0
 40
32.0
 40
32.0
 40
32.0
 40
33.0
 40
33.0
 40
33.0
 40
34.0
 40
34.0
 40
34.0
 40
35.0
 40
35.0
 40
35.0
 40
36.0
 40
36.0
 40
36.0
 40
37.0
 40
37.0
 40
37.0
 40
38.0
 40
38.0
 40
38.0
 40
39.0
 40
39.0
 40
39.0
 40
40.0
 40
40.0
 40
40.0
 40
41.0
 40
41.0
 40
41.0
 40
42.0
 40
42.0
 40
42.0
 40
43.0
 40
43.0
 40
43.0
 40
44.0
 40
44.0
 40
44.0
 40
45.0
 40
45.0
 40
45.0
 40
46.0
 40
46.0
 40
46.0
 40
47.0
 40
47.0
 40
47.0
 40
48.0
 40
48.0
 40
48.0
 40
49.0
 40
49.0
 40
49.0
 40
50.0
 40
50.0
 40
50.0
 40
51.0
 40
51.0
 40
51.0
 40
52.0
 40
52.0
 40
52.0
 40
53.0
 40
53.0
 40
53.0
 40
54.0
 40
54.0
 40
54.0
 40
55.0
 40
55.0
 40
55.0
 40
56.0
 40
56.0
 40
56.0
 40
57.0
 40
57.0
 40
57.0
 40
58.0
 40
58.0
 40
58.0
 40
59.0
 40
59.0
 40
59.0
 40
60.0
 40
60.0
 40
60.0
 40
60.0
 10
380.0743028428819
 20
706.3491333007812
 30
0.0
 10
380.2720513237847
 20
707.4074666341145
 30
0.0
 10
380.7054443359374
 20
708.3441880967881
 30
0.0
 10
381.0844048394097
 20
709.3318969726562
 30
0.0
 10
381.4892035590278
 20
710.3771389431423
 30
0.0
 10
381.8650634765625
 20
711.428926595052
 30
0.0
 10
382.2285210503472
 20
712.4807142469617
 30
0.0
 10
382.6043809678819
 20
713.5607516818576
 30
0.0
 10
382.9995334201388
 20
714.6662828233507
 30
0.0
 10
383.4394721137152
 20
715.7308173285589
 30
0.0
 10
383.7326497395833
 20
716.4318942599825
 30
0.0
 10
383.9875868055555
 20
717.1584648980034
 30
0.0
 10
384.2807644314236
 20
717.859541829427
 30
0.0
 10
384.5291558159722
 20
718.4682902018228
 30
0.0
 10
384.6249294704861
 20
719.1276814778645
 30
0.0
 10
384.8798665364583
 20
719.7271280924479
 30
0.0
 10
385.1410047743055
 20
720.3258856879339
 30
0.0
 10
385.2908664279514
 20
720.9952677408853
 30
0.0
 10
385.5650960286458
 20
721.59436984592
 30
0.0
 10
385.9599039713542
 20
722.4294609917534
 30
0.0
 10
386.1927924262152
 20
723.3596367730034
 30
0.0
 10
386.514564344618
 20
724.229867892795
 30
0.0
 10
387.0530327690972
 20
725.6923109266493
 30
0.0
 10
387.3971978081597
 20
727.1995402018229
 30
0.0
 10
388.002845594618
 20
728.6368340386284
 30
0.0
 10
388.2577826605902
 20
729.2486829969617
 30
0.0
 10
388.3404649522569
 20
729.8922268337673
 30
0.0
 10
388.5254665798611
 20
730.5264689127604
 30
0.0
 10
388.7070231119791
 20
731.1479641384548
 30
0.0
 10
388.9874538845486
 20
731.7408650716145
 30
0.0
 10
389.1879584418402
 20
732.3527140299478
 30
0.0
 10
389.4304931640625
 20
733.1044338650173
 30
0.0
 10
389.850794813368
 20
733.7865627712673
 30
0.0
 10
390.1250244140625
 20
734.5193345811631
 30
0.0
 10
390.4405951605902
 20
735.3606268988715
 30
0.0
 10
390.8419487847222
 20
736.1478312174479
 30
0.0
 10
391.1988606770833
 20
736.9698310004339
 30
0.0
 10
391.7214816623264
 20
738.164934624566
 30
0.0
 10
392.2726969401041
 20
739.3503919813368
 30
0.0
 10
392.8208116319444
 20
740.529303656684
 30
0.0
 10
393.4071668836805
 20
741.7977878146701
 30
0.0
 10
393.9490804036458
 20
743.0852199978298
 30
0.0
 10
394.5736762152777
 20
744.3344116210936
 30
0.0
 10
395.0962972005208
 20
745.3793090820312
 30
0.0
 10
395.516943359375
 20
746.4693372938367
 30
0.0
 10
396.0171712239583
 20
747.5273261176214
 30
0.0
 10
396.6321207682291
 20
748.8275051540797
 30
0.0
 10
397.0241726345486
 20
750.229659016927
 30
0.0
 10
397.6105278862847
 20
751.5232923719617
 30
0.0
 10
397.9643391927083
 20
752.3073961046006
 30
0.0
 10
398.3722384982639
 20
753.0722073025173
 30
0.0
 10
398.7098578559027
 20
753.8625122070312
 30
0.0
 10
398.9744411892361
 20
754.4681599934895
 30
0.0
 10
399.1590983072916
 20
755.1309963650173
 30
0.0
 10
399.3568467881944
 20
755.7648939344617
 30
0.0
 10
399.723060438368
 20
756.9534518771701
 30
0.0
 10
400.2618733723958
 20
758.0813761393229
 30
0.0
 10
400.6983669704861
 20
759.2416842990451
 30
0.0
 10
401.0966200086805
 20
760.3124199761284
 30
0.0
 10
401.6605821397569
 20
761.312875705295
 30
0.0
 10
402.0016465928819
 20
762.396358235677
 30
0.0
 10
402.234535047743
 20
763.1291300455729
 30
0.0
 10
402.476380750868
 20
763.938727484809
 30
0.0
 10
402.7761040581597
 20
764.6463500976562
 30
0.0
 10
402.8684326171875
 20
764.8692477756076
 30
0.0
 10
403.0086480034722
 20
765.0542494032118
 30
0.0
 10
403.0882297092014
 20
765.2706013997395
 30
0.0
 10
403.1936496310764
 20
765.5668796115451
 30
0.0
 10
403.2032958984375
 20
765.8666029188367
 30
0.0
 10
403.3431667751736
 20
766.1439331054687
 30
0.0
 10
403.5026746961805
 20
766.4591593424478
 30
0.0
 10
403.5664089626736
 20
766.6789564344617
 30
0.0
 10
403.6556369357639
 20
767.033112250434
 30
0.0
 10
403.853040907118
 20
767.7496921115451
 30
0.0
 10
404.0728379991319
 20
768.4635158962673
 30
0.0
 10
404.3532687717014
 20
769.1518459743922
 30
0.0
 10
404.7773600260416
 20
770.2005330403645
 30
0.0
 10
405.2489935980902
 20
771.233028157552
 30
0.0
 10
405.5931586371527
 20
772.3099650065103
 30
0.0
 10
405.8288031684027
 20
773.0399807400173
 30
0.0
 10
406.1347276475694
 20
773.7248657226562
 30
0.0
 10
406.4217041015625
 20
774.4386895073784
 30
0.0
 10
406.7913628472222
 20
775.3661092122395
 30
0.0
 10
407.113134765625
 20
776.3221232096354
 30
0.0
 10
407.4635009765624
 20
777.258844672309
 30
0.0
 10
407.7601236979166
 20
778.0491495768229
 30
0.0
 10
407.9957682291666
 20
778.8587470160589
 30
0.0
 10
408.3113389756944
 20
779.6456068250867
 30
0.0
 10
408.5342366536458
 20
780.2002671983506
 30
0.0
 10
408.7702256944444
 20
780.7387356228298
 30
0.0
 10
409.0155164930555
 20
781.2902954101562
 30
0.0
 10
409.3245415581597
 20
781.9689792209201
 30
0.0
 10
409.5222900390625
 20
782.669711642795
 30
0.0
 10
409.8633544921875
 20
783.3390936957464
 30
0.0
 10
410.2106201171875
 20
784.033969455295
 30
0.0
 10
410.5640869140624
 20
784.8049818250868
 30
0.0
 10
410.6374674479166
 20
785.5890855577256
 30
0.0
 10
410.6884548611111
 20
786.1561482747395
 30
0.0
 10
410.8955050998263
 20
786.6501749674478
 30
0.0
 10
411.1442409939236
 20
787.1566040039062
 30
0.0
 10
411.4119249131944
 20
787.7174655490451
 30
0.0
 10
411.5679877387153
 20
788.3355156792534
 30
0.0
 10
411.9090521918403
 20
788.8615817599825
 30
0.0
 10
412.16708984375
 20
789.259834798177
 30
0.0
 10
412.2597629123263
 20
789.5468112521701
 30
0.0
 10
412.2466715494791
 20
790.0501397026909
 30
0.0
 10
412.224622938368
 20
790.9358737521701
 30
0.0
 10
411.8580647786458
 20
791.8219523111978
 30
0.0
 10
411.2334689670138
 20
792.4592949761284
 30
0.0
 10
410.5640869140624
 20
793.1476250542534
 30
0.0
 10
409.7227945963541
 20
793.4087632921006
 30
0.0
 10
408.7605794270833
 20
793.319879828559
 30
0.0
 10
407.3777180989583
 20
793.1986124674478
 30
0.0
 10
406.4981852213541
 20
792.5929646809896
 30
0.0
 10
405.688587782118
 20
791.4650404188367
 30
0.0
 10
405.1311713324652
 20
790.690582953559
 30
0.0
 10
404.8631429036458
 20
789.7538614908854
 30
0.0
 10
404.5734103732639
 20
788.8584811740451
 30
0.0
 10
404.3501681857638
 20
788.1825534396701
 30
0.0
 10
404.0697374131944
 20
787.5328084309895
 30
0.0
 10
403.7989529079861
 20
786.8761732313367
 30
0.0
 10
403.5695095486111
 20
786.3029093424478
 30
0.0
 10
403.4516872829861
 20
785.7227552625867
 30
0.0
 10
403.2094970703125
 20
785.1426011827256
 30
0.0
 10
402.9928005642361
 20
784.6203247070312
 30
0.0
 10
402.811244032118
 20
784.0784111870659
 30
0.0
 10
402.588001844618
 20
783.5588907877603
 30
0.0
 10
402.3682047526041
 20
783.058662923177
 30
0.0
 10
402.0464328342014
 20
782.6063218858507
 30
0.0
 10
401.8104437934027
 20
782.1088500976562
 30
0.0
 10
401.5238118489583
 20
781.4970011393228
 30
0.0
 10
401.2847222222222
 20
780.8789510091145
 30
0.0
 10
401.0649251302083
 20
780.241608344184
 30
0.0
 10
400.8544297960069
 20
779.6332044813367
 30
0.0
 10
400.5581515842014
 20
779.040303548177
 30
0.0
 10
400.2715196397569
 20
778.4632500542534
 30
0.0
 10
400.000390625
 20
777.9154798719617
 30
0.0
 10
399.8381266276041
 20
777.3766669379339
 30
0.0
 10
399.6403781467014
 20
776.7968573676214
 30
0.0
 10
399.3854410807292
 20
776.0544392903645
 30
0.0
 10
399.034730360243
 20
775.3723103841145
 30
0.0
 10
398.8021864149305
 20
774.6205905490451
 30
0.0
 10
398.6461235894097
 20
774.104170735677
 30
0.0
 10
398.3085042317708
 20
773.6580308702256
 30
0.0
 10
398.158642578125
 20
773.1385104709201
 30
0.0
 10
398.0790608723958
 20
772.8708265516492
 30
0.0
 10
398.0790608723958
 20
772.6286363389756
 30
0.0
 10
397.9770860460069
 20
772.3705986870659
 30
0.0
 10
397.8592637803819
 20
772.0836222330729
 30
0.0
 10
397.6646158854167
 20
771.8352308485242
 30
0.0
 10
397.5564398871527
 20
771.5420532226561
 30
0.0
 10
397.3969319661458
 20
771.0893676757812
 30
0.0
 10
397.2026285807291
 20
770.6594197591145
 30
0.0
 10
397.0241726345486
 20
770.2132798936631
 30
0.0
 10
396.6386664496528
 20
769.2255710177951
 30
0.0
 10
396.3964762369791
 20
768.1830851236979
 30
0.0
 10
395.9151963975694
 20
767.2274156358507
 30
0.0
 10
395.6792073567708
 20
766.761983235677
 30
0.0
 10
395.4404622395833
 20
766.2779473198784
 30
0.0
 10
395.2747531467014
 20
765.7742743598089
 30
0.0
 10
394.9943223741319
 20
764.9267808702256
 30
0.0
 10
394.7235378689236
 20
764.07239718967
 30
0.0
 10
394.4141682942708
 20
763.2249037000868
 30
0.0
 10
394.1816243489583
 20
762.5748141818576
 30
0.0
 10
394.1337375217013
 20
761.879938422309
 30
0.0
 10
393.9011935763888
 20
761.2329494900173
 30
0.0
 10
393.633509657118
 20
760.490875922309
 30
0.0
 10
393.4071668836805
 20
759.7291653103298
 30
0.0
 10
393.1842692057292
 20
758.9802015516492
 30
0.0
 10
392.9992675781249
 20
758.3618069118922
 30
0.0
 10
392.7253824869791
 20
757.7754516601561
 30
0.0
 10
392.5341796874999
 20
757.1636027018228
 30
0.0
 10
392.2854437934027
 20
756.3798434787326
 30
0.0
 10
392.0849392361111
 20
755.57679172092
 30
0.0
 10
391.8871907552083
 20
754.7802856445312
 30
0.0
 10
391.6994330512152
 20
754.0092732747395
 30
0.0
 10
391.3487223307291
 20
753.2792575412326
 30
0.0
 10
391.1447726779514
 20
752.5113457573784
 30
0.0
 10
390.9025824652778
 20
751.6128648546006
 30
0.0
 10
390.3003797743055
 20
750.8924953884548
 30
0.0
 10
390.1026312934027
 20
749.9619750976561
 30
0.0
  0
SPLINE
  5
103
330
A
100
AcDbEntity
  8
LAYER_1
 62
     7
100
AcDbSpline
210
0.0
220
0.0
230
1.0
 70
     8
 71
     3
 72
    41
 73
    37
 74
     0
 42
0.000000001
 43
0.00000001
 40
0.0
 40
0.0
 40
0.0
 40
0.0
 40
1.0
 40
1.0
 40
1.0
 40
2.0
 40
2.0
 40
2.0
 40
3.0
 40
3.0
 40
3.0
 40
4.0
 40
4.0
 40
4.0
 40
5.0
 40
5.0
 40
5.0
 40
6.0
 40
6.0
 40
6.0
 40
7.0
 40
7.0
 40
7.0
 40
8.0
 40
8.0
 40
8.0
 40
9.0
 40
9.0
 40
9.0
 40
10.0
 40
10.0
 40
10.0
 40
11.0
 40
11.0
 40
11.0
 40
12.0
 40
12.0
 40
12.0
 40
12.0
 10
484.0038764105902
 20
764.1109822591145
 30
0.0
 10
483.5897759331597
 20
763.8842949761284
 30
0.0
 10
483.172230360243
 20
763.709284125434
 30
0.0
 10
482.7867241753472
 20
763.3971584743923
 30
0.0
 10
482.5031928168402
 20
763.1739162868923
 30
0.0
 10
482.1814208984375
 20
762.8362969292534
 30
0.0
 10
482.0856472439236
 20
762.4728393554686
 30
0.0
 10
481.9805718315972
 20
762.0649400499132
 30
0.0
 10
481.9871175130208
 20
761.6060533311631
 30
0.0
 10
482.2386094835069
 20
761.249141438802
 30
0.0
 10
482.366078016493
 20
761.0706854926215
 30
0.0
 10
482.5128390842013
 20
760.955963812934
 30
0.0
 10
482.7198893229166
 20
760.892229546441
 30
0.0
 10
483.1022949218749
 20
760.7713066948784
 30
0.0
 10
483.7203450520833
 20
760.838141547309
 30
0.0
 10
484.0772569444444
 20
761.0131523980034
 30
0.0
 10
484.3738796657985
 20
761.1537122938367
 30
0.0
 10
484.6446641710069
 20
761.249141438802
 30
0.0
 10
484.9505886501736
 20
761.3604180230034
 30
0.0
 10
485.3233479817708
 20
761.4975328233506
 30
0.0
 10
485.696107313368
 20
761.6250013563367
 30
0.0
 10
486.0723117404514
 20
761.7590155707464
 30
0.0
 10
487.0314263237847
 20
762.0838880750867
 30
0.0
 10
488.0194797092013
 20
762.0521931966146
 30
0.0
 10
488.8731743706597
 20
762.5238267686631
 30
0.0
 10
489.2366319444444
 20
762.7212307400173
 30
0.0
 10
489.5935438368055
 20
762.91897922092
 30
0.0
 10
489.9342637803819
 20
763.1070814344617
 30
0.0
 10
490.2308865017361
 20
763.2631442599826
 30
0.0
 10
490.5113172743055
 20
763.4481458875867
 30
0.0
 10
490.7852023654514
 20
763.6359035915798
 30
0.0
 10
490.9126708984375
 20
763.7220309787326
 30
0.0
 10
491.0559868706597
 20
763.7761189778645
 30
0.0
 10
491.1931016710069
 20
763.8429538302951
 30
0.0
 10
491.3016221788194
 20
763.9035875108506
 30
0.0
 10
491.5024712456597
 20
764.1554239908853
 30
0.0
 10
491.6010009765624
 20
764.1809176974825
 30
0.0
  0
SPLINE
  5
102
330
A
100
AcDbEntity
  8
LAYER_1
 62
     7
100
AcDbSpline
210
0.0
220
0.0
230
1.0
 70
     8
 71
     3
 72
   281
 73
   277
 74
     0
 42
0.000000001
 43
0.00000001
 40
0.0
 40
0.0
 40
0.0
 40
0.0
 40
1.0
 40
1.0
 40
1.0
 40
2.0
 40
2.0
 40
2.0
 40
3.0
 40
3.0
 40
3.0
 40
4.0
 40
4.0
 40
4.0
 40
5.0
 40
5.0
 40
5.0
 40
6.0
 40
6.0
 40
6.0
 40
7.0
 40
7.0
 40
7.0
 40
8.0
 40
8.0
 40
8.0
 40
9.0
 40
9.0
 40
9.0
 40
10.0
 40
10.0
 40
10.0
 40
11.0
 40
11.0
 40
11.0
 40
12.0
 40
12.0
 40
12.0
 40
13.0
 40
13.0
 40
13.0
 40
14.0
 40
14.0
 40
14.0
 40
15.0
 40
15.0
 40
15.0
 40
16.0
 40
16.0
 40
16.0
 40
17.0
 40
17.0
 40
17.0
 40
18.0
 40
18.0
 40
18.0
 40
19.0
 40
19.0
 40
19.0
 40
20.0
 40
20.0
 40
20.0
 40
21.0
 40
21.0
 40
21.0
 40
22.0
 40
22.0
 40
22.0
 40
23.0
 40
23.0
 40
23.0
 40
24.0
 40
24.0
 40
24.0
 40
25.0
 40
25.0
 40
25.0
 40
26.0
 40
26.0
 40
26.0
 40
27.0
 40
27.0
 40
27.0
 40
28.0
 40
28.0
 40
28.0
 40
29.0
 40
29.0
 40
29.0
 40
30.0
 40
30.0
 40
30.0
 40
31.0
 40
31.0
 40
31.0
 40
32.0
 40
32.0
 40
32.0
 40
33.0
 40
33.0
 40
33.0
 40
34.0
 40
34.0
 40
34.0
 40
35.0
 40
35.0
 40
35.0
 40
36.0
 40
36.0
 40
36.0
 40
37.0
 40
37.0
 40
37.0
 40
38.0
 40
38.0
 40
38.0
 40
39.0
 40
39.0
 40
39.0
 40
40.0
 40
40.0
 40
40.0
 40
41.0
 40
41.0
 40
41.0
 40
42.0
 40
42.0
 40
42.0
 40
43.0
 40
43.0
 40
43.0
 40
44.0
 40
44.0
 40
44.0
 40
45.0
 40
45.0
 40
45.0
 40
46.0
 40
46.0
 40
46.0
 40
47.0
 40
47.0
 40
47.0
 40
48.0
 40
48.0
 40
48.0
 40
49.0
 40
49.0
 40
49.0
 40
50.0
 40
50.0
 40
50.0
 40
51.0
 40
51.0
 40
51.0
 40
52.0
 40
52.0
 40
52.0
 40
53.0
 40
53.0
 40
53.0
 40
54.0
 40
54.0
 40
54.0
 40
55.0
 40
55.0
 40
55.0
 40
56.0
 40
56.0
 40
56.0
 40
57.0
 40
57.0
 40
57.0
 40
58.0
 40
58.0
 40
58.0
 40
59.0
 40
59.0
 40
59.0
 40
60.0
 40
60.0
 40
60.0
 40
61.0
 40
61.0
 40
61.0
 40
62.0
 40
62.0
 40
62.0
 40
63.0
 40
63.0
 40
63.0
 40
64.0
 40
64.0
 40
64.0
 40
65.0
 40
65.0
 40
65.0
 40
66.0
 40
66.0
 40
66.0
 40
67.0
 40
67.0
 40
67.0
 40
68.0
 40
68.0
 40
68.0
 40
69.0
 40
69.0
 40
69.0
 40
70.0
 40
70.0
 40
70.0
 40
71.0
 40
71.0
 40
71.0
 40
72.0
 40
72.0
 40
72.0
 40
73.0
 40
73.0
 40
73.0
 40
74.0
 40
74.0
 40
74.0
 40
75.0
 40
75.0
 40
75.0
 40
76.0
 40
76.0
 40
76.0
 40
77.0
 40
77.0
 40
77.0
 40
78.0
 40
78.0
 40
78.0
 40
79.0
 40
79.0
 40
79.0
 40
80.0
 40
80.0
 40
80.0
 40
81.0
 40
81.0
 40
81.0
 40
82.0
 40
82.0
 40
82.0
 40
83.0
 40
83.0
 40
83.0
 40
84.0
 40
84.0
 40
84.0
 40
85.0
 40
85.0
 40
85.0
 40
86.0
 40
86.0
 40
86.0
 40
87.0
 40
87.0
 40
87.0
 40
88.0
 40
88.0
 40
88.0
 40
89.0
 40
89.0
 40
89.0
 40
90.0
 40
90.0
 40
90.0
 40
91.0
 40
91.0
 40
91.0
 40
92.0
 40
92.0
 40
92.0
 40
92.0
 10
482.8759521484375
 20
802.2009914822048
 30
0.0
 10
482.818763563368
 20
802.054574924045
 30
0.0
 10
482.6974962022569
 20
801.9236612955729
 30
0.0
 10
482.6113688151041
 20
801.7865464952256
 30
0.0
 10
482.4969916449652
 20
801.6049899631075
 30
0.0
 10
482.4108642578125
 20
801.4137871636284
 30
0.0
 10
482.2992431640624
 20
801.2322306315103
 30
0.0
 10
482.0760009765625
 20
800.8722181532117
 30
0.0
 10
481.783167860243
 20
800.5852416992187
 30
0.0
 10
481.553724500868
 20
800.2348754882812
 30
0.0
 10
481.3432291666666
 20
799.9158596462673
 30
0.0
 10
481.2030137803819
 20
799.6740139431423
 30
0.0
 10
481.2347086588541
 20
799.2947089301215
 30
0.0
 10
481.2732937282985
 20
798.9154039171007
 30
0.0
 10
481.0658989800347
 20
798.5013034396701
 30
0.0
 10
480.8619493272569
 20
798.1953789605034
 30
0.0
 10
480.7920138888888
 20
798.0934041341145
 30
0.0
 10
480.7248345269097
 20
797.9976304796006
 30
0.0
 10
480.6452528211805
 20
797.908747016059
 30
0.0
 10
480.2342529296874
 20
797.4305677625867
 30
0.0
 10
479.7560736762152
 20
797.0674546983506
 30
0.0
 10
479.31337890625
 20
796.6275160047742
 30
0.0
 10
478.9626681857638
 20
796.2833509657117
 30
0.0
 10
478.7587185329861
 20
795.8372111002603
 30
0.0
 10
478.5103271484375
 20
795.4227661132812
 30
0.0
 10
478.39560546875
 20
795.2381089952256
 30
0.0
 10
478.3349717881944
 20
795.0692993164062
 30
0.0
 10
478.2491889105902
 20
794.8811971028645
 30
0.0
 10
478.1503146701389
 20
794.6614000108506
 30
0.0
 10
477.9112250434027
 20
794.537032063802
 30
0.0
 10
477.7138210720486
 20
794.4223103841146
 30
0.0
 10
477.5064263237847
 20
794.3010430230034
 30
0.0
 10
477.3248697916666
 20
794.1673733181423
 30
0.0
 10
477.1336669921874
 20
794.0337036132812
 30
0.0
 10
476.7736545138889
 20
793.784967719184
 30
0.0
 10
476.4325900607639
 20
793.5172837999131
 30
0.0
 10
476.0787787543402
 20
793.2495998806423
 30
0.0
 10
475.7442599826388
 20
793.0074096679687
 30
0.0
 10
475.3873480902777
 20
792.8320543077256
 30
0.0
 10
475.1100179036458
 20
792.513727484809
 30
0.0
 10
474.8137396918402
 20
792.1661173502604
 30
0.0
 10
474.552601453993
 20
791.8092054578992
 30
0.0
 10
474.2401312934027
 20
791.4777872721354
 30
0.0
 10
473.9531548394097
 20
791.1591159396701
 30
0.0
 10
473.6603217230902
 20
790.8566365559896
 30
0.0
 10
473.3798909505208
 20
790.5314195421006
 30
0.0
 10
473.0291802300347
 20
790.1235202365451
 30
0.0
 10
472.7552951388889
 20
789.6232923719617
 30
0.0
 10
472.6212809244792
 20
789.094125705295
 30
0.0
 10
472.5193060980902
 20
788.7055189344617
 30
0.0
 10
472.5575466579861
 20
788.2400865342881
 30
0.0
 10
472.5575466579861
 20
787.8387329101562
 30
0.0
 10
472.5640923394097
 20
787.0932142469617
 30
0.0
 10
472.493812391493
 20
786.3091105143228
 30
0.0
 10
472.6181803385416
 20
785.5759941948784
 30
0.0
 10
472.7105088975694
 20
785.0344251844617
 30
0.0
 10
472.8445231119791
 20
784.49905734592
 30
0.0
 10
473.0322808159722
 20
783.9857381184895
 30
0.0
 10
473.2234836154514
 20
783.4665622287325
 30
0.0
 10
473.3636990017361
 20
782.9597886827256
 30
0.0
 10
473.6792697482638
 20
782.4912556966145
 30
0.0
 10
473.8194851345486
 20
782.2873060438367
 30
0.0
 10
473.8801188151041
 20
782.0578626844617
 30
0.0
 10
474.0392822265625
 20
781.8604587131076
 30
0.0
 10
474.2211832682291
 20
781.6310153537326
 30
0.0
 10
474.447181532118
 20
781.4336113823784
 30
0.0
 10
474.622536892361
 20
781.1976223415797
 30
0.0
 10
475.0528293185764
 20
780.6398613823784
 30
0.0
 10
475.6488308376736
 20
780.2671020507812
 30
0.0
 10
476.282728407118
 20
779.9866712782117
 30
0.0
 10
477.1019721137152
 20
779.6266587999131
 30
0.0
 10
477.9046793619791
 20
779.2187594943575
 30
0.0
 10
478.812806532118
 20
779.2156589084201
 30
0.0
 10
479.0391493055555
 20
779.2156589084201
 30
0.0
 10
479.2623914930555
 20
779.1770738389756
 30
0.0
 10
479.4790879991319
 20
779.1515801323784
 30
0.0
 10
480.017556423611
 20
779.0978366427951
 30
0.0
 10
480.5687717013889
 20
779.0434041341146
 30
0.0
 10
481.1106852213541
 20
779.0117092556422
 30
0.0
 10
481.7480278862847
 20
778.9796698676215
 30
0.0
 10
482.3788248697916
 20
778.9796698676215
 30
0.0
 10
483.0068657769097
 20
778.9221367730034
 30
0.0
 10
483.5515353732638
 20
778.8776950412325
 30
0.0
 10
484.090003797743
 20
778.7884670681423
 30
0.0
 10
484.6350179036458
 20
778.7436808268228
 30
0.0
 10
485.2182725694444
 20
778.699239095052
 30
0.0
 10
485.7822347005208
 20
778.511481391059
 30
0.0
 10
486.3589436848958
 20
778.4253540039061
 30
0.0
 10
486.6490207248264
 20
778.3805677625867
 30
0.0
 10
486.9263509114583
 20
778.3233791775173
 30
0.0
 10
487.2129828559027
 20
778.2658460828992
 30
0.0
 10
487.5350992838541
 20
778.1990112304687
 30
0.0
 10
487.8568712022569
 20
778.1924655490451
 30
0.0
 10
488.1817437065972
 20
778.1449232313367
 30
0.0
 10
488.854226345486
 20
778.0618964301215
 30
0.0
 10
489.5232638888888
 20
777.9664672851562
 30
0.0
 10
490.1926459418402
 20
777.8579467773437
 30
0.0
 10
490.8999240451388
 20
777.7432250976561
 30
0.0
 10
491.5882541232638
 20
777.7494262695312
 30
0.0
 10
492.2893310546875
 20
777.6030097113714
 30
0.0
 10
492.7895589192708
 20
777.5010348849826
 30
0.0
 10
493.2932318793402
 20
777.4245537651909
 30
0.0
 10
493.7903591579861
 20
777.322578938802
 30
0.0
 10
494.0866373697916
 20
777.265045844184
 30
0.0
 10
494.3639675564236
 20
777.1444675021701
 30
0.0
 10
494.644398328993
 20
777.0614407009548
 30
0.0
 10
494.9437771267361
 20
776.9722127278645
 30
0.0
 10
495.2562472873263
 20
776.9274264865451
 30
0.0
 10
495.5652723524305
 20
776.857491048177
 30
0.0
 10
496.4988932291666
 20
776.6345933702256
 30
0.0
 10
497.403919813368
 20
776.2838826497396
 30
0.0
 10
498.2930989583333
 20
775.9142239040798
 30
0.0
 10
499.0899495442708
 20
775.5893513997395
 30
0.0
 10
499.8034288194444
 20
775.0984252929687
 30
0.0
 10
500.5875325520833
 20
774.7480590820312
 30
0.0
 10
501.1067084418402
 20
774.5186157226561
 30
0.0
 10
501.5531928168402
 20
774.1806518554687
 30
0.0
 10
501.9703938802083
 20
773.8047919379339
 30
0.0
 10
502.5505479600694
 20
773.2818264431423
 30
0.0
 10
503.1971923828124
 20
772.7912448459201
 30
0.0
 10
503.7997395833333
 20
772.2751695421006
 30
0.0
 10
504.2520806206597
 20
771.8927639431423
 30
0.0
 10
504.7430067274305
 20
771.5358520507812
 30
0.0
 10
505.1571072048611
 20
771.1024590386284
 30
0.0
 10
505.3324625651041
 20
770.9205579969617
 30
0.0
 10
505.4564860026041
 20
770.7455471462673
 30
0.0
 10
505.6511338975694
 20
770.5732923719618
 30
0.0
 10
506.0621337890624
 20
770.2356730143229
 30
0.0
 10
506.4062988281249
 20
769.8146823459201
 30
0.0
 10
506.7601101345485
 20
769.4164293077256
 30
0.0
 10
507.3847059461805
 20
768.7249986436631
 30
0.0
 10
508.0792371961805
 20
768.081110297309
 30
0.0
 10
508.6053032769097
 20
767.3038967556423
 30
0.0
 10
509.159619140625
 20
766.4815524631076
 30
0.0
 10
509.7108344184027
 20
765.6722995334201
 30
0.0
 10
510.147328016493
 20
764.7831203884548
 30
0.0
 10
510.3037353515625
 20
764.4706502278646
 30
0.0
 10
510.3802164713541
 20
764.1233846028645
 30
0.0
 10
510.5200873480902
 20
763.8112589518229
 30
0.0
 10
510.8070638020833
 20
763.1546237521701
 30
0.0
 10
511.0809488932291
 20
762.4886867947048
 30
0.0
 10
511.4189127604166
 20
761.8544447157118
 30
0.0
 10
511.7406846788194
 20
761.2329494900173
 30
0.0
 10
512.1261908637152
 20
760.6438381618923
 30
0.0
 10
512.5247884114583
 20
760.0698852539061
 30
0.0
 10
512.7001437717014
 20
759.8280395507812
 30
0.0
 10
512.789027235243
 20
759.5696573893229
 30
0.0
 10
512.9516357421875
 20
759.3243665907117
 30
0.0
 10
513.1428385416666
 20
759.0342895507812
 30
0.0
 10
513.3340413411457
 20
758.7442125108506
 30
0.0
 10
513.525244140625
 20
758.4544799804687
 30
0.0
 10
513.8983479817708
 20
757.8774264865451
 30
0.0
 10
514.2966010199652
 20
757.3103637695311
 30
0.0
 10
514.7520426432292
 20
756.7942884657117
 30
0.0
 10
515.35458984375
 20
756.1121595594617
 30
0.0
 10
515.889613172743
 20
755.3859334309896
 30
0.0
 10
516.5014621310763
 20
754.7165513780382
 30
0.0
 10
516.8935139973958
 20
754.2831583658854
 30
0.0
 10
517.3110595703124
 20
753.8818047417534
 30
0.0
 10
517.7348063151042
 20
753.4863077799479
 30
0.0
 10
518.0855170355902
 20
753.1614352756076
 30
0.0
 10
518.4934163411458
 20
752.919245062934
 30
0.0
 10
518.8789225260416
 20
752.6260674370659
 30
0.0
 10
519.3443549262153
 20
752.2819023980034
 30
0.0
 10
519.6819742838542
 20
751.8485093858507
 30
0.0
 10
520.1377604166667
 20
751.4977986653645
 30
0.0
 10
520.6379882812499
 20
751.1091918945311
 30
0.0
 10
521.1795572916666
 20
750.7777737087673
 30
0.0
 10
521.689431423611
 20
750.3953681098089
 30
0.0
 10
522.0432427300346
 20
750.1276841905382
 30
0.0
 10
522.3939534505208
 20
749.8758477105034
 30
0.0
 10
522.7315728081596
 20
749.5988620334201
 30
0.0
 10
523.6524468315972
 20
748.852998860677
 30
0.0
 10
524.6243082682291
 20
748.2346042209201
 30
0.0
 10
525.5868679470485
 20
747.5717678493922
 30
0.0
 10
526.332386610243
 20
747.0618937174479
 30
0.0
 10
527.0334635416666
 20
746.4820841471353
 30
0.0
 10
527.766579861111
 20
745.9498168945312
 30
0.0
 10
527.932288953993
 20
745.8319946289062
 30
0.0
 10
528.1203911675346
 20
745.7493123372395
 30
0.0
 10
528.2892008463541
 20
745.6342461480034
 30
0.0
 10
528.4421630859374
 20
745.5322713216145
 30
0.0
 10
528.5951253255208
 20
745.4275404188368
 30
0.0
 10
528.7511881510417
 20
745.3221204969617
 30
0.0
 10
529.2769097222222
 20
744.9779554578993
 30
0.0
 10
529.774037000868
 20
744.5063218858506
 30
0.0
 10
530.344544813368
 20
744.2324367947048
 30
0.0
 10
530.8447726779514
 20
743.9933471679686
 30
0.0
 10
531.4056342230903
 20
743.7924981011284
 30
0.0
 10
531.8645209418403
 20
743.4707261827256
 30
0.0
 10
532.3902425130208
 20
743.1041680230034
 30
0.0
 10
532.9449028862847
 20
742.7920423719618
 30
0.0
 10
533.5023193359375
 20
742.476471625434
 30
0.0
 10
533.8657769097222
 20
742.2759670681423
 30
0.0
 10
534.2416368272569
 20
742.0975111219617
 30
0.0
 10
534.6081949869791
 20
741.893561469184
 30
0.0
 10
534.8314371744791
 20
741.7626478407118
 30
0.0
 10
535.0257405598958
 20
741.5810913085937
 30
0.0
 10
535.2358913845486
 20
741.4346747504339
 30
0.0
 10
535.5514621310764
 20
741.2307250976562
 30
0.0
 10
535.8732340494792
 20
741.0391777886284
 30
0.0
 10
536.1791585286458
 20
740.8290269639756
 30
0.0
 10
536.4885281032986
 20
740.6154310438368
 30
0.0
 10
536.7655137803819
 20
740.3542928059895
 30
0.0
 10
537.1003770616319
 20
740.1723917643228
 30
0.0
 10
537.351869032118
 20
740.0259752061631
 30
0.0
 10
537.6133517795139
 20
739.9050523546006
 30
0.0
 10
537.8458957248264
 20
739.72659640842
 30
0.0
 10
538.158021375868
 20
739.493707953559
 30
0.0
 10
538.4894395616319
 20
739.2801120334201
 30
0.0
 10
538.7988091362847
 20
739.04446750217
 30
0.0
 10
539.346923828125
 20
738.6238213433159
 30
0.0
 10
539.9460259331597
 20
738.3719848632812
 30
0.0
 10
540.4655463324652
 20
737.9227444118923
 30
0.0
 10
540.7170383029513
 20
737.6995022243923
 30
0.0
 10
541.0519015842013
 20
737.55618625217
 30
0.0
 10
541.3323323567707
 20
737.374629720052
 30
0.0
 10
541.599671766493
 20
737.1961737738715
 30
0.0
 10
541.8484076605903
 20
737.0146172417534
 30
0.0
 10
542.1064453125
 20
736.8327162000868
 30
0.0
 10
542.3899766710069
 20
736.6353122287326
 30
0.0
 10
542.676953125
 20
736.4441094292534
 30
0.0
 10
542.9604844835069
 20
736.2401597764756
 30
0.0
 10
543.3490912543402
 20
735.9597290039062
 30
0.0
 10
543.8496636284722
 20
735.8450073242187
 30
0.0
 10
544.2193223741319
 20
735.5487291124132
 30
0.0
 10
544.5379937065971
 20
735.2937920464409
 30
0.0
 10
544.8949055989583
 20
735.1246378580729
 30
0.0
 10
545.2039306640625
 20
734.8634996202256
 30
0.0
 10
545.5384494357638
 20
734.5892700195312
 30
0.0
 10
545.9081081814236
 20
734.3663723415798
 30
0.0
 10
546.2553738064236
 20
734.104889594184
 30
0.0
 10
546.6825656467014
 20
733.7803615993923
 30
0.0
 10
547.1287055121527
 20
733.4868394639757
 30
0.0
 10
547.5555528428819
 20
733.1712687174479
 30
0.0
 10
547.8232367621528
 20
732.9769653320312
 30
0.0
 10
548.1102132161458
 20
732.7509670681422
 30
0.0
 10
548.4033908420139
 20
732.5945597330729
 30
0.0
 10
548.648681640625
 20
732.4639906141492
 30
0.0
 10
548.8591769748264
 20
732.2951809353298
 30
0.0
 10
549.0948215060763
 20
732.1487643771701
 30
0.0
 10
549.6618842230903
 20
731.7853068033853
 30
0.0
 10
550.1018229166666
 20
731.3264200846354
 30
0.0
 10
550.500075954861
 20
730.7910522460937
 30
0.0
 10
550.7646592881944
 20
730.4275946723089
 30
0.0
 10
551.0164957682291
 20
730.080329047309
 30
0.0
 10
551.2648871527778
 20
729.7106703016492
 30
0.0
 10
551.7268744574652
 20
729.0254408094618
 30
0.0
 10
552.160267469618
 20
728.3309095594617
 30
0.0
 10
552.5171793619791
 20
727.5819458007812
 30
0.0
 10
552.6098524305555
 20
727.3814412434895
 30
0.0
 10
552.730775282118
 20
727.1836927625867
 30
0.0
 10
552.8389512803819
 20
726.9924899631076
 30
0.0
 10
553.1800157335069
 20
726.3520467122395
 30
0.0
 10
553.4859402126735
 20
725.666817220052
 30
0.0
 10
553.760169813368
 20
724.9850328233506
 30
0.0
 10
553.995814344618
 20
724.4176255967882
 30
0.0
 10
554.282790798611
 20
723.8757120768229
 30
0.0
 10
554.4994873046875
 20
723.3024481879339
 30
0.0
 10
554.5790690104166
 20
723.0888522677951
 30
0.0
 10
554.6300564236111
 20
722.8628540039061
 30
0.0
 10
554.7096381293402
 20
722.6554592556423
 30
0.0
 10
554.9645751953125
 20
721.9960679796006
 30
0.0
 10
555.1878173828125
 20
721.3332316080729
 30
0.0
 10
555.4234619140625
 20
720.6703952365451
 30
0.0
 10
555.5891710069444
 20
720.2049628363715
 30
0.0
 10
555.825160047743
 20
719.7619235568576
 30
0.0
 10
555.9908691406249
 20
719.290289984809
 30
0.0
 10
556.1948187934028
 20
718.7135810004339
 30
0.0
 10
556.4304633246527
 20
718.1079332139757
 30
0.0
 10
556.685400390625
 20
717.5470716688368
 30
0.0
 10
556.749134657118
 20
717.4072007921006
 30
0.0
 10
556.8128689236111
 20
717.2604397243923
 30
0.0
 10
556.8831488715277
 20
717.1202243381076
 30
0.0
 10
557.0137179904514
 20
716.8587415907117
 30
0.0
 10
557.1539333767361
 20
716.5914021809895
 30
0.0
 10
557.3354899088541
 20
716.3681599934895
 30
0.0
  0
SPLINE
  5
101
330
A
100
AcDbEntity
  8
LAYER_1
 62
     7
100
AcDbSpline
210
0.0
220
0.0
230
1.0
 70
     8
 71
     3
 72
    71
 73
    67
 74
     0
 42
0.000000001
 43
0.00000001
 40
0.0
 40
0.0
 40
0.0
 40
0.0
 40
1.0
 40
1.0
 40
1.0
 40
2.0
 40
2.0
 40
2.0
 40
3.0
 40
3.0
 40
3.0
 40
4.0
 40
4.0
 40
4.0
 40
5.0
 40
5.0
 40
5.0
 40
6.0
 40
6.0
 40
6.0
 40
7.0
 40
7.0
 40
7.0
 40
8.0
 40
8.0
 40
8.0
 40
9.0
 40
9.0
 40
9.0
 40
10.0
 40
10.0
 40
10.0
 40
11.0
 40
11.0
 40
11.0
 40
12.0
 40
12.0
 40
12.0
 40
13.0
 40
13.0
 40
13.0
 40
14.0
 40
14.0
 40
14.0
 40
15.0
 40
15.0
 40
15.0
 40
16.0
 40
16.0
 40
16.0
 40
17.0
 40
17.0
 40
17.0
 40
18.0
 40
18.0
 40
18.0
 40
19.0
 40
19.0
 40
19.0
 40
20.0
 40
20.0
 40
20.0
 40
21.0
 40
21.0
 40
21.0
 40
22.0
 40
22.0
 40
22.0
 40
22.0
 10
399.2166314019097
 20
813.6376749674479
 30
0.0
 10
399.7327067057291
 20
813.3703355577256
 30
0.0
 10
400.2108859592013
 20
812.6434204101562
 30
0.0
 10
400.5774441189236
 20
812.1976250542534
 30
0.0
 10
400.9436577690972
 20
811.7545857747396
 30
0.0
 10
401.2402804904514
 20
811.2033704969617
 30
0.0
 10
401.4917724609375
 20
810.6996975368922
 30
0.0
 10
401.7722032335069
 20
810.1388359917534
 30
0.0
 10
402.0877739800347
 20
809.4856458875868
 30
0.0
 10
402.2662299262153
 20
808.8834431966145
 30
0.0
 10
402.4829264322916
 20
808.1696194118923
 30
0.0
 10
402.463978407118
 20
807.4557956271701
 30
0.0
 10
402.5435601128472
 20
806.7226793077256
 30
0.0
 10
402.6644829644097
 20
805.6998304578992
 30
0.0
 10
402.5721544053819
 20
804.6831827799479
 30
0.0
 10
402.3299641927083
 20
803.6827270507812
 30
0.0
 10
402.0939751519097
 20
802.7139662000867
 30
0.0
 10
401.8073432074652
 20
801.7548516167534
 30
0.0
 10
401.4728244357639
 20
800.8146850585937
 30
0.0
 10
401.329163953993
 20
800.4098863389756
 30
0.0
 10
401.2495822482638
 20
800.0243801540798
 30
0.0
 10
401.1348605685764
 20
799.6292277018229
 30
0.0
 10
401.0139377170138
 20
799.19583468967
 30
0.0
 10
400.7590006510416
 20
798.8261759440103
 30
0.0
 10
400.6697726779514
 20
798.380036078559
 30
0.0
 10
400.5423041449652
 20
797.7364922417534
 30
0.0
 10
400.3349093967013
 20
797.1563381618923
 30
0.0
 10
400.1185574001736
 20
796.544489203559
 30
0.0
 10
399.6086832682291
 20
795.0978936089409
 30
0.0
 10
398.9837429470486
 20
793.6351060655381
 30
0.0
 10
398.216175672743
 20
792.3190795898437
 30
0.0
 10
397.9195529513889
 20
791.8026597764756
 30
0.0
 10
397.7156032986111
 20
791.2417982313367
 30
0.0
 10
397.4096788194444
 20
790.7319240993922
 30
0.0
 10
397.1165011935764
 20
790.2475436740451
 30
0.0
 10
396.7309950086805
 20
789.7538614908854
 30
0.0
 10
396.5239447699652
 20
789.2215942382812
 30
0.0
 10
396.2211208767361
 20
788.4440361870659
 30
0.0
 10
395.8545627170138
 20
787.6919718424479
 30
0.0
 10
395.4818033854166
 20
786.9430080837673
 30
0.0
 10
395.2079182942708
 20
786.3983384874131
 30
0.0
 10
394.8541069878472
 20
785.913958062066
 30
0.0
 10
394.6945990668402
 20
785.3210571289062
 30
0.0
 10
394.4940945095486
 20
784.5817396375867
 30
0.0
 10
393.9680284288194
 20
783.8265747070312
 30
0.0
 10
393.5921685112847
 20
783.1733846028645
 30
0.0
 10
393.2352566189236
 20
782.5487887912326
 30
0.0
 10
392.9069390190972
 20
781.8732055664062
 30
0.0
 10
392.6489013671875
 20
781.1976223415797
 30
0.0
 10
392.3812174479166
 20
780.4965454101562
 30
0.0
 10
391.9509250217014
 20
779.9325832790798
 30
0.0
 10
391.6418999565972
 20
779.2411526150173
 30
0.0
 10
390.928076171875
 20
777.6701890733506
 30
0.0
 10
390.4533420138889
 20
775.993805609809
 30
0.0
 10
389.7074788411458
 20
774.4483357747395
 30
0.0
 10
389.4366943359375
 20
773.8874742296006
 30
0.0
 10
389.2134521484375
 20
773.2976738823784
 30
0.0
 10
388.9237196180555
 20
772.7530042860242
 30
0.0
 10
388.6749837239583
 20
772.2875718858506
 30
0.0
 10
388.5602620442708
 20
771.7363566080728
 30
0.0
 10
388.2863769531249
 20
771.2933173285589
 30
0.0
 10
387.3813503689236
 20
769.8374199761284
 30
0.0
 10
386.1862467447916
 20
768.3553398980034
 30
0.0
 10
384.8381808810764
 20
767.2942504882811
 30
0.0
 10
383.649622938368
 20
766.360629611545
 30
0.0
 10
382.725648328993
 20
765.8889960394964
 30
0.0
 10
382.1327473958333
 20
765.6722995334201
 30
0.0
  0
SPLINE
  5
100
330
A
100
AcDbEntity
  8
LAYER_1
 62
     7
100
AcDbSpline
210
0.0
220
0.0
230
1.0
 70
     8
 71
     3
 72
    17
 73
    13
 74
     0
 42
0.000000001
 43
0.00000001
 40
0.0
 40
0.0
 40
0.0
 40
0.0
 40
1.0
 40
1.0
 40
1.0
 40
2.0
 40
2.0
 40
2.0
 40
3.0
 40
3.0
 40
3.0
 40
4.0
 40
4.0
 40
4.0
 40
4.0
 10
411.424671766493
 20
787.9090128580729
 30
0.0
 10
411.418470594618
 20
787.8835191514756
 30
0.0
 10
412.3265977647569
 20
783.460016547309
 30
0.0
 10
411.7402425130208
 20
786.3408053927951
 30
0.0
 10
411.6255208333333
 20
786.8920206705728
 30
0.0
 10
411.9121527777777
 20
785.2225273980034
 30
0.0
 10
412.0110270182291
 20
784.6678670247395
 30
0.0
 10
412.1384955512152
 20
783.9509426540798
 30
0.0
 10
412.4158257378472
 20
783.4538153754339
 30
0.0
 10
412.7630913628472
 20
782.8164727105034
 30
0.0
 10
413.024574110243
 20
782.3382934570312
 30
0.0
 10
413.2984592013888
 20
782.0389146592881
 30
0.0
 10
413.4641682942708
 20
781.5417873806423
 30
0.0
  0
SPLINE
  5
FF
330
A
100
AcDbEntity
  8
LAYER_1
 62
     7
100
AcDbSpline
210
0.0
220
0.0
230
1.0
 70
     8
 71
     3
 72
    14
 73
    10
 74
     0
 42
0.000000001
 43
0.00000001
 40
0.0
 40
0.0
 40
0.0
 40
0.0
 40
1.0
 40
1.0
 40
1.0
 40
2.0
 40
2.0
 40
2.0
 40
3.0
 40
3.0
 40
3.0
 40
3.0
 10
404.194105360243
 20
819.2462904188367
 30
0.0
 10
403.9963568793402
 20
818.4370374891492
 30
0.0
 10
403.5471164279514
 20
817.7297593858506
 30
0.0
 10
403.2859781901041
 20
816.9394544813367
 30
0.0
 10
402.8877251519097
 20
815.7412502712673
 30
0.0
 10
402.6837754991319
 20
814.4920586480034
 30
0.0
 10
402.2855224609374
 20
813.2969550238714
 30
0.0
 10
402.011292860243
 20
812.4684095594617
 30
0.0
 10
401.558607313368
 20
811.5602823893229
 30
0.0
 10
401.5331136067708
 20
810.6359632703992
 30
0.0
  0
SPLINE
  5
FE
330
A
100
AcDbEntity
  8
LAYER_1
 62
     7
100
AcDbSpline
210
0.0
220
0.0
230
1.0
 70
     8
 71
     3
 72
    17
 73
    13
 74
     0
 42
0.000000001
 43
0.00000001
 40
0.0
 40
0.0
 40
0.0
 40
0.0
 40
1.0
 40
1.0
 40
1.0
 40
2.0
 40
2.0
 40
2.0
 40
3.0
 40
3.0
 40
3.0
 40
4.0
 40
4.0
 40
4.0
 40
4.0
 10
489.0040879991319
 20
766.5769816080729
 30
0.0
 10
488.8862657335069
 20
766.6534627278645
 30
0.0
 10
488.2868191189236
 20
766.2459079318576
 30
0.0
 10
488.1338568793402
 20
766.1918199327256
 30
0.0
 10
487.8024386935763
 20
766.0801988389757
 30
0.0
 10
487.4775661892361
 20
765.9210354275173
 30
0.0
 10
487.1685411241319
 20
765.7615275065103
 30
0.0
 10
486.7892361111111
 20
765.5668796115451
 30
0.0
 10
486.4257785373263
 20
765.3601738823784
 30
0.0
 10
486.0564643012152
 20
765.1562242296006
 30
0.0
 10
485.7725884331597
 20
765.0060180664062
 30
0.0
 10
485.4094753689236
 20
764.8881958007812
 30
0.0
 10
485.173486328125
 20
764.6842461480034
 30
0.0
  0
SPLINE
  5
FD
330
A
100
AcDbEntity
  8
LAYER_1
  6
AI9-LType1
 62
     7
100
AcDbSpline
210
0.0
220
0.0
230
1.0
 70
     8
 71
     3
 72
    26
 73
    22
 74
     0
 42
0.000000001
 43
0.00000001
 40
0.0
 40
0.0
 40
0.0
 40
0.0
 40
1.0
 40
1.0
 40
1.0
 40
2.0
 40
2.0
 40
2.0
 40
3.0
 40
3.0
 40
3.0
 40
4.0
 40
4.0
 40
4.0
 40
5.0
 40
5.0
 40
5.0
 40
6.0
 40
6.0
 40
6.0
 40
7.0
 40
7.0
 40
7.0
 40
7.0
 10
396.1604871961805
 20
821.107331000434
 30
0.0
 10
396.1604871961805
 20
821.107331000434
 30
0.0
 10
395.7081461588541
 20
821.2220526801215
 30
0.0
 10
451.6530517578125
 20
809.9731268988714
 30
0.0
 10
519.60859375
 20
796.302643500434
 30
0.0
 10
519.3856960720485
 20
795.2574015299479
 30
0.0
 10
519.3856960720485
 20
795.2574015299479
 30
0.0
 10
539.4488986545139
 20
791.0826348198784
 30
0.0
 10
539.4488986545139
 20
791.0826348198784
 30
0.0
 10
539.4488986545139
 20
791.0826348198784
 30
0.0
 10
539.4488986545139
 20
791.0826348198784
 30
0.0
 10
529.420570203993
 20
793.1669175889756
 30
0.0
 10
539.4488986545139
 20
791.0826348198784
 30
0.0
 10
549.4803276909722
 20
788.9955959743922
 30
0.0
 10
549.4803276909722
 20
788.9955959743922
 30
0.0
 10
549.4803276909722
 20
788.9955959743922
 30
0.0
 10
553.6709418402777
 20
787.9345065646701
 30
0.0
 10
553.6261555989582
 20
788.0457831488715
 30
0.0
 10
553.6261555989582
 20
788.0457831488715
 30
0.0
 10
553.6261555989582
 20
788.0457831488715
 30
0.0
 10
573.5749810112846
 20
735.4085137261284
 30
0.0
 10
573.568435329861
 20
735.5614759657118
 30
0.0
  0
INSERT
  5
D1
330
A
100
AcDbEntity
  8
LAYER_1
 62
     7
100
AcDbBlockReference
  2
AI9-BLK32
 10
385.432804
 20
772.628809
 30
0.0
  0
INSERT
  5
A6
330
A
100
AcDbEntity
  8
LAYER_1
 62
     7
100
AcDbBlockReference
  2
AI9-BLK23
 10
486.362217
 20
762.345371
 30
0.0
  0
INSERT
  5
A2
330
A
100
AcDbEntity
  8
LAYER_1
 62
     7
100
AcDbBlockReference
  2
AI9-BLK22
 10
473.532853
 20
764.633259
 30
0.0
  0
INSERT
  5
9D
330
A
100
AcDbEntity
  8
LAYER_1
 62
     7
100
AcDbBlockReference
  2
AI9-BLK21
 10
488.400163
 20
762.535023
 30
0.0
  0
INSERT
  5
98
330
A
100
AcDbEntity
  8
LAYER_1
 62
     7
100
AcDbBlockReference
  2
AI9-BLK20
 10
486.806806
 20
762.163642
 30
0.0
  0
INSERT
  5
93
330
A
100
AcDbEntity
  8
LAYER_1
 62
     7
100
AcDbBlockReference
  2
AI9-BLK19
 10
486.099356
 20
761.943845
 30
0.0
  0
INSERT
  5
8E
330
A
100
AcDbEntity
  8
LAYER_1
 62
     7
100
AcDbBlockReference
  2
AI9-BLK18
 10
484.590232
 20
761.504079
 30
0.0
  0
INSERT
  5
89
330
A
100
AcDbEntity
  8
LAYER_1
 62
     7
100
AcDbBlockReference
  2
AI9-BLK17
 10
483.945138
 20
761.301851
 30
0.0
  0
INSERT
  5
84
330
A
100
AcDbEntity
  8
LAYER_1
 62
     7
100
AcDbBlockReference
  2
AI9-BLK16
 10
487.496514
 20
762.299207
 30
0.0
  0
INSERT
  5
7F
330
A
100
AcDbEntity
  8
LAYER_1
 62
     7
100
AcDbBlockReference
  2
AI9-BLK15
 10
482.541433
 20
761.596407
 30
0.0
  0
INSERT
  5
7A
330
A
100
AcDbEntity
  8
LAYER_1
 62
     7
100
AcDbBlockReference
  2
AI9-BLK14
 10
482.7788
 20
762.953947
 30
0.0
  0
INSERT
  5
75
330
A
100
AcDbEntity
  8
LAYER_1
 62
     7
100
AcDbBlockReference
  2
AI9-BLK13
 10
487.569895
 20
765.497116
 30
0.0
  0
INSERT
  5
70
330
A
100
AcDbEntity
  8
LAYER_1
 62
     7
100
AcDbBlockReference
  2
AI9-BLK12
 10
486.902407
 20
765.136932
 30
0.0
  0
INSERT
  5
6B
330
A
100
AcDbEntity
  8
LAYER_1
 62
     7
100
AcDbBlockReference
  2
AI9-BLK11
 10
486.324148
 20
764.756076
 30
0.0
  0
INSERT
  5
66
330
A
100
AcDbEntity
  8
LAYER_1
 62
     7
100
AcDbBlockReference
  2
AI9-BLK10
 10
485.743994
 20
764.52181
 30
0.0
  0
INSERT
  5
61
330
A
100
AcDbEntity
  8
LAYER_1
 62
     7
100
AcDbBlockReference
  2
AI9-BLK9
 10
488.334878
 20
765.874699
 30
0.0
  0
SPLINE
  5
5F
330
A
100
AcDbEntity
  8
LAYER_1
 62
     7
100
AcDbSpline
210
0.0
220
0.0
230
1.0
 70
    11
 71
     3
 72
    29
 73
    25
 74
     0
 42
0.000000001
 43
0.00000001
 40
0.0
 40
0.0
 40
0.0
 40
0.0
 40
1.0
 40
1.0
 40
1.0
 40
2.0
 40
2.0
 40
2.0
 40
3.0
 40
3.0
 40
3.0
 40
4.0
 40
4.0
 40
4.0
 40
5.0
 40
5.0
 40
5.0
 40
6.0
 40
6.0
 40
6.0
 40
7.0
 40
7.0
 40
7.0
 40
8.0
 40
8.0
 40
8.0
 40
8.0
 10
484.7624864366319
 20
758.655329047309
 30
0.0
 10
485.0332709418402
 20
758.6298353407118
 30
0.0
 10
485.5589925130208
 20
758.661530219184
 30
0.0
 10
485.348841688368
 20
759.1011244032118
 30
0.0
 10
485.3137017144097
 20
759.1683037651909
 30
0.0
 10
485.2468668619791
 20
759.2478854709201
 30
0.0
 10
485.2020806206597
 20
759.3050740559895
 30
0.0
 10
485.0842583550347
 20
759.4645819769964
 30
0.0
 10
484.9281955295139
 20
759.5665568033853
 30
0.0
 10
484.778333875868
 20
759.690924750434
 30
0.0
 10
484.6956515842014
 20
759.7639607747395
 30
0.0
 10
484.5137505425347
 20
759.9934041341145
 30
0.0
 10
484.3993733723958
 20
759.9968492296006
 30
0.0
 10
484.2843071831597
 20
760.0030504014757
 30
0.0
 10
484.1602837456597
 20
759.7164184570312
 30
0.0
 10
484.0803575303819
 20
759.6109985351562
 30
0.0
 10
483.9625352647569
 20
759.4645819769964
 30
0.0
 10
483.507093641493
 20
758.9037204318576
 30
0.0
 10
483.7809787326389
 20
758.7573038736979
 30
0.0
 10
483.8957004123263
 20
758.6997707790798
 30
0.0
 10
484.1220431857639
 20
758.7442125108506
 30
0.0
 10
484.2526123046874
 20
758.7221638997395
 30
0.0
 10
484.424867078993
 20
758.6870239257812
 30
0.0
 10
484.5809299045138
 20
758.6808227539062
 30
0.0
 10
484.7624864366319
 20
758.655329047309
 30
0.0
  0
HATCH
  5
5E
330
A
100
AcDbEntity
  8
LAYER_1
 62
   252
100
AcDbHatch
 10
0.0
 20
0.0
 30
0.0
210
0.0
220
0.0
230
1.0
  2
SOLID
 70
     1
 71
     0
 91
        1
 92
        1
 93
        1
 72
     4
 94
        3
 73
     0
 74
     0
 95
       29
 96
       25
 40
0.0
 40
0.0
 40
0.0
 40
0.0
 40
1.0
 40
1.0
 40
1.0
 40
2.0
 40
2.0
 40
2.0
 40
3.0
 40
3.0
 40
3.0
 40
4.0
 40
4.0
 40
4.0
 40
5.0
 40
5.0
 40
5.0
 40
6.0
 40
6.0
 40
6.0
 40
7.0
 40
7.0
 40
7.0
 40
8.0
 40
8.0
 40
8.0
 40
8.0
 10
484.7624864366319
 20
758.655329047309
 10
485.0332709418402
 20
758.6298353407118
 10
485.5589925130208
 20
758.661530219184
 10
485.348841688368
 20
759.1011244032118
 10
485.3137017144097
 20
759.1683037651909
 10
485.2468668619791
 20
759.2478854709201
 10
485.2020806206597
 20
759.3050740559895
 10
485.0842583550347
 20
759.4645819769964
 10
484.9281955295139
 20
759.5665568033853
 10
484.778333875868
 20
759.690924750434
 10
484.6956515842014
 20
759.7639607747395
 10
484.5137505425347
 20
759.9934041341145
 10
484.3993733723958
 20
759.9968492296006
 10
484.2843071831597
 20
760.0030504014757
 10
484.1602837456597
 20
759.7164184570312
 10
484.0803575303819
 20
759.6109985351562
 10
483.9625352647569
 20
759.4645819769964
 10
483.507093641493
 20
758.9037204318576
 10
483.7809787326389
 20
758.7573038736979
 10
483.8957004123263
 20
758.6997707790798
 10
484.1220431857639
 20
758.7442125108506
 10
484.2526123046874
 20
758.7221638997395
 10
484.424867078993
 20
758.6870239257812
 10
484.5809299045138
 20
758.6808227539062
 10
484.7624864366319
 20
758.655329047309
 97
        0
 97
        0
 75
     0
 76
     1
 98
        1
 10
0.0
 20
0.0
  0
SPLINE
  5
5D
330
A
100
AcDbEntity
  8
LAYER_1
 62
     7
100
AcDbSpline
210
0.0
220
0.0
230
1.0
 70
    11
 71
     3
 72
    29
 73
    25
 74
     0
 42
0.000000001
 43
0.00000001
 40
0.0
 40
0.0
 40
0.0
 40
0.0
 40
1.0
 40
1.0
 40
1.0
 40
2.0
 40
2.0
 40
2.0
 40
3.0
 40
3.0
 40
3.0
 40
4.0
 40
4.0
 40
4.0
 40
5.0
 40
5.0
 40
5.0
 40
6.0
 40
6.0
 40
6.0
 40
7.0
 40
7.0
 40
7.0
 40
8.0
 40
8.0
 40
8.0
 40
8.0
 10
482.012611219618
 20
765.7549818250867
 30
0.0
 10
482.2833957248263
 20
765.7039944118923
 30
0.0
 10
482.5669270833333
 20
765.6309583875867
 30
0.0
 10
482.8284098307291
 20
765.544831000434
 30
0.0
 10
482.930384657118
 20
765.5131361219617
 30
0.0
 10
483.2328640407986
 20
765.3439819335937
 30
0.0
 10
483.3348388671874
 20
765.4428561740451
 30
0.0
 10
483.4240668402778
 20
765.5255384657117
 30
0.0
 10
483.2903971354166
 20
765.6722995334201
 30
0.0
 10
483.2201171875
 20
765.726387532552
 30
0.0
 10
483.1022949218749
 20
765.8252617730034
 30
0.0
 10
482.9207383897569
 20
765.8538560655381
 30
0.0
 10
482.7739773220486
 20
765.901742892795
 30
0.0
 10
482.595521375868
 20
765.9589314778646
 30
0.0
 10
482.4170654296875
 20
766.0230102539061
 30
0.0
 10
482.2386094835069
 20
766.0739976671006
 30
0.0
 10
482.1176866319444
 20
766.1118937174479
 30
0.0
 10
481.8944444444444
 20
766.2138685438367
 30
0.0
 10
481.7669759114583
 20
766.2014662000868
 30
0.0
 10
481.6587999131944
 20
766.1787285698784
 30
0.0
 10
481.4834445529514
 20
765.9975165473089
 30
0.0
 10
481.5568250868055
 20
765.8793497721354
 30
0.0
 10
481.6140136718749
 20
765.7804755316839
 30
0.0
 10
481.9106363932291
 20
765.7742743598089
 30
0.0
 10
482.012611219618
 20
765.7549818250867
 30
0.0
  0
HATCH
  5
5C
330
A
100
AcDbEntity
  8
LAYER_1
 62
   252
100
AcDbHatch
 10
0.0
 20
0.0
 30
0.0
210
0.0
220
0.0
230
1.0
  2
SOLID
 70
     1
 71
     0
 91
        1
 92
        1
 93
        1
 72
     4
 94
        3
 73
     0
 74
     0
 95
       29
 96
       25
 40
0.0
 40
0.0
 40
0.0
 40
0.0
 40
1.0
 40
1.0
 40
1.0
 40
2.0
 40
2.0
 40
2.0
 40
3.0
 40
3.0
 40
3.0
 40
4.0
 40
4.0
 40
4.0
 40
5.0
 40
5.0
 40
5.0
 40
6.0
 40
6.0
 40
6.0
 40
7.0
 40
7.0
 40
7.0
 40
8.0
 40
8.0
 40
8.0
 40
8.0
 10
482.012611219618
 20
765.7549818250867
 10
482.2833957248263
 20
765.7039944118923
 10
482.5669270833333
 20
765.6309583875867
 10
482.8284098307291
 20
765.544831000434
 10
482.930384657118
 20
765.5131361219617
 10
483.2328640407986
 20
765.3439819335937
 10
483.3348388671874
 20
765.4428561740451
 10
483.4240668402778
 20
765.5255384657117
 10
483.2903971354166
 20
765.6722995334201
 10
483.2201171875
 20
765.726387532552
 10
483.1022949218749
 20
765.8252617730034
 10
482.9207383897569
 20
765.8538560655381
 10
482.7739773220486
 20
765.901742892795
 10
482.595521375868
 20
765.9589314778646
 10
482.4170654296875
 20
766.0230102539061
 10
482.2386094835069
 20
766.0739976671006
 10
482.1176866319444
 20
766.1118937174479
 10
481.8944444444444
 20
766.2138685438367
 10
481.7669759114583
 20
766.2014662000868
 10
481.6587999131944
 20
766.1787285698784
 10
481.4834445529514
 20
765.9975165473089
 10
481.5568250868055
 20
765.8793497721354
 10
481.6140136718749
 20
765.7804755316839
 10
481.9106363932291
 20
765.7742743598089
 10
482.012611219618
 20
765.7549818250867
 97
        0
 97
        0
 75
     0
 76
     1
 98
        1
 10
0.0
 20
0.0
  0
SPLINE
  5
5B
330
A
100
AcDbEntity
  8
LAYER_1
 62
     7
100
AcDbSpline
210
0.0
220
0.0
230
1.0
 70
    11
 71
     3
 72
    23
 73
    19
 74
     0
 42
0.000000001
 43
0.00000001
 40
0.0
 40
0.0
 40
0.0
 40
0.0
 40
1.0
 40
1.0
 40
1.0
 40
2.0
 40
2.0
 40
2.0
 40
3.0
 40
3.0
 40
3.0
 40
4.0
 40
4.0
 40
4.0
 40
5.0
 40
5.0
 40
5.0
 40
6.0
 40
6.0
 40
6.0
 40
6.0
 10
483.8509141710069
 20
766.2459079318576
 30
0.0
 10
483.624915907118
 20
766.414717610677
 30
0.0
 10
483.0799018012152
 20
766.9593872070312
 30
0.0
 10
482.7708767361111
 20
766.831918674045
 30
0.0
 10
482.6974962022569
 20
766.8064249674478
 30
0.0
 10
482.5510796440972
 20
766.6534627278645
 30
0.0
 10
482.5669270833333
 20
766.5645792643229
 30
0.0
 10
482.5827745225694
 20
766.4591593424478
 30
0.0
 10
482.8759521484375
 20
766.4081719292534
 30
0.0
 10
482.9524332682291
 20
766.3733764648437
 30
0.0
 10
483.2328640407986
 20
766.2459079318576
 30
0.0
 10
483.4878011067708
 20
766.0547051323784
 30
0.0
 10
483.7744330512152
 20
765.9399834526909
 30
0.0
 10
483.8574598524305
 20
765.9079440646701
 30
0.0
 10
484.0934488932291
 20
765.8190606011284
 30
0.0
 10
484.1409912109374
 20
765.9399834526909
 30
0.0
 10
484.1823323567708
 20
766.0609063042534
 30
0.0
 10
483.9211941189236
 20
766.1918199327256
 30
0.0
 10
483.8509141710069
 20
766.2459079318576
 30
0.0
  0
HATCH
  5
5A
330
A
100
AcDbEntity
  8
LAYER_1
 62
   252
100
AcDbHatch
 10
0.0
 20
0.0
 30
0.0
210
0.0
220
0.0
230
1.0
  2
SOLID
 70
     1
 71
     0
 91
        1
 92
        1
 93
        1
 72
     4
 94
        3
 73
     0
 74
     0
 95
       23
 96
       19
 40
0.0
 40
0.0
 40
0.0
 40
0.0
 40
1.0
 40
1.0
 40
1.0
 40
2.0
 40
2.0
 40
2.0
 40
3.0
 40
3.0
 40
3.0
 40
4.0
 40
4.0
 40
4.0
 40
5.0
 40
5.0
 40
5.0
 40
6.0
 40
6.0
 40
6.0
 40
6.0
 10
483.8509141710069
 20
766.2459079318576
 10
483.624915907118
 20
766.414717610677
 10
483.0799018012152
 20
766.9593872070312
 10
482.7708767361111
 20
766.831918674045
 10
482.6974962022569
 20
766.8064249674478
 10
482.5510796440972
 20
766.6534627278645
 10
482.5669270833333
 20
766.5645792643229
 10
482.5827745225694
 20
766.4591593424478
 10
482.8759521484375
 20
766.4081719292534
 10
482.9524332682291
 20
766.3733764648437
 10
483.2328640407986
 20
766.2459079318576
 10
483.4878011067708
 20
766.0547051323784
 10
483.7744330512152
 20
765.9399834526909
 10
483.8574598524305
 20
765.9079440646701
 10
484.0934488932291
 20
765.8190606011284
 10
484.1409912109374
 20
765.9399834526909
 10
484.1823323567708
 20
766.0609063042534
 10
483.9211941189236
 20
766.1918199327256
 10
483.8509141710069
 20
766.2459079318576
 97
        0
 97
        0
 75
     0
 76
     1
 98
        1
 10
0.0
 20
0.0
  0
SPLINE
  5
59
330
A
100
AcDbEntity
  8
LAYER_1
 62
     7
100
AcDbSpline
210
0.0
220
0.0
230
1.0
 70
    11
 71
     3
 72
    23
 73
    19
 74
     0
 42
0.000000001
 43
0.00000001
 40
0.0
 40
0.0
 40
0.0
 40
0.0
 40
1.0
 40
1.0
 40
1.0
 40
2.0
 40
2.0
 40
2.0
 40
3.0
 40
3.0
 40
3.0
 40
4.0
 40
4.0
 40
4.0
 40
5.0
 40
5.0
 40
5.0
 40
6.0
 40
6.0
 40
6.0
 40
6.0
 10
483.3923719618055
 20
767.0613620334201
 30
0.0
 10
483.1212429470486
 20
767.2687567816839
 30
0.0
 10
482.8091172960069
 20
767.3993259006076
 30
0.0
 10
482.5062934027777
 20
767.5588338216145
 30
0.0
 10
482.130433485243
 20
767.7562377929687
 30
0.0
 10
482.4522054036458
 20
767.8006795247395
 30
0.0
 10
482.713343641493
 20
767.7882771809896
 30
0.0
 10
483.0323594835069
 20
767.7627834743923
 30
0.0
 10
483.3475857204861
 20
767.7052503797743
 30
0.0
 10
483.6693576388889
 20
767.7117960611979
 30
0.0
 10
483.9625352647569
 20
767.721442328559
 30
0.0
 10
484.6891059027777
 20
767.7496921115451
 30
0.0
 10
484.8196750217014
 20
767.4437676323784
 30
0.0
 10
484.9250949435764
 20
767.2019219292534
 30
0.0
 10
484.8231201171874
 20
766.831918674045
 30
0.0
 10
484.5743842230902
 20
766.7333889431422
 30
0.0
 10
484.1506374782986
 20
766.5611341688367
 30
0.0
 10
483.7203450520833
 20
766.8129706488714
 30
0.0
 10
483.3923719618055
 20
767.0613620334201
 30
0.0
  0
HATCH
  5
58
330
A
100
AcDbEntity
  8
LAYER_1
 62
   252
100
AcDbHatch
 10
0.0
 20
0.0
 30
0.0
210
0.0
220
0.0
230
1.0
  2
SOLID
 70
     1
 71
     0
 91
        1
 92
        1
 93
        1
 72
     4
 94
        3
 73
     0
 74
     0
 95
       23
 96
       19
 40
0.0
 40
0.0
 40
0.0
 40
0.0
 40
1.0
 40
1.0
 40
1.0
 40
2.0
 40
2.0
 40
2.0
 40
3.0
 40
3.0
 40
3.0
 40
4.0
 40
4.0
 40
4.0
 40
5.0
 40
5.0
 40
5.0
 40
6.0
 40
6.0
 40
6.0
 40
6.0
 10
483.3923719618055
 20
767.0613620334201
 10
483.1212429470486
 20
767.2687567816839
 10
482.8091172960069
 20
767.3993259006076
 10
482.5062934027777
 20
767.5588338216145
 10
482.130433485243
 20
767.7562377929687
 10
482.4522054036458
 20
767.8006795247395
 10
482.713343641493
 20
767.7882771809896
 10
483.0323594835069
 20
767.7627834743923
 10
483.3475857204861
 20
767.7052503797743
 10
483.6693576388889
 20
767.7117960611979
 10
483.9625352647569
 20
767.721442328559
 10
484.6891059027777
 20
767.7496921115451
 10
484.8196750217014
 20
767.4437676323784
 10
484.9250949435764
 20
767.2019219292534
 10
484.8231201171874
 20
766.831918674045
 10
484.5743842230902
 20
766.7333889431422
 10
484.1506374782986
 20
766.5611341688367
 10
483.7203450520833
 20
766.8129706488714
 10
483.3923719618055
 20
767.0613620334201
 97
        0
 97
        0
 75
     0
 76
     1
 98
        1
 10
0.0
 20
0.0
  0
SPLINE
  5
57
330
A
100
AcDbEntity
  8
LAYER_1
 62
     7
100
AcDbSpline
210
0.0
220
0.0
230
1.0
 70
    11
 71
     3
 72
    23
 73
    19
 74
     0
 42
0.000000001
 43
0.00000001
 40
0.0
 40
0.0
 40
0.0
 40
0.0
 40
1.0
 40
1.0
 40
1.0
 40
2.0
 40
2.0
 40
2.0
 40
3.0
 40
3.0
 40
3.0
 40
4.0
 40
4.0
 40
4.0
 40
5.0
 40
5.0
 40
5.0
 40
6.0
 40
6.0
 40
6.0
 40
6.0
 10
481.9871175130208
 20
768.6102769639756
 30
0.0
 10
482.0029649522569
 20
768.9034545898437
 30
0.0
 10
481.8944444444444
 20
769.2028333875867
 30
0.0
 10
481.6650010850694
 20
769.4005818684896
 30
0.0
 10
481.3845703124999
 20
769.6396714952256
 30
0.0
 10
481.1041395399305
 20
769.5662909613715
 30
0.0
 10
480.7792670355902
 20
769.4770629882812
 30
0.0
 10
480.5849636501736
 20
769.4260755750868
 30
0.0
 10
480.4540500217013
 20
769.3654418945312
 30
0.0
 10
480.5084825303819
 20
769.1456448025173
 30
0.0
 10
480.6070122612847
 20
768.769440375434
 30
0.0
 10
480.8619493272569
 20
768.4445678710937
 30
0.0
 10
481.0755452473958
 20
768.1196953667534
 30
0.0
 10
481.2478000217013
 20
767.8613132052951
 30
0.0
 10
481.4452039930555
 20
767.380377875434
 30
0.0
 10
481.837255859375
 20
767.5553887261284
 30
0.0
 10
482.1590277777777
 20
767.6987046983506
 30
0.0
 10
481.970925564236
 20
768.3298461914062
 30
0.0
 10
481.9871175130208
 20
768.6102769639756
 30
0.0
  0
HATCH
  5
56
330
A
100
AcDbEntity
  8
LAYER_1
 62
   252
100
AcDbHatch
 10
0.0
 20
0.0
 30
0.0
210
0.0
220
0.0
230
1.0
  2
SOLID
 70
     1
 71
     0
 91
        1
 92
        1
 93
        1
 72
     4
 94
        3
 73
     0
 74
     0
 95
       23
 96
       19
 40
0.0
 40
0.0
 40
0.0
 40
0.0
 40
1.0
 40
1.0
 40
1.0
 40
2.0
 40
2.0
 40
2.0
 40
3.0
 40
3.0
 40
3.0
 40
4.0
 40
4.0
 40
4.0
 40
5.0
 40
5.0
 40
5.0
 40
6.0
 40
6.0
 40
6.0
 40
6.0
 10
481.9871175130208
 20
768.6102769639756
 10
482.0029649522569
 20
768.9034545898437
 10
481.8944444444444
 20
769.2028333875867
 10
481.6650010850694
 20
769.4005818684896
 10
481.3845703124999
 20
769.6396714952256
 10
481.1041395399305
 20
769.5662909613715
 10
480.7792670355902
 20
769.4770629882812
 10
480.5849636501736
 20
769.4260755750868
 10
480.4540500217013
 20
769.3654418945312
 10
480.5084825303819
 20
769.1456448025173
 10
480.6070122612847
 20
768.769440375434
 10
480.8619493272569
 20
768.4445678710937
 10
481.0755452473958
 20
768.1196953667534
 10
481.2478000217013
 20
767.8613132052951
 10
481.4452039930555
 20
767.380377875434
 10
481.837255859375
 20
767.5553887261284
 10
482.1590277777777
 20
767.6987046983506
 10
481.970925564236
 20
768.3298461914062
 10
481.9871175130208
 20
768.6102769639756
 97
        0
 97
        0
 75
     0
 76
     1
 98
        1
 10
0.0
 20
0.0
  0
SPLINE
  5
55
330
A
100
AcDbEntity
  8
LAYER_1
 62
     7
100
AcDbSpline
210
0.0
220
0.0
230
1.0
 70
    11
 71
     3
 72
    26
 73
    22
 74
     0
 42
0.000000001
 43
0.00000001
 40
0.0
 40
0.0
 40
0.0
 40
0.0
 40
1.0
 40
1.0
 40
1.0
 40
2.0
 40
2.0
 40
2.0
 40
3.0
 40
3.0
 40
3.0
 40
4.0
 40
4.0
 40
4.0
 40
5.0
 40
5.0
 40
5.0
 40
6.0
 40
6.0
 40
6.0
 40
7.0
 40
7.0
 40
7.0
 40
7.0
 10
482.8632052951389
 20
767.9474405924478
 30
0.0
 10
482.98447265625
 20
767.9346937391492
 30
0.0
 10
483.1088406032986
 20
767.9412394205729
 30
0.0
 10
483.159828016493
 20
767.9536417643228
 30
0.0
 10
483.3444851345486
 20
768.0046291775172
 30
0.0
 10
483.4912462022569
 20
768.2595662434895
 30
0.0
 10
483.6469645182291
 20
768.3711873372395
 30
0.0
 10
483.9435872395833
 20
768.5847832573784
 30
0.0
 10
484.0614095052083
 20
769.0374688042534
 30
0.0
 10
483.6979519314236
 20
769.2700127495659
 30
0.0
 10
483.5453342013889
 20
769.3688869900172
 30
0.0
 10
483.401673719618
 20
769.3178995768228
 30
0.0
 10
483.2394097222222
 20
769.2924058702256
 30
0.0
 10
482.7453830295138
 20
769.2159247504339
 30
0.0
 10
482.7484836154513
 20
768.9224026150173
 30
0.0
 10
482.643408203125
 20
768.5145033094617
 30
0.0
 10
482.6082682291666
 20
768.3711873372395
 30
0.0
 10
482.4680528428819
 20
768.1227959526909
 30
0.0
 10
482.5827745225694
 20
768.0142754448784
 30
0.0
 10
482.6210150824652
 20
767.97913547092
 30
0.0
 10
482.7422824435764
 20
767.9536417643228
 30
0.0
 10
482.8632052951389
 20
767.9474405924478
 30
0.0
  0
HATCH
  5
54
330
A
100
AcDbEntity
  8
LAYER_1
 62
   252
100
AcDbHatch
 10
0.0
 20
0.0
 30
0.0
210
0.0
220
0.0
230
1.0
  2
SOLID
 70
     1
 71
     0
 91
        1
 92
        1
 93
        1
 72
     4
 94
        3
 73
     0
 74
     0
 95
       26
 96
       22
 40
0.0
 40
0.0
 40
0.0
 40
0.0
 40
1.0
 40
1.0
 40
1.0
 40
2.0
 40
2.0
 40
2.0
 40
3.0
 40
3.0
 40
3.0
 40
4.0
 40
4.0
 40
4.0
 40
5.0
 40
5.0
 40
5.0
 40
6.0
 40
6.0
 40
6.0
 40
7.0
 40
7.0
 40
7.0
 40
7.0
 10
482.8632052951389
 20
767.9474405924478
 10
482.98447265625
 20
767.9346937391492
 10
483.1088406032986
 20
767.9412394205729
 10
483.159828016493
 20
767.9536417643228
 10
483.3444851345486
 20
768.0046291775172
 10
483.4912462022569
 20
768.2595662434895
 10
483.6469645182291
 20
768.3711873372395
 10
483.9435872395833
 20
768.5847832573784
 10
484.0614095052083
 20
769.0374688042534
 10
483.6979519314236
 20
769.2700127495659
 10
483.5453342013889
 20
769.3688869900172
 10
483.401673719618
 20
769.3178995768228
 10
483.2394097222222
 20
769.2924058702256
 10
482.7453830295138
 20
769.2159247504339
 10
482.7484836154513
 20
768.9224026150173
 10
482.643408203125
 20
768.5145033094617
 10
482.6082682291666
 20
768.3711873372395
 10
482.4680528428819
 20
768.1227959526909
 10
482.5827745225694
 20
768.0142754448784
 10
482.6210150824652
 20
767.97913547092
 10
482.7422824435764
 20
767.9536417643228
 10
482.8632052951389
 20
767.9474405924478
 97
        0
 97
        0
 75
     0
 76
     1
 98
        1
 10
0.0
 20
0.0
  0
SPLINE
  5
53
330
A
100
AcDbEntity
  8
LAYER_1
 62
     7
100
AcDbSpline
210
0.0
220
0.0
230
1.0
 70
    11
 71
     3
 72
    17
 73
    13
 74
     0
 42
0.000000001
 43
0.00000001
 40
0.0
 40
0.0
 40
0.0
 40
0.0
 40
1.0
 40
1.0
 40
1.0
 40
2.0
 40
2.0
 40
2.0
 40
3.0
 40
3.0
 40
3.0
 40
4.0
 40
4.0
 40
4.0
 40
4.0
 10
484.0328152126735
 20
769.6872138129339
 30
0.0
 10
484.02626953125
 20
769.5569892035589
 30
0.0
 10
484.0390163845486
 20
769.4133287217882
 30
0.0
 10
484.1506374782986
 20
769.3303019205729
 30
0.0
 10
484.2302191840278
 20
769.2700127495659
 30
0.0
 10
484.4565619574652
 20
769.2255710177951
 30
0.0
 10
484.5361436631944
 20
769.2793145073784
 30
0.0
 10
484.7369927300347
 20
769.4260755750868
 30
0.0
 10
484.3738796657985
 20
769.6493177625867
 30
0.0
 10
484.2719048394097
 20
769.7320000542534
 30
0.0
 10
484.1347900390625
 20
769.8467217339409
 30
0.0
 10
484.0455620659722
 20
769.9201022677951
 30
0.0
 10
484.0328152126735
 20
769.6872138129339
 30
0.0
  0
HATCH
  5
52
330
A
100
AcDbEntity
  8
LAYER_1
 62
   252
100
AcDbHatch
 10
0.0
 20
0.0
 30
0.0
210
0.0
220
0.0
230
1.0
  2
SOLID
 70
     1
 71
     0
 91
        1
 92
        1
 93
        1
 72
     4
 94
        3
 73
     0
 74
     0
 95
       17
 96
       13
 40
0.0
 40
0.0
 40
0.0
 40
0.0
 40
1.0
 40
1.0
 40
1.0
 40
2.0
 40
2.0
 40
2.0
 40
3.0
 40
3.0
 40
3.0
 40
4.0
 40
4.0
 40
4.0
 40
4.0
 10
484.0328152126735
 20
769.6872138129339
 10
484.02626953125
 20
769.5569892035589
 10
484.0390163845486
 20
769.4133287217882
 10
484.1506374782986
 20
769.3303019205729
 10
484.2302191840278
 20
769.2700127495659
 10
484.4565619574652
 20
769.2255710177951
 10
484.5361436631944
 20
769.2793145073784
 10
484.7369927300347
 20
769.4260755750868
 10
484.3738796657985
 20
769.6493177625867
 10
484.2719048394097
 20
769.7320000542534
 10
484.1347900390625
 20
769.8467217339409
 10
484.0455620659722
 20
769.9201022677951
 10
484.0328152126735
 20
769.6872138129339
 97
        0
 97
        0
 75
     0
 76
     1
 98
        1
 10
0.0
 20
0.0
  0
INSERT
  5
40
330
A
100
AcDbEntity
  8
LAYER_1
 62
     7
100
AcDbBlockReference
  2
AI9-BLK5
 10
390.555145
 20
732.447971
 30
0.0
  0
INSERT
  5
2D
330
A
100
AcDbEntity
  8
LAYER_1
 62
     7
100
AcDbBlockReference
  2
AI9-BLK1
 10
546.994864
 20
732.215771
 30
0.0
  0
MTEXT
  5
2B
330
A
100
AcDbEntity
  8
LAYER_1
 62
     7
100
AcDbMText
 10
509.210607
 20
754.31149
 30
0.0
 40
2.099868
 41
0.0
 46
0.0
 71
     1
 72
     2
  1
\fHelvetica|b1|i0;
  7
STD
 73
     1
 44
1.0
  0
MTEXT
  5
2A
330
A
100
AcDbEntity
  8
LAYER_1
 62
     7
100
AcDbMText
 10
392.84975
 20
733.024527
 30
0.0
 40
1.232675
 41
0.0
 46
0.0
 71
     1
 72
     2
  1
\W1.00;\fHelvetica|b0|i0;790/300
  7
STD
 73
     1
 44
1.0
  0
MTEXT
  5
29
330
A
100
AcDbEntity
  8
LAYER_1
 62
     7
100
AcDbMText
 10
539.00896
 20
732.839526
 30
0.0
 40
1.232675
 41
0.0
 46
0.0
 71
     1
 72
     2
  1
\W1.00;\fHelvetica|b0|i0;800/300
  7
STD
 73
     1
 44
1.0
  0
ENDSEC
  0
SECTION
  2
OBJECTS
  0
DICTIONARY
  5
19
330
0
100
AcDbDictionary
281
     1
  3
ACAD_DETAILVIEWSTYLE
350
1F2
  3
ACAD_GROUP
350
1A
  3
ACAD_LAYOUT
350
1E
  3
ACAD_MATERIAL
350
1B2
  3
ACAD_MLEADERSTYLE
350
1B8
  3
ACAD_MLINESTYLE
350
1B
  3
ACAD_PLOTSETTINGS
350
22
  3
ACAD_PLOTSTYLENAME
350
1F
  3
ACAD_SCALELIST
350
177
  3
ACAD_SECTIONVIEWSTYLE
350
1F3
  3
ACAD_TABLESTYLE
350
1B6
  3
ACAD_VISUALSTYLE
350
199
  3
ACAD_WIPEOUT_VARS
350
23
  3
ACDB_RECOMPOSE_DATA
350
1EE
  3
AcDbVariableDictionary
350
1BA
  0
DICTIONARY
  5
1F2
102
{ACAD_REACTORS
330
19
102
}
330
19
100
AcDbDictionary
281
     1
  0
DICTIONARY
  5
1A
102
{ACAD_REACTORS
330
19
102
}
330
19
100
AcDbDictionary
281
     1
  0
DICTIONARY
  5
1E
102
{ACAD_REACTORS
330
19
102
}
330
19
100
AcDbDictionary
281
     1
  3
Layout1
350
21
  3
Model
350
20
  0
DICTIONARY
  5
1B2
102
{ACAD_REACTORS
330
19
102
}
330
19
100
AcDbDictionary
281
     1
  3
ByBlock
350
1B4
  3
ByLayer
350
1B3
  3
Global
350
1B5
  0
DICTIONARY
  5
1B8
102
{ACAD_REACTORS
330
19
102
}
330
19
100
AcDbDictionary
281
     1
  3
Standard
350
1B9
  0
DICTIONARY
  5
1B
102
{ACAD_REACTORS
330
19
102
}
330
19
100
AcDbDictionary
281
     1
  3
Standard
350
1C
  0
DICTIONARY
  5
22
102
{ACAD_REACTORS
330
19
102
}
330
19
100
AcDbDictionary
281
     1
  0
ACDBDICTIONARYWDFLT
  5
1F
102
{ACAD_REACTORS
330
19
102
}
330
19
100
AcDbDictionary
281
     1
  3
Normal
350
1D
100
AcDbDictionaryWithDefault
340
1D
  0
DICTIONARY
  5
177
102
{ACAD_REACTORS
330
19
102
}
330
19
100
AcDbDictionary
281
     1
  3
A0
350
178
  3
A1
350
179
  3
A2
350
17A
  3
A3
350
17B
  3
A4
350
17C
  3
A5
350
17D
  3
A6
350
17E
  3
A7
350
17F
  3
A8
350
180
  3
A9
350
181
  3
B0
350
182
  3
B1
350
183
  3
B2
350
184
  3
B3
350
185
  3
B4
350
186
  3
B5
350
187
  3
B6
350
188
  3
B7
350
189
  3
B8
350
18A
  3
B9
350
18B
  3
C0
350
18C
  3
C1
350
18D
  3
C2
350
18E
  3
C3
350
18F
  3
C4
350
190
  3
C5
350
191
  3
C6
350
192
  3
C7
350
193
  3
C8
350
194
  3
C9
350
195
  3
D0
350
196
  3
D1
350
197
  3
D2
350
198
  0
DICTIONARY
  5
1F3
102
{ACAD_REACTORS
330
19
102
}
330
19
100
AcDbDictionary
281
     1
  0
DICTIONARY
  5
1B6
102
{ACAD_REACTORS
330
19
102
}
330
19
100
AcDbDictionary
281
     1
  3
Standard
350
1B7
  0
DICTIONARY
  5
199
102
{ACAD_REACTORS
330
19
102
}
330
19
100
AcDbDictionary
281
     1
  3
2dWireframe
350
19E
  3
Basic
350
1A1
  3
Brighten
350
1A5
  3
ColorChange
350
1A9
  3
Conceptual
350
1A3
  3
Dim
350
1A4
  3
EdgeColorOff
350
1AC
  3
Facepattern
350
1A8
  3
Flat
350
19A
  3
FlatWithEdges
350
19B
  3
Gouraud
350
19C
  3
GouraudWithEdges
350
19D
  3
Hidden
350
1A0
  3
JitterOff
350
1AA
  3
Linepattern
350
1A7
  3
OverhangOff
350
1AB
  3
Realistic
350
1A2
  3
Shaded
350
1B1
  3
Shaded with edges
350
1B0
  3
Shades of Gray
350
1AD
  3
Sketchy
350
1AE
  3
Thicken
350
1A6
  3
Wireframe
350
19F
  3
X-Ray
350
1AF
  0
WIPEOUTVARIABLES
  5
23
330
19
100
AcDbWipeoutVariables
 70
     1
  0
XRECORD
  5
1EE
102
{ACAD_REACTORS
330
19
102
}
330
19
100
AcDbXrecord
280
     1
 90
        1
330
1B7
  0
DICTIONARY
  5
1BA
102
{ACAD_REACTORS
330
19
102
}
330
19
100
AcDbDictionary
281
     1
  3
CANNOSCALE
350
1BB
  3
CMLEADERSTYLE
350
1F0
  3
CTABLESTYLE
350
1EF
  3
MSLTSCALE
350
1F1
  0
LAYOUT
  5
21
102
{ACAD_REACTORS
330
1E
102
}
330
1E
100
AcDbPlotSettings
  1

  2

  4

  6

 40
0.0
 41
0.0
 42
0.0
 43
0.0
 44
0.0
 45
0.0
 46
0.0
 47
0.0
 48
0.0
 49
0.0
140
0.0
141
0.0
142
1.0
143
1.0
 70
     0
 72
     0
 73
     0
 74
     0
  7

 75
     0
 76
     0
 77
     2
 78
   300
147
1.0
148
0.0
149
0.0
100
AcDbLayout
  1
Layout1
 70
     0
 71
     0
 10
0.0
 20
0.0
 11
0.0
 21
0.0
 12
0.0
 22
0.0
 32
0.0
 14
0.0
 24
0.0
 34
0.0
 15
0.0
 25
0.0
 35
0.0
146
0.0
 13
0.0
 23
0.0
 33
0.0
 16
0.0
 26
0.0
 36
0.0
 17
0.0
 27
0.0
 37
0.0
 76
     0
330
B
  0
LAYOUT
  5
20
102
{ACAD_REACTORS
330
1E
102
}
330
1E
100
AcDbPlotSettings
  1

  2

  4

  6

 40
0.0
 41
0.0
 42
0.0
 43
0.0
 44
0.0
 45
0.0
 46
0.0
 47
0.0
 48
0.0
 49
0.0
140
0.0
141
0.0
142
1.0
143
1.0
 70
  1024
 72
     0
 73
     0
 74
     0
  7

 75
     0
 76
     0
 77
     2
 78
   300
147
1.0
148
0.0
149
0.0
100
AcDbLayout
  1
Model
 70
     0
 71
     1
 10
0.0
 20
0.0
 11
0.0
 21
0.0
 12
0.0
 22
0.0
 32
0.0
 14
0.0
 24
0.0
 34
0.0
 15
0.0
 25
0.0
 35
0.0
146
0.0
 13
0.0
 23
0.0
 33
0.0
 16
0.0
 26
0.0
 36
0.0
 17
0.0
 27
0.0
 37
0.0
 76
     0
330
A
331
15
  0
MATERIAL
  5
1B4
102
{ACAD_REACTORS
330
1B2
102
}
330
1B2
100
AcDbMaterial
  1
ByBlock
 72
     1
 94
      127
  0
MATERIAL
  5
1B3
102
{ACAD_REACTORS
330
1B2
102
}
330
1B2
100
AcDbMaterial
  1
ByLayer
 72
     1
 94
      127
  0
MATERIAL
  5
1B5
102
{ACAD_REACTORS
330
1B2
102
}
330
1B2
100
AcDbMaterial
  1
Global
 72
     1
 94
      127
  0
MLEADERSTYLE
  5
1B9
102
{ACAD_REACTORS
330
1B8
102
}
330
1B8
100
AcDbMLeaderStyle
179
     2
170
     2
171
     1
172
     0
 90
        2
 40
0.0
 41
0.0
173
     1
 91
-1056964608
340
11
 92
       -2
290
     1
 42
0.09
291
     1
 43
0.36
  3
Standard
341
0
 44
0.18
300

342
17
174
     1
178
     6
175
     1
176
     0
 93
-1056964608
 45
0.18
292
     0
297
     0
 46
0.18
343
0
 94
-1056964608
 47
1.0
 49
1.0
140
1.0
293
     1
141
0.0
294
     1
177
     0
142
1.0
295
     0
296
     0
143
0.125
271
     0
272
     9
273
     9
  0
MLINESTYLE
  5
1C
102
{ACAD_REACTORS
330
1B
102
}
330
1B
100
AcDbMlineStyle
  2
Standard
 70
     0
  3

 62
     0
 51
90.0
 52
90.0
 71
     2
 49
0.5
 62
   256
  6
BYLAYER
 49
-0.5
 62
   256
  6
BYLAYER
  0
ACDBPLACEHOLDER
  5
1D
102
{ACAD_REACTORS
330
1F
102
}
330
1F
  0
SCALE
  5
178
102
{ACAD_REACTORS
330
177
102
}
330
177
100
AcDbScale
 70
     0
300
1:1
140
1.0
141
1.0
290
     1
  0
SCALE
  5
179
102
{ACAD_REACTORS
330
177
102
}
330
177
100
AcDbScale
 70
     0
300
1:2
140
1.0
141
2.0
290
     0
  0
SCALE
  5
17A
102
{ACAD_REACTORS
330
177
102
}
330
177
100
AcDbScale
 70
     0
300
1:4
140
1.0
141
4.0
290
     0
  0
SCALE
  5
17B
102
{ACAD_REACTORS
330
177
102
}
330
177
100
AcDbScale
 70
     0
300
1:5
140
1.0
141
5.0
290
     0
  0
SCALE
  5
17C
102
{ACAD_REACTORS
330
177
102
}
330
177
100
AcDbScale
 70
     0
300
1:8
140
1.0
141
8.0
290
     0
  0
SCALE
  5
17D
102
{ACAD_REACTORS
330
177
102
}
330
177
100
AcDbScale
 70
     0
300
1:10
140
1.0
141
10.0
290
     0
  0
SCALE
  5
17E
102
{ACAD_REACTORS
330
177
102
}
330
177
100
AcDbScale
 70
     0
300
1:16
140
1.0
141
16.0
290
     0
  0
SCALE
  5
17F
102
{ACAD_REACTORS
330
177
102
}
330
177
100
AcDbScale
 70
     0
300
1:20
140
1.0
141
20.0
290
     0
  0
SCALE
  5
180
102
{ACAD_REACTORS
330
177
102
}
330
177
100
AcDbScale
 70
     0
300
1:30
140
1.0
141
30.0
290
     0
  0
SCALE
  5
181
102
{ACAD_REACTORS
330
177
102
}
330
177
100
AcDbScale
 70
     0
300
1:40
140
1.0
141
40.0
290
     0
  0
SCALE
  5
182
102
{ACAD_REACTORS
330
177
102
}
330
177
100
AcDbScale
 70
     0
300
1:50
140
1.0
141
50.0
290
     0
  0
SCALE
  5
183
102
{ACAD_REACTORS
330
177
102
}
330
177
100
AcDbScale
 70
     0
300
1:100
140
1.0
141
100.0
290
     0
  0
SCALE
  5
184
102
{ACAD_REACTORS
330
177
102
}
330
177
100
AcDbScale
 70
     0
300
2:1
140
2.0
141
1.0
290
     0
  0
SCALE
  5
185
102
{ACAD_REACTORS
330
177
102
}
330
177
100
AcDbScale
 70
     0
300
4:1
140
4.0
141
1.0
290
     0
  0
SCALE
  5
186
102
{ACAD_REACTORS
330
177
102
}
330
177
100
AcDbScale
 70
     0
300
8:1
140
8.0
141
1.0
290
     0
  0
SCALE
  5
187
102
{ACAD_REACTORS
330
177
102
}
330
177
100
AcDbScale
 70
     0
300
10:1
140
10.0
141
1.0
290
     0
  0
SCALE
  5
188
102
{ACAD_REACTORS
330
177
102
}
330
177
100
AcDbScale
 70
     0
300
100:1
140
100.0
141
1.0
290
     0
  0
SCALE
  5
189
102
{ACAD_REACTORS
330
177
102
}
330
177
100
AcDbScale
 70
     0
300
1/128" = 1'-0"
140
0.0078125
141
12.0
290
     0
  0
SCALE
  5
18A
102
{ACAD_REACTORS
330
177
102
}
330
177
100
AcDbScale
 70
     0
300
1/64" = 1'-0"
140
0.015625
141
12.0
290
     0
  0
SCALE
  5
18B
102
{ACAD_REACTORS
330
177
102
}
330
177
100
AcDbScale
 70
     0
300
1/32" = 1'-0"
140
0.03125
141
12.0
290
     0
  0
SCALE
  5
18C
102
{ACAD_REACTORS
330
177
102
}
330
177
100
AcDbScale
 70
     0
300
1/16" = 1'-0"
140
0.0625
141
12.0
290
     0
  0
SCALE
  5
18D
102
{ACAD_REACTORS
330
177
102
}
330
177
100
AcDbScale
 70
     0
300
3/32" = 1'-0"
140
0.09375
141
12.0
290
     0
  0
SCALE
  5
18E
102
{ACAD_REACTORS
330
177
102
}
330
177
100
AcDbScale
 70
     0
300
1/8" = 1'-0"
140
0.125
141
12.0
290
     0
  0
SCALE
  5
18F
102
{ACAD_REACTORS
330
177
102
}
330
177
100
AcDbScale
 70
     0
300
3/16" = 1'-0"
140
0.1875
141
12.0
290
     0
  0
SCALE
  5
190
102
{ACAD_REACTORS
330
177
102
}
330
177
100
AcDbScale
 70
     0
300
1/4" = 1'-0"
140
0.25
141
12.0
290
     0
  0
SCALE
  5
191
102
{ACAD_REACTORS
330
177
102
}
330
177
100
AcDbScale
 70
     0
300
3/8" = 1'-0"
140
0.375
141
12.0
290
     0
  0
SCALE
  5
192
102
{ACAD_REACTORS
330
177
102
}
330
177
100
AcDbScale
 70
     0
300
1/2" = 1'-0"
140
0.5
141
12.0
290
     0
  0
SCALE
  5
193
102
{ACAD_REACTORS
330
177
102
}
330
177
100
AcDbScale
 70
     0
300
3/4" = 1'-0"
140
0.75
141
12.0
290
     0
  0
SCALE
  5
194
102
{ACAD_REACTORS
330
177
102
}
330
177
100
AcDbScale
 70
     0
300
1" = 1'-0"
140
1.0
141
12.0
290
     0
  0
SCALE
  5
195
102
{ACAD_REACTORS
330
177
102
}
330
177
100
AcDbScale
 70
     0
300
1-1/2" = 1'-0"
140
1.5
141
12.0
290
     0
  0
SCALE
  5
196
102
{ACAD_REACTORS
330
177
102
}
330
177
100
AcDbScale
 70
     0
300
3" = 1'-0"
140
3.0
141
12.0
290
     0
  0
SCALE
  5
197
102
{ACAD_REACTORS
330
177
102
}
330
177
100
AcDbScale
 70
     0
300
6" = 1'-0"
140
6.0
141
12.0
290
     0
  0
SCALE
  5
198
102
{ACAD_REACTORS
330
177
102
}
330
177
100
AcDbScale
 70
     0
300
1'-0" = 1'-0"
140
12.0
141
12.0
290
     0
  0
TABLESTYLE
  5
1B7
102
{ACAD_REACTORS
330
1B6
102
}
102
{ACAD_XDICTIONARY
360
1EC
102
}
330
1B6
100
AcDbTableStyle
  3
Standard
 70
     0
 71
     0
 40
0.06
 41
0.06
280
     0
281
     0
  7
Standard
140
0.18
170
     2
 62
     0
 63
   257
283
     0
 90
        4
 91
        0
  1

274
    -2
284
     1
 64
     0
275
    -2
285
     1
 65
     0
276
    -2
286
     1
 66
     0
277
    -2
287
     1
 67
     0
278
    -2
288
     1
 68
     0
279
    -2
289
     1
 69
     0
  7
Standard
140
0.25
170
     5
 62
     0
 63
   257
283
     0
 90
        4
 91
        0
  1

274
    -2
284
     1
 64
     0
275
    -2
285
     1
 65
     0
276
    -2
286
     1
 66
     0
277
    -2
287
     1
 67
     0
278
    -2
288
     1
 68
     0
279
    -2
289
     1
 69
     0
  7
Standard
140
0.18
170
     5
 62
     0
 63
   257
283
     0
 90
        4
 91
        0
  1

274
    -2
284
     1
 64
     0
275
    -2
285
     1
 65
     0
276
    -2
286
     1
 66
     0
277
    -2
287
     1
 67
     0
278
    -2
288
     1
 68
     0
279
    -2
289
     1
 69
     0
  0
VISUALSTYLE
  5
19E
102
{ACAD_REACTORS
330
199
102
}
102
{ACAD_XDICTIONARY
360
1C4
102
}
330
199
100
AcDbVisualStyle
  2
2dWireframe
 70
     4
177
     2
291
     0
 71
     0
176
     1
 72
     2
176
     1
 73
     0
176
     1
 90
        0
176
     1
 40
0.6
176
     1
 41
30.0
176
     1
 62
     5
 63
     7
421
 16777215
176
     1
 74
     1
176
     1
 91
        4
176
     1
 64
     7
176
     1
 65
   257
176
     1
 75
     1
176
     1
175
     1
176
     1
 42
1.0
176
     1
 92
        0
176
     1
 66
   257
176
     1
 43
1.0
176
     1
 76
     1
176
     1
 77
     6
176
     1
 78
     2
176
     1
 67
     7
176
     1
 79
     5
176
     1
170
     0
176
     1
171
     0
176
     1
290
     0
176
     1
 93
        1
176
     1
 44
0.0
176
     1
173
     0
176
     1
  0
VISUALSTYLE
  5
1A1
102
{ACAD_REACTORS
330
199
102
}
102
{ACAD_XDICTIONARY
360
1CA
102
}
330
199
100
AcDbVisualStyle
  2
Basic
 70
     7
177
     2
291
     1
 71
     1
176
     1
 72
     0
176
     1
 73
     1
176
     1
 90
        0
176
     1
 40
0.6
176
     1
 41
30.0
176
     1
 62
     5
 63
     7
421
 16777215
176
     1
 74
     0
176
     1
 91
        4
176
     1
 64
     7
176
     1
 65
   257
176
     1
 75
     1
176
     1
175
     1
176
     1
 42
1.0
176
     1
 92
        8
176
     1
 66
     7
176
     1
 43
1.0
176
     1
 76
     1
176
     1
 77
     6
176
     1
 78
     2
176
     1
 67
     7
176
     1
 79
     5
176
     1
170
     0
176
     1
171
     0
176
     1
290
     0
176
     1
 93
        1
176
     1
 44
0.0
176
     1
173
     0
176
     1
  0
VISUALSTYLE
  5
1A5
102
{ACAD_REACTORS
330
199
102
}
102
{ACAD_XDICTIONARY
360
1D2
102
}
330
199
100
AcDbVisualStyle
  2
Brighten
 70
    12
177
     2
291
     1
 71
     2
176
     1
 72
     2
176
     1
 73
     0
176
     1
 90
        0
176
     1
 40
0.6
176
     1
 41
30.0
176
     1
 62
     5
 63
     7
421
 16777215
176
     1
 74
     1
176
     1
 91
        4
176
     1
 64
     7
176
     1
 65
   257
176
     1
 75
     1
176
     1
175
     1
176
     1
 42
1.0
176
     1
 92
        8
176
     1
 66
     7
176
     1
 43
1.0
176
     1
 76
     1
176
     1
 77
     6
176
     1
 78
     2
176
     1
 67
     7
176
     1
 79
     5
176
     1
170
     0
176
     1
171
     0
176
     1
290
     0
176
     1
 93
        1
176
     1
 44
50.0
176
     1
173
     0
176
     1
  0
VISUALSTYLE
  5
1A9
102
{ACAD_REACTORS
330
199
102
}
102
{ACAD_XDICTIONARY
360
1DA
102
}
330
199
100
AcDbVisualStyle
  2
ColorChange
 70
    16
177
     2
291
     1
 71
     2
176
     1
 72
     2
176
     1
 73
     3
176
     1
 90
        0
176
     1
 40
0.6
176
     1
 41
30.0
176
     1
 62
     5
 63
     8
421
  8421504
176
     1
 74
     1
176
     1
 91
        4
176
     1
 64
     7
176
     1
 65
   257
176
     1
 75
     1
176
     1
175
     1
176
     1
 42
1.0
176
     1
 92
        8
176
     1
 66
     8
424
  8421504
176
     1
 43
1.0
176
     1
 76
     1
176
     1
 77
     6
176
     1
 78
     2
176
     1
 67
     7
176
     1
 79
     5
176
     1
170
     0
176
     1
171
     0
176
     1
290
     0
176
     1
 93
        1
176
     1
 44
0.0
176
     1
173
     0
176
     1
  0
VISUALSTYLE
  5
1A3
102
{ACAD_REACTORS
330
199
102
}
102
{ACAD_XDICTIONARY
360
1CE
102
}
330
199
100
AcDbVisualStyle
  2
Conceptual
 70
     9
177
     2
291
     0
 71
     3
176
     1
 72
     2
176
     1
 73
     0
176
     1
 90
        0
176
     1
 40
0.6
176
     1
 41
30.0
176
     1
 62
     5
 63
     7
421
 16777215
176
     1
 74
     2
176
     1
 91
        2
176
     1
 64
     7
176
     1
 65
   257
176
     1
 75
     1
176
     1
175
     1
176
     1
 42
179.0
176
     1
 92
        8
176
     1
 66
     7
176
     1
 43
1.0
176
     1
 76
     1
176
     1
 77
     6
176
     1
 78
     2
176
     1
 67
     7
176
     1
 79
     3
176
     1
170
     0
176
     1
171
     0
176
     1
290
     0
176
     1
 93
        1
176
     1
 44
0.0
176
     1
173
     0
176
     1
  0
VISUALSTYLE
  5
1A4
102
{ACAD_REACTORS
330
199
102
}
102
{ACAD_XDICTIONARY
360
1D0
102
}
330
199
100
AcDbVisualStyle
  2
Dim
 70
    11
177
     2
291
     1
 71
     2
176
     1
 72
     2
176
     1
 73
     0
176
     1
 90
        0
176
     1
 40
0.6
176
     1
 41
30.0
176
     1
 62
     5
 63
     7
421
 16777215
176
     1
 74
     1
176
     1
 91
        4
176
     1
 64
     7
176
     1
 65
   257
176
     1
 75
     1
176
     1
175
     1
176
     1
 42
1.0
176
     1
 92
        8
176
     1
 66
     7
176
     1
 43
1.0
176
     1
 76
     1
176
     1
 77
     6
176
     1
 78
     2
176
     1
 67
     7
176
     1
 79
     5
176
     1
170
     0
176
     1
171
     0
176
     1
290
     0
176
     1
 93
        1
176
     1
 44
-50.0
176
     1
173
     0
176
     1
  0
VISUALSTYLE
  5
1AC
102
{ACAD_REACTORS
330
199
102
}
102
{ACAD_XDICTIONARY
360
1E0
102
}
330
199
100
AcDbVisualStyle
  2
EdgeColorOff
 70
    22
177
     2
291
     1
 71
     2
176
     0
 72
     2
176
     0
 73
     0
176
     0
 90
        0
176
     0
 40
0.6
176
     0
 41
30.0
176
     0
 62
     5
 63
     7
421
 16777215
176
     0
 74
     1
176
     0
 91
        4
176
     0
 64
     7
176
     0
 65
   257
176
     0
 75
     1
176
     0
175
     1
176
     0
 42
1.0
176
     0
 92
        8
176
     2
 66
     7
176
     0
 43
1.0
176
     0
 76
     1
176
     0
 77
     6
176
     0
 78
     2
176
     0
 67
     7
176
     0
 79
     5
176
     0
170
     0
176
     0
171
     0
176
     0
290
     0
176
     0
 93
        1
176
     0
 44
0.0
176
     0
173
     0
176
     0
  0
VISUALSTYLE
  5
1A8
102
{ACAD_REACTORS
330
199
102
}
102
{ACAD_XDICTIONARY
360
1D8
102
}
330
199
100
AcDbVisualStyle
  2
Facepattern
 70
    15
177
     2
291
     1
 71
     2
176
     1
 72
     2
176
     1
 73
     0
176
     1
 90
        0
176
     1
 40
0.6
176
     1
 41
30.0
176
     1
 62
     5
 63
     7
421
 16777215
176
     1
 74
     1
176
     1
 91
        4
176
     1
 64
     7
176
     1
 65
   257
176
     1
 75
     1
176
     1
175
     1
176
     1
 42
1.0
176
     1
 92
        8
176
     1
 66
     7
176
     1
 43
1.0
176
     1
 76
     1
176
     1
 77
     6
176
     1
 78
     2
176
     1
 67
     7
176
     1
 79
     5
176
     1
170
     0
176
     1
171
     0
176
     1
290
     0
176
     1
 93
        1
176
     1
 44
0.0
176
     1
173
     0
176
     1
  0
VISUALSTYLE
  5
19A
102
{ACAD_REACTORS
330
199
102
}
102
{ACAD_XDICTIONARY
360
1BC
102
}
330
199
100
AcDbVisualStyle
  2
Flat
 70
     0
177
     2
291
     1
 71
     2
176
     1
 72
     1
176
     1
 73
     1
176
     1
 90
        2
176
     1
 40
0.6
176
     1
 41
30.0
176
     1
 62
     5
 63
     7
421
 16777215
176
     1
 74
     0
176
     1
 91
        0
176
     1
 64
     7
176
     1
 65
   257
176
     1
 75
     1
176
     1
175
     1
176
     1
 42
1.0
176
     1
 92
        8
176
     1
 66
     7
176
     1
 43
1.0
176
     1
 76
     1
176
     1
 77
     6
176
     1
 78
     2
176
     1
 67
     7
176
     1
 79
     5
176
     1
170
     0
176
     1
171
     0
176
     1
290
     0
176
     1
 93
       13
176
     1
 44
0.0
176
     1
173
     0
176
     1
  0
VISUALSTYLE
  5
19B
102
{ACAD_REACTORS
330
199
102
}
102
{ACAD_XDICTIONARY
360
1BE
102
}
330
199
100
AcDbVisualStyle
  2
FlatWithEdges
 70
     1
177
     2
291
     1
 71
     2
176
     1
 72
     1
176
     1
 73
     1
176
     1
 90
        2
176
     1
 40
0.6
176
     1
 41
30.0
176
     1
 62
     5
 63
     7
421
 16777215
176
     1
 74
     1
176
     1
 91
        0
176
     1
 64
     7
176
     1
 65
   257
176
     1
 75
     1
176
     1
175
     1
176
     1
 42
1.0
176
     1
 92
        0
176
     1
 66
   257
176
     1
 43
1.0
176
     1
 76
     1
176
     1
 77
     6
176
     1
 78
     2
176
     1
 67
     7
176
     1
 79
     5
176
     1
170
     0
176
     1
171
     0
176
     1
290
     0
176
     1
 93
       13
176
     1
 44
0.0
176
     1
173
     0
176
     1
  0
VISUALSTYLE
  5
19C
102
{ACAD_REACTORS
330
199
102
}
102
{ACAD_XDICTIONARY
360
1C0
102
}
330
199
100
AcDbVisualStyle
  2
Gouraud
 70
     2
177
     2
291
     1
 71
     2
176
     1
 72
     2
176
     1
 73
     1
176
     1
 90
        2
176
     1
 40
0.6
176
     1
 41
30.0
176
     1
 62
     5
 63
     7
421
 16777215
176
     1
 74
     0
176
     1
 91
        0
176
     1
 64
     7
176
     1
 65
   257
176
     1
 75
     1
176
     1
175
     1
176
     1
 42
1.0
176
     1
 92
        0
176
     1
 66
     7
176
     1
 43
1.0
176
     1
 76
     1
176
     1
 77
     6
176
     1
 78
     2
176
     1
 67
     7
176
     1
 79
     5
176
     1
170
     0
176
     1
171
     0
176
     1
290
     0
176
     1
 93
       13
176
     1
 44
0.0
176
     1
173
     0
176
     1
  0
VISUALSTYLE
  5
19D
102
{ACAD_REACTORS
330
199
102
}
102
{ACAD_XDICTIONARY
360
1C2
102
}
330
199
100
AcDbVisualStyle
  2
GouraudWithEdges
 70
     3
177
     2
291
     1
 71
     2
176
     1
 72
     2
176
     1
 73
     1
176
     1
 90
        2
176
     1
 40
0.6
176
     1
 41
30.0
176
     1
 62
     5
 63
     7
421
 16777215
176
     1
 74
     1
176
     1
 91
        0
176
     1
 64
     7
176
     1
 65
   257
176
     1
 75
     1
176
     1
175
     1
176
     1
 42
1.0
176
     1
 92
        0
176
     1
 66
   257
176
     1
 43
1.0
176
     1
 76
     1
176
     1
 77
     6
176
     1
 78
     2
176
     1
 67
     7
176
     1
 79
     5
176
     1
170
     0
176
     1
171
     0
176
     1
290
     0
176
     1
 93
       13
176
     1
 44
0.0
176
     1
173
     0
176
     1
  0
VISUALSTYLE
  5
1A0
102
{ACAD_REACTORS
330
199
102
}
102
{ACAD_XDICTIONARY
360
1C8
102
}
330
199
100
AcDbVisualStyle
  2
Hidden
 70
     6
177
     2
291
     0
 71
     1
176
     1
 72
     2
176
     1
 73
     2
176
     1
 90
        0
176
     1
 40
0.6
176
     1
 41
30.0
176
     1
 62
     5
 63
     7
421
 16777215
176
     1
 74
     2
176
     1
 91
        2
176
     1
 64
     7
176
     1
 65
   257
176
     1
 75
     2
176
     1
175
     1
176
     1
 42
40.0
176
     1
 92
        0
176
     1
 66
   257
176
     1
 43
1.0
176
     1
 76
     1
176
     1
 77
     6
176
     1
 78
     2
176
     1
 67
     7
176
     1
 79
     3
176
     1
170
     0
176
     1
171
     0
176
     1
290
     0
176
     1
 93
        1
176
     1
 44
0.0
176
     1
173
     0
176
     1
  0
VISUALSTYLE
  5
1AA
102
{ACAD_REACTORS
330
199
102
}
102
{ACAD_XDICTIONARY
360
1DC
102
}
330
199
100
AcDbVisualStyle
  2
JitterOff
 70
    20
177
     2
291
     1
 71
     2
176
     0
 72
     2
176
     0
 73
     0
176
     0
 90
        0
176
     0
 40
0.6
176
     0
 41
30.0
176
     0
 62
     5
 63
     7
421
 16777215
176
     0
 74
     1
176
     0
 91
        4
176
     0
 64
     7
176
     0
 65
   257
176
     0
 75
     1
176
     0
175
     1
176
     0
 42
1.0
176
     0
 92
       10
176
     2
 66
     7
176
     0
 43
1.0
176
     0
 76
     1
176
     0
 77
     6
176
     0
 78
     2
176
     0
 67
     7
176
     0
 79
     5
176
     0
170
     0
176
     0
171
     0
176
     0
290
     0
176
     0
 93
        1
176
     0
 44
0.0
176
     0
173
     0
176
     0
  0
VISUALSTYLE
  5
1A7
102
{ACAD_REACTORS
330
199
102
}
102
{ACAD_XDICTIONARY
360
1D6
102
}
330
199
100
AcDbVisualStyle
  2
Linepattern
 70
    14
177
     2
291
     1
 71
     2
176
     1
 72
     2
176
     1
 73
     0
176
     1
 90
        0
176
     1
 40
0.6
176
     1
 41
30.0
176
     1
 62
     5
 63
     7
421
 16777215
176
     1
 74
     1
176
     1
 91
        4
176
     1
 64
     7
176
     1
 65
   257
176
     1
 75
     7
176
     1
175
     7
176
     1
 42
1.0
176
     1
 92
        8
176
     1
 66
     7
176
     1
 43
1.0
176
     1
 76
     1
176
     1
 77
     6
176
     1
 78
     2
176
     1
 67
     7
176
     1
 79
     5
176
     1
170
     0
176
     1
171
     0
176
     1
290
     0
176
     1
 93
        1
176
     1
 44
0.0
176
     1
173
     0
176
     1
  0
VISUALSTYLE
  5
1AB
102
{ACAD_REACTORS
330
199
102
}
102
{ACAD_XDICTIONARY
360
1DE
102
}
330
199
100
AcDbVisualStyle
  2
OverhangOff
 70
    21
177
     2
291
     1
 71
     2
176
     0
 72
     2
176
     0
 73
     0
176
     0
 90
        0
176
     0
 40
0.6
176
     0
 41
30.0
176
     0
 62
     5
 63
     7
421
 16777215
176
     0
 74
     1
176
     0
 91
        4
176
     0
 64
     7
176
     0
 65
   257
176
     0
 75
     1
176
     0
175
     1
176
     0
 42
1.0
176
     0
 92
        9
176
     2
 66
     7
176
     0
 43
1.0
176
     0
 76
     1
176
     0
 77
     6
176
     0
 78
     2
176
     0
 67
     7
176
     0
 79
     5
176
     0
170
     0
176
     0
171
     0
176
     0
290
     0
176
     0
 93
        1
176
     0
 44
0.0
176
     0
173
     0
176
     0
  0
VISUALSTYLE
  5
1A2
102
{ACAD_REACTORS
330
199
102
}
102
{ACAD_XDICTIONARY
360
1CC
102
}
330
199
100
AcDbVisualStyle
  2
Realistic
 70
     8
177
     2
291
     0
 71
     2
176
     1
 72
     3
176
     1
 73
     0
176
     1
 90
        2
176
     1
 40
0.6
176
     1
 41
30.0
176
     1
 62
     5
 63
     7
421
 16777215
176
     1
 74
     0
176
     1
 91
        0
176
     1
 64
     7
176
     1
 65
   257
176
     1
 75
     1
176
     1
175
     1
176
     1
 42
1.0
176
     1
 92
        8
176
     1
 66
   257
176
     1
 43
1.0
176
     1
 76
     1
176
     1
 77
     6
176
     1
 78
     2
176
     1
 67
     7
176
     1
 79
     3
176
     1
170
     0
176
     1
171
     0
176
     1
290
     0
176
     1
 93
       13
176
     1
 44
0.0
176
     1
173
     0
176
     1
  0
VISUALSTYLE
  5
1B1
102
{ACAD_REACTORS
330
199
102
}
102
{ACAD_XDICTIONARY
360
1EA
102
}
330
199
100
AcDbVisualStyle
  2
Shaded
 70
    27
177
     2
291
     0
 71
     2
176
     1
 72
     2
176
     1
 73
     1
176
     1
 90
        2
176
     1
 40
0.6
176
     1
 41
30.0
176
     1
 62
     5
 63
     7
421
 16777215
176
     1
 74
     0
176
     1
 91
        4
176
     1
 64
     7
176
     1
 65
   257
176
     1
 75
     1
176
     1
175
     1
176
     1
 42
1.0
176
     1
 92
        8
176
     1
 66
   257
176
     1
 43
1.0
176
     1
 76
     1
176
     1
 77
     6
176
     1
 78
     2
176
     1
 67
     8
425
  7895160
176
     1
 79
     3
176
     1
170
     0
176
     1
171
     0
176
     1
290
     0
176
     1
 93
        5
176
     1
 44
0.0
176
     1
173
     0
176
     1
  0
VISUALSTYLE
  5
1B0
102
{ACAD_REACTORS
330
199
102
}
102
{ACAD_XDICTIONARY
360
1E8
102
}
330
199
100
AcDbVisualStyle
  2
Shaded with edges
 70
    26
177
     2
291
     0
 71
     2
176
     1
 72
     2
176
     1
 73
     1
176
     1
 90
        2
176
     1
 40
0.6
176
     1
 41
30.0
176
     1
 62
     5
 63
     7
421
 16777215
176
     1
 74
     1
176
     1
 91
       10
176
     1
 64
     7
176
     1
 65
   257
176
     1
 75
     2
176
     1
175
     1
176
     1
 42
1.0
176
     1
 92
        8
176
     1
 66
   257
176
     1
 43
1.0
176
     1
 76
     1
176
     1
 77
     6
176
     1
 78
     2
176
     1
 67
     7
176
     1
 79
     3
176
     1
170
     0
176
     1
171
     0
176
     1
290
     0
176
     1
 93
        5
176
     1
 44
0.0
176
     1
173
     0
176
     1
  0
VISUALSTYLE
  5
1AD
102
{ACAD_REACTORS
330
199
102
}
102
{ACAD_XDICTIONARY
360
1E2
102
}
330
199
100
AcDbVisualStyle
  2
Shades of Gray
 70
    23
177
     2
291
     0
 71
     2
176
     1
 72
     2
176
     1
 73
     3
176
     1
 90
        0
176
     1
 40
0.6
176
     1
 41
30.0
176
     1
 62
     5
 63
     7
421
 16777215
176
     1
 74
     2
176
     1
 91
        2
176
     1
 64
     7
176
     1
 65
     7
176
     1
 75
     1
176
     1
175
     1
176
     1
 42
40.0
176
     1
 92
        8
176
     1
 66
     7
176
     1
 43
1.0
176
     1
 76
     1
176
     1
 77
     6
176
     1
 78
     2
176
     1
 67
     7
176
     1
 79
     3
176
     1
170
     0
176
     1
171
     0
176
     1
290
     0
176
     1
 93
        1
176
     1
 44
0.0
176
     1
173
     0
176
     1
  0
VISUALSTYLE
  5
1AE
102
{ACAD_REACTORS
330
199
102
}
102
{ACAD_XDICTIONARY
360
1E4
102
}
330
199
100
AcDbVisualStyle
  2
Sketchy
 70
    24
177
     2
291
     0
 71
     1
176
     1
 72
     2
176
     1
 73
     2
176
     1
 90
        0
176
     1
 40
0.6
176
     1
 41
30.0
176
     1
 62
     5
 63
     7
421
 16777215
176
     1
 74
     2
176
     1
 91
        2
176
     1
 64
     7
176
     1
 65
     7
176
     1
 75
     1
176
     1
175
     1
176
     1
 42
40.0
176
     1
 92
       11
176
     1
 66
     7
176
     1
 43
1.0
176
     1
 76
     1
176
     1
 77
     6
176
     1
 78
     2
176
     1
 67
     7
176
     1
 79
     6
176
     1
170
     0
176
     1
171
     0
176
     1
290
     0
176
     1
 93
        1
176
     1
 44
0.0
176
     1
173
     0
176
     1
  0
VISUALSTYLE
  5
1A6
102
{ACAD_REACTORS
330
199
102
}
102
{ACAD_XDICTIONARY
360
1D4
102
}
330
199
100
AcDbVisualStyle
  2
Thicken
 70
    13
177
     2
291
     1
 71
     2
176
     1
 72
     2
176
     1
 73
     0
176
     1
 90
        0
176
     1
 40
0.6
176
     1
 41
30.0
176
     1
 62
     5
 63
     7
421
 16777215
176
     1
 74
     1
176
     1
 91
        4
176
     1
 64
     7
176
     1
 65
   257
176
     1
 75
     1
176
     1
175
     1
176
     1
 42
1.0
176
     1
 92
       12
176
     1
 66
     7
176
     1
 43
1.0
176
     1
 76
     1
176
     1
 77
     6
176
     1
 78
     2
176
     1
 67
     7
176
     1
 79
     5
176
     1
170
     0
176
     1
171
     0
176
     1
290
     0
176
     1
 93
        1
176
     1
 44
0.0
176
     1
173
     0
176
     1
  0
VISUALSTYLE
  5
19F
102
{ACAD_REACTORS
330
199
102
}
102
{ACAD_XDICTIONARY
360
1C6
102
}
330
199
100
AcDbVisualStyle
  2
Wireframe
 70
     5
177
     2
291
     0
 71
     0
176
     1
 72
     2
176
     1
 73
     0
176
     1
 90
        0
176
     1
 40
0.6
176
     1
 41
30.0
176
     1
 62
     5
 63
     7
421
 16777215
176
     1
 74
     1
176
     1
 91
        4
176
     1
 64
     7
176
     1
 65
   257
176
     1
 75
     1
176
     1
175
     1
176
     1
 42
1.0
176
     1
 92
        0
176
     1
 66
   257
176
     1
 43
1.0
176
     1
 76
     1
176
     1
 77
     6
176
     1
 78
     2
176
     1
 67
     7
176
     1
 79
     3
176
     1
170
     0
176
     1
171
     0
176
     1
290
     0
176
     1
 93
        1
176
     1
 44
0.0
176
     1
173
     0
176
     1
  0
VISUALSTYLE
  5
1AF
102
{ACAD_REACTORS
330
199
102
}
102
{ACAD_XDICTIONARY
360
1E6
102
}
330
199
100
AcDbVisualStyle
  2
X-Ray
 70
    25
177
     2
291
     0
 71
     2
176
     1
 72
     2
176
     1
 73
     1
176
     1
 90
        1
176
     1
 40
0.5
176
     1
 41
30.0
176
     1
 62
     5
 63
     7
421
 16777215
176
     1
 74
     1
176
     1
 91
        0
176
     1
 64
     7
176
     1
 65
   257
176
     1
 75
     1
176
     1
175
     1
176
     1
 42
1.0
176
     1
 92
        8
176
     1
 66
     7
176
     1
 43
1.0
176
     1
 76
     1
176
     1
 77
     6
176
     1
 78
     2
176
     1
 67
     7
176
     1
 79
     3
176
     1
170
     0
176
     1
171
     0
176
     1
290
     0
176
     1
 93
       13
176
     1
 44
0.0
176
     1
173
     0
176
     1
  0
DICTIONARYVAR
  5
1BB
102
{ACAD_REACTORS
330
1BA
102
}
330
1BA
100
DictionaryVariables
280
     0
  1
1:1
  0
DICTIONARYVAR
  5
1F0
102
{ACAD_REACTORS
330
1BA
102
}
330
1BA
100
DictionaryVariables
280
     0
  1
Standard
  0
DICTIONARYVAR
  5
1EF
102
{ACAD_REACTORS
330
1BA
102
}
330
1BA
100
DictionaryVariables
280
     0
  1
Standard
  0
DICTIONARYVAR
  5
1F1
102
{ACAD_REACTORS
330
1BA
102
}
330
1BA
100
DictionaryVariables
280
     0
  1
0
  0
DICTIONARY
  5
1EC
330
1B7
100
AcDbDictionary
280
     1
281
     1
  3
ACAD_ROUNDTRIP_2008_TABLESTYLE_CELLSTYLEMAP
360
1ED
  0
DICTIONARY
  5
1C4
330
19E
100
AcDbDictionary
280
     1
281
     1
  3
ACAD_XREC_ROUNDTRIP
360
1C5
  0
DICTIONARY
  5
1CA
330
1A1
100
AcDbDictionary
280
     1
281
     1
  3
ACAD_XREC_ROUNDTRIP
360
1CB
  0
DICTIONARY
  5
1D2
330
1A5
100
AcDbDictionary
280
     1
281
     1
  3
ACAD_XREC_ROUNDTRIP
360
1D3
  0
DICTIONARY
  5
1DA
330
1A9
100
AcDbDictionary
280
     1
281
     1
  3
ACAD_XREC_ROUNDTRIP
360
1DB
  0
DICTIONARY
  5
1CE
330
1A3
100
AcDbDictionary
280
     1
281
     1
  3
ACAD_XREC_ROUNDTRIP
360
1CF
  0
DICTIONARY
  5
1D0
330
1A4
100
AcDbDictionary
280
     1
281
     1
  3
ACAD_XREC_ROUNDTRIP
360
1D1
  0
DICTIONARY
  5
1E0
330
1AC
100
AcDbDictionary
280
     1
281
     1
  3
ACAD_XREC_ROUNDTRIP
360
1E1
  0
DICTIONARY
  5
1D8
330
1A8
100
AcDbDictionary
280
     1
281
     1
  3
ACAD_XREC_ROUNDTRIP
360
1D9
  0
DICTIONARY
  5
1BC
330
19A
100
AcDbDictionary
280
     1
281
     1
  3
ACAD_XREC_ROUNDTRIP
360
1BD
  0
DICTIONARY
  5
1BE
330
19B
100
AcDbDictionary
280
     1
281
     1
  3
ACAD_XREC_ROUNDTRIP
360
1BF
  0
DICTIONARY
  5
1C0
330
19C
100
AcDbDictionary
280
     1
281
     1
  3
ACAD_XREC_ROUNDTRIP
360
1C1
  0
DICTIONARY
  5
1C2
330
19D
100
AcDbDictionary
280
     1
281
     1
  3
ACAD_XREC_ROUNDTRIP
360
1C3
  0
DICTIONARY
  5
1C8
330
1A0
100
AcDbDictionary
280
     1
281
     1
  3
ACAD_XREC_ROUNDTRIP
360
1C9
  0
DICTIONARY
  5
1DC
330
1AA
100
AcDbDictionary
280
     1
281
     1
  3
ACAD_XREC_ROUNDTRIP
360
1DD
  0
DICTIONARY
  5
1D6
330
1A7
100
AcDbDictionary
280
     1
281
     1
  3
ACAD_XREC_ROUNDTRIP
360
1D7
  0
DICTIONARY
  5
1DE
330
1AB
100
AcDbDictionary
280
     1
281
     1
  3
ACAD_XREC_ROUNDTRIP
360
1DF
  0
DICTIONARY
  5
1CC
330
1A2
100
AcDbDictionary
280
     1
281
     1
  3
ACAD_XREC_ROUNDTRIP
360
1CD
  0
DICTIONARY
  5
1EA
330
1B1
100
AcDbDictionary
280
     1
281
     1
  3
ACAD_XREC_ROUNDTRIP
360
1EB
  0
DICTIONARY
  5
1E8
330
1B0
100
AcDbDictionary
280
     1
281
     1
  3
ACAD_XREC_ROUNDTRIP
360
1E9
  0
DICTIONARY
  5
1E2
330
1AD
100
AcDbDictionary
280
     1
281
     1
  3
ACAD_XREC_ROUNDTRIP
360
1E3
  0
DICTIONARY
  5
1E4
330
1AE
100
AcDbDictionary
280
     1
281
     1
  3
ACAD_XREC_ROUNDTRIP
360
1E5
  0
DICTIONARY
  5
1D4
330
1A6
100
AcDbDictionary
280
     1
281
     1
  3
ACAD_XREC_ROUNDTRIP
360
1D5
  0
DICTIONARY
  5
1C6
330
19F
100
AcDbDictionary
280
     1
281
     1
  3
ACAD_XREC_ROUNDTRIP
360
1C7
  0
DICTIONARY
  5
1E6
330
1AF
100
AcDbDictionary
280
     1
281
     1
  3
ACAD_XREC_ROUNDTRIP
360
1E7
  0
CELLSTYLEMAP
  5
1ED
102
{ACAD_REACTORS
330
1EC
102
}
330
1EC
100
AcDbCellStyleMap
 90
        3
300
CELLSTYLE
  1
TABLEFORMAT_BEGIN
 90
        5
170
     1
 91
        0
 92
    32768
 62
   257
 93
        1
300
CONTENTFORMAT
  1
CONTENTFORMAT_BEGIN
 90
        0
 91
        0
 92
        4
 93
        0
300

 40
0.0
140
1.0
 94
        5
 62
     0
340
17
144
0.25
309
CONTENTFORMAT_END
171
     1
301
MARGIN
  1
CELLMARGIN_BEGIN
 40
0.06
 40
0.06
 40
0.06
 40
0.06
 40
0.06
 40
0.06
309
CELLMARGIN_END
 94
        6
 95
        1
302
GRIDFORMAT
  1
GRIDFORMAT_BEGIN
 90
        0
 91
        1
 62
     0
 92
       -2
340
11
 93
        0
 40
0.045
309
GRIDFORMAT_END
 95
        2
302
GRIDFORMAT
  1
GRIDFORMAT_BEGIN
 90
        0
 91
        1
 62
     0
 92
       -2
340
11
 93
        0
 40
0.045
309
GRIDFORMAT_END
 95
        4
302
GRIDFORMAT
  1
GRIDFORMAT_BEGIN
 90
        0
 91
        1
 62
     0
 92
       -2
340
11
 93
        0
 40
0.045
309
GRIDFORMAT_END
 95
        8
302
GRIDFORMAT
  1
GRIDFORMAT_BEGIN
 90
        0
 91
        1
 62
     0
 92
       -2
340
11
 93
        0
 40
0.045
309
GRIDFORMAT_END
 95
       16
302
GRIDFORMAT
  1
GRIDFORMAT_BEGIN
 90
        0
 91
        1
 62
     0
 92
       -2
340
11
 93
        0
 40
0.045
309
GRIDFORMAT_END
 95
       32
302
GRIDFORMAT
  1
GRIDFORMAT_BEGIN
 90
        0
 91
        1
 62
     0
 92
       -2
340
11
 93
        0
 40
0.045
309
GRIDFORMAT_END
309
TABLEFORMAT_END
  1
CELLSTYLE_BEGIN
 90
        1
 91
        1
300
_TITLE
309
CELLSTYLE_END
300
CELLSTYLE
  1
TABLEFORMAT_BEGIN
 90
        5
170
     1
 91
        0
 92
        0
 62
   257
 93
        1
300
CONTENTFORMAT
  1
CONTENTFORMAT_BEGIN
 90
        0
 91
        0
 92
        4
 93
        0
300

 40
0.0
140
1.0
 94
        5
 62
     0
340
17
144
0.18
309
CONTENTFORMAT_END
171
     1
301
MARGIN
  1
CELLMARGIN_BEGIN
 40
0.06
 40
0.06
 40
0.06
 40
0.06
 40
0.06
 40
0.06
309
CELLMARGIN_END
 94
        6
 95
        1
302
GRIDFORMAT
  1
GRIDFORMAT_BEGIN
 90
        0
 91
        1
 62
     0
 92
       -2
340
11
 93
        0
 40
0.045
309
GRIDFORMAT_END
 95
        2
302
GRIDFORMAT
  1
GRIDFORMAT_BEGIN
 90
        0
 91
        1
 62
     0
 92
       -2
340
11
 93
        0
 40
0.045
309
GRIDFORMAT_END
 95
        4
302
GRIDFORMAT
  1
GRIDFORMAT_BEGIN
 90
        0
 91
        1
 62
     0
 92
       -2
340
11
 93
        0
 40
0.045
309
GRIDFORMAT_END
 95
        8
302
GRIDFORMAT
  1
GRIDFORMAT_BEGIN
 90
        0
 91
        1
 62
     0
 92
       -2
340
11
 93
        0
 40
0.045
309
GRIDFORMAT_END
 95
       16
302
GRIDFORMAT
  1
GRIDFORMAT_BEGIN
 90
        0
 91
        1
 62
     0
 92
       -2
340
11
 93
        0
 40
0.045
309
GRIDFORMAT_END
 95
       32
302
GRIDFORMAT
  1
GRIDFORMAT_BEGIN
 90
        0
 91
        1
 62
     0
 92
       -2
340
11
 93
        0
 40
0.045
309
GRIDFORMAT_END
309
TABLEFORMAT_END
  1
CELLSTYLE_BEGIN
 90
        2
 91
        1
300
_HEADER
309
CELLSTYLE_END
300
CELLSTYLE
  1
TABLEFORMAT_BEGIN
 90
        5
170
     1
 91
        0
 92
        0
 62
   257
 93
        1
300
CONTENTFORMAT
  1
CONTENTFORMAT_BEGIN
 90
        0
 91
        0
 92
        4
 93
        0
300

 40
0.0
140
1.0
 94
        2
 62
     0
340
17
144
0.18
309
CONTENTFORMAT_END
171
     1
301
MARGIN
  1
CELLMARGIN_BEGIN
 40
0.06
 40
0.06
 40
0.06
 40
0.06
 40
0.06
 40
0.06
309
CELLMARGIN_END
 94
        6
 95
        1
302
GRIDFORMAT
  1
GRIDFORMAT_BEGIN
 90
        0
 91
        1
 62
     0
 92
       -2
340
11
 93
        0
 40
0.045
309
GRIDFORMAT_END
 95
        2
302
GRIDFORMAT
  1
GRIDFORMAT_BEGIN
 90
        0
 91
        1
 62
     0
 92
       -2
340
11
 93
        0
 40
0.045
309
GRIDFORMAT_END
 95
        4
302
GRIDFORMAT
  1
GRIDFORMAT_BEGIN
 90
        0
 91
        1
 62
     0
 92
       -2
340
11
 93
        0
 40
0.045
309
GRIDFORMAT_END
 95
        8
302
GRIDFORMAT
  1
GRIDFORMAT_BEGIN
 90
        0
 91
        1
 62
     0
 92
       -2
340
11
 93
        0
 40
0.045
309
GRIDFORMAT_END
 95
       16
302
GRIDFORMAT
  1
GRIDFORMAT_BEGIN
 90
        0
 91
        1
 62
     0
 92
       -2
340
11
 93
        0
 40
0.045
309
GRIDFORMAT_END
 95
       32
302
GRIDFORMAT
  1
GRIDFORMAT_BEGIN
 90
        0
 91
        1
 62
     0
 92
       -2
340
11
 93
        0
 40
0.045
309
GRIDFORMAT_END
309
TABLEFORMAT_END
  1
CELLSTYLE_BEGIN
 90
        3
 91
        2
300
_DATA
309
CELLSTYLE_END
  0
XRECORD
  5
1C5
102
{ACAD_REACTORS
330
1C4
102
}
330
1C4
100
AcDbXrecord
280
     1
102
RTVSPost2010Prop28
280
     1
102
RTVSPost2010PropOp28
 70
     1
102
RTVSPost2010Prop29
280
     1
102
RTVSPost2010PropOp29
 70
     1
102
RTVSPost2010Prop30
280
     0
102
RTVSPost2010PropOp30
 70
     1
102
RTVSPost2010Prop31
280
     0
102
RTVSPost2010PropOp31
 70
     1
102
RTVSPost2010Prop32
280
     0
102
RTVSPost2010PropOp32
 70
     1
102
RTVSPost2010Prop33
280
     0
102
RTVSPost2010PropOp33
 70
     1
102
RTVSPost2010Prop34
280
     0
102
RTVSPost2010PropOp34
 70
     1
102
RTVSPost2010Prop35
280
     0
102
RTVSPost2010PropOp35
 70
     1
102
RTVSPost2010Prop36
280
     0
102
RTVSPost2010PropOp36
 70
     1
102
RTVSPost2010Prop37
 90
       50
102
RTVSPost2010PropOp37
 70
     1
102
RTVSPost2010Prop38
140
0.0
102
RTVSPost2010PropOp38
 70
     1
102
RTVSPost2010Prop39
140
1.0
102
RTVSPost2010PropOp39
 70
     1
102
RTVSPost2010Prop40
 90
        0
102
RTVSPost2010PropOp40
 70
     1
102
RTVSPost2010Prop41ColorIndex
 90
       18
102
RTVSPost2010Prop41ColorRGB
 90
        0
102
RTVSPost2010PropOp41
 70
     1
102
RTVSPost2010Prop42
 90
       50
102
RTVSPost2010PropOp42
 70
     1
102
RTVSPost2010Prop43
 90
        3
102
RTVSPost2010PropOp43
 70
     1
102
RTVSPost2010Prop44ColorIndex
 90
        5
102
RTVSPost2010Prop44ColorRGB
 90
      255
102
RTVSPost2010PropOp44
 70
     1
102
RTVSPost2010Prop45
280
     0
102
RTVSPost2010PropOp45
 70
     1
102
RTVSPost2010Prop46
 90
       50
102
RTVSPost2010PropOp46
 70
     1
102
RTVSPost2010Prop47
 90
       50
102
RTVSPost2010PropOp47
 70
     1
102
RTVSPost2010Prop48
 90
       50
102
RTVSPost2010PropOp48
 70
     1
102
RTVSPost2010Prop49
280
     0
102
RTVSPost2010PropOp49
 70
     1
102
RTVSPost2010Prop50
 90
       50
102
RTVSPost2010PropOp50
 70
     1
102
RTVSPost2010Prop51ColorIndex
 90
      256
102
RTVSPost2010Prop51ColorRGB
 90
-16777216
102
RTVSPost2010PropOp51
 70
     0
102
RTVSPost2010Prop52
140
1.0
102
RTVSPost2010PropOp52
 70
     0
102
RTVSPost2010Prop53
 90
        2
102
RTVSPost2010PropOp53
 70
     1
102
RTVSPost2010Prop54
  1
strokes_ogs.tif
102
RTVSPost2010PropOp54
 70
     1
102
RTVSPost2010Prop55
280
     0
102
RTVSPost2010PropOp55
 70
     1
102
RTVSPost2010Prop56
140
1.0
102
RTVSPost2010PropOp56
 70
     1
102
RTVSPost2010Prop57
140
1.0
102
RTVSPost2010PropOp57
 70
     1
  0
XRECORD
  5
1CB
102
{ACAD_REACTORS
330
1CA
102
}
330
1CA
100
AcDbXrecord
280
     1
102
RTVSPost2010Prop28
280
     0
102
RTVSPost2010PropOp28
 70
     1
102
RTVSPost2010Prop29
280
     1
102
RTVSPost2010PropOp29
 70
     1
102
RTVSPost2010Prop30
280
     1
102
RTVSPost2010PropOp30
 70
     1
102
RTVSPost2010Prop31
280
     0
102
RTVSPost2010PropOp31
 70
     1
102
RTVSPost2010Prop32
280
     0
102
RTVSPost2010PropOp32
 70
     1
102
RTVSPost2010Prop33
280
     0
102
RTVSPost2010PropOp33
 70
     1
102
RTVSPost2010Prop34
280
     0
102
RTVSPost2010PropOp34
 70
     1
102
RTVSPost2010Prop35
280
     0
102
RTVSPost2010PropOp35
 70
     1
102
RTVSPost2010Prop36
280
     0
102
RTVSPost2010PropOp36
 70
     1
102
RTVSPost2010Prop37
 90
       50
102
RTVSPost2010PropOp37
 70
     1
102
RTVSPost2010Prop38
140
0.0
102
RTVSPost2010PropOp38
 70
     1
102
RTVSPost2010Prop39
140
1.0
102
RTVSPost2010PropOp39
 70
     1
102
RTVSPost2010Prop40
 90
        0
102
RTVSPost2010PropOp40
 70
     1
102
RTVSPost2010Prop41ColorIndex
 90
       18
102
RTVSPost2010Prop41ColorRGB
 90
        0
102
RTVSPost2010PropOp41
 70
     1
102
RTVSPost2010Prop42
 90
       50
102
RTVSPost2010PropOp42
 70
     1
102
RTVSPost2010Prop43
 90
        3
102
RTVSPost2010PropOp43
 70
     1
102
RTVSPost2010Prop44ColorIndex
 90
        5
102
RTVSPost2010Prop44ColorRGB
 90
      255
102
RTVSPost2010PropOp44
 70
     1
102
RTVSPost2010Prop45
280
     0
102
RTVSPost2010PropOp45
 70
     1
102
RTVSPost2010Prop46
 90
       50
102
RTVSPost2010PropOp46
 70
     1
102
RTVSPost2010Prop47
 90
       50
102
RTVSPost2010PropOp47
 70
     1
102
RTVSPost2010Prop48
 90
       50
102
RTVSPost2010PropOp48
 70
     1
102
RTVSPost2010Prop49
280
     0
102
RTVSPost2010PropOp49
 70
     1
102
RTVSPost2010Prop50
 90
       50
102
RTVSPost2010PropOp50
 70
     1
102
RTVSPost2010Prop51ColorIndex
 90
      256
102
RTVSPost2010Prop51ColorRGB
 90
-16777216
102
RTVSPost2010PropOp51
 70
     0
102
RTVSPost2010Prop52
140
1.0
102
RTVSPost2010PropOp52
 70
     0
102
RTVSPost2010Prop53
 90
        2
102
RTVSPost2010PropOp53
 70
     1
102
RTVSPost2010Prop54
  1
strokes_ogs.tif
102
RTVSPost2010PropOp54
 70
     1
102
RTVSPost2010Prop55
280
     0
102
RTVSPost2010PropOp55
 70
     1
102
RTVSPost2010Prop56
140
1.0
102
RTVSPost2010PropOp56
 70
     1
102
RTVSPost2010Prop57
140
1.0
102
RTVSPost2010PropOp57
 70
     1
  0
XRECORD
  5
1D3
102
{ACAD_REACTORS
330
1D2
102
}
330
1D2
100
AcDbXrecord
280
     1
102
RTVSPost2010Prop28
280
     0
102
RTVSPost2010PropOp28
 70
     1
102
RTVSPost2010Prop29
280
     1
102
RTVSPost2010PropOp29
 70
     1
102
RTVSPost2010Prop30
280
     1
102
RTVSPost2010PropOp30
 70
     1
102
RTVSPost2010Prop31
280
     0
102
RTVSPost2010PropOp31
 70
     1
102
RTVSPost2010Prop32
280
     0
102
RTVSPost2010PropOp32
 70
     1
102
RTVSPost2010Prop33
280
     0
102
RTVSPost2010PropOp33
 70
     1
102
RTVSPost2010Prop34
280
     0
102
RTVSPost2010PropOp34
 70
     1
102
RTVSPost2010Prop35
280
     0
102
RTVSPost2010PropOp35
 70
     1
102
RTVSPost2010Prop36
280
     0
102
RTVSPost2010PropOp36
 70
     1
102
RTVSPost2010Prop37
 90
       50
102
RTVSPost2010PropOp37
 70
     1
102
RTVSPost2010Prop38
140
0.0
102
RTVSPost2010PropOp38
 70
     1
102
RTVSPost2010Prop39
140
1.0
102
RTVSPost2010PropOp39
 70
     1
102
RTVSPost2010Prop40
 90
        0
102
RTVSPost2010PropOp40
 70
     1
102
RTVSPost2010Prop41ColorIndex
 90
       18
102
RTVSPost2010Prop41ColorRGB
 90
        0
102
RTVSPost2010PropOp41
 70
     1
102
RTVSPost2010Prop42
 90
       50
102
RTVSPost2010PropOp42
 70
     1
102
RTVSPost2010Prop43
 90
        3
102
RTVSPost2010PropOp43
 70
     1
102
RTVSPost2010Prop44ColorIndex
 90
        5
102
RTVSPost2010Prop44ColorRGB
 90
      255
102
RTVSPost2010PropOp44
 70
     1
102
RTVSPost2010Prop45
280
     0
102
RTVSPost2010PropOp45
 70
     1
102
RTVSPost2010Prop46
 90
       50
102
RTVSPost2010PropOp46
 70
     1
102
RTVSPost2010Prop47
 90
       50
102
RTVSPost2010PropOp47
 70
     1
102
RTVSPost2010Prop48
 90
       50
102
RTVSPost2010PropOp48
 70
     1
102
RTVSPost2010Prop49
280
     0
102
RTVSPost2010PropOp49
 70
     1
102
RTVSPost2010Prop50
 90
       50
102
RTVSPost2010PropOp50
 70
     1
102
RTVSPost2010Prop51ColorIndex
 90
      256
102
RTVSPost2010Prop51ColorRGB
 90
-16777216
102
RTVSPost2010PropOp51
 70
     0
102
RTVSPost2010Prop52
140
1.0
102
RTVSPost2010PropOp52
 70
     0
102
RTVSPost2010Prop53
 90
        2
102
RTVSPost2010PropOp53
 70
     1
102
RTVSPost2010Prop54
  1
strokes_ogs.tif
102
RTVSPost2010PropOp54
 70
     1
102
RTVSPost2010Prop55
280
     0
102
RTVSPost2010PropOp55
 70
     1
102
RTVSPost2010Prop56
140
1.0
102
RTVSPost2010PropOp56
 70
     1
102
RTVSPost2010Prop57
140
1.0
102
RTVSPost2010PropOp57
 70
     1
  0
XRECORD
  5
1DB
102
{ACAD_REACTORS
330
1DA
102
}
330
1DA
100
AcDbXrecord
280
     1
102
RTVSPost2010Prop28
280
     0
102
RTVSPost2010PropOp28
 70
     1
102
RTVSPost2010Prop29
280
     1
102
RTVSPost2010PropOp29
 70
     1
102
RTVSPost2010Prop30
280
     1
102
RTVSPost2010PropOp30
 70
     1
102
RTVSPost2010Prop31
280
     0
102
RTVSPost2010PropOp31
 70
     1
102
RTVSPost2010Prop32
280
     0
102
RTVSPost2010PropOp32
 70
     1
102
RTVSPost2010Prop33
280
     0
102
RTVSPost2010PropOp33
 70
     1
102
RTVSPost2010Prop34
280
     0
102
RTVSPost2010PropOp34
 70
     1
102
RTVSPost2010Prop35
280
     0
102
RTVSPost2010PropOp35
 70
     1
102
RTVSPost2010Prop36
280
     0
102
RTVSPost2010PropOp36
 70
     1
102
RTVSPost2010Prop37
 90
       50
102
RTVSPost2010PropOp37
 70
     1
102
RTVSPost2010Prop38
140
0.0
102
RTVSPost2010PropOp38
 70
     1
102
RTVSPost2010Prop39
140
1.0
102
RTVSPost2010PropOp39
 70
     1
102
RTVSPost2010Prop40
 90
        0
102
RTVSPost2010PropOp40
 70
     1
102
RTVSPost2010Prop41ColorIndex
 90
       18
102
RTVSPost2010Prop41ColorRGB
 90
        0
102
RTVSPost2010PropOp41
 70
     1
102
RTVSPost2010Prop42
 90
       50
102
RTVSPost2010PropOp42
 70
     1
102
RTVSPost2010Prop43
 90
        3
102
RTVSPost2010PropOp43
 70
     1
102
RTVSPost2010Prop44ColorIndex
 90
        5
102
RTVSPost2010Prop44ColorRGB
 90
      255
102
RTVSPost2010PropOp44
 70
     1
102
RTVSPost2010Prop45
280
     0
102
RTVSPost2010PropOp45
 70
     1
102
RTVSPost2010Prop46
 90
       50
102
RTVSPost2010PropOp46
 70
     1
102
RTVSPost2010Prop47
 90
       50
102
RTVSPost2010PropOp47
 70
     1
102
RTVSPost2010Prop48
 90
       50
102
RTVSPost2010PropOp48
 70
     1
102
RTVSPost2010Prop49
280
     0
102
RTVSPost2010PropOp49
 70
     1
102
RTVSPost2010Prop50
 90
       50
102
RTVSPost2010PropOp50
 70
     1
102
RTVSPost2010Prop51ColorIndex
 90
      256
102
RTVSPost2010Prop51ColorRGB
 90
-16777216
102
RTVSPost2010PropOp51
 70
     0
102
RTVSPost2010Prop52
140
1.0
102
RTVSPost2010PropOp52
 70
     0
102
RTVSPost2010Prop53
 90
        2
102
RTVSPost2010PropOp53
 70
     1
102
RTVSPost2010Prop54
  1
strokes_ogs.tif
102
RTVSPost2010PropOp54
 70
     1
102
RTVSPost2010Prop55
280
     0
102
RTVSPost2010PropOp55
 70
     1
102
RTVSPost2010Prop56
140
1.0
102
RTVSPost2010PropOp56
 70
     1
102
RTVSPost2010Prop57
140
1.0
102
RTVSPost2010PropOp57
 70
     1
  0
XRECORD
  5
1CF
102
{ACAD_REACTORS
330
1CE
102
}
330
1CE
100
AcDbXrecord
280
     1
102
RTVSPost2010Prop28
280
     0
102
RTVSPost2010PropOp28
 70
     1
102
RTVSPost2010Prop29
280
     1
102
RTVSPost2010PropOp29
 70
     1
102
RTVSPost2010Prop30
280
     1
102
RTVSPost2010PropOp30
 70
     1
102
RTVSPost2010Prop31
280
     0
102
RTVSPost2010PropOp31
 70
     1
102
RTVSPost2010Prop32
280
     0
102
RTVSPost2010PropOp32
 70
     1
102
RTVSPost2010Prop33
280
     0
102
RTVSPost2010PropOp33
 70
     1
102
RTVSPost2010Prop34
280
     0
102
RTVSPost2010PropOp34
 70
     1
102
RTVSPost2010Prop35
280
     0
102
RTVSPost2010PropOp35
 70
     1
102
RTVSPost2010Prop36
280
     0
102
RTVSPost2010PropOp36
 70
     1
102
RTVSPost2010Prop37
 90
       50
102
RTVSPost2010PropOp37
 70
     1
102
RTVSPost2010Prop38
140
0.0
102
RTVSPost2010PropOp38
 70
     1
102
RTVSPost2010Prop39
140
1.0
102
RTVSPost2010PropOp39
 70
     1
102
RTVSPost2010Prop40
 90
        0
102
RTVSPost2010PropOp40
 70
     1
102
RTVSPost2010Prop41ColorIndex
 90
       18
102
RTVSPost2010Prop41ColorRGB
 90
        0
102
RTVSPost2010PropOp41
 70
     1
102
RTVSPost2010Prop42
 90
       50
102
RTVSPost2010PropOp42
 70
     1
102
RTVSPost2010Prop43
 90
        3
102
RTVSPost2010PropOp43
 70
     1
102
RTVSPost2010Prop44ColorIndex
 90
        5
102
RTVSPost2010Prop44ColorRGB
 90
      255
102
RTVSPost2010PropOp44
 70
     1
102
RTVSPost2010Prop45
280
     0
102
RTVSPost2010PropOp45
 70
     1
102
RTVSPost2010Prop46
 90
       50
102
RTVSPost2010PropOp46
 70
     1
102
RTVSPost2010Prop47
 90
       50
102
RTVSPost2010PropOp47
 70
     1
102
RTVSPost2010Prop48
 90
       50
102
RTVSPost2010PropOp48
 70
     1
102
RTVSPost2010Prop49
280
     0
102
RTVSPost2010PropOp49
 70
     1
102
RTVSPost2010Prop50
 90
       50
102
RTVSPost2010PropOp50
 70
     1
102
RTVSPost2010Prop51ColorIndex
 90
      256
102
RTVSPost2010Prop51ColorRGB
 90
-16777216
102
RTVSPost2010PropOp51
 70
     0
102
RTVSPost2010Prop52
140
1.0
102
RTVSPost2010PropOp52
 70
     0
102
RTVSPost2010Prop53
 90
        2
102
RTVSPost2010PropOp53
 70
     1
102
RTVSPost2010Prop54
  1
strokes_ogs.tif
102
RTVSPost2010PropOp54
 70
     1
102
RTVSPost2010Prop55
280
     0
102
RTVSPost2010PropOp55
 70
     1
102
RTVSPost2010Prop56
140
1.0
102
RTVSPost2010PropOp56
 70
     1
102
RTVSPost2010Prop57
140
1.0
102
RTVSPost2010PropOp57
 70
     1
  0
XRECORD
  5
1D1
102
{ACAD_REACTORS
330
1D0
102
}
330
1D0
100
AcDbXrecord
280
     1
102
RTVSPost2010Prop28
280
     0
102
RTVSPost2010PropOp28
 70
     1
102
RTVSPost2010Prop29
280
     1
102
RTVSPost2010PropOp29
 70
     1
102
RTVSPost2010Prop30
280
     1
102
RTVSPost2010PropOp30
 70
     1
102
RTVSPost2010Prop31
280
     0
102
RTVSPost2010PropOp31
 70
     1
102
RTVSPost2010Prop32
280
     0
102
RTVSPost2010PropOp32
 70
     1
102
RTVSPost2010Prop33
280
     0
102
RTVSPost2010PropOp33
 70
     1
102
RTVSPost2010Prop34
280
     0
102
RTVSPost2010PropOp34
 70
     1
102
RTVSPost2010Prop35
280
     0
102
RTVSPost2010PropOp35
 70
     1
102
RTVSPost2010Prop36
280
     0
102
RTVSPost2010PropOp36
 70
     1
102
RTVSPost2010Prop37
 90
       50
102
RTVSPost2010PropOp37
 70
     1
102
RTVSPost2010Prop38
140
0.0
102
RTVSPost2010PropOp38
 70
     1
102
RTVSPost2010Prop39
140
1.0
102
RTVSPost2010PropOp39
 70
     1
102
RTVSPost2010Prop40
 90
        0
102
RTVSPost2010PropOp40
 70
     1
102
RTVSPost2010Prop41ColorIndex
 90
       18
102
RTVSPost2010Prop41ColorRGB
 90
        0
102
RTVSPost2010PropOp41
 70
     1
102
RTVSPost2010Prop42
 90
       50
102
RTVSPost2010PropOp42
 70
     1
102
RTVSPost2010Prop43
 90
        3
102
RTVSPost2010PropOp43
 70
     1
102
RTVSPost2010Prop44ColorIndex
 90
        5
102
RTVSPost2010Prop44ColorRGB
 90
      255
102
RTVSPost2010PropOp44
 70
     1
102
RTVSPost2010Prop45
280
     0
102
RTVSPost2010PropOp45
 70
     1
102
RTVSPost2010Prop46
 90
       50
102
RTVSPost2010PropOp46
 70
     1
102
RTVSPost2010Prop47
 90
       50
102
RTVSPost2010PropOp47
 70
     1
102
RTVSPost2010Prop48
 90
       50
102
RTVSPost2010PropOp48
 70
     1
102
RTVSPost2010Prop49
280
     0
102
RTVSPost2010PropOp49
 70
     1
102
RTVSPost2010Prop50
 90
       50
102
RTVSPost2010PropOp50
 70
     1
102
RTVSPost2010Prop51ColorIndex
 90
      256
102
RTVSPost2010Prop51ColorRGB
 90
-16777216
102
RTVSPost2010PropOp51
 70
     0
102
RTVSPost2010Prop52
140
1.0
102
RTVSPost2010PropOp52
 70
     0
102
RTVSPost2010Prop53
 90
        2
102
RTVSPost2010PropOp53
 70
     1
102
RTVSPost2010Prop54
  1
strokes_ogs.tif
102
RTVSPost2010PropOp54
 70
     1
102
RTVSPost2010Prop55
280
     0
102
RTVSPost2010PropOp55
 70
     1
102
RTVSPost2010Prop56
140
1.0
102
RTVSPost2010PropOp56
 70
     1
102
RTVSPost2010Prop57
140
1.0
102
RTVSPost2010PropOp57
 70
     1
  0
XRECORD
  5
1E1
102
{ACAD_REACTORS
330
1E0
102
}
330
1E0
100
AcDbXrecord
280
     1
102
RTVSPost2010Prop28
280
     0
102
RTVSPost2010PropOp28
 70
     0
102
RTVSPost2010Prop29
280
     1
102
RTVSPost2010PropOp29
 70
     0
102
RTVSPost2010Prop30
280
     1
102
RTVSPost2010PropOp30
 70
     0
102
RTVSPost2010Prop31
280
     0
102
RTVSPost2010PropOp31
 70
     0
102
RTVSPost2010Prop32
280
     0
102
RTVSPost2010PropOp32
 70
     0
102
RTVSPost2010Prop33
280
     0
102
RTVSPost2010PropOp33
 70
     0
102
RTVSPost2010Prop34
280
     0
102
RTVSPost2010PropOp34
 70
     0
102
RTVSPost2010Prop35
280
     0
102
RTVSPost2010PropOp35
 70
     0
102
RTVSPost2010Prop36
280
     0
102
RTVSPost2010PropOp36
 70
     0
102
RTVSPost2010Prop37
 90
       50
102
RTVSPost2010PropOp37
 70
     0
102
RTVSPost2010Prop38
140
0.0
102
RTVSPost2010PropOp38
 70
     0
102
RTVSPost2010Prop39
140
1.0
102
RTVSPost2010PropOp39
 70
     0
102
RTVSPost2010Prop40
 90
        0
102
RTVSPost2010PropOp40
 70
     0
102
RTVSPost2010Prop41ColorIndex
 90
       18
102
RTVSPost2010Prop41ColorRGB
 90
        0
102
RTVSPost2010PropOp41
 70
     0
102
RTVSPost2010Prop42
 90
       50
102
RTVSPost2010PropOp42
 70
     0
102
RTVSPost2010Prop43
 90
        3
102
RTVSPost2010PropOp43
 70
     0
102
RTVSPost2010Prop44ColorIndex
 90
        5
102
RTVSPost2010Prop44ColorRGB
 90
      255
102
RTVSPost2010PropOp44
 70
     0
102
RTVSPost2010Prop45
280
     0
102
RTVSPost2010PropOp45
 70
     0
102
RTVSPost2010Prop46
 90
       50
102
RTVSPost2010PropOp46
 70
     0
102
RTVSPost2010Prop47
 90
       50
102
RTVSPost2010PropOp47
 70
     0
102
RTVSPost2010Prop48
 90
       50
102
RTVSPost2010PropOp48
 70
     0
102
RTVSPost2010Prop49
280
     0
102
RTVSPost2010PropOp49
 70
     0
102
RTVSPost2010Prop50
 90
       50
102
RTVSPost2010PropOp50
 70
     0
102
RTVSPost2010Prop51ColorIndex
 90
      256
102
RTVSPost2010Prop51ColorRGB
 90
-16777216
102
RTVSPost2010PropOp51
 70
     0
102
RTVSPost2010Prop52
140
1.0
102
RTVSPost2010PropOp52
 70
     0
102
RTVSPost2010Prop53
 90
        2
102
RTVSPost2010PropOp53
 70
     0
102
RTVSPost2010Prop54
  1
strokes_ogs.tif
102
RTVSPost2010PropOp54
 70
     0
102
RTVSPost2010Prop55
280
     0
102
RTVSPost2010PropOp55
 70
     0
102
RTVSPost2010Prop56
140
1.0
102
RTVSPost2010PropOp56
 70
     0
102
RTVSPost2010Prop57
140
1.0
102
RTVSPost2010PropOp57
 70
     0
  0
XRECORD
  5
1D9
102
{ACAD_REACTORS
330
1D8
102
}
330
1D8
100
AcDbXrecord
280
     1
102
RTVSPost2010Prop28
280
     0
102
RTVSPost2010PropOp28
 70
     1
102
RTVSPost2010Prop29
280
     1
102
RTVSPost2010PropOp29
 70
     1
102
RTVSPost2010Prop30
280
     1
102
RTVSPost2010PropOp30
 70
     1
102
RTVSPost2010Prop31
280
     0
102
RTVSPost2010PropOp31
 70
     1
102
RTVSPost2010Prop32
280
     0
102
RTVSPost2010PropOp32
 70
     1
102
RTVSPost2010Prop33
280
     0
102
RTVSPost2010PropOp33
 70
     1
102
RTVSPost2010Prop34
280
     0
102
RTVSPost2010PropOp34
 70
     1
102
RTVSPost2010Prop35
280
     0
102
RTVSPost2010PropOp35
 70
     1
102
RTVSPost2010Prop36
280
     0
102
RTVSPost2010PropOp36
 70
     1
102
RTVSPost2010Prop37
 90
       50
102
RTVSPost2010PropOp37
 70
     1
102
RTVSPost2010Prop38
140
0.0
102
RTVSPost2010PropOp38
 70
     1
102
RTVSPost2010Prop39
140
1.0
102
RTVSPost2010PropOp39
 70
     1
102
RTVSPost2010Prop40
 90
        0
102
RTVSPost2010PropOp40
 70
     1
102
RTVSPost2010Prop41ColorIndex
 90
       18
102
RTVSPost2010Prop41ColorRGB
 90
        0
102
RTVSPost2010PropOp41
 70
     1
102
RTVSPost2010Prop42
 90
       50
102
RTVSPost2010PropOp42
 70
     1
102
RTVSPost2010Prop43
 90
        3
102
RTVSPost2010PropOp43
 70
     1
102
RTVSPost2010Prop44ColorIndex
 90
        5
102
RTVSPost2010Prop44ColorRGB
 90
      255
102
RTVSPost2010PropOp44
 70
     1
102
RTVSPost2010Prop45
280
     0
102
RTVSPost2010PropOp45
 70
     1
102
RTVSPost2010Prop46
 90
       50
102
RTVSPost2010PropOp46
 70
     1
102
RTVSPost2010Prop47
 90
       50
102
RTVSPost2010PropOp47
 70
     1
102
RTVSPost2010Prop48
 90
       50
102
RTVSPost2010PropOp48
 70
     1
102
RTVSPost2010Prop49
280
     0
102
RTVSPost2010PropOp49
 70
     1
102
RTVSPost2010Prop50
 90
       50
102
RTVSPost2010PropOp50
 70
     1
102
RTVSPost2010Prop51ColorIndex
 90
      256
102
RTVSPost2010Prop51ColorRGB
 90
-16777216
102
RTVSPost2010PropOp51
 70
     0
102
RTVSPost2010Prop52
140
1.0
102
RTVSPost2010PropOp52
 70
     0
102
RTVSPost2010Prop53
 90
        2
102
RTVSPost2010PropOp53
 70
     1
102
RTVSPost2010Prop54
  1
strokes_ogs.tif
102
RTVSPost2010PropOp54
 70
     1
102
RTVSPost2010Prop55
280
     0
102
RTVSPost2010PropOp55
 70
     1
102
RTVSPost2010Prop56
140
1.0
102
RTVSPost2010PropOp56
 70
     1
102
RTVSPost2010Prop57
140
1.0
102
RTVSPost2010PropOp57
 70
     1
  0
XRECORD
  5
1BD
102
{ACAD_REACTORS
330
1BC
102
}
330
1BC
100
AcDbXrecord
280
     1
102
RTVSPost2010Prop28
280
     0
102
RTVSPost2010PropOp28
 70
     1
102
RTVSPost2010Prop29
280
     1
102
RTVSPost2010PropOp29
 70
     1
102
RTVSPost2010Prop30
280
     1
102
RTVSPost2010PropOp30
 70
     1
102
RTVSPost2010Prop31
280
     0
102
RTVSPost2010PropOp31
 70
     1
102
RTVSPost2010Prop32
280
     0
102
RTVSPost2010PropOp32
 70
     1
102
RTVSPost2010Prop33
280
     0
102
RTVSPost2010PropOp33
 70
     1
102
RTVSPost2010Prop34
280
     0
102
RTVSPost2010PropOp34
 70
     1
102
RTVSPost2010Prop35
280
     0
102
RTVSPost2010PropOp35
 70
     1
102
RTVSPost2010Prop36
280
     0
102
RTVSPost2010PropOp36
 70
     1
102
RTVSPost2010Prop37
 90
       50
102
RTVSPost2010PropOp37
 70
     1
102
RTVSPost2010Prop38
140
0.0
102
RTVSPost2010PropOp38
 70
     1
102
RTVSPost2010Prop39
140
1.0
102
RTVSPost2010PropOp39
 70
     1
102
RTVSPost2010Prop40
 90
        0
102
RTVSPost2010PropOp40
 70
     1
102
RTVSPost2010Prop41ColorIndex
 90
       18
102
RTVSPost2010Prop41ColorRGB
 90
        0
102
RTVSPost2010PropOp41
 70
     1
102
RTVSPost2010Prop42
 90
       50
102
RTVSPost2010PropOp42
 70
     1
102
RTVSPost2010Prop43
 90
        3
102
RTVSPost2010PropOp43
 70
     1
102
RTVSPost2010Prop44ColorIndex
 90
        5
102
RTVSPost2010Prop44ColorRGB
 90
      255
102
RTVSPost2010PropOp44
 70
     1
102
RTVSPost2010Prop45
280
     0
102
RTVSPost2010PropOp45
 70
     1
102
RTVSPost2010Prop46
 90
       50
102
RTVSPost2010PropOp46
 70
     1
102
RTVSPost2010Prop47
 90
       50
102
RTVSPost2010PropOp47
 70
     1
102
RTVSPost2010Prop48
 90
       50
102
RTVSPost2010PropOp48
 70
     1
102
RTVSPost2010Prop49
280
     0
102
RTVSPost2010PropOp49
 70
     1
102
RTVSPost2010Prop50
 90
       50
102
RTVSPost2010PropOp50
 70
     1
102
RTVSPost2010Prop51ColorIndex
 90
      256
102
RTVSPost2010Prop51ColorRGB
 90
-16777216
102
RTVSPost2010PropOp51
 70
     0
102
RTVSPost2010Prop52
140
1.0
102
RTVSPost2010PropOp52
 70
     0
102
RTVSPost2010Prop53
 90
        2
102
RTVSPost2010PropOp53
 70
     1
102
RTVSPost2010Prop54
  1
strokes_ogs.tif
102
RTVSPost2010PropOp54
 70
     1
102
RTVSPost2010Prop55
280
     0
102
RTVSPost2010PropOp55
 70
     1
102
RTVSPost2010Prop56
140
1.0
102
RTVSPost2010PropOp56
 70
     1
102
RTVSPost2010Prop57
140
1.0
102
RTVSPost2010PropOp57
 70
     1
  0
XRECORD
  5
1BF
102
{ACAD_REACTORS
330
1BE
102
}
330
1BE
100
AcDbXrecord
280
     1
102
RTVSPost2010Prop28
280
     0
102
RTVSPost2010PropOp28
 70
     1
102
RTVSPost2010Prop29
280
     1
102
RTVSPost2010PropOp29
 70
     1
102
RTVSPost2010Prop30
280
     1
102
RTVSPost2010PropOp30
 70
     1
102
RTVSPost2010Prop31
280
     0
102
RTVSPost2010PropOp31
 70
     1
102
RTVSPost2010Prop32
280
     0
102
RTVSPost2010PropOp32
 70
     1
102
RTVSPost2010Prop33
280
     0
102
RTVSPost2010PropOp33
 70
     1
102
RTVSPost2010Prop34
280
     0
102
RTVSPost2010PropOp34
 70
     1
102
RTVSPost2010Prop35
280
     0
102
RTVSPost2010PropOp35
 70
     1
102
RTVSPost2010Prop36
280
     0
102
RTVSPost2010PropOp36
 70
     1
102
RTVSPost2010Prop37
 90
       50
102
RTVSPost2010PropOp37
 70
     1
102
RTVSPost2010Prop38
140
0.0
102
RTVSPost2010PropOp38
 70
     1
102
RTVSPost2010Prop39
140
1.0
102
RTVSPost2010PropOp39
 70
     1
102
RTVSPost2010Prop40
 90
        0
102
RTVSPost2010PropOp40
 70
     1
102
RTVSPost2010Prop41ColorIndex
 90
       18
102
RTVSPost2010Prop41ColorRGB
 90
        0
102
RTVSPost2010PropOp41
 70
     1
102
RTVSPost2010Prop42
 90
       50
102
RTVSPost2010PropOp42
 70
     1
102
RTVSPost2010Prop43
 90
        3
102
RTVSPost2010PropOp43
 70
     1
102
RTVSPost2010Prop44ColorIndex
 90
        5
102
RTVSPost2010Prop44ColorRGB
 90
      255
102
RTVSPost2010PropOp44
 70
     1
102
RTVSPost2010Prop45
280
     0
102
RTVSPost2010PropOp45
 70
     1
102
RTVSPost2010Prop46
 90
       50
102
RTVSPost2010PropOp46
 70
     1
102
RTVSPost2010Prop47
 90
       50
102
RTVSPost2010PropOp47
 70
     1
102
RTVSPost2010Prop48
 90
       50
102
RTVSPost2010PropOp48
 70
     1
102
RTVSPost2010Prop49
280
     0
102
RTVSPost2010PropOp49
 70
     1
102
RTVSPost2010Prop50
 90
       50
102
RTVSPost2010PropOp50
 70
     1
102
RTVSPost2010Prop51ColorIndex
 90
      256
102
RTVSPost2010Prop51ColorRGB
 90
-16777216
102
RTVSPost2010PropOp51
 70
     0
102
RTVSPost2010Prop52
140
1.0
102
RTVSPost2010PropOp52
 70
     0
102
RTVSPost2010Prop53
 90
        2
102
RTVSPost2010PropOp53
 70
     1
102
RTVSPost2010Prop54
  1
strokes_ogs.tif
102
RTVSPost2010PropOp54
 70
     1
102
RTVSPost2010Prop55
280
     0
102
RTVSPost2010PropOp55
 70
     1
102
RTVSPost2010Prop56
140
1.0
102
RTVSPost2010PropOp56
 70
     1
102
RTVSPost2010Prop57
140
1.0
102
RTVSPost2010PropOp57
 70
     1
  0
XRECORD
  5
1C1
102
{ACAD_REACTORS
330
1C0
102
}
330
1C0
100
AcDbXrecord
280
     1
102
RTVSPost2010Prop28
280
     0
102
RTVSPost2010PropOp28
 70
     1
102
RTVSPost2010Prop29
280
     1
102
RTVSPost2010PropOp29
 70
     1
102
RTVSPost2010Prop30
280
     1
102
RTVSPost2010PropOp30
 70
     1
102
RTVSPost2010Prop31
280
     0
102
RTVSPost2010PropOp31
 70
     1
102
RTVSPost2010Prop32
280
     0
102
RTVSPost2010PropOp32
 70
     1
102
RTVSPost2010Prop33
280
     0
102
RTVSPost2010PropOp33
 70
     1
102
RTVSPost2010Prop34
280
     0
102
RTVSPost2010PropOp34
 70
     1
102
RTVSPost2010Prop35
280
     0
102
RTVSPost2010PropOp35
 70
     1
102
RTVSPost2010Prop36
280
     0
102
RTVSPost2010PropOp36
 70
     1
102
RTVSPost2010Prop37
 90
       50
102
RTVSPost2010PropOp37
 70
     1
102
RTVSPost2010Prop38
140
0.0
102
RTVSPost2010PropOp38
 70
     1
102
RTVSPost2010Prop39
140
1.0
102
RTVSPost2010PropOp39
 70
     1
102
RTVSPost2010Prop40
 90
        0
102
RTVSPost2010PropOp40
 70
     1
102
RTVSPost2010Prop41ColorIndex
 90
       18
102
RTVSPost2010Prop41ColorRGB
 90
        0
102
RTVSPost2010PropOp41
 70
     1
102
RTVSPost2010Prop42
 90
       50
102
RTVSPost2010PropOp42
 70
     1
102
RTVSPost2010Prop43
 90
        3
102
RTVSPost2010PropOp43
 70
     1
102
RTVSPost2010Prop44ColorIndex
 90
        5
102
RTVSPost2010Prop44ColorRGB
 90
      255
102
RTVSPost2010PropOp44
 70
     1
102
RTVSPost2010Prop45
280
     0
102
RTVSPost2010PropOp45
 70
     1
102
RTVSPost2010Prop46
 90
       50
102
RTVSPost2010PropOp46
 70
     1
102
RTVSPost2010Prop47
 90
       50
102
RTVSPost2010PropOp47
 70
     1
102
RTVSPost2010Prop48
 90
       50
102
RTVSPost2010PropOp48
 70
     1
102
RTVSPost2010Prop49
280
     0
102
RTVSPost2010PropOp49
 70
     1
102
RTVSPost2010Prop50
 90
       50
102
RTVSPost2010PropOp50
 70
     1
102
RTVSPost2010Prop51ColorIndex
 90
      256
102
RTVSPost2010Prop51ColorRGB
 90
-16777216
102
RTVSPost2010PropOp51
 70
     0
102
RTVSPost2010Prop52
140
1.0
102
RTVSPost2010PropOp52
 70
     0
102
RTVSPost2010Prop53
 90
        2
102
RTVSPost2010PropOp53
 70
     1
102
RTVSPost2010Prop54
  1
strokes_ogs.tif
102
RTVSPost2010PropOp54
 70
     1
102
RTVSPost2010Prop55
280
     0
102
RTVSPost2010PropOp55
 70
     1
102
RTVSPost2010Prop56
140
1.0
102
RTVSPost2010PropOp56
 70
     1
102
RTVSPost2010Prop57
140
1.0
102
RTVSPost2010PropOp57
 70
     1
  0
XRECORD
  5
1C3
102
{ACAD_REACTORS
330
1C2
102
}
330
1C2
100
AcDbXrecord
280
     1
102
RTVSPost2010Prop28
280
     0
102
RTVSPost2010PropOp28
 70
     1
102
RTVSPost2010Prop29
280
     1
102
RTVSPost2010PropOp29
 70
     1
102
RTVSPost2010Prop30
280
     1
102
RTVSPost2010PropOp30
 70
     1
102
RTVSPost2010Prop31
280
     0
102
RTVSPost2010PropOp31
 70
     1
102
RTVSPost2010Prop32
280
     0
102
RTVSPost2010PropOp32
 70
     1
102
RTVSPost2010Prop33
280
     0
102
RTVSPost2010PropOp33
 70
     1
102
RTVSPost2010Prop34
280
     0
102
RTVSPost2010PropOp34
 70
     1
102
RTVSPost2010Prop35
280
     0
102
RTVSPost2010PropOp35
 70
     1
102
RTVSPost2010Prop36
280
     0
102
RTVSPost2010PropOp36
 70
     1
102
RTVSPost2010Prop37
 90
       50
102
RTVSPost2010PropOp37
 70
     1
102
RTVSPost2010Prop38
140
0.0
102
RTVSPost2010PropOp38
 70
     1
102
RTVSPost2010Prop39
140
1.0
102
RTVSPost2010PropOp39
 70
     1
102
RTVSPost2010Prop40
 90
        0
102
RTVSPost2010PropOp40
 70
     1
102
RTVSPost2010Prop41ColorIndex
 90
       18
102
RTVSPost2010Prop41ColorRGB
 90
        0
102
RTVSPost2010PropOp41
 70
     1
102
RTVSPost2010Prop42
 90
       50
102
RTVSPost2010PropOp42
 70
     1
102
RTVSPost2010Prop43
 90
        3
102
RTVSPost2010PropOp43
 70
     1
102
RTVSPost2010Prop44ColorIndex
 90
        5
102
RTVSPost2010Prop44ColorRGB
 90
      255
102
RTVSPost2010PropOp44
 70
     1
102
RTVSPost2010Prop45
280
     0
102
RTVSPost2010PropOp45
 70
     1
102
RTVSPost2010Prop46
 90
       50
102
RTVSPost2010PropOp46
 70
     1
102
RTVSPost2010Prop47
 90
       50
102
RTVSPost2010PropOp47
 70
     1
102
RTVSPost2010Prop48
 90
       50
102
RTVSPost2010PropOp48
 70
     1
102
RTVSPost2010Prop49
280
     0
102
RTVSPost2010PropOp49
 70
     1
102
RTVSPost2010Prop50
 90
       50
102
RTVSPost2010PropOp50
 70
     1
102
RTVSPost2010Prop51ColorIndex
 90
      256
102
RTVSPost2010Prop51ColorRGB
 90
-16777216
102
RTVSPost2010PropOp51
 70
     0
102
RTVSPost2010Prop52
140
1.0
102
RTVSPost2010PropOp52
 70
     0
102
RTVSPost2010Prop53
 90
        2
102
RTVSPost2010PropOp53
 70
     1
102
RTVSPost2010Prop54
  1
strokes_ogs.tif
102
RTVSPost2010PropOp54
 70
     1
102
RTVSPost2010Prop55
280
     0
102
RTVSPost2010PropOp55
 70
     1
102
RTVSPost2010Prop56
140
1.0
102
RTVSPost2010PropOp56
 70
     1
102
RTVSPost2010Prop57
140
1.0
102
RTVSPost2010PropOp57
 70
     1
  0
XRECORD
  5
1C9
102
{ACAD_REACTORS
330
1C8
102
}
330
1C8
100
AcDbXrecord
280
     1
102
RTVSPost2010Prop28
280
     0
102
RTVSPost2010PropOp28
 70
     1
102
RTVSPost2010Prop29
280
     1
102
RTVSPost2010PropOp29
 70
     1
102
RTVSPost2010Prop30
280
     1
102
RTVSPost2010PropOp30
 70
     1
102
RTVSPost2010Prop31
280
     0
102
RTVSPost2010PropOp31
 70
     1
102
RTVSPost2010Prop32
280
     0
102
RTVSPost2010PropOp32
 70
     1
102
RTVSPost2010Prop33
280
     0
102
RTVSPost2010PropOp33
 70
     1
102
RTVSPost2010Prop34
280
     0
102
RTVSPost2010PropOp34
 70
     1
102
RTVSPost2010Prop35
280
     0
102
RTVSPost2010PropOp35
 70
     1
102
RTVSPost2010Prop36
280
     0
102
RTVSPost2010PropOp36
 70
     1
102
RTVSPost2010Prop37
 90
       50
102
RTVSPost2010PropOp37
 70
     1
102
RTVSPost2010Prop38
140
0.0
102
RTVSPost2010PropOp38
 70
     1
102
RTVSPost2010Prop39
140
1.0
102
RTVSPost2010PropOp39
 70
     1
102
RTVSPost2010Prop40
 90
        0
102
RTVSPost2010PropOp40
 70
     1
102
RTVSPost2010Prop41ColorIndex
 90
       18
102
RTVSPost2010Prop41ColorRGB
 90
        0
102
RTVSPost2010PropOp41
 70
     1
102
RTVSPost2010Prop42
 90
       50
102
RTVSPost2010PropOp42
 70
     1
102
RTVSPost2010Prop43
 90
        3
102
RTVSPost2010PropOp43
 70
     1
102
RTVSPost2010Prop44ColorIndex
 90
        5
102
RTVSPost2010Prop44ColorRGB
 90
      255
102
RTVSPost2010PropOp44
 70
     1
102
RTVSPost2010Prop45
280
     0
102
RTVSPost2010PropOp45
 70
     1
102
RTVSPost2010Prop46
 90
       50
102
RTVSPost2010PropOp46
 70
     1
102
RTVSPost2010Prop47
 90
       50
102
RTVSPost2010PropOp47
 70
     1
102
RTVSPost2010Prop48
 90
       50
102
RTVSPost2010PropOp48
 70
     1
102
RTVSPost2010Prop49
280
     0
102
RTVSPost2010PropOp49
 70
     1
102
RTVSPost2010Prop50
 90
       50
102
RTVSPost2010PropOp50
 70
     1
102
RTVSPost2010Prop51ColorIndex
 90
      256
102
RTVSPost2010Prop51ColorRGB
 90
-16777216
102
RTVSPost2010PropOp51
 70
     0
102
RTVSPost2010Prop52
140
1.0
102
RTVSPost2010PropOp52
 70
     0
102
RTVSPost2010Prop53
 90
        2
102
RTVSPost2010PropOp53
 70
     1
102
RTVSPost2010Prop54
  1
strokes_ogs.tif
102
RTVSPost2010PropOp54
 70
     1
102
RTVSPost2010Prop55
280
     0
102
RTVSPost2010PropOp55
 70
     1
102
RTVSPost2010Prop56
140
1.0
102
RTVSPost2010PropOp56
 70
     1
102
RTVSPost2010Prop57
140
1.0
102
RTVSPost2010PropOp57
 70
     1
  0
XRECORD
  5
1DD
102
{ACAD_REACTORS
330
1DC
102
}
330
1DC
100
AcDbXrecord
280
     1
102
RTVSPost2010Prop28
280
     0
102
RTVSPost2010PropOp28
 70
     0
102
RTVSPost2010Prop29
280
     1
102
RTVSPost2010PropOp29
 70
     0
102
RTVSPost2010Prop30
280
     1
102
RTVSPost2010PropOp30
 70
     0
102
RTVSPost2010Prop31
280
     0
102
RTVSPost2010PropOp31
 70
     0
102
RTVSPost2010Prop32
280
     0
102
RTVSPost2010PropOp32
 70
     0
102
RTVSPost2010Prop33
280
     0
102
RTVSPost2010PropOp33
 70
     0
102
RTVSPost2010Prop34
280
     0
102
RTVSPost2010PropOp34
 70
     0
102
RTVSPost2010Prop35
280
     0
102
RTVSPost2010PropOp35
 70
     0
102
RTVSPost2010Prop36
280
     0
102
RTVSPost2010PropOp36
 70
     0
102
RTVSPost2010Prop37
 90
       50
102
RTVSPost2010PropOp37
 70
     0
102
RTVSPost2010Prop38
140
0.0
102
RTVSPost2010PropOp38
 70
     0
102
RTVSPost2010Prop39
140
1.0
102
RTVSPost2010PropOp39
 70
     0
102
RTVSPost2010Prop40
 90
        0
102
RTVSPost2010PropOp40
 70
     0
102
RTVSPost2010Prop41ColorIndex
 90
       18
102
RTVSPost2010Prop41ColorRGB
 90
        0
102
RTVSPost2010PropOp41
 70
     0
102
RTVSPost2010Prop42
 90
       50
102
RTVSPost2010PropOp42
 70
     0
102
RTVSPost2010Prop43
 90
        3
102
RTVSPost2010PropOp43
 70
     0
102
RTVSPost2010Prop44ColorIndex
 90
        5
102
RTVSPost2010Prop44ColorRGB
 90
      255
102
RTVSPost2010PropOp44
 70
     0
102
RTVSPost2010Prop45
280
     0
102
RTVSPost2010PropOp45
 70
     0
102
RTVSPost2010Prop46
 90
       50
102
RTVSPost2010PropOp46
 70
     0
102
RTVSPost2010Prop47
 90
       50
102
RTVSPost2010PropOp47
 70
     0
102
RTVSPost2010Prop48
 90
       50
102
RTVSPost2010PropOp48
 70
     0
102
RTVSPost2010Prop49
280
     0
102
RTVSPost2010PropOp49
 70
     0
102
RTVSPost2010Prop50
 90
       50
102
RTVSPost2010PropOp50
 70
     0
102
RTVSPost2010Prop51ColorIndex
 90
      256
102
RTVSPost2010Prop51ColorRGB
 90
-16777216
102
RTVSPost2010PropOp51
 70
     0
102
RTVSPost2010Prop52
140
1.0
102
RTVSPost2010PropOp52
 70
     0
102
RTVSPost2010Prop53
 90
        2
102
RTVSPost2010PropOp53
 70
     0
102
RTVSPost2010Prop54
  1
strokes_ogs.tif
102
RTVSPost2010PropOp54
 70
     0
102
RTVSPost2010Prop55
280
     0
102
RTVSPost2010PropOp55
 70
     0
102
RTVSPost2010Prop56
140
1.0
102
RTVSPost2010PropOp56
 70
     0
102
RTVSPost2010Prop57
140
1.0
102
RTVSPost2010PropOp57
 70
     0
  0
XRECORD
  5
1D7
102
{ACAD_REACTORS
330
1D6
102
}
330
1D6
100
AcDbXrecord
280
     1
102
RTVSPost2010Prop28
280
     0
102
RTVSPost2010PropOp28
 70
     1
102
RTVSPost2010Prop29
280
     1
102
RTVSPost2010PropOp29
 70
     1
102
RTVSPost2010Prop30
280
     1
102
RTVSPost2010PropOp30
 70
     1
102
RTVSPost2010Prop31
280
     0
102
RTVSPost2010PropOp31
 70
     1
102
RTVSPost2010Prop32
280
     0
102
RTVSPost2010PropOp32
 70
     1
102
RTVSPost2010Prop33
280
     0
102
RTVSPost2010PropOp33
 70
     1
102
RTVSPost2010Prop34
280
     0
102
RTVSPost2010PropOp34
 70
     1
102
RTVSPost2010Prop35
280
     0
102
RTVSPost2010PropOp35
 70
     1
102
RTVSPost2010Prop36
280
     0
102
RTVSPost2010PropOp36
 70
     1
102
RTVSPost2010Prop37
 90
       50
102
RTVSPost2010PropOp37
 70
     1
102
RTVSPost2010Prop38
140
0.0
102
RTVSPost2010PropOp38
 70
     1
102
RTVSPost2010Prop39
140
1.0
102
RTVSPost2010PropOp39
 70
     1
102
RTVSPost2010Prop40
 90
        0
102
RTVSPost2010PropOp40
 70
     1
102
RTVSPost2010Prop41ColorIndex
 90
       18
102
RTVSPost2010Prop41ColorRGB
 90
        0
102
RTVSPost2010PropOp41
 70
     1
102
RTVSPost2010Prop42
 90
       50
102
RTVSPost2010PropOp42
 70
     1
102
RTVSPost2010Prop43
 90
        3
102
RTVSPost2010PropOp43
 70
     1
102
RTVSPost2010Prop44ColorIndex
 90
        5
102
RTVSPost2010Prop44ColorRGB
 90
      255
102
RTVSPost2010PropOp44
 70
     1
102
RTVSPost2010Prop45
280
     0
102
RTVSPost2010PropOp45
 70
     1
102
RTVSPost2010Prop46
 90
       50
102
RTVSPost2010PropOp46
 70
     1
102
RTVSPost2010Prop47
 90
       50
102
RTVSPost2010PropOp47
 70
     1
102
RTVSPost2010Prop48
 90
       50
102
RTVSPost2010PropOp48
 70
     1
102
RTVSPost2010Prop49
280
     0
102
RTVSPost2010PropOp49
 70
     1
102
RTVSPost2010Prop50
 90
       50
102
RTVSPost2010PropOp50
 70
     1
102
RTVSPost2010Prop51ColorIndex
 90
      256
102
RTVSPost2010Prop51ColorRGB
 90
-16777216
102
RTVSPost2010PropOp51
 70
     0
102
RTVSPost2010Prop52
140
1.0
102
RTVSPost2010PropOp52
 70
     0
102
RTVSPost2010Prop53
 90
        2
102
RTVSPost2010PropOp53
 70
     1
102
RTVSPost2010Prop54
  1
strokes_ogs.tif
102
RTVSPost2010PropOp54
 70
     1
102
RTVSPost2010Prop55
280
     0
102
RTVSPost2010PropOp55
 70
     1
102
RTVSPost2010Prop56
140
1.0
102
RTVSPost2010PropOp56
 70
     1
102
RTVSPost2010Prop57
140
1.0
102
RTVSPost2010PropOp57
 70
     1
  0
XRECORD
  5
1DF
102
{ACAD_REACTORS
330
1DE
102
}
330
1DE
100
AcDbXrecord
280
     1
102
RTVSPost2010Prop28
280
     0
102
RTVSPost2010PropOp28
 70
     0
102
RTVSPost2010Prop29
280
     1
102
RTVSPost2010PropOp29
 70
     0
102
RTVSPost2010Prop30
280
     1
102
RTVSPost2010PropOp30
 70
     0
102
RTVSPost2010Prop31
280
     0
102
RTVSPost2010PropOp31
 70
     0
102
RTVSPost2010Prop32
280
     0
102
RTVSPost2010PropOp32
 70
     0
102
RTVSPost2010Prop33
280
     0
102
RTVSPost2010PropOp33
 70
     0
102
RTVSPost2010Prop34
280
     0
102
RTVSPost2010PropOp34
 70
     0
102
RTVSPost2010Prop35
280
     0
102
RTVSPost2010PropOp35
 70
     0
102
RTVSPost2010Prop36
280
     0
102
RTVSPost2010PropOp36
 70
     0
102
RTVSPost2010Prop37
 90
       50
102
RTVSPost2010PropOp37
 70
     0
102
RTVSPost2010Prop38
140
0.0
102
RTVSPost2010PropOp38
 70
     0
102
RTVSPost2010Prop39
140
1.0
102
RTVSPost2010PropOp39
 70
     0
102
RTVSPost2010Prop40
 90
        0
102
RTVSPost2010PropOp40
 70
     0
102
RTVSPost2010Prop41ColorIndex
 90
       18
102
RTVSPost2010Prop41ColorRGB
 90
        0
102
RTVSPost2010PropOp41
 70
     0
102
RTVSPost2010Prop42
 90
       50
102
RTVSPost2010PropOp42
 70
     0
102
RTVSPost2010Prop43
 90
        3
102
RTVSPost2010PropOp43
 70
     0
102
RTVSPost2010Prop44ColorIndex
 90
        5
102
RTVSPost2010Prop44ColorRGB
 90
      255
102
RTVSPost2010PropOp44
 70
     0
102
RTVSPost2010Prop45
280
     0
102
RTVSPost2010PropOp45
 70
     0
102
RTVSPost2010Prop46
 90
       50
102
RTVSPost2010PropOp46
 70
     0
102
RTVSPost2010Prop47
 90
       50
102
RTVSPost2010PropOp47
 70
     0
102
RTVSPost2010Prop48
 90
       50
102
RTVSPost2010PropOp48
 70
     0
102
RTVSPost2010Prop49
280
     0
102
RTVSPost2010PropOp49
 70
     0
102
RTVSPost2010Prop50
 90
       50
102
RTVSPost2010PropOp50
 70
     0
102
RTVSPost2010Prop51ColorIndex
 90
      256
102
RTVSPost2010Prop51ColorRGB
 90
-16777216
102
RTVSPost2010PropOp51
 70
     0
102
RTVSPost2010Prop52
140
1.0
102
RTVSPost2010PropOp52
 70
     0
102
RTVSPost2010Prop53
 90
        2
102
RTVSPost2010PropOp53
 70
     0
102
RTVSPost2010Prop54
  1
strokes_ogs.tif
102
RTVSPost2010PropOp54
 70
     0
102
RTVSPost2010Prop55
280
     0
102
RTVSPost2010PropOp55
 70
     0
102
RTVSPost2010Prop56
140
1.0
102
RTVSPost2010PropOp56
 70
     0
102
RTVSPost2010Prop57
140
1.0
102
RTVSPost2010PropOp57
 70
     0
  0
XRECORD
  5
1CD
102
{ACAD_REACTORS
330
1CC
102
}
330
1CC
100
AcDbXrecord
280
     1
102
RTVSPost2010Prop28
280
     0
102
RTVSPost2010PropOp28
 70
     1
102
RTVSPost2010Prop29
280
     1
102
RTVSPost2010PropOp29
 70
     1
102
RTVSPost2010Prop30
280
     1
102
RTVSPost2010PropOp30
 70
     1
102
RTVSPost2010Prop31
280
     0
102
RTVSPost2010PropOp31
 70
     1
102
RTVSPost2010Prop32
280
     0
102
RTVSPost2010PropOp32
 70
     1
102
RTVSPost2010Prop33
280
     0
102
RTVSPost2010PropOp33
 70
     1
102
RTVSPost2010Prop34
280
     0
102
RTVSPost2010PropOp34
 70
     1
102
RTVSPost2010Prop35
280
     0
102
RTVSPost2010PropOp35
 70
     1
102
RTVSPost2010Prop36
280
     0
102
RTVSPost2010PropOp36
 70
     1
102
RTVSPost2010Prop37
 90
       50
102
RTVSPost2010PropOp37
 70
     1
102
RTVSPost2010Prop38
140
0.0
102
RTVSPost2010PropOp38
 70
     1
102
RTVSPost2010Prop39
140
1.0
102
RTVSPost2010PropOp39
 70
     1
102
RTVSPost2010Prop40
 90
        0
102
RTVSPost2010PropOp40
 70
     1
102
RTVSPost2010Prop41ColorIndex
 90
       18
102
RTVSPost2010Prop41ColorRGB
 90
        0
102
RTVSPost2010PropOp41
 70
     1
102
RTVSPost2010Prop42
 90
       50
102
RTVSPost2010PropOp42
 70
     1
102
RTVSPost2010Prop43
 90
        3
102
RTVSPost2010PropOp43
 70
     1
102
RTVSPost2010Prop44ColorIndex
 90
        5
102
RTVSPost2010Prop44ColorRGB
 90
      255
102
RTVSPost2010PropOp44
 70
     1
102
RTVSPost2010Prop45
280
     0
102
RTVSPost2010PropOp45
 70
     1
102
RTVSPost2010Prop46
 90
       50
102
RTVSPost2010PropOp46
 70
     1
102
RTVSPost2010Prop47
 90
       50
102
RTVSPost2010PropOp47
 70
     1
102
RTVSPost2010Prop48
 90
       50
102
RTVSPost2010PropOp48
 70
     1
102
RTVSPost2010Prop49
280
     0
102
RTVSPost2010PropOp49
 70
     1
102
RTVSPost2010Prop50
 90
       50
102
RTVSPost2010PropOp50
 70
     1
102
RTVSPost2010Prop51ColorIndex
 90
      256
102
RTVSPost2010Prop51ColorRGB
 90
-16777216
102
RTVSPost2010PropOp51
 70
     0
102
RTVSPost2010Prop52
140
1.0
102
RTVSPost2010PropOp52
 70
     0
102
RTVSPost2010Prop53
 90
        2
102
RTVSPost2010PropOp53
 70
     1
102
RTVSPost2010Prop54
  1
strokes_ogs.tif
102
RTVSPost2010PropOp54
 70
     1
102
RTVSPost2010Prop55
280
     0
102
RTVSPost2010PropOp55
 70
     1
102
RTVSPost2010Prop56
140
1.0
102
RTVSPost2010PropOp56
 70
     1
102
RTVSPost2010Prop57
140
1.0
102
RTVSPost2010PropOp57
 70
     1
  0
XRECORD
  5
1EB
102
{ACAD_REACTORS
330
1EA
102
}
330
1EA
100
AcDbXrecord
280
     1
102
RTVSPost2010Prop28
280
     0
102
RTVSPost2010PropOp28
 70
     1
102
RTVSPost2010Prop29
280
     1
102
RTVSPost2010PropOp29
 70
     1
102
RTVSPost2010Prop30
280
     1
102
RTVSPost2010PropOp30
 70
     1
102
RTVSPost2010Prop31
280
     0
102
RTVSPost2010PropOp31
 70
     1
102
RTVSPost2010Prop32
280
     0
102
RTVSPost2010PropOp32
 70
     1
102
RTVSPost2010Prop33
280
     0
102
RTVSPost2010PropOp33
 70
     1
102
RTVSPost2010Prop34
280
     0
102
RTVSPost2010PropOp34
 70
     1
102
RTVSPost2010Prop35
280
     0
102
RTVSPost2010PropOp35
 70
     1
102
RTVSPost2010Prop36
280
     0
102
RTVSPost2010PropOp36
 70
     1
102
RTVSPost2010Prop37
 90
       50
102
RTVSPost2010PropOp37
 70
     1
102
RTVSPost2010Prop38
140
0.0
102
RTVSPost2010PropOp38
 70
     1
102
RTVSPost2010Prop39
140
1.0
102
RTVSPost2010PropOp39
 70
     1
102
RTVSPost2010Prop40
 90
        0
102
RTVSPost2010PropOp40
 70
     1
102
RTVSPost2010Prop41ColorIndex
 90
       18
102
RTVSPost2010Prop41ColorRGB
 90
        0
102
RTVSPost2010PropOp41
 70
     1
102
RTVSPost2010Prop42
 90
       50
102
RTVSPost2010PropOp42
 70
     1
102
RTVSPost2010Prop43
 90
        3
102
RTVSPost2010PropOp43
 70
     1
102
RTVSPost2010Prop44ColorIndex
 90
        5
102
RTVSPost2010Prop44ColorRGB
 90
      255
102
RTVSPost2010PropOp44
 70
     1
102
RTVSPost2010Prop45
280
     0
102
RTVSPost2010PropOp45
 70
     1
102
RTVSPost2010Prop46
 90
       50
102
RTVSPost2010PropOp46
 70
     1
102
RTVSPost2010Prop47
 90
       50
102
RTVSPost2010PropOp47
 70
     1
102
RTVSPost2010Prop48
 90
       50
102
RTVSPost2010PropOp48
 70
     1
102
RTVSPost2010Prop49
280
     0
102
RTVSPost2010PropOp49
 70
     1
102
RTVSPost2010Prop50
 90
       50
102
RTVSPost2010PropOp50
 70
     1
102
RTVSPost2010Prop51ColorIndex
 90
      256
102
RTVSPost2010Prop51ColorRGB
 90
-16777216
102
RTVSPost2010PropOp51
 70
     0
102
RTVSPost2010Prop52
140
1.0
102
RTVSPost2010PropOp52
 70
     0
102
RTVSPost2010Prop53
 90
        2
102
RTVSPost2010PropOp53
 70
     1
102
RTVSPost2010Prop54
  1
strokes_ogs.tif
102
RTVSPost2010PropOp54
 70
     1
102
RTVSPost2010Prop55
280
     0
102
RTVSPost2010PropOp55
 70
     1
102
RTVSPost2010Prop56
140
1.0
102
RTVSPost2010PropOp56
 70
     1
102
RTVSPost2010Prop57
140
1.0
102
RTVSPost2010PropOp57
 70
     1
  0
XRECORD
  5
1E9
102
{ACAD_REACTORS
330
1E8
102
}
330
1E8
100
AcDbXrecord
280
     1
102
RTVSPost2010Prop28
280
     0
102
RTVSPost2010PropOp28
 70
     1
102
RTVSPost2010Prop29
280
     1
102
RTVSPost2010PropOp29
 70
     1
102
RTVSPost2010Prop30
280
     1
102
RTVSPost2010PropOp30
 70
     1
102
RTVSPost2010Prop31
280
     0
102
RTVSPost2010PropOp31
 70
     1
102
RTVSPost2010Prop32
280
     0
102
RTVSPost2010PropOp32
 70
     1
102
RTVSPost2010Prop33
280
     0
102
RTVSPost2010PropOp33
 70
     1
102
RTVSPost2010Prop34
280
     0
102
RTVSPost2010PropOp34
 70
     1
102
RTVSPost2010Prop35
280
     0
102
RTVSPost2010PropOp35
 70
     1
102
RTVSPost2010Prop36
280
     0
102
RTVSPost2010PropOp36
 70
     1
102
RTVSPost2010Prop37
 90
       50
102
RTVSPost2010PropOp37
 70
     1
102
RTVSPost2010Prop38
140
0.0
102
RTVSPost2010PropOp38
 70
     1
102
RTVSPost2010Prop39
140
1.0
102
RTVSPost2010PropOp39
 70
     1
102
RTVSPost2010Prop40
 90
        0
102
RTVSPost2010PropOp40
 70
     1
102
RTVSPost2010Prop41ColorIndex
 90
       18
102
RTVSPost2010Prop41ColorRGB
 90
        0
102
RTVSPost2010PropOp41
 70
     1
102
RTVSPost2010Prop42
 90
       50
102
RTVSPost2010PropOp42
 70
     1
102
RTVSPost2010Prop43
 90
        3
102
RTVSPost2010PropOp43
 70
     1
102
RTVSPost2010Prop44ColorIndex
 90
        5
102
RTVSPost2010Prop44ColorRGB
 90
      255
102
RTVSPost2010PropOp44
 70
     1
102
RTVSPost2010Prop45
280
     0
102
RTVSPost2010PropOp45
 70
     1
102
RTVSPost2010Prop46
 90
       50
102
RTVSPost2010PropOp46
 70
     1
102
RTVSPost2010Prop47
 90
       50
102
RTVSPost2010PropOp47
 70
     1
102
RTVSPost2010Prop48
 90
       50
102
RTVSPost2010PropOp48
 70
     1
102
RTVSPost2010Prop49
280
     0
102
RTVSPost2010PropOp49
 70
     1
102
RTVSPost2010Prop50
 90
       50
102
RTVSPost2010PropOp50
 70
     1
102
RTVSPost2010Prop51ColorIndex
 90
      256
102
RTVSPost2010Prop51ColorRGB
 90
-16777216
102
RTVSPost2010PropOp51
 70
     0
102
RTVSPost2010Prop52
140
1.0
102
RTVSPost2010PropOp52
 70
     0
102
RTVSPost2010Prop53
 90
        2
102
RTVSPost2010PropOp53
 70
     1
102
RTVSPost2010Prop54
  1
strokes_ogs.tif
102
RTVSPost2010PropOp54
 70
     1
102
RTVSPost2010Prop55
280
     0
102
RTVSPost2010PropOp55
 70
     1
102
RTVSPost2010Prop56
140
1.0
102
RTVSPost2010PropOp56
 70
     1
102
RTVSPost2010Prop57
140
1.0
102
RTVSPost2010PropOp57
 70
     1
  0
XRECORD
  5
1E3
102
{ACAD_REACTORS
330
1E2
102
}
330
1E2
100
AcDbXrecord
280
     1
102
RTVSPost2010Prop28
280
     0
102
RTVSPost2010PropOp28
 70
     1
102
RTVSPost2010Prop29
280
     1
102
RTVSPost2010PropOp29
 70
     1
102
RTVSPost2010Prop30
280
     1
102
RTVSPost2010PropOp30
 70
     1
102
RTVSPost2010Prop31
280
     0
102
RTVSPost2010PropOp31
 70
     1
102
RTVSPost2010Prop32
280
     0
102
RTVSPost2010PropOp32
 70
     1
102
RTVSPost2010Prop33
280
     0
102
RTVSPost2010PropOp33
 70
     1
102
RTVSPost2010Prop34
280
     0
102
RTVSPost2010PropOp34
 70
     1
102
RTVSPost2010Prop35
280
     0
102
RTVSPost2010PropOp35
 70
     1
102
RTVSPost2010Prop36
280
     0
102
RTVSPost2010PropOp36
 70
     1
102
RTVSPost2010Prop37
 90
       50
102
RTVSPost2010PropOp37
 70
     1
102
RTVSPost2010Prop38
140
0.0
102
RTVSPost2010PropOp38
 70
     1
102
RTVSPost2010Prop39
140
1.0
102
RTVSPost2010PropOp39
 70
     1
102
RTVSPost2010Prop40
 90
        0
102
RTVSPost2010PropOp40
 70
     1
102
RTVSPost2010Prop41ColorIndex
 90
       18
102
RTVSPost2010Prop41ColorRGB
 90
        0
102
RTVSPost2010PropOp41
 70
     1
102
RTVSPost2010Prop42
 90
       50
102
RTVSPost2010PropOp42
 70
     1
102
RTVSPost2010Prop43
 90
        3
102
RTVSPost2010PropOp43
 70
     1
102
RTVSPost2010Prop44ColorIndex
 90
        5
102
RTVSPost2010Prop44ColorRGB
 90
      255
102
RTVSPost2010PropOp44
 70
     1
102
RTVSPost2010Prop45
280
     0
102
RTVSPost2010PropOp45
 70
     1
102
RTVSPost2010Prop46
 90
       50
102
RTVSPost2010PropOp46
 70
     1
102
RTVSPost2010Prop47
 90
       50
102
RTVSPost2010PropOp47
 70
     1
102
RTVSPost2010Prop48
 90
       50
102
RTVSPost2010PropOp48
 70
     1
102
RTVSPost2010Prop49
280
     0
102
RTVSPost2010PropOp49
 70
     1
102
RTVSPost2010Prop50
 90
       50
102
RTVSPost2010PropOp50
 70
     1
102
RTVSPost2010Prop51ColorIndex
 90
      256
102
RTVSPost2010Prop51ColorRGB
 90
-16777216
102
RTVSPost2010PropOp51
 70
     0
102
RTVSPost2010Prop52
140
1.0
102
RTVSPost2010PropOp52
 70
     0
102
RTVSPost2010Prop53
 90
        2
102
RTVSPost2010PropOp53
 70
     1
102
RTVSPost2010Prop54
  1
strokes_ogs.tif
102
RTVSPost2010PropOp54
 70
     1
102
RTVSPost2010Prop55
280
     0
102
RTVSPost2010PropOp55
 70
     1
102
RTVSPost2010Prop56
140
1.0
102
RTVSPost2010PropOp56
 70
     1
102
RTVSPost2010Prop57
140
1.0
102
RTVSPost2010PropOp57
 70
     1
  0
XRECORD
  5
1E5
102
{ACAD_REACTORS
330
1E4
102
}
330
1E4
100
AcDbXrecord
280
     1
102
RTVSPost2010Prop28
280
     0
102
RTVSPost2010PropOp28
 70
     1
102
RTVSPost2010Prop29
280
     1
102
RTVSPost2010PropOp29
 70
     1
102
RTVSPost2010Prop30
280
     1
102
RTVSPost2010PropOp30
 70
     1
102
RTVSPost2010Prop31
280
     0
102
RTVSPost2010PropOp31
 70
     1
102
RTVSPost2010Prop32
280
     0
102
RTVSPost2010PropOp32
 70
     1
102
RTVSPost2010Prop33
280
     0
102
RTVSPost2010PropOp33
 70
     1
102
RTVSPost2010Prop34
280
     0
102
RTVSPost2010PropOp34
 70
     1
102
RTVSPost2010Prop35
280
     0
102
RTVSPost2010PropOp35
 70
     1
102
RTVSPost2010Prop36
280
     0
102
RTVSPost2010PropOp36
 70
     1
102
RTVSPost2010Prop37
 90
       50
102
RTVSPost2010PropOp37
 70
     1
102
RTVSPost2010Prop38
140
0.0
102
RTVSPost2010PropOp38
 70
     1
102
RTVSPost2010Prop39
140
1.0
102
RTVSPost2010PropOp39
 70
     1
102
RTVSPost2010Prop40
 90
        0
102
RTVSPost2010PropOp40
 70
     1
102
RTVSPost2010Prop41ColorIndex
 90
       18
102
RTVSPost2010Prop41ColorRGB
 90
        0
102
RTVSPost2010PropOp41
 70
     1
102
RTVSPost2010Prop42
 90
       50
102
RTVSPost2010PropOp42
 70
     1
102
RTVSPost2010Prop43
 90
        3
102
RTVSPost2010PropOp43
 70
     1
102
RTVSPost2010Prop44ColorIndex
 90
        5
102
RTVSPost2010Prop44ColorRGB
 90
      255
102
RTVSPost2010PropOp44
 70
     1
102
RTVSPost2010Prop45
280
     0
102
RTVSPost2010PropOp45
 70
     1
102
RTVSPost2010Prop46
 90
       50
102
RTVSPost2010PropOp46
 70
     1
102
RTVSPost2010Prop47
 90
       50
102
RTVSPost2010PropOp47
 70
     1
102
RTVSPost2010Prop48
 90
       50
102
RTVSPost2010PropOp48
 70
     1
102
RTVSPost2010Prop49
280
     0
102
RTVSPost2010PropOp49
 70
     1
102
RTVSPost2010Prop50
 90
       50
102
RTVSPost2010PropOp50
 70
     1
102
RTVSPost2010Prop51ColorIndex
 90
      256
102
RTVSPost2010Prop51ColorRGB
 90
-16777216
102
RTVSPost2010PropOp51
 70
     0
102
RTVSPost2010Prop52
140
1.0
102
RTVSPost2010PropOp52
 70
     0
102
RTVSPost2010Prop53
 90
        2
102
RTVSPost2010PropOp53
 70
     1
102
RTVSPost2010Prop54
  1
strokes_ogs.tif
102
RTVSPost2010PropOp54
 70
     1
102
RTVSPost2010Prop55
280
     0
102
RTVSPost2010PropOp55
 70
     1
102
RTVSPost2010Prop56
140
1.0
102
RTVSPost2010PropOp56
 70
     1
102
RTVSPost2010Prop57
140
1.0
102
RTVSPost2010PropOp57
 70
     1
  0
XRECORD
  5
1D5
102
{ACAD_REACTORS
330
1D4
102
}
330
1D4
100
AcDbXrecord
280
     1
102
RTVSPost2010Prop28
280
     0
102
RTVSPost2010PropOp28
 70
     1
102
RTVSPost2010Prop29
280
     1
102
RTVSPost2010PropOp29
 70
     1
102
RTVSPost2010Prop30
280
     1
102
RTVSPost2010PropOp30
 70
     1
102
RTVSPost2010Prop31
280
     0
102
RTVSPost2010PropOp31
 70
     1
102
RTVSPost2010Prop32
280
     0
102
RTVSPost2010PropOp32
 70
     1
102
RTVSPost2010Prop33
280
     0
102
RTVSPost2010PropOp33
 70
     1
102
RTVSPost2010Prop34
280
     0
102
RTVSPost2010PropOp34
 70
     1
102
RTVSPost2010Prop35
280
     0
102
RTVSPost2010PropOp35
 70
     1
102
RTVSPost2010Prop36
280
     0
102
RTVSPost2010PropOp36
 70
     1
102
RTVSPost2010Prop37
 90
       50
102
RTVSPost2010PropOp37
 70
     1
102
RTVSPost2010Prop38
140
0.0
102
RTVSPost2010PropOp38
 70
     1
102
RTVSPost2010Prop39
140
1.0
102
RTVSPost2010PropOp39
 70
     1
102
RTVSPost2010Prop40
 90
        0
102
RTVSPost2010PropOp40
 70
     1
102
RTVSPost2010Prop41ColorIndex
 90
       18
102
RTVSPost2010Prop41ColorRGB
 90
        0
102
RTVSPost2010PropOp41
 70
     1
102
RTVSPost2010Prop42
 90
       50
102
RTVSPost2010PropOp42
 70
     1
102
RTVSPost2010Prop43
 90
        3
102
RTVSPost2010PropOp43
 70
     1
102
RTVSPost2010Prop44ColorIndex
 90
        5
102
RTVSPost2010Prop44ColorRGB
 90
      255
102
RTVSPost2010PropOp44
 70
     1
102
RTVSPost2010Prop45
280
     0
102
RTVSPost2010PropOp45
 70
     1
102
RTVSPost2010Prop46
 90
       50
102
RTVSPost2010PropOp46
 70
     1
102
RTVSPost2010Prop47
 90
       50
102
RTVSPost2010PropOp47
 70
     1
102
RTVSPost2010Prop48
 90
       50
102
RTVSPost2010PropOp48
 70
     1
102
RTVSPost2010Prop49
280
     0
102
RTVSPost2010PropOp49
 70
     1
102
RTVSPost2010Prop50
 90
       50
102
RTVSPost2010PropOp50
 70
     1
102
RTVSPost2010Prop51ColorIndex
 90
      256
102
RTVSPost2010Prop51ColorRGB
 90
-16777216
102
RTVSPost2010PropOp51
 70
     0
102
RTVSPost2010Prop52
140
1.0
102
RTVSPost2010PropOp52
 70
     0
102
RTVSPost2010Prop53
 90
        2
102
RTVSPost2010PropOp53
 70
     1
102
RTVSPost2010Prop54
  1
strokes_ogs.tif
102
RTVSPost2010PropOp54
 70
     1
102
RTVSPost2010Prop55
280
     0
102
RTVSPost2010PropOp55
 70
     1
102
RTVSPost2010Prop56
140
1.0
102
RTVSPost2010PropOp56
 70
     1
102
RTVSPost2010Prop57
140
1.0
102
RTVSPost2010PropOp57
 70
     1
  0
XRECORD
  5
1C7
102
{ACAD_REACTORS
330
1C6
102
}
330
1C6
100
AcDbXrecord
280
     1
102
RTVSPost2010Prop28
280
     0
102
RTVSPost2010PropOp28
 70
     1
102
RTVSPost2010Prop29
280
     1
102
RTVSPost2010PropOp29
 70
     1
102
RTVSPost2010Prop30
280
     1
102
RTVSPost2010PropOp30
 70
     1
102
RTVSPost2010Prop31
280
     0
102
RTVSPost2010PropOp31
 70
     1
102
RTVSPost2010Prop32
280
     0
102
RTVSPost2010PropOp32
 70
     1
102
RTVSPost2010Prop33
280
     0
102
RTVSPost2010PropOp33
 70
     1
102
RTVSPost2010Prop34
280
     0
102
RTVSPost2010PropOp34
 70
     1
102
RTVSPost2010Prop35
280
     0
102
RTVSPost2010PropOp35
 70
     1
102
RTVSPost2010Prop36
280
     0
102
RTVSPost2010PropOp36
 70
     1
102
RTVSPost2010Prop37
 90
       50
102
RTVSPost2010PropOp37
 70
     1
102
RTVSPost2010Prop38
140
0.0
102
RTVSPost2010PropOp38
 70
     1
102
RTVSPost2010Prop39
140
1.0
102
RTVSPost2010PropOp39
 70
     1
102
RTVSPost2010Prop40
 90
        0
102
RTVSPost2010PropOp40
 70
     1
102
RTVSPost2010Prop41ColorIndex
 90
       18
102
RTVSPost2010Prop41ColorRGB
 90
        0
102
RTVSPost2010PropOp41
 70
     1
102
RTVSPost2010Prop42
 90
       50
102
RTVSPost2010PropOp42
 70
     1
102
RTVSPost2010Prop43
 90
        3
102
RTVSPost2010PropOp43
 70
     1
102
RTVSPost2010Prop44ColorIndex
 90
        5
102
RTVSPost2010Prop44ColorRGB
 90
      255
102
RTVSPost2010PropOp44
 70
     1
102
RTVSPost2010Prop45
280
     0
102
RTVSPost2010PropOp45
 70
     1
102
RTVSPost2010Prop46
 90
       50
102
RTVSPost2010PropOp46
 70
     1
102
RTVSPost2010Prop47
 90
       50
102
RTVSPost2010PropOp47
 70
     1
102
RTVSPost2010Prop48
 90
       50
102
RTVSPost2010PropOp48
 70
     1
102
RTVSPost2010Prop49
280
     0
102
RTVSPost2010PropOp49
 70
     1
102
RTVSPost2010Prop50
 90
       50
102
RTVSPost2010PropOp50
 70
     1
102
RTVSPost2010Prop51ColorIndex
 90
      256
102
RTVSPost2010Prop51ColorRGB
 90
-16777216
102
RTVSPost2010PropOp51
 70
     0
102
RTVSPost2010Prop52
140
1.0
102
RTVSPost2010PropOp52
 70
     0
102
RTVSPost2010Prop53
 90
        2
102
RTVSPost2010PropOp53
 70
     1
102
RTVSPost2010Prop54
  1
strokes_ogs.tif
102
RTVSPost2010PropOp54
 70
     1
102
RTVSPost2010Prop55
280
     0
102
RTVSPost2010PropOp55
 70
     1
102
RTVSPost2010Prop56
140
1.0
102
RTVSPost2010PropOp56
 70
     1
102
RTVSPost2010Prop57
140
1.0
102
RTVSPost2010PropOp57
 70
     1
  0
XRECORD
  5
1E7
102
{ACAD_REACTORS
330
1E6
102
}
330
1E6
100
AcDbXrecord
280
     1
102
RTVSPost2010Prop28
280
     0
102
RTVSPost2010PropOp28
 70
     1
102
RTVSPost2010Prop29
280
     1
102
RTVSPost2010PropOp29
 70
     1
102
RTVSPost2010Prop30
280
     1
102
RTVSPost2010PropOp30
 70
     1
102
RTVSPost2010Prop31
280
     0
102
RTVSPost2010PropOp31
 70
     1
102
RTVSPost2010Prop32
280
     0
102
RTVSPost2010PropOp32
 70
     1
102
RTVSPost2010Prop33
280
     0
102
RTVSPost2010PropOp33
 70
     1
102
RTVSPost2010Prop34
280
     0
102
RTVSPost2010PropOp34
 70
     1
102
RTVSPost2010Prop35
280
     0
102
RTVSPost2010PropOp35
 70
     1
102
RTVSPost2010Prop36
280
     0
102
RTVSPost2010PropOp36
 70
     1
102
RTVSPost2010Prop37
 90
       50
102
RTVSPost2010PropOp37
 70
     1
102
RTVSPost2010Prop38
140
0.0
102
RTVSPost2010PropOp38
 70
     1
102
RTVSPost2010Prop39
140
1.0
102
RTVSPost2010PropOp39
 70
     1
102
RTVSPost2010Prop40
 90
        0
102
RTVSPost2010PropOp40
 70
     1
102
RTVSPost2010Prop41ColorIndex
 90
       18
102
RTVSPost2010Prop41ColorRGB
 90
        0
102
RTVSPost2010PropOp41
 70
     1
102
RTVSPost2010Prop42
 90
       50
102
RTVSPost2010PropOp42
 70
     1
102
RTVSPost2010Prop43
 90
        3
102
RTVSPost2010PropOp43
 70
     1
102
RTVSPost2010Prop44ColorIndex
 90
        5
102
RTVSPost2010Prop44ColorRGB
 90
      255
102
RTVSPost2010PropOp44
 70
     1
102
RTVSPost2010Prop45
280
     0
102
RTVSPost2010PropOp45
 70
     1
102
RTVSPost2010Prop46
 90
       50
102
RTVSPost2010PropOp46
 70
     1
102
RTVSPost2010Prop47
 90
       50
102
RTVSPost2010PropOp47
 70
     1
102
RTVSPost2010Prop48
 90
       50
102
RTVSPost2010PropOp48
 70
     1
102
RTVSPost2010Prop49
280
     0
102
RTVSPost2010PropOp49
 70
     1
102
RTVSPost2010Prop50
 90
       50
102
RTVSPost2010PropOp50
 70
     1
102
RTVSPost2010Prop51ColorIndex
 90
      256
102
RTVSPost2010Prop51ColorRGB
 90
-16777216
102
RTVSPost2010PropOp51
 70
     0
102
RTVSPost2010Prop52
140
1.0
102
RTVSPost2010PropOp52
 70
     0
102
RTVSPost2010Prop53
 90
        2
102
RTVSPost2010PropOp53
 70
     1
102
RTVSPost2010Prop54
  1
strokes_ogs.tif
102
RTVSPost2010PropOp54
 70
     1
102
RTVSPost2010Prop55
280
     0
102
RTVSPost2010PropOp55
 70
     1
102
RTVSPost2010Prop56
140
1.0
102
RTVSPost2010PropOp56
 70
     1
102
RTVSPost2010Prop57
140
1.0
102
RTVSPost2010PropOp57
 70
     1
  0
ENDSEC
  0
EOF
