  0
SECTION
  2
HEADER
  9
$ACADVER
  1
AC1024
  9
$ACADMAINTVER
 70
     6
  9
$DWGCODEPAGE
  3
ANSI_932
  9
$INSBASE
 10
0.0
 20
0.0
 30
0.0
  9
$EXTMIN
 10
-677.162629
 20
-856.68087
 30
1.000000000000000E+20
  9
$EXTMAX
 10
898.152585
 20
1153.050722
 30
-1.000000000000000E+20
  9
$LIMMIN
 10
-677.162629
 20
-856.68087
  9
$LIMMAX
 10
898.152585
 20
1153.050722
  9
$ORTHOMODE
 70
     0
  9
$REGENMODE
 70
     1
  9
$FILLMODE
 70
     1
  9
$QTEXTMODE
 70
     0
  9
$MIRRTEXT
 70
     1
  9
$LTSCALE
 40
1.0
  9
$ATTMODE
 70
     1
  9
$TEXTSIZE
 40
0.0
  9
$TRACEWID
 40
0.05
  9
$TEXTSTYLE
  7
Standard
  9
$CLAYER
  8
0
  9
$CELTYPE
  6
Continuous
  9
$CECOLOR
 62
   256
  9
$CELTSCALE
 40
1.0
  9
$DISPSILH
 70
     0
  9
$DIMSCALE
 40
1.0
  9
$DIMASZ
 40
0.18
  9
$DIMEXO
 40
0.0625
  9
$DIMDLI
 40
0.38
  9
$DIMRND
 40
0.0
  9
$DIMDLE
 40
0.0
  9
$DIMEXE
 40
0.18
  9
$DIMTP
 40
0.0
  9
$DIMTM
 40
0.0
  9
$DIMTXT
 40
0.18
  9
$DIMCEN
 40
0.09
  9
$DIMTSZ
 40
0.0
  9
$DIMTOL
 70
     0
  9
$DIMLIM
 70
     0
  9
$DIMTIH
 70
     1
  9
$DIMTOH
 70
     1
  9
$DIMSE1
 70
     0
  9
$DIMSE2
 70
     0
  9
$DIMTAD
 70
     0
  9
$DIMZIN
 70
     0
  9
$DIMBLK
  1

  9
$DIMASO
 70
     1
  9
$DIMSHO
 70
     1
  9
$DIMPOST
  1

  9
$DIMAPOST
  1

  9
$DIMALT
 70
     0
  9
$DIMALTD
 70
     2
  9
$DIMALTF
 40
25.4
  9
$DIMLFAC
 40
1.0
  9
$DIMTOFL
 70
     0
  9
$DIMTVP
 40
0.0
  9
$DIMTIX
 70
     0
  9
$DIMSOXD
 70
     0
  9
$DIMSAH
 70
     0
  9
$DIMBLK1
  1

  9
$DIMBLK2
  1

  9
$DIMSTYLE
  2
Standard
  9
$DIMCLRD
 70
     0
  9
$DIMCLRE
 70
     0
  9
$DIMCLRT
 70
     0
  9
$DIMTFAC
 40
1.0
  9
$DIMGAP
 40
0.09
  9
$DIMJUST
 70
     0
  9
$DIMSD1
 70
     0
  9
$DIMSD2
 70
     0
  9
$DIMTOLJ
 70
     1
  9
$DIMTZIN
 70
     0
  9
$DIMALTZ
 70
     0
  9
$DIMALTTZ
 70
     0
  9
$DIMUPT
 70
     0
  9
$DIMDEC
 70
     4
  9
$DIMTDEC
 70
     4
  9
$DIMALTU
 70
     2
  9
$DIMALTTD
 70
     2
  9
$DIMTXSTY
  7
Standard
  9
$DIMAUNIT
 70
     0
  9
$DIMADEC
 70
     0
  9
$DIMALTRND
 40
0.0
  9
$DIMAZIN
 70
     0
  9
$DIMDSEP
 70
     0
  9
$DIMATFIT
 70
     3
  9
$DIMFRAC
 70
     0
  9
$DIMLDRBLK
  1

  9
$DIMLUNIT
 70
     2
  9
$DIMLWD
 70
     0
  9
$DIMLWE
 70
     0
  9
$DIMTMOVE
 70
     0
  9
$DIMFXL
 40
1.0
  9
$DIMFXLON
 70
     0
  9
$DIMJOGANG
 40
0.7853981633974483
  9
$DIMTFILL
 70
     0
  9
$DIMTFILLCLR
 70
     0
  9
$DIMARCSYM
 70
     0
  9
$DIMLTYPE
  6

  9
$DIMLTEX1
  6

  9
$DIMLTEX2
  6

  9
$DIMTXTDIRECTION
 70
     0
  9
$LUNITS
 70
     2
  9
$LUPREC
 70
     4
  9
$SKETCHINC
 40
0.1
  9
$FILLETRAD
 40
0.0
  9
$AUNITS
 70
     0
  9
$AUPREC
 70
     0
  9
$MENU
  1
acad
  9
$ELEVATION
 40
0.0
  9
$PELEVATION
 40
0.0
  9
$THICKNESS
 40
0.0
  9
$LIMCHECK
 70
     0
  9
$CHAMFERA
 40
0.0
  9
$CHAMFERB
 40
0.0
  9
$CHAMFERC
 40
0.0
  9
$CHAMFERD
 40
0.0
  9
$SKPOLY
 70
     0
  9
$TDCREATE
 40
2447893.041666667
  9
$TDUCREATE
 40
0.0
  9
$TDUPDATE
 40
2457234.640793333
  9
$TDUUPDATE
 40
2457234.599126667
  9
$TDINDWG
 40
0.0
  9
$TDUSRTIMER
 40
0.0
  9
$USRTIMER
 70
     1
  9
$ANGBASE
 50
0.0
  9
$ANGDIR
 70
     0
  9
$PDMODE
 70
     0
  9
$PDSIZE
 40
0.0
  9
$PLINEWID
 40
0.0
  9
$SPLFRAME
 70
     0
  9
$SPLINETYPE
 70
     6
  9
$SPLINESEGS
 70
     8
  9
$HANDSEED
  5
158
  9
$SURFTAB1
 70
     6
  9
$SURFTAB2
 70
     6
  9
$SURFTYPE
 70
     6
  9
$SURFU
 70
     6
  9
$SURFV
 70
     6
  9
$UCSBASE
  2

  9
$UCSNAME
  2

  9
$UCSORG
 10
0.0
 20
0.0
 30
0.0
  9
$UCSXDIR
 10
1.0
 20
0.0
 30
0.0
  9
$UCSYDIR
 10
0.0
 20
1.0
 30
0.0
  9
$UCSORTHOREF
  2

  9
$UCSORTHOVIEW
 70
     0
  9
$UCSORGTOP
 10
0.0
 20
0.0
 30
0.0
  9
$UCSORGBOTTOM
 10
0.0
 20
0.0
 30
0.0
  9
$UCSORGLEFT
 10
0.0
 20
0.0
 30
0.0
  9
$UCSORGRIGHT
 10
0.0
 20
0.0
 30
0.0
  9
$UCSORGFRONT
 10
0.0
 20
0.0
 30
0.0
  9
$UCSORGBACK
 10
0.0
 20
0.0
 30
0.0
  9
$PUCSBASE
  2

  9
$PUCSNAME
  2

  9
$PUCSORG
 10
0.0
 20
0.0
 30
0.0
  9
$PUCSXDIR
 10
1.0
 20
0.0
 30
0.0
  9
$PUCSYDIR
 10
0.0
 20
1.0
 30
0.0
  9
$PUCSORTHOREF
  2

  9
$PUCSORTHOVIEW
 70
     0
  9
$PUCSORGTOP
 10
0.0
 20
0.0
 30
0.0
  9
$PUCSORGBOTTOM
 10
0.0
 20
0.0
 30
0.0
  9
$PUCSORGLEFT
 10
0.0
 20
0.0
 30
0.0
  9
$PUCSORGRIGHT
 10
0.0
 20
0.0
 30
0.0
  9
$PUCSORGFRONT
 10
0.0
 20
0.0
 30
0.0
  9
$PUCSORGBACK
 10
0.0
 20
0.0
 30
0.0
  9
$USERI1
 70
     0
  9
$USERI2
 70
     0
  9
$USERI3
 70
     0
  9
$USERI4
 70
     0
  9
$USERI5
 70
     0
  9
$USERR1
 40
0.0
  9
$USERR2
 40
0.0
  9
$USERR3
 40
0.0
  9
$USERR4
 40
0.0
  9
$USERR5
 40
0.0
  9
$WORLDVIEW
 70
     1
  9
$SHADEDGE
 70
     3
  9
$SHADEDIF
 70
    70
  9
$TILEMODE
 70
     1
  9
$MAXACTVP
 70
    16
  9
$PINSBASE
 10
0.0
 20
0.0
 30
0.0
  9
$PLIMCHECK
 70
     0
  9
$PEXTMIN
 10
1.000000000000000E+20
 20
1.000000000000000E+20
 30
1.000000000000000E+20
  9
$PEXTMAX
 10
-1.000000000000000E+20
 20
-1.000000000000000E+20
 30
-1.000000000000000E+20
  9
$PLIMMIN
 10
0.0
 20
0.0
  9
$PLIMMAX
 10
12.0
 20
9.0
  9
$UNITMODE
 70
     0
  9
$VISRETAIN
 70
     0
  9
$PLINEGEN
 70
     1
  9
$PSLTSCALE
 70
     0
  9
$TREEDEPTH
 70
  3020
  9
$CMLSTYLE
  2
Standard
  9
$CMLJUST
 70
     0
  9
$CMLSCALE
 40
1.0
  9
$PROXYGRAPHICS
 70
     0
  9
$MEASUREMENT
 70
     0
  9
$CELWEIGHT
370
     0
  9
$ENDCAPS
280
     0
  9
$JOINSTYLE
280
     0
  9
$LWDISPLAY
290
     0
  9
$INSUNITS
 70
     0
  9
$HYPERLINKBASE
  1

  9
$STYLESHEET
  1

  9
$XEDIT
290
     1
  9
$CEPSNTYPE
380
     0
  9
$PSTYLEMODE
290
     1
  9
$FINGERPRINTGUID
  2

  9
$VERSIONGUID
  2

  9
$EXTNAMES
290
     1
  9
$PSVPSCALE
 40
0.0
  9
$OLESTARTUP
290
     0
  9
$SORTENTS
280
   127
  9
$INDEXCTL
280
     0
  9
$HIDETEXT
280
     1
  9
$XCLIPFRAME
280
     2
  9
$HALOGAP
280
     0
  9
$OBSCOLOR
 70
   257
  9
$OBSLTYPE
280
     0
  9
$INTERSECTIONDISPLAY
280
     0
  9
$INTERSECTIONCOLOR
 70
   257
  9
$DIMASSOC
280
     2
  9
$PROJECTNAME
  1

  9
$CAMERADISPLAY
290
     0
  9
$LENSLENGTH
 40
50.0
  9
$CAMERAHEIGHT
 40
0.0
  9
$STEPSPERSEC
 40
2.0
  9
$STEPSIZE
 40
6.0
  9
$3DDWFPREC
 40
2.0
  9
$PSOLWIDTH
 40
0.25
  9
$PSOLHEIGHT
 40
4.0
  9
$LOFTANG1
 40
1.570796326794897
  9
$LOFTANG2
 40
1.570796326794897
  9
$LOFTMAG1
 40
0.0
  9
$LOFTMAG2
 40
0.0
  9
$LOFTPARAM
 70
     7
  9
$LOFTNORMALS
280
     1
  9
$LATITUDE
 40
37.795
  9
$LONGITUDE
 40
-122.394
  9
$NORTHDIRECTION
 40
0.0
  9
$TIMEZONE
 70
 -8000
  9
$LIGHTGLYPHDISPLAY
280
     1
  9
$TILEMODELIGHTSYNCH
280
     1
  9
$SOLIDHIST
280
     0
  9
$SHOWHIST
280
     1
  9
$DWFFRAME
280
     2
  9
$DGNFRAME
280
     2
  9
$REALWORLDSCALE
290
     1
  9
$INTERFERECOLOR
 62
   256
  9
$CSHADOW
280
     0
  9
$SHADOWPLANELOCATION
 40
0.0
  0
ENDSEC
  0
SECTION
  2
CLASSES
  0
CLASS
  1
LWPOLYLINE
  2
AcDbPolyline
  3
ObjectDBX Classes
 90
        0
 91
        1
280
     0
281
     1
  0
CLASS
  1
IMAGE
  2
AcDbRasterImage
  3
ISM
 90
      127
 91
        5
280
     0
281
     1
  0
CLASS
  1
OLE2FRAME
  2
AcDbOle2Frame
  3
ObjectDBX Classes
 90
        0
 91
        1
280
     0
281
     1
  0
CLASS
  1
HATCH
  2
AcDbHatch
  3
ObjectDBX Classes
 90
        0
 91
        1
280
     0
281
     1
  0
CLASS
  1
DICTIONARYVAR
  2
AcDbDictionaryVar
  3
ObjectDBX Classes
 90
        0
 91
        4
280
     0
281
     0
  0
CLASS
  1
RASTERVARIABLES
  2
AcDbRasterVariables
  3
ISM
 90
        0
 91
        4
280
     0
281
     0
  0
CLASS
  1
IMAGEDEF
  2
AcDbRasterImageDef
  3
ISM
 90
        0
 91
        4
280
     0
281
     0
  0
CLASS
  1
IMAGEDEF_REACTOR
  2
AcDbRasterImageDefReactor
  3
ISM
 90
        1
 91
        4
280
     0
281
     0
  0
CLASS
  1
IDBUFFER
  2
AcDbIdBuffer
  3
ObjectDBX Classes
 90
        0
 91
        4
280
     0
281
     0
  0
CLASS
  1
SPATIAL_FILTER
  2
AcDbSpatialFilter
  3
ObjectDBX Classes
 90
        0
 91
        4
280
     0
281
     0
  0
CLASS
  1
XRECORD
  2
AcDbXrecord
  3
ObjectDBX Classes
 90
        0
 91
        1
280
     0
281
     0
  0
CLASS
  1
SORTENTSTABLE
  2
AcDbSortentsTable
  3
ObjectDBX Classes
 90
        0
 91
        4
280
     0
281
     0
  0
CLASS
  1
LAYER_INDEX
  2
AcDbLayerIndex
  3
ObjectDBX Classes
 90
        0
 91
        4
280
     0
281
     0
  0
CLASS
  1
SPATIAL_INDEX
  2
AcDbSpatialIndex
  3
AutoCAD 2000
 90
        0
 91
        4
280
     0
281
     0
  0
CLASS
  1
OBJECT_PTR
  2
CAseDLPNTableRecord
  3
ASE-LPNTableRecord
 90
        1
 91
        4
280
     0
281
     0
  0
CLASS
  1
LAYOUT
  2
AcDbLayout
  3
ObjectDBX Classes
 90
        0
 91
        1
280
     0
281
     0
  0
CLASS
  1
PLOTSETTINGS
  2
AcDbPlotSettings
  3
ObjectDBX Classes
 90
        0
 91
        4
280
     0
281
     0
  0
CLASS
  1
ACDBDICTIONARYWDFLT
  2
AcDbDictionaryWithDefault
  3
ObjectDBX Classes
 90
        0
 91
        4
280
     0
281
     0
  0
CLASS
  1
ACDBPLACEHOLDER
  2
AcDbPlaceHolder
  3
ObjectDBX Classes
 90
        0
 91
        1
280
     0
281
     0
  0
CLASS
  1
VBA_PROJECT
  2
AcDbVbaProject
  3
ObjectDBX Classes
 90
        0
 91
        1
280
     0
281
     0
  0
CLASS
  1
WIPEOUT
  2
AcDbWipeout
  3
WipeOut|AutoCAD Express Tool|expresstools@autodesk.com
 90
      127
 91
        4
280
     0
281
     1
  0
CLASS
  1
WIPEOUTVARIABLES
  2
AcDbWipeoutVariables
  3
WipeOut|AutoCAD Express Tool|expresstools@autodesk.com
 90
        0
 91
        4
280
     0
281
     0
  0
CLASS
  1
RTEXT
  2
RText
  3
RText|AutoCAD Express Tool|expresstools@autodesk.com
 90
        0
 91
        4
280
     0
281
     1
  0
CLASS
  1
ARCALIGNEDTEXT
  2
AcDbArcAlignedText
  3
ATEXT|AutoCAD Express Tool|expresstools@autodesk.com
 90
        0
 91
        4
280
     0
281
     1
  0
CLASS
  1
SCALE
  2
AcDbScale
  3
ObjectDBX Classes
 90
     1153
 91
        4
280
     0
281
     0
  0
CLASS
  1
VISUALSTYLE
  2
AcDbVisualStyle
  3
ObjectDBX Classes
 90
     4095
 91
        4
280
     0
281
     0
  0
CLASS
  1
MATERIAL
  2
AcDbMaterial
  3
ObjectDBX Classes
 90
     1153
 91
        4
280
     0
281
     0
  0
CLASS
  1
TABLESTYLE
  2
AcDbTableStyle
  3
ObjectDBX Classes
 90
     4095
 91
        4
280
     0
281
     0
  0
CLASS
  1
MLEADERSTYLE
  2
AcDbMLeaderStyle
  3
ACDB_MLEADERSTYLE_CLASS
 90
     4095
 91
        4
280
     0
281
     0
  0
CLASS
  1
CELLSTYLEMAP
  2
AcDbCellStyleMap
  3
ObjectDBX Classes
 90
     1152
 91
        4
280
     0
281
     0
  0
ENDSEC
  0
SECTION
  2
TABLES
  0
TABLE
  2
VPORT
  5
7
330
0
100
AcDbSymbolTable
 70
     1
  0
VPORT
  5
15
330
7
100
AcDbSymbolTableRecord
100
AcDbViewportTableRecord
  2
*ACTIVE
 70
     0
 10
0.0
 20
0.0
 11
1.0
 21
1.0
 12
6.591288
 22
4.579184
 13
0.0
 23
0.0
 14
1.0
 24
1.0
 15
0.0
 25
0.0
 16
0.0
 26
0.0
 36
1.0
 17
0.0
 27
0.0
 37
0.0
 40
9.158369
 41
0.688564
 42
50.0
 43
0.0
 44
0.0
 50
0.0
 51
0.0
 71
     0
 72
   100
 73
     1
 74
     1
 75
     0
 76
     0
 77
     0
 78
     0
281
     0
 65
     0
110
0.0
120
0.0
130
0.0
111
1.0
121
0.0
131
0.0
112
0.0
122
1.0
132
0.0
 79
     0
146
0.0
348
102
 60
     3
 61
     5
292
     1
282
     1
141
0.0
142
0.0
 63
   256
  0
ENDTAB
  0
TABLE
  2
LTYPE
  5
4
330
0
100
AcDbSymbolTable
 70
     2
  0
LTYPE
  5
11
330
4
100
AcDbSymbolTableRecord
100
AcDbLinetypeTableRecord
  2
ByBlock
 70
     0
  3

 72
    65
 73
     0
 40
0.0
  0
LTYPE
  5
12
330
4
100
AcDbSymbolTableRecord
100
AcDbLinetypeTableRecord
  2
ByLayer
 70
     0
  3

 72
    65
 73
     0
 40
0.0
  0
LTYPE
  5
13
330
4
100
AcDbSymbolTableRecord
100
AcDbLinetypeTableRecord
  2
Continuous
 70
     0
  3
Solid line
 72
    65
 73
     0
 40
0.0
  0
LTYPE
  5
29
330
4
100
AcDbSymbolTableRecord
100
AcDbLinetypeTableRecord
  2
AI9-LType1
 70
     0
  3
Illustrator Dash Style No.1
 72
    65
 73
     4
 40
4.586111
 49
2.116667
 74
     0
 49
-1.058333
 74
     0
 49
0.352778
 74
     0
 49
-1.058333
 74
     0
  0
ENDTAB
  0
TABLE
  2
LAYER
  5
2
330
0
100
AcDbSymbolTable
 70
     2
  0
LAYER
  5
14
330
2
100
AcDbSymbolTableRecord
100
AcDbLayerTableRecord
  2
0
 70
     0
 62
     7
  6
Continuous
370
    -3
390
1D
347
119
  0
LAYER
  5
28
330
2
100
AcDbSymbolTableRecord
100
AcDbLayerTableRecord
  2
LAYER_1
 70
     0
 62
   160
  6
Continuous
370
    -3
390
1D
347
119
  0
ENDTAB
  0
TABLE
  2
STYLE
  5
3
330
0
100
AcDbSymbolTable
 70
     5
  0
STYLE
  5
17
330
3
100
AcDbSymbolTableRecord
100
AcDbTextStyleTableRecord
  2
Standard
 70
     0
 40
0.0
 41
1.0
 50
0.0
 71
     0
 42
0.0
  3
txt
  4

  0
STYLE
  5
24
330
3
100
AcDbSymbolTableRecord
100
AcDbTextStyleTableRecord
  2
STD
 70
     0
 40
0.0
 41
1.0
 50
0.0
 71
     0
 42
0.0
  3
txt
  4

  0
STYLE
  5
25
330
3
100
AcDbSymbolTableRecord
100
AcDbTextStyleTableRecord
  2
TATESTD
 70
     4
 40
0.0
 41
1.0
 50
0.0
 71
     0
 42
0.0
  3
txt
  4

  0
STYLE
  5
26
330
3
100
AcDbSymbolTableRecord
100
AcDbTextStyleTableRecord
  2
KANJISTD
 70
     0
 40
0.0
 41
1.0
 50
0.0
 71
     0
 42
0.0
  3
txt
  4
extfont
  0
STYLE
  5
27
330
3
100
AcDbSymbolTableRecord
100
AcDbTextStyleTableRecord
  2
KANJITATE
 70
     4
 40
0.0
 41
1.0
 50
0.0
 71
     0
 42
0.0
  3
txt
  4
extfont
  0
ENDTAB
  0
TABLE
  2
VIEW
  5
5
330
0
100
AcDbSymbolTable
 70
     0
  0
ENDTAB
  0
TABLE
  2
UCS
  5
6
330
0
100
AcDbSymbolTable
 70
     0
  0
ENDTAB
  0
TABLE
  2
APPID
  5
8
330
0
100
AcDbSymbolTable
 70
     1
  0
APPID
  5
16
330
8
100
AcDbSymbolTableRecord
100
AcDbRegAppTableRecord
  2
ACAD
 70
     0
  0
ENDTAB
  0
TABLE
  2
DIMSTYLE
  5
9
330
0
100
AcDbSymbolTable
 70
     1
100
AcDbDimStyleTable
  0
DIMSTYLE
105
18
330
9
100
AcDbSymbolTableRecord
100
AcDbDimStyleTableRecord
  2
Standard
 70
     0
178
     0
340
17
  0
ENDTAB
  0
TABLE
  2
BLOCK_RECORD
  5
1
330
0
100
AcDbSymbolTable
 70
     8
  0
BLOCK_RECORD
  5
A
330
1
100
AcDbSymbolTableRecord
100
AcDbBlockTableRecord
  2
*MODEL_SPACE
340
20
 70
     0
280
     1
281
     0
  0
BLOCK_RECORD
  5
B
330
1
100
AcDbSymbolTableRecord
100
AcDbBlockTableRecord
  2
*PAPER_SPACE
340
21
 70
     0
280
     1
281
     0
  0
BLOCK_RECORD
  5
3B
330
1
100
AcDbSymbolTableRecord
100
AcDbBlockTableRecord
  2
AI9-BLK1
340
0
102
{BLKREFS
331
3C
102
}
 70
     0
280
     1
281
     0
  0
BLOCK_RECORD
  5
3E
330
1
100
AcDbSymbolTableRecord
100
AcDbBlockTableRecord
  2
AI9-BLK2
340
0
102
{BLKREFS
331
3F
102
}
 70
     0
280
     1
281
     0
  0
BLOCK_RECORD
  5
41
330
1
100
AcDbSymbolTableRecord
100
AcDbBlockTableRecord
  2
AI9-BLK3
340
0
102
{BLKREFS
331
42
102
}
 70
     0
280
     1
281
     0
  0
BLOCK_RECORD
  5
44
330
1
100
AcDbSymbolTableRecord
100
AcDbBlockTableRecord
  2
AI9-BLK4
340
0
102
{BLKREFS
331
45
102
}
 70
     0
280
     1
281
     0
  0
BLOCK_RECORD
  5
4E
330
1
100
AcDbSymbolTableRecord
100
AcDbBlockTableRecord
  2
AI9-BLK5
340
0
102
{BLKREFS
331
4F
102
}
 70
     0
280
     1
281
     0
  0
BLOCK_RECORD
  5
51
330
1
100
AcDbSymbolTableRecord
100
AcDbBlockTableRecord
  2
AI9-BLK6
340
0
102
{BLKREFS
331
52
102
}
 70
     0
280
     1
281
     0
  0
BLOCK_RECORD
  5
54
330
1
100
AcDbSymbolTableRecord
100
AcDbBlockTableRecord
  2
AI9-BLK7
340
0
102
{BLKREFS
331
55
102
}
 70
     0
280
     1
281
     0
  0
BLOCK_RECORD
  5
57
330
1
100
AcDbSymbolTableRecord
100
AcDbBlockTableRecord
  2
AI9-BLK8
340
0
102
{BLKREFS
331
58
102
}
 70
     0
280
     1
281
     0
  0
ENDTAB
  0
ENDSEC
  0
SECTION
  2
BLOCKS
  0
BLOCK
  5
D
330
A
100
AcDbEntity
  8
0
100
AcDbBlockBegin
  2
*MODEL_SPACE
 70
     0
 10
0.0
 20
0.0
 30
0.0
  3
*MODEL_SPACE
  1

  0
ENDBLK
  5
E
330
A
100
AcDbEntity
  8
0
100
AcDbBlockEnd
  0
BLOCK
  5
F
330
B
100
AcDbEntity
 67
     1
  8
0
100
AcDbBlockBegin
  2
*PAPER_SPACE
 70
     0
 10
0.0
 20
0.0
 30
0.0
  3
*PAPER_SPACE
  1

  0
ENDBLK
  5
10
330
B
100
AcDbEntity
 67
     1
  8
0
100
AcDbBlockEnd
  0
BLOCK
  5
3D
330
3B
100
AcDbEntity
  8
LAYER_1
  6
AI9-LType1
 62
     7
100
AcDbBlockBegin
  2
AI9-BLK1
 70
     0
 10
0.0
 20
0.0
 30
0.0
  3
AI9-BLK1
  1

  0
INSERT
  5
3F
330
3B
100
AcDbEntity
  8
LAYER_1
  6
AI9-LType1
 62
     7
100
AcDbBlockReference
  2
AI9-BLK2
 10
0.0
 20
0.0
 30
0.0
  0
ENDBLK
  5
4D
330
3B
100
AcDbEntity
  8
LAYER_1
100
AcDbBlockEnd
  0
BLOCK
  5
40
330
3E
100
AcDbEntity
  8
LAYER_1
  6
AI9-LType1
 62
     7
100
AcDbBlockBegin
  2
AI9-BLK2
 70
     0
 10
0.0
 20
0.0
 30
0.0
  3
AI9-BLK2
  1

  0
INSERT
  5
42
330
3E
100
AcDbEntity
  8
LAYER_1
  6
AI9-LType1
 62
     7
100
AcDbBlockReference
  2
AI9-BLK3
 10
0.0
 20
0.0
 30
0.0
  0
ENDBLK
  5
4C
330
3E
100
AcDbEntity
  8
LAYER_1
100
AcDbBlockEnd
  0
BLOCK
  5
43
330
41
100
AcDbEntity
  8
LAYER_1
  6
AI9-LType1
 62
     7
100
AcDbBlockBegin
  2
AI9-BLK3
 70
     0
 10
0.0
 20
0.0
 30
0.0
  3
AI9-BLK3
  1

  0
INSERT
  5
45
330
41
100
AcDbEntity
  8
LAYER_1
  6
AI9-LType1
 62
     7
100
AcDbBlockReference
  2
AI9-BLK4
 10
0.0
 20
0.0
 30
0.0
  0
ENDBLK
  5
4B
330
41
100
AcDbEntity
  8
LAYER_1
100
AcDbBlockEnd
  0
BLOCK
  5
46
330
44
100
AcDbEntity
  8
LAYER_1
  6
AI9-LType1
 62
     7
100
AcDbBlockBegin
  2
AI9-BLK4
 70
     0
 10
0.0
 20
0.0
 30
0.0
  3
AI9-BLK4
  1

  0
CIRCLE
  5
49
330
44
100
AcDbEntity
  8
LAYER_1
 62
     7
100
AcDbCircle
 10
0.000172
 20
-0.000345
 30
0.0
 40
1.000111
  0
LINE
  5
48
330
44
100
AcDbEntity
  8
LAYER_1
 62
     7
100
AcDbLine
 10
-0.000172
 20
1.999878
 30
0.0
 11
-0.000172
 21
-1.999878
 31
0.0
  0
LINE
  5
47
330
44
100
AcDbEntity
  8
LAYER_1
 62
     7
100
AcDbLine
 10
-2.00005
 20
-0.000345
 30
0.0
 11
2.00005
 21
-0.000345
 31
0.0
  0
ENDBLK
  5
4A
330
44
100
AcDbEntity
  8
LAYER_1
100
AcDbBlockEnd
  0
BLOCK
  5
50
330
4E
100
AcDbEntity
  8
LAYER_1
 62
     7
100
AcDbBlockBegin
  2
AI9-BLK5
 70
     0
 10
0.0
 20
0.0
 30
0.0
  3
AI9-BLK5
  1

  0
INSERT
  5
52
330
4E
100
AcDbEntity
  8
LAYER_1
 62
     7
100
AcDbBlockReference
  2
AI9-BLK6
 10
0.0
 20
0.0
 30
0.0
  0
ENDBLK
  5
60
330
4E
100
AcDbEntity
  8
LAYER_1
100
AcDbBlockEnd
  0
BLOCK
  5
53
330
51
100
AcDbEntity
  8
LAYER_1
 62
     7
100
AcDbBlockBegin
  2
AI9-BLK6
 70
     0
 10
0.0
 20
0.0
 30
0.0
  3
AI9-BLK6
  1

  0
INSERT
  5
55
330
51
100
AcDbEntity
  8
LAYER_1
 62
     7
100
AcDbBlockReference
  2
AI9-BLK7
 10
0.0
 20
0.0
 30
0.0
  0
ENDBLK
  5
5F
330
51
100
AcDbEntity
  8
LAYER_1
100
AcDbBlockEnd
  0
BLOCK
  5
56
330
54
100
AcDbEntity
  8
LAYER_1
 62
     7
100
AcDbBlockBegin
  2
AI9-BLK7
 70
     0
 10
0.0
 20
0.0
 30
0.0
  3
AI9-BLK7
  1

  0
INSERT
  5
58
330
54
100
AcDbEntity
  8
LAYER_1
 62
     7
100
AcDbBlockReference
  2
AI9-BLK8
 10
0.0
 20
0.0
 30
0.0
  0
ENDBLK
  5
5E
330
54
100
AcDbEntity
  8
LAYER_1
100
AcDbBlockEnd
  0
BLOCK
  5
59
330
57
100
AcDbEntity
  8
LAYER_1
 62
     7
100
AcDbBlockBegin
  2
AI9-BLK8
 70
     0
 10
0.0
 20
0.0
 30
0.0
  3
AI9-BLK8
  1

  0
CIRCLE
  5
5C
330
57
100
AcDbEntity
  8
LAYER_1
 62
     7
100
AcDbCircle
 10
0.000172
 20
-0.000345
 30
0.0
 40
1.000111
  0
LINE
  5
5B
330
57
100
AcDbEntity
  8
LAYER_1
 62
     7
100
AcDbLine
 10
-0.000172
 20
1.999878
 30
0.0
 11
-0.000172
 21
-1.999878
 31
0.0
  0
LINE
  5
5A
330
57
100
AcDbEntity
  8
LAYER_1
 62
     7
100
AcDbLine
 10
-2.00005
 20
-0.000345
 30
0.0
 11
2.00005
 21
-0.000345
 31
0.0
  0
ENDBLK
  5
5D
330
57
100
AcDbEntity
  8
LAYER_1
100
AcDbBlockEnd
  0
ENDSEC
  0
SECTION
  2
ENTITIES
  0
LINE
  5
DA
330
A
100
AcDbEntity
  8
LAYER_1
 62
   230
100
AcDbLine
 10
-548.856421
 20
1090.272125
 30
0.0
 11
-548.856421
 21
-832.796023
 31
0.0
  0
LINE
  5
D9
330
A
100
AcDbEntity
  8
LAYER_1
 62
   230
100
AcDbLine
 10
-392.305425
 20
1090.272125
 30
0.0
 11
-392.305425
 21
-832.796023
 31
0.0
  0
LINE
  5
D8
330
A
100
AcDbEntity
  8
LAYER_1
 62
   230
100
AcDbLine
 10
-235.75753
 20
1090.272125
 30
0.0
 11
-235.75753
 21
-832.796023
 31
0.0
  0
LINE
  5
D7
330
A
100
AcDbEntity
  8
LAYER_1
 62
   230
100
AcDbLine
 10
-79.20619
 20
1090.272125
 30
0.0
 11
-79.20619
 21
-832.796023
 31
0.0
  0
LINE
  5
D6
330
A
100
AcDbEntity
  8
LAYER_1
 62
   230
100
AcDbLine
 10
77.344805
 20
1090.272125
 30
0.0
 11
77.344805
 21
-832.796023
 31
0.0
  0
LINE
  5
D5
330
A
100
AcDbEntity
  8
LAYER_1
 62
   230
100
AcDbLine
 10
233.899246
 20
1090.272125
 30
0.0
 11
233.899246
 21
-832.796023
 31
0.0
  0
LINE
  5
D4
330
A
100
AcDbEntity
  8
LAYER_1
 62
   230
100
AcDbLine
 10
390.450241
 20
1090.272125
 30
0.0
 11
390.450241
 21
-832.796023
 31
0.0
  0
LINE
  5
D3
330
A
100
AcDbEntity
  8
LAYER_1
 62
   230
100
AcDbLine
 10
547.001581
 20
1090.272125
 30
0.0
 11
547.001581
 21
-832.796023
 31
0.0
  0
LINE
  5
D2
330
A
100
AcDbEntity
  8
LAYER_1
 62
   230
100
AcDbLine
 10
703.552577
 20
1090.272125
 30
0.0
 11
703.552577
 21
-832.796023
 31
0.0
  0
LINE
  5
D1
330
A
100
AcDbEntity
  8
LAYER_1
 62
   230
100
AcDbLine
 10
860.103573
 20
1090.272125
 30
0.0
 11
860.103573
 21
-832.796023
 31
0.0
  0
LINE
  5
D0
330
A
100
AcDbEntity
  8
LAYER_1
 62
   230
100
AcDbLine
 10
-595.826164
 20
-833.05096
 30
0.0
 11
898.152585
 21
-833.057161
 31
0.0
  0
LINE
  5
CF
330
A
100
AcDbEntity
  8
LAYER_1
 62
   230
100
AcDbLine
 10
-595.826164
 20
-676.503065
 30
0.0
 11
898.152585
 21
-676.503065
 31
0.0
  0
LINE
  5
CE
330
A
100
AcDbEntity
  8
LAYER_1
 62
   230
100
AcDbLine
 10
-595.826164
 20
-519.948625
 30
0.0
 11
898.152585
 21
-519.948625
 31
0.0
  0
LINE
  5
CD
330
A
100
AcDbEntity
  8
LAYER_1
 62
   230
100
AcDbLine
 10
-595.826164
 20
-363.397285
 30
0.0
 11
898.152585
 21
-363.40073
 31
0.0
  0
LINE
  5
CC
330
A
100
AcDbEntity
  8
LAYER_1
 62
   230
100
AcDbLine
 10
-595.826164
 20
-206.846289
 30
0.0
 11
898.152585
 21
-206.84939
 31
0.0
  0
LINE
  5
CB
330
A
100
AcDbEntity
  8
LAYER_1
 62
   230
100
AcDbLine
 10
-595.826164
 20
-50.291848
 30
0.0
 11
898.152585
 21
-50.298394
 31
0.0
  0
LINE
  5
CA
330
A
100
AcDbEntity
  8
LAYER_1
 62
   230
100
AcDbLine
 10
-595.826164
 20
106.256047
 30
0.0
 11
898.152585
 21
106.249501
 31
0.0
  0
LINE
  5
C9
330
A
100
AcDbEntity
  8
LAYER_1
 62
   230
100
AcDbLine
 10
-595.826164
 20
262.810487
 30
0.0
 11
898.152585
 21
262.803942
 31
0.0
  0
LINE
  5
C8
330
A
100
AcDbEntity
  8
LAYER_1
 62
   230
100
AcDbLine
 10
-595.826164
 20
419.358382
 30
0.0
 11
898.152585
 21
419.358382
 31
0.0
  0
LINE
  5
C7
330
A
100
AcDbEntity
  8
LAYER_1
 62
   230
100
AcDbLine
 10
-595.826164
 20
575.912478
 30
0.0
 11
898.152585
 21
575.906277
 31
0.0
  0
LINE
  5
C6
330
A
100
AcDbEntity
  8
LAYER_1
 62
   230
100
AcDbLine
 10
-595.826164
 20
732.463818
 30
0.0
 11
898.152585
 21
732.463818
 31
0.0
  0
LINE
  5
C5
330
A
100
AcDbEntity
  8
LAYER_1
 62
   230
100
AcDbLine
 10
-595.826164
 20
889.018259
 30
0.0
 11
898.152585
 21
889.011713
 31
0.0
  0
LINE
  5
C4
330
A
100
AcDbEntity
  8
LAYER_1
 62
   230
100
AcDbLine
 10
-595.826164
 20
1045.566154
 30
0.0
 11
898.152585
 21
1045.563053
 31
0.0
  0
MTEXT
  5
C3
330
A
100
AcDbEntity
  8
LAYER_1
 62
     7
100
AcDbMText
 10
-677.162629
 20
-815.510105
 30
0.0
 40
30.816531
 41
0.0
 46
0.0
 71
     1
 72
     2
  1
\W1.00;\fMyriad Roman|b0|i0;200
  7
STD
 73
     1
 44
1.0
  0
MTEXT
  5
C2
330
A
100
AcDbEntity
  8
LAYER_1
 62
     7
100
AcDbMText
 10
-677.162629
 20
-658.92397
 30
0.0
 40
30.816531
 41
0.0
 46
0.0
 71
     1
 72
     2
  1
\W1.00;\fMyriad Roman|b0|i0;210
  7
STD
 73
     1
 44
1.0
  0
MTEXT
  5
C1
330
A
100
AcDbEntity
  8
LAYER_1
 62
     7
100
AcDbMText
 10
-677.162629
 20
-502.33749
 30
0.0
 40
30.816531
 41
0.0
 46
0.0
 71
     1
 72
     2
  1
\W1.00;\fMyriad Roman|b0|i0;220
  7
STD
 73
     1
 44
1.0
  0
MTEXT
  5
C0
330
A
100
AcDbEntity
  8
LAYER_1
 62
     7
100
AcDbMText
 10
-677.162629
 20
-345.748254
 30
0.0
 40
30.816531
 41
0.0
 46
0.0
 71
     1
 72
     2
  1
\W1.00;\fMyriad Roman|b0|i0;230
  7
STD
 73
     1
 44
1.0
  0
MTEXT
  5
BF
330
A
100
AcDbEntity
  8
LAYER_1
 62
     7
100
AcDbMText
 10
-677.162629
 20
-189.165219
 30
0.0
 40
30.816531
 41
0.0
 46
0.0
 71
     1
 72
     2
  1
\W1.00;\fMyriad Roman|b0|i0;240
  7
STD
 73
     1
 44
1.0
  0
MTEXT
  5
BE
330
A
100
AcDbEntity
  8
LAYER_1
 62
     7
100
AcDbMText
 10
-677.162629
 20
-32.575638
 30
0.0
 40
30.816531
 41
0.0
 46
0.0
 71
     1
 72
     2
  1
\W1.00;\fMyriad Roman|b0|i0;250
  7
STD
 73
     1
 44
1.0
  0
MTEXT
  5
BD
330
A
100
AcDbEntity
  8
LAYER_1
 62
     7
100
AcDbMText
 10
-677.162629
 20
124.010498
 30
0.0
 40
30.816531
 41
0.0
 46
0.0
 71
     1
 72
     2
  1
\W1.00;\fMyriad Roman|b0|i0;260
  7
STD
 73
     1
 44
1.0
  0
MTEXT
  5
BC
330
A
100
AcDbEntity
  8
LAYER_1
 62
     7
100
AcDbMText
 10
-677.162629
 20
280.599734
 30
0.0
 40
30.816531
 41
0.0
 46
0.0
 71
     1
 72
     2
  1
\W1.00;\fMyriad Roman|b0|i0;270
  7
STD
 73
     1
 44
1.0
  0
MTEXT
  5
BB
330
A
100
AcDbEntity
  8
LAYER_1
 62
     7
100
AcDbMText
 10
-677.162629
 20
437.186214
 30
0.0
 40
30.816531
 41
0.0
 46
0.0
 71
     1
 72
     2
  1
\W1.00;\fMyriad Roman|b0|i0;280
  7
STD
 73
     1
 44
1.0
  0
MTEXT
  5
BA
330
A
100
AcDbEntity
  8
LAYER_1
 62
     7
100
AcDbMText
 10
-677.162629
 20
593.772349
 30
0.0
 40
30.816531
 41
0.0
 46
0.0
 71
     1
 72
     2
  1
\W1.00;\fMyriad Roman|b0|i0;290
  7
STD
 73
     1
 44
1.0
  0
MTEXT
  5
B9
330
A
100
AcDbEntity
  8
LAYER_1
 62
     7
100
AcDbMText
 10
-677.162629
 20
750.352284
 30
0.0
 40
30.816531
 41
0.0
 46
0.0
 71
     1
 72
     2
  1
\W1.00;\fMyriad Roman|b0|i0;300
  7
STD
 73
     1
 44
1.0
  0
MTEXT
  5
B8
330
A
100
AcDbEntity
  8
LAYER_1
 62
     7
100
AcDbMText
 10
-677.162629
 20
906.94152
 30
0.0
 40
30.816531
 41
0.0
 46
0.0
 71
     1
 72
     2
  1
\W1.00;\fMyriad Roman|b0|i0;310
  7
STD
 73
     1
 44
1.0
  0
MTEXT
  5
B7
330
A
100
AcDbEntity
  8
LAYER_1
 62
     7
100
AcDbMText
 10
-677.162629
 20
1063.530756
 30
0.0
 40
30.816531
 41
0.0
 46
0.0
 71
     1
 72
     2
  1
\W1.00;\fMyriad Roman|b0|i0;320
  7
STD
 73
     1
 44
1.0
  0
MTEXT
  5
B6
330
A
100
AcDbEntity
  8
LAYER_1
 62
     7
100
AcDbMText
 10
-581.331613
 20
1149.449715
 30
0.0
 40
30.816531
 41
0.0
 46
0.0
 71
     1
 72
     2
  1
\W1.00;\fMyriad Roman|b0|i0;730
  7
STD
 73
     1
 44
1.0
  0
MTEXT
  5
B5
330
A
100
AcDbEntity
  8
LAYER_1
 62
     7
100
AcDbMText
 10
-425.078619
 20
1149.449715
 30
0.0
 40
30.816531
 41
0.0
 46
0.0
 71
     1
 72
     2
  1
\W1.00;\fMyriad Roman|b0|i0;740
  7
STD
 73
     1
 44
1.0
  0
MTEXT
  5
B4
330
A
100
AcDbEntity
  8
LAYER_1
 62
     7
100
AcDbMText
 10
-268.828725
 20
1149.449715
 30
0.0
 40
30.816531
 41
0.0
 46
0.0
 71
     1
 72
     2
  1
\W1.00;\fMyriad Roman|b0|i0;750
  7
STD
 73
     1
 44
1.0
  0
MTEXT
  5
B3
330
A
100
AcDbEntity
  8
LAYER_1
 62
     7
100
AcDbMText
 10
-112.575385
 20
1149.449715
 30
0.0
 40
30.816531
 41
0.0
 46
0.0
 71
     1
 72
     2
  1
\W1.00;\fMyriad Roman|b0|i0;760
  7
STD
 73
     1
 44
1.0
  0
MTEXT
  5
B2
330
A
100
AcDbEntity
  8
LAYER_1
 62
     7
100
AcDbMText
 10
43.674509
 20
1149.446614
 30
0.0
 40
30.816531
 41
0.0
 46
0.0
 71
     1
 72
     2
  1
\W1.00;\fMyriad Roman|b0|i0;770
  7
STD
 73
     1
 44
1.0
  0
MTEXT
  5
B1
330
A
100
AcDbEntity
  8
LAYER_1
 62
     7
100
AcDbMText
 10
199.929226
 20
1149.446614
 30
0.0
 40
30.816531
 41
0.0
 46
0.0
 71
     1
 72
     2
  1
\W1.00;\fMyriad Roman|b0|i0;780
  7
STD
 73
     1
 44
1.0
  0
MTEXT
  5
B0
330
A
100
AcDbEntity
  8
LAYER_1
 62
     7
100
AcDbMText
 10
356.180843
 20
1149.446614
 30
0.0
 40
30.816531
 41
0.0
 46
0.0
 71
     1
 72
     2
  1
\W1.00;\fMyriad Roman|b0|i0;790
  7
STD
 73
     1
 44
1.0
  0
MTEXT
  5
AF
330
A
100
AcDbEntity
  8
LAYER_1
 62
     7
100
AcDbMText
 10
512.43556
 20
1149.446614
 30
0.0
 40
30.816531
 41
0.0
 46
0.0
 71
     1
 72
     2
  1
\W1.00;\fMyriad Roman|b0|i0;800
  7
STD
 73
     1
 44
1.0
  0
MTEXT
  5
AE
330
A
100
AcDbEntity
  8
LAYER_1
 62
     7
100
AcDbMText
 10
668.687177
 20
1149.446614
 30
0.0
 40
30.816531
 41
0.0
 46
0.0
 71
     1
 72
     2
  1
\W1.00;\fMyriad Roman|b0|i0;810
  7
STD
 73
     1
 44
1.0
  0
MTEXT
  5
AD
330
A
100
AcDbEntity
  8
LAYER_1
 62
     7
100
AcDbMText
 10
824.942239
 20
1149.446614
 30
0.0
 40
30.816531
 41
0.0
 46
0.0
 71
     1
 72
     2
  1
\W1.00;\fMyriad Roman|b0|i0;820
  7
STD
 73
     1
 44
1.0
  0
SPLINE
  5
AC
330
A
100
AcDbEntity
  8
LAYER_1
 62
     7
100
AcDbSpline
210
0.0
220
0.0
230
1.0
 70
     8
 71
     3
 72
   122
 73
   118
 74
     0
 42
0.000000001
 43
0.00000001
 40
0.0
 40
0.0
 40
0.0
 40
0.0
 40
1.0
 40
1.0
 40
1.0
 40
2.0
 40
2.0
 40
2.0
 40
3.0
 40
3.0
 40
3.0
 40
4.0
 40
4.0
 40
4.0
 40
5.0
 40
5.0
 40
5.0
 40
6.0
 40
6.0
 40
6.0
 40
7.0
 40
7.0
 40
7.0
 40
8.0
 40
8.0
 40
8.0
 40
9.0
 40
9.0
 40
9.0
 40
10.0
 40
10.0
 40
10.0
 40
11.0
 40
11.0
 40
11.0
 40
12.0
 40
12.0
 40
12.0
 40
13.0
 40
13.0
 40
13.0
 40
14.0
 40
14.0
 40
14.0
 40
15.0
 40
15.0
 40
15.0
 40
16.0
 40
16.0
 40
16.0
 40
17.0
 40
17.0
 40
17.0
 40
18.0
 40
18.0
 40
18.0
 40
19.0
 40
19.0
 40
19.0
 40
20.0
 40
20.0
 40
20.0
 40
21.0
 40
21.0
 40
21.0
 40
22.0
 40
22.0
 40
22.0
 40
23.0
 40
23.0
 40
23.0
 40
24.0
 40
24.0
 40
24.0
 40
25.0
 40
25.0
 40
25.0
 40
26.0
 40
26.0
 40
26.0
 40
27.0
 40
27.0
 40
27.0
 40
28.0
 40
28.0
 40
28.0
 40
29.0
 40
29.0
 40
29.0
 40
30.0
 40
30.0
 40
30.0
 40
31.0
 40
31.0
 40
31.0
 40
32.0
 40
32.0
 40
32.0
 40
33.0
 40
33.0
 40
33.0
 40
34.0
 40
34.0
 40
34.0
 40
35.0
 40
35.0
 40
35.0
 40
36.0
 40
36.0
 40
36.0
 40
37.0
 40
37.0
 40
37.0
 40
38.0
 40
38.0
 40
38.0
 40
39.0
 40
39.0
 40
39.0
 40
39.0
 10
121.9264078776041
 20
454.5965413411458
 30
0.0
 10
121.2728732638889
 20
454.6985161675347
 30
0.0
 10
120.2438232421875
 20
453.5578450520833
 30
0.0
 10
119.8104302300347
 20
453.1688937717013
 30
0.0
 10
119.0042778862847
 20
452.4423231336805
 30
0.0
 10
118.7651882595486
 20
451.6933593749999
 30
0.0
 10
118.6663140190972
 20
450.6450168185763
 30
0.0
 10
118.5739854600694
 20
449.6697102864583
 30
0.0
 10
118.5801866319444
 20
448.8284179687499
 30
0.0
 10
118.1788330078125
 20
447.9171902126736
 30
0.0
 10
117.4777560763889
 20
446.3462266710069
 30
0.0
 10
116.2158175998264
 20
445.0939344618055
 30
0.0
 10
115.5147406684028
 20
443.5515652126736
 30
0.0
 10
115.1130425347222
 20
442.6751329210069
 30
0.0
 10
114.7657769097222
 20
441.7253200954861
 30
0.0
 10
114.4374593098958
 20
440.8237386067708
 30
0.0
 10
114.0839925130208
 20
439.8549777560763
 30
0.0
 10
113.6950412326389
 20
438.8862169053819
 30
0.0
 10
113.3605224609375
 20
437.9143554687499
 30
0.0
 10
112.9398763020833
 20
436.6682644314236
 30
0.0
 10
112.8792426215278
 20
435.3360460069444
 30
0.0
 10
112.8093071831597
 20
434.0489583333333
 30
0.0
 10
112.7328260633681
 20
432.5896158854166
 30
0.0
 10
112.5254313151042
 20
431.14267578125
 30
0.0
 10
112.2260525173611
 20
429.7150282118055
 30
0.0
 10
112.0252034505208
 20
428.7845079210069
 30
0.0
 10
112.1240776909722
 20
427.8574327256944
 30
0.0
 10
111.9838623046875
 20
426.9169216579861
 30
0.0
 10
111.8818874782986
 20
426.2161892361111
 30
0.0
 10
111.591810438368
 20
425.5468071831597
 30
0.0
 10
111.3751139322917
 20
424.8905164930555
 30
0.0
 10
111.2094048394097
 20
424.3806423611111
 30
0.0
 10
111.4071533203125
 20
423.8738688151041
 30
0.0
 10
111.3782145182292
 20
423.3608940972222
 30
0.0
 10
111.356165907118
 20
422.9275010850694
 30
0.0
 10
111.2986328125
 20
422.4748155381944
 30
0.0
 10
111.2572916666667
 20
422.0352213541667
 30
0.0
 10
111.2159505208333
 20
421.5890814887152
 30
0.0
 10
111.1711642795139
 20
421.1491427951389
 30
0.0
 10
111.069189453125
 20
420.7095486111111
 30
0.0
 10
110.7984049479167
 20
419.5306369357638
 30
0.0
 10
110.3681125217014
 20
418.3958224826388
 30
0.0
 10
110.2788845486111
 20
417.1786702473958
 30
0.0
 10
110.2406439887153
 20
416.6560492621527
 30
0.0
 10
110.2313422309028
 20
415.9549723307291
 30
0.0
 10
110.5403672960069
 20
415.4867838541666
 30
0.0
 10
110.8621392144097
 20
415.0051595052083
 30
0.0
 10
111.5821641710069
 20
415.0499457465277
 30
0.0
 10
112.0796359592014
 20
414.8842366536458
 30
0.0
 10
112.3600667317708
 20
414.7950086805555
 30
0.0
 10
112.6370524088542
 20
414.7502224392361
 30
0.0
 10
112.9240288628472
 20
414.6737413194444
 30
0.0
 10
113.3253824869792
 20
414.5717664930555
 30
0.0
 10
113.6981418185764
 20
414.4126030815972
 30
0.0
 10
114.0901936848958
 20
414.2978814019097
 30
0.0
 10
114.3354844835069
 20
414.2279459635416
 30
0.0
 10
114.5714735243055
 20
414.15146484375
 30
0.0
 10
114.8136637369792
 20
414.0653374565972
 30
0.0
 10
115.145081922743
 20
413.9475151909722
 30
0.0
 10
115.4827012803819
 20
413.9089301215278
 30
0.0
 10
115.8175645616319
 20
413.7976535373264
 30
0.0
 10
116.116943359375
 20
413.698779296875
 30
0.0
 10
116.34638671875
 20
413.4500434027777
 30
0.0
 10
116.6395643446181
 20
413.3225748697917
 30
0.0
 10
117.3533881293403
 20
413.004248046875
 30
0.0
 10
118.0768581814236
 20
412.8257921006944
 30
0.0
 10
118.8768093532986
 20
412.8895263671874
 30
0.0
 10
119.4245795355903
 20
412.9277669270833
 30
0.0
 10
119.4693657769097
 20
413.1827039930555
 30
0.0
 10
119.8772650824653
 20
413.4631347656249
 30
0.0
 10
120.1480495876736
 20
413.6512369791666
 30
0.0
 10
120.6196831597222
 20
413.5968044704861
 30
0.0
 10
120.9449001736111
 20
413.5906032986111
 30
0.0
 10
121.6490776909722
 20
413.5616644965277
 30
0.0
 10
122.3308620876736
 20
413.3291205512152
 30
0.0
 10
123.0319390190972
 20
413.2970811631944
 30
0.0
 10
123.7299153645833
 20
413.2557400173611
 30
0.0
 10
124.4340928819444
 20
413.2240451388889
 30
0.0
 10
125.1320692274305
 20
413.1827039930555
 30
0.0
 10
125.3391194661458
 20
413.1696126302083
 30
0.0
 10
125.5430691189236
 20
413.1951063368055
 30
0.0
 10
125.7408175998264
 20
413.1827039930555
 30
0.0
 10
125.9606146918403
 20
413.1696126302083
 30
0.0
 10
126.1390706380208
 20
413.0869303385416
 30
0.0
 10
126.3492214626736
 20
413.0486897786458
 30
0.0
 10
126.5755642361111
 20
412.9946017795139
 30
0.0
 10
126.8336018880208
 20
412.9436143663194
 30
0.0
 10
127.0664903428819
 20
412.9753092447916
 30
0.0
 10
127.3944634331597
 20
413.0297417534722
 30
0.0
 10
127.435804578993
 20
413.2622856987847
 30
0.0
 10
127.6049587673611
 20
413.5203233506944
 30
0.0
 10
127.9935655381944
 20
414.103578016493
 30
0.0
 10
128.4717447916667
 20
414.6199978298611
 30
0.0
 10
128.9464789496528
 20
415.1326280381944
 30
0.0
 10
129.258949110243
 20
415.4612901475694
 30
0.0
 10
129.6158610026042
 20
415.7541232638889
 30
0.0
 10
130.0361626519097
 20
415.9229329427083
 30
0.0
 10
130.7117458767361
 20
416.1909613715277
 30
0.0
 10
131.5116970486111
 20
416.1144802517361
 30
0.0
 10
132.2224202473958
 20
416.1268825954861
 30
0.0
 10
133.0223714192708
 20
416.1399739583333
 30
0.0
 10
133.8347249348958
 20
416.1399739583333
 30
0.0
 10
134.6315755208333
 20
416.1909613715277
 30
0.0
 10
136.6772732204861
 20
416.3308322482638
 30
0.0
 10
138.7167697482639
 20
415.8657443576388
 30
0.0
 10
140.7721137152778
 20
415.9994140625
 30
0.0
 10
141.084583875868
 20
416.0249077690972
 30
0.0
 10
141.4063557942708
 20
415.9804660373263
 30
0.0
 10
141.715380859375
 20
415.993212890625
 30
0.0
 10
141.9861653645833
 20
416.0059597439236
 30
0.0
 10
142.231800672743
 20
416.0634928385416
 30
0.0
 10
142.4929389105903
 20
416.1013888888888
 30
0.0
 10
143.1175347222222
 20
416.1971625434027
 30
0.0
 10
143.7197374131944
 20
416.1334282769097
 30
0.0
 10
144.3443332248264
 20
416.1079345703125
 30
0.0
 10
144.6344102647569
 20
416.0951877170139
 30
0.0
 10
145.0836507161458
 20
416.1399739583333
 30
0.0
 10
145.3354871961805
 20
416.0379991319444
 30
0.0
  0
POLYLINE
  5
A4
330
A
100
AcDbEntity
  8
LAYER_1
 62
     7
100
AcDb2dPolyline
 66
     1
 10
0.0
 20
0.0
 30
0.0
  0
VERTEX
  5
A5
330
A4
100
AcDbEntity
  8
LAYER_1
 62
     7
100
AcDbVertex
100
AcDb2dVertex
 10
153.550662
 20
412.723817
 30
0.0
  0
VERTEX
  5
A6
330
A4
100
AcDbEntity
  8
LAYER_1
 62
     7
100
AcDbVertex
100
AcDb2dVertex
 10
156.441097
 20
424.501565
 30
0.0
  0
VERTEX
  5
A7
330
A4
100
AcDbEntity
  8
LAYER_1
 62
     7
100
AcDbVertex
100
AcDb2dVertex
 10
159.987823
 20
438.618533
 30
0.0
  0
VERTEX
  5
A8
330
A4
100
AcDbEntity
  8
LAYER_1
 62
     7
100
AcDbVertex
100
AcDb2dVertex
 10
163.556942
 20
452.827829
 30
0.0
  0
VERTEX
  5
A9
330
A4
100
AcDbEntity
  8
LAYER_1
 62
     7
100
AcDbVertex
100
AcDb2dVertex
 10
167.097122
 20
466.871417
 30
0.0
  0
VERTEX
  5
AA
330
A4
100
AcDbEntity
  8
LAYER_1
 62
     7
100
AcDbVertex
100
AcDb2dVertex
 10
167.677276
 20
469.321913
 30
0.0
  0
SEQEND
  5
AB
330
A4
100
AcDbEntity
  8
LAYER_1
 62
     7
  0
POLYLINE
  5
9D
330
A
100
AcDbEntity
  8
LAYER_1
 62
     7
100
AcDb2dPolyline
 66
     1
 10
0.0
 20
0.0
 30
0.0
  0
VERTEX
  5
9E
330
9D
100
AcDbEntity
  8
LAYER_1
 62
     7
100
AcDbVertex
100
AcDb2dVertex
 10
164.156044
 20
470.383002
 30
0.0
  0
VERTEX
  5
9F
330
9D
100
AcDbEntity
  8
LAYER_1
 62
     7
100
AcDbVertex
100
AcDb2dVertex
 10
160.24586
 20
455.106415
 30
0.0
  0
VERTEX
  5
A0
330
9D
100
AcDbEntity
  8
LAYER_1
 62
     7
100
AcDbVertex
100
AcDb2dVertex
 10
156.488639
 20
440.218435
 30
0.0
  0
VERTEX
  5
A1
330
9D
100
AcDbEntity
  8
LAYER_1
 62
     7
100
AcDbVertex
100
AcDb2dVertex
 10
151.906318
 20
421.729297
 30
0.0
  0
VERTEX
  5
A2
330
9D
100
AcDbEntity
  8
LAYER_1
 62
     7
100
AcDbVertex
100
AcDb2dVertex
 10
149.831681
 20
413.418349
 30
0.0
  0
SEQEND
  5
A3
330
9D
100
AcDbEntity
  8
LAYER_1
 62
     7
  0
SPLINE
  5
9C
330
A
100
AcDbEntity
  8
LAYER_1
 62
     7
100
AcDbSpline
210
0.0
220
0.0
230
1.0
 70
    11
 71
     3
 72
    56
 73
    52
 74
     0
 42
0.000000001
 43
0.00000001
 40
0.0
 40
0.0
 40
0.0
 40
0.0
 40
1.0
 40
1.0
 40
1.0
 40
2.0
 40
2.0
 40
2.0
 40
3.0
 40
3.0
 40
3.0
 40
4.0
 40
4.0
 40
4.0
 40
5.0
 40
5.0
 40
5.0
 40
6.0
 40
6.0
 40
6.0
 40
7.0
 40
7.0
 40
7.0
 40
8.0
 40
8.0
 40
8.0
 40
9.0
 40
9.0
 40
9.0
 40
10.0
 40
10.0
 40
10.0
 40
11.0
 40
11.0
 40
11.0
 40
12.0
 40
12.0
 40
12.0
 40
13.0
 40
13.0
 40
13.0
 40
14.0
 40
14.0
 40
14.0
 40
15.0
 40
15.0
 40
15.0
 40
16.0
 40
16.0
 40
16.0
 40
17.0
 40
17.0
 40
17.0
 40
17.0
 10
127.5763644748264
 20
476.3774685329861
 30
0.0
 10
127.423402235243
 20
476.3774685329861
 30
0.0
 10
127.317982313368
 20
476.367822265625
 30
0.0
 10
127.1808675130208
 20
476.3106336805555
 30
0.0
 10
127.0313503689236
 20
476.2465549045139
 30
0.0
 10
126.9676161024305
 20
476.1831651475694
 30
0.0
 10
126.90078125
 20
476.0302029079861
 30
0.0
 10
126.8019070095486
 20
475.8166069878472
 30
0.0
 10
126.6138047960069
 20
475.685693359375
 30
0.0
 10
126.511829969618
 20
475.4755425347222
 30
0.0
 10
126.3909071180555
 20
475.2237060546875
 30
0.0
 10
126.2568929036458
 20
474.9942626953124
 30
0.0
 10
126.1421712239583
 20
474.7362250434027
 30
0.0
 10
126.0880832248264
 20
474.6025553385416
 30
0.0
 10
126.0370958116319
 20
474.4495930989583
 30
0.0
 10
126.1359700520833
 20
474.3221245659722
 30
0.0
 10
126.2506917317708
 20
474.1815646701389
 30
0.0
 10
126.5021837022569
 20
474.2263509114583
 30
0.0
 10
126.6585910373264
 20
474.2263509114583
 30
0.0
 10
126.7795138888889
 20
474.2263509114583
 30
0.0
 10
126.9038818359375
 20
474.2294514973958
 30
0.0
 10
127.0155029296875
 20
474.1881103515624
 30
0.0
 10
127.1043863932291
 20
474.1464246961805
 30
0.0
 10
127.1777669270833
 20
474.0671874999999
 30
0.0
 10
127.2638943142361
 20
474.0286024305555
 30
0.0
 10
127.3469211154514
 20
473.9872612847222
 30
0.0
 10
127.4519965277778
 20
474.0000081380208
 30
0.0
 10
127.541224500868
 20
473.9776150173611
 30
0.0
 10
127.6018581814236
 20
473.9586669921874
 30
0.0
 10
127.6559461805555
 20
473.9266276041666
 30
0.0
 10
127.7196804470486
 20
473.907679578993
 30
0.0
 10
127.894691297743
 20
473.8597927517361
 30
0.0
 10
128.0063123914931
 20
473.8470458984374
 30
0.0
 10
128.1372260199653
 20
473.9652126736111
 30
0.0
 10
128.341175672743
 20
474.1626166449652
 30
0.0
 10
128.5451253255208
 20
474.5067816840277
 30
0.0
 10
128.576820203993
 20
474.7934136284722
 30
0.0
 10
128.6023139105903
 20
475.0228569878472
 30
0.0
 10
128.5737196180555
 20
475.2588460286458
 30
0.0
 10
128.5671739366319
 20
475.4913899739583
 30
0.0
 10
128.5609727647569
 20
475.6477973090277
 30
0.0
 10
128.5992133246528
 20
475.8290093315972
 30
0.0
 10
128.5289333767361
 20
475.9792154947916
 30
0.0
 10
128.4844916449653
 20
476.090492078993
 30
0.0
 10
128.4045654296875
 20
476.13837890625
 30
0.0
 10
128.2994900173611
 20
476.1766194661458
 30
0.0
 10
128.1882134331597
 20
476.2210611979166
 30
0.0
 10
128.1082872178819
 20
476.3168348524305
 30
0.0
 10
128.0032118055555
 20
476.3643771701388
 30
0.0
 10
127.8660970052083
 20
476.4250108506944
 30
0.0
 10
127.7196804470486
 20
476.3774685329861
 30
0.0
 10
127.5763644748264
 20
476.3774685329861
 30
0.0
  0
SPLINE
  5
9B
330
A
100
AcDbEntity
  8
LAYER_1
 62
     7
100
AcDbSpline
210
0.0
220
0.0
230
1.0
 70
    11
 71
     3
 72
    50
 73
    46
 74
     0
 42
0.000000001
 43
0.00000001
 40
0.0
 40
0.0
 40
0.0
 40
0.0
 40
1.0
 40
1.0
 40
1.0
 40
2.0
 40
2.0
 40
2.0
 40
3.0
 40
3.0
 40
3.0
 40
4.0
 40
4.0
 40
4.0
 40
5.0
 40
5.0
 40
5.0
 40
6.0
 40
6.0
 40
6.0
 40
7.0
 40
7.0
 40
7.0
 40
8.0
 40
8.0
 40
8.0
 40
9.0
 40
9.0
 40
9.0
 40
10.0
 40
10.0
 40
10.0
 40
11.0
 40
11.0
 40
11.0
 40
12.0
 40
12.0
 40
12.0
 40
13.0
 40
13.0
 40
13.0
 40
14.0
 40
14.0
 40
14.0
 40
15.0
 40
15.0
 40
15.0
 40
15.0
 10
125.7694118923611
 20
469.1214084201388
 30
0.0
 10
125.6388427734375
 20
469.1055609809027
 30
0.0
 10
125.4951822916667
 20
469.1083170572916
 30
0.0
 10
125.3901068793403
 20
469.01943359375
 30
0.0
 10
125.364613172743
 20
469.0001410590277
 30
0.0
 10
125.3487657335069
 20
468.9684461805555
 30
0.0
 10
125.3201714409722
 20
468.9491536458333
 30
0.0
 10
125.2722846137153
 20
468.9043674045138
 30
0.0
 10
125.2020046657986
 20
468.8664713541666
 30
0.0
 10
125.1544623480903
 20
468.8089382595485
 30
0.0
 10
125.0907280815972
 20
468.7259114583333
 30
0.0
 10
125.0907280815972
 20
468.6370279947917
 30
0.0
 10
125.0683349609375
 20
468.5316080729166
 30
0.0
 10
124.9949544270833
 20
468.2225830078124
 30
0.0
 10
124.787904188368
 20
467.9931396484375
 30
0.0
 10
124.8230441623264
 20
467.6458740234374
 30
0.0
 10
124.835791015625
 20
467.5342529296875
 30
0.0
 10
124.8867784288194
 20
467.4577718098958
 30
0.0
 10
125.0046006944444
 20
467.4388237847222
 30
0.0
 10
125.1448160807292
 20
467.4133300781249
 30
0.0
 10
125.4221462673611
 20
467.4388237847222
 30
0.0
 10
125.5496148003472
 20
467.4960123697916
 30
0.0
 10
125.587855360243
 20
467.5153049045139
 30
0.0
 10
125.6195502387153
 20
467.553200954861
 30
0.0
 10
125.6577907986111
 20
467.5724934895833
 30
0.0
 10
125.7215250651042
 20
467.6041883680555
 30
0.0
 10
125.7980061848958
 20
467.6107340494791
 30
0.0
 10
125.8586398654514
 20
467.6393283420139
 30
0.0
 10
125.9320203993055
 20
467.6713677300347
 30
0.0
 10
125.9957546657986
 20
467.7316569010416
 30
0.0
 10
126.0687906901042
 20
467.7636962890625
 30
0.0
 10
126.336474609375
 20
467.872216796875
 30
0.0
 10
126.6933865017361
 20
467.6841145833333
 30
0.0
 10
126.9610704210069
 20
467.7957356770833
 30
0.0
 10
127.1843126085069
 20
467.884619140625
 30
0.0
 10
127.1905137803819
 20
468.171595594618
 30
0.0
 10
127.1970594618055
 20
468.3689995659722
 30
0.0
 10
127.2032606336805
 20
468.57294921875
 30
0.0
 10
127.193958875868
 20
468.7834445529513
 30
0.0
 10
127.1874131944444
 20
468.9873942057291
 30
0.0
 10
127.1777669270833
 20
469.2678249782986
 30
0.0
 10
127.082337782118
 20
469.360498046875
 30
0.0
 10
126.8019070095486
 20
469.2867730034722
 30
0.0
 10
126.4639431423611
 20
469.2040907118055
 30
0.0
 10
126.1135769314236
 20
469.1658501519097
 30
0.0
 10
125.7694118923611
 20
469.1214084201388
 30
0.0
  0
SPLINE
  5
9A
330
A
100
AcDbEntity
  8
LAYER_1
 62
     7
100
AcDbSpline
210
0.0
220
0.0
230
1.0
 70
    11
 71
     3
 72
    56
 73
    52
 74
     0
 42
0.000000001
 43
0.00000001
 40
0.0
 40
0.0
 40
0.0
 40
0.0
 40
1.0
 40
1.0
 40
1.0
 40
2.0
 40
2.0
 40
2.0
 40
3.0
 40
3.0
 40
3.0
 40
4.0
 40
4.0
 40
4.0
 40
5.0
 40
5.0
 40
5.0
 40
6.0
 40
6.0
 40
6.0
 40
7.0
 40
7.0
 40
7.0
 40
8.0
 40
8.0
 40
8.0
 40
9.0
 40
9.0
 40
9.0
 40
10.0
 40
10.0
 40
10.0
 40
11.0
 40
11.0
 40
11.0
 40
12.0
 40
12.0
 40
12.0
 40
13.0
 40
13.0
 40
13.0
 40
14.0
 40
14.0
 40
14.0
 40
15.0
 40
15.0
 40
15.0
 40
16.0
 40
16.0
 40
16.0
 40
17.0
 40
17.0
 40
17.0
 40
17.0
 10
126.2217529296875
 20
473.8535915798611
 30
0.0
 10
126.1900580512153
 20
473.7867567274305
 30
0.0
 10
126.1390706380208
 20
473.7292236328125
 30
0.0
 10
126.1166775173611
 20
473.6592881944444
 30
0.0
 10
126.0753363715278
 20
473.5283745659722
 30
0.0
 10
126.0594889322917
 20
473.378857421875
 30
0.0
 10
126.0432969835069
 20
473.2382975260416
 30
0.0
 10
126.0019558376736
 20
472.9199707031249
 30
0.0
 10
125.9861083984375
 20
472.5978542751736
 30
0.0
 10
125.9382215711805
 20
472.2826280381944
 30
0.0
 10
125.8999810112847
 20
472.0593858506944
 30
0.0
 10
125.6832845052083
 20
471.4282443576388
 30
0.0
 10
126.0560438368055
 20
471.3710557725694
 30
0.0
 10
126.1835123697917
 20
471.3490071614583
 30
0.0
 10
126.2951334635417
 20
471.3965494791667
 30
0.0
 10
126.4129557291667
 20
471.4347900390625
 30
0.0
 10
126.5183756510417
 20
471.4668294270833
 30
0.0
 10
126.6107042100694
 20
471.5112711588541
 30
0.0
 10
126.7030327690972
 20
471.54951171875
 30
0.0
 10
126.8146538628472
 20
471.5973985460069
 30
0.0
 10
126.9228298611111
 20
471.6259928385416
 30
0.0
 10
127.018603515625
 20
471.7086751302083
 30
0.0
 10
127.1808675130208
 20
471.8457899305555
 30
0.0
 10
127.3338297526042
 20
472.0021972656249
 30
0.0
 10
127.4998833550347
 20
472.1327663845486
 30
0.0
 10
127.5887668185764
 20
472.1996012369791
 30
0.0
 10
127.6621473524305
 20
472.2760823567708
 30
0.0
 10
127.7579210069444
 20
472.3398166232639
 30
0.0
 10
127.9394775390625
 20
472.4514377170138
 30
0.0
 10
128.0765923394097
 20
472.5723605685764
 30
0.0
 10
128.2137071397569
 20
472.7318684895833
 30
0.0
 10
128.3442762586805
 20
472.8689832899305
 30
0.0
 10
128.630908203125
 20
472.9802598741319
 30
0.0
 10
128.6849962022569
 20
473.165261501736
 30
0.0
 10
128.7297824435764
 20
473.3051323784722
 30
0.0
 10
128.6405544704861
 20
473.3657660590277
 30
0.0
 10
128.5289333767361
 20
473.4232991536458
 30
0.0
 10
128.3790717230903
 20
473.506325954861
 30
0.0
 10
128.2137071397569
 20
473.506325954861
 30
0.0
 10
128.0638454861111
 20
473.620703125
 30
0.0
 10
127.7737684461805
 20
473.8342990451388
 30
0.0
 10
127.3913628472222
 20
473.8949327256944
 30
0.0
 10
127.0757921006944
 20
474.0671874999999
 30
0.0
 10
126.9517686631944
 20
474.1402235243055
 30
0.0
 10
126.8115532769097
 20
474.1881103515624
 30
0.0
 10
126.671337890625
 20
474.2008572048611
 30
0.0
 10
126.5628173828125
 20
474.2201497395833
 30
0.0
 10
126.4577419704861
 20
474.2201497395833
 30
0.0
 10
126.3619683159722
 20
474.1626166449652
 30
0.0
 10
126.2568929036458
 20
474.0892361111111
 30
0.0
 10
126.276185438368
 20
473.9586669921874
 30
0.0
 10
126.2217529296875
 20
473.8535915798611
 30
0.0
  0
SPLINE
  5
99
330
A
100
AcDbEntity
  8
LAYER_1
 62
     7
100
AcDbSpline
210
0.0
220
0.0
230
1.0
 70
    11
 71
     3
 72
    41
 73
    37
 74
     0
 42
0.000000001
 43
0.00000001
 40
0.0
 40
0.0
 40
0.0
 40
0.0
 40
1.0
 40
1.0
 40
1.0
 40
2.0
 40
2.0
 40
2.0
 40
3.0
 40
3.0
 40
3.0
 40
4.0
 40
4.0
 40
4.0
 40
5.0
 40
5.0
 40
5.0
 40
6.0
 40
6.0
 40
6.0
 40
7.0
 40
7.0
 40
7.0
 40
8.0
 40
8.0
 40
8.0
 40
9.0
 40
9.0
 40
9.0
 40
10.0
 40
10.0
 40
10.0
 40
11.0
 40
11.0
 40
11.0
 40
12.0
 40
12.0
 40
12.0
 40
12.0
 10
125.5751085069444
 20
470.50771484375
 30
0.0
 10
125.4951822916667
 20
470.2431315104166
 30
0.0
 10
125.3549669053819
 20
469.9943956163194
 30
0.0
 10
125.2912326388889
 20
469.7267116970486
 30
0.0
 10
125.1989040798611
 20
469.2805718315972
 30
0.0
 10
125.7918050130208
 20
469.3060655381944
 30
0.0
 10
126.0815375434028
 20
469.3253580729166
 30
0.0
 10
126.3109809027778
 20
469.3350043402777
 30
0.0
 10
126.5373236762153
 20
469.3794460720486
 30
0.0
 10
126.7636664496528
 20
469.4080403645833
 30
0.0
 10
126.8942355685764
 20
469.4207872178819
 30
0.0
 10
127.1109320746528
 20
469.4273328993055
 30
0.0
 10
127.2287543402778
 20
469.5038140190972
 30
0.0
 10
127.3786159939236
 20
469.6088894314236
 30
0.0
 10
127.3148817274305
 20
469.777699110243
 30
0.0
 10
127.3627685546875
 20
469.9306613498263
 30
0.0
 10
127.3913628472222
 20
470.0198893229166
 30
0.0
 10
127.4423502604167
 20
470.0708767361111
 30
0.0
 10
127.4519965277778
 20
470.1697509765625
 30
0.0
 10
127.4550971137153
 20
470.2272840711805
 30
0.0
 10
127.4743896484375
 20
470.2941189236111
 30
0.0
 10
127.4488959418403
 20
470.3451063368055
 30
0.0
 10
127.4137559678819
 20
470.39609375
 30
0.0
 10
127.3245279947917
 20
470.4339898003472
 30
0.0
 10
127.2704399956597
 20
470.466029188368
 30
0.0
 10
127.1588189019097
 20
470.5235622829861
 30
0.0
 10
127.0854383680555
 20
470.5934977213541
 30
0.0
 10
126.9803629557291
 20
470.6699788411458
 30
0.0
 10
126.8208550347222
 20
470.7881456163194
 30
0.0
 10
126.7540201822917
 20
470.9759033203125
 30
0.0
 10
126.5755642361111
 20
471.0778781467013
 30
0.0
 10
126.4226019965278
 20
471.1609049479166
 30
0.0
 10
126.052943250868
 20
471.3710557725694
 30
0.0
 10
125.8810329861111
 20
471.2373860677083
 30
0.0
 10
125.6863850911458
 20
471.0906249999999
 30
0.0
 10
125.6450439453125
 20
470.7240668402777
 30
0.0
 10
125.5751085069444
 20
470.50771484375
 30
0.0
  0
SPLINE
  5
98
330
A
100
AcDbEntity
  8
LAYER_1
 62
     7
100
AcDbSpline
210
0.0
220
0.0
230
1.0
 70
    11
 71
     3
 72
    38
 73
    34
 74
     0
 42
0.000000001
 43
0.00000001
 40
0.0
 40
0.0
 40
0.0
 40
0.0
 40
1.0
 40
1.0
 40
1.0
 40
2.0
 40
2.0
 40
2.0
 40
3.0
 40
3.0
 40
3.0
 40
4.0
 40
4.0
 40
4.0
 40
5.0
 40
5.0
 40
5.0
 40
6.0
 40
6.0
 40
6.0
 40
7.0
 40
7.0
 40
7.0
 40
8.0
 40
8.0
 40
8.0
 40
9.0
 40
9.0
 40
9.0
 40
10.0
 40
10.0
 40
10.0
 40
11.0
 40
11.0
 40
11.0
 40
11.0
 10
124.6349419487847
 20
466.9988850911458
 30
0.0
 10
124.5298665364583
 20
466.9224039713541
 30
0.0
 10
124.38310546875
 20
466.9413519965277
 30
0.0
 10
124.2938774956597
 20
466.8555691189235
 30
0.0
 10
124.1888020833333
 20
466.7442925347222
 30
0.0
 10
124.2046495225694
 20
466.5751383463542
 30
0.0
 10
124.1984483506944
 20
466.4383680555555
 30
0.0
 10
124.1857014973958
 20
466.2502658420138
 30
0.0
 10
124.1791558159722
 20
466.0621636284722
 30
0.0
 10
124.1791558159722
 20
465.8740614149305
 30
0.0
 10
124.1791558159722
 20
465.7817328559028
 30
0.0
 10
124.153662109375
 20
465.6480631510416
 30
0.0
 10
124.211195203993
 20
465.5681369357638
 30
0.0
 10
124.3131700303819
 20
465.4089735243055
 30
0.0
 10
124.4788791232639
 20
465.3355929904513
 30
0.0
 10
124.6573350694444
 20
465.4375678168402
 30
0.0
 10
124.73037109375
 20
465.4820095486111
 30
0.0
 10
124.8164984809028
 20
465.5553900824652
 30
0.0
 10
124.8705864800347
 20
465.6225694444444
 30
0.0
 10
124.9822075737847
 20
465.7562391493055
 30
0.0
 10
125.1892578125
 20
465.7210991753472
 30
0.0
 10
125.2722846137153
 20
465.9030002170139
 30
0.0
 10
125.3615125868055
 20
466.0814561631944
 30
0.0
 10
125.3360188802083
 20
466.2692138671874
 30
0.0
 10
125.3549669053819
 20
466.4573160807291
 30
0.0
 10
125.3711588541667
 20
466.6836588541667
 30
0.0
 10
125.5527153862847
 20
466.8714165581597
 30
0.0
 10
125.5589165581597
 20
467.0977593315972
 30
0.0
 10
125.5623616536458
 20
467.3048095703124
 30
0.0
 10
125.4093994140625
 20
467.2920627170138
 30
0.0
 10
125.252992078993
 20
467.253822157118
 30
0.0
 10
125.0555881076389
 20
467.2093804253472
 30
0.0
 10
124.8006510416667
 20
467.1232530381944
 30
0.0
 10
124.6349419487847
 20
466.9988850911458
 30
0.0
  0
SPLINE
  5
97
330
A
100
AcDbEntity
  8
LAYER_1
 62
     7
100
AcDbSpline
210
0.0
220
0.0
230
1.0
 70
    11
 71
     3
 72
    68
 73
    64
 74
     0
 42
0.000000001
 43
0.00000001
 40
0.0
 40
0.0
 40
0.0
 40
0.0
 40
1.0
 40
1.0
 40
1.0
 40
2.0
 40
2.0
 40
2.0
 40
3.0
 40
3.0
 40
3.0
 40
4.0
 40
4.0
 40
4.0
 40
5.0
 40
5.0
 40
5.0
 40
6.0
 40
6.0
 40
6.0
 40
7.0
 40
7.0
 40
7.0
 40
8.0
 40
8.0
 40
8.0
 40
9.0
 40
9.0
 40
9.0
 40
10.0
 40
10.0
 40
10.0
 40
11.0
 40
11.0
 40
11.0
 40
12.0
 40
12.0
 40
12.0
 40
13.0
 40
13.0
 40
13.0
 40
14.0
 40
14.0
 40
14.0
 40
15.0
 40
15.0
 40
15.0
 40
16.0
 40
16.0
 40
16.0
 40
17.0
 40
17.0
 40
17.0
 40
18.0
 40
18.0
 40
18.0
 40
19.0
 40
19.0
 40
19.0
 40
20.0
 40
20.0
 40
20.0
 40
21.0
 40
21.0
 40
21.0
 40
21.0
 10
124.5202202690972
 20
465.0424153645833
 30
0.0
 10
124.4309922960069
 20
465.0486165364583
 30
0.0
 10
124.3259168836805
 20
465.0741102430555
 30
0.0
 10
124.2494357638889
 20
465.0231228298611
 30
0.0
 10
124.1664089626736
 20
464.9721354166666
 30
0.0
 10
124.1698540581597
 20
464.8481119791666
 30
0.0
 10
124.1378146701389
 20
464.7619845920138
 30
0.0
 10
124.0516872829861
 20
464.5263400607639
 30
0.0
 10
124.0389404296875
 20
464.2807047526042
 30
0.0
 10
124.0199924045139
 20
464.0323133680555
 30
0.0
 10
124.0006998697917
 20
463.805970594618
 30
0.0
 10
123.8987250434028
 20
463.6147677951388
 30
0.0
 10
123.8573838975694
 20
463.3915256076389
 30
0.0
 10
123.7936496310764
 20
463.0635525173611
 30
0.0
 10
123.5580050998264
 20
462.7383355034722
 30
0.0
 10
123.7998508029514
 20
462.4227647569444
 30
0.0
 10
123.8859781901042
 20
462.3111436631944
 30
0.0
 10
123.8956244574653
 20
462.2443088107639
 30
0.0
 10
124.0134467230903
 20
462.3497287326388
 30
0.0
 10
124.1698540581597
 20
462.4802978515625
 30
0.0
 10
124.3576117621528
 20
462.5312852647569
 30
0.0
 10
124.4595865885417
 20
462.7224880642361
 30
0.0
 10
124.4850802951389
 20
462.7700303819444
 30
0.0
 10
124.5074734157986
 20
462.8244628906249
 30
0.0
 10
124.5519151475694
 20
462.8372097439236
 30
0.0
 10
124.612548828125
 20
462.8627034505208
 30
0.0
 10
124.7400173611111
 20
462.8117160373263
 30
0.0
 10
124.8006510416667
 20
462.7862223307291
 30
0.0
 10
125.0745361328125
 20
462.6715006510416
 30
0.0
 10
125.0204481336805
 20
462.4103624131944
 30
0.0
 10
125.1000298394097
 20
462.1712727864583
 30
0.0
 10
125.1799560546875
 20
461.9259819878472
 30
0.0
 10
125.246790907118
 20
461.6899929470486
 30
0.0
 10
125.3456651475694
 20
461.4478027343749
 30
0.0
 10
125.3615125868055
 20
461.4161078559027
 30
0.0
 10
125.3742594401042
 20
461.3682210286458
 30
0.0
 10
125.4028537326389
 20
461.3427273220486
 30
0.0
 10
125.4283474392361
 20
461.3203342013888
 30
0.0
 10
125.5751085069444
 20
461.282093641493
 30
0.0
 10
125.6068033854167
 20
461.2948404947916
 30
0.0
 10
125.6643364800347
 20
461.32998046875
 30
0.0
 10
125.6832845052083
 20
461.45400390625
 30
0.0
 10
125.7025770399305
 20
461.5146375868055
 30
0.0
 10
125.9382215711805
 20
462.0817003038194
 30
0.0
 10
125.8999810112847
 20
462.6907931857638
 30
0.0
 10
126.0019558376736
 20
463.2895507812499
 30
0.0
 10
126.0212483723958
 20
463.4046169704861
 30
0.0
 10
126.0594889322917
 20
463.5255398220486
 30
0.0
 10
126.1135769314236
 20
463.6209689670138
 30
0.0
 10
126.1549180772569
 20
463.6912489149305
 30
0.0
 10
126.2251980251736
 20
463.7453369140625
 30
0.0
 10
126.2727403428819
 20
463.8187174479166
 30
0.0
 10
126.3492214626736
 20
463.9268934461805
 30
0.0
 10
126.3843614366319
 20
464.0609076605903
 30
0.0
 10
126.3492214626736
 20
464.194921875
 30
0.0
 10
126.2568929036458
 20
464.5325412326388
 30
0.0
 10
125.6929307725694
 20
464.2807047526042
 30
0.0
 10
125.5430691189236
 20
464.5676812065972
 30
0.0
 10
125.5017279730903
 20
464.6472629123264
 30
0.0
 10
125.4986273871528
 20
464.7619845920138
 30
0.0
 10
125.4410942925347
 20
464.841566297743
 30
0.0
 10
125.2371446397569
 20
465.1285427517361
 30
0.0
 10
124.8164984809028
 20
465.0231228298611
 30
0.0
 10
124.5202202690972
 20
465.0424153645833
 30
0.0
  0
SPLINE
  5
96
330
A
100
AcDbEntity
  8
LAYER_1
 62
     7
100
AcDbSpline
210
0.0
220
0.0
230
1.0
 70
    11
 71
     3
 72
    44
 73
    40
 74
     0
 42
0.000000001
 43
0.00000001
 40
0.0
 40
0.0
 40
0.0
 40
0.0
 40
1.0
 40
1.0
 40
1.0
 40
2.0
 40
2.0
 40
2.0
 40
3.0
 40
3.0
 40
3.0
 40
4.0
 40
4.0
 40
4.0
 40
5.0
 40
5.0
 40
5.0
 40
6.0
 40
6.0
 40
6.0
 40
7.0
 40
7.0
 40
7.0
 40
8.0
 40
8.0
 40
8.0
 40
9.0
 40
9.0
 40
9.0
 40
10.0
 40
10.0
 40
10.0
 40
11.0
 40
11.0
 40
11.0
 40
12.0
 40
12.0
 40
12.0
 40
13.0
 40
13.0
 40
13.0
 40
13.0
 10
124.1219672309028
 20
462.2508544921874
 30
0.0
 10
124.0740804036458
 20
462.1423339843749
 30
0.0
 10
124.0327392578125
 20
462.0438042534722
 30
0.0
 10
123.9624593098958
 20
461.9418294270833
 30
0.0
 10
123.7905490451389
 20
461.7089409722222
 30
0.0
 10
123.7681559244792
 20
461.3585747612847
 30
0.0
 10
123.6789279513889
 20
461.0877902560763
 30
0.0
 10
123.6213948567708
 20
460.9124348958333
 30
0.0
 10
123.6310411241319
 20
460.8487006293402
 30
0.0
 10
123.6978759765625
 20
460.6733452690972
 30
0.0
 10
123.7554090711805
 20
460.523828125
 30
0.0
 10
123.7967502170139
 20
460.5107367621528
 30
0.0
 10
123.9497124565972
 20
460.5079806857639
 30
0.0
 10
124.0868272569444
 20
460.5045355902777
 30
0.0
 10
124.2366889105903
 20
460.4790418836805
 30
0.0
 10
124.376904296875
 20
460.4790418836805
 30
0.0
 10
124.4533854166666
 20
460.4790418836805
 30
0.0
 10
124.5457139756944
 20
460.53623046875
 30
0.0
 10
124.612548828125
 20
460.5810167100694
 30
0.0
 10
124.7210693359375
 20
460.6574978298611
 30
0.0
 10
124.7593098958333
 20
460.75947265625
 30
0.0
 10
124.8388916015625
 20
460.8614474826388
 30
0.0
 10
124.9184733072916
 20
460.9603217230903
 30
0.0
 10
125.017347547743
 20
461.0082085503472
 30
0.0
 10
125.1255235460069
 20
461.0622965494791
 30
0.0
 10
125.2753851996528
 20
461.1356770833333
 30
0.0
 10
125.3391194661458
 20
461.1963107638888
 30
0.0
 10
125.2753851996528
 20
461.3492730034722
 30
0.0
 10
125.1637641059028
 20
461.6262586805555
 30
0.0
 10
125.1417154947917
 20
461.9449300130208
 30
0.0
 10
125.071435546875
 20
462.2284613715277
 30
0.0
 10
125.0046006944444
 20
462.4868435329861
 30
0.0
 10
124.9567138671875
 20
462.7162868923611
 30
0.0
 10
124.6666368272569
 20
462.7638292100694
 30
0.0
 10
124.564662000868
 20
462.7796766493055
 30
0.0
 10
124.5202202690972
 20
462.7162868923611
 30
0.0
 10
124.4533854166666
 20
462.6491075303819
 30
0.0
 10
124.3193712022569
 20
462.5123372395833
 30
0.0
 10
124.1984483506944
 20
462.4358561197917
 30
0.0
 10
124.1219672309028
 20
462.2508544921874
 30
0.0
  0
SPLINE
  5
95
330
A
100
AcDbEntity
  8
LAYER_1
 62
     7
100
AcDbSpline
210
0.0
220
0.0
230
1.0
 70
    11
 71
     3
 72
    56
 73
    52
 74
     0
 42
0.000000001
 43
0.00000001
 40
0.0
 40
0.0
 40
0.0
 40
0.0
 40
1.0
 40
1.0
 40
1.0
 40
2.0
 40
2.0
 40
2.0
 40
3.0
 40
3.0
 40
3.0
 40
4.0
 40
4.0
 40
4.0
 40
5.0
 40
5.0
 40
5.0
 40
6.0
 40
6.0
 40
6.0
 40
7.0
 40
7.0
 40
7.0
 40
8.0
 40
8.0
 40
8.0
 40
9.0
 40
9.0
 40
9.0
 40
10.0
 40
10.0
 40
10.0
 40
11.0
 40
11.0
 40
11.0
 40
12.0
 40
12.0
 40
12.0
 40
13.0
 40
13.0
 40
13.0
 40
14.0
 40
14.0
 40
14.0
 40
15.0
 40
15.0
 40
15.0
 40
16.0
 40
16.0
 40
16.0
 40
17.0
 40
17.0
 40
17.0
 40
17.0
 10
125.3074245876736
 20
460.2688910590277
 30
0.0
 10
125.1255235460069
 20
460.2688910590277
 30
0.0
 10
124.9439670138889
 20
460.2433973524305
 30
0.0
 10
124.7593098958333
 20
460.2530436197916
 30
0.0
 10
124.6445882161458
 20
460.2592447916666
 30
0.0
 10
124.5519151475694
 20
460.2812934027777
 30
0.0
 10
124.4499403211805
 20
460.3260796440972
 30
0.0
 10
124.3958523220486
 20
460.3515733506944
 30
0.0
 10
124.3672580295139
 20
460.3550184461805
 30
0.0
 10
124.3066243489583
 20
460.3577745225694
 30
0.0
 10
124.0327392578125
 20
460.3739664713542
 30
0.0
 10
123.752308485243
 20
460.4280544704861
 30
0.0
 10
123.4780788845486
 20
460.3994601779514
 30
0.0
 10
123.2710286458333
 20
460.3867133246528
 30
0.0
 10
123.2679280598958
 20
460.2495985243055
 30
0.0
 10
123.2520806206597
 20
460.0614963107639
 30
0.0
 10
123.235888671875
 20
459.8799397786458
 30
0.0
 10
123.2169406467014
 20
459.6887369791666
 30
0.0
 10
123.2265869140625
 20
459.5071804470486
 30
0.0
 10
123.2296875
 20
459.3635199652778
 30
0.0
 10
123.2169406467014
 20
459.1661159939236
 30
0.0
 10
123.3633572048611
 20
459.1058268229166
 30
0.0
 10
123.5259657118055
 20
459.0386474609375
 30
0.0
 10
123.6789279513889
 20
458.9973063151041
 30
0.0
 10
123.8384358723958
 20
459.0865342881944
 30
0.0
 10
123.9338650173611
 20
459.1406222873263
 30
0.0
 10
124.0423855251736
 20
459.1533691406249
 30
0.0
 10
124.1409152560764
 20
459.2043565538194
 30
0.0
 10
124.2332438151042
 20
459.2522433810764
 30
0.0
 10
124.2938774956597
 20
459.3190782335069
 30
0.0
 10
124.376904296875
 20
459.376611328125
 30
0.0
 10
124.4692328559028
 20
459.4400010850694
 30
0.0
 10
124.5998019748264
 20
459.446546766493
 30
0.0
 10
124.7145236545139
 20
459.4530924479166
 30
0.0
 10
124.9439670138889
 20
459.4592936197917
 30
0.0
 10
125.1606635199653
 20
459.4145073784722
 30
0.0
 10
125.3677137586805
 20
459.3190782335069
 30
0.0
 10
125.5685628255208
 20
459.2267496744792
 30
0.0
 10
125.9127278645833
 20
459.2425971137152
 30
0.0
 10
125.9957546657986
 20
459.4847873263889
 30
0.0
 10
126.0401963975694
 20
459.6060546875
 30
0.0
 10
126.052943250868
 20
459.7204318576389
 30
0.0
 10
126.0977294921875
 20
459.8354980468749
 30
0.0
 10
126.1263237847222
 20
459.9119791666666
 30
0.0
 10
126.1773111979167
 20
460.0518500434027
 30
0.0
 10
126.1294243706597
 20
460.1283311631944
 30
0.0
 10
126.0815375434028
 20
460.2303059895833
 30
0.0
 10
125.9127278645833
 20
460.2530436197916
 30
0.0
 10
125.8138536241319
 20
460.2557996961805
 30
0.0
 10
125.6450439453125
 20
460.2654459635417
 30
0.0
 10
125.476234266493
 20
460.2688910590277
 30
0.0
 10
125.3074245876736
 20
460.2688910590277
 30
0.0
  0
SPLINE
  5
94
330
A
100
AcDbEntity
  8
LAYER_1
 62
     7
100
AcDbSpline
210
0.0
220
0.0
230
1.0
 70
    11
 71
     3
 72
    65
 73
    61
 74
     0
 42
0.000000001
 43
0.00000001
 40
0.0
 40
0.0
 40
0.0
 40
0.0
 40
1.0
 40
1.0
 40
1.0
 40
2.0
 40
2.0
 40
2.0
 40
3.0
 40
3.0
 40
3.0
 40
4.0
 40
4.0
 40
4.0
 40
5.0
 40
5.0
 40
5.0
 40
6.0
 40
6.0
 40
6.0
 40
7.0
 40
7.0
 40
7.0
 40
8.0
 40
8.0
 40
8.0
 40
9.0
 40
9.0
 40
9.0
 40
10.0
 40
10.0
 40
10.0
 40
11.0
 40
11.0
 40
11.0
 40
12.0
 40
12.0
 40
12.0
 40
13.0
 40
13.0
 40
13.0
 40
14.0
 40
14.0
 40
14.0
 40
15.0
 40
15.0
 40
15.0
 40
16.0
 40
16.0
 40
16.0
 40
17.0
 40
17.0
 40
17.0
 40
18.0
 40
18.0
 40
18.0
 40
19.0
 40
19.0
 40
19.0
 40
20.0
 40
20.0
 40
20.0
 40
20.0
 10
124.6573350694444
 20
458.6372938368055
 30
0.0
 10
124.5457139756944
 20
458.6052544487847
 30
0.0
 10
124.4564860026042
 20
458.5353190104166
 30
0.0
 10
124.3545111762153
 20
458.4905327690972
 30
0.0
 10
124.1505615234375
 20
458.4044053819444
 30
0.0
 10
123.9273193359375
 20
458.3248236762153
 30
0.0
 10
123.7140679253472
 20
458.2579888237847
 30
0.0
 10
123.6089925130208
 20
458.2228488498263
 30
0.0
 10
123.5259657118055
 20
458.1908094618055
 30
0.0
 10
123.4367377387153
 20
458.1305202907986
 30
0.0
 10
123.3571560329861
 20
458.0764322916666
 30
0.0
 10
123.2613823784722
 20
458.0571397569444
 30
0.0
 10
123.1914469401042
 20
457.9903049045138
 30
0.0
 10
123.1277126736111
 20
457.9169243706597
 30
0.0
 10
123.1277126736111
 20
457.8149495442708
 30
0.0
 10
123.0446858723958
 20
457.7512152777778
 30
0.0
 10
122.9840521918403
 20
457.7002278645833
 30
0.0
 10
122.9141167534722
 20
457.6809353298611
 30
0.0
 10
122.8662299262153
 20
457.6175455729166
 30
0.0
 10
122.7866482204861
 20
457.5155707465277
 30
0.0
 10
122.7167127821181
 20
457.3688096788194
 30
0.0
 10
122.7739013671875
 20
457.2413411458333
 30
0.0
 10
122.8090413411458
 20
457.1776068793403
 30
0.0
 10
122.8565836588541
 20
457.0501383463541
 30
0.0
 10
122.9172173394097
 20
457.0087972005208
 30
0.0
 10
122.9840521918403
 20
456.9767578125
 30
0.0
 10
123.2041937934028
 20
456.9671115451388
 30
0.0
 10
123.2741292317708
 20
456.9960503472222
 30
0.0
 10
123.3409640842014
 20
457.0277452256944
 30
0.0
 10
123.3953965928819
 20
457.1393663194444
 30
0.0
 10
123.4622314453125
 20
457.1807074652777
 30
0.0
 10
123.5163194444444
 20
457.2096462673611
 30
0.0
 10
123.5704074435764
 20
457.2220486111111
 30
0.0
 10
123.6213948567708
 20
457.2571885850694
 30
0.0
 10
123.6661810980903
 20
457.2764811197916
 30
0.0
 10
123.6916748046875
 20
457.3212673611111
 30
0.0
 10
123.7268147786458
 20
457.3495171440972
 30
0.0
 10
123.8987250434028
 20
457.4769856770833
 30
0.0
 10
124.1791558159722
 20
457.4452907986111
 30
0.0
 10
124.3896511501736
 20
457.4707845052083
 30
0.0
 10
124.5298665364583
 20
457.4900770399305
 30
0.0
 10
124.6604356553819
 20
457.4962782118055
 30
0.0
 10
124.8006510416667
 20
457.5217719184027
 30
0.0
 10
124.9088270399305
 20
457.547265625
 30
0.0
 10
124.9853081597222
 20
457.5886067708333
 30
0.0
 10
125.0841824001736
 20
457.6237467447916
 30
0.0
 10
125.2243977864583
 20
457.6685329861111
 30
0.0
 10
125.3870062934028
 20
457.6619873046874
 30
0.0
 10
125.5175754123264
 20
457.7257215711805
 30
0.0
 10
125.7246256510416
 20
457.8311414930555
 30
0.0
 10
125.476234266493
 20
458.0826334635416
 30
0.0
 10
125.4059543185764
 20
458.2163031684028
 30
0.0
 10
125.358412000868
 20
458.3120768229167
 30
0.0
 10
125.3677137586805
 20
458.3947591145833
 30
0.0
 10
125.2784857855903
 20
458.4712402343749
 30
0.0
 10
125.2054497612847
 20
458.5353190104166
 30
0.0
 10
125.1417154947917
 20
458.6496961805555
 30
0.0
 10
125.0524875217014
 20
458.6848361545138
 30
0.0
 10
124.9408664279514
 20
458.7327229817708
 30
0.0
 10
124.7655110677083
 20
458.6724338107638
 30
0.0
 10
124.6573350694444
 20
458.6372938368055
 30
0.0
  0
SPLINE
  5
93
330
A
100
AcDbEntity
  8
LAYER_1
 62
     7
100
AcDbSpline
210
0.0
220
0.0
230
1.0
 70
    11
 71
     3
 72
    62
 73
    58
 74
     0
 42
0.000000001
 43
0.00000001
 40
0.0
 40
0.0
 40
0.0
 40
0.0
 40
1.0
 40
1.0
 40
1.0
 40
2.0
 40
2.0
 40
2.0
 40
3.0
 40
3.0
 40
3.0
 40
4.0
 40
4.0
 40
4.0
 40
5.0
 40
5.0
 40
5.0
 40
6.0
 40
6.0
 40
6.0
 40
7.0
 40
7.0
 40
7.0
 40
8.0
 40
8.0
 40
8.0
 40
9.0
 40
9.0
 40
9.0
 40
10.0
 40
10.0
 40
10.0
 40
11.0
 40
11.0
 40
11.0
 40
12.0
 40
12.0
 40
12.0
 40
13.0
 40
13.0
 40
13.0
 40
14.0
 40
14.0
 40
14.0
 40
15.0
 40
15.0
 40
15.0
 40
16.0
 40
16.0
 40
16.0
 40
17.0
 40
17.0
 40
17.0
 40
18.0
 40
18.0
 40
18.0
 40
19.0
 40
19.0
 40
19.0
 40
19.0
 10
123.0481309678819
 20
456.4062499999999
 30
0.0
 10
122.9971435546875
 20
456.3139214409722
 30
0.0
 10
122.9268636067708
 20
456.234339735243
 30
0.0
 10
122.8820773654514
 20
456.1323649088541
 30
0.0
 10
122.8186876085069
 20
455.9921495225694
 30
0.0
 10
122.7897488064236
 20
455.8391872829861
 30
0.0
 10
122.7387613932292
 20
455.6927707248263
 30
0.0
 10
122.7101671006944
 20
455.6066433376736
 30
0.0
 10
122.6622802734375
 20
455.539808485243
 30
0.0
 10
122.6719265407986
 20
455.4443793402777
 30
0.0
 10
122.6943196614583
 20
455.2404296875
 30
0.0
 10
122.7962944878472
 20
454.8259847005208
 30
0.0
 10
123.0160915798611
 20
454.7653510199652
 30
0.0
 10
123.1084201388889
 20
454.7367567274305
 30
0.0
 10
123.2551812065972
 20
454.7653510199652
 30
0.0
 10
123.3571560329861
 20
454.7588053385416
 30
0.0
 10
123.4815239800347
 20
454.7588053385416
 30
0.0
 10
123.6089925130208
 20
454.7842990451388
 30
0.0
 10
123.7395616319444
 20
454.8132378472222
 30
0.0
 10
124.0740804036458
 20
454.8642252604166
 30
0.0
 10
124.4247911241319
 20
454.8325303819444
 30
0.0
 10
124.7655110677083
 20
454.851478407118
 30
0.0
 10
124.8929796006944
 20
454.8580240885416
 30
0.0
 10
125.0872829861111
 20
454.8259847005208
 30
0.0
 10
125.2147515190972
 20
454.8835177951389
 30
0.0
 10
125.294677734375
 20
454.9214138454861
 30
0.0
 10
125.3391194661458
 20
455.0268337673611
 30
0.0
 10
125.3932074652778
 20
455.0936686197916
 30
0.0
 10
125.4507405598958
 20
455.1701497395833
 30
0.0
 10
125.4951822916667
 20
455.2466308593749
 30
0.0
 10
125.5461697048611
 20
455.3262125651041
 30
0.0
 10
125.594056532118
 20
455.4057942708333
 30
0.0
 10
125.6643364800347
 20
455.5077690972222
 30
0.0
 10
125.6388427734375
 20
455.6066433376736
 30
0.0
 10
125.6006022135416
 20
455.7372124565972
 30
0.0
 10
125.4283474392361
 20
455.7947455512152
 30
0.0
 10
125.3263726128472
 20
455.8550347222222
 30
0.0
 10
125.1799560546875
 20
455.9349609375
 30
0.0
 10
125.017347547743
 20
456.0238444010416
 30
0.0
 10
124.8867784288194
 20
456.1354654947916
 30
0.0
 10
124.7593098958333
 20
456.2532877604166
 30
0.0
 10
124.6921305338542
 20
456.3108208550347
 30
0.0
 10
124.5264214409722
 20
456.3745551215277
 30
0.0
 10
124.322816297743
 20
456.4606825086805
 30
0.0
 10
124.1602077907986
 20
456.5912516276042
 30
0.0
 10
123.9913981119792
 20
456.7283664279514
 30
0.0
 10
123.9307644314236
 20
456.7762532552083
 30
0.0
 10
123.8415364583333
 20
456.7886555989583
 30
0.0
 10
123.7712565104166
 20
456.8272406684027
 30
0.0
 10
123.7109673394097
 20
456.8589355468749
 30
0.0
 10
123.6630805121528
 20
456.9099229600694
 30
0.0
 10
123.6024468315972
 20
456.9354166666666
 30
0.0
 10
123.4684326171875
 20
456.9926052517361
 30
0.0
 10
123.299622938368
 20
456.9547092013888
 30
0.0
 10
123.1976481119791
 20
456.852734375
 30
0.0
 10
123.0860270182292
 20
456.7376681857638
 30
0.0
 10
123.1277126736111
 20
456.5468098958333
 30
0.0
 10
123.0481309678819
 20
456.4062499999999
 30
0.0
  0
SPLINE
  5
92
330
A
100
AcDbEntity
  8
LAYER_1
 62
     7
100
AcDbSpline
210
0.0
220
0.0
230
1.0
 70
    11
 71
     3
 72
    26
 73
    22
 74
     0
 42
0.000000001
 43
0.00000001
 40
0.0
 40
0.0
 40
0.0
 40
0.0
 40
1.0
 40
1.0
 40
1.0
 40
2.0
 40
2.0
 40
2.0
 40
3.0
 40
3.0
 40
3.0
 40
4.0
 40
4.0
 40
4.0
 40
5.0
 40
5.0
 40
5.0
 40
6.0
 40
6.0
 40
6.0
 40
7.0
 40
7.0
 40
7.0
 40
7.0
 10
122.7611545138889
 20
458.7709635416666
 30
0.0
 10
122.6974202473958
 20
458.5477213541666
 30
0.0
 10
122.6402316623264
 20
458.3120768229167
 30
0.0
 10
122.5730523003472
 20
458.0826334635416
 30
0.0
 10
122.541357421875
 20
457.9744574652777
 30
0.0
 10
122.4200900607639
 20
457.776708984375
 30
0.0
 10
122.4965711805555
 20
457.6685329861111
 30
0.0
 10
122.541357421875
 20
457.6016981336805
 30
0.0
 10
122.6877739800347
 20
457.6237467447916
 30
0.0
 10
122.7515082465278
 20
457.6554416232639
 30
0.0
 10
123.0033447265625
 20
457.8022026909722
 30
0.0
 10
123.0767252604167
 20
458.1370659722222
 30
0.0
 10
123.2103949652778
 20
458.3692654079861
 30
0.0
 10
123.2965223524305
 20
458.5160264756944
 30
0.0
 10
123.3888509114583
 20
458.6913818359375
 30
0.0
 10
123.3919514973958
 20
458.8667371961805
 30
0.0
 10
123.3953965928819
 20
459.0196994357639
 30
0.0
 10
123.2327880859375
 20
459.2394965277778
 30
0.0
 10
123.0574327256944
 20
459.2043565538194
 30
0.0
 10
122.9013699001736
 20
459.1788628472222
 30
0.0
 10
122.8024956597222
 20
458.9046332465277
 30
0.0
 10
122.7611545138889
 20
458.7709635416666
 30
0.0
  0
SPLINE
  5
91
330
A
100
AcDbEntity
  8
LAYER_1
 62
     7
100
AcDbSpline
210
0.0
220
0.0
230
1.0
 70
    11
 71
     3
 72
    32
 73
    28
 74
     0
 42
0.000000001
 43
0.00000001
 40
0.0
 40
0.0
 40
0.0
 40
0.0
 40
1.0
 40
1.0
 40
1.0
 40
2.0
 40
2.0
 40
2.0
 40
3.0
 40
3.0
 40
3.0
 40
4.0
 40
4.0
 40
4.0
 40
5.0
 40
5.0
 40
5.0
 40
6.0
 40
6.0
 40
6.0
 40
7.0
 40
7.0
 40
7.0
 40
8.0
 40
8.0
 40
8.0
 40
9.0
 40
9.0
 40
9.0
 40
9.0
 10
124.4371934678819
 20
457.2220486111111
 30
0.0
 10
124.3641574435764
 20
457.2158474392361
 30
0.0
 10
124.2239420572917
 20
457.2220486111111
 30
0.0
 10
124.1822564019097
 20
457.1552137586805
 30
0.0
 10
124.1474609375
 20
457.0883789062499
 30
0.0
 10
124.1760552300347
 20
456.8878743489583
 30
0.0
 10
124.1888020833333
 20
456.8079481336805
 30
0.0
 10
124.2301432291667
 20
456.5881510416666
 30
0.0
 10
124.4278917100694
 20
456.5082248263889
 30
0.0
 10
124.6283962673611
 20
456.4479356553819
 30
0.0
 10
124.724169921875
 20
456.4158962673611
 30
0.0
 10
124.8006510416667
 20
456.4289876302083
 30
0.0
 10
124.8802327473958
 20
456.4958224826389
 30
0.0
 10
124.9694607204861
 20
456.5657579210069
 30
0.0
 10
125.0969292534722
 20
456.6422390407986
 30
0.0
 10
125.1544623480903
 20
456.74111328125
 30
0.0
 10
125.2147515190972
 20
456.8461886935763
 30
0.0
 10
125.418701171875
 20
457.2285942925347
 30
0.0
 10
125.1958034939236
 20
457.2892279730902
 30
0.0
 10
125.1544623480903
 20
457.3019748263889
 30
0.0
 10
125.1193223741319
 20
457.2702799479166
 30
0.0
 10
125.0841824001736
 20
457.263734266493
 30
0.0
 10
125.017347547743
 20
457.2413411458333
 30
0.0
 10
124.9470675998264
 20
457.2351399739583
 30
0.0
 10
124.8740315755208
 20
457.2351399739583
 30
0.0
 10
124.7272705078125
 20
457.2285942925347
 30
0.0
 10
124.5839545355903
 20
457.2413411458333
 30
0.0
 10
124.4371934678819
 20
457.2220486111111
 30
0.0
  0
SPLINE
  5
90
330
A
100
AcDbEntity
  8
LAYER_1
 62
     7
100
AcDbSpline
210
0.0
220
0.0
230
1.0
 70
    11
 71
     3
 72
    29
 73
    25
 74
     0
 42
0.000000001
 43
0.00000001
 40
0.0
 40
0.0
 40
0.0
 40
0.0
 40
1.0
 40
1.0
 40
1.0
 40
2.0
 40
2.0
 40
2.0
 40
3.0
 40
3.0
 40
3.0
 40
4.0
 40
4.0
 40
4.0
 40
5.0
 40
5.0
 40
5.0
 40
6.0
 40
6.0
 40
6.0
 40
7.0
 40
7.0
 40
7.0
 40
8.0
 40
8.0
 40
8.0
 40
8.0
 10
122.0504313151041
 20
455.3327582465278
 30
0.0
 10
121.9357096354167
 20
455.1319091796875
 30
0.0
 10
121.9357096354167
 20
454.9789469401042
 30
0.0
 10
121.9388102213542
 20
454.7588053385416
 30
0.0
 10
121.9388102213542
 20
454.6030870225694
 30
0.0
 10
121.9009141710069
 20
454.4435791015625
 30
0.0
 10
122.082470703125
 20
454.3991373697916
 30
0.0
 10
122.2447347005208
 20
454.3543511284722
 30
0.0
 10
122.4679768880208
 20
454.3543511284722
 30
0.0
 10
122.6305853949653
 20
454.3860460069444
 30
0.0
 10
122.7422064887153
 20
454.3991373697916
 30
0.0
 10
122.888623046875
 20
454.4370334201388
 30
0.0
 10
122.952357313368
 20
454.5455539279513
 30
0.0
 10
123.0129909939236
 20
454.6506293402778
 30
0.0
 10
122.9141167534722
 20
454.7653510199652
 30
0.0
 10
122.8600287543403
 20
454.8704264322917
 30
0.0
 10
122.7962944878472
 20
454.9916937934028
 30
0.0
 10
122.7101671006944
 20
455.1064154730902
 30
0.0
 10
122.6464328342014
 20
455.2338840060763
 30
0.0
 10
122.6178385416667
 20
455.2941731770833
 30
0.0
 10
122.5985460069444
 20
455.358251953125
 30
0.0
 10
122.5668511284722
 20
455.4188856336805
 30
0.0
 10
122.4521294487847
 20
455.6193901909722
 30
0.0
 10
122.1427598741319
 20
455.4953667534722
 30
0.0
 10
122.0504313151041
 20
455.3327582465278
 30
0.0
  0
SPLINE
  5
8F
330
A
100
AcDbEntity
  8
LAYER_1
 62
     7
100
AcDbSpline
210
0.0
220
0.0
230
1.0
 70
    11
 71
     3
 72
    50
 73
    46
 74
     0
 42
0.000000001
 43
0.00000001
 40
0.0
 40
0.0
 40
0.0
 40
0.0
 40
1.0
 40
1.0
 40
1.0
 40
2.0
 40
2.0
 40
2.0
 40
3.0
 40
3.0
 40
3.0
 40
4.0
 40
4.0
 40
4.0
 40
5.0
 40
5.0
 40
5.0
 40
6.0
 40
6.0
 40
6.0
 40
7.0
 40
7.0
 40
7.0
 40
8.0
 40
8.0
 40
8.0
 40
9.0
 40
9.0
 40
9.0
 40
10.0
 40
10.0
 40
10.0
 40
11.0
 40
11.0
 40
11.0
 40
12.0
 40
12.0
 40
12.0
 40
13.0
 40
13.0
 40
13.0
 40
14.0
 40
14.0
 40
14.0
 40
15.0
 40
15.0
 40
15.0
 40
15.0
 10
140.685986328125
 20
476.1924669053819
 30
0.0
 10
140.6446451822916
 20
476.1256320529513
 30
0.0
 10
140.5778103298611
 20
476.0522515190972
 30
0.0
 10
140.5171766493056
 20
476.0047092013888
 30
0.0
 10
140.3835069444444
 20
475.902734375
 30
0.0
 10
140.1764567057292
 20
475.8961886935763
 30
0.0
 10
140.0710367838541
 20
475.7621744791666
 30
0.0
 10
139.8863796657986
 20
475.5485785590278
 30
0.0
 10
140.0837836371528
 20
475.1313774956597
 30
0.0
 10
140.1888590494792
 20
474.9208821614583
 30
0.0
 10
140.3294189453125
 20
474.6562988281249
 30
0.0
 10
140.5492160373264
 20
474.5129828559027
 30
0.0
 10
140.797607421875
 20
474.3758680555555
 30
0.0
 10
141.0590901692708
 20
474.2263509114583
 30
0.0
 10
141.3233289930556
 20
473.9841606987847
 30
0.0
 10
141.6134060329861
 20
473.9266276041666
 30
0.0
 10
141.8652425130208
 20
473.8694390190972
 30
0.0
 10
142.1966606987847
 20
473.9011338975694
 30
0.0
 10
142.4419514973958
 20
473.9586669921874
 30
0.0
 10
142.5663194444444
 20
473.9907063802083
 30
0.0
 10
142.6937879774305
 20
474.0351481119791
 30
0.0
 10
142.814710828993
 20
474.073388671875
 30
0.0
 10
142.9773193359375
 20
474.1243760850694
 30
0.0
 10
142.9711181640625
 20
474.2201497395833
 30
0.0
 10
143.0569010416667
 20
474.3538194444444
 30
0.0
 10
143.2129638671875
 20
474.6025553385416
 30
0.0
 10
143.2832438151042
 20
474.9498209635416
 30
0.0
 10
143.2894449869792
 20
475.2491997612847
 30
0.0
 10
143.2928900824653
 20
475.4245551215278
 30
0.0
 10
143.2195095486111
 20
475.5520236545138
 30
0.0
 10
143.1940158420139
 20
475.7177327473958
 30
0.0
 10
143.1750678168403
 20
475.8641493055555
 30
0.0
 10
143.2005615234375
 20
476.0109103732639
 30
0.0
 10
143.092041015625
 20
476.1256320529513
 30
0.0
 10
142.8594970703125
 20
476.367822265625
 30
0.0
 10
142.4994845920139
 20
476.3643771701388
 30
0.0
 10
142.2283555772569
 20
476.5269856770833
 30
0.0
 10
142.0278510199653
 20
476.6448079427083
 30
0.0
 10
141.8397488064236
 20
476.7950141059027
 30
0.0
 10
141.6199517144097
 20
476.8776963975694
 30
0.0
 10
141.4094563802083
 20
476.9603786892361
 30
0.0
 10
141.1131781684028
 20
476.8935438368055
 30
0.0
 10
140.9316216362847
 20
476.7660753038194
 30
0.0
 10
140.743519422743
 20
476.6324055989583
 30
0.0
 10
140.797607421875
 20
476.367822265625
 30
0.0
 10
140.685986328125
 20
476.1924669053819
 30
0.0
  0
SPLINE
  5
8E
330
A
100
AcDbEntity
  8
LAYER_1
 62
     7
100
AcDbSpline
210
0.0
220
0.0
230
1.0
 70
    11
 71
     3
 72
    68
 73
    64
 74
     0
 42
0.000000001
 43
0.00000001
 40
0.0
 40
0.0
 40
0.0
 40
0.0
 40
1.0
 40
1.0
 40
1.0
 40
2.0
 40
2.0
 40
2.0
 40
3.0
 40
3.0
 40
3.0
 40
4.0
 40
4.0
 40
4.0
 40
5.0
 40
5.0
 40
5.0
 40
6.0
 40
6.0
 40
6.0
 40
7.0
 40
7.0
 40
7.0
 40
8.0
 40
8.0
 40
8.0
 40
9.0
 40
9.0
 40
9.0
 40
10.0
 40
10.0
 40
10.0
 40
11.0
 40
11.0
 40
11.0
 40
12.0
 40
12.0
 40
12.0
 40
13.0
 40
13.0
 40
13.0
 40
14.0
 40
14.0
 40
14.0
 40
15.0
 40
15.0
 40
15.0
 40
16.0
 40
16.0
 40
16.0
 40
17.0
 40
17.0
 40
17.0
 40
18.0
 40
18.0
 40
18.0
 40
19.0
 40
19.0
 40
19.0
 40
20.0
 40
20.0
 40
20.0
 40
21.0
 40
21.0
 40
21.0
 40
21.0
 10
147.0466661241319
 20
477.6073676215277
 30
0.0
 10
146.7600341796875
 20
477.4640516493055
 30
0.0
 10
146.53369140625
 20
477.2187608506944
 30
0.0
 10
146.2436143663194
 20
477.1071397569444
 30
0.0
 10
145.9473361545139
 20
476.9924180772569
 30
0.0
 10
145.9473361545139
 20
476.9224826388888
 30
0.0
 10
145.9759304470486
 20
476.6258599175347
 30
0.0
 10
145.9886773003472
 20
476.4952907986111
 30
0.0
 10
145.9662841796875
 20
476.3326822916666
 30
0.0
 10
146.0045247395833
 20
476.2086588541666
 30
0.0
 10
146.0300184461805
 20
476.132177734375
 30
0.0
 10
146.0937527126736
 20
476.0715440538194
 30
0.0
 10
146.1192464192708
 20
475.9854166666667
 30
0.0
 10
146.2722086588541
 20
475.5106825086805
 30
0.0
 10
146.3838297526042
 20
475.0483506944444
 30
0.0
 10
146.4634114583333
 20
474.5639702690972
 30
0.0
 10
146.4889051649305
 20
474.414453125
 30
0.0
 10
146.4923502604167
 20
474.2263509114583
 30
0.0
 10
146.5877794053819
 20
474.0988823784722
 30
0.0
 10
146.6962999131944
 20
473.9586669921874
 30
0.0
 10
146.9033501519097
 20
473.7991590711805
 30
0.0
 10
147.0659586588542
 20
473.7226779513888
 30
0.0
 10
147.1806803385417
 20
473.6592881944444
 30
0.0
 10
147.2761094835069
 20
473.5731608072916
 30
0.0
 10
147.3877305772569
 20
473.6847819010416
 30
0.0
 10
147.4259711371528
 20
473.7226779513888
 30
0.0
 10
147.4483642578125
 20
473.7736653645833
 30
0.0
 10
147.4897054036458
 20
473.8150065104167
 30
0.0
 10
147.5279459635416
 20
473.8535915798611
 30
0.0
 10
147.5885796440972
 20
473.8821858723958
 30
0.0
 10
147.6299207899305
 20
473.9266276041666
 30
0.0
 10
147.7797824435764
 20
474.0795898437499
 30
0.0
 10
147.9007052951389
 20
474.2294514973958
 30
0.0
 10
148.0760606553819
 20
474.3600206163194
 30
0.0
 10
148.1428955078125
 20
474.4110080295138
 30
0.0
 10
148.2417697482639
 20
474.4557942708333
 30
0.0
 10
148.2927571614583
 20
474.5098822699653
 30
0.0
 10
148.4136800130208
 20
474.6404513888888
 30
0.0
 10
148.3406439887153
 20
474.8444010416666
 30
0.0
 10
148.3371988932292
 20
474.9942626953124
 30
0.0
 10
148.3309977213542
 20
475.1823649088541
 30
0.0
 10
148.4105794270833
 20
475.3673665364583
 30
0.0
 10
148.4805148654514
 20
475.5327311197916
 30
0.0
 10
148.5731879340278
 20
475.7687201605902
 30
0.0
 10
148.6400227864583
 20
475.9916178385416
 30
0.0
 10
148.7771375868055
 20
476.2086588541666
 30
0.0
 10
148.8884141710069
 20
476.3933159722222
 30
0.0
 10
148.9108072916667
 20
476.6992404513888
 30
0.0
 10
148.8663655598958
 20
476.9062906901041
 30
0.0
 10
148.8026312934028
 20
477.2122151692708
 30
0.0
 10
148.4712131076389
 20
477.4068630642361
 30
0.0
 10
148.2769097222222
 20
477.6294162326388
 30
0.0
 10
148.2259223090278
 20
477.6869493272569
 30
0.0
 10
148.1811360677083
 20
477.8271647135416
 30
0.0
 10
148.1239474826389
 20
477.8654052734374
 30
0.0
 10
148.0185275607639
 20
477.9484320746527
 30
0.0
 10
147.7222493489583
 20
477.9739257812499
 30
0.0
 10
147.6140733506944
 20
477.9098470052083
 30
0.0
 10
147.5248453776042
 20
477.8588595920139
 30
0.0
 10
147.4673122829861
 20
477.7699761284722
 30
0.0
 10
147.3622368706597
 20
477.7251898871527
 30
0.0
 10
147.2571614583333
 20
477.6804036458333
 30
0.0
 10
147.1455403645833
 20
477.6549099392361
 30
0.0
 10
147.0466661241319
 20
477.6073676215277
 30
0.0
  0
SPLINE
  5
8D
330
A
100
AcDbEntity
  8
LAYER_1
 62
     7
100
AcDbSpline
210
0.0
220
0.0
230
1.0
 70
    11
 71
     3
 72
    41
 73
    37
 74
     0
 42
0.000000001
 43
0.00000001
 40
0.0
 40
0.0
 40
0.0
 40
0.0
 40
1.0
 40
1.0
 40
1.0
 40
2.0
 40
2.0
 40
2.0
 40
3.0
 40
3.0
 40
3.0
 40
4.0
 40
4.0
 40
4.0
 40
5.0
 40
5.0
 40
5.0
 40
6.0
 40
6.0
 40
6.0
 40
7.0
 40
7.0
 40
7.0
 40
8.0
 40
8.0
 40
8.0
 40
9.0
 40
9.0
 40
9.0
 40
10.0
 40
10.0
 40
10.0
 40
11.0
 40
11.0
 40
11.0
 40
12.0
 40
12.0
 40
12.0
 40
12.0
 10
141.020849609375
 20
473.4615397135416
 30
0.0
 10
141.1066324869792
 20
473.219349500868
 30
0.0
 10
141.5689643012153
 20
473.2382975260416
 30
0.0
 10
141.7601671006944
 20
473.2128038194444
 30
0.0
 10
142.0371527777778
 20
473.1811089409722
 30
0.0
 10
142.3017361111111
 20
473.0853352864583
 30
0.0
 10
142.5663194444444
 20
473.0057535807291
 30
0.0
 10
142.8529513888889
 20
472.9199707031249
 30
0.0
 10
143.0314073350694
 20
472.7187771267361
 30
0.0
 10
143.2894449869792
 20
472.5885525173611
 30
0.0
 10
143.4234592013889
 20
472.5244737413194
 30
0.0
 10
143.5381808810764
 20
472.4355902777777
 30
0.0
 10
143.66875
 20
472.531019422743
 30
0.0
 10
143.8027642144097
 20
472.6202473958333
 30
0.0
 10
143.9302327473958
 20
472.7859564887152
 30
0.0
 10
143.8344590928819
 20
472.9516655815972
 30
0.0
 10
143.7676242404514
 20
473.0663872612847
 30
0.0
 10
143.6370551215278
 20
473.1239203559027
 30
0.0
 10
143.5540283203125
 20
473.2128038194444
 30
0.0
 10
143.4775472005208
 20
473.3051323784722
 30
0.0
 10
143.4234592013889
 20
473.4553385416666
 30
0.0
 10
143.3597249348958
 20
473.5600694444444
 30
0.0
 10
143.2419026692708
 20
473.7612630208333
 30
0.0
 10
143.0441541883681
 20
473.971413845486
 30
0.0
 10
142.7892171223958
 20
473.971413845486
 30
0.0
 10
142.5597737630208
 20
473.971413845486
 30
0.0
 10
142.3592692057292
 20
473.8659939236111
 30
0.0
 10
142.126380750868
 20
473.8535915798611
 30
0.0
 10
141.9734185112847
 20
473.8470458984374
 30
0.0
 10
141.8204562717014
 20
473.8597927517361
 30
0.0
 10
141.6643934461806
 20
473.8756401909722
 30
0.0
 10
141.5114312065972
 20
473.8949327256944
 30
0.0
 10
141.368115234375
 20
473.9586669921874
 30
0.0
 10
141.2310004340278
 20
473.8632378472222
 30
0.0
 10
141.1259250217014
 20
473.7929578993055
 30
0.0
 10
140.972962782118
 20
473.5921088324652
 30
0.0
 10
141.020849609375
 20
473.4615397135416
 30
0.0
  0
SPLINE
  5
8C
330
A
100
AcDbEntity
  8
LAYER_1
 62
     7
100
AcDbSpline
210
0.0
220
0.0
230
1.0
 70
    11
 71
     3
 72
    32
 73
    28
 74
     0
 42
0.000000001
 43
0.00000001
 40
0.0
 40
0.0
 40
0.0
 40
0.0
 40
1.0
 40
1.0
 40
1.0
 40
2.0
 40
2.0
 40
2.0
 40
3.0
 40
3.0
 40
3.0
 40
4.0
 40
4.0
 40
4.0
 40
5.0
 40
5.0
 40
5.0
 40
6.0
 40
6.0
 40
6.0
 40
7.0
 40
7.0
 40
7.0
 40
8.0
 40
8.0
 40
8.0
 40
9.0
 40
9.0
 40
9.0
 40
9.0
 10
147.6426676432291
 20
473.9011338975694
 30
0.0
 10
147.5437934027778
 20
473.8215521918402
 30
0.0
 10
147.403578016493
 20
473.7164767795139
 30
0.0
 10
147.4004774305556
 20
473.566615125868
 30
0.0
 10
147.397376844618
 20
473.3850585937499
 30
0.0
 10
147.7033013237847
 20
473.3657660590277
 30
0.0
 10
147.8466172960069
 20
473.3402723524305
 30
0.0
 10
148.0536675347222
 20
473.2958306206597
 30
0.0
 10
148.2831108940972
 20
473.1938557942708
 30
0.0
 10
148.4967068142361
 20
473.1873101128472
 30
0.0
 10
148.6527696397569
 20
473.1811089409722
 30
0.0
 10
148.6782633463542
 20
473.2066026475694
 30
0.0
 10
148.7196044921875
 20
473.3533637152777
 30
0.0
 10
148.7771375868055
 20
473.5538682725694
 30
0.0
 10
148.8470730251736
 20
473.7612630208333
 30
0.0
 10
148.8470730251736
 20
473.9776150173611
 30
0.0
 10
148.8470730251736
 20
474.1529703776041
 30
0.0
 10
148.6879096137153
 20
474.2390977647569
 30
0.0
 10
148.556995985243
 20
474.3155788845486
 30
0.0
 10
148.3499457465278
 20
474.4430474175347
 30
0.0
 10
148.3024034288194
 20
474.3889594184027
 30
0.0
 10
148.1239474826389
 20
474.254945203993
 30
0.0
 10
148.0409206814236
 20
474.1881103515624
 30
0.0
 10
147.9420464409722
 20
474.1753634982638
 30
0.0
 10
147.8497178819444
 20
474.1181749131944
 30
0.0
 10
147.7604899088541
 20
474.0671874999999
 30
0.0
 10
147.7191487630208
 20
473.9652126736111
 30
0.0
 10
147.6426676432291
 20
473.9011338975694
 30
0.0
  0
SPLINE
  5
8B
330
A
100
AcDbEntity
  8
LAYER_1
 62
     7
100
AcDbSpline
210
0.0
220
0.0
230
1.0
 70
    11
 71
     3
 72
    53
 73
    49
 74
     0
 42
0.000000001
 43
0.00000001
 40
0.0
 40
0.0
 40
0.0
 40
0.0
 40
1.0
 40
1.0
 40
1.0
 40
2.0
 40
2.0
 40
2.0
 40
3.0
 40
3.0
 40
3.0
 40
4.0
 40
4.0
 40
4.0
 40
5.0
 40
5.0
 40
5.0
 40
6.0
 40
6.0
 40
6.0
 40
7.0
 40
7.0
 40
7.0
 40
8.0
 40
8.0
 40
8.0
 40
9.0
 40
9.0
 40
9.0
 40
10.0
 40
10.0
 40
10.0
 40
11.0
 40
11.0
 40
11.0
 40
12.0
 40
12.0
 40
12.0
 40
13.0
 40
13.0
 40
13.0
 40
14.0
 40
14.0
 40
14.0
 40
15.0
 40
15.0
 40
15.0
 40
16.0
 40
16.0
 40
16.0
 40
16.0
 10
143.4520534939236
 20
475.0359483506944
 30
0.0
 10
143.4203586154514
 20
474.9498209635416
 30
0.0
 10
143.3693712022569
 20
474.8891872829861
 30
0.0
 10
143.321484375
 20
474.8127061631944
 30
0.0
 10
143.2450032552083
 20
474.6883382161458
 30
0.0
 10
143.1333821614583
 20
474.4940348307291
 30
0.0
 10
143.1654215494792
 20
474.3410725911458
 30
0.0
 10
143.2067626953125
 20
474.1464246961805
 30
0.0
 10
143.4679009331597
 20
474.1881103515624
 30
0.0
 10
143.620863172743
 20
474.1691623263889
 30
0.0
 10
143.7676242404514
 20
474.1464246961805
 30
0.0
 10
143.898193359375
 20
474.1209309895833
 30
0.0
 10
144.0353081597222
 20
474.0795898437499
 30
0.0
 10
144.3222846137153
 20
473.9841606987847
 30
0.0
 10
144.6089165581597
 20
473.8821858723958
 30
0.0
 10
144.8924479166666
 20
473.7802110460069
 30
0.0
 10
145.0709038628472
 20
473.7164767795139
 30
0.0
 10
145.226966688368
 20
473.7802110460069
 30
0.0
 10
145.4185139973958
 20
473.837744140625
 30
0.0
 10
145.6445122612847
 20
473.907679578993
 30
0.0
 10
145.8326144748264
 20
473.9652126736111
 30
0.0
 10
146.0396647135416
 20
474.0795898437499
 30
0.0
 10
146.1543863932291
 20
474.1464246961805
 30
0.0
 10
146.3583360460069
 20
474.1464246961805
 30
0.0
 10
146.3965766059028
 20
474.2804389105902
 30
0.0
 10
146.4251708984375
 20
474.3696668836805
 30
0.0
 10
146.3838297526042
 20
474.5195285373263
 30
0.0
 10
146.3776285807292
 20
474.6087565104166
 30
0.0
 10
146.3583360460069
 20
474.7424262152778
 30
0.0
 10
146.3583360460069
 20
474.7999593098958
 30
0.0
 10
146.2246663411458
 20
474.8319986979166
 30
0.0
 10
146.0300184461805
 20
474.8764404296875
 30
0.0
 10
145.8388156467014
 20
474.7934136284722
 30
0.0
 10
145.6479573567708
 20
474.7934136284722
 30
0.0
 10
145.4119683159722
 20
474.7934136284722
 30
0.0
 10
145.1983723958333
 20
474.8829861111111
 30
0.0
 10
144.9816758897569
 20
474.9622233072917
 30
0.0
 10
144.8256130642361
 20
475.0166558159722
 30
0.0
 10
144.6950439453125
 20
475.0614420572916
 30
0.0
 10
144.5548285590278
 20
475.1441243489583
 30
0.0
 10
144.4910942925347
 20
475.1823649088541
 30
0.0
 10
144.4401068793403
 20
475.2398980034722
 30
0.0
 10
144.3698269314236
 20
475.2715928819444
 30
0.0
 10
144.2041178385417
 20
475.3480740017361
 30
0.0
 10
143.9970675998264
 20
475.3608208550347
 30
0.0
 10
143.8186116536458
 20
475.3418728298611
 30
0.0
 10
143.5764214409722
 20
475.3287814670139
 30
0.0
 10
143.5350802951389
 20
475.2557454427083
 30
0.0
 10
143.4520534939236
 20
475.0359483506944
 30
0.0
  0
SPLINE
  5
8A
330
A
100
AcDbEntity
  8
LAYER_1
 62
     7
100
AcDbSpline
210
0.0
220
0.0
230
1.0
 70
    11
 71
     3
 72
    29
 73
    25
 74
     0
 42
0.000000001
 43
0.00000001
 40
0.0
 40
0.0
 40
0.0
 40
0.0
 40
1.0
 40
1.0
 40
1.0
 40
2.0
 40
2.0
 40
2.0
 40
3.0
 40
3.0
 40
3.0
 40
4.0
 40
4.0
 40
4.0
 40
5.0
 40
5.0
 40
5.0
 40
6.0
 40
6.0
 40
6.0
 40
7.0
 40
7.0
 40
7.0
 40
8.0
 40
8.0
 40
8.0
 40
8.0
 10
148.7802381727431
 20
473.2004014756944
 30
0.0
 10
148.7960856119792
 20
472.7477159288194
 30
0.0
 10
149.2708197699653
 20
472.824197048611
 30
0.0
 10
149.6022379557292
 20
472.824197048611
 30
0.0
 10
149.7968858506944
 20
472.824197048611
 30
0.0
 10
150.0197835286458
 20
472.7987033420138
 30
0.0
 10
150.2078857421875
 20
472.824197048611
 30
0.0
 10
150.3959879557291
 20
472.8496907552083
 30
0.0
 10
150.3766954210069
 20
472.9802598741319
 30
0.0
 10
150.3639485677083
 20
473.1494140624999
 30
0.0
 10
150.3577473958333
 20
473.219349500868
 30
0.0
 10
150.3832411024305
 20
473.3657660590277
 30
0.0
 10
150.3353542751736
 20
473.4298448350694
 30
0.0
 10
150.2650743272569
 20
473.5187282986111
 30
0.0
 10
150.0645697699653
 20
473.5411214192708
 30
0.0
 10
149.975341796875
 20
473.6017550998263
 30
0.0
 10
149.8316813151042
 20
473.6971842447916
 30
0.0
 10
149.7713921440972
 20
473.8887315538194
 30
0.0
 10
149.63427734375
 20
473.9872612847222
 30
0.0
 10
149.4430745442708
 20
474.1243760850694
 30
0.0
 10
149.057568359375
 20
474.1050835503472
 30
0.0
 10
148.9269992404514
 20
473.9011338975694
 30
0.0
 10
148.7960856119792
 20
473.7006293402777
 30
0.0
 10
148.774037000868
 20
473.4360460069444
 30
0.0
 10
148.7802381727431
 20
473.2004014756944
 30
0.0
  0
SPLINE
  5
89
330
A
100
AcDbEntity
  8
LAYER_1
 62
     7
100
AcDbSpline
210
0.0
220
0.0
230
1.0
 70
    11
 71
     3
 72
    41
 73
    37
 74
     0
 42
0.000000001
 43
0.00000001
 40
0.0
 40
0.0
 40
0.0
 40
0.0
 40
1.0
 40
1.0
 40
1.0
 40
2.0
 40
2.0
 40
2.0
 40
3.0
 40
3.0
 40
3.0
 40
4.0
 40
4.0
 40
4.0
 40
5.0
 40
5.0
 40
5.0
 40
6.0
 40
6.0
 40
6.0
 40
7.0
 40
7.0
 40
7.0
 40
8.0
 40
8.0
 40
8.0
 40
9.0
 40
9.0
 40
9.0
 40
10.0
 40
10.0
 40
10.0
 40
11.0
 40
11.0
 40
11.0
 40
12.0
 40
12.0
 40
12.0
 40
12.0
 10
151.6799750434028
 20
473.7102756076388
 30
0.0
 10
151.6034939236111
 20
473.6145019531249
 30
0.0
 10
151.5304578993055
 20
473.5345757378472
 30
0.0
 10
151.4570773654514
 20
473.4326009114583
 30
0.0
 10
151.3709499782986
 20
473.3116780598958
 30
0.0
 10
151.0715711805555
 20
472.9737141927083
 30
0.0
 10
151.2372802734375
 20
472.8369439019097
 30
0.0
 10
151.3072157118056
 20
472.7859564887152
 30
0.0
 10
151.5177110460069
 20
472.8179958767361
 30
0.0
 10
151.6003933376736
 20
472.8114501953124
 30
0.0
 10
151.7437093098958
 20
472.8114501953124
 30
0.0
 10
151.8904703776041
 20
472.8049045138889
 30
0.0
 10
152.0337863498264
 20
472.7925021701388
 30
0.0
 10
152.393798828125
 20
472.760462782118
 30
0.0
 10
152.73486328125
 20
472.6870822482638
 30
0.0
 10
153.0855740017361
 20
472.6329942491319
 30
0.0
 10
153.2095974392361
 20
472.6140462239583
 30
0.0
 10
153.480726453993
 20
472.5499674479166
 30
0.0
 10
153.6016493055556
 20
472.5885525173611
 30
0.0
 10
153.646435546875
 20
472.6009548611111
 30
0.0
 10
153.7418646918403
 20
472.7318684895833
 30
0.0
 10
153.7515109592014
 20
472.7732096354166
 30
0.0
 10
153.7832058376736
 20
472.9516655815972
 30
0.0
 10
153.5699544270833
 20
473.0343478732639
 30
0.0
 10
153.4583333333333
 20
473.1046278211805
 30
0.0
 10
153.1331163194444
 20
473.3116780598958
 30
0.0
 10
153.1365614149306
 20
473.9907063802083
 30
0.0
 10
152.6935221354167
 20
473.9907063802083
 30
0.0
 10
152.5977484809028
 20
473.9907063802083
 30
0.0
 10
152.5340142144097
 20
473.9907063802083
 30
0.0
 10
152.4482313368055
 20
474.0286024305555
 30
0.0
 10
152.3269639756944
 20
474.073388671875
 30
0.0
 10
152.2983696831597
 20
474.2008572048611
 30
0.0
 10
152.1932942708333
 20
474.2580457899305
 30
0.0
 10
151.8329372829861
 20
474.4557942708333
 30
0.0
 10
151.8139892578125
 20
473.8821858723958
 30
0.0
 10
151.6799750434028
 20
473.7102756076388
 30
0.0
  0
SPLINE
  5
88
330
A
100
AcDbEntity
  8
LAYER_1
 62
     7
100
AcDbSpline
210
0.0
220
0.0
230
1.0
 70
    11
 71
     3
 72
    32
 73
    28
 74
     0
 42
0.000000001
 43
0.00000001
 40
0.0
 40
0.0
 40
0.0
 40
0.0
 40
1.0
 40
1.0
 40
1.0
 40
2.0
 40
2.0
 40
2.0
 40
3.0
 40
3.0
 40
3.0
 40
4.0
 40
4.0
 40
4.0
 40
5.0
 40
5.0
 40
5.0
 40
6.0
 40
6.0
 40
6.0
 40
7.0
 40
7.0
 40
7.0
 40
8.0
 40
8.0
 40
8.0
 40
9.0
 40
9.0
 40
9.0
 40
9.0
 10
143.2322564019097
 20
473.8150065104167
 30
0.0
 10
143.3535237630208
 20
473.6337944878472
 30
0.0
 10
143.5095865885417
 20
473.4553385416666
 30
0.0
 10
143.6498019748264
 20
473.279638671875
 30
0.0
 10
143.7517768012153
 20
473.1521701388888
 30
0.0
 10
143.8282579210069
 20
473.0474392361111
 30
0.0
 10
143.8472059461805
 20
472.8813856336805
 30
0.0
 10
143.8599527994791
 20
472.7063747829861
 30
0.0
 10
143.8599527994791
 20
472.6009548611111
 30
0.0
 10
144.0256618923611
 20
472.531019422743
 30
0.0
 10
144.2489040798611
 20
472.4259440104166
 30
0.0
 10
144.644056532118
 20
472.3525634765625
 30
0.0
 10
144.8831461588541
 20
472.4417914496527
 30
0.0
 10
145.0709038628472
 20
472.5182725694444
 30
0.0
 10
145.0106146918403
 20
472.9006781684027
 30
0.0
 10
145.0071695963541
 20
473.0598415798611
 30
0.0
 10
145.0040690104167
 20
473.2861843532986
 30
0.0
 10
145.0264621310764
 20
473.5855631510416
 30
0.0
 10
144.8066650390625
 20
473.7226779513888
 30
0.0
 10
144.5355360243055
 20
473.8887315538194
 30
0.0
 10
144.1500298394097
 20
473.9204264322916
 30
0.0
 10
143.8537516276041
 20
474.0224012586805
 30
0.0
 10
143.6942437065972
 20
474.073388671875
 30
0.0
 10
143.5254340277778
 20
474.1691623263889
 30
0.0
 10
143.3469780815972
 20
474.1691623263889
 30
0.0
 10
143.1240804036458
 20
474.1691623263889
 30
0.0
 10
143.1333821614583
 20
473.971413845486
 30
0.0
 10
143.2322564019097
 20
473.8150065104167
 30
0.0
  0
SPLINE
  5
87
330
A
100
AcDbEntity
  8
LAYER_1
 62
     7
100
AcDbSpline
210
0.0
220
0.0
230
1.0
 70
    11
 71
     3
 72
    38
 73
    34
 74
     0
 42
0.000000001
 43
0.00000001
 40
0.0
 40
0.0
 40
0.0
 40
0.0
 40
1.0
 40
1.0
 40
1.0
 40
2.0
 40
2.0
 40
2.0
 40
3.0
 40
3.0
 40
3.0
 40
4.0
 40
4.0
 40
4.0
 40
5.0
 40
5.0
 40
5.0
 40
6.0
 40
6.0
 40
6.0
 40
7.0
 40
7.0
 40
7.0
 40
8.0
 40
8.0
 40
8.0
 40
9.0
 40
9.0
 40
9.0
 40
10.0
 40
10.0
 40
10.0
 40
11.0
 40
11.0
 40
11.0
 40
11.0
 10
150.6826199001736
 20
474.5832628038194
 30
0.0
 10
150.6350775824653
 20
474.4685411241319
 30
0.0
 10
150.6412787543403
 20
474.3345269097222
 30
0.0
 10
150.6412787543403
 20
474.2136040581597
 30
0.0
 10
150.6412787543403
 20
474.0606418185764
 30
0.0
 10
150.5999376085069
 20
474.0162000868055
 30
0.0
 10
150.504163953993
 20
473.9011338975694
 30
0.0
 10
150.3322536892361
 20
473.6971842447916
 30
0.0
 10
150.3512017144097
 20
473.3340711805555
 30
0.0
 10
150.4469753689236
 20
473.0853352864583
 30
0.0
 10
150.5076090494792
 20
472.9199707031249
 30
0.0
 10
150.6922661675347
 20
472.8049045138889
 30
0.0
 10
150.8166341145833
 20
472.6870822482638
 30
0.0
 10
150.8645209418403
 20
472.6395399305555
 30
0.0
 10
150.8803683810764
 20
472.5820068359375
 30
0.0
 10
150.9410020616319
 20
472.6075005425347
 30
0.0
 10
150.9981906467014
 20
472.6264485677083
 30
0.0
 10
151.0460774739583
 20
472.7732096354166
 30
0.0
 10
151.0715711805555
 20
472.824197048611
 30
0.0
 10
151.1670003255208
 20
473.0343478732639
 30
0.0
 10
151.1701009114583
 20
473.2606906467013
 30
0.0
 10
151.3010145399305
 20
473.4553385416666
 30
0.0
 10
151.4157362196181
 20
473.6272488064236
 30
0.0
 10
151.6227864583333
 20
473.7867567274305
 30
0.0
 10
151.6672281901041
 20
473.9872612847222
 30
0.0
 10
151.7278618706597
 20
474.2325520833333
 30
0.0
 10
151.4953179253472
 20
474.3696668836805
 30
0.0
 10
151.3709499782986
 20
474.5515679253472
 30
0.0
 10
151.2975694444444
 20
474.6693901909722
 30
0.0
 10
151.2593288845486
 20
474.8540473090277
 30
0.0
 10
151.1160129123264
 20
474.9146809895833
 30
0.0
 10
150.9058620876736
 20
475.0039089626736
 30
0.0
 10
150.7528998480903
 20
474.755517578125
 30
0.0
 10
150.6826199001736
 20
474.5832628038194
 30
0.0
  0
SPLINE
  5
86
330
A
100
AcDbEntity
  8
LAYER_1
 62
     7
100
AcDbSpline
210
0.0
220
0.0
230
1.0
 70
    11
 71
     3
 72
    44
 73
    40
 74
     0
 42
0.000000001
 43
0.00000001
 40
0.0
 40
0.0
 40
0.0
 40
0.0
 40
1.0
 40
1.0
 40
1.0
 40
2.0
 40
2.0
 40
2.0
 40
3.0
 40
3.0
 40
3.0
 40
4.0
 40
4.0
 40
4.0
 40
5.0
 40
5.0
 40
5.0
 40
6.0
 40
6.0
 40
6.0
 40
7.0
 40
7.0
 40
7.0
 40
8.0
 40
8.0
 40
8.0
 40
9.0
 40
9.0
 40
9.0
 40
10.0
 40
10.0
 40
10.0
 40
11.0
 40
11.0
 40
11.0
 40
12.0
 40
12.0
 40
12.0
 40
13.0
 40
13.0
 40
13.0
 40
13.0
 10
145.915296766493
 20
473.9011338975694
 30
0.0
 10
145.7750813802083
 20
473.8439453125
 30
0.0
 10
145.6445122612847
 20
473.7736653645833
 30
0.0
 10
145.5011962890625
 20
473.7292236328125
 30
0.0
 10
145.3420328776041
 20
473.6847819010416
 30
0.0
 10
145.1125895182292
 20
473.6813368055555
 30
0.0
 10
145.0519558376736
 20
473.4932345920138
 30
0.0
 10
144.985120985243
 20
473.279638671875
 30
0.0
 10
145.0519558376736
 20
472.9771592881944
 30
0.0
 10
145.1666775173611
 20
472.7925021701388
 30
0.0
 10
145.3034478081597
 20
472.5754611545138
 30
0.0
 10
145.4309163411458
 20
472.5182725694444
 30
0.0
 10
145.6892985026041
 20
472.5055257161458
 30
0.0
 10
145.9535373263889
 20
472.4927788628472
 30
0.0
 10
146.2339680989583
 20
472.5182725694444
 30
0.0
 10
146.4858045789931
 20
472.4514377170138
 30
0.0
 10
146.6897542317708
 20
472.3970052083333
 30
0.0
 10
146.992578125
 20
472.1806532118055
 30
0.0
 10
147.2061740451389
 20
472.231640625
 30
0.0
 10
147.3780843098958
 20
472.2695366753472
 30
0.0
 10
147.4959065755208
 20
472.5754611545138
 30
0.0
 10
147.5820339626736
 20
472.7125759548611
 30
0.0
 10
147.6457682291667
 20
472.8179958767361
 30
0.0
 10
147.7318956163194
 20
473.1363226996527
 30
0.0
 10
147.6523139105903
 20
473.2541449652778
 30
0.0
 10
147.5758327907986
 20
473.3595648871527
 30
0.0
 10
147.3780843098958
 20
473.3213243272569
 30
0.0
 10
147.2730088975694
 20
473.3850585937499
 30
0.0
 10
147.2154758029514
 20
473.4167534722222
 30
0.0
 10
147.1837809244792
 20
473.4808322482638
 30
0.0
 10
147.1455403645833
 20
473.5283745659722
 30
0.0
 10
147.0149712456597
 20
473.6847819010416
 30
0.0
 10
146.833070203993
 20
473.8215521918402
 30
0.0
 10
146.6611599392361
 20
473.9204264322916
 30
0.0
 10
146.5433376736111
 20
473.9841606987847
 30
0.0
 10
146.415869140625
 20
474.0478949652777
 30
0.0
 10
146.2787543402778
 20
474.0478949652777
 30
0.0
 10
146.1354383680555
 20
474.0416937934027
 30
0.0
 10
146.0396647135416
 20
473.9521213107639
 30
0.0
 10
145.915296766493
 20
473.9011338975694
 30
0.0
  0
SPLINE
  5
85
330
A
100
AcDbEntity
  8
LAYER_1
 62
     7
100
AcDbSpline
210
0.0
220
0.0
230
1.0
 70
    11
 71
     3
 72
    74
 73
    70
 74
     0
 42
0.000000001
 43
0.00000001
 40
0.0
 40
0.0
 40
0.0
 40
0.0
 40
1.0
 40
1.0
 40
1.0
 40
2.0
 40
2.0
 40
2.0
 40
3.0
 40
3.0
 40
3.0
 40
4.0
 40
4.0
 40
4.0
 40
5.0
 40
5.0
 40
5.0
 40
6.0
 40
6.0
 40
6.0
 40
7.0
 40
7.0
 40
7.0
 40
8.0
 40
8.0
 40
8.0
 40
9.0
 40
9.0
 40
9.0
 40
10.0
 40
10.0
 40
10.0
 40
11.0
 40
11.0
 40
11.0
 40
12.0
 40
12.0
 40
12.0
 40
13.0
 40
13.0
 40
13.0
 40
14.0
 40
14.0
 40
14.0
 40
15.0
 40
15.0
 40
15.0
 40
16.0
 40
16.0
 40
16.0
 40
17.0
 40
17.0
 40
17.0
 40
18.0
 40
18.0
 40
18.0
 40
19.0
 40
19.0
 40
19.0
 40
20.0
 40
20.0
 40
20.0
 40
21.0
 40
21.0
 40
21.0
 40
22.0
 40
22.0
 40
22.0
 40
23.0
 40
23.0
 40
23.0
 40
23.0
 10
158.534681532118
 20
473.3402723524305
 30
0.0
 10
158.4613009982639
 20
473.2830837673611
 30
0.0
 10
158.4072129991319
 20
473.1938557942708
 30
0.0
 10
158.3338324652778
 20
473.1428683810764
 30
0.0
 10
158.2349582248264
 20
473.0791341145833
 30
0.0
 10
158.1522759331597
 20
473.0536404079861
 30
0.0
 10
158.0630479600694
 20
472.9644124348958
 30
0.0
 10
157.9896674262153
 20
472.8944769965277
 30
0.0
 10
157.9131863064236
 20
472.8114501953124
 30
0.0
 10
157.852552625868
 20
472.7318684895833
 30
0.0
 10
157.7826171875
 20
472.6329942491319
 30
0.0
 10
157.7219835069444
 20
472.5244737413194
 30
0.0
 10
157.6551486545139
 20
472.4259440104166
 30
0.0
 10
157.559375
 20
472.2826280381944
 30
0.0
 10
157.5500732421875
 20
472.1041720920139
 30
0.0
 10
157.5118326822916
 20
471.9446641710069
 30
0.0
 10
157.4863389756944
 20
471.8523356119791
 30
0.0
 10
157.4098578559028
 20
471.7152208116319
 30
0.0
 10
157.4129584418403
 20
471.6163465711805
 30
0.0
 10
157.4160590277778
 20
471.3903483072916
 30
0.0
 10
157.8398057725694
 20
471.42548828125
 30
0.0
 10
157.9962131076389
 20
471.4027506510416
 30
0.0
 10
158.353125
 20
471.3424614800347
 30
0.0
 10
158.6590494791666
 20
471.2435872395833
 30
0.0
 10
158.9522271050347
 20
471.0430826822916
 30
0.0
 10
159.2037190755208
 20
470.8804741753472
 30
0.0
 10
159.6019721137153
 20
470.6572319878472
 30
0.0
 10
159.9078965928819
 20
470.6889268663194
 30
0.0
 10
160.0322645399305
 20
470.7020182291666
 30
0.0
 10
160.1214925130208
 20
470.7464599609374
 30
0.0
 10
160.258607313368
 20
470.7464599609374
 30
0.0
 10
160.4625569661458
 20
470.7464599609374
 30
0.0
 10
160.6665066189236
 20
470.7337131076388
 30
0.0
 10
160.8704562717014
 20
470.737158203125
 30
0.0
 10
161.0361653645833
 20
470.7399142795139
 30
0.0
 10
161.3865315755208
 20
470.6889268663194
 30
0.0
 10
161.5077989366319
 20
470.8418891059027
 30
0.0
 10
161.6035725911458
 20
470.9569552951389
 30
0.0
 10
161.6321668836806
 20
471.1574598524305
 30
0.0
 10
161.7148491753472
 20
471.2945746527777
 30
0.0
 10
161.7882297092014
 20
471.4158420138888
 30
0.0
 10
161.9442925347222
 20
471.5367648654513
 30
0.0
 10
161.976331922743
 20
471.676980251736
 30
0.0
 10
162.0080268012153
 20
471.8237413194444
 30
0.0
 10
161.9570393880208
 20
472.0083984375
 30
0.0
 10
161.9570393880208
 20
472.1582600911458
 30
0.0
 10
161.9539388020833
 20
472.2571343315972
 30
0.0
 10
161.9635850694444
 20
472.3653103298611
 30
0.0
 10
161.9442925347222
 20
472.461083984375
 30
0.0
 10
161.9091525607639
 20
472.6584879557291
 30
0.0
 10
161.8199245876736
 20
472.7732096354166
 30
0.0
 10
161.7086480034722
 20
472.9323730468749
 30
0.0
 10
161.5904812282986
 20
473.1108289930555
 30
0.0
 10
161.5491400824653
 20
473.2320963541666
 30
0.0
 10
161.3100504557291
 20
473.2541449652778
 30
0.0
 10
161.0265190972222
 20
473.279638671875
 30
0.0
 10
160.7398871527778
 20
473.2637912326388
 30
0.0
 10
160.4563557942708
 20
473.267236328125
 30
0.0
 10
160.2172661675347
 20
473.267236328125
 30
0.0
 10
159.9781765407986
 20
473.3278700086805
 30
0.0
 10
159.7680257161458
 20
473.4298448350694
 30
0.0
 10
159.6498589409722
 20
473.4870334201389
 30
0.0
 10
159.5447835286458
 20
473.5828070746527
 30
0.0
 10
159.4204155815972
 20
473.620703125
 30
0.0
 10
159.2485053168403
 20
473.6751356336805
 30
0.0
 10
159.0986436631944
 20
473.6654893663194
 30
0.0
 10
158.9649739583333
 20
473.566615125868
 30
0.0
 10
158.8309597439236
 20
473.4677408854166
 30
0.0
 10
158.6621500651042
 20
473.4422471788194
 30
0.0
 10
158.534681532118
 20
473.3402723524305
 30
0.0
  0
SPLINE
  5
84
330
A
100
AcDbEntity
  8
LAYER_1
 62
     7
100
AcDbSpline
210
0.0
220
0.0
230
1.0
 70
    11
 71
     3
 72
    50
 73
    46
 74
     0
 42
0.000000001
 43
0.00000001
 40
0.0
 40
0.0
 40
0.0
 40
0.0
 40
1.0
 40
1.0
 40
1.0
 40
2.0
 40
2.0
 40
2.0
 40
3.0
 40
3.0
 40
3.0
 40
4.0
 40
4.0
 40
4.0
 40
5.0
 40
5.0
 40
5.0
 40
6.0
 40
6.0
 40
6.0
 40
7.0
 40
7.0
 40
7.0
 40
8.0
 40
8.0
 40
8.0
 40
9.0
 40
9.0
 40
9.0
 40
10.0
 40
10.0
 40
10.0
 40
11.0
 40
11.0
 40
11.0
 40
12.0
 40
12.0
 40
12.0
 40
13.0
 40
13.0
 40
13.0
 40
14.0
 40
14.0
 40
14.0
 40
15.0
 40
15.0
 40
15.0
 40
15.0
 10
164.4140814887153
 20
471.7314127604166
 30
0.0
 10
164.3183078342014
 20
471.54951171875
 30
0.0
 10
164.3596489800347
 20
471.2690809461805
 30
0.0
 10
164.3596489800347
 20
471.0778781467013
 30
0.0
 10
164.3596489800347
 20
470.8835747612847
 30
0.0
 10
164.3310546875
 20
470.6765245225694
 30
0.0
 10
164.3727403428819
 20
470.4884223090277
 30
0.0
 10
164.4361300998264
 20
470.2431315104166
 30
0.0
 10
164.5925374348958
 20
470.1473578559027
 30
0.0
 10
164.8440294053819
 20
470.1091172960069
 30
0.0
 10
165.083119032118
 20
470.0805230034722
 30
0.0
 10
165.2519287109375
 20
470.0326361762152
 30
0.0
 10
165.4496771918403
 20
469.9020670572916
 30
0.0
 10
165.589892578125
 20
469.8031928168402
 30
0.0
 10
165.7428548177083
 20
469.7842447916667
 30
0.0
 10
165.9085639105903
 20
469.7429036458333
 30
0.0
 10
166.0742730034722
 20
469.7012179904514
 30
0.0
 10
166.2113878038194
 20
469.548255750868
 30
0.0
 10
166.3991455078125
 20
469.6119900173611
 30
0.0
 10
166.5745008680555
 20
469.6664225260416
 30
0.0
 10
166.6957682291666
 20
469.8286865234375
 30
0.0
 10
166.7880967881944
 20
469.9751030815972
 30
0.0
 10
166.8676784939236
 20
470.0901692708333
 30
0.0
 10
166.9221110026041
 20
470.2272840711805
 30
0.0
 10
167.0175401475694
 20
470.3320149739583
 30
0.0
 10
167.0971218532986
 20
470.4150417751736
 30
0.0
 10
167.1863498263889
 20
470.4822211371527
 30
0.0
 10
167.2628309461805
 20
470.5745496961805
 30
0.0
 10
167.4571343315972
 20
470.8229410807292
 30
0.0
 10
167.3265652126736
 20
471.3583089192708
 30
0.0
 10
167.1322618272569
 20
471.5877522786458
 30
0.0
 10
166.9920464409722
 20
471.7503607855903
 30
0.0
 10
166.8104899088542
 20
471.8361436631944
 30
0.0
 10
166.62548828125
 20
471.9446641710069
 30
0.0
 10
166.4535780164931
 20
472.0400933159722
 30
0.0
 10
166.2847683376736
 20
472.1710069444444
 30
0.0
 10
166.106312391493
 20
472.2695366753472
 30
0.0
 10
165.9023627387153
 20
472.3780571831597
 30
0.0
 10
165.5674994574653
 20
472.531019422743
 30
0.0
 10
165.3284098307292
 20
472.5375651041666
 30
0.0
 10
165.0989664713541
 20
472.5468668619791
 30
0.0
 10
164.9301567925347
 20
472.2826280381944
 30
0.0
 10
164.783740234375
 20
472.1393120659722
 30
0.0
 10
164.6562717013889
 20
472.0083984375
 30
0.0
 10
164.5002088758681
 20
471.890576171875
 30
0.0
 10
164.4140814887153
 20
471.7314127604166
 30
0.0
  0
SPLINE
  5
83
330
A
100
AcDbEntity
  8
LAYER_1
 62
     7
100
AcDbSpline
210
0.0
220
0.0
230
1.0
 70
    11
 71
     3
 72
    65
 73
    61
 74
     0
 42
0.000000001
 43
0.00000001
 40
0.0
 40
0.0
 40
0.0
 40
0.0
 40
1.0
 40
1.0
 40
1.0
 40
2.0
 40
2.0
 40
2.0
 40
3.0
 40
3.0
 40
3.0
 40
4.0
 40
4.0
 40
4.0
 40
5.0
 40
5.0
 40
5.0
 40
6.0
 40
6.0
 40
6.0
 40
7.0
 40
7.0
 40
7.0
 40
8.0
 40
8.0
 40
8.0
 40
9.0
 40
9.0
 40
9.0
 40
10.0
 40
10.0
 40
10.0
 40
11.0
 40
11.0
 40
11.0
 40
12.0
 40
12.0
 40
12.0
 40
13.0
 40
13.0
 40
13.0
 40
14.0
 40
14.0
 40
14.0
 40
15.0
 40
15.0
 40
15.0
 40
16.0
 40
16.0
 40
16.0
 40
17.0
 40
17.0
 40
17.0
 40
18.0
 40
18.0
 40
18.0
 40
19.0
 40
19.0
 40
19.0
 40
20.0
 40
20.0
 40
20.0
 40
20.0
 10
170.75546875
 20
471.2849283854166
 30
0.0
 10
170.8543429904514
 20
471.4668294270833
 30
0.0
 10
171.1823160807292
 20
471.7472601996527
 30
0.0
 10
171.3928114149305
 20
471.7851562499999
 30
0.0
 10
171.6033067491319
 20
471.8237413194444
 30
0.0
 10
171.8613444010417
 20
471.6642333984374
 30
0.0
 10
171.9857123480903
 20
471.5047254774305
 30
0.0
 10
172.0491021050347
 20
471.42548828125
 30
0.0
 10
172.1035346137153
 20
471.3424614800347
 30
0.0
 10
172.1734700520833
 20
471.2628797743055
 30
0.0
 10
172.2754448784722
 20
471.1416124131944
 30
0.0
 10
172.3233317057291
 20
471.0175889756944
 30
0.0
 10
172.4029134114583
 20
470.8804741753472
 30
0.0
 10
172.4697482638889
 20
470.7750542534722
 30
0.0
 10
172.5527750651042
 20
470.743359375
 30
0.0
 10
172.6482042100694
 20
470.6634331597222
 30
0.0
 10
172.7598253038194
 20
470.5680040147569
 30
0.0
 10
172.7694715711805
 20
470.5359646267361
 30
0.0
 10
172.7756727430555
 20
470.3768012152777
 30
0.0
 10
172.7756727430555
 20
470.2748263888889
 30
0.0
 10
172.7694715711805
 20
470.188699001736
 30
0.0
 10
172.7408772786458
 20
470.0901692708333
 30
0.0
 10
172.7119384765625
 20
470.007142469618
 30
0.0
 10
172.6578504774305
 20
469.9561550564235
 30
0.0
 10
172.6323567708333
 20
469.8827745225694
 30
0.0
 10
172.6006618923611
 20
469.7842447916667
 30
0.0
 10
172.6389024522569
 20
469.6664225260416
 30
0.0
 10
172.6389024522569
 20
469.5672037760417
 30
0.0
 10
172.6354573567708
 20
469.4717746310764
 30
0.0
 10
172.6261555989583
 20
469.3794460720486
 30
0.0
 10
172.6261555989583
 20
469.2805718315972
 30
0.0
 10
172.6261555989583
 20
469.1214084201388
 30
0.0
 10
172.6516493055555
 20
468.9298611111111
 30
0.0
 10
172.597216796875
 20
468.7768988715277
 30
0.0
 10
172.536927625868
 20
468.6239366319444
 30
0.0
 10
172.4060139973958
 20
468.5984429253472
 30
0.0
 10
172.2564968532986
 20
468.5605468749999
 30
0.0
 10
172.1000895182291
 20
468.5254069010416
 30
0.0
 10
171.9567735460069
 20
468.4709743923611
 30
0.0
 10
171.8134575737847
 20
468.4075846354166
 30
0.0
 10
171.6319010416667
 20
468.3245578342014
 30
0.0
 10
171.5106336805555
 20
468.3056098090277
 30
0.0
 10
171.3483696831597
 20
468.4520263671874
 30
0.0
 10
171.1347737630208
 20
468.6432291666666
 30
0.0
 10
170.8860378689236
 20
468.7930908203124
 30
0.0
 10
170.6693413628472
 20
468.9808485243055
 30
0.0
 10
170.5325710720486
 20
469.0959147135416
 30
0.0
 10
170.3796088324653
 20
469.1403564453125
 30
0.0
 10
170.2900363498264
 20
469.3122667100694
 30
0.0
 10
170.2266465928819
 20
469.4528266059027
 30
0.0
 10
170.1880615234375
 20
469.6216362847222
 30
0.0
 10
170.1691134982639
 20
469.7711534288194
 30
0.0
 10
170.1405192057292
 20
470.0005967881944
 30
0.0
 10
170.2521402994792
 20
470.3099663628472
 30
0.0
 10
170.3572157118055
 20
470.5104709201389
 30
0.0
 10
170.4113037109375
 20
470.6189914279514
 30
0.0
 10
170.4939860026041
 20
470.7082194010416
 30
0.0
 10
170.5515190972222
 20
470.8101942274305
 30
0.0
 10
170.6407470703125
 20
470.9569552951389
 30
0.0
 10
170.6789876302083
 20
471.1354112413194
 30
0.0
 10
170.75546875
 20
471.2849283854166
 30
0.0
  0
SPLINE
  5
82
330
A
100
AcDbEntity
  8
LAYER_1
 62
     7
100
AcDbSpline
210
0.0
220
0.0
230
1.0
 70
    11
 71
     3
 72
    35
 73
    31
 74
     0
 42
0.000000001
 43
0.00000001
 40
0.0
 40
0.0
 40
0.0
 40
0.0
 40
1.0
 40
1.0
 40
1.0
 40
2.0
 40
2.0
 40
2.0
 40
3.0
 40
3.0
 40
3.0
 40
4.0
 40
4.0
 40
4.0
 40
5.0
 40
5.0
 40
5.0
 40
6.0
 40
6.0
 40
6.0
 40
7.0
 40
7.0
 40
7.0
 40
8.0
 40
8.0
 40
8.0
 40
9.0
 40
9.0
 40
9.0
 40
10.0
 40
10.0
 40
10.0
 40
10.0
 10
177.3297444661458
 20
470.348206922743
 30
0.0
 10
177.1605902777778
 20
470.1762966579861
 30
0.0
 10
177.2370713975694
 20
469.8414333767361
 30
0.0
 10
177.2370713975694
 20
469.6247368706597
 30
0.0
 10
177.2370713975694
 20
469.1785970052083
 30
0.0
 10
177.2625651041666
 20
468.7390028211805
 30
0.0
 10
177.2625651041666
 20
468.2990641276041
 30
0.0
 10
177.2656656901042
 20
468.0727213541666
 30
0.0
 10
177.1891845703125
 20
467.7509494357639
 30
0.0
 10
177.4696153428819
 20
467.7034071180555
 30
0.0
 10
177.7214518229167
 20
467.65517578125
 30
0.0
 10
178.0242757161458
 20
467.7382025824652
 30
0.0
 10
178.2409722222222
 20
467.872216796875
 30
0.0
 10
178.3780870225694
 20
467.9583441840277
 30
0.0
 10
178.5754909939236
 20
468.0186333550347
 30
0.0
 10
178.6550726996527
 20
468.1781412760416
 30
0.0
 10
178.744300672743
 20
468.3689995659722
 30
0.0
 10
178.6040852864583
 20
468.859925672743
 30
0.0
 10
178.5183024088541
 20
469.0638753255208
 30
0.0
 10
178.4163275824653
 20
469.2933186848958
 30
0.0
 10
178.3078070746528
 20
469.5258626302083
 30
0.0
 10
178.2185791015625
 20
469.7649522569444
 30
0.0
 10
178.1644911024305
 20
469.9051676432291
 30
0.0
 10
178.0783637152778
 20
470.007142469618
 30
0.0
 10
178.0049831814236
 20
470.1346110026041
 30
0.0
 10
177.9574408637152
 20
470.2272840711805
 30
0.0
 10
177.9605414496528
 20
470.3671549479166
 30
0.0
 10
177.8902615017361
 20
470.4501817491319
 30
0.0
 10
177.756591796875
 20
470.6124457465277
 30
0.0
 10
177.4441216362847
 20
470.4629286024305
 30
0.0
 10
177.3297444661458
 20
470.348206922743
 30
0.0
  0
SPLINE
  5
81
330
A
100
AcDbEntity
  8
LAYER_1
 62
     7
100
AcDbSpline
210
0.0
220
0.0
230
1.0
 70
    11
 71
     3
 72
    44
 73
    40
 74
     0
 42
0.000000001
 43
0.00000001
 40
0.0
 40
0.0
 40
0.0
 40
0.0
 40
1.0
 40
1.0
 40
1.0
 40
2.0
 40
2.0
 40
2.0
 40
3.0
 40
3.0
 40
3.0
 40
4.0
 40
4.0
 40
4.0
 40
5.0
 40
5.0
 40
5.0
 40
6.0
 40
6.0
 40
6.0
 40
7.0
 40
7.0
 40
7.0
 40
8.0
 40
8.0
 40
8.0
 40
9.0
 40
9.0
 40
9.0
 40
10.0
 40
10.0
 40
10.0
 40
11.0
 40
11.0
 40
11.0
 40
12.0
 40
12.0
 40
12.0
 40
13.0
 40
13.0
 40
13.0
 40
13.0
 10
167.9766547309028
 20
471.096826171875
 30
0.0
 10
167.7248182508681
 20
470.9438639322916
 30
0.0
 10
167.5942491319444
 20
470.8356879340278
 30
0.0
 10
167.4826280381944
 20
470.5552571614583
 30
0.0
 10
167.377552625868
 20
470.2941189236111
 30
0.0
 10
167.1322618272569
 20
469.6088894314236
 30
0.0
 10
167.5208685980903
 20
469.4624728732638
 30
0.0
 10
167.7027696397569
 20
469.3952935112847
 30
0.0
 10
167.9194661458333
 20
469.4273328993055
 30
0.0
 10
168.1106689453125
 20
469.4080403645833
 30
0.0
 10
168.3239203559028
 20
469.3794460720486
 30
0.0
 10
168.5440619574653
 20
469.3539523654513
 30
0.0
 10
168.7607584635417
 20
469.3377604166666
 30
0.0
 10
169.0728841145833
 20
469.3122667100694
 30
0.0
 10
169.4043023003472
 20
469.248876953125
 30
0.0
 10
169.7005805121528
 20
469.1531032986111
 30
0.0
 10
169.8600884331597
 20
469.0959147135416
 30
0.0
 10
170.0192518446181
 20
469.0480278862847
 30
0.0
 10
170.1150254991319
 20
469.2357855902777
 30
0.0
 10
170.1722140842014
 20
469.3539523654513
 30
0.0
 10
170.1501654730903
 20
469.5417100694444
 30
0.0
 10
170.1467203776041
 20
469.6757242838542
 30
0.0
 10
170.1405192057292
 20
469.8414333767361
 30
0.0
 10
170.1022786458333
 20
470.0295355902778
 30
0.0
 10
170.0543918185764
 20
470.1952446831597
 30
0.0
 10
170.0192518446181
 20
470.3258138020833
 30
0.0
 10
169.9462158203125
 20
470.4277886284722
 30
0.0
 10
169.8855821397569
 20
470.5425103081597
 30
0.0
 10
169.7932535807292
 20
470.7209662543402
 30
0.0
 10
169.7643147786458
 20
470.9156141493055
 30
0.0
 10
169.6275444878472
 20
471.0651312934027
 30
0.0
 10
169.4904296875
 20
471.2180935329861
 30
0.0
 10
169.2926812065972
 20
471.2563340928819
 30
0.0
 10
169.1462646484375
 20
471.3772569444444
 30
0.0
 10
169.0284423828125
 20
471.4668294270833
 30
0.0
 10
168.9709092881944
 20
471.54951171875
 30
0.0
 10
168.8148464626736
 20
471.543310546875
 30
0.0
 10
168.46103515625
 20
471.5240180121527
 30
0.0
 10
168.2636311848958
 20
471.2628797743055
 30
0.0
 10
167.9766547309028
 20
471.096826171875
 30
0.0
  0
SPLINE
  5
80
330
A
100
AcDbEntity
  8
LAYER_1
 62
     7
100
AcDbSpline
210
0.0
220
0.0
230
1.0
 70
    11
 71
     3
 72
    77
 73
    73
 74
     0
 42
0.000000001
 43
0.00000001
 40
0.0
 40
0.0
 40
0.0
 40
0.0
 40
1.0
 40
1.0
 40
1.0
 40
2.0
 40
2.0
 40
2.0
 40
3.0
 40
3.0
 40
3.0
 40
4.0
 40
4.0
 40
4.0
 40
5.0
 40
5.0
 40
5.0
 40
6.0
 40
6.0
 40
6.0
 40
7.0
 40
7.0
 40
7.0
 40
8.0
 40
8.0
 40
8.0
 40
9.0
 40
9.0
 40
9.0
 40
10.0
 40
10.0
 40
10.0
 40
11.0
 40
11.0
 40
11.0
 40
12.0
 40
12.0
 40
12.0
 40
13.0
 40
13.0
 40
13.0
 40
14.0
 40
14.0
 40
14.0
 40
15.0
 40
15.0
 40
15.0
 40
16.0
 40
16.0
 40
16.0
 40
17.0
 40
17.0
 40
17.0
 40
18.0
 40
18.0
 40
18.0
 40
19.0
 40
19.0
 40
19.0
 40
20.0
 40
20.0
 40
20.0
 40
21.0
 40
21.0
 40
21.0
 40
22.0
 40
22.0
 40
22.0
 40
23.0
 40
23.0
 40
23.0
 40
24.0
 40
24.0
 40
24.0
 40
24.0
 10
173.8973958333333
 20
472.5565131293403
 30
0.0
 10
173.8402072482639
 20
472.3970052083333
 30
0.0
 10
173.7892198350694
 20
472.24404296875
 30
0.0
 10
173.7254855685764
 20
472.0910807291666
 30
0.0
 10
173.6713975694444
 20
471.9767035590277
 30
0.0
 10
173.5949164496528
 20
471.890576171875
 30
0.0
 10
173.5311821831597
 20
471.778955078125
 30
0.0
 10
173.460902235243
 20
471.6576877170139
 30
0.0
 10
173.4257622612847
 20
471.5112711588541
 30
0.0
 10
173.3589274088542
 20
471.3772569444444
 30
0.0
 10
173.2762451171875
 20
471.2373860677083
 30
0.0
 10
173.2090657552083
 20
471.0492838541666
 30
0.0
 10
173.1615234375
 20
470.8994222005208
 30
0.0
 10
173.0943440755208
 20
470.6765245225694
 30
0.0
 10
173.0402560763889
 20
470.4980685763888
 30
0.0
 10
172.9224338107639
 20
470.2941189236111
 30
0.0
 10
172.7408772786458
 20
469.9816487630208
 30
0.0
 10
172.6864447699652
 20
469.720166015625
 30
0.0
 10
172.70263671875
 20
469.3539523654513
 30
0.0
 10
172.708837890625
 20
469.2168375651041
 30
0.0
 10
172.7215847439236
 20
469.0063422309028
 30
0.0
 10
172.7980658637153
 20
468.8919650607638
 30
0.0
 10
172.9158881293403
 20
468.7069634331597
 30
0.0
 10
173.3365342881944
 20
468.7675971137152
 30
0.0
 10
173.5246365017361
 20
468.7675971137152
 30
0.0
 10
173.919788953993
 20
468.7610514322917
 30
0.0
 10
174.308740234375
 20
468.8120388454861
 30
0.0
 10
174.6942464192708
 20
468.678369140625
 30
0.0
 10
174.9395372178819
 20
468.5984429253472
 30
0.0
 10
175.184828016493
 20
468.5030137803819
 30
0.0
 10
175.408070203993
 20
468.3820909288194
 30
0.0
 10
175.6757541232639
 20
468.2322292751736
 30
0.0
 10
176.0516140407986
 20
468.0696207682291
 30
0.0
 10
176.3609836154514
 20
468.2098361545138
 30
0.0
 10
176.5773356119792
 20
468.3056098090277
 30
0.0
 10
176.5997287326389
 20
468.6115342881944
 30
0.0
 10
176.6348687065972
 20
468.8185845269097
 30
0.0
 10
176.666908094618
 20
468.9939398871527
 30
0.0
 10
176.673109266493
 20
469.1723958333333
 30
0.0
 10
176.7082492404514
 20
469.3474066840278
 30
0.0
 10
176.7557915581597
 20
469.5672037760417
 30
0.0
 10
176.8067789713542
 20
469.7904459635416
 30
0.0
 10
176.8198703342014
 20
470.0198893229166
 30
0.0
 10
176.8357177734375
 20
470.2941189236111
 30
0.0
 10
176.8929063585069
 20
470.5552571614583
 30
0.0
 10
176.9693874782986
 20
470.8229410807292
 30
0.0
 10
177.014173719618
 20
470.994851345486
 30
0.0
 10
177.1065022786458
 20
471.1609049479166
 30
0.0
 10
177.1512885199652
 20
471.335915798611
 30
0.0
 10
177.1957302517361
 20
471.5178168402778
 30
0.0
 10
177.1988308376736
 20
471.6897271050347
 30
0.0
 10
177.1957302517361
 20
471.8712836371527
 30
0.0
 10
177.1957302517361
 20
472.0531846788194
 30
0.0
 10
177.1161485460069
 20
472.0848795572916
 30
0.0
 10
176.9821343315972
 20
472.1902994791666
 30
0.0
 10
176.8260715060764
 20
472.3081217447916
 30
0.0
 10
176.673109266493
 20
472.3970052083333
 30
0.0
 10
176.5328938802083
 20
472.5375651041666
 30
0.0
 10
176.4085259331597
 20
472.6519422743055
 30
0.0
 10
176.2714111328125
 20
472.7349690755208
 30
0.0
 10
176.1218939887153
 20
472.8114501953124
 30
0.0
 10
175.9082980685764
 20
472.9134250217014
 30
0.0
 10
175.7105495876736
 20
472.9134250217014
 30
0.0
 10
175.4845513237847
 20
472.9454644097222
 30
0.0
 10
175.3250434027778
 20
472.9737141927083
 30
0.0
 10
175.1593343098958
 20
473.0281467013888
 30
0.0
 10
175.0129177517361
 20
473.0729329427083
 30
0.0
 10
174.7865749782986
 20
473.1428683810764
 30
0.0
 10
174.5285373263889
 20
473.3340711805555
 30
0.0
 10
174.2863471137153
 20
473.2861843532986
 30
0.0
 10
174.0345106336805
 20
473.2382975260416
 30
0.0
 10
173.9707763671875
 20
472.760462782118
 30
0.0
 10
173.8973958333333
 20
472.5565131293403
 30
0.0
  0
SPLINE
  5
7F
330
A
100
AcDbEntity
  8
LAYER_1
 62
     7
100
AcDbSpline
210
0.0
220
0.0
230
1.0
 70
    11
 71
     3
 72
   149
 73
   145
 74
     0
 42
0.000000001
 43
0.00000001
 40
0.0
 40
0.0
 40
0.0
 40
0.0
 40
1.0
 40
1.0
 40
1.0
 40
2.0
 40
2.0
 40
2.0
 40
3.0
 40
3.0
 40
3.0
 40
4.0
 40
4.0
 40
4.0
 40
5.0
 40
5.0
 40
5.0
 40
6.0
 40
6.0
 40
6.0
 40
7.0
 40
7.0
 40
7.0
 40
8.0
 40
8.0
 40
8.0
 40
9.0
 40
9.0
 40
9.0
 40
10.0
 40
10.0
 40
10.0
 40
11.0
 40
11.0
 40
11.0
 40
12.0
 40
12.0
 40
12.0
 40
13.0
 40
13.0
 40
13.0
 40
14.0
 40
14.0
 40
14.0
 40
15.0
 40
15.0
 40
15.0
 40
16.0
 40
16.0
 40
16.0
 40
17.0
 40
17.0
 40
17.0
 40
18.0
 40
18.0
 40
18.0
 40
19.0
 40
19.0
 40
19.0
 40
20.0
 40
20.0
 40
20.0
 40
21.0
 40
21.0
 40
21.0
 40
22.0
 40
22.0
 40
22.0
 40
23.0
 40
23.0
 40
23.0
 40
24.0
 40
24.0
 40
24.0
 40
25.0
 40
25.0
 40
25.0
 40
26.0
 40
26.0
 40
26.0
 40
27.0
 40
27.0
 40
27.0
 40
28.0
 40
28.0
 40
28.0
 40
29.0
 40
29.0
 40
29.0
 40
30.0
 40
30.0
 40
30.0
 40
31.0
 40
31.0
 40
31.0
 40
32.0
 40
32.0
 40
32.0
 40
33.0
 40
33.0
 40
33.0
 40
34.0
 40
34.0
 40
34.0
 40
35.0
 40
35.0
 40
35.0
 40
36.0
 40
36.0
 40
36.0
 40
37.0
 40
37.0
 40
37.0
 40
38.0
 40
38.0
 40
38.0
 40
39.0
 40
39.0
 40
39.0
 40
40.0
 40
40.0
 40
40.0
 40
41.0
 40
41.0
 40
41.0
 40
42.0
 40
42.0
 40
42.0
 40
43.0
 40
43.0
 40
43.0
 40
44.0
 40
44.0
 40
44.0
 40
45.0
 40
45.0
 40
45.0
 40
46.0
 40
46.0
 40
46.0
 40
47.0
 40
47.0
 40
47.0
 40
48.0
 40
48.0
 40
48.0
 40
48.0
 10
180.4365315755208
 20
473.620703125
 30
0.0
 10
180.3569498697917
 20
473.5828070746527
 30
0.0
 10
180.2901150173611
 20
473.5125271267361
 30
0.0
 10
180.2198350694444
 20
473.4615397135416
 30
0.0
 10
180.0734185112847
 20
473.3657660590277
 30
0.0
 10
179.9235568576389
 20
473.2541449652778
 30
0.0
 10
179.767494032118
 20
473.1749077690972
 30
0.0
 10
179.6017849392361
 20
473.0918809678819
 30
0.0
 10
179.4233289930555
 20
473.0918809678819
 30
0.0
 10
179.244873046875
 20
473.0918809678819
 30
0.0
 10
179.1683919270833
 20
473.0918809678819
 30
0.0
 10
179.0884657118055
 20
473.0729329427083
 30
0.0
 10
179.0119845920139
 20
473.0791341145833
 30
0.0
 10
178.910009765625
 20
473.0984266493055
 30
0.0
 10
178.8242268880208
 20
473.1363226996527
 30
0.0
 10
178.7157063802083
 20
473.1494140624999
 30
0.0
 10
178.5214029947917
 20
473.165261501736
 30
0.0
 10
178.390833875868
 20
473.1428683810764
 30
0.0
 10
178.2440728081597
 20
472.9992078993055
 30
0.0
 10
178.1486436631944
 20
472.9006781684027
 30
0.0
 10
178.0783637152778
 20
472.7794108072916
 30
0.0
 10
178.1324517144097
 20
472.6395399305555
 30
0.0
 10
178.1868842230903
 20
472.5055257161458
 30
0.0
 10
178.3873887803819
 20
472.3970052083333
 30
0.0
 10
178.4893636067708
 20
472.2950303819444
 30
0.0
 10
178.6392252604167
 20
472.1517144097222
 30
0.0
 10
178.7253526475694
 20
472.0531846788194
 30
0.0
 10
178.7666937934028
 20
471.8299424913194
 30
0.0
 10
178.8145806206597
 20
471.5653591579861
 30
0.0
 10
178.6871120876736
 20
471.2945746527777
 30
0.0
 10
178.8335286458333
 20
471.0430826822916
 30
0.0
 10
178.9007080078125
 20
470.9280164930555
 30
0.0
 10
178.9992377387153
 20
470.8549804687499
 30
0.0
 10
179.0884657118055
 20
470.7561062282986
 30
0.0
 10
179.2159342447916
 20
470.6124457465277
 30
0.0
 10
179.2765679253472
 20
470.5614583333333
 30
0.0
 10
179.2765679253472
 20
470.348206922743
 30
0.0
 10
179.2765679253472
 20
470.1824978298611
 30
0.0
 10
179.2383273654514
 20
470.0260904947916
 30
0.0
 10
179.2321261935764
 20
469.8607259114583
 30
0.0
 10
179.2193793402778
 20
469.6471299913194
 30
0.0
 10
179.0950113932292
 20
469.4907226562499
 30
0.0
 10
179.0567708333333
 20
469.2867730034722
 30
0.0
 10
179.0154296875
 20
469.0800672743055
 30
0.0
 10
178.8752143012153
 20
468.9491536458333
 30
0.0
 10
178.7794406467014
 20
468.7768988715277
 30
0.0
 10
178.6040852864583
 20
468.4647732204861
 30
0.0
 10
178.6647189670139
 20
468.0251790364583
 30
0.0
 10
178.8717692057292
 20
467.7509494357639
 30
0.0
 10
179.0502251519097
 20
467.5215060763888
 30
0.0
 10
179.3850884331597
 20
467.5342529296875
 30
0.0
 10
179.6493272569444
 20
467.4898111979167
 30
0.0
 10
179.9042643229166
 20
467.4512261284722
 30
0.0
 10
180.1371527777778
 20
467.365443250868
 30
0.0
 10
180.3696967230903
 20
467.2603678385416
 30
0.0
 10
180.4747721354167
 20
467.2155815972222
 30
0.0
 10
180.5608995225694
 20
467.1425455729166
 30
0.0
 10
180.6373806423611
 20
467.0498725043402
 30
0.0
 10
180.7107611762153
 20
466.96064453125
 30
0.0
 10
180.7328097873264
 20
466.8490234375
 30
0.0
 10
180.8444308810764
 20
466.788734266493
 30
0.0
 10
180.9815456814236
 20
466.7122531467014
 30
0.0
 10
181.1758490668403
 20
466.7442925347222
 30
0.0
 10
181.3257107204861
 20
466.725
 30
0.0
 10
181.497620985243
 20
466.6995062934027
 30
0.0
 10
181.6795220269097
 20
466.7215549045138
 30
0.0
 10
181.8579779730903
 20
466.6933051215277
 30
0.0
 10
181.9916476779514
 20
466.6678114149305
 30
0.0
 10
182.0936225043403
 20
466.6547200520833
 30
0.0
 10
182.233837890625
 20
466.6678114149305
 30
0.0
 10
182.8201931423611
 20
466.7312011718749
 30
0.0
 10
183.4254964192708
 20
466.6102783203124
 30
0.0
 10
184.0087510850694
 20
466.6102783203124
 30
0.0
 10
184.3305230034722
 20
466.6168240017361
 30
0.0
 10
184.7001817491319
 20
466.6037326388889
 30
0.0
 10
185.0095513237847
 20
466.6867594401041
 30
0.0
 10
185.286537000868
 20
466.7566948784722
 30
0.0
 10
185.5321723090278
 20
466.8841634114583
 30
0.0
 10
185.7902099609375
 20
467.0019856770833
 30
0.0
 10
186.0640950520833
 20
467.1294542100694
 30
0.0
 10
186.3924126519097
 20
467.1328993055555
 30
0.0
 10
186.59326171875
 20
467.3974826388888
 30
0.0
 10
186.7334771050347
 20
467.5852403428819
 30
0.0
 10
186.7651719835069
 20
467.8656711154513
 30
0.0
 10
186.8829942491319
 20
468.0630750868055
 30
0.0
 10
187.0425021701389
 20
468.3311035156249
 30
0.0
 10
187.0648952907986
 20
468.6239366319444
 30
0.0
 10
187.227503797743
 20
468.8854193793402
 30
0.0
 10
187.281591796875
 20
468.9746473524305
 30
0.0
 10
187.3418809678819
 20
469.0735215928819
 30
0.0
 10
187.3642740885417
 20
469.1785970052083
 30
0.0
 10
187.4025146484375
 20
469.372900390625
 30
0.0
 10
187.3642740885417
 20
469.6023437499999
 30
0.0
 10
187.3739203559028
 20
469.8031928168402
 30
0.0
 10
187.3835666232639
 20
469.9943956163194
 30
0.0
 10
187.4025146484375
 20
470.2017903645833
 30
0.0
 10
187.3229329427083
 20
470.3768012152777
 30
0.0
 10
187.2591986762152
 20
470.5235622829861
 30
0.0
 10
187.0490478515625
 20
470.6189914279514
 30
0.0
 10
186.9181342230902
 20
470.6889268663194
 30
0.0
 10
186.7906656901042
 20
470.7561062282986
 30
0.0
 10
186.663197157118
 20
470.8229410807292
 30
0.0
 10
186.5357286241319
 20
470.8866753472222
 30
0.0
 10
186.3317789713541
 20
470.9824490017361
 30
0.0
 10
186.1216281467014
 20
471.0620307074652
 30
0.0
 10
185.904931640625
 20
471.1416124131944
 30
0.0
 10
185.8157036675347
 20
471.1733072916666
 30
0.0
 10
185.7264756944444
 20
471.1988009982638
 30
0.0
 10
185.6468939887152
 20
471.2563340928819
 30
0.0
 10
185.557666015625
 20
471.3104220920138
 30
0.0
 10
185.4904866536458
 20
471.3903483072916
 30
0.0
 10
185.3950575086805
 20
471.4347900390625
 30
0.0
 10
185.3120307074653
 20
471.4668294270833
 30
0.0
 10
185.2262478298611
 20
471.4985243055555
 30
0.0
 10
185.1401204427083
 20
471.5302191840277
 30
0.0
 10
184.9168782552083
 20
471.6228922526041
 30
0.0
 10
184.7163736979167
 20
471.7596625434027
 30
0.0
 10
184.5155246310764
 20
471.890576171875
 30
0.0
 10
184.3243218315972
 20
472.014599609375
 30
0.0
 10
184.1234727647569
 20
472.0848795572916
 30
0.0
 10
183.9322699652778
 20
472.2061469184027
 30
0.0
 10
183.8079020182292
 20
472.2760823567708
 30
0.0
 10
183.674232313368
 20
472.3270697699652
 30
0.0
 10
183.5595106336805
 20
472.4100965711805
 30
0.0
 10
183.4892306857639
 20
472.4514377170138
 30
0.0
 10
183.4351426866319
 20
472.5182725694444
 30
0.0
 10
183.3652072482639
 20
472.5565131293403
 30
0.0
 10
183.1898518880208
 20
472.6584879557291
 30
0.0
 10
182.9731553819444
 20
472.6932834201389
 30
0.0
 10
182.7915988498264
 20
472.7987033420138
 30
0.0
 10
182.6544840494792
 20
472.8751844618055
 30
0.0
 10
182.5463080512152
 20
472.9675130208333
 30
0.0
 10
182.4219401041667
 20
473.0536404079861
 30
0.0
 10
182.2527859157986
 20
473.1749077690972
 30
0.0
 10
182.1032687717014
 20
473.1938557942708
 30
0.0
 10
181.9723551432292
 20
473.3657660590277
 30
0.0
 10
181.8131917317708
 20
473.5697157118055
 30
0.0
 10
181.615443250868
 20
473.620703125
 30
0.0
 10
181.3701524522569
 20
473.6847819010416
 30
0.0
 10
181.2206353081597
 20
473.7226779513888
 30
0.0
 10
180.9973931206597
 20
473.8405002170139
 30
0.0
 10
180.8413302951389
 20
473.8088053385416
 30
0.0
 10
180.7231635199653
 20
473.7802110460069
 30
0.0
 10
180.5481526692708
 20
473.6813368055555
 30
0.0
 10
180.4365315755208
 20
473.620703125
 30
0.0
  0
SPLINE
  5
7E
330
A
100
AcDbEntity
  8
LAYER_1
 62
     7
100
AcDbSpline
210
0.0
220
0.0
230
1.0
 70
    11
 71
     3
 72
    32
 73
    28
 74
     0
 42
0.000000001
 43
0.00000001
 40
0.0
 40
0.0
 40
0.0
 40
0.0
 40
1.0
 40
1.0
 40
1.0
 40
2.0
 40
2.0
 40
2.0
 40
3.0
 40
3.0
 40
3.0
 40
4.0
 40
4.0
 40
4.0
 40
5.0
 40
5.0
 40
5.0
 40
6.0
 40
6.0
 40
6.0
 40
7.0
 40
7.0
 40
7.0
 40
8.0
 40
8.0
 40
8.0
 40
9.0
 40
9.0
 40
9.0
 40
9.0
 10
162.0462673611111
 20
472.1648057725694
 30
0.0
 10
162.0431667751736
 20
472.0276909722222
 30
0.0
 10
161.9856336805555
 20
471.7376139322917
 30
0.0
 10
162.1038004557292
 20
471.6228922526041
 30
0.0
 10
162.1833821614583
 20
471.543310546875
 30
0.0
 10
162.3618381076389
 20
471.5719048394097
 30
0.0
 10
162.4669135199653
 20
471.54951171875
 30
0.0
 10
162.6295220269097
 20
471.5302191840277
 30
0.0
 10
162.7600911458333
 20
471.4668294270833
 30
0.0
 10
162.8844590928819
 20
471.3710557725694
 30
0.0
 10
163.0053819444444
 20
471.2849283854166
 30
0.0
 10
163.0915093315972
 20
471.1829535590277
 30
0.0
 10
163.247572157118
 20
471.1894992404514
 30
0.0
 10
163.4229275173611
 20
471.1960449218749
 30
0.0
 10
163.3974338107639
 20
471.3490071614583
 30
0.0
 10
163.3912326388889
 20
471.4985243055555
 30
0.0
 10
163.3750406901042
 20
471.8044487847222
 30
0.0
 10
163.2541178385416
 20
472.0976264105902
 30
0.0
 10
163.0946099175347
 20
472.359109157986
 30
0.0
 10
162.9895345052083
 20
472.5244737413194
 30
0.0
 10
162.95439453125
 20
472.7187771267361
 30
0.0
 10
162.8079779730903
 20
472.8558919270833
 30
0.0
 10
162.6295220269097
 20
473.0185004340277
 30
0.0
 10
162.3842312282986
 20
473.0918809678819
 30
0.0
 10
162.2185221354167
 20
472.8944769965277
 30
0.0
 10
162.0176730685764
 20
472.6584879557291
 30
0.0
 10
162.0559136284722
 20
472.4514377170138
 30
0.0
 10
162.0462673611111
 20
472.1648057725694
 30
0.0
  0
SPLINE
  5
7D
330
A
100
AcDbEntity
  8
LAYER_1
 62
     7
100
AcDbSpline
210
0.0
220
0.0
230
1.0
 70
    11
 71
     3
 72
    38
 73
    34
 74
     0
 42
0.000000001
 43
0.00000001
 40
0.0
 40
0.0
 40
0.0
 40
0.0
 40
1.0
 40
1.0
 40
1.0
 40
2.0
 40
2.0
 40
2.0
 40
3.0
 40
3.0
 40
3.0
 40
4.0
 40
4.0
 40
4.0
 40
5.0
 40
5.0
 40
5.0
 40
6.0
 40
6.0
 40
6.0
 40
7.0
 40
7.0
 40
7.0
 40
8.0
 40
8.0
 40
8.0
 40
9.0
 40
9.0
 40
9.0
 40
10.0
 40
10.0
 40
10.0
 40
11.0
 40
11.0
 40
11.0
 40
11.0
 10
161.7021023220486
 20
471.1863986545138
 30
0.0
 10
161.641468641493
 20
471.0044976128472
 30
0.0
 10
161.6607611762153
 20
470.8101942274305
 30
0.0
 10
161.7244954427083
 20
470.63173828125
 30
0.0
 10
161.8040771484375
 20
470.4150417751736
 30
0.0
 10
161.8647108289931
 20
470.4501817491319
 30
0.0
 10
162.0783067491319
 20
470.3706000434028
 30
0.0
 10
162.142041015625
 20
470.348206922743
 30
0.0
 10
162.2185221354167
 20
470.3003200954861
 30
0.0
 10
162.2822564019097
 20
470.3099663628472
 30
0.0
 10
162.3552924262153
 20
470.3196126302083
 30
0.0
 10
162.3935329861111
 20
470.3895480685763
 30
0.0
 10
162.4479654947916
 20
470.4277886284722
 30
0.0
 10
162.559242078993
 20
470.4980685763888
 30
0.0
 10
162.6901557074653
 20
470.5235622829861
 30
0.0
 10
162.8110785590278
 20
470.5680040147569
 30
0.0
 10
162.9450927734375
 20
470.6189914279514
 30
0.0
 10
163.1393961588541
 20
470.6889268663194
 30
0.0
 10
163.247572157118
 20
470.7974473741319
 30
0.0
 10
163.4294731987847
 20
470.9824490017361
 30
0.0
 10
163.2827121310764
 20
471.0685763888889
 30
0.0
 10
163.1011555989583
 20
471.1671061197916
 30
0.0
 10
162.8779134114583
 20
471.2849283854166
 30
0.0
 10
162.6901557074653
 20
471.3903483072916
 30
0.0
 10
162.4445203993055
 20
471.4668294270833
 30
0.0
 10
162.3266981336805
 20
471.4985243055555
 30
0.0
 10
162.1292941623264
 20
471.5653591579861
 30
0.0
 10
162.0111273871528
 20
471.4985243055555
 30
0.0
 10
161.9570393880208
 20
471.4668294270833
 30
0.0
 10
161.91259765625
 20
471.4027506510416
 30
0.0
 10
161.8616102430555
 20
471.3583089192708
 30
0.0
 10
161.7944308810764
 20
471.3104220920138
 30
0.0
 10
161.7306966145833
 20
471.2690809461805
 30
0.0
 10
161.7021023220486
 20
471.1863986545138
 30
0.0
  0
SPLINE
  5
7C
330
A
100
AcDbEntity
  8
LAYER_1
 62
     7
100
AcDbSpline
210
0.0
220
0.0
230
1.0
 70
    11
 71
     3
 72
    44
 73
    40
 74
     0
 42
0.000000001
 43
0.00000001
 40
0.0
 40
0.0
 40
0.0
 40
0.0
 40
1.0
 40
1.0
 40
1.0
 40
2.0
 40
2.0
 40
2.0
 40
3.0
 40
3.0
 40
3.0
 40
4.0
 40
4.0
 40
4.0
 40
5.0
 40
5.0
 40
5.0
 40
6.0
 40
6.0
 40
6.0
 40
7.0
 40
7.0
 40
7.0
 40
8.0
 40
8.0
 40
8.0
 40
9.0
 40
9.0
 40
9.0
 40
10.0
 40
10.0
 40
10.0
 40
11.0
 40
11.0
 40
11.0
 40
12.0
 40
12.0
 40
12.0
 40
13.0
 40
13.0
 40
13.0
 40
13.0
 10
187.8328070746527
 20
468.7610514322917
 30
0.0
 10
187.6543511284722
 20
468.5984429253472
 30
0.0
 10
187.4855414496528
 20
468.4840657552083
 30
0.0
 10
187.2719455295139
 20
468.3755452473958
 30
0.0
 10
187.0011610243055
 20
468.2415310329861
 30
0.0
 10
186.7717176649305
 20
467.8656711154513
 30
0.0
 10
186.7972113715278
 20
467.5628472222222
 30
0.0
 10
186.8161593967014
 20
467.3719889322916
 30
0.0
 10
187.0139078776041
 20
467.1707953559027
 30
0.0
 10
187.2051106770833
 20
467.0977593315972
 30
0.0
 10
187.345326063368
 20
467.0498725043402
 30
0.0
 10
187.4280083550347
 20
467.1518473307291
 30
0.0
 10
187.5458306206597
 20
467.2155815972222
 30
0.0
 10
187.6608968098958
 20
467.2727701822917
 30
0.0
 10
187.7914659288194
 20
467.2727701822917
 30
0.0
 10
187.8965413411458
 20
467.3430501302083
 30
0.0
 10
187.9954155815972
 20
467.4098849826389
 30
0.0
 10
188.0846435546875
 20
467.4898111979167
 30
0.0
 10
188.1928195529514
 20
467.5504448784722
 30
0.0
 10
188.4064154730902
 20
467.6779134114583
 30
0.0
 10
188.616566297743
 20
467.8081380208333
 30
0.0
 10
188.8270616319444
 20
467.942152235243
 30
0.0
 10
188.9290364583333
 20
468.0120876736111
 30
0.0
 10
189.0723524305555
 20
468.0951144748263
 30
0.0
 10
189.1615804036458
 20
468.1843424479166
 30
0.0
 10
189.2763020833333
 20
468.2990641276041
 30
0.0
 10
189.2666558159722
 20
468.5316080729166
 30
0.0
 10
189.2477077907986
 20
468.6814697265625
 30
0.0
 10
189.2253146701389
 20
468.8788736979166
 30
0.0
 10
189.0881998697917
 20
468.9364067925347
 30
0.0
 10
188.9703776041667
 20
469.0704210069444
 30
0.0
 10
188.8367078993055
 20
469.2295844184027
 30
0.0
 10
188.6134657118055
 20
469.3219129774305
 30
0.0
 10
188.4160617404514
 20
469.2137369791666
 30
0.0
 10
188.3140869140625
 20
469.1593044704861
 30
0.0
 10
188.2596544053819
 20
469.0511284722222
 30
0.0
 10
188.1642252604167
 20
468.9808485243055
 30
0.0
 10
188.0557047526042
 20
468.9078125
 30
0.0
 10
187.9316813151042
 20
468.8533799913194
 30
0.0
 10
187.8328070746527
 20
468.7610514322917
 30
0.0
  0
SPLINE
  5
7B
330
A
100
AcDbEntity
  8
LAYER_1
 62
     7
100
AcDbSpline
210
0.0
220
0.0
230
1.0
 70
    11
 71
     3
 72
    41
 73
    37
 74
     0
 42
0.000000001
 43
0.00000001
 40
0.0
 40
0.0
 40
0.0
 40
0.0
 40
1.0
 40
1.0
 40
1.0
 40
2.0
 40
2.0
 40
2.0
 40
3.0
 40
3.0
 40
3.0
 40
4.0
 40
4.0
 40
4.0
 40
5.0
 40
5.0
 40
5.0
 40
6.0
 40
6.0
 40
6.0
 40
7.0
 40
7.0
 40
7.0
 40
8.0
 40
8.0
 40
8.0
 40
9.0
 40
9.0
 40
9.0
 40
10.0
 40
10.0
 40
10.0
 40
11.0
 40
11.0
 40
11.0
 40
12.0
 40
12.0
 40
12.0
 40
12.0
 10
189.2921495225694
 20
467.4388237847222
 30
0.0
 10
189.1264404296875
 20
467.4388237847222
 30
0.0
 10
188.9162896050347
 20
467.4322781032986
 30
0.0
 10
188.8270616319444
 20
467.2793158637152
 30
0.0
 10
188.7440348307292
 20
467.1294542100694
 30
0.0
 10
188.8907958984375
 20
466.9351508246527
 30
0.0
 10
188.9769232855903
 20
466.8111273871527
 30
0.0
 10
189.0819986979166
 20
466.6612657335069
 30
0.0
 10
189.075453016493
 20
466.5241509331597
 30
0.0
 10
189.1298855251736
 20
466.3553412543403
 30
0.0
 10
189.1681260850694
 20
466.2502658420138
 30
0.0
 10
189.2284152560764
 20
466.1834309895833
 30
0.0
 10
189.2890489366319
 20
466.0938585069444
 30
0.0
 10
189.3400363498264
 20
466.0142768012153
 30
0.0
 10
189.3593288845486
 20
465.9284939236111
 30
0.0
 10
189.4037706163194
 20
465.8454671223958
 30
0.0
 10
189.4833523220486
 20
465.7083523220485
 30
0.0
 10
189.5567328559028
 20
465.6349717881944
 30
0.0
 10
189.7162407769097
 20
465.6763129340277
 30
0.0
 10
189.7892768012153
 20
465.6956054687499
 30
0.0
 10
189.9136447482639
 20
465.7148980034722
 30
0.0
 10
189.9584309895833
 20
465.7817328559028
 30
0.0
 10
189.9966715494791
 20
465.8389214409722
 30
0.0
 10
189.9839246961805
 20
465.9698350694444
 30
0.0
 10
189.993226453993
 20
466.0366699218749
 30
0.0
 10
190.0314670138889
 20
466.2854058159722
 30
0.0
 10
190.0476589626736
 20
466.5272515190972
 30
0.0
 10
190.034912109375
 20
466.7821885850694
 30
0.0
 10
190.0314670138889
 20
466.9034559461805
 30
0.0
 10
190.0604058159722
 20
467.0309244791666
 30
0.0
 10
190.04111328125
 20
467.1583930121527
 30
0.0
 10
190.0187201605902
 20
467.2920627170138
 30
0.0
 10
189.9391384548611
 20
467.2982638888889
 30
0.0
 10
189.8213161892361
 20
467.3303032769097
 30
0.0
 10
189.6525065104167
 20
467.3747450086805
 30
0.0
 10
189.47060546875
 20
467.4450249565972
 30
0.0
 10
189.2921495225694
 20
467.4388237847222
 30
0.0
  0
SPLINE
  5
7A
330
A
100
AcDbEntity
  8
LAYER_1
 62
     7
100
AcDbSpline
210
0.0
220
0.0
230
1.0
 70
    11
 71
     3
 72
    68
 73
    64
 74
     0
 42
0.000000001
 43
0.00000001
 40
0.0
 40
0.0
 40
0.0
 40
0.0
 40
1.0
 40
1.0
 40
1.0
 40
2.0
 40
2.0
 40
2.0
 40
3.0
 40
3.0
 40
3.0
 40
4.0
 40
4.0
 40
4.0
 40
5.0
 40
5.0
 40
5.0
 40
6.0
 40
6.0
 40
6.0
 40
7.0
 40
7.0
 40
7.0
 40
8.0
 40
8.0
 40
8.0
 40
9.0
 40
9.0
 40
9.0
 40
10.0
 40
10.0
 40
10.0
 40
11.0
 40
11.0
 40
11.0
 40
12.0
 40
12.0
 40
12.0
 40
13.0
 40
13.0
 40
13.0
 40
14.0
 40
14.0
 40
14.0
 40
15.0
 40
15.0
 40
15.0
 40
16.0
 40
16.0
 40
16.0
 40
17.0
 40
17.0
 40
17.0
 40
18.0
 40
18.0
 40
18.0
 40
19.0
 40
19.0
 40
19.0
 40
20.0
 40
20.0
 40
20.0
 40
21.0
 40
21.0
 40
21.0
 40
21.0
 10
193.1768391927083
 20
465.5460883246527
 30
0.0
 10
192.9983832465278
 20
465.1381890190972
 30
0.0
 10
192.9570421006944
 20
464.6217692057292
 30
0.0
 10
192.9952826605902
 20
464.1818305121527
 30
0.0
 10
193.0049289279514
 20
464.0481608072917
 30
0.0
 10
193.023876953125
 20
463.8442111545139
 30
0.0
 10
193.1258517795139
 20
463.7518825954861
 30
0.0
 10
193.2374728732639
 20
463.6464626736111
 30
0.0
 10
193.5306504991319
 20
463.6340603298611
 30
0.0
 10
193.6708658854166
 20
463.5954752604166
 30
0.0
 10
193.8555230034722
 20
463.5444878472222
 30
0.0
 10
193.9733452690972
 20
463.4425130208333
 30
0.0
 10
194.123206922743
 20
463.3343370225694
 30
0.0
 10
194.2317274305555
 20
463.2640570746527
 30
0.0
 10
194.3302571614583
 20
463.2516547309027
 30
0.0
 10
194.4229302300347
 20
463.1589816623264
 30
0.0
 10
194.5214599609375
 20
463.0601074218749
 30
0.0
 10
194.6203342013889
 20
462.9836263020833
 30
0.0
 10
194.7350558810764
 20
462.9167914496527
 30
0.0
 10
194.8849175347222
 20
462.8244628906249
 30
0.0
 10
195.2449300130208
 20
462.5567789713541
 30
0.0
 10
195.4233859592014
 20
462.6652994791666
 30
0.0
 10
195.6083875868055
 20
462.7700303819444
 30
0.0
 10
195.54775390625
 20
463.2099690755208
 30
0.0
 10
195.5859944661458
 20
463.3980712890624
 30
0.0
 10
195.6400824652778
 20
463.6595540364583
 30
0.0
 10
195.6497287326389
 20
463.9399848090277
 30
0.0
 10
195.7802978515625
 20
464.1818305121527
 30
0.0
 10
195.8312852647569
 20
464.264857313368
 30
0.0
 10
195.8791720920139
 20
464.3540852864583
 30
0.0
 10
195.9205132378472
 20
464.4498589409722
 30
0.0
 10
195.9969943576389
 20
464.6090223524305
 30
0.0
 10
196.1055148654514
 20
464.7747314453125
 30
0.0
 10
196.2074896918403
 20
464.9211480034722
 30
0.0
 10
196.2519314236111
 20
464.9914279513889
 30
0.0
 10
196.306019422743
 20
465.0741102430555
 30
0.0
 10
196.3218668619791
 20
465.1505913628472
 30
0.0
 10
196.3380588107639
 20
465.2401638454861
 30
0.0
 10
196.3349582248264
 20
465.3738335503472
 30
0.0
 10
196.3094645182292
 20
465.4630615234374
 30
0.0
 10
196.2488308376736
 20
465.6349717881944
 30
0.0
 10
196.0510823567708
 20
465.701806640625
 30
0.0
 10
195.9143120659722
 20
465.8072265625
 30
0.0
 10
195.8088921440972
 20
465.8837076822916
 30
0.0
 10
195.6976155598958
 20
465.9219482421875
 30
0.0
 10
195.5859944661458
 20
465.9794813368055
 30
0.0
 10
195.4809190538194
 20
466.0366699218749
 30
0.0
 10
195.4044379340278
 20
466.1131510416666
 30
0.0
 10
195.3024631076389
 20
466.1768853081597
 30
0.0
 10
195.1970431857639
 20
466.2502658420138
 30
0.0
 10
195.0695746527778
 20
466.2881618923611
 30
0.0
 10
194.9582980685764
 20
466.3553412543403
 30
0.0
 10
194.7987901475694
 20
466.4507703993055
 30
0.0
 10
194.6682210286458
 20
466.5658365885416
 30
0.0
 10
194.4994113498264
 20
466.6547200520833
 30
0.0
 10
194.3591959635417
 20
466.7312011718749
 30
0.0
 10
194.1996880425347
 20
466.7980360243055
 30
0.0
 10
194.0339789496527
 20
466.7821885850694
 30
0.0
 10
193.8331298828125
 20
466.7697862413194
 30
0.0
 10
193.7855875651042
 20
466.6612657335069
 30
0.0
 10
193.6867133246528
 20
466.5017578124999
 30
0.0
 10
193.5017116970486
 20
466.1896321614583
 30
0.0
 10
193.3201551649305
 20
465.8775065104167
 30
0.0
 10
193.1768391927083
 20
465.5460883246527
 30
0.0
  0
SPLINE
  5
79
330
A
100
AcDbEntity
  8
LAYER_1
 62
     7
100
AcDbSpline
210
0.0
220
0.0
230
1.0
 70
    11
 71
     3
 72
    92
 73
    88
 74
     0
 42
0.000000001
 43
0.00000001
 40
0.0
 40
0.0
 40
0.0
 40
0.0
 40
1.0
 40
1.0
 40
1.0
 40
2.0
 40
2.0
 40
2.0
 40
3.0
 40
3.0
 40
3.0
 40
4.0
 40
4.0
 40
4.0
 40
5.0
 40
5.0
 40
5.0
 40
6.0
 40
6.0
 40
6.0
 40
7.0
 40
7.0
 40
7.0
 40
8.0
 40
8.0
 40
8.0
 40
9.0
 40
9.0
 40
9.0
 40
10.0
 40
10.0
 40
10.0
 40
11.0
 40
11.0
 40
11.0
 40
12.0
 40
12.0
 40
12.0
 40
13.0
 40
13.0
 40
13.0
 40
14.0
 40
14.0
 40
14.0
 40
15.0
 40
15.0
 40
15.0
 40
16.0
 40
16.0
 40
16.0
 40
17.0
 40
17.0
 40
17.0
 40
18.0
 40
18.0
 40
18.0
 40
19.0
 40
19.0
 40
19.0
 40
20.0
 40
20.0
 40
20.0
 40
21.0
 40
21.0
 40
21.0
 40
22.0
 40
22.0
 40
22.0
 40
23.0
 40
23.0
 40
23.0
 40
24.0
 40
24.0
 40
24.0
 40
25.0
 40
25.0
 40
25.0
 40
26.0
 40
26.0
 40
26.0
 40
27.0
 40
27.0
 40
27.0
 40
28.0
 40
28.0
 40
28.0
 40
29.0
 40
29.0
 40
29.0
 40
29.0
 10
197.7912000868055
 20
467.3747450086805
 30
0.0
 10
197.6096435546875
 20
467.1962890624999
 30
0.0
 10
197.4756293402777
 20
466.9923394097222
 30
0.0
 10
197.2940728081597
 20
466.8204291449653
 30
0.0
 10
197.0773763020833
 20
466.6168240017361
 30
0.0
 10
197.0039957682291
 20
466.4507703993055
 30
0.0
 10
196.9530083550347
 20
466.1513916015625
 30
0.0
 10
196.8958197699653
 20
465.7944797092014
 30
0.0
 10
196.8861735026042
 20
465.4213758680555
 30
0.0
 10
196.8255398220486
 20
465.0617078993055
 30
0.0
 10
196.7139187282986
 20
464.3857801649305
 30
0.0
 10
196.6663764105903
 20
463.7132975260416
 30
0.0
 10
196.6694769965277
 20
463.0187662760416
 30
0.0
 10
196.6694769965277
 20
462.8372097439236
 30
0.0
 10
196.6312364366319
 20
462.5822726779513
 30
0.0
 10
196.8031467013889
 20
462.4802978515625
 30
0.0
 10
197.0453369140625
 20
462.3273356119792
 30
0.0
 10
197.4277425130208
 20
462.3972710503472
 30
0.0
 10
197.6954264322916
 20
462.3910698784722
 30
0.0
 10
197.9534640842014
 20
462.3783230251736
 30
0.0
 10
198.2307942708333
 20
462.4038167317708
 30
0.0
 10
198.488831922743
 20
462.3686767578125
 30
0.0
 10
198.7727077907986
 20
462.3304361979166
 30
0.0
 10
199.1230740017361
 20
462.3111436631944
 30
0.0
 10
199.3046305338542
 20
462.0692979600694
 30
0.0
 10
199.4131510416667
 20
461.9321831597222
 30
0.0
 10
199.4544921875
 20
461.8174614800347
 30
0.0
 10
199.6329481336805
 20
461.7599283854166
 30
0.0
 10
199.7986572265625
 20
461.7089409722222
 30
0.0
 10
199.9836588541666
 20
461.6899929470486
 30
0.0
 10
200.1493679470486
 20
461.6965386284722
 30
0.0
 10
200.4170518663194
 20
461.6965386284722
 30
0.0
 10
200.6847357855902
 20
461.6517523871527
 30
0.0
 10
200.948974609375
 20
461.6390055338541
 30
0.0
 10
201.0733425564236
 20
461.6262586805555
 30
0.0
 10
201.1818630642361
 20
461.6390055338541
 30
0.0
 10
201.3027859157986
 20
461.6390055338541
 30
0.0
 10
201.4206081814236
 20
461.6455512152777
 30
0.0
 10
201.5353298611111
 20
461.5945638020833
 30
0.0
 10
201.6534966362847
 20
461.6104112413194
 30
0.0
 10
201.8285074869791
 20
461.6390055338541
 30
0.0
 10
201.9018880208333
 20
461.7344346788194
 30
0.0
 10
201.9084337022569
 20
461.90048828125
 30
0.0
 10
201.9177354600694
 20
462.2126139322916
 30
0.0
 10
202.0324571397569
 20
462.4802978515625
 30
0.0
 10
202.0644965277777
 20
462.7893229166666
 30
0.0
 10
202.0868896484375
 20
462.9967176649305
 30
0.0
 10
202.159925672743
 20
463.2261610243055
 30
0.0
 10
202.1313313802083
 20
463.4328667534722
 30
0.0
 10
202.1058376736111
 20
463.6306152343749
 30
0.0
 10
201.9528754340278
 20
463.6595540364583
 30
0.0
 10
202.1664713541666
 20
463.8125162760416
 30
0.0
 10
202.3128879123264
 20
463.9079454210069
 30
0.0
 10
202.4276095920139
 20
463.9399848090277
 30
0.0
 10
202.4214084201389
 20
464.1246419270833
 30
0.0
 10
202.4148627387153
 20
464.3413384331597
 30
0.0
 10
202.4245090060764
 20
464.5452880859374
 30
0.0
 10
202.4627495659722
 20
464.7557834201389
 30
0.0
 10
202.4851426866319
 20
464.8925537109375
 30
0.0
 10
202.4978895399305
 20
465.0551622178819
 30
0.0
 10
202.4627495659722
 20
465.1891764322916
 30
0.0
 10
202.4214084201389
 20
465.3676323784722
 30
0.0
 10
202.3163330078125
 20
465.3800347222222
 30
0.0
 10
202.1757731119791
 20
465.4534152560764
 30
0.0
 10
202.0293565538194
 20
465.5329969618055
 30
0.0
 10
201.9718234592014
 20
465.6797580295138
 30
0.0
 10
201.8636474609375
 20
465.7944797092014
 30
0.0
 10
201.6627983940972
 20
466.0077311197916
 30
0.0
 10
201.4175075954861
 20
466.1513916015625
 30
0.0
 10
201.1946099175347
 20
466.3425944010417
 30
0.0
 10
200.9524197048611
 20
466.5561903211805
 30
0.0
 10
200.5603678385417
 20
466.6423177083333
 30
0.0
 10
200.2575439453125
 20
466.7312011718749
 30
0.0
 10
200.0473931206597
 20
466.788734266493
 30
0.0
 10
199.859290907118
 20
466.8555691189235
 30
0.0
 10
199.677734375
 20
466.9733913845486
 30
0.0
 10
199.4992784288194
 20
467.078466796875
 30
0.0
 10
199.2729356553819
 20
467.078466796875
 30
0.0
 10
199.1103271484375
 20
467.2028347439236
 30
0.0
 10
198.9318712022569
 20
467.3492513020833
 30
0.0
 10
198.8078477647569
 20
467.5153049045139
 30
0.0
 10
198.5846055772569
 20
467.6041883680555
 30
0.0
 10
198.4922770182291
 20
467.6393283420139
 30
0.0
 10
198.4254421657986
 20
467.65517578125
 30
0.0
 10
198.3296685112847
 20
467.6393283420139
 30
0.0
 10
198.0940239800347
 20
467.6041883680555
 30
0.0
 10
197.9631103515625
 20
467.5407986111111
 30
0.0
 10
197.7912000868055
 20
467.3747450086805
 30
0.0
  0
SPLINE
  5
78
330
A
100
AcDbEntity
  8
LAYER_1
 62
     7
100
AcDbSpline
210
0.0
220
0.0
230
1.0
 70
    11
 71
     3
 72
    50
 73
    46
 74
     0
 42
0.000000001
 43
0.00000001
 40
0.0
 40
0.0
 40
0.0
 40
0.0
 40
1.0
 40
1.0
 40
1.0
 40
2.0
 40
2.0
 40
2.0
 40
3.0
 40
3.0
 40
3.0
 40
4.0
 40
4.0
 40
4.0
 40
5.0
 40
5.0
 40
5.0
 40
6.0
 40
6.0
 40
6.0
 40
7.0
 40
7.0
 40
7.0
 40
8.0
 40
8.0
 40
8.0
 40
9.0
 40
9.0
 40
9.0
 40
10.0
 40
10.0
 40
10.0
 40
11.0
 40
11.0
 40
11.0
 40
12.0
 40
12.0
 40
12.0
 40
13.0
 40
13.0
 40
13.0
 40
14.0
 40
14.0
 40
14.0
 40
15.0
 40
15.0
 40
15.0
 40
15.0
 10
171.1444200303819
 20
425.6742757161458
 30
0.0
 10
171.0104058159722
 20
425.4193386501736
 30
0.0
 10
170.583558485243
 20
424.7534016927083
 30
0.0
 10
171.0772406684028
 20
424.6672743055555
 30
0.0
 10
171.2463948567708
 20
424.6417805989583
 30
0.0
 10
171.4692925347222
 20
424.7182617187499
 30
0.0
 10
171.6157090928819
 20
424.6162868923611
 30
0.0
 10
171.7655707465278
 20
424.5143120659722
 30
0.0
 10
171.743177625868
 20
424.3165635850694
 30
0.0
 10
171.7721164279514
 20
424.1574001736111
 30
0.0
 10
171.7976101345486
 20
423.9851453993055
 30
0.0
 10
171.902685546875
 20
423.6444254557291
 30
0.0
 10
172.1162814670139
 20
423.6730197482639
 30
0.0
 10
172.2819905598958
 20
423.6923122829861
 30
0.0
 10
172.3712185329861
 20
423.864222547743
 30
0.0
 10
172.4986870659722
 20
423.9534505208333
 30
0.0
 10
172.6578504774305
 20
424.0554253472222
 30
0.0
 10
172.8969401041666
 20
424.1064127604166
 30
0.0
 10
173.0815972222222
 20
424.1381076388889
 30
0.0
 10
173.2982937282986
 20
424.1863389756944
 30
0.0
 10
173.3144856770833
 20
424.259375
 30
0.0
 10
173.4419542100694
 20
424.4185384114583
 30
0.0
 10
173.5852701822917
 20
424.5969943576388
 30
0.0
 10
173.8591552734375
 20
424.5652994791666
 30
0.0
 10
174.0631049262153
 20
424.6417805989583
 30
0.0
 10
174.2033203125
 20
424.6927680121527
 30
0.0
 10
174.3914225260417
 20
424.7182617187499
 30
0.0
 10
174.4455105251736
 20
424.8681233723958
 30
0.0
 10
174.608119032118
 20
425.3204644097222
 30
0.0
 10
174.079296875
 20
425.6932237413194
 30
0.0
 10
173.7316867404514
 20
425.8461859809028
 30
0.0
 10
173.4929416232639
 20
425.9481608072916
 30
0.0
 10
173.1932183159722
 20
425.9547064887153
 30
0.0
 10
172.9351806640625
 20
426.0184407552083
 30
0.0
 10
172.8332058376736
 20
426.0439344618055
 30
0.0
 10
172.7408772786458
 20
426.088720703125
 30
0.0
 10
172.6389024522569
 20
426.1238606770833
 30
0.0
 10
172.4060139973958
 20
426.1968967013888
 30
0.0
 10
172.2530517578125
 20
426.3212646484375
 30
0.0
 10
172.0460015190972
 20
426.4456325954861
 30
0.0
 10
171.8134575737847
 20
426.5793023003472
 30
0.0
 10
171.4947862413194
 20
426.6240885416667
 30
0.0
 10
171.3352783203125
 20
426.3753526475694
 30
0.0
 10
171.1985080295139
 20
426.1683024088541
 30
0.0
 10
171.2556966145833
 20
425.8878716362847
 30
0.0
 10
171.1444200303819
 20
425.6742757161458
 30
0.0
  0
SPLINE
  5
77
330
A
100
AcDbEntity
  8
LAYER_1
 62
     7
100
AcDbSpline
210
0.0
220
0.0
230
1.0
 70
    11
 71
     3
 72
    38
 73
    34
 74
     0
 42
0.000000001
 43
0.00000001
 40
0.0
 40
0.0
 40
0.0
 40
0.0
 40
1.0
 40
1.0
 40
1.0
 40
2.0
 40
2.0
 40
2.0
 40
3.0
 40
3.0
 40
3.0
 40
4.0
 40
4.0
 40
4.0
 40
5.0
 40
5.0
 40
5.0
 40
6.0
 40
6.0
 40
6.0
 40
7.0
 40
7.0
 40
7.0
 40
8.0
 40
8.0
 40
8.0
 40
9.0
 40
9.0
 40
9.0
 40
10.0
 40
10.0
 40
10.0
 40
11.0
 40
11.0
 40
11.0
 40
11.0
 10
178.2471733940972
 20
421.5411946614583
 30
0.0
 10
178.1197048611111
 20
421.334144422743
 30
0.0
 10
178.2537190755208
 20
421.2066758897569
 30
0.0
 10
178.4418212890625
 20
421.0761067708333
 30
0.0
 10
178.55654296875
 20
420.9961805555555
 30
0.0
 10
178.6840115017361
 20
420.9517388237847
 30
0.0
 10
178.7477457682292
 20
420.8211697048611
 30
0.0
 10
178.8207817925347
 20
420.6806098090277
 30
0.0
 10
178.7763400607639
 20
420.4993977864583
 30
0.0
 10
178.8207817925347
 20
420.358837890625
 30
0.0
 10
178.9930365668403
 20
419.7724826388888
 30
0.0
 10
180.1337076822917
 20
419.8045220269097
 30
0.0
 10
180.6022406684028
 20
419.899951171875
 30
0.0
 10
181.1534559461805
 20
420.0274197048611
 30
0.0
 10
181.0738742404514
 20
420.5662326388888
 30
0.0
 10
181.0962673611111
 20
421.0092719184028
 30
0.0
 10
181.1024685329861
 20
421.2066758897569
 30
0.0
 10
181.2747233072917
 20
422.4906629774305
 30
0.0
 10
180.8316840277778
 20
422.1499430338541
 30
0.0
 10
180.6308349609375
 20
421.9969807942708
 30
0.0
 10
180.5577989366319
 20
421.8312717013889
 30
0.0
 10
180.28046875
 20
421.7740831163194
 30
0.0
 10
179.9648980034722
 20
421.7100043402777
 30
0.0
 10
179.8184814453125
 20
421.9904351128472
 30
0.0
 10
179.6782660590277
 20
422.2357259114583
 30
0.0
 10
179.6145317925347
 20
422.3507921006944
 30
0.0
 10
179.5507975260417
 20
422.5705891927083
 30
0.0
 10
179.4009358723958
 20
422.5898817274305
 30
0.0
 10
179.244873046875
 20
422.6153754340277
 30
0.0
 10
179.0822645399305
 20
422.3793863932291
 30
0.0
 10
178.9802897135417
 20
422.2901584201388
 30
0.0
 10
178.7188069661458
 20
422.0545138888888
 30
0.0
 10
178.4352756076389
 20
421.8440185546875
 30
0.0
 10
178.2471733940972
 20
421.5411946614583
 30
0.0
  0
SPLINE
  5
76
330
A
100
AcDbEntity
  8
LAYER_1
 62
     7
100
AcDbSpline
210
0.0
220
0.0
230
1.0
 70
    11
 71
     3
 72
    47
 73
    43
 74
     0
 42
0.000000001
 43
0.00000001
 40
0.0
 40
0.0
 40
0.0
 40
0.0
 40
1.0
 40
1.0
 40
1.0
 40
2.0
 40
2.0
 40
2.0
 40
3.0
 40
3.0
 40
3.0
 40
4.0
 40
4.0
 40
4.0
 40
5.0
 40
5.0
 40
5.0
 40
6.0
 40
6.0
 40
6.0
 40
7.0
 40
7.0
 40
7.0
 40
8.0
 40
8.0
 40
8.0
 40
9.0
 40
9.0
 40
9.0
 40
10.0
 40
10.0
 40
10.0
 40
11.0
 40
11.0
 40
11.0
 40
12.0
 40
12.0
 40
12.0
 40
13.0
 40
13.0
 40
13.0
 40
14.0
 40
14.0
 40
14.0
 40
14.0
 10
174.1557779947917
 20
424.5876925998264
 30
0.0
 10
173.9166883680555
 20
424.4791720920139
 30
0.0
 10
173.6521050347222
 20
424.4185384114583
 30
0.0
 10
173.4323079427083
 20
424.2786675347222
 30
0.0
 10
173.2634982638889
 20
424.1732476128472
 30
0.0
 10
173.113636610243
 20
424.0712727864583
 30
0.0
 10
173.1167371961805
 20
423.864222547743
 30
0.0
 10
173.1232828776041
 20
423.6030843098958
 30
0.0
 10
173.2156114366319
 20
423.3767415364583
 30
0.0
 10
173.3079399956597
 20
423.1376519097222
 30
0.0
 10
173.4195610894097
 20
422.8255262586805
 30
0.0
 10
173.4257622612847
 20
422.4972086588541
 30
0.0
 10
173.39716796875
 20
422.1688910590277
 30
0.0
 10
173.3747748480903
 20
421.9236002604166
 30
0.0
 10
173.3620279947916
 20
421.7609917534722
 30
0.0
 10
173.6362575954861
 20
421.7420437282986
 30
0.0
 10
173.973876953125
 20
421.723095703125
 30
0.0
 10
174.3118408203125
 20
421.793031141493
 30
0.0
 10
174.6239664713542
 20
421.8950059678819
 30
0.0
 10
174.9808783637152
 20
422.0035264756944
 30
0.0
 10
175.3474365234375
 20
421.9745876736111
 30
0.0
 10
175.7139946831597
 20
422.0035264756944
 30
0.0
 10
175.9113986545139
 20
422.022474500868
 30
0.0
 10
176.3385904947916
 20
421.9490939670138
 30
0.0
 10
176.5008544921875
 20
422.0545138888888
 30
0.0
 10
176.7337429470486
 20
422.2102322048611
 30
0.0
 10
176.6955023871528
 20
422.6470703125
 30
0.0
 10
176.6762098524305
 20
422.8892605251736
 30
0.0
 10
176.6507161458333
 20
423.1441975911458
 30
0.0
 10
176.555287000868
 20
423.3863878038194
 30
0.0
 10
176.5518419053819
 20
423.6444254557291
 30
0.0
 10
176.5518419053819
 20
423.8804144965277
 30
0.0
 10
176.6507161458333
 20
424.1002115885416
 30
0.0
 10
176.6379692925347
 20
424.3296549479167
 30
0.0
 10
176.6283230251736
 20
424.4791720920139
 30
0.0
 10
176.5869818793403
 20
424.6479817708333
 30
0.0
 10
176.4691596137152
 20
424.7472005208333
 30
0.0
 10
176.2969048394097
 20
424.8839708116319
 30
0.0
 10
176.096400282118
 20
424.8074896918403
 30
0.0
 10
175.8955512152777
 20
424.8009440104166
 30
0.0
 10
175.2771565755208
 20
424.7885416666666
 30
0.0
 10
174.7324869791667
 20
424.8519314236111
 30
0.0
 10
174.1557779947917
 20
424.5876925998264
 30
0.0
  0
SPLINE
  5
75
330
A
100
AcDbEntity
  8
LAYER_1
 62
     7
100
AcDbSpline
210
0.0
220
0.0
230
1.0
 70
    11
 71
     3
 72
    41
 73
    37
 74
     0
 42
0.000000001
 43
0.00000001
 40
0.0
 40
0.0
 40
0.0
 40
0.0
 40
1.0
 40
1.0
 40
1.0
 40
2.0
 40
2.0
 40
2.0
 40
3.0
 40
3.0
 40
3.0
 40
4.0
 40
4.0
 40
4.0
 40
5.0
 40
5.0
 40
5.0
 40
6.0
 40
6.0
 40
6.0
 40
7.0
 40
7.0
 40
7.0
 40
8.0
 40
8.0
 40
8.0
 40
9.0
 40
9.0
 40
9.0
 40
10.0
 40
10.0
 40
10.0
 40
11.0
 40
11.0
 40
11.0
 40
12.0
 40
12.0
 40
12.0
 40
12.0
 10
178.620277235243
 20
415.7479220920138
 30
0.0
 10
178.3939344618055
 20
415.5725667317708
 30
0.0
 10
178.2537190755208
 20
415.2318467881944
 30
0.0
 10
178.1389973958333
 20
414.9862114800347
 30
0.0
 10
177.9794894748264
 20
414.6578938802083
 30
0.0
 10
177.7917317708333
 20
414.3712619357639
 30
0.0
 10
177.6194769965278
 20
414.0429443359375
 30
0.0
 10
177.479261610243
 20
413.7787055121527
 30
0.0
 10
177.4572129991319
 20
413.475537109375
 30
0.0
 10
177.3104519314236
 20
413.2081976996527
 30
0.0
 10
177.243617078993
 20
413.0807291666666
 30
0.0
 10
177.1161485460069
 20
412.8574869791667
 30
0.0
 10
177.1223497178819
 20
412.7203721788194
 30
0.0
 10
177.138197157118
 20
412.4750813802083
 30
0.0
 10
177.3869330512153
 20
412.2904242621527
 30
0.0
 10
177.5557427300347
 20
412.1340169270833
 30
0.0
 10
177.7662380642361
 20
411.9397135416666
 30
0.0
 10
177.8427191840278
 20
411.8728786892361
 30
0.0
 10
178.0942111545139
 20
412.0354871961805
 30
0.0
 10
178.33330078125
 20
412.2011962890625
 30
0.0
 10
178.4704155815972
 20
412.0099934895833
 30
0.0
 10
178.7253526475694
 20
411.920765516493
 30
0.0
 10
179.203187391493
 20
411.739208984375
 30
0.0
 10
179.2000868055555
 20
412.2394368489583
 30
0.0
 10
179.2321261935764
 20
412.5708550347222
 30
0.0
 10
179.2765679253472
 20
413.0931315104166
 30
0.0
 10
179.2321261935764
 20
413.6284993489583
 30
0.0
 10
179.2765679253472
 20
414.157666015625
 30
0.0
 10
179.314808485243
 20
414.5400716145833
 30
0.0
 10
179.4774169921875
 20
414.8267035590277
 30
0.0
 10
179.5855929904514
 20
415.19326171875
 30
0.0
 10
179.6493272569444
 20
415.3813639322916
 30
0.0
 10
179.6813666449653
 20
415.5915147569444
 30
0.0
 10
179.6813666449653
 20
415.7927083333333
 30
0.0
 10
179.6813666449653
 20
416.4204047309028
 30
0.0
 10
178.8783148871528
 20
415.9422254774305
 30
0.0
 10
178.620277235243
 20
415.7479220920138
 30
0.0
  0
SPLINE
  5
74
330
A
100
AcDbEntity
  8
LAYER_1
 62
     7
100
AcDbSpline
210
0.0
220
0.0
230
1.0
 70
     8
 71
     3
 72
    17
 73
    13
 74
     0
 42
0.000000001
 43
0.00000001
 40
0.0
 40
0.0
 40
0.0
 40
0.0
 40
1.0
 40
1.0
 40
1.0
 40
2.0
 40
2.0
 40
2.0
 40
3.0
 40
3.0
 40
3.0
 40
4.0
 40
4.0
 40
4.0
 40
4.0
 10
176.6028293185764
 20
424.5590983072916
 30
0.0
 10
176.7974772135416
 20
425.28876953125
 30
0.0
 10
177.7469455295139
 20
424.2976155598958
 30
0.0
 10
178.0018825954861
 20
424.0426784939236
 30
0.0
 10
178.161390516493
 20
423.8831705729166
 30
0.0
 10
178.3236545138889
 20
423.7302083333333
 30
0.0
 10
178.508656141493
 20
423.5934380425347
 30
0.0
 10
178.7095052083333
 20
423.4373752170138
 30
0.0
 10
178.9482503255208
 20
423.3450466579861
 30
0.0
 10
179.1490993923611
 20
423.2017306857638
 30
0.0
 10
179.3723415798611
 20
423.0453233506944
 30
0.0
 10
179.3372016059027
 20
422.8031331380208
 30
0.0
 10
179.368896484375
 20
422.5643880208333
 30
0.0
  0
SPLINE
  5
73
330
A
100
AcDbEntity
  8
LAYER_1
 62
     7
100
AcDbSpline
210
0.0
220
0.0
230
1.0
 70
     8
 71
     3
 72
    17
 73
    13
 74
     0
 42
0.000000001
 43
0.00000001
 40
0.0
 40
0.0
 40
0.0
 40
0.0
 40
1.0
 40
1.0
 40
1.0
 40
2.0
 40
2.0
 40
2.0
 40
3.0
 40
3.0
 40
3.0
 40
4.0
 40
4.0
 40
4.0
 40
4.0
 10
176.2459174262153
 20
421.9683865017361
 30
0.0
 10
176.2748562282986
 20
421.7547905815972
 30
0.0
 10
176.3895779079861
 20
421.5825358072916
 30
0.0
 10
176.5742350260417
 20
421.4550672743055
 30
0.0
 10
176.8291720920139
 20
421.2766113281249
 30
0.0
 10
177.0076280381944
 20
421.5508409288194
 30
0.0
 10
177.2084771050347
 20
421.6783094618055
 30
0.0
 10
177.4348198784722
 20
421.8185248480902
 30
0.0
 10
177.5398952907986
 20
421.793031141493
 30
0.0
 10
177.7279975043403
 20
421.6018283420138
 30
0.0
 10
177.8744140625
 20
421.4550672743055
 30
0.0
 10
177.9636420355903
 20
421.4137261284722
 30
0.0
 10
178.1803385416667
 20
421.4233723958333
 30
0.0
  0
SPLINE
  5
72
330
A
100
AcDbEntity
  8
LAYER_1
 62
     7
100
AcDbSpline
210
0.0
220
0.0
230
1.0
 70
    11
 71
     3
 72
   113
 73
   109
 74
     0
 42
0.000000001
 43
0.00000001
 40
0.0
 40
0.0
 40
0.0
 40
0.0
 40
1.0
 40
1.0
 40
1.0
 40
2.0
 40
2.0
 40
2.0
 40
3.0
 40
3.0
 40
3.0
 40
4.0
 40
4.0
 40
4.0
 40
5.0
 40
5.0
 40
5.0
 40
6.0
 40
6.0
 40
6.0
 40
7.0
 40
7.0
 40
7.0
 40
8.0
 40
8.0
 40
8.0
 40
9.0
 40
9.0
 40
9.0
 40
10.0
 40
10.0
 40
10.0
 40
11.0
 40
11.0
 40
11.0
 40
12.0
 40
12.0
 40
12.0
 40
13.0
 40
13.0
 40
13.0
 40
14.0
 40
14.0
 40
14.0
 40
15.0
 40
15.0
 40
15.0
 40
16.0
 40
16.0
 40
16.0
 40
17.0
 40
17.0
 40
17.0
 40
18.0
 40
18.0
 40
18.0
 40
19.0
 40
19.0
 40
19.0
 40
20.0
 40
20.0
 40
20.0
 40
21.0
 40
21.0
 40
21.0
 40
22.0
 40
22.0
 40
22.0
 40
23.0
 40
23.0
 40
23.0
 40
24.0
 40
24.0
 40
24.0
 40
25.0
 40
25.0
 40
25.0
 40
26.0
 40
26.0
 40
26.0
 40
27.0
 40
27.0
 40
27.0
 40
28.0
 40
28.0
 40
28.0
 40
29.0
 40
29.0
 40
29.0
 40
30.0
 40
30.0
 40
30.0
 40
31.0
 40
31.0
 40
31.0
 40
32.0
 40
32.0
 40
32.0
 40
33.0
 40
33.0
 40
33.0
 40
34.0
 40
34.0
 40
34.0
 40
35.0
 40
35.0
 40
35.0
 40
36.0
 40
36.0
 40
36.0
 40
36.0
 10
185.4236518012153
 20
422.2422715928819
 30
0.0
 10
185.3154758029514
 20
422.2357259114583
 30
0.0
 10
185.2038547092014
 20
422.2963595920139
 30
0.0
 10
185.1018798828125
 20
422.3094509548611
 30
0.0
 10
184.8851833767361
 20
422.3473470052083
 30
0.0
 10
184.6715874565972
 20
422.3473470052083
 30
0.0
 10
184.4548909505208
 20
422.3473470052083
 30
0.0
 10
184.305029296875
 20
422.3473470052083
 30
0.0
 10
184.1999538845486
 20
422.3314995659722
 30
0.0
 10
184.0755859375
 20
422.417626953125
 30
0.0
 10
183.9929036458333
 20
422.4717149522569
 30
0.0
 10
183.9481174045139
 20
422.5643880208333
 30
0.0
 10
183.8557888454861
 20
422.6088297526042
 30
0.0
 10
183.5274712456597
 20
422.77109375
 30
0.0
 10
183.1612575954861
 20
422.7362982855902
 30
0.0
 10
182.8170925564236
 20
422.7235514322916
 30
0.0
 10
182.2496853298611
 20
422.6980577256944
 30
0.0
 10
181.3384575737847
 20
422.9433485243055
 30
0.0
 10
181.1789496527778
 20
422.1564887152778
 30
0.0
 10
181.156556532118
 20
422.0414225260416
 30
0.0
 10
181.1885959201389
 20
421.9077528211805
 30
0.0
 10
181.1820502387152
 20
421.7899305555555
 30
0.0
 10
181.1727484809028
 20
421.563587782118
 30
0.0
 10
181.1310628255208
 20
421.3275987413194
 30
0.0
 10
181.1121148003472
 20
421.0981553819444
 30
0.0
 10
181.0769748263889
 20
420.7033474392361
 30
0.0
 10
181.0800754123264
 20
420.3078504774305
 30
0.0
 10
181.0611273871528
 20
419.9064968532986
 30
0.0
 10
181.0421793619792
 20
419.5909261067708
 30
0.0
 10
180.927113172743
 20
419.3073947482638
 30
0.0
 10
180.857177734375
 20
419.0014702690972
 30
0.0
 10
180.7837972005208
 20
418.6893446180555
 30
0.0
 10
180.8189371744791
 20
418.3641276041666
 30
0.0
 10
180.7710503472222
 20
418.0423556857638
 30
0.0
 10
180.73935546875
 20
417.8542534722222
 30
0.0
 10
180.6501274956597
 20
417.6950900607638
 30
0.0
 10
180.6053412543403
 20
417.5100884331597
 30
0.0
 10
180.5323052300347
 20
417.2231119791666
 30
0.0
 10
180.5257595486111
 20
416.9144314236111
 30
0.0
 10
180.4651258680555
 20
416.627454969618
 30
0.0
 10
180.2773681640625
 20
415.7320746527777
 30
0.0
 10
180.2708224826389
 20
414.8143012152777
 30
0.0
 10
180.1116590711805
 20
413.922021484375
 30
0.0
 10
180.0606716579861
 20
413.6284993489583
 30
0.0
 10
180.0637722439236
 20
413.3291205512152
 30
0.0
 10
180.0158854166667
 20
413.0359429253472
 30
0.0
 10
179.9872911241319
 20
412.8450846354166
 30
0.0
 10
179.9204562717014
 20
412.6886773003472
 30
0.0
 10
179.9776448567708
 20
412.5071207682291
 30
0.0
 10
180.0479248046875
 20
412.2745768229166
 30
0.0
 10
180.1371527777778
 20
412.1278157552083
 30
0.0
 10
180.3727973090278
 20
412.0416883680555
 30
0.0
 10
180.5385064019097
 20
411.9782986111111
 30
0.0
 10
180.697669813368
 20
411.9335123697916
 30
0.0
 10
180.8637234157986
 20
411.8728786892361
 30
0.0
 10
180.9402045355903
 20
411.8473849826389
 30
0.0
 10
181.0035942925347
 20
411.7932969835069
 30
0.0
 10
181.0769748263889
 20
411.7678032769097
 30
0.0
 10
181.2364827473958
 20
411.7006239149305
 30
0.0
 10
181.4083930121528
 20
411.6658284505208
 30
0.0
 10
181.5741021050347
 20
411.6082953559027
 30
0.0
 10
181.8896728515625
 20
411.5001193576388
 30
0.0
 10
182.1349636501736
 20
411.2548285590277
 30
0.0
 10
182.4346869574653
 20
411.1115125868055
 30
0.0
 10
182.6672309027778
 20
410.9933458116319
 30
0.0
 10
182.9507622612847
 20
410.8820692274305
 30
0.0
 10
183.1960530598958
 20
410.8055881076389
 30
0.0
 10
183.4671820746528
 20
410.716015625
 30
0.0
 10
183.7665608723958
 20
410.7291069878472
 30
0.0
 10
184.0311442057292
 20
410.6271321614583
 30
0.0
 10
184.1968532986111
 20
410.5630533854167
 30
0.0
 10
184.368763563368
 20
410.4452311197916
 30
0.0
 10
184.53447265625
 20
410.5630533854167
 30
0.0
 10
184.6908799913194
 20
410.6715738932292
 30
0.0
 10
184.875537109375
 20
410.9868001302083
 30
0.0
 10
184.9296251085069
 20
411.1687011718749
 30
0.0
 10
185.0350450303819
 20
411.5128662109375
 30
0.0
 10
185.0636393229167
 20
411.8763237847222
 30
0.0
 10
185.0825873480903
 20
412.2394368489583
 30
0.0
 10
185.10498046875
 20
412.7555121527777
 30
0.0
 10
185.1656141493055
 20
413.2908799913194
 30
0.0
 10
185.2834364149305
 20
413.8007541232639
 30
0.0
 10
185.3216769748264
 20
413.991956922743
 30
0.0
 10
185.3695638020833
 20
414.1959065755208
 30
0.0
 10
185.4363986545139
 20
414.3774631076388
 30
0.0
 10
185.4811848958333
 20
414.5018310546874
 30
0.0
 10
185.557666015625
 20
414.6199978298611
 30
0.0
 10
185.5704128689236
 20
414.7502224392361
 30
0.0
 10
185.5862603081597
 20
414.9004286024305
 30
0.0
 10
185.5766140407986
 20
415.0306532118055
 30
0.0
 10
185.6117540147569
 20
415.1901611328125
 30
0.0
 10
185.6658420138889
 20
415.3941107855902
 30
0.0
 10
185.6847900390625
 20
415.6046061197916
 30
0.0
 10
185.7326768663194
 20
415.8051106770833
 30
0.0
 10
186.0258544921875
 20
417.0384548611111
 30
0.0
 10
185.8346516927083
 20
418.3162407769097
 30
0.0
 10
186.2108561197917
 20
419.5430392795138
 30
0.0
 10
186.2842366536458
 20
419.7790283203125
 30
0.0
 10
186.2966389973958
 20
419.9733317057292
 30
0.0
 10
186.3062852647569
 20
420.2282687717013
 30
0.0
 10
186.3414252387153
 20
420.8942057291666
 30
0.0
 10
186.4179063585069
 20
421.5570421006944
 30
0.0
 10
186.3924126519097
 20
422.2357259114583
 30
0.0
 10
186.3862114800347
 20
422.4303738064236
 30
0.0
 10
186.3255777994792
 20
422.6853108723958
 30
0.0
 10
186.0671956380208
 20
422.6343234592014
 30
0.0
 10
185.8157036675347
 20
422.5898817274305
 30
0.0
 10
185.7009819878472
 20
422.2708658854166
 30
0.0
 10
185.4236518012153
 20
422.2422715928819
 30
0.0
  0
SPLINE
  5
71
330
A
100
AcDbEntity
  8
LAYER_1
 62
     7
100
AcDbSpline
210
0.0
220
0.0
230
1.0
 70
     8
 71
     3
 72
    11
 73
     7
 74
     0
 42
0.000000001
 43
0.00000001
 40
0.0
 40
0.0
 40
0.0
 40
0.0
 40
1.0
 40
1.0
 40
1.0
 40
2.0
 40
2.0
 40
2.0
 40
2.0
 10
176.5232476128472
 20
421.4743598090278
 30
0.0
 10
176.8419189453125
 20
421.0726616753472
 30
0.0
 10
177.2053765190972
 20
420.9196994357638
 30
0.0
 10
176.8546657986111
 20
420.3843315972222
 30
0.0
 10
176.5518419053819
 20
419.9254448784722
 30
0.0
 10
176.2428168402778
 20
419.4858506944444
 30
0.0
 10
176.1473876953125
 20
418.9504828559027
 30
0.0
  0
SPLINE
  5
70
330
A
100
AcDbEntity
  8
LAYER_1
 62
     7
100
AcDbSpline
210
0.0
220
0.0
230
1.0
 70
    11
 71
     3
 72
    77
 73
    73
 74
     0
 42
0.000000001
 43
0.00000001
 40
0.0
 40
0.0
 40
0.0
 40
0.0
 40
1.0
 40
1.0
 40
1.0
 40
2.0
 40
2.0
 40
2.0
 40
3.0
 40
3.0
 40
3.0
 40
4.0
 40
4.0
 40
4.0
 40
5.0
 40
5.0
 40
5.0
 40
6.0
 40
6.0
 40
6.0
 40
7.0
 40
7.0
 40
7.0
 40
8.0
 40
8.0
 40
8.0
 40
9.0
 40
9.0
 40
9.0
 40
10.0
 40
10.0
 40
10.0
 40
11.0
 40
11.0
 40
11.0
 40
12.0
 40
12.0
 40
12.0
 40
13.0
 40
13.0
 40
13.0
 40
14.0
 40
14.0
 40
14.0
 40
15.0
 40
15.0
 40
15.0
 40
16.0
 40
16.0
 40
16.0
 40
17.0
 40
17.0
 40
17.0
 40
18.0
 40
18.0
 40
18.0
 40
19.0
 40
19.0
 40
19.0
 40
20.0
 40
20.0
 40
20.0
 40
21.0
 40
21.0
 40
21.0
 40
22.0
 40
22.0
 40
22.0
 40
23.0
 40
23.0
 40
23.0
 40
24.0
 40
24.0
 40
24.0
 40
24.0
 10
173.6744981553819
 20
419.9667860243055
 30
0.0
 10
173.4863959418403
 20
419.6929009331597
 30
0.0
 10
173.3620279947916
 20
419.386976453993
 30
0.0
 10
173.1742702907986
 20
419.1130913628472
 30
0.0
 10
173.056103515625
 20
418.9442816840277
 30
0.0
 10
172.9541286892361
 20
418.752734375
 30
0.0
 10
172.8490532769097
 20
418.5680772569444
 30
0.0
 10
172.7439778645833
 20
418.3768744574652
 30
0.0
 10
172.6736979166666
 20
418.1601779513888
 30
0.0
 10
172.6134087456597
 20
417.9500271267361
 30
0.0
 10
172.5527750651042
 20
417.7557237413194
 30
0.0
 10
172.4570014105903
 20
417.6186089409722
 30
0.0
 10
172.3712185329861
 20
417.4367078993055
 30
0.0
 10
172.1734700520833
 20
417.0002143012152
 30
0.0
 10
172.0683946397569
 20
416.5285807291666
 30
0.0
 10
171.9791666666667
 20
416.0600477430555
 30
0.0
 10
171.9281792534722
 20
415.7796169704861
 30
0.0
 10
171.8007107204861
 20
415.5122775607638
 30
0.0
 10
171.6956353081597
 20
415.2538953993055
 30
0.0
 10
171.5330268012153
 20
414.839794921875
 30
0.0
 10
171.6412027994791
 20
414.6709852430555
 30
0.0
 10
171.8961398654514
 20
414.3554144965277
 30
0.0
 10
172.0683946397569
 20
414.1449191623263
 30
0.0
 10
172.189662000868
 20
413.9089301215278
 30
0.0
 10
172.3805202907986
 20
413.7115261501736
 30
0.0
 10
172.6261555989583
 20
413.4631347656249
 30
0.0
 10
172.8938395182292
 20
413.2433376736111
 30
0.0
 10
173.1997639973958
 20
413.074183485243
 30
0.0
 10
173.4099148220486
 20
412.9594618055555
 30
0.0
 10
173.6297119140625
 20
412.9022732204861
 30
0.0
 10
173.8305609809028
 20
412.768603515625
 30
0.0
 10
174.0696506076389
 20
412.6156412760416
 30
0.0
 10
174.3562825520833
 20
412.5198676215277
 30
0.0
 10
174.6274115668403
 20
412.4399414062499
 30
0.0
 10
174.9078423394097
 20
412.3607042100694
 30
0.0
 10
175.0098171657986
 20
412.4144476996527
 30
0.0
 10
175.184828016493
 20
412.6025499131944
 30
0.0
 10
175.2933485243055
 20
412.7110704210069
 30
0.0
 10
175.4015245225694
 20
412.8640326605902
 30
0.0
 10
175.5544867621527
 20
412.9084743923611
 30
0.0
 10
175.7649820963541
 20
412.9656629774305
 30
0.0
 10
175.9720323350694
 20
412.8002983940972
 30
0.0
 10
176.1728814019097
 20
412.7748046875
 30
0.0
 10
176.4119710286458
 20
412.7431098090277
 30
0.0
 10
176.443665907118
 20
412.8195909288194
 30
0.0
 10
176.5042995876736
 20
413.0297417534722
 30
0.0
 10
176.6028293185764
 20
413.3611599392361
 30
0.0
 10
176.5904269748264
 20
413.7180718315972
 30
0.0
 10
176.6572618272569
 20
414.0556911892361
 30
0.0
 10
176.8229709201389
 20
414.8652886284722
 30
0.0
 10
176.8612114800347
 20
415.7320746527777
 30
0.0
 10
176.8929063585069
 20
416.5478732638888
 30
0.0
 10
176.8994520399305
 20
416.7962646484374
 30
0.0
 10
176.9056532118055
 20
417.0322536892361
 30
0.0
 10
176.9056532118055
 20
417.2806450737847
 30
0.0
 10
176.9056532118055
 20
417.4687472873263
 30
0.0
 10
176.9311469184028
 20
417.6695963541666
 30
0.0
 10
176.8546657986111
 20
417.8480523003472
 30
0.0
 10
176.7878309461805
 20
418.0010145399305
 30
0.0
 10
176.6572618272569
 20
418.1091905381944
 30
0.0
 10
176.5649332682291
 20
418.2428602430555
 30
0.0
 10
176.4660590277778
 20
418.3958224826388
 30
0.0
 10
176.3926784939236
 20
418.5680772569444
 30
0.0
 10
176.2938042534722
 20
418.7210394965277
 30
0.0
 10
176.0771077473958
 20
419.0652045355902
 30
0.0
 10
175.8318169487847
 20
419.3935221354166
 30
0.0
 10
175.573779296875
 20
419.7090928819444
 30
0.0
 10
175.3091959635416
 20
420.0339653862847
 30
0.0
 10
175.0511583116319
 20
420.4353190104166
 30
0.0
 10
174.6494601779514
 20
420.6013726128472
 30
0.0
 10
174.2226128472222
 20
420.7732828776041
 30
0.0
 10
173.8911946614583
 20
420.2634087456597
 30
0.0
 10
173.6744981553819
 20
419.9667860243055
 30
0.0
  0
SPLINE
  5
6F
330
A
100
AcDbEntity
  8
LAYER_1
 62
     7
100
AcDbSpline
210
0.0
220
0.0
230
1.0
 70
    11
 71
     3
 72
    26
 73
    22
 74
     0
 42
0.000000001
 43
0.00000001
 40
0.0
 40
0.0
 40
0.0
 40
0.0
 40
1.0
 40
1.0
 40
1.0
 40
2.0
 40
2.0
 40
2.0
 40
3.0
 40
3.0
 40
3.0
 40
4.0
 40
4.0
 40
4.0
 40
5.0
 40
5.0
 40
5.0
 40
6.0
 40
6.0
 40
6.0
 40
7.0
 40
7.0
 40
7.0
 40
7.0
 10
152.6201416015625
 20
420.3271430121528
 30
0.0
 10
152.2759765625
 20
420.4098253038194
 30
0.0
 10
151.9256103515625
 20
420.4098253038194
 30
0.0
 10
151.5652533637153
 20
420.3908772786458
 30
0.0
 10
151.080872938368
 20
420.3653835720486
 30
0.0
 10
150.5010633680556
 20
419.9667860243055
 30
0.0
 10
150.8962158203125
 20
419.4124701605903
 30
0.0
 10
151.0715711805555
 20
419.1702799479166
 30
0.0
 10
151.5208116319444
 20
419.0076714409722
 30
0.0
 10
151.7661024305555
 20
418.86435546875
 30
0.0
 10
152.0241400824653
 20
418.7210394965277
 30
0.0
 10
152.0847737630208
 20
418.6318115234375
 30
0.0
 10
152.3493570963541
 20
418.810267469618
 30
0.0
 10
152.5660536024305
 20
418.969775390625
 30
0.0
 10
152.7124701605903
 20
419.2181667751736
 30
0.0
 10
152.9071180555555
 20
419.3997233072917
 30
0.0
 10
153.0948757595486
 20
419.5685329861111
 30
0.0
 10
153.2988254123264
 20
419.7535346137153
 30
0.0
 10
153.4645345052083
 20
419.9543836805555
 30
0.0
 10
153.8948269314236
 20
420.4739040798611
 30
0.0
 10
152.9357123480903
 20
420.2506618923611
 30
0.0
 10
152.6201416015625
 20
420.3271430121528
 30
0.0
  0
SPLINE
  5
6E
330
A
100
AcDbEntity
  8
LAYER_1
 62
     7
100
AcDbSpline
210
0.0
220
0.0
230
1.0
 70
    11
 71
     3
 72
    20
 73
    16
 74
     0
 42
0.000000001
 43
0.00000001
 40
0.0
 40
0.0
 40
0.0
 40
0.0
 40
1.0
 40
1.0
 40
1.0
 40
2.0
 40
2.0
 40
2.0
 40
3.0
 40
3.0
 40
3.0
 40
4.0
 40
4.0
 40
4.0
 40
5.0
 40
5.0
 40
5.0
 40
5.0
 10
147.2537163628472
 20
418.6094184027777
 30
0.0
 10
147.3016031901041
 20
418.4089138454861
 30
0.0
 10
147.8945041232639
 20
418.4278618706597
 30
0.0
 10
147.9868326822917
 20
418.4213161892361
 30
0.0
 10
148.1938829210069
 20
418.4151150173611
 30
0.0
 10
148.3468451605903
 20
418.4977973090278
 30
0.0
 10
148.5635416666667
 20
418.5170898437499
 30
0.0
 10
148.7323513454861
 20
418.5298366970486
 30
0.0
 10
149.2773654513889
 20
418.5170898437499
 30
0.0
 10
149.3187065972222
 20
418.7592800564236
 30
0.0
 10
149.3762396918403
 20
419.1254937065972
 30
0.0
 10
148.8153781467014
 20
419.0779513888888
 30
0.0
 10
148.6272759331597
 20
419.0652045355902
 30
0.0
 10
148.4040337456597
 20
419.0524576822916
 30
0.0
 10
147.1517415364583
 20
419.0462565104166
 30
0.0
 10
147.2537163628472
 20
418.6094184027777
 30
0.0
  0
SPLINE
  5
6D
330
A
100
AcDbEntity
  8
LAYER_1
 62
     7
100
AcDbSpline
210
0.0
220
0.0
230
1.0
 70
     8
 71
     3
 72
    23
 73
    19
 74
     0
 42
0.000000001
 43
0.00000001
 40
0.0
 40
0.0
 40
0.0
 40
0.0
 40
1.0
 40
1.0
 40
1.0
 40
2.0
 40
2.0
 40
2.0
 40
3.0
 40
3.0
 40
3.0
 40
4.0
 40
4.0
 40
4.0
 40
5.0
 40
5.0
 40
5.0
 40
6.0
 40
6.0
 40
6.0
 40
6.0
 10
148.2224772135417
 20
419.0717502170139
 30
0.0
 10
147.9199978298611
 20
419.3583821614583
 30
0.0
 10
148.0791612413194
 20
419.9385362413194
 30
0.0
 10
148.487060546875
 20
420.0405110677083
 30
0.0
 10
148.7261501736111
 20
420.0976996527777
 30
0.0
 10
148.8822129991319
 20
419.9385362413194
 30
0.0
 10
149.0892632378472
 20
419.8365614149305
 30
0.0
 10
149.3410997178819
 20
419.7183946397569
 30
0.0
 10
149.468568250868
 20
419.7056477864583
 30
0.0
 10
149.6501247829861
 20
419.5175455729166
 30
0.0
 10
149.8061876085069
 20
419.3521809895833
 30
0.0
 10
149.9433024088542
 20
419.3390896267361
 30
0.0
 10
150.1345052083333
 20
419.2247124565972
 30
0.0
 10
150.3990885416667
 20
419.0652045355902
 30
0.0
 10
151.1129123263889
 20
418.4564561631944
 30
0.0
 10
150.55205078125
 20
418.2780002170139
 30
0.0
 10
150.0325303819444
 20
418.1091905381944
 30
0.0
 10
149.6949110243056
 20
418.5363823784722
 30
0.0
 10
149.2646185980903
 20
418.6893446180555
 30
0.0
  0
SPLINE
  5
6C
330
A
100
AcDbEntity
  8
LAYER_1
 62
     7
100
AcDbSpline
210
0.0
220
0.0
230
1.0
 70
    11
 71
     3
 72
    20
 73
    16
 74
     0
 42
0.000000001
 43
0.00000001
 40
0.0
 40
0.0
 40
0.0
 40
0.0
 40
1.0
 40
1.0
 40
1.0
 40
2.0
 40
2.0
 40
2.0
 40
3.0
 40
3.0
 40
3.0
 40
4.0
 40
4.0
 40
4.0
 40
5.0
 40
5.0
 40
5.0
 40
5.0
 10
147.0594129774306
 20
417.4622016059027
 30
0.0
 10
146.9477918836805
 20
417.2072645399305
 30
0.0
 10
146.7025010850694
 20
416.8758463541666
 30
0.0
 10
146.6962999131944
 20
416.5954155815972
 30
0.0
 10
147.2154758029514
 20
416.3308322482638
 30
0.0
 10
147.980287000868
 20
416.8152126736111
 30
0.0
 10
148.1556423611111
 20
417.3223307291667
 30
0.0
 10
148.251416015625
 20
417.5962158203125
 30
0.0
 10
148.1587429470486
 20
417.9369357638889
 30
0.0
 10
147.980287000868
 20
418.1539767795139
 30
0.0
 10
147.8369710286458
 20
418.3289876302083
 30
0.0
 10
147.5406928168403
 20
418.4309624565972
 30
0.0
 10
147.33984375
 20
418.2910915798611
 30
0.0
 10
147.10419921875
 20
418.1250379774305
 30
0.0
 10
147.1644883897569
 20
417.717138671875
 30
0.0
 10
147.0594129774306
 20
417.4622016059027
 30
0.0
  0
SPLINE
  5
6B
330
A
100
AcDbEntity
  8
LAYER_1
 62
     7
100
AcDbSpline
210
0.0
220
0.0
230
1.0
 70
     8
 71
     3
 72
    32
 73
    28
 74
     0
 42
0.000000001
 43
0.00000001
 40
0.0
 40
0.0
 40
0.0
 40
0.0
 40
1.0
 40
1.0
 40
1.0
 40
2.0
 40
2.0
 40
2.0
 40
3.0
 40
3.0
 40
3.0
 40
4.0
 40
4.0
 40
4.0
 40
5.0
 40
5.0
 40
5.0
 40
6.0
 40
6.0
 40
6.0
 40
7.0
 40
7.0
 40
7.0
 40
8.0
 40
8.0
 40
8.0
 40
9.0
 40
9.0
 40
9.0
 40
9.0
 10
166.3068169487847
 20
463.4935004340277
 30
0.0
 10
166.5173122829861
 20
463.3150444878472
 30
0.0
 10
166.7243625217014
 20
463.0442599826388
 30
0.0
 10
166.9696533203125
 20
462.8627034505208
 30
0.0
 10
167.4188937717014
 20
462.5378309461805
 30
0.0
 10
167.8812255859375
 20
462.5378309461805
 30
0.0
 10
168.4196940104167
 20
462.3910698784722
 30
0.0
 10
169.4108479817708
 20
462.1361328125
 30
0.0
 10
170.178759765625
 20
461.683447265625
 30
0.0
 10
171.1954074435764
 20
461.5435763888888
 30
0.0
 10
172.7598253038194
 20
461.3265353732638
 30
0.0
 10
174.7166395399305
 20
461.4350558810763
 30
0.0
 10
176.1728814019097
 20
460.8614474826388
 30
0.0
 10
176.7337429470486
 20
460.6416503906249
 30
0.0
 10
177.5750352647569
 20
460.4662950303819
 30
0.0
 10
178.0752631293403
 20
460.1858642578125
 30
0.0
 10
178.5723904079861
 20
459.9119791666666
 30
0.0
 10
178.9706434461805
 20
459.5199273003472
 30
0.0
 10
178.9069091796875
 20
460.3739664713542
 30
0.0
 10
178.8242268880208
 20
461.4030164930555
 30
0.0
 10
178.1197048611111
 20
462.2636013454861
 30
0.0
 10
178.4480224609375
 20
463.3980712890624
 30
0.0
 10
178.6361246744792
 20
464.035413953993
 30
0.0
 10
179.196986219618
 20
464.7619845920138
 30
0.0
 10
179.6813666449653
 20
465.2015787760416
 30
0.0
 10
180.2008870442708
 20
465.6670111762152
 30
0.0
 10
181.032533094618
 20
465.9474419487847
 30
0.0
 10
180.914710828993
 20
466.788734266493
 30
0.0
  0
SPLINE
  5
6A
330
A
100
AcDbEntity
  8
LAYER_1
 62
     7
100
AcDbSpline
210
0.0
220
0.0
230
1.0
 70
     8
 71
     3
 72
   161
 73
   157
 74
     0
 42
0.000000001
 43
0.00000001
 40
0.0
 40
0.0
 40
0.0
 40
0.0
 40
1.0
 40
1.0
 40
1.0
 40
2.0
 40
2.0
 40
2.0
 40
3.0
 40
3.0
 40
3.0
 40
4.0
 40
4.0
 40
4.0
 40
5.0
 40
5.0
 40
5.0
 40
6.0
 40
6.0
 40
6.0
 40
7.0
 40
7.0
 40
7.0
 40
8.0
 40
8.0
 40
8.0
 40
9.0
 40
9.0
 40
9.0
 40
10.0
 40
10.0
 40
10.0
 40
11.0
 40
11.0
 40
11.0
 40
12.0
 40
12.0
 40
12.0
 40
13.0
 40
13.0
 40
13.0
 40
14.0
 40
14.0
 40
14.0
 40
15.0
 40
15.0
 40
15.0
 40
16.0
 40
16.0
 40
16.0
 40
17.0
 40
17.0
 40
17.0
 40
18.0
 40
18.0
 40
18.0
 40
19.0
 40
19.0
 40
19.0
 40
20.0
 40
20.0
 40
20.0
 40
21.0
 40
21.0
 40
21.0
 40
22.0
 40
22.0
 40
22.0
 40
23.0
 40
23.0
 40
23.0
 40
24.0
 40
24.0
 40
24.0
 40
25.0
 40
25.0
 40
25.0
 40
26.0
 40
26.0
 40
26.0
 40
27.0
 40
27.0
 40
27.0
 40
28.0
 40
28.0
 40
28.0
 40
29.0
 40
29.0
 40
29.0
 40
30.0
 40
30.0
 40
30.0
 40
31.0
 40
31.0
 40
31.0
 40
32.0
 40
32.0
 40
32.0
 40
33.0
 40
33.0
 40
33.0
 40
34.0
 40
34.0
 40
34.0
 40
35.0
 40
35.0
 40
35.0
 40
36.0
 40
36.0
 40
36.0
 40
37.0
 40
37.0
 40
37.0
 40
38.0
 40
38.0
 40
38.0
 40
39.0
 40
39.0
 40
39.0
 40
40.0
 40
40.0
 40
40.0
 40
41.0
 40
41.0
 40
41.0
 40
42.0
 40
42.0
 40
42.0
 40
43.0
 40
43.0
 40
43.0
 40
44.0
 40
44.0
 40
44.0
 40
45.0
 40
45.0
 40
45.0
 40
46.0
 40
46.0
 40
46.0
 40
47.0
 40
47.0
 40
47.0
 40
48.0
 40
48.0
 40
48.0
 40
49.0
 40
49.0
 40
49.0
 40
50.0
 40
50.0
 40
50.0
 40
51.0
 40
51.0
 40
51.0
 40
52.0
 40
52.0
 40
52.0
 40
52.0
 10
162.3266981336805
 20
463.5575792100694
 30
0.0
 10
161.8678114149305
 20
463.5575792100694
 30
0.0
 10
161.412025282118
 20
463.5065917968749
 30
0.0
 10
160.946937391493
 20
463.5320855034722
 30
0.0
 10
160.2555067274305
 20
463.5637803819444
 30
0.0
 10
159.5447835286458
 20
463.7039957682291
 30
0.0
 10
158.8564534505208
 20
463.805970594618
 30
0.0
 10
158.3751736111111
 20
463.8697048611111
 30
0.0
 10
157.964173719618
 20
463.977880859375
 30
0.0
 10
157.505287000868
 20
464.0991482204861
 30
0.0
 10
156.8872368706597
 20
464.2521104600694
 30
0.0
 10
156.240247938368
 20
464.3127441406249
 30
0.0
 10
155.6411458333333
 20
464.5387424045139
 30
0.0
 10
154.6372450086805
 20
464.9087456597222
 30
0.0
 10
153.486927625868
 20
465.0107204861111
 30
0.0
 10
152.5340142144097
 20
465.5426432291666
 30
0.0
 10
151.8935709635417
 20
465.8964545355902
 30
0.0
 10
151.3836968315972
 20
466.1258978949652
 30
0.0
 10
150.6443793402778
 20
466.2564670138888
 30
0.0
 10
150.3160617404514
 20
466.3171006944444
 30
0.0
 10
149.9591498480903
 20
466.2692138671874
 30
0.0
 10
149.6439236111111
 20
466.3680881076389
 30
0.0
 10
148.7419976128472
 20
466.6485188802083
 30
0.0
 10
147.7956298828125
 20
467.2603678385416
 30
0.0
 10
147.1200466579861
 20
467.9101128472222
 30
0.0
 10
146.8492621527778
 20
468.171595594618
 30
0.0
 10
146.6291205512153
 20
468.4520263671874
 30
0.0
 10
146.3710828993055
 20
468.7069634331597
 30
0.0
 10
146.0427652994792
 20
469.0318359375
 30
0.0
 10
145.6348659939236
 20
469.1723958333333
 30
0.0
 10
145.2844997829861
 20
469.4652289496527
 30
0.0
 10
144.0129150390625
 20
470.5425103081597
 30
0.0
 10
142.6682942708333
 20
471.4792317708333
 30
0.0
 10
141.4032552083333
 20
472.5692599826389
 30
0.0
 10
140.8327473958333
 20
473.0536404079861
 30
0.0
 10
140.3228732638889
 20
473.391259765625
 30
0.0
 10
139.6186957465278
 20
473.6654893663194
 30
0.0
 10
139.0512885199653
 20
473.8887315538194
 30
0.0
 10
139.025794813368
 20
473.2989312065972
 30
0.0
 10
138.9782524956597
 20
472.8462456597222
 30
0.0
 10
138.8569851345486
 20
471.7982476128472
 30
0.0
 10
138.7040228949653
 20
470.7530056423611
 30
0.0
 10
138.6657823350694
 20
469.6946723090277
 30
0.0
 10
138.6468343098958
 20
469.2233832465278
 30
0.0
 10
138.5827555338541
 20
468.789990234375
 30
0.0
 10
138.6213406032986
 20
468.3056098090277
 30
0.0
 10
138.6657823350694
 20
467.7571506076388
 30
0.0
 10
138.7357177734375
 20
467.2028347439236
 30
0.0
 10
138.6561360677083
 20
466.6547200520833
 30
0.0
 10
138.6051486545139
 20
466.3171006944444
 30
0.0
 10
138.4873263888889
 20
466.03046875
 30
0.0
 10
138.4204915364583
 20
465.7052517361111
 30
0.0
 10
138.3471110026042
 20
465.3738335503472
 30
0.0
 10
138.3884521484375
 20
465.0551622178819
 30
0.0
 10
138.3822509765625
 20
464.723744032118
 30
0.0
 10
138.3757052951389
 20
464.3923258463541
 30
0.0
 10
138.3057698567708
 20
464.0512613932291
 30
0.0
 10
138.2578830295139
 20
463.7198432074653
 30
0.0
 10
138.1431613498264
 20
462.9712239583333
 30
0.0
 10
138.0029459635417
 20
462.2222601996527
 30
0.0
 10
137.9454128689236
 20
461.4636501736111
 30
0.0
 10
137.8913248697916
 20
460.7277777777778
 30
0.0
 10
137.8179443359375
 20
459.9946614583333
 30
0.0
 10
137.6143391927083
 20
459.2808376736111
 30
0.0
 10
137.419691297743
 20
458.5797607421874
 30
0.0
 10
137.4996175130208
 20
457.8245958116319
 30
0.0
 10
137.3177164713541
 20
457.1076714409722
 30
0.0
 10
137.1744004991319
 20
456.5337185329861
 30
0.0
 10
136.9642496744792
 20
455.9411621093749
 30
0.0
 10
136.773046875
 20
455.3868462456597
 30
0.0
 10
136.4891710069444
 20
454.5645019531249
 30
0.0
 10
136.5498046875
 20
453.6660210503472
 30
0.0
 10
136.2469807942708
 20
452.8564236111111
 30
0.0
 10
136.0209825303819
 20
452.2349283854167
 30
0.0
 10
135.9761962890625
 20
451.6551188151041
 30
0.0
 10
135.9410563151042
 20
451.0019287109375
 30
0.0
 10
135.9093614366319
 20
450.4090277777777
 30
0.0
 10
136.0271837022569
 20
449.8357638888888
 30
0.0
 10
136.0495768229167
 20
449.2428629557292
 30
0.0
 10
136.09091796875
 20
448.2231146918402
 30
0.0
 10
135.9889431423611
 20
447.2033664279513
 30
0.0
 10
135.807386610243
 20
446.1963650173611
 30
0.0
 10
135.63203125
 20
445.1990098741319
 30
0.0
 10
135.4218804253472
 20
444.1761610243055
 30
0.0
 10
135.0870171440972
 20
443.2074001736111
 30
0.0
 10
134.6825629340278
 20
442.0284884982639
 30
0.0
 10
134.25537109375
 20
440.8681803385416
 30
0.0
 10
133.8188774956597
 20
439.702015516493
 30
0.0
 10
133.5322455512153
 20
438.9372043185763
 30
0.0
 10
133.2356228298611
 20
438.1851399739583
 30
0.0
 10
132.8597629123264
 20
437.4585693359375
 30
0.0
 10
132.6206732855903
 20
436.9996826171875
 30
0.0
 10
132.6654595269097
 20
436.2445176866319
 30
0.0
 10
132.601380750868
 20
435.7439453125
 30
0.0
 10
132.5538384331597
 20
435.342591688368
 30
0.0
 10
132.5059516059028
 20
434.9536404079861
 30
0.0
 10
132.4422173394097
 20
434.5619330512152
 30
0.0
 10
132.3753824869792
 20
434.1381863064236
 30
0.0
 10
132.0791042751736
 20
433.8388075086805
 30
0.0
 10
132.0119249131944
 20
433.4309082031249
 30
0.0
 10
131.9516357421875
 20
433.041956922743
 30
0.0
 10
132.0408637152778
 20
432.6660970052083
 30
0.0
 10
132.0598117404514
 20
432.2706000434027
 30
0.0
 10
132.0884060329861
 20
431.5822699652778
 30
0.0
 10
132.018470594618
 20
430.9418267144097
 30
0.0
 10
132.8980034722222
 20
430.8877387152777
 30
0.0
 10
133.0857611762153
 20
430.8749918619791
 30
0.0
 10
133.2642171223958
 20
430.9004855685764
 30
0.0
 10
133.4461181640625
 20
430.8494981553819
 30
0.0
 10
133.6276746961805
 20
430.8050564236111
 30
0.0
 10
133.8126763237847
 20
430.6486490885416
 30
0.0
 10
134.0131808810764
 20
430.6613959418402
 30
0.0
 10
134.3001573350694
 20
430.6837890625
 30
0.0
 10
134.5740424262153
 20
430.976966688368
 30
0.0
 10
134.8610188802083
 20
431.0503472222222
 30
0.0
 10
135.4887152777778
 20
431.2095106336805
 30
0.0
 10
136.1388047960069
 20
430.689990234375
 30
0.0
 10
136.7823486328125
 20
430.7285753038194
 30
0.0
 10
137.3049696180555
 20
430.7540690104166
 30
0.0
 10
137.7924506293403
 20
430.9897135416666
 30
0.0
 10
138.3119710286458
 20
431.0090060763889
 30
0.0
 10
139.6155951605903
 20
431.0469021267361
 30
0.0
 10
140.9378228081597
 20
430.8908393012152
 30
0.0
 10
142.2411024305555
 20
430.8240044487847
 30
0.0
 10
142.6076605902778
 20
430.8050564236111
 30
0.0
 10
143.0028130425347
 20
430.8367513020833
 30
0.0
 10
143.379017469618
 20
430.8112575954861
 30
0.0
 10
143.8568522135417
 20
430.7857638888888
 30
0.0
 10
144.1307373046875
 20
430.6135091145833
 30
0.0
 10
144.5451822916667
 20
430.4095594618055
 30
0.0
 10
145.109144422743
 20
430.1291286892361
 30
0.0
 10
145.7561333550347
 20
430.2376491970486
 30
0.0
 10
146.3583360460069
 20
430.107080078125
 30
0.0
 10
146.7438422309028
 20
430.0271538628472
 30
0.0
 10
147.3939317491319
 20
429.8617892795139
 30
0.0
 10
147.4928059895833
 20
429.4218505859375
 30
0.0
 10
147.6202745225694
 20
428.8354953342014
 30
0.0
 10
147.4611111111111
 20
428.1599121093749
 30
0.0
 10
147.4959065755208
 20
427.5577094184027
 30
0.0
 10
147.5310465494792
 20
426.8597330729166
 30
0.0
 10
147.8817572699653
 20
426.2478841145833
 30
0.0
 10
148.203529188368
 20
425.6487820095486
 30
0.0
 10
148.3371988932292
 20
425.3810980902778
 30
0.0
 10
148.4202256944444
 20
425.0944661458333
 30
0.0
 10
148.5731879340278
 20
424.8395290798611
 30
0.0
 10
148.7419976128472
 20
424.5590983072916
 30
0.0
 10
149.009681532118
 20
424.3551486545139
 30
0.0
 10
149.2008843315972
 20
424.0871202256944
 30
0.0
 10
149.5323025173611
 20
423.6254774305555
 30
0.0
 10
149.8733669704861
 20
423.1507432725694
 30
0.0
 10
150.1951388888889
 20
422.6725640190972
 30
0.0
 10
150.504163953993
 20
422.2233235677083
 30
0.0
 10
150.7749484592014
 20
421.8312717013889
 30
0.0
 10
150.7783935546875
 20
421.264208984375
 30
0.0
 10
150.781494140625
 20
420.8528645833333
 30
0.0
 10
150.781494140625
 20
420.3398898654514
 30
0.0
 10
150.781494140625
 20
419.9860785590278
 30
0.0
  0
SPLINE
  5
69
330
A
100
AcDbEntity
  8
LAYER_1
 62
     7
100
AcDbSpline
210
0.0
220
0.0
230
1.0
 70
     8
 71
     3
 72
    59
 73
    55
 74
     0
 42
0.000000001
 43
0.00000001
 40
0.0
 40
0.0
 40
0.0
 40
0.0
 40
1.0
 40
1.0
 40
1.0
 40
2.0
 40
2.0
 40
2.0
 40
3.0
 40
3.0
 40
3.0
 40
4.0
 40
4.0
 40
4.0
 40
5.0
 40
5.0
 40
5.0
 40
6.0
 40
6.0
 40
6.0
 40
7.0
 40
7.0
 40
7.0
 40
8.0
 40
8.0
 40
8.0
 40
9.0
 40
9.0
 40
9.0
 40
10.0
 40
10.0
 40
10.0
 40
11.0
 40
11.0
 40
11.0
 40
12.0
 40
12.0
 40
12.0
 40
13.0
 40
13.0
 40
13.0
 40
14.0
 40
14.0
 40
14.0
 40
15.0
 40
15.0
 40
15.0
 40
16.0
 40
16.0
 40
16.0
 40
17.0
 40
17.0
 40
17.0
 40
18.0
 40
18.0
 40
18.0
 40
18.0
 10
179.7130615234375
 20
460.75947265625
 30
0.0
 10
179.7482014973958
 20
460.1731174045138
 30
0.0
 10
179.9552517361111
 20
459.6315483940972
 30
0.0
 10
179.9903917100694
 20
459.0513943142361
 30
0.0
 10
180.0317328559028
 20
458.4202528211805
 30
0.0
 10
179.7578477647569
 20
457.8276963975694
 30
0.0
 10
179.6431260850694
 20
457.2096462673611
 30
0.0
 10
179.4901638454861
 20
456.3745551215277
 30
0.0
 10
179.314808485243
 20
455.5746039496527
 30
0.0
 10
179.196986219618
 20
454.7464029947917
 30
0.0
 10
179.0950113932292
 20
454.0484266493055
 30
0.0
 10
178.6933132595486
 20
453.4493245442708
 30
0.0
 10
178.5754909939236
 20
452.728955078125
 30
0.0
 10
178.4383761935764
 20
451.9131564670138
 30
0.0
 10
178.327099609375
 20
451.0877115885417
 30
0.0
 10
178.0115288628472
 20
450.3135986328124
 30
0.0
 10
177.2243245442708
 20
448.4143174913194
 30
0.0
 10
176.5807807074653
 20
446.4196072048611
 30
0.0
 10
175.8700575086805
 20
444.4820855034722
 30
0.0
 10
175.6981472439236
 20
444.0169976128472
 30
0.0
 10
175.4525119357639
 20
443.5546657986111
 30
0.0
 10
175.350537109375
 20
443.0544379340278
 30
0.0
 10
175.2454616970486
 20
442.5063232421875
 30
0.0
 10
175.2485622829861
 20
441.9134223090277
 30
0.0
 10
175.1496880425347
 20
441.3463595920139
 30
0.0
 10
175.0639051649305
 20
440.8650797526041
 30
0.0
 10
174.9588297526041
 20
440.390345594618
 30
0.0
 10
174.9140435112847
 20
439.9059651692708
 30
0.0
 10
174.8727023654514
 20
439.4756727430555
 30
0.0
 10
175.073206922743
 20
439.0488254123263
 30
0.0
 10
175.0160183376736
 20
438.6343804253472
 30
0.0
 10
174.9588297526041
 20
438.2554199218749
 30
0.0
 10
174.5984727647569
 20
437.9016086154513
 30
0.0
 10
174.4362087673611
 20
437.5477973090277
 30
0.0
 10
174.0823974609375
 20
436.7926323784722
 30
0.0
 10
174.2353597005208
 20
435.9895806206597
 30
0.0
 10
173.8243598090278
 20
435.2981499565972
 30
0.0
 10
173.3813205295139
 20
434.5553873697916
 30
0.0
 10
172.8490532769097
 20
434.0200195312499
 30
0.0
 10
172.3009385850694
 20
433.3606282552083
 30
0.0
 10
172.0077609592014
 20
433.0164632161458
 30
0.0
 10
171.7083821614583
 20
432.6722981770833
 30
0.0
 10
171.4214057074653
 20
432.3119411892361
 30
0.0
 10
170.7713161892361
 20
431.48994140625
 30
0.0
 10
170.2201009114583
 20
430.7730170355902
 30
0.0
 10
169.8407958984375
 20
429.8073567708333
 30
0.0
 10
169.6750868055555
 20
429.3898111979166
 30
0.0
 10
169.8535427517361
 20
429.2657877604166
 30
0.0
 10
170.0605929904514
 20
428.8864827473958
 30
0.0
 10
170.29658203125
 20
428.4596354166666
 30
0.0
 10
170.4877848307291
 20
427.9752549913194
 30
0.0
 10
170.6820882161458
 20
427.5260145399305
 30
0.0
 10
170.8161024305555
 20
427.2166449652777
 30
0.0
 10
171.1954074435764
 20
426.9045193142361
 30
0.0
 10
171.2174560546875
 20
426.6047960069444
 30
0.0
  0
SPLINE
  5
68
330
A
100
AcDbEntity
  8
LAYER_1
 62
     7
100
AcDbSpline
210
0.0
220
0.0
230
1.0
 70
     8
 71
     3
 72
    41
 73
    37
 74
     0
 42
0.000000001
 43
0.00000001
 40
0.0
 40
0.0
 40
0.0
 40
0.0
 40
1.0
 40
1.0
 40
1.0
 40
2.0
 40
2.0
 40
2.0
 40
3.0
 40
3.0
 40
3.0
 40
4.0
 40
4.0
 40
4.0
 40
5.0
 40
5.0
 40
5.0
 40
6.0
 40
6.0
 40
6.0
 40
7.0
 40
7.0
 40
7.0
 40
8.0
 40
8.0
 40
8.0
 40
9.0
 40
9.0
 40
9.0
 40
10.0
 40
10.0
 40
10.0
 40
11.0
 40
11.0
 40
11.0
 40
12.0
 40
12.0
 40
12.0
 40
12.0
 10
197.3926025390625
 20
462.1933213975694
 30
0.0
 10
197.3926025390625
 20
462.1933213975694
 30
0.0
 10
191.717152235243
 20
446.5181369357638
 30
0.0
 10
191.717152235243
 20
446.5181369357638
 30
0.0
 10
191.717152235243
 20
446.5181369357638
 30
0.0
 10
190.5351399739583
 20
444.2781358506944
 30
0.0
 10
190.493798828125
 20
443.1819064670138
 30
0.0
 10
190.452113172743
 20
442.0856770833333
 30
0.0
 10
190.6274685329861
 20
441.4290418836805
 30
0.0
 10
190.4138726128472
 20
440.6835232204861
 30
0.0
 10
190.1940755208333
 20
439.9380045572916
 30
0.0
 10
189.2763020833333
 20
437.7390001085069
 30
0.0
 10
189.1488335503472
 20
437.1240505642361
 30
0.0
 10
188.8969970703125
 20
435.9513400607639
 30
0.0
 10
188.0591498480903
 20
434.4344645182291
 30
0.0
 10
188.3967692057292
 20
433.2524522569444
 30
0.0
 10
188.4605034722222
 20
433.0292100694444
 30
0.0
 10
188.7154405381944
 20
432.7487792968749
 30
0.0
 10
188.728187391493
 20
432.5193359375
 30
0.0
 10
188.7633273654514
 20
431.9457275390625
 30
0.0
 10
187.8837944878472
 20
432.0191080729167
 30
0.0
 10
188.5655788845486
 20
431.3338785807291
 30
0.0
 10
188.2279595269097
 20
431.2157118055555
 30
0.0
 10
187.698792860243
 20
431.2350043402777
 30
0.0
 10
187.4314534505208
 20
430.9352810329861
 30
0.0
 10
186.6952365451389
 20
430.1036349826388
 30
0.0
 10
186.7462239583333
 20
428.1916069878472
 30
0.0
 10
186.7524251302083
 20
427.1625569661458
 30
0.0
 10
186.7524251302083
 20
426.3305664062499
 30
0.0
 10
186.551576063368
 20
425.6742757161458
 30
0.0
 10
186.4020589192708
 20
424.8712239583333
 30
0.0
 10
186.2711452907986
 20
424.1608452690972
 30
0.0
 10
186.2935384114583
 20
423.6540717230902
 30
0.0
 10
185.7137288411458
 20
423.169691297743
 30
0.0
 10
185.4267523871528
 20
422.9275010850694
 30
0.0
 10
184.6653862847222
 20
422.4782606336805
 30
0.0
 10
184.474183485243
 20
422.417626953125
 30
0.0
  0
SPLINE
  5
67
330
A
100
AcDbEntity
  8
LAYER_1
 62
     7
100
AcDbSpline
210
0.0
220
0.0
230
1.0
 70
     8
 71
     3
 72
    35
 73
    31
 74
     0
 42
0.000000001
 43
0.00000001
 40
0.0
 40
0.0
 40
0.0
 40
0.0
 40
1.0
 40
1.0
 40
1.0
 40
2.0
 40
2.0
 40
2.0
 40
3.0
 40
3.0
 40
3.0
 40
4.0
 40
4.0
 40
4.0
 40
5.0
 40
5.0
 40
5.0
 40
6.0
 40
6.0
 40
6.0
 40
7.0
 40
7.0
 40
7.0
 40
8.0
 40
8.0
 40
8.0
 40
9.0
 40
9.0
 40
9.0
 40
10.0
 40
10.0
 40
10.0
 40
10.0
 10
153.7322184244792
 20
472.6712348090277
 30
0.0
 10
153.8755343967014
 20
472.5375651041666
 30
0.0
 10
154.063636610243
 20
472.6650336371528
 30
0.0
 10
154.2069525824653
 20
472.7415147569444
 30
0.0
 10
154.2803331163194
 20
472.3970052083333
 30
0.0
 10
154.22314453125
 20
472.2185492621527
 30
0.0
 10
154.5959038628472
 20
472.1262207031249
 30
0.0
 10
154.7106255425347
 20
472.0910807291666
 30
0.0
 10
154.8411946614583
 20
472.1582600911458
 30
0.0
 10
154.9497151692708
 20
472.0976264105902
 30
0.0
 10
155.0578911675347
 20
472.0400933159722
 30
0.0
 10
155.0771837022569
 20
471.8523356119791
 30
0.0
 10
155.1888047960069
 20
471.7917019314236
 30
0.0
 10
155.4499430338541
 20
471.6452853732638
 30
0.0
 10
155.8481960720486
 20
471.8588812934028
 30
0.0
 10
156.1413736979167
 20
471.8523356119791
 30
0.0
 10
156.5334255642361
 20
471.8457899305555
 30
0.0
 10
156.9220323350694
 20
471.54951171875
 30
0.0
 10
157.1070339626736
 20
472.0021972656249
 30
0.0
 10
157.1549207899305
 20
472.1103732638888
 30
0.0
 10
157.0749945746528
 20
472.2250949435763
 30
0.0
 10
157.1452745225694
 20
472.3398166232639
 30
0.0
 10
157.2217556423611
 20
472.4514377170138
 30
0.0
 10
157.4191596137153
 20
472.4479926215278
 30
0.0
 10
157.4956407335069
 20
472.5723605685764
 30
0.0
 10
157.5628200954861
 20
472.6870822482638
 30
0.0
 10
157.6041612413194
 20
473.2479437934027
 30
0.0
 10
157.5945149739583
 20
473.3978054470485
 30
0.0
 10
157.559375
 20
473.8725396050347
 30
0.0
 10
156.9413248697917
 20
474.1881103515624
 30
0.0
 10
156.517578125
 20
474.3345269097222
 30
0.0
  0
SPLINE
  5
66
330
A
100
AcDbEntity
  8
LAYER_1
 62
     7
100
AcDbSpline
210
0.0
220
0.0
230
1.0
 70
    11
 71
     3
 72
    29
 73
    25
 74
     0
 42
0.000000001
 43
0.00000001
 40
0.0
 40
0.0
 40
0.0
 40
0.0
 40
1.0
 40
1.0
 40
1.0
 40
2.0
 40
2.0
 40
2.0
 40
3.0
 40
3.0
 40
3.0
 40
4.0
 40
4.0
 40
4.0
 40
5.0
 40
5.0
 40
5.0
 40
6.0
 40
6.0
 40
6.0
 40
7.0
 40
7.0
 40
7.0
 40
8.0
 40
8.0
 40
8.0
 40
8.0
 10
188.5018446180555
 20
466.1227973090278
 30
0.0
 10
188.2596544053819
 20
465.9953287760416
 30
0.0
 10
188.269300672743
 20
465.9154025607638
 30
0.0
 10
188.3650743272569
 20
465.6925048828124
 30
0.0
 10
188.4543023003472
 20
465.475808376736
 30
0.0
 10
188.492542860243
 20
465.3290473090277
 30
0.0
 10
188.4701497395833
 20
465.0996039496528
 30
0.0
 10
188.4543023003472
 20
464.9276936848958
 30
0.0
 10
188.387122938368
 20
464.6345160590278
 30
0.0
 10
188.610365125868
 20
464.6055772569444
 30
0.0
 10
188.8015679253472
 20
464.5800835503472
 30
0.0
 10
188.9769232855903
 20
464.8543131510417
 30
0.0
 10
189.12333984375
 20
464.953187391493
 30
0.0
 10
189.2604546440972
 20
465.0424153645833
 30
0.0
 10
189.4578586154514
 20
465.1219970703124
 30
0.0
 10
189.5057454427083
 20
465.2939073350694
 30
0.0
 10
189.5470865885416
 20
465.4630615234374
 30
0.0
 10
189.4068712022569
 20
465.5970757378472
 30
0.0
 10
189.3210883246527
 20
465.7434922960069
 30
0.0
 10
189.2446072048611
 20
465.870960828993
 30
0.0
 10
189.2222140842014
 20
466.0683648003472
 30
0.0
 10
189.1043918185764
 20
466.1768853081597
 30
0.0
 10
188.9290364583333
 20
466.3425944010417
 30
0.0
 10
188.6837456597222
 20
466.2151258680555
 30
0.0
 10
188.5018446180555
 20
466.1227973090278
 30
0.0
  0
SPLINE
  5
65
330
A
100
AcDbEntity
  8
LAYER_1
 62
     7
100
AcDbSpline
210
0.0
220
0.0
230
1.0
 70
    11
 71
     3
 72
    23
 73
    19
 74
     0
 42
0.000000001
 43
0.00000001
 40
0.0
 40
0.0
 40
0.0
 40
0.0
 40
1.0
 40
1.0
 40
1.0
 40
2.0
 40
2.0
 40
2.0
 40
3.0
 40
3.0
 40
3.0
 40
4.0
 40
4.0
 40
4.0
 40
5.0
 40
5.0
 40
5.0
 40
6.0
 40
6.0
 40
6.0
 40
6.0
 10
190.95888671875
 20
464.3478841145833
 30
0.0
 10
190.7804307725694
 20
464.0068196614583
 30
0.0
 10
190.9716335720486
 20
463.6209689670138
 30
0.0
 10
191.30615234375
 20
463.4776529947916
 30
0.0
 10
191.5896837022569
 20
463.3598307291666
 30
0.0
 10
191.98828125
 20
463.3150444878472
 30
0.0
 10
192.2208251953125
 20
463.5255398220486
 30
0.0
 10
192.3834337022569
 20
463.6595540364583
 30
0.0
 10
192.3737874348958
 20
463.7580837673611
 30
0.0
 10
192.3579399956597
 20
463.9844265407986
 30
0.0
 10
192.3482937282986
 20
464.1628824869791
 30
0.0
 10
192.2911051432291
 20
464.2776041666666
 30
0.0
 10
192.1412434895833
 20
464.3733778211805
 30
0.0
 10
191.9689887152778
 20
464.4815538194444
 30
0.0
 10
191.6441162109375
 20
464.5132486979167
 30
0.0
 10
191.4401665581597
 20
464.5611355251736
 30
0.0
 10
191.2169243706597
 20
464.6217692057292
 30
0.0
 10
191.0674072265625
 20
464.5452880859374
 30
0.0
 10
190.95888671875
 20
464.3478841145833
 30
0.0
  0
SPLINE
  5
64
330
A
100
AcDbEntity
  8
LAYER_1
 62
     7
100
AcDbSpline
210
0.0
220
0.0
230
1.0
 70
    11
 71
     3
 72
    26
 73
    22
 74
     0
 42
0.000000001
 43
0.00000001
 40
0.0
 40
0.0
 40
0.0
 40
0.0
 40
1.0
 40
1.0
 40
1.0
 40
2.0
 40
2.0
 40
2.0
 40
3.0
 40
3.0
 40
3.0
 40
4.0
 40
4.0
 40
4.0
 40
5.0
 40
5.0
 40
5.0
 40
6.0
 40
6.0
 40
6.0
 40
7.0
 40
7.0
 40
7.0
 40
7.0
 10
189.9074435763889
 20
465.2718587239583
 30
0.0
 10
189.9329372829861
 20
465.0231228298611
 30
0.0
 10
190.0731526692708
 20
465.0617078993055
 30
0.0
 10
190.2736572265625
 20
464.9786810980902
 30
0.0
 10
190.4331651475694
 20
464.9087456597222
 30
0.0
 10
190.5540879991319
 20
464.7747314453125
 30
0.0
 10
190.7359890407986
 20
464.7557834201389
 30
0.0
 10
190.904798719618
 20
464.7364908854166
 30
0.0
 10
190.904798719618
 20
464.7747314453125
 30
0.0
 10
190.9812798394097
 20
464.9211480034722
 30
0.0
 10
191.0481146918403
 20
465.0486165364583
 30
0.0
 10
191.140443250868
 20
465.1953776041667
 30
0.0
 10
191.1693820529514
 20
465.342138671875
 30
0.0
 10
191.2203694661458
 20
465.5808837890625
 30
0.0
 10
191.016419813368
 20
465.7273003472222
 30
0.0
 10
190.8507107204861
 20
465.8520128038194
 30
0.0
 10
190.7039496527778
 20
465.9601888020833
 30
0.0
 10
190.4076714409722
 20
466.2947075737847
 30
0.0
 10
190.2068223741319
 20
466.157937282986
 30
0.0
 10
190.0252658420139
 20
466.03046875
 30
0.0
 10
189.8819498697916
 20
465.4820095486111
 30
0.0
 10
189.9074435763889
 20
465.2718587239583
 30
0.0
  0
SPLINE
  5
63
330
A
100
AcDbEntity
  8
LAYER_1
 62
     7
100
AcDbSpline
210
0.0
220
0.0
230
1.0
 70
    11
 71
     3
 72
    23
 73
    19
 74
     0
 42
0.000000001
 43
0.00000001
 40
0.0
 40
0.0
 40
0.0
 40
0.0
 40
1.0
 40
1.0
 40
1.0
 40
2.0
 40
2.0
 40
2.0
 40
3.0
 40
3.0
 40
3.0
 40
4.0
 40
4.0
 40
4.0
 40
5.0
 40
5.0
 40
5.0
 40
6.0
 40
6.0
 40
6.0
 40
6.0
 10
188.839808485243
 20
464.4498589409722
 30
0.0
 10
188.7536810980903
 20
464.2138699001736
 30
0.0
 10
188.8332628038194
 20
464.0736545138889
 30
0.0
 10
189.0182644314236
 20
463.9268934461805
 30
0.0
 10
189.1136935763889
 20
463.8504123263888
 30
0.0
 10
189.1488335503472
 20
463.7870225694444
 30
0.0
 10
189.2666558159722
 20
463.8125162760416
 30
0.0
 10
189.3720757378472
 20
463.8314643012152
 30
0.0
 10
189.4833523220486
 20
463.9589328342013
 30
0.0
 10
189.5215928819444
 20
464.0481608072917
 30
0.0
 10
189.5853271484375
 20
464.1756293402777
 30
0.0
 10
189.5536322699652
 20
464.3061984592014
 30
0.0
 10
189.5470865885416
 20
464.4433132595486
 30
0.0
 10
189.5408854166666
 20
464.5931749131944
 30
0.0
 10
189.6556070963541
 20
464.9466417100694
 30
0.0
 10
189.4547580295139
 20
465.0265679253472
 30
0.0
 10
189.2191134982639
 20
465.1154513888889
 30
0.0
 10
188.9097439236111
 20
464.6283148871527
 30
0.0
 10
188.839808485243
 20
464.4498589409722
 30
0.0
  0
SPLINE
  5
62
330
A
100
AcDbEntity
  8
LAYER_1
 62
     7
100
AcDbSpline
210
0.0
220
0.0
230
1.0
 70
    11
 71
     3
 72
    20
 73
    16
 74
     0
 42
0.000000001
 43
0.00000001
 40
0.0
 40
0.0
 40
0.0
 40
0.0
 40
1.0
 40
1.0
 40
1.0
 40
2.0
 40
2.0
 40
2.0
 40
3.0
 40
3.0
 40
3.0
 40
4.0
 40
4.0
 40
4.0
 40
5.0
 40
5.0
 40
5.0
 40
5.0
 10
191.2489637586805
 20
465.2622124565972
 30
0.0
 10
191.0639621310764
 20
465.0741102430555
 30
0.0
 10
190.9812798394097
 20
464.7812771267361
 30
0.0
 10
191.258265516493
 20
464.6662109375
 30
0.0
 10
191.3891791449653
 20
464.6152235243055
 30
0.0
 10
192.0964572482639
 20
464.4178195529514
 30
0.0
 10
192.2146240234375
 20
464.5387424045139
 30
0.0
 10
192.3579399956597
 20
464.6917046440972
 30
0.0
 10
192.2015326605903
 20
464.8670600043403
 30
0.0
 10
192.1219509548611
 20
465.0041748046875
 30
0.0
 10
192.0327229817708
 20
465.1540364583333
 30
0.0
 10
192.0678629557291
 20
465.3865804036458
 30
0.0
 10
191.8735595703125
 20
465.4406684027778
 30
0.0
 10
191.704749891493
 20
465.4885552300347
 30
0.0
 10
191.3667860243055
 20
465.3800347222222
 30
0.0
 10
191.2489637586805
 20
465.2622124565972
 30
0.0
  0
SPLINE
  5
61
330
A
100
AcDbEntity
  8
LAYER_1
 62
     7
100
AcDbSpline
210
0.0
220
0.0
230
1.0
 70
    11
 71
     3
 72
    14
 73
    10
 74
     0
 42
0.000000001
 43
0.00000001
 40
0.0
 40
0.0
 40
0.0
 40
0.0
 40
1.0
 40
1.0
 40
1.0
 40
2.0
 40
2.0
 40
2.0
 40
3.0
 40
3.0
 40
3.0
 40
3.0
 10
189.8020236545139
 20
464.1053493923611
 30
0.0
 10
189.8371636284722
 20
463.8569580078125
 30
0.0
 10
190.1909749348958
 20
463.6020209418402
 30
0.0
 10
190.4076714409722
 20
463.7932237413194
 30
0.0
 10
190.7232421875
 20
464.0674533420138
 30
0.0
 10
190.452113172743
 20
464.5676812065972
 30
0.0
 10
190.2099229600694
 20
464.7936794704861
 30
0.0
 10
189.757581922743
 20
465.2270724826388
 30
0.0
 10
189.763783094618
 20
464.3733778211805
 30
0.0
 10
189.8020236545139
 20
464.1053493923611
 30
0.0
  0
INSERT
  5
4F
330
A
100
AcDbEntity
  8
LAYER_1
 62
     7
100
AcDbBlockReference
  2
AI9-BLK5
 10
77.3734
 20
419.224712
 30
0.0
  0
INSERT
  5
3C
330
A
100
AcDbEntity
  8
LAYER_1
  6
AI9-LType1
 62
     7
100
AcDbBlockReference
  2
AI9-BLK1
 10
233.867379
 20
419.281901
 30
0.0
  0
MTEXT
  5
3A
330
A
100
AcDbEntity
  8
LAYER_1
  6
AI9-LType1
 62
     7
100
AcDbMText
 10
155.019651
 20
468.954817
 30
0.0
 40
1.643461
 41
0.0
 46
0.0
 71
     1
 72
     2
  1
\W1.00;\fHelvetica|b1|i0;978
  7
STD
 73
     1
 44
1.0
  0
MTEXT
  5
39
330
A
100
AcDbEntity
  8
LAYER_1
  6
AI9-LType1
 62
     7
100
AcDbMText
 10
169.101478
 20
466.883625
 30
0.0
 40
1.643461
 41
0.0
 46
0.0
 71
     1
 72
     2
  1
\W1.00;\fHelvetica|b1|i0;978
  7
STD
 73
     1
 44
1.0
  0
MTEXT
  5
38
330
A
100
AcDbEntity
  8
LAYER_1
  6
AI9-LType1
 62
     7
100
AcDbMText
 10
161.507799
 20
478.890817
 30
0.0
 40
1.643461
 41
0.0
 46
0.0
 71
     1
 72
     2
  1
\W1.00;\fHelvetica|b1|i0;993
  7
STD
 73
     1
 44
1.0
  0
MTEXT
  5
37
330
A
100
AcDbEntity
  8
LAYER_1
  6
AI9-LType1
 62
     7
100
AcDbMText
 10
130.167076
 20
464.534759
 30
0.0
 40
1.643461
 41
0.0
 46
0.0
 71
     1
 72
     2
  1
\W1.00;\fHelvetica|b1|i0;821
  7
STD
 73
     1
 44
1.0
  0
MTEXT
  5
36
330
A
100
AcDbEntity
  8
LAYER_1
  6
AI9-LType1
 62
     7
100
AcDbMText
 10
148.531502
 20
452.795252
 30
0.0
 40
1.643461
 41
0.0
 46
0.0
 71
     1
 72
     2
  1
\W1.00;\fHelvetica|b1|i0;973
  7
STD
 73
     1
 44
1.0
  0
MTEXT
  5
35
330
A
100
AcDbEntity
  8
LAYER_1
  6
AI9-LType1
 62
     7
100
AcDbMText
 10
166.201742
 20
451.421692
 30
0.0
 40
1.643461
 41
0.0
 46
0.0
 71
     1
 72
     2
  1
\W1.00;\fHelvetica|b1|i0;973
  7
STD
 73
     1
 44
1.0
  0
MTEXT
  5
34
330
A
100
AcDbEntity
  8
LAYER_1
  6
AI9-LType1
 62
     7
100
AcDbMText
 10
180.834785
 20
439.54507
 30
0.0
 40
1.643461
 41
0.0
 46
0.0
 71
     1
 72
     2
  1
\W1.00;\fHelvetica|b1|i0;822
  7
STD
 73
     1
 44
1.0
  0
MTEXT
  5
33
330
A
100
AcDbEntity
  8
LAYER_1
  6
AI9-LType1
 62
     7
100
AcDbMText
 10
172.552775
 20
416.763687
 30
0.0
 40
1.643461
 41
0.0
 46
0.0
 71
     1
 72
     2
  1
\W1.00;\fHelvetica|b1|i0;211
  7
STD
 73
     1
 44
1.0
  0
MTEXT
  5
32
330
A
100
AcDbEntity
  8
LAYER_1
  6
AI9-LType1
 62
     7
100
AcDbMText
 10
79.559657
 20
419.953714
 30
0.0
 40
1.232675
 41
0.0
 46
0.0
 71
     1
 72
     2
  1
\W1.00;\fHelvetica|b0|i0;770/280
  7
STD
 73
     1
 44
1.0
  0
MTEXT
  5
31
330
A
100
AcDbEntity
  8
LAYER_1
  6
AI9-LType1
 62
     7
100
AcDbMText
 10
235.833667
 20
419.730472
 30
0.0
 40
1.232675
 41
0.0
 46
0.0
 71
     1
 72
     2
  1
\W1.00;\fHelvetica|b0|i0;780/280
  7
STD
 73
     1
 44
1.0
  0
POLYLINE
  5
2A
330
A
100
AcDbEntity
  8
LAYER_1
  6
AI9-LType1
 62
     7
100
AcDb2dPolyline
 66
     1
 10
0.0
 20
0.0
 30
0.0
  0
VERTEX
  5
2B
330
2A
100
AcDbEntity
  8
LAYER_1
  6
AI9-LType1
 62
     7
100
AcDbVertex
100
AcDb2dVertex
 10
145.211119
 20
416.028353
 30
0.0
  0
VERTEX
  5
2C
330
2A
100
AcDbEntity
  8
LAYER_1
  6
AI9-LType1
 62
     7
100
AcDbVertex
100
AcDb2dVertex
 10
144.557929
 20
414.316829
 30
0.0
  0
VERTEX
  5
2D
330
2A
100
AcDbEntity
  8
LAYER_1
  6
AI9-LType1
 62
     7
100
AcDbVertex
100
AcDb2dVertex
 10
155.797209
 20
412.233236
 30
0.0
  0
VERTEX
  5
2E
330
2A
100
AcDbEntity
  8
LAYER_1
  6
AI9-LType1
 62
     7
100
AcDbVertex
100
AcDb2dVertex
 10
170.105379
 20
409.709359
 30
0.0
  0
VERTEX
  5
2F
330
2A
100
AcDbEntity
  8
LAYER_1
  6
AI9-LType1
 62
     7
100
AcDbVertex
100
AcDb2dVertex
 10
171.236749
 20
415.681087
 30
0.0
  0
SEQEND
  5
30
330
2A
100
AcDbEntity
  8
LAYER_1
  6
AI9-LType1
 62
     7
  0
ENDSEC
  0
SECTION
  2
OBJECTS
  0
DICTIONARY
  5
19
330
0
100
AcDbDictionary
281
     1
  3
ACAD_DETAILVIEWSTYLE
350
156
  3
ACAD_GROUP
350
1A
  3
ACAD_LAYOUT
350
1E
  3
ACAD_MATERIAL
350
116
  3
ACAD_MLEADERSTYLE
350
11C
  3
ACAD_MLINESTYLE
350
1B
  3
ACAD_PLOTSETTINGS
350
22
  3
ACAD_PLOTSTYLENAME
350
1F
  3
ACAD_SCALELIST
350
DB
  3
ACAD_SECTIONVIEWSTYLE
350
157
  3
ACAD_TABLESTYLE
350
11A
  3
ACAD_VISUALSTYLE
350
FD
  3
ACAD_WIPEOUT_VARS
350
23
  3
ACDB_RECOMPOSE_DATA
350
152
  3
AcDbVariableDictionary
350
11E
  0
DICTIONARY
  5
156
102
{ACAD_REACTORS
330
19
102
}
330
19
100
AcDbDictionary
281
     1
  0
DICTIONARY
  5
1A
102
{ACAD_REACTORS
330
19
102
}
330
19
100
AcDbDictionary
281
     1
  0
DICTIONARY
  5
1E
102
{ACAD_REACTORS
330
19
102
}
330
19
100
AcDbDictionary
281
     1
  3
Layout1
350
21
  3
Model
350
20
  0
DICTIONARY
  5
116
102
{ACAD_REACTORS
330
19
102
}
330
19
100
AcDbDictionary
281
     1
  3
ByBlock
350
118
  3
ByLayer
350
117
  3
Global
350
119
  0
DICTIONARY
  5
11C
102
{ACAD_REACTORS
330
19
102
}
330
19
100
AcDbDictionary
281
     1
  3
Standard
350
11D
  0
DICTIONARY
  5
1B
102
{ACAD_REACTORS
330
19
102
}
330
19
100
AcDbDictionary
281
     1
  3
Standard
350
1C
  0
DICTIONARY
  5
22
102
{ACAD_REACTORS
330
19
102
}
330
19
100
AcDbDictionary
281
     1
  0
ACDBDICTIONARYWDFLT
  5
1F
102
{ACAD_REACTORS
330
19
102
}
330
19
100
AcDbDictionary
281
     1
  3
Normal
350
1D
100
AcDbDictionaryWithDefault
340
1D
  0
DICTIONARY
  5
DB
102
{ACAD_REACTORS
330
19
102
}
330
19
100
AcDbDictionary
281
     1
  3
A0
350
DC
  3
A1
350
DD
  3
A2
350
DE
  3
A3
350
DF
  3
A4
350
E0
  3
A5
350
E1
  3
A6
350
E2
  3
A7
350
E3
  3
A8
350
E4
  3
A9
350
E5
  3
B0
350
E6
  3
B1
350
E7
  3
B2
350
E8
  3
B3
350
E9
  3
B4
350
EA
  3
B5
350
EB
  3
B6
350
EC
  3
B7
350
ED
  3
B8
350
EE
  3
B9
350
EF
  3
C0
350
F0
  3
C1
350
F1
  3
C2
350
F2
  3
C3
350
F3
  3
C4
350
F4
  3
C5
350
F5
  3
C6
350
F6
  3
C7
350
F7
  3
C8
350
F8
  3
C9
350
F9
  3
D0
350
FA
  3
D1
350
FB
  3
D2
350
FC
  0
DICTIONARY
  5
157
102
{ACAD_REACTORS
330
19
102
}
330
19
100
AcDbDictionary
281
     1
  0
DICTIONARY
  5
11A
102
{ACAD_REACTORS
330
19
102
}
330
19
100
AcDbDictionary
281
     1
  3
Standard
350
11B
  0
DICTIONARY
  5
FD
102
{ACAD_REACTORS
330
19
102
}
330
19
100
AcDbDictionary
281
     1
  3
2dWireframe
350
102
  3
Basic
350
105
  3
Brighten
350
109
  3
ColorChange
350
10D
  3
Conceptual
350
107
  3
Dim
350
108
  3
EdgeColorOff
350
110
  3
Facepattern
350
10C
  3
Flat
350
FE
  3
FlatWithEdges
350
FF
  3
Gouraud
350
100
  3
GouraudWithEdges
350
101
  3
Hidden
350
104
  3
JitterOff
350
10E
  3
Linepattern
350
10B
  3
OverhangOff
350
10F
  3
Realistic
350
106
  3
Shaded
350
115
  3
Shaded with edges
350
114
  3
Shades of Gray
350
111
  3
Sketchy
350
112
  3
Thicken
350
10A
  3
Wireframe
350
103
  3
X-Ray
350
113
  0
WIPEOUTVARIABLES
  5
23
330
19
100
AcDbWipeoutVariables
 70
     1
  0
XRECORD
  5
152
102
{ACAD_REACTORS
330
19
102
}
330
19
100
AcDbXrecord
280
     1
 90
        1
330
11B
  0
DICTIONARY
  5
11E
102
{ACAD_REACTORS
330
19
102
}
330
19
100
AcDbDictionary
281
     1
  3
CANNOSCALE
350
11F
  3
CMLEADERSTYLE
350
154
  3
CTABLESTYLE
350
153
  3
MSLTSCALE
350
155
  0
LAYOUT
  5
21
102
{ACAD_REACTORS
330
1E
102
}
330
1E
100
AcDbPlotSettings
  1

  2

  4

  6

 40
0.0
 41
0.0
 42
0.0
 43
0.0
 44
0.0
 45
0.0
 46
0.0
 47
0.0
 48
0.0
 49
0.0
140
0.0
141
0.0
142
1.0
143
1.0
 70
     0
 72
     0
 73
     0
 74
     0
  7

 75
     0
 76
     0
 77
     2
 78
   300
147
1.0
148
0.0
149
0.0
100
AcDbLayout
  1
Layout1
 70
     0
 71
     0
 10
0.0
 20
0.0
 11
0.0
 21
0.0
 12
0.0
 22
0.0
 32
0.0
 14
0.0
 24
0.0
 34
0.0
 15
0.0
 25
0.0
 35
0.0
146
0.0
 13
0.0
 23
0.0
 33
0.0
 16
0.0
 26
0.0
 36
0.0
 17
0.0
 27
0.0
 37
0.0
 76
     0
330
B
  0
LAYOUT
  5
20
102
{ACAD_REACTORS
330
1E
102
}
330
1E
100
AcDbPlotSettings
  1

  2

  4

  6

 40
0.0
 41
0.0
 42
0.0
 43
0.0
 44
0.0
 45
0.0
 46
0.0
 47
0.0
 48
0.0
 49
0.0
140
0.0
141
0.0
142
1.0
143
1.0
 70
  1024
 72
     0
 73
     0
 74
     0
  7

 75
     0
 76
     0
 77
     2
 78
   300
147
1.0
148
0.0
149
0.0
100
AcDbLayout
  1
Model
 70
     0
 71
     1
 10
0.0
 20
0.0
 11
0.0
 21
0.0
 12
0.0
 22
0.0
 32
0.0
 14
0.0
 24
0.0
 34
0.0
 15
0.0
 25
0.0
 35
0.0
146
0.0
 13
0.0
 23
0.0
 33
0.0
 16
0.0
 26
0.0
 36
0.0
 17
0.0
 27
0.0
 37
0.0
 76
     0
330
A
331
15
  0
MATERIAL
  5
118
102
{ACAD_REACTORS
330
116
102
}
330
116
100
AcDbMaterial
  1
ByBlock
 72
     1
 94
      127
  0
MATERIAL
  5
117
102
{ACAD_REACTORS
330
116
102
}
330
116
100
AcDbMaterial
  1
ByLayer
 72
     1
 94
      127
  0
MATERIAL
  5
119
102
{ACAD_REACTORS
330
116
102
}
330
116
100
AcDbMaterial
  1
Global
 72
     1
 94
      127
  0
MLEADERSTYLE
  5
11D
102
{ACAD_REACTORS
330
11C
102
}
330
11C
100
AcDbMLeaderStyle
179
     2
170
     2
171
     1
172
     0
 90
        2
 40
0.0
 41
0.0
173
     1
 91
-1056964608
340
11
 92
       -2
290
     1
 42
0.09
291
     1
 43
0.36
  3
Standard
341
0
 44
0.18
300

342
17
174
     1
178
     6
175
     1
176
     0
 93
-1056964608
 45
0.18
292
     0
297
     0
 46
0.18
343
0
 94
-1056964608
 47
1.0
 49
1.0
140
1.0
293
     1
141
0.0
294
     1
177
     0
142
1.0
295
     0
296
     0
143
0.125
271
     0
272
     9
273
     9
  0
MLINESTYLE
  5
1C
102
{ACAD_REACTORS
330
1B
102
}
330
1B
100
AcDbMlineStyle
  2
Standard
 70
     0
  3

 62
     0
 51
90.0
 52
90.0
 71
     2
 49
0.5
 62
   256
  6
BYLAYER
 49
-0.5
 62
   256
  6
BYLAYER
  0
ACDBPLACEHOLDER
  5
1D
102
{ACAD_REACTORS
330
1F
102
}
330
1F
  0
SCALE
  5
DC
102
{ACAD_REACTORS
330
DB
102
}
330
DB
100
AcDbScale
 70
     0
300
1:1
140
1.0
141
1.0
290
     1
  0
SCALE
  5
DD
102
{ACAD_REACTORS
330
DB
102
}
330
DB
100
AcDbScale
 70
     0
300
1:2
140
1.0
141
2.0
290
     0
  0
SCALE
  5
DE
102
{ACAD_REACTORS
330
DB
102
}
330
DB
100
AcDbScale
 70
     0
300
1:4
140
1.0
141
4.0
290
     0
  0
SCALE
  5
DF
102
{ACAD_REACTORS
330
DB
102
}
330
DB
100
AcDbScale
 70
     0
300
1:5
140
1.0
141
5.0
290
     0
  0
SCALE
  5
E0
102
{ACAD_REACTORS
330
DB
102
}
330
DB
100
AcDbScale
 70
     0
300
1:8
140
1.0
141
8.0
290
     0
  0
SCALE
  5
E1
102
{ACAD_REACTORS
330
DB
102
}
330
DB
100
AcDbScale
 70
     0
300
1:10
140
1.0
141
10.0
290
     0
  0
SCALE
  5
E2
102
{ACAD_REACTORS
330
DB
102
}
330
DB
100
AcDbScale
 70
     0
300
1:16
140
1.0
141
16.0
290
     0
  0
SCALE
  5
E3
102
{ACAD_REACTORS
330
DB
102
}
330
DB
100
AcDbScale
 70
     0
300
1:20
140
1.0
141
20.0
290
     0
  0
SCALE
  5
E4
102
{ACAD_REACTORS
330
DB
102
}
330
DB
100
AcDbScale
 70
     0
300
1:30
140
1.0
141
30.0
290
     0
  0
SCALE
  5
E5
102
{ACAD_REACTORS
330
DB
102
}
330
DB
100
AcDbScale
 70
     0
300
1:40
140
1.0
141
40.0
290
     0
  0
SCALE
  5
E6
102
{ACAD_REACTORS
330
DB
102
}
330
DB
100
AcDbScale
 70
     0
300
1:50
140
1.0
141
50.0
290
     0
  0
SCALE
  5
E7
102
{ACAD_REACTORS
330
DB
102
}
330
DB
100
AcDbScale
 70
     0
300
1:100
140
1.0
141
100.0
290
     0
  0
SCALE
  5
E8
102
{ACAD_REACTORS
330
DB
102
}
330
DB
100
AcDbScale
 70
     0
300
2:1
140
2.0
141
1.0
290
     0
  0
SCALE
  5
E9
102
{ACAD_REACTORS
330
DB
102
}
330
DB
100
AcDbScale
 70
     0
300
4:1
140
4.0
141
1.0
290
     0
  0
SCALE
  5
EA
102
{ACAD_REACTORS
330
DB
102
}
330
DB
100
AcDbScale
 70
     0
300
8:1
140
8.0
141
1.0
290
     0
  0
SCALE
  5
EB
102
{ACAD_REACTORS
330
DB
102
}
330
DB
100
AcDbScale
 70
     0
300
10:1
140
10.0
141
1.0
290
     0
  0
SCALE
  5
EC
102
{ACAD_REACTORS
330
DB
102
}
330
DB
100
AcDbScale
 70
     0
300
100:1
140
100.0
141
1.0
290
     0
  0
SCALE
  5
ED
102
{ACAD_REACTORS
330
DB
102
}
330
DB
100
AcDbScale
 70
     0
300
1/128" = 1'-0"
140
0.0078125
141
12.0
290
     0
  0
SCALE
  5
EE
102
{ACAD_REACTORS
330
DB
102
}
330
DB
100
AcDbScale
 70
     0
300
1/64" = 1'-0"
140
0.015625
141
12.0
290
     0
  0
SCALE
  5
EF
102
{ACAD_REACTORS
330
DB
102
}
330
DB
100
AcDbScale
 70
     0
300
1/32" = 1'-0"
140
0.03125
141
12.0
290
     0
  0
SCALE
  5
F0
102
{ACAD_REACTORS
330
DB
102
}
330
DB
100
AcDbScale
 70
     0
300
1/16" = 1'-0"
140
0.0625
141
12.0
290
     0
  0
SCALE
  5
F1
102
{ACAD_REACTORS
330
DB
102
}
330
DB
100
AcDbScale
 70
     0
300
3/32" = 1'-0"
140
0.09375
141
12.0
290
     0
  0
SCALE
  5
F2
102
{ACAD_REACTORS
330
DB
102
}
330
DB
100
AcDbScale
 70
     0
300
1/8" = 1'-0"
140
0.125
141
12.0
290
     0
  0
SCALE
  5
F3
102
{ACAD_REACTORS
330
DB
102
}
330
DB
100
AcDbScale
 70
     0
300
3/16" = 1'-0"
140
0.1875
141
12.0
290
     0
  0
SCALE
  5
F4
102
{ACAD_REACTORS
330
DB
102
}
330
DB
100
AcDbScale
 70
     0
300
1/4" = 1'-0"
140
0.25
141
12.0
290
     0
  0
SCALE
  5
F5
102
{ACAD_REACTORS
330
DB
102
}
330
DB
100
AcDbScale
 70
     0
300
3/8" = 1'-0"
140
0.375
141
12.0
290
     0
  0
SCALE
  5
F6
102
{ACAD_REACTORS
330
DB
102
}
330
DB
100
AcDbScale
 70
     0
300
1/2" = 1'-0"
140
0.5
141
12.0
290
     0
  0
SCALE
  5
F7
102
{ACAD_REACTORS
330
DB
102
}
330
DB
100
AcDbScale
 70
     0
300
3/4" = 1'-0"
140
0.75
141
12.0
290
     0
  0
SCALE
  5
F8
102
{ACAD_REACTORS
330
DB
102
}
330
DB
100
AcDbScale
 70
     0
300
1" = 1'-0"
140
1.0
141
12.0
290
     0
  0
SCALE
  5
F9
102
{ACAD_REACTORS
330
DB
102
}
330
DB
100
AcDbScale
 70
     0
300
1-1/2" = 1'-0"
140
1.5
141
12.0
290
     0
  0
SCALE
  5
FA
102
{ACAD_REACTORS
330
DB
102
}
330
DB
100
AcDbScale
 70
     0
300
3" = 1'-0"
140
3.0
141
12.0
290
     0
  0
SCALE
  5
FB
102
{ACAD_REACTORS
330
DB
102
}
330
DB
100
AcDbScale
 70
     0
300
6" = 1'-0"
140
6.0
141
12.0
290
     0
  0
SCALE
  5
FC
102
{ACAD_REACTORS
330
DB
102
}
330
DB
100
AcDbScale
 70
     0
300
1'-0" = 1'-0"
140
12.0
141
12.0
290
     0
  0
TABLESTYLE
  5
11B
102
{ACAD_REACTORS
330
11A
102
}
102
{ACAD_XDICTIONARY
360
150
102
}
330
11A
100
AcDbTableStyle
  3
Standard
 70
     0
 71
     0
 40
0.06
 41
0.06
280
     0
281
     0
  7
Standard
140
0.18
170
     2
 62
     0
 63
   257
283
     0
 90
        4
 91
        0
  1

274
    -2
284
     1
 64
     0
275
    -2
285
     1
 65
     0
276
    -2
286
     1
 66
     0
277
    -2
287
     1
 67
     0
278
    -2
288
     1
 68
     0
279
    -2
289
     1
 69
     0
  7
Standard
140
0.25
170
     5
 62
     0
 63
   257
283
     0
 90
        4
 91
        0
  1

274
    -2
284
     1
 64
     0
275
    -2
285
     1
 65
     0
276
    -2
286
     1
 66
     0
277
    -2
287
     1
 67
     0
278
    -2
288
     1
 68
     0
279
    -2
289
     1
 69
     0
  7
Standard
140
0.18
170
     5
 62
     0
 63
   257
283
     0
 90
        4
 91
        0
  1

274
    -2
284
     1
 64
     0
275
    -2
285
     1
 65
     0
276
    -2
286
     1
 66
     0
277
    -2
287
     1
 67
     0
278
    -2
288
     1
 68
     0
279
    -2
289
     1
 69
     0
  0
VISUALSTYLE
  5
102
102
{ACAD_REACTORS
330
FD
102
}
102
{ACAD_XDICTIONARY
360
128
102
}
330
FD
100
AcDbVisualStyle
  2
2dWireframe
 70
     4
177
     2
291
     0
 71
     0
176
     1
 72
     2
176
     1
 73
     0
176
     1
 90
        0
176
     1
 40
0.6
176
     1
 41
30.0
176
     1
 62
     5
 63
     7
421
 16777215
176
     1
 74
     1
176
     1
 91
        4
176
     1
 64
     7
176
     1
 65
   257
176
     1
 75
     1
176
     1
175
     1
176
     1
 42
1.0
176
     1
 92
        0
176
     1
 66
   257
176
     1
 43
1.0
176
     1
 76
     1
176
     1
 77
     6
176
     1
 78
     2
176
     1
 67
     7
176
     1
 79
     5
176
     1
170
     0
176
     1
171
     0
176
     1
290
     0
176
     1
 93
        1
176
     1
 44
0.0
176
     1
173
     0
176
     1
  0
VISUALSTYLE
  5
105
102
{ACAD_REACTORS
330
FD
102
}
102
{ACAD_XDICTIONARY
360
12E
102
}
330
FD
100
AcDbVisualStyle
  2
Basic
 70
     7
177
     2
291
     1
 71
     1
176
     1
 72
     0
176
     1
 73
     1
176
     1
 90
        0
176
     1
 40
0.6
176
     1
 41
30.0
176
     1
 62
     5
 63
     7
421
 16777215
176
     1
 74
     0
176
     1
 91
        4
176
     1
 64
     7
176
     1
 65
   257
176
     1
 75
     1
176
     1
175
     1
176
     1
 42
1.0
176
     1
 92
        8
176
     1
 66
     7
176
     1
 43
1.0
176
     1
 76
     1
176
     1
 77
     6
176
     1
 78
     2
176
     1
 67
     7
176
     1
 79
     5
176
     1
170
     0
176
     1
171
     0
176
     1
290
     0
176
     1
 93
        1
176
     1
 44
0.0
176
     1
173
     0
176
     1
  0
VISUALSTYLE
  5
109
102
{ACAD_REACTORS
330
FD
102
}
102
{ACAD_XDICTIONARY
360
136
102
}
330
FD
100
AcDbVisualStyle
  2
Brighten
 70
    12
177
     2
291
     1
 71
     2
176
     1
 72
     2
176
     1
 73
     0
176
     1
 90
        0
176
     1
 40
0.6
176
     1
 41
30.0
176
     1
 62
     5
 63
     7
421
 16777215
176
     1
 74
     1
176
     1
 91
        4
176
     1
 64
     7
176
     1
 65
   257
176
     1
 75
     1
176
     1
175
     1
176
     1
 42
1.0
176
     1
 92
        8
176
     1
 66
     7
176
     1
 43
1.0
176
     1
 76
     1
176
     1
 77
     6
176
     1
 78
     2
176
     1
 67
     7
176
     1
 79
     5
176
     1
170
     0
176
     1
171
     0
176
     1
290
     0
176
     1
 93
        1
176
     1
 44
50.0
176
     1
173
     0
176
     1
  0
VISUALSTYLE
  5
10D
102
{ACAD_REACTORS
330
FD
102
}
102
{ACAD_XDICTIONARY
360
13E
102
}
330
FD
100
AcDbVisualStyle
  2
ColorChange
 70
    16
177
     2
291
     1
 71
     2
176
     1
 72
     2
176
     1
 73
     3
176
     1
 90
        0
176
     1
 40
0.6
176
     1
 41
30.0
176
     1
 62
     5
 63
     8
421
  8421504
176
     1
 74
     1
176
     1
 91
        4
176
     1
 64
     7
176
     1
 65
   257
176
     1
 75
     1
176
     1
175
     1
176
     1
 42
1.0
176
     1
 92
        8
176
     1
 66
     8
424
  8421504
176
     1
 43
1.0
176
     1
 76
     1
176
     1
 77
     6
176
     1
 78
     2
176
     1
 67
     7
176
     1
 79
     5
176
     1
170
     0
176
     1
171
     0
176
     1
290
     0
176
     1
 93
        1
176
     1
 44
0.0
176
     1
173
     0
176
     1
  0
VISUALSTYLE
  5
107
102
{ACAD_REACTORS
330
FD
102
}
102
{ACAD_XDICTIONARY
360
132
102
}
330
FD
100
AcDbVisualStyle
  2
Conceptual
 70
     9
177
     2
291
     0
 71
     3
176
     1
 72
     2
176
     1
 73
     0
176
     1
 90
        0
176
     1
 40
0.6
176
     1
 41
30.0
176
     1
 62
     5
 63
     7
421
 16777215
176
     1
 74
     2
176
     1
 91
        2
176
     1
 64
     7
176
     1
 65
   257
176
     1
 75
     1
176
     1
175
     1
176
     1
 42
179.0
176
     1
 92
        8
176
     1
 66
     7
176
     1
 43
1.0
176
     1
 76
     1
176
     1
 77
     6
176
     1
 78
     2
176
     1
 67
     7
176
     1
 79
     3
176
     1
170
     0
176
     1
171
     0
176
     1
290
     0
176
     1
 93
        1
176
     1
 44
0.0
176
     1
173
     0
176
     1
  0
VISUALSTYLE
  5
108
102
{ACAD_REACTORS
330
FD
102
}
102
{ACAD_XDICTIONARY
360
134
102
}
330
FD
100
AcDbVisualStyle
  2
Dim
 70
    11
177
     2
291
     1
 71
     2
176
     1
 72
     2
176
     1
 73
     0
176
     1
 90
        0
176
     1
 40
0.6
176
     1
 41
30.0
176
     1
 62
     5
 63
     7
421
 16777215
176
     1
 74
     1
176
     1
 91
        4
176
     1
 64
     7
176
     1
 65
   257
176
     1
 75
     1
176
     1
175
     1
176
     1
 42
1.0
176
     1
 92
        8
176
     1
 66
     7
176
     1
 43
1.0
176
     1
 76
     1
176
     1
 77
     6
176
     1
 78
     2
176
     1
 67
     7
176
     1
 79
     5
176
     1
170
     0
176
     1
171
     0
176
     1
290
     0
176
     1
 93
        1
176
     1
 44
-50.0
176
     1
173
     0
176
     1
  0
VISUALSTYLE
  5
110
102
{ACAD_REACTORS
330
FD
102
}
102
{ACAD_XDICTIONARY
360
144
102
}
330
FD
100
AcDbVisualStyle
  2
EdgeColorOff
 70
    22
177
     2
291
     1
 71
     2
176
     0
 72
     2
176
     0
 73
     0
176
     0
 90
        0
176
     0
 40
0.6
176
     0
 41
30.0
176
     0
 62
     5
 63
     7
421
 16777215
176
     0
 74
     1
176
     0
 91
        4
176
     0
 64
     7
176
     0
 65
   257
176
     0
 75
     1
176
     0
175
     1
176
     0
 42
1.0
176
     0
 92
        8
176
     2
 66
     7
176
     0
 43
1.0
176
     0
 76
     1
176
     0
 77
     6
176
     0
 78
     2
176
     0
 67
     7
176
     0
 79
     5
176
     0
170
     0
176
     0
171
     0
176
     0
290
     0
176
     0
 93
        1
176
     0
 44
0.0
176
     0
173
     0
176
     0
  0
VISUALSTYLE
  5
10C
102
{ACAD_REACTORS
330
FD
102
}
102
{ACAD_XDICTIONARY
360
13C
102
}
330
FD
100
AcDbVisualStyle
  2
Facepattern
 70
    15
177
     2
291
     1
 71
     2
176
     1
 72
     2
176
     1
 73
     0
176
     1
 90
        0
176
     1
 40
0.6
176
     1
 41
30.0
176
     1
 62
     5
 63
     7
421
 16777215
176
     1
 74
     1
176
     1
 91
        4
176
     1
 64
     7
176
     1
 65
   257
176
     1
 75
     1
176
     1
175
     1
176
     1
 42
1.0
176
     1
 92
        8
176
     1
 66
     7
176
     1
 43
1.0
176
     1
 76
     1
176
     1
 77
     6
176
     1
 78
     2
176
     1
 67
     7
176
     1
 79
     5
176
     1
170
     0
176
     1
171
     0
176
     1
290
     0
176
     1
 93
        1
176
     1
 44
0.0
176
     1
173
     0
176
     1
  0
VISUALSTYLE
  5
FE
102
{ACAD_REACTORS
330
FD
102
}
102
{ACAD_XDICTIONARY
360
120
102
}
330
FD
100
AcDbVisualStyle
  2
Flat
 70
     0
177
     2
291
     1
 71
     2
176
     1
 72
     1
176
     1
 73
     1
176
     1
 90
        2
176
     1
 40
0.6
176
     1
 41
30.0
176
     1
 62
     5
 63
     7
421
 16777215
176
     1
 74
     0
176
     1
 91
        0
176
     1
 64
     7
176
     1
 65
   257
176
     1
 75
     1
176
     1
175
     1
176
     1
 42
1.0
176
     1
 92
        8
176
     1
 66
     7
176
     1
 43
1.0
176
     1
 76
     1
176
     1
 77
     6
176
     1
 78
     2
176
     1
 67
     7
176
     1
 79
     5
176
     1
170
     0
176
     1
171
     0
176
     1
290
     0
176
     1
 93
       13
176
     1
 44
0.0
176
     1
173
     0
176
     1
  0
VISUALSTYLE
  5
FF
102
{ACAD_REACTORS
330
FD
102
}
102
{ACAD_XDICTIONARY
360
122
102
}
330
FD
100
AcDbVisualStyle
  2
FlatWithEdges
 70
     1
177
     2
291
     1
 71
     2
176
     1
 72
     1
176
     1
 73
     1
176
     1
 90
        2
176
     1
 40
0.6
176
     1
 41
30.0
176
     1
 62
     5
 63
     7
421
 16777215
176
     1
 74
     1
176
     1
 91
        0
176
     1
 64
     7
176
     1
 65
   257
176
     1
 75
     1
176
     1
175
     1
176
     1
 42
1.0
176
     1
 92
        0
176
     1
 66
   257
176
     1
 43
1.0
176
     1
 76
     1
176
     1
 77
     6
176
     1
 78
     2
176
     1
 67
     7
176
     1
 79
     5
176
     1
170
     0
176
     1
171
     0
176
     1
290
     0
176
     1
 93
       13
176
     1
 44
0.0
176
     1
173
     0
176
     1
  0
VISUALSTYLE
  5
100
102
{ACAD_REACTORS
330
FD
102
}
102
{ACAD_XDICTIONARY
360
124
102
}
330
FD
100
AcDbVisualStyle
  2
Gouraud
 70
     2
177
     2
291
     1
 71
     2
176
     1
 72
     2
176
     1
 73
     1
176
     1
 90
        2
176
     1
 40
0.6
176
     1
 41
30.0
176
     1
 62
     5
 63
     7
421
 16777215
176
     1
 74
     0
176
     1
 91
        0
176
     1
 64
     7
176
     1
 65
   257
176
     1
 75
     1
176
     1
175
     1
176
     1
 42
1.0
176
     1
 92
        0
176
     1
 66
     7
176
     1
 43
1.0
176
     1
 76
     1
176
     1
 77
     6
176
     1
 78
     2
176
     1
 67
     7
176
     1
 79
     5
176
     1
170
     0
176
     1
171
     0
176
     1
290
     0
176
     1
 93
       13
176
     1
 44
0.0
176
     1
173
     0
176
     1
  0
VISUALSTYLE
  5
101
102
{ACAD_REACTORS
330
FD
102
}
102
{ACAD_XDICTIONARY
360
126
102
}
330
FD
100
AcDbVisualStyle
  2
GouraudWithEdges
 70
     3
177
     2
291
     1
 71
     2
176
     1
 72
     2
176
     1
 73
     1
176
     1
 90
        2
176
     1
 40
0.6
176
     1
 41
30.0
176
     1
 62
     5
 63
     7
421
 16777215
176
     1
 74
     1
176
     1
 91
        0
176
     1
 64
     7
176
     1
 65
   257
176
     1
 75
     1
176
     1
175
     1
176
     1
 42
1.0
176
     1
 92
        0
176
     1
 66
   257
176
     1
 43
1.0
176
     1
 76
     1
176
     1
 77
     6
176
     1
 78
     2
176
     1
 67
     7
176
     1
 79
     5
176
     1
170
     0
176
     1
171
     0
176
     1
290
     0
176
     1
 93
       13
176
     1
 44
0.0
176
     1
173
     0
176
     1
  0
VISUALSTYLE
  5
104
102
{ACAD_REACTORS
330
FD
102
}
102
{ACAD_XDICTIONARY
360
12C
102
}
330
FD
100
AcDbVisualStyle
  2
Hidden
 70
     6
177
     2
291
     0
 71
     1
176
     1
 72
     2
176
     1
 73
     2
176
     1
 90
        0
176
     1
 40
0.6
176
     1
 41
30.0
176
     1
 62
     5
 63
     7
421
 16777215
176
     1
 74
     2
176
     1
 91
        2
176
     1
 64
     7
176
     1
 65
   257
176
     1
 75
     2
176
     1
175
     1
176
     1
 42
40.0
176
     1
 92
        0
176
     1
 66
   257
176
     1
 43
1.0
176
     1
 76
     1
176
     1
 77
     6
176
     1
 78
     2
176
     1
 67
     7
176
     1
 79
     3
176
     1
170
     0
176
     1
171
     0
176
     1
290
     0
176
     1
 93
        1
176
     1
 44
0.0
176
     1
173
     0
176
     1
  0
VISUALSTYLE
  5
10E
102
{ACAD_REACTORS
330
FD
102
}
102
{ACAD_XDICTIONARY
360
140
102
}
330
FD
100
AcDbVisualStyle
  2
JitterOff
 70
    20
177
     2
291
     1
 71
     2
176
     0
 72
     2
176
     0
 73
     0
176
     0
 90
        0
176
     0
 40
0.6
176
     0
 41
30.0
176
     0
 62
     5
 63
     7
421
 16777215
176
     0
 74
     1
176
     0
 91
        4
176
     0
 64
     7
176
     0
 65
   257
176
     0
 75
     1
176
     0
175
     1
176
     0
 42
1.0
176
     0
 92
       10
176
     2
 66
     7
176
     0
 43
1.0
176
     0
 76
     1
176
     0
 77
     6
176
     0
 78
     2
176
     0
 67
     7
176
     0
 79
     5
176
     0
170
     0
176
     0
171
     0
176
     0
290
     0
176
     0
 93
        1
176
     0
 44
0.0
176
     0
173
     0
176
     0
  0
VISUALSTYLE
  5
10B
102
{ACAD_REACTORS
330
FD
102
}
102
{ACAD_XDICTIONARY
360
13A
102
}
330
FD
100
AcDbVisualStyle
  2
Linepattern
 70
    14
177
     2
291
     1
 71
     2
176
     1
 72
     2
176
     1
 73
     0
176
     1
 90
        0
176
     1
 40
0.6
176
     1
 41
30.0
176
     1
 62
     5
 63
     7
421
 16777215
176
     1
 74
     1
176
     1
 91
        4
176
     1
 64
     7
176
     1
 65
   257
176
     1
 75
     7
176
     1
175
     7
176
     1
 42
1.0
176
     1
 92
        8
176
     1
 66
     7
176
     1
 43
1.0
176
     1
 76
     1
176
     1
 77
     6
176
     1
 78
     2
176
     1
 67
     7
176
     1
 79
     5
176
     1
170
     0
176
     1
171
     0
176
     1
290
     0
176
     1
 93
        1
176
     1
 44
0.0
176
     1
173
     0
176
     1
  0
VISUALSTYLE
  5
10F
102
{ACAD_REACTORS
330
FD
102
}
102
{ACAD_XDICTIONARY
360
142
102
}
330
FD
100
AcDbVisualStyle
  2
OverhangOff
 70
    21
177
     2
291
     1
 71
     2
176
     0
 72
     2
176
     0
 73
     0
176
     0
 90
        0
176
     0
 40
0.6
176
     0
 41
30.0
176
     0
 62
     5
 63
     7
421
 16777215
176
     0
 74
     1
176
     0
 91
        4
176
     0
 64
     7
176
     0
 65
   257
176
     0
 75
     1
176
     0
175
     1
176
     0
 42
1.0
176
     0
 92
        9
176
     2
 66
     7
176
     0
 43
1.0
176
     0
 76
     1
176
     0
 77
     6
176
     0
 78
     2
176
     0
 67
     7
176
     0
 79
     5
176
     0
170
     0
176
     0
171
     0
176
     0
290
     0
176
     0
 93
        1
176
     0
 44
0.0
176
     0
173
     0
176
     0
  0
VISUALSTYLE
  5
106
102
{ACAD_REACTORS
330
FD
102
}
102
{ACAD_XDICTIONARY
360
130
102
}
330
FD
100
AcDbVisualStyle
  2
Realistic
 70
     8
177
     2
291
     0
 71
     2
176
     1
 72
     3
176
     1
 73
     0
176
     1
 90
        2
176
     1
 40
0.6
176
     1
 41
30.0
176
     1
 62
     5
 63
     7
421
 16777215
176
     1
 74
     0
176
     1
 91
        0
176
     1
 64
     7
176
     1
 65
   257
176
     1
 75
     1
176
     1
175
     1
176
     1
 42
1.0
176
     1
 92
        8
176
     1
 66
   257
176
     1
 43
1.0
176
     1
 76
     1
176
     1
 77
     6
176
     1
 78
     2
176
     1
 67
     7
176
     1
 79
     3
176
     1
170
     0
176
     1
171
     0
176
     1
290
     0
176
     1
 93
       13
176
     1
 44
0.0
176
     1
173
     0
176
     1
  0
VISUALSTYLE
  5
115
102
{ACAD_REACTORS
330
FD
102
}
102
{ACAD_XDICTIONARY
360
14E
102
}
330
FD
100
AcDbVisualStyle
  2
Shaded
 70
    27
177
     2
291
     0
 71
     2
176
     1
 72
     2
176
     1
 73
     1
176
     1
 90
        2
176
     1
 40
0.6
176
     1
 41
30.0
176
     1
 62
     5
 63
     7
421
 16777215
176
     1
 74
     0
176
     1
 91
        4
176
     1
 64
     7
176
     1
 65
   257
176
     1
 75
     1
176
     1
175
     1
176
     1
 42
1.0
176
     1
 92
        8
176
     1
 66
   257
176
     1
 43
1.0
176
     1
 76
     1
176
     1
 77
     6
176
     1
 78
     2
176
     1
 67
     8
425
  7895160
176
     1
 79
     3
176
     1
170
     0
176
     1
171
     0
176
     1
290
     0
176
     1
 93
        5
176
     1
 44
0.0
176
     1
173
     0
176
     1
  0
VISUALSTYLE
  5
114
102
{ACAD_REACTORS
330
FD
102
}
102
{ACAD_XDICTIONARY
360
14C
102
}
330
FD
100
AcDbVisualStyle
  2
Shaded with edges
 70
    26
177
     2
291
     0
 71
     2
176
     1
 72
     2
176
     1
 73
     1
176
     1
 90
        2
176
     1
 40
0.6
176
     1
 41
30.0
176
     1
 62
     5
 63
     7
421
 16777215
176
     1
 74
     1
176
     1
 91
       10
176
     1
 64
     7
176
     1
 65
   257
176
     1
 75
     2
176
     1
175
     1
176
     1
 42
1.0
176
     1
 92
        8
176
     1
 66
   257
176
     1
 43
1.0
176
     1
 76
     1
176
     1
 77
     6
176
     1
 78
     2
176
     1
 67
     7
176
     1
 79
     3
176
     1
170
     0
176
     1
171
     0
176
     1
290
     0
176
     1
 93
        5
176
     1
 44
0.0
176
     1
173
     0
176
     1
  0
VISUALSTYLE
  5
111
102
{ACAD_REACTORS
330
FD
102
}
102
{ACAD_XDICTIONARY
360
146
102
}
330
FD
100
AcDbVisualStyle
  2
Shades of Gray
 70
    23
177
     2
291
     0
 71
     2
176
     1
 72
     2
176
     1
 73
     3
176
     1
 90
        0
176
     1
 40
0.6
176
     1
 41
30.0
176
     1
 62
     5
 63
     7
421
 16777215
176
     1
 74
     2
176
     1
 91
        2
176
     1
 64
     7
176
     1
 65
     7
176
     1
 75
     1
176
     1
175
     1
176
     1
 42
40.0
176
     1
 92
        8
176
     1
 66
     7
176
     1
 43
1.0
176
     1
 76
     1
176
     1
 77
     6
176
     1
 78
     2
176
     1
 67
     7
176
     1
 79
     3
176
     1
170
     0
176
     1
171
     0
176
     1
290
     0
176
     1
 93
        1
176
     1
 44
0.0
176
     1
173
     0
176
     1
  0
VISUALSTYLE
  5
112
102
{ACAD_REACTORS
330
FD
102
}
102
{ACAD_XDICTIONARY
360
148
102
}
330
FD
100
AcDbVisualStyle
  2
Sketchy
 70
    24
177
     2
291
     0
 71
     1
176
     1
 72
     2
176
     1
 73
     2
176
     1
 90
        0
176
     1
 40
0.6
176
     1
 41
30.0
176
     1
 62
     5
 63
     7
421
 16777215
176
     1
 74
     2
176
     1
 91
        2
176
     1
 64
     7
176
     1
 65
     7
176
     1
 75
     1
176
     1
175
     1
176
     1
 42
40.0
176
     1
 92
       11
176
     1
 66
     7
176
     1
 43
1.0
176
     1
 76
     1
176
     1
 77
     6
176
     1
 78
     2
176
     1
 67
     7
176
     1
 79
     6
176
     1
170
     0
176
     1
171
     0
176
     1
290
     0
176
     1
 93
        1
176
     1
 44
0.0
176
     1
173
     0
176
     1
  0
VISUALSTYLE
  5
10A
102
{ACAD_REACTORS
330
FD
102
}
102
{ACAD_XDICTIONARY
360
138
102
}
330
FD
100
AcDbVisualStyle
  2
Thicken
 70
    13
177
     2
291
     1
 71
     2
176
     1
 72
     2
176
     1
 73
     0
176
     1
 90
        0
176
     1
 40
0.6
176
     1
 41
30.0
176
     1
 62
     5
 63
     7
421
 16777215
176
     1
 74
     1
176
     1
 91
        4
176
     1
 64
     7
176
     1
 65
   257
176
     1
 75
     1
176
     1
175
     1
176
     1
 42
1.0
176
     1
 92
       12
176
     1
 66
     7
176
     1
 43
1.0
176
     1
 76
     1
176
     1
 77
     6
176
     1
 78
     2
176
     1
 67
     7
176
     1
 79
     5
176
     1
170
     0
176
     1
171
     0
176
     1
290
     0
176
     1
 93
        1
176
     1
 44
0.0
176
     1
173
     0
176
     1
  0
VISUALSTYLE
  5
103
102
{ACAD_REACTORS
330
FD
102
}
102
{ACAD_XDICTIONARY
360
12A
102
}
330
FD
100
AcDbVisualStyle
  2
Wireframe
 70
     5
177
     2
291
     0
 71
     0
176
     1
 72
     2
176
     1
 73
     0
176
     1
 90
        0
176
     1
 40
0.6
176
     1
 41
30.0
176
     1
 62
     5
 63
     7
421
 16777215
176
     1
 74
     1
176
     1
 91
        4
176
     1
 64
     7
176
     1
 65
   257
176
     1
 75
     1
176
     1
175
     1
176
     1
 42
1.0
176
     1
 92
        0
176
     1
 66
   257
176
     1
 43
1.0
176
     1
 76
     1
176
     1
 77
     6
176
     1
 78
     2
176
     1
 67
     7
176
     1
 79
     3
176
     1
170
     0
176
     1
171
     0
176
     1
290
     0
176
     1
 93
        1
176
     1
 44
0.0
176
     1
173
     0
176
     1
  0
VISUALSTYLE
  5
113
102
{ACAD_REACTORS
330
FD
102
}
102
{ACAD_XDICTIONARY
360
14A
102
}
330
FD
100
AcDbVisualStyle
  2
X-Ray
 70
    25
177
     2
291
     0
 71
     2
176
     1
 72
     2
176
     1
 73
     1
176
     1
 90
        1
176
     1
 40
0.5
176
     1
 41
30.0
176
     1
 62
     5
 63
     7
421
 16777215
176
     1
 74
     1
176
     1
 91
        0
176
     1
 64
     7
176
     1
 65
   257
176
     1
 75
     1
176
     1
175
     1
176
     1
 42
1.0
176
     1
 92
        8
176
     1
 66
     7
176
     1
 43
1.0
176
     1
 76
     1
176
     1
 77
     6
176
     1
 78
     2
176
     1
 67
     7
176
     1
 79
     3
176
     1
170
     0
176
     1
171
     0
176
     1
290
     0
176
     1
 93
       13
176
     1
 44
0.0
176
     1
173
     0
176
     1
  0
DICTIONARYVAR
  5
11F
102
{ACAD_REACTORS
330
11E
102
}
330
11E
100
DictionaryVariables
280
     0
  1
1:1
  0
DICTIONARYVAR
  5
154
102
{ACAD_REACTORS
330
11E
102
}
330
11E
100
DictionaryVariables
280
     0
  1
Standard
  0
DICTIONARYVAR
  5
153
102
{ACAD_REACTORS
330
11E
102
}
330
11E
100
DictionaryVariables
280
     0
  1
Standard
  0
DICTIONARYVAR
  5
155
102
{ACAD_REACTORS
330
11E
102
}
330
11E
100
DictionaryVariables
280
     0
  1
0
  0
DICTIONARY
  5
150
330
11B
100
AcDbDictionary
280
     1
281
     1
  3
ACAD_ROUNDTRIP_2008_TABLESTYLE_CELLSTYLEMAP
360
151
  0
DICTIONARY
  5
128
330
102
100
AcDbDictionary
280
     1
281
     1
  3
ACAD_XREC_ROUNDTRIP
360
129
  0
DICTIONARY
  5
12E
330
105
100
AcDbDictionary
280
     1
281
     1
  3
ACAD_XREC_ROUNDTRIP
360
12F
  0
DICTIONARY
  5
136
330
109
100
AcDbDictionary
280
     1
281
     1
  3
ACAD_XREC_ROUNDTRIP
360
137
  0
DICTIONARY
  5
13E
330
10D
100
AcDbDictionary
280
     1
281
     1
  3
ACAD_XREC_ROUNDTRIP
360
13F
  0
DICTIONARY
  5
132
330
107
100
AcDbDictionary
280
     1
281
     1
  3
ACAD_XREC_ROUNDTRIP
360
133
  0
DICTIONARY
  5
134
330
108
100
AcDbDictionary
280
     1
281
     1
  3
ACAD_XREC_ROUNDTRIP
360
135
  0
DICTIONARY
  5
144
330
110
100
AcDbDictionary
280
     1
281
     1
  3
ACAD_XREC_ROUNDTRIP
360
145
  0
DICTIONARY
  5
13C
330
10C
100
AcDbDictionary
280
     1
281
     1
  3
ACAD_XREC_ROUNDTRIP
360
13D
  0
DICTIONARY
  5
120
330
FE
100
AcDbDictionary
280
     1
281
     1
  3
ACAD_XREC_ROUNDTRIP
360
121
  0
DICTIONARY
  5
122
330
FF
100
AcDbDictionary
280
     1
281
     1
  3
ACAD_XREC_ROUNDTRIP
360
123
  0
DICTIONARY
  5
124
330
100
100
AcDbDictionary
280
     1
281
     1
  3
ACAD_XREC_ROUNDTRIP
360
125
  0
DICTIONARY
  5
126
330
101
100
AcDbDictionary
280
     1
281
     1
  3
ACAD_XREC_ROUNDTRIP
360
127
  0
DICTIONARY
  5
12C
330
104
100
AcDbDictionary
280
     1
281
     1
  3
ACAD_XREC_ROUNDTRIP
360
12D
  0
DICTIONARY
  5
140
330
10E
100
AcDbDictionary
280
     1
281
     1
  3
ACAD_XREC_ROUNDTRIP
360
141
  0
DICTIONARY
  5
13A
330
10B
100
AcDbDictionary
280
     1
281
     1
  3
ACAD_XREC_ROUNDTRIP
360
13B
  0
DICTIONARY
  5
142
330
10F
100
AcDbDictionary
280
     1
281
     1
  3
ACAD_XREC_ROUNDTRIP
360
143
  0
DICTIONARY
  5
130
330
106
100
AcDbDictionary
280
     1
281
     1
  3
ACAD_XREC_ROUNDTRIP
360
131
  0
DICTIONARY
  5
14E
330
115
100
AcDbDictionary
280
     1
281
     1
  3
ACAD_XREC_ROUNDTRIP
360
14F
  0
DICTIONARY
  5
14C
330
114
100
AcDbDictionary
280
     1
281
     1
  3
ACAD_XREC_ROUNDTRIP
360
14D
  0
DICTIONARY
  5
146
330
111
100
AcDbDictionary
280
     1
281
     1
  3
ACAD_XREC_ROUNDTRIP
360
147
  0
DICTIONARY
  5
148
330
112
100
AcDbDictionary
280
     1
281
     1
  3
ACAD_XREC_ROUNDTRIP
360
149
  0
DICTIONARY
  5
138
330
10A
100
AcDbDictionary
280
     1
281
     1
  3
ACAD_XREC_ROUNDTRIP
360
139
  0
DICTIONARY
  5
12A
330
103
100
AcDbDictionary
280
     1
281
     1
  3
ACAD_XREC_ROUNDTRIP
360
12B
  0
DICTIONARY
  5
14A
330
113
100
AcDbDictionary
280
     1
281
     1
  3
ACAD_XREC_ROUNDTRIP
360
14B
  0
CELLSTYLEMAP
  5
151
102
{ACAD_REACTORS
330
150
102
}
330
150
100
AcDbCellStyleMap
 90
        3
300
CELLSTYLE
  1
TABLEFORMAT_BEGIN
 90
        5
170
     1
 91
        0
 92
    32768
 62
   257
 93
        1
300
CONTENTFORMAT
  1
CONTENTFORMAT_BEGIN
 90
        0
 91
        0
 92
        4
 93
        0
300

 40
0.0
140
1.0
 94
        5
 62
     0
340
17
144
0.25
309
CONTENTFORMAT_END
171
     1
301
MARGIN
  1
CELLMARGIN_BEGIN
 40
0.06
 40
0.06
 40
0.06
 40
0.06
 40
0.06
 40
0.06
309
CELLMARGIN_END
 94
        6
 95
        1
302
GRIDFORMAT
  1
GRIDFORMAT_BEGIN
 90
        0
 91
        1
 62
     0
 92
       -2
340
11
 93
        0
 40
0.045
309
GRIDFORMAT_END
 95
        2
302
GRIDFORMAT
  1
GRIDFORMAT_BEGIN
 90
        0
 91
        1
 62
     0
 92
       -2
340
11
 93
        0
 40
0.045
309
GRIDFORMAT_END
 95
        4
302
GRIDFORMAT
  1
GRIDFORMAT_BEGIN
 90
        0
 91
        1
 62
     0
 92
       -2
340
11
 93
        0
 40
0.045
309
GRIDFORMAT_END
 95
        8
302
GRIDFORMAT
  1
GRIDFORMAT_BEGIN
 90
        0
 91
        1
 62
     0
 92
       -2
340
11
 93
        0
 40
0.045
309
GRIDFORMAT_END
 95
       16
302
GRIDFORMAT
  1
GRIDFORMAT_BEGIN
 90
        0
 91
        1
 62
     0
 92
       -2
340
11
 93
        0
 40
0.045
309
GRIDFORMAT_END
 95
       32
302
GRIDFORMAT
  1
GRIDFORMAT_BEGIN
 90
        0
 91
        1
 62
     0
 92
       -2
340
11
 93
        0
 40
0.045
309
GRIDFORMAT_END
309
TABLEFORMAT_END
  1
CELLSTYLE_BEGIN
 90
        1
 91
        1
300
_TITLE
309
CELLSTYLE_END
300
CELLSTYLE
  1
TABLEFORMAT_BEGIN
 90
        5
170
     1
 91
        0
 92
        0
 62
   257
 93
        1
300
CONTENTFORMAT
  1
CONTENTFORMAT_BEGIN
 90
        0
 91
        0
 92
        4
 93
        0
300

 40
0.0
140
1.0
 94
        5
 62
     0
340
17
144
0.18
309
CONTENTFORMAT_END
171
     1
301
MARGIN
  1
CELLMARGIN_BEGIN
 40
0.06
 40
0.06
 40
0.06
 40
0.06
 40
0.06
 40
0.06
309
CELLMARGIN_END
 94
        6
 95
        1
302
GRIDFORMAT
  1
GRIDFORMAT_BEGIN
 90
        0
 91
        1
 62
     0
 92
       -2
340
11
 93
        0
 40
0.045
309
GRIDFORMAT_END
 95
        2
302
GRIDFORMAT
  1
GRIDFORMAT_BEGIN
 90
        0
 91
        1
 62
     0
 92
       -2
340
11
 93
        0
 40
0.045
309
GRIDFORMAT_END
 95
        4
302
GRIDFORMAT
  1
GRIDFORMAT_BEGIN
 90
        0
 91
        1
 62
     0
 92
       -2
340
11
 93
        0
 40
0.045
309
GRIDFORMAT_END
 95
        8
302
GRIDFORMAT
  1
GRIDFORMAT_BEGIN
 90
        0
 91
        1
 62
     0
 92
       -2
340
11
 93
        0
 40
0.045
309
GRIDFORMAT_END
 95
       16
302
GRIDFORMAT
  1
GRIDFORMAT_BEGIN
 90
        0
 91
        1
 62
     0
 92
       -2
340
11
 93
        0
 40
0.045
309
GRIDFORMAT_END
 95
       32
302
GRIDFORMAT
  1
GRIDFORMAT_BEGIN
 90
        0
 91
        1
 62
     0
 92
       -2
340
11
 93
        0
 40
0.045
309
GRIDFORMAT_END
309
TABLEFORMAT_END
  1
CELLSTYLE_BEGIN
 90
        2
 91
        1
300
_HEADER
309
CELLSTYLE_END
300
CELLSTYLE
  1
TABLEFORMAT_BEGIN
 90
        5
170
     1
 91
        0
 92
        0
 62
   257
 93
        1
300
CONTENTFORMAT
  1
CONTENTFORMAT_BEGIN
 90
        0
 91
        0
 92
        4
 93
        0
300

 40
0.0
140
1.0
 94
        2
 62
     0
340
17
144
0.18
309
CONTENTFORMAT_END
171
     1
301
MARGIN
  1
CELLMARGIN_BEGIN
 40
0.06
 40
0.06
 40
0.06
 40
0.06
 40
0.06
 40
0.06
309
CELLMARGIN_END
 94
        6
 95
        1
302
GRIDFORMAT
  1
GRIDFORMAT_BEGIN
 90
        0
 91
        1
 62
     0
 92
       -2
340
11
 93
        0
 40
0.045
309
GRIDFORMAT_END
 95
        2
302
GRIDFORMAT
  1
GRIDFORMAT_BEGIN
 90
        0
 91
        1
 62
     0
 92
       -2
340
11
 93
        0
 40
0.045
309
GRIDFORMAT_END
 95
        4
302
GRIDFORMAT
  1
GRIDFORMAT_BEGIN
 90
        0
 91
        1
 62
     0
 92
       -2
340
11
 93
        0
 40
0.045
309
GRIDFORMAT_END
 95
        8
302
GRIDFORMAT
  1
GRIDFORMAT_BEGIN
 90
        0
 91
        1
 62
     0
 92
       -2
340
11
 93
        0
 40
0.045
309
GRIDFORMAT_END
 95
       16
302
GRIDFORMAT
  1
GRIDFORMAT_BEGIN
 90
        0
 91
        1
 62
     0
 92
       -2
340
11
 93
        0
 40
0.045
309
GRIDFORMAT_END
 95
       32
302
GRIDFORMAT
  1
GRIDFORMAT_BEGIN
 90
        0
 91
        1
 62
     0
 92
       -2
340
11
 93
        0
 40
0.045
309
GRIDFORMAT_END
309
TABLEFORMAT_END
  1
CELLSTYLE_BEGIN
 90
        3
 91
        2
300
_DATA
309
CELLSTYLE_END
  0
XRECORD
  5
129
102
{ACAD_REACTORS
330
128
102
}
330
128
100
AcDbXrecord
280
     1
102
RTVSPost2010Prop28
280
     1
102
RTVSPost2010PropOp28
 70
     1
102
RTVSPost2010Prop29
280
     1
102
RTVSPost2010PropOp29
 70
     1
102
RTVSPost2010Prop30
280
     0
102
RTVSPost2010PropOp30
 70
     1
102
RTVSPost2010Prop31
280
     0
102
RTVSPost2010PropOp31
 70
     1
102
RTVSPost2010Prop32
280
     0
102
RTVSPost2010PropOp32
 70
     1
102
RTVSPost2010Prop33
280
     0
102
RTVSPost2010PropOp33
 70
     1
102
RTVSPost2010Prop34
280
     0
102
RTVSPost2010PropOp34
 70
     1
102
RTVSPost2010Prop35
280
     0
102
RTVSPost2010PropOp35
 70
     1
102
RTVSPost2010Prop36
280
     0
102
RTVSPost2010PropOp36
 70
     1
102
RTVSPost2010Prop37
 90
       50
102
RTVSPost2010PropOp37
 70
     1
102
RTVSPost2010Prop38
140
0.0
102
RTVSPost2010PropOp38
 70
     1
102
RTVSPost2010Prop39
140
1.0
102
RTVSPost2010PropOp39
 70
     1
102
RTVSPost2010Prop40
 90
        0
102
RTVSPost2010PropOp40
 70
     1
102
RTVSPost2010Prop41ColorIndex
 90
       18
102
RTVSPost2010Prop41ColorRGB
 90
        0
102
RTVSPost2010PropOp41
 70
     1
102
RTVSPost2010Prop42
 90
       50
102
RTVSPost2010PropOp42
 70
     1
102
RTVSPost2010Prop43
 90
        3
102
RTVSPost2010PropOp43
 70
     1
102
RTVSPost2010Prop44ColorIndex
 90
        5
102
RTVSPost2010Prop44ColorRGB
 90
      255
102
RTVSPost2010PropOp44
 70
     1
102
RTVSPost2010Prop45
280
     0
102
RTVSPost2010PropOp45
 70
     1
102
RTVSPost2010Prop46
 90
       50
102
RTVSPost2010PropOp46
 70
     1
102
RTVSPost2010Prop47
 90
       50
102
RTVSPost2010PropOp47
 70
     1
102
RTVSPost2010Prop48
 90
       50
102
RTVSPost2010PropOp48
 70
     1
102
RTVSPost2010Prop49
280
     0
102
RTVSPost2010PropOp49
 70
     1
102
RTVSPost2010Prop50
 90
       50
102
RTVSPost2010PropOp50
 70
     1
102
RTVSPost2010Prop51ColorIndex
 90
      256
102
RTVSPost2010Prop51ColorRGB
 90
-16777216
102
RTVSPost2010PropOp51
 70
     0
102
RTVSPost2010Prop52
140
1.0
102
RTVSPost2010PropOp52
 70
     0
102
RTVSPost2010Prop53
 90
        2
102
RTVSPost2010PropOp53
 70
     1
102
RTVSPost2010Prop54
  1
strokes_ogs.tif
102
RTVSPost2010PropOp54
 70
     1
102
RTVSPost2010Prop55
280
     0
102
RTVSPost2010PropOp55
 70
     1
102
RTVSPost2010Prop56
140
1.0
102
RTVSPost2010PropOp56
 70
     1
102
RTVSPost2010Prop57
140
1.0
102
RTVSPost2010PropOp57
 70
     1
  0
XRECORD
  5
12F
102
{ACAD_REACTORS
330
12E
102
}
330
12E
100
AcDbXrecord
280
     1
102
RTVSPost2010Prop28
280
     0
102
RTVSPost2010PropOp28
 70
     1
102
RTVSPost2010Prop29
280
     1
102
RTVSPost2010PropOp29
 70
     1
102
RTVSPost2010Prop30
280
     1
102
RTVSPost2010PropOp30
 70
     1
102
RTVSPost2010Prop31
280
     0
102
RTVSPost2010PropOp31
 70
     1
102
RTVSPost2010Prop32
280
     0
102
RTVSPost2010PropOp32
 70
     1
102
RTVSPost2010Prop33
280
     0
102
RTVSPost2010PropOp33
 70
     1
102
RTVSPost2010Prop34
280
     0
102
RTVSPost2010PropOp34
 70
     1
102
RTVSPost2010Prop35
280
     0
102
RTVSPost2010PropOp35
 70
     1
102
RTVSPost2010Prop36
280
     0
102
RTVSPost2010PropOp36
 70
     1
102
RTVSPost2010Prop37
 90
       50
102
RTVSPost2010PropOp37
 70
     1
102
RTVSPost2010Prop38
140
0.0
102
RTVSPost2010PropOp38
 70
     1
102
RTVSPost2010Prop39
140
1.0
102
RTVSPost2010PropOp39
 70
     1
102
RTVSPost2010Prop40
 90
        0
102
RTVSPost2010PropOp40
 70
     1
102
RTVSPost2010Prop41ColorIndex
 90
       18
102
RTVSPost2010Prop41ColorRGB
 90
        0
102
RTVSPost2010PropOp41
 70
     1
102
RTVSPost2010Prop42
 90
       50
102
RTVSPost2010PropOp42
 70
     1
102
RTVSPost2010Prop43
 90
        3
102
RTVSPost2010PropOp43
 70
     1
102
RTVSPost2010Prop44ColorIndex
 90
        5
102
RTVSPost2010Prop44ColorRGB
 90
      255
102
RTVSPost2010PropOp44
 70
     1
102
RTVSPost2010Prop45
280
     0
102
RTVSPost2010PropOp45
 70
     1
102
RTVSPost2010Prop46
 90
       50
102
RTVSPost2010PropOp46
 70
     1
102
RTVSPost2010Prop47
 90
       50
102
RTVSPost2010PropOp47
 70
     1
102
RTVSPost2010Prop48
 90
       50
102
RTVSPost2010PropOp48
 70
     1
102
RTVSPost2010Prop49
280
     0
102
RTVSPost2010PropOp49
 70
     1
102
RTVSPost2010Prop50
 90
       50
102
RTVSPost2010PropOp50
 70
     1
102
RTVSPost2010Prop51ColorIndex
 90
      256
102
RTVSPost2010Prop51ColorRGB
 90
-16777216
102
RTVSPost2010PropOp51
 70
     0
102
RTVSPost2010Prop52
140
1.0
102
RTVSPost2010PropOp52
 70
     0
102
RTVSPost2010Prop53
 90
        2
102
RTVSPost2010PropOp53
 70
     1
102
RTVSPost2010Prop54
  1
strokes_ogs.tif
102
RTVSPost2010PropOp54
 70
     1
102
RTVSPost2010Prop55
280
     0
102
RTVSPost2010PropOp55
 70
     1
102
RTVSPost2010Prop56
140
1.0
102
RTVSPost2010PropOp56
 70
     1
102
RTVSPost2010Prop57
140
1.0
102
RTVSPost2010PropOp57
 70
     1
  0
XRECORD
  5
137
102
{ACAD_REACTORS
330
136
102
}
330
136
100
AcDbXrecord
280
     1
102
RTVSPost2010Prop28
280
     0
102
RTVSPost2010PropOp28
 70
     1
102
RTVSPost2010Prop29
280
     1
102
RTVSPost2010PropOp29
 70
     1
102
RTVSPost2010Prop30
280
     1
102
RTVSPost2010PropOp30
 70
     1
102
RTVSPost2010Prop31
280
     0
102
RTVSPost2010PropOp31
 70
     1
102
RTVSPost2010Prop32
280
     0
102
RTVSPost2010PropOp32
 70
     1
102
RTVSPost2010Prop33
280
     0
102
RTVSPost2010PropOp33
 70
     1
102
RTVSPost2010Prop34
280
     0
102
RTVSPost2010PropOp34
 70
     1
102
RTVSPost2010Prop35
280
     0
102
RTVSPost2010PropOp35
 70
     1
102
RTVSPost2010Prop36
280
     0
102
RTVSPost2010PropOp36
 70
     1
102
RTVSPost2010Prop37
 90
       50
102
RTVSPost2010PropOp37
 70
     1
102
RTVSPost2010Prop38
140
0.0
102
RTVSPost2010PropOp38
 70
     1
102
RTVSPost2010Prop39
140
1.0
102
RTVSPost2010PropOp39
 70
     1
102
RTVSPost2010Prop40
 90
        0
102
RTVSPost2010PropOp40
 70
     1
102
RTVSPost2010Prop41ColorIndex
 90
       18
102
RTVSPost2010Prop41ColorRGB
 90
        0
102
RTVSPost2010PropOp41
 70
     1
102
RTVSPost2010Prop42
 90
       50
102
RTVSPost2010PropOp42
 70
     1
102
RTVSPost2010Prop43
 90
        3
102
RTVSPost2010PropOp43
 70
     1
102
RTVSPost2010Prop44ColorIndex
 90
        5
102
RTVSPost2010Prop44ColorRGB
 90
      255
102
RTVSPost2010PropOp44
 70
     1
102
RTVSPost2010Prop45
280
     0
102
RTVSPost2010PropOp45
 70
     1
102
RTVSPost2010Prop46
 90
       50
102
RTVSPost2010PropOp46
 70
     1
102
RTVSPost2010Prop47
 90
       50
102
RTVSPost2010PropOp47
 70
     1
102
RTVSPost2010Prop48
 90
       50
102
RTVSPost2010PropOp48
 70
     1
102
RTVSPost2010Prop49
280
     0
102
RTVSPost2010PropOp49
 70
     1
102
RTVSPost2010Prop50
 90
       50
102
RTVSPost2010PropOp50
 70
     1
102
RTVSPost2010Prop51ColorIndex
 90
      256
102
RTVSPost2010Prop51ColorRGB
 90
-16777216
102
RTVSPost2010PropOp51
 70
     0
102
RTVSPost2010Prop52
140
1.0
102
RTVSPost2010PropOp52
 70
     0
102
RTVSPost2010Prop53
 90
        2
102
RTVSPost2010PropOp53
 70
     1
102
RTVSPost2010Prop54
  1
strokes_ogs.tif
102
RTVSPost2010PropOp54
 70
     1
102
RTVSPost2010Prop55
280
     0
102
RTVSPost2010PropOp55
 70
     1
102
RTVSPost2010Prop56
140
1.0
102
RTVSPost2010PropOp56
 70
     1
102
RTVSPost2010Prop57
140
1.0
102
RTVSPost2010PropOp57
 70
     1
  0
XRECORD
  5
13F
102
{ACAD_REACTORS
330
13E
102
}
330
13E
100
AcDbXrecord
280
     1
102
RTVSPost2010Prop28
280
     0
102
RTVSPost2010PropOp28
 70
     1
102
RTVSPost2010Prop29
280
     1
102
RTVSPost2010PropOp29
 70
     1
102
RTVSPost2010Prop30
280
     1
102
RTVSPost2010PropOp30
 70
     1
102
RTVSPost2010Prop31
280
     0
102
RTVSPost2010PropOp31
 70
     1
102
RTVSPost2010Prop32
280
     0
102
RTVSPost2010PropOp32
 70
     1
102
RTVSPost2010Prop33
280
     0
102
RTVSPost2010PropOp33
 70
     1
102
RTVSPost2010Prop34
280
     0
102
RTVSPost2010PropOp34
 70
     1
102
RTVSPost2010Prop35
280
     0
102
RTVSPost2010PropOp35
 70
     1
102
RTVSPost2010Prop36
280
     0
102
RTVSPost2010PropOp36
 70
     1
102
RTVSPost2010Prop37
 90
       50
102
RTVSPost2010PropOp37
 70
     1
102
RTVSPost2010Prop38
140
0.0
102
RTVSPost2010PropOp38
 70
     1
102
RTVSPost2010Prop39
140
1.0
102
RTVSPost2010PropOp39
 70
     1
102
RTVSPost2010Prop40
 90
        0
102
RTVSPost2010PropOp40
 70
     1
102
RTVSPost2010Prop41ColorIndex
 90
       18
102
RTVSPost2010Prop41ColorRGB
 90
        0
102
RTVSPost2010PropOp41
 70
     1
102
RTVSPost2010Prop42
 90
       50
102
RTVSPost2010PropOp42
 70
     1
102
RTVSPost2010Prop43
 90
        3
102
RTVSPost2010PropOp43
 70
     1
102
RTVSPost2010Prop44ColorIndex
 90
        5
102
RTVSPost2010Prop44ColorRGB
 90
      255
102
RTVSPost2010PropOp44
 70
     1
102
RTVSPost2010Prop45
280
     0
102
RTVSPost2010PropOp45
 70
     1
102
RTVSPost2010Prop46
 90
       50
102
RTVSPost2010PropOp46
 70
     1
102
RTVSPost2010Prop47
 90
       50
102
RTVSPost2010PropOp47
 70
     1
102
RTVSPost2010Prop48
 90
       50
102
RTVSPost2010PropOp48
 70
     1
102
RTVSPost2010Prop49
280
     0
102
RTVSPost2010PropOp49
 70
     1
102
RTVSPost2010Prop50
 90
       50
102
RTVSPost2010PropOp50
 70
     1
102
RTVSPost2010Prop51ColorIndex
 90
      256
102
RTVSPost2010Prop51ColorRGB
 90
-16777216
102
RTVSPost2010PropOp51
 70
     0
102
RTVSPost2010Prop52
140
1.0
102
RTVSPost2010PropOp52
 70
     0
102
RTVSPost2010Prop53
 90
        2
102
RTVSPost2010PropOp53
 70
     1
102
RTVSPost2010Prop54
  1
strokes_ogs.tif
102
RTVSPost2010PropOp54
 70
     1
102
RTVSPost2010Prop55
280
     0
102
RTVSPost2010PropOp55
 70
     1
102
RTVSPost2010Prop56
140
1.0
102
RTVSPost2010PropOp56
 70
     1
102
RTVSPost2010Prop57
140
1.0
102
RTVSPost2010PropOp57
 70
     1
  0
XRECORD
  5
133
102
{ACAD_REACTORS
330
132
102
}
330
132
100
AcDbXrecord
280
     1
102
RTVSPost2010Prop28
280
     0
102
RTVSPost2010PropOp28
 70
     1
102
RTVSPost2010Prop29
280
     1
102
RTVSPost2010PropOp29
 70
     1
102
RTVSPost2010Prop30
280
     1
102
RTVSPost2010PropOp30
 70
     1
102
RTVSPost2010Prop31
280
     0
102
RTVSPost2010PropOp31
 70
     1
102
RTVSPost2010Prop32
280
     0
102
RTVSPost2010PropOp32
 70
     1
102
RTVSPost2010Prop33
280
     0
102
RTVSPost2010PropOp33
 70
     1
102
RTVSPost2010Prop34
280
     0
102
RTVSPost2010PropOp34
 70
     1
102
RTVSPost2010Prop35
280
     0
102
RTVSPost2010PropOp35
 70
     1
102
RTVSPost2010Prop36
280
     0
102
RTVSPost2010PropOp36
 70
     1
102
RTVSPost2010Prop37
 90
       50
102
RTVSPost2010PropOp37
 70
     1
102
RTVSPost2010Prop38
140
0.0
102
RTVSPost2010PropOp38
 70
     1
102
RTVSPost2010Prop39
140
1.0
102
RTVSPost2010PropOp39
 70
     1
102
RTVSPost2010Prop40
 90
        0
102
RTVSPost2010PropOp40
 70
     1
102
RTVSPost2010Prop41ColorIndex
 90
       18
102
RTVSPost2010Prop41ColorRGB
 90
        0
102
RTVSPost2010PropOp41
 70
     1
102
RTVSPost2010Prop42
 90
       50
102
RTVSPost2010PropOp42
 70
     1
102
RTVSPost2010Prop43
 90
        3
102
RTVSPost2010PropOp43
 70
     1
102
RTVSPost2010Prop44ColorIndex
 90
        5
102
RTVSPost2010Prop44ColorRGB
 90
      255
102
RTVSPost2010PropOp44
 70
     1
102
RTVSPost2010Prop45
280
     0
102
RTVSPost2010PropOp45
 70
     1
102
RTVSPost2010Prop46
 90
       50
102
RTVSPost2010PropOp46
 70
     1
102
RTVSPost2010Prop47
 90
       50
102
RTVSPost2010PropOp47
 70
     1
102
RTVSPost2010Prop48
 90
       50
102
RTVSPost2010PropOp48
 70
     1
102
RTVSPost2010Prop49
280
     0
102
RTVSPost2010PropOp49
 70
     1
102
RTVSPost2010Prop50
 90
       50
102
RTVSPost2010PropOp50
 70
     1
102
RTVSPost2010Prop51ColorIndex
 90
      256
102
RTVSPost2010Prop51ColorRGB
 90
-16777216
102
RTVSPost2010PropOp51
 70
     0
102
RTVSPost2010Prop52
140
1.0
102
RTVSPost2010PropOp52
 70
     0
102
RTVSPost2010Prop53
 90
        2
102
RTVSPost2010PropOp53
 70
     1
102
RTVSPost2010Prop54
  1
strokes_ogs.tif
102
RTVSPost2010PropOp54
 70
     1
102
RTVSPost2010Prop55
280
     0
102
RTVSPost2010PropOp55
 70
     1
102
RTVSPost2010Prop56
140
1.0
102
RTVSPost2010PropOp56
 70
     1
102
RTVSPost2010Prop57
140
1.0
102
RTVSPost2010PropOp57
 70
     1
  0
XRECORD
  5
135
102
{ACAD_REACTORS
330
134
102
}
330
134
100
AcDbXrecord
280
     1
102
RTVSPost2010Prop28
280
     0
102
RTVSPost2010PropOp28
 70
     1
102
RTVSPost2010Prop29
280
     1
102
RTVSPost2010PropOp29
 70
     1
102
RTVSPost2010Prop30
280
     1
102
RTVSPost2010PropOp30
 70
     1
102
RTVSPost2010Prop31
280
     0
102
RTVSPost2010PropOp31
 70
     1
102
RTVSPost2010Prop32
280
     0
102
RTVSPost2010PropOp32
 70
     1
102
RTVSPost2010Prop33
280
     0
102
RTVSPost2010PropOp33
 70
     1
102
RTVSPost2010Prop34
280
     0
102
RTVSPost2010PropOp34
 70
     1
102
RTVSPost2010Prop35
280
     0
102
RTVSPost2010PropOp35
 70
     1
102
RTVSPost2010Prop36
280
     0
102
RTVSPost2010PropOp36
 70
     1
102
RTVSPost2010Prop37
 90
       50
102
RTVSPost2010PropOp37
 70
     1
102
RTVSPost2010Prop38
140
0.0
102
RTVSPost2010PropOp38
 70
     1
102
RTVSPost2010Prop39
140
1.0
102
RTVSPost2010PropOp39
 70
     1
102
RTVSPost2010Prop40
 90
        0
102
RTVSPost2010PropOp40
 70
     1
102
RTVSPost2010Prop41ColorIndex
 90
       18
102
RTVSPost2010Prop41ColorRGB
 90
        0
102
RTVSPost2010PropOp41
 70
     1
102
RTVSPost2010Prop42
 90
       50
102
RTVSPost2010PropOp42
 70
     1
102
RTVSPost2010Prop43
 90
        3
102
RTVSPost2010PropOp43
 70
     1
102
RTVSPost2010Prop44ColorIndex
 90
        5
102
RTVSPost2010Prop44ColorRGB
 90
      255
102
RTVSPost2010PropOp44
 70
     1
102
RTVSPost2010Prop45
280
     0
102
RTVSPost2010PropOp45
 70
     1
102
RTVSPost2010Prop46
 90
       50
102
RTVSPost2010PropOp46
 70
     1
102
RTVSPost2010Prop47
 90
       50
102
RTVSPost2010PropOp47
 70
     1
102
RTVSPost2010Prop48
 90
       50
102
RTVSPost2010PropOp48
 70
     1
102
RTVSPost2010Prop49
280
     0
102
RTVSPost2010PropOp49
 70
     1
102
RTVSPost2010Prop50
 90
       50
102
RTVSPost2010PropOp50
 70
     1
102
RTVSPost2010Prop51ColorIndex
 90
      256
102
RTVSPost2010Prop51ColorRGB
 90
-16777216
102
RTVSPost2010PropOp51
 70
     0
102
RTVSPost2010Prop52
140
1.0
102
RTVSPost2010PropOp52
 70
     0
102
RTVSPost2010Prop53
 90
        2
102
RTVSPost2010PropOp53
 70
     1
102
RTVSPost2010Prop54
  1
strokes_ogs.tif
102
RTVSPost2010PropOp54
 70
     1
102
RTVSPost2010Prop55
280
     0
102
RTVSPost2010PropOp55
 70
     1
102
RTVSPost2010Prop56
140
1.0
102
RTVSPost2010PropOp56
 70
     1
102
RTVSPost2010Prop57
140
1.0
102
RTVSPost2010PropOp57
 70
     1
  0
XRECORD
  5
145
102
{ACAD_REACTORS
330
144
102
}
330
144
100
AcDbXrecord
280
     1
102
RTVSPost2010Prop28
280
     0
102
RTVSPost2010PropOp28
 70
     0
102
RTVSPost2010Prop29
280
     1
102
RTVSPost2010PropOp29
 70
     0
102
RTVSPost2010Prop30
280
     1
102
RTVSPost2010PropOp30
 70
     0
102
RTVSPost2010Prop31
280
     0
102
RTVSPost2010PropOp31
 70
     0
102
RTVSPost2010Prop32
280
     0
102
RTVSPost2010PropOp32
 70
     0
102
RTVSPost2010Prop33
280
     0
102
RTVSPost2010PropOp33
 70
     0
102
RTVSPost2010Prop34
280
     0
102
RTVSPost2010PropOp34
 70
     0
102
RTVSPost2010Prop35
280
     0
102
RTVSPost2010PropOp35
 70
     0
102
RTVSPost2010Prop36
280
     0
102
RTVSPost2010PropOp36
 70
     0
102
RTVSPost2010Prop37
 90
       50
102
RTVSPost2010PropOp37
 70
     0
102
RTVSPost2010Prop38
140
0.0
102
RTVSPost2010PropOp38
 70
     0
102
RTVSPost2010Prop39
140
1.0
102
RTVSPost2010PropOp39
 70
     0
102
RTVSPost2010Prop40
 90
        0
102
RTVSPost2010PropOp40
 70
     0
102
RTVSPost2010Prop41ColorIndex
 90
       18
102
RTVSPost2010Prop41ColorRGB
 90
        0
102
RTVSPost2010PropOp41
 70
     0
102
RTVSPost2010Prop42
 90
       50
102
RTVSPost2010PropOp42
 70
     0
102
RTVSPost2010Prop43
 90
        3
102
RTVSPost2010PropOp43
 70
     0
102
RTVSPost2010Prop44ColorIndex
 90
        5
102
RTVSPost2010Prop44ColorRGB
 90
      255
102
RTVSPost2010PropOp44
 70
     0
102
RTVSPost2010Prop45
280
     0
102
RTVSPost2010PropOp45
 70
     0
102
RTVSPost2010Prop46
 90
       50
102
RTVSPost2010PropOp46
 70
     0
102
RTVSPost2010Prop47
 90
       50
102
RTVSPost2010PropOp47
 70
     0
102
RTVSPost2010Prop48
 90
       50
102
RTVSPost2010PropOp48
 70
     0
102
RTVSPost2010Prop49
280
     0
102
RTVSPost2010PropOp49
 70
     0
102
RTVSPost2010Prop50
 90
       50
102
RTVSPost2010PropOp50
 70
     0
102
RTVSPost2010Prop51ColorIndex
 90
      256
102
RTVSPost2010Prop51ColorRGB
 90
-16777216
102
RTVSPost2010PropOp51
 70
     0
102
RTVSPost2010Prop52
140
1.0
102
RTVSPost2010PropOp52
 70
     0
102
RTVSPost2010Prop53
 90
        2
102
RTVSPost2010PropOp53
 70
     0
102
RTVSPost2010Prop54
  1
strokes_ogs.tif
102
RTVSPost2010PropOp54
 70
     0
102
RTVSPost2010Prop55
280
     0
102
RTVSPost2010PropOp55
 70
     0
102
RTVSPost2010Prop56
140
1.0
102
RTVSPost2010PropOp56
 70
     0
102
RTVSPost2010Prop57
140
1.0
102
RTVSPost2010PropOp57
 70
     0
  0
XRECORD
  5
13D
102
{ACAD_REACTORS
330
13C
102
}
330
13C
100
AcDbXrecord
280
     1
102
RTVSPost2010Prop28
280
     0
102
RTVSPost2010PropOp28
 70
     1
102
RTVSPost2010Prop29
280
     1
102
RTVSPost2010PropOp29
 70
     1
102
RTVSPost2010Prop30
280
     1
102
RTVSPost2010PropOp30
 70
     1
102
RTVSPost2010Prop31
280
     0
102
RTVSPost2010PropOp31
 70
     1
102
RTVSPost2010Prop32
280
     0
102
RTVSPost2010PropOp32
 70
     1
102
RTVSPost2010Prop33
280
     0
102
RTVSPost2010PropOp33
 70
     1
102
RTVSPost2010Prop34
280
     0
102
RTVSPost2010PropOp34
 70
     1
102
RTVSPost2010Prop35
280
     0
102
RTVSPost2010PropOp35
 70
     1
102
RTVSPost2010Prop36
280
     0
102
RTVSPost2010PropOp36
 70
     1
102
RTVSPost2010Prop37
 90
       50
102
RTVSPost2010PropOp37
 70
     1
102
RTVSPost2010Prop38
140
0.0
102
RTVSPost2010PropOp38
 70
     1
102
RTVSPost2010Prop39
140
1.0
102
RTVSPost2010PropOp39
 70
     1
102
RTVSPost2010Prop40
 90
        0
102
RTVSPost2010PropOp40
 70
     1
102
RTVSPost2010Prop41ColorIndex
 90
       18
102
RTVSPost2010Prop41ColorRGB
 90
        0
102
RTVSPost2010PropOp41
 70
     1
102
RTVSPost2010Prop42
 90
       50
102
RTVSPost2010PropOp42
 70
     1
102
RTVSPost2010Prop43
 90
        3
102
RTVSPost2010PropOp43
 70
     1
102
RTVSPost2010Prop44ColorIndex
 90
        5
102
RTVSPost2010Prop44ColorRGB
 90
      255
102
RTVSPost2010PropOp44
 70
     1
102
RTVSPost2010Prop45
280
     0
102
RTVSPost2010PropOp45
 70
     1
102
RTVSPost2010Prop46
 90
       50
102
RTVSPost2010PropOp46
 70
     1
102
RTVSPost2010Prop47
 90
       50
102
RTVSPost2010PropOp47
 70
     1
102
RTVSPost2010Prop48
 90
       50
102
RTVSPost2010PropOp48
 70
     1
102
RTVSPost2010Prop49
280
     0
102
RTVSPost2010PropOp49
 70
     1
102
RTVSPost2010Prop50
 90
       50
102
RTVSPost2010PropOp50
 70
     1
102
RTVSPost2010Prop51ColorIndex
 90
      256
102
RTVSPost2010Prop51ColorRGB
 90
-16777216
102
RTVSPost2010PropOp51
 70
     0
102
RTVSPost2010Prop52
140
1.0
102
RTVSPost2010PropOp52
 70
     0
102
RTVSPost2010Prop53
 90
        2
102
RTVSPost2010PropOp53
 70
     1
102
RTVSPost2010Prop54
  1
strokes_ogs.tif
102
RTVSPost2010PropOp54
 70
     1
102
RTVSPost2010Prop55
280
     0
102
RTVSPost2010PropOp55
 70
     1
102
RTVSPost2010Prop56
140
1.0
102
RTVSPost2010PropOp56
 70
     1
102
RTVSPost2010Prop57
140
1.0
102
RTVSPost2010PropOp57
 70
     1
  0
XRECORD
  5
121
102
{ACAD_REACTORS
330
120
102
}
330
120
100
AcDbXrecord
280
     1
102
RTVSPost2010Prop28
280
     0
102
RTVSPost2010PropOp28
 70
     1
102
RTVSPost2010Prop29
280
     1
102
RTVSPost2010PropOp29
 70
     1
102
RTVSPost2010Prop30
280
     1
102
RTVSPost2010PropOp30
 70
     1
102
RTVSPost2010Prop31
280
     0
102
RTVSPost2010PropOp31
 70
     1
102
RTVSPost2010Prop32
280
     0
102
RTVSPost2010PropOp32
 70
     1
102
RTVSPost2010Prop33
280
     0
102
RTVSPost2010PropOp33
 70
     1
102
RTVSPost2010Prop34
280
     0
102
RTVSPost2010PropOp34
 70
     1
102
RTVSPost2010Prop35
280
     0
102
RTVSPost2010PropOp35
 70
     1
102
RTVSPost2010Prop36
280
     0
102
RTVSPost2010PropOp36
 70
     1
102
RTVSPost2010Prop37
 90
       50
102
RTVSPost2010PropOp37
 70
     1
102
RTVSPost2010Prop38
140
0.0
102
RTVSPost2010PropOp38
 70
     1
102
RTVSPost2010Prop39
140
1.0
102
RTVSPost2010PropOp39
 70
     1
102
RTVSPost2010Prop40
 90
        0
102
RTVSPost2010PropOp40
 70
     1
102
RTVSPost2010Prop41ColorIndex
 90
       18
102
RTVSPost2010Prop41ColorRGB
 90
        0
102
RTVSPost2010PropOp41
 70
     1
102
RTVSPost2010Prop42
 90
       50
102
RTVSPost2010PropOp42
 70
     1
102
RTVSPost2010Prop43
 90
        3
102
RTVSPost2010PropOp43
 70
     1
102
RTVSPost2010Prop44ColorIndex
 90
        5
102
RTVSPost2010Prop44ColorRGB
 90
      255
102
RTVSPost2010PropOp44
 70
     1
102
RTVSPost2010Prop45
280
     0
102
RTVSPost2010PropOp45
 70
     1
102
RTVSPost2010Prop46
 90
       50
102
RTVSPost2010PropOp46
 70
     1
102
RTVSPost2010Prop47
 90
       50
102
RTVSPost2010PropOp47
 70
     1
102
RTVSPost2010Prop48
 90
       50
102
RTVSPost2010PropOp48
 70
     1
102
RTVSPost2010Prop49
280
     0
102
RTVSPost2010PropOp49
 70
     1
102
RTVSPost2010Prop50
 90
       50
102
RTVSPost2010PropOp50
 70
     1
102
RTVSPost2010Prop51ColorIndex
 90
      256
102
RTVSPost2010Prop51ColorRGB
 90
-16777216
102
RTVSPost2010PropOp51
 70
     0
102
RTVSPost2010Prop52
140
1.0
102
RTVSPost2010PropOp52
 70
     0
102
RTVSPost2010Prop53
 90
        2
102
RTVSPost2010PropOp53
 70
     1
102
RTVSPost2010Prop54
  1
strokes_ogs.tif
102
RTVSPost2010PropOp54
 70
     1
102
RTVSPost2010Prop55
280
     0
102
RTVSPost2010PropOp55
 70
     1
102
RTVSPost2010Prop56
140
1.0
102
RTVSPost2010PropOp56
 70
     1
102
RTVSPost2010Prop57
140
1.0
102
RTVSPost2010PropOp57
 70
     1
  0
XRECORD
  5
123
102
{ACAD_REACTORS
330
122
102
}
330
122
100
AcDbXrecord
280
     1
102
RTVSPost2010Prop28
280
     0
102
RTVSPost2010PropOp28
 70
     1
102
RTVSPost2010Prop29
280
     1
102
RTVSPost2010PropOp29
 70
     1
102
RTVSPost2010Prop30
280
     1
102
RTVSPost2010PropOp30
 70
     1
102
RTVSPost2010Prop31
280
     0
102
RTVSPost2010PropOp31
 70
     1
102
RTVSPost2010Prop32
280
     0
102
RTVSPost2010PropOp32
 70
     1
102
RTVSPost2010Prop33
280
     0
102
RTVSPost2010PropOp33
 70
     1
102
RTVSPost2010Prop34
280
     0
102
RTVSPost2010PropOp34
 70
     1
102
RTVSPost2010Prop35
280
     0
102
RTVSPost2010PropOp35
 70
     1
102
RTVSPost2010Prop36
280
     0
102
RTVSPost2010PropOp36
 70
     1
102
RTVSPost2010Prop37
 90
       50
102
RTVSPost2010PropOp37
 70
     1
102
RTVSPost2010Prop38
140
0.0
102
RTVSPost2010PropOp38
 70
     1
102
RTVSPost2010Prop39
140
1.0
102
RTVSPost2010PropOp39
 70
     1
102
RTVSPost2010Prop40
 90
        0
102
RTVSPost2010PropOp40
 70
     1
102
RTVSPost2010Prop41ColorIndex
 90
       18
102
RTVSPost2010Prop41ColorRGB
 90
        0
102
RTVSPost2010PropOp41
 70
     1
102
RTVSPost2010Prop42
 90
       50
102
RTVSPost2010PropOp42
 70
     1
102
RTVSPost2010Prop43
 90
        3
102
RTVSPost2010PropOp43
 70
     1
102
RTVSPost2010Prop44ColorIndex
 90
        5
102
RTVSPost2010Prop44ColorRGB
 90
      255
102
RTVSPost2010PropOp44
 70
     1
102
RTVSPost2010Prop45
280
     0
102
RTVSPost2010PropOp45
 70
     1
102
RTVSPost2010Prop46
 90
       50
102
RTVSPost2010PropOp46
 70
     1
102
RTVSPost2010Prop47
 90
       50
102
RTVSPost2010PropOp47
 70
     1
102
RTVSPost2010Prop48
 90
       50
102
RTVSPost2010PropOp48
 70
     1
102
RTVSPost2010Prop49
280
     0
102
RTVSPost2010PropOp49
 70
     1
102
RTVSPost2010Prop50
 90
       50
102
RTVSPost2010PropOp50
 70
     1
102
RTVSPost2010Prop51ColorIndex
 90
      256
102
RTVSPost2010Prop51ColorRGB
 90
-16777216
102
RTVSPost2010PropOp51
 70
     0
102
RTVSPost2010Prop52
140
1.0
102
RTVSPost2010PropOp52
 70
     0
102
RTVSPost2010Prop53
 90
        2
102
RTVSPost2010PropOp53
 70
     1
102
RTVSPost2010Prop54
  1
strokes_ogs.tif
102
RTVSPost2010PropOp54
 70
     1
102
RTVSPost2010Prop55
280
     0
102
RTVSPost2010PropOp55
 70
     1
102
RTVSPost2010Prop56
140
1.0
102
RTVSPost2010PropOp56
 70
     1
102
RTVSPost2010Prop57
140
1.0
102
RTVSPost2010PropOp57
 70
     1
  0
XRECORD
  5
125
102
{ACAD_REACTORS
330
124
102
}
330
124
100
AcDbXrecord
280
     1
102
RTVSPost2010Prop28
280
     0
102
RTVSPost2010PropOp28
 70
     1
102
RTVSPost2010Prop29
280
     1
102
RTVSPost2010PropOp29
 70
     1
102
RTVSPost2010Prop30
280
     1
102
RTVSPost2010PropOp30
 70
     1
102
RTVSPost2010Prop31
280
     0
102
RTVSPost2010PropOp31
 70
     1
102
RTVSPost2010Prop32
280
     0
102
RTVSPost2010PropOp32
 70
     1
102
RTVSPost2010Prop33
280
     0
102
RTVSPost2010PropOp33
 70
     1
102
RTVSPost2010Prop34
280
     0
102
RTVSPost2010PropOp34
 70
     1
102
RTVSPost2010Prop35
280
     0
102
RTVSPost2010PropOp35
 70
     1
102
RTVSPost2010Prop36
280
     0
102
RTVSPost2010PropOp36
 70
     1
102
RTVSPost2010Prop37
 90
       50
102
RTVSPost2010PropOp37
 70
     1
102
RTVSPost2010Prop38
140
0.0
102
RTVSPost2010PropOp38
 70
     1
102
RTVSPost2010Prop39
140
1.0
102
RTVSPost2010PropOp39
 70
     1
102
RTVSPost2010Prop40
 90
        0
102
RTVSPost2010PropOp40
 70
     1
102
RTVSPost2010Prop41ColorIndex
 90
       18
102
RTVSPost2010Prop41ColorRGB
 90
        0
102
RTVSPost2010PropOp41
 70
     1
102
RTVSPost2010Prop42
 90
       50
102
RTVSPost2010PropOp42
 70
     1
102
RTVSPost2010Prop43
 90
        3
102
RTVSPost2010PropOp43
 70
     1
102
RTVSPost2010Prop44ColorIndex
 90
        5
102
RTVSPost2010Prop44ColorRGB
 90
      255
102
RTVSPost2010PropOp44
 70
     1
102
RTVSPost2010Prop45
280
     0
102
RTVSPost2010PropOp45
 70
     1
102
RTVSPost2010Prop46
 90
       50
102
RTVSPost2010PropOp46
 70
     1
102
RTVSPost2010Prop47
 90
       50
102
RTVSPost2010PropOp47
 70
     1
102
RTVSPost2010Prop48
 90
       50
102
RTVSPost2010PropOp48
 70
     1
102
RTVSPost2010Prop49
280
     0
102
RTVSPost2010PropOp49
 70
     1
102
RTVSPost2010Prop50
 90
       50
102
RTVSPost2010PropOp50
 70
     1
102
RTVSPost2010Prop51ColorIndex
 90
      256
102
RTVSPost2010Prop51ColorRGB
 90
-16777216
102
RTVSPost2010PropOp51
 70
     0
102
RTVSPost2010Prop52
140
1.0
102
RTVSPost2010PropOp52
 70
     0
102
RTVSPost2010Prop53
 90
        2
102
RTVSPost2010PropOp53
 70
     1
102
RTVSPost2010Prop54
  1
strokes_ogs.tif
102
RTVSPost2010PropOp54
 70
     1
102
RTVSPost2010Prop55
280
     0
102
RTVSPost2010PropOp55
 70
     1
102
RTVSPost2010Prop56
140
1.0
102
RTVSPost2010PropOp56
 70
     1
102
RTVSPost2010Prop57
140
1.0
102
RTVSPost2010PropOp57
 70
     1
  0
XRECORD
  5
127
102
{ACAD_REACTORS
330
126
102
}
330
126
100
AcDbXrecord
280
     1
102
RTVSPost2010Prop28
280
     0
102
RTVSPost2010PropOp28
 70
     1
102
RTVSPost2010Prop29
280
     1
102
RTVSPost2010PropOp29
 70
     1
102
RTVSPost2010Prop30
280
     1
102
RTVSPost2010PropOp30
 70
     1
102
RTVSPost2010Prop31
280
     0
102
RTVSPost2010PropOp31
 70
     1
102
RTVSPost2010Prop32
280
     0
102
RTVSPost2010PropOp32
 70
     1
102
RTVSPost2010Prop33
280
     0
102
RTVSPost2010PropOp33
 70
     1
102
RTVSPost2010Prop34
280
     0
102
RTVSPost2010PropOp34
 70
     1
102
RTVSPost2010Prop35
280
     0
102
RTVSPost2010PropOp35
 70
     1
102
RTVSPost2010Prop36
280
     0
102
RTVSPost2010PropOp36
 70
     1
102
RTVSPost2010Prop37
 90
       50
102
RTVSPost2010PropOp37
 70
     1
102
RTVSPost2010Prop38
140
0.0
102
RTVSPost2010PropOp38
 70
     1
102
RTVSPost2010Prop39
140
1.0
102
RTVSPost2010PropOp39
 70
     1
102
RTVSPost2010Prop40
 90
        0
102
RTVSPost2010PropOp40
 70
     1
102
RTVSPost2010Prop41ColorIndex
 90
       18
102
RTVSPost2010Prop41ColorRGB
 90
        0
102
RTVSPost2010PropOp41
 70
     1
102
RTVSPost2010Prop42
 90
       50
102
RTVSPost2010PropOp42
 70
     1
102
RTVSPost2010Prop43
 90
        3
102
RTVSPost2010PropOp43
 70
     1
102
RTVSPost2010Prop44ColorIndex
 90
        5
102
RTVSPost2010Prop44ColorRGB
 90
      255
102
RTVSPost2010PropOp44
 70
     1
102
RTVSPost2010Prop45
280
     0
102
RTVSPost2010PropOp45
 70
     1
102
RTVSPost2010Prop46
 90
       50
102
RTVSPost2010PropOp46
 70
     1
102
RTVSPost2010Prop47
 90
       50
102
RTVSPost2010PropOp47
 70
     1
102
RTVSPost2010Prop48
 90
       50
102
RTVSPost2010PropOp48
 70
     1
102
RTVSPost2010Prop49
280
     0
102
RTVSPost2010PropOp49
 70
     1
102
RTVSPost2010Prop50
 90
       50
102
RTVSPost2010PropOp50
 70
     1
102
RTVSPost2010Prop51ColorIndex
 90
      256
102
RTVSPost2010Prop51ColorRGB
 90
-16777216
102
RTVSPost2010PropOp51
 70
     0
102
RTVSPost2010Prop52
140
1.0
102
RTVSPost2010PropOp52
 70
     0
102
RTVSPost2010Prop53
 90
        2
102
RTVSPost2010PropOp53
 70
     1
102
RTVSPost2010Prop54
  1
strokes_ogs.tif
102
RTVSPost2010PropOp54
 70
     1
102
RTVSPost2010Prop55
280
     0
102
RTVSPost2010PropOp55
 70
     1
102
RTVSPost2010Prop56
140
1.0
102
RTVSPost2010PropOp56
 70
     1
102
RTVSPost2010Prop57
140
1.0
102
RTVSPost2010PropOp57
 70
     1
  0
XRECORD
  5
12D
102
{ACAD_REACTORS
330
12C
102
}
330
12C
100
AcDbXrecord
280
     1
102
RTVSPost2010Prop28
280
     0
102
RTVSPost2010PropOp28
 70
     1
102
RTVSPost2010Prop29
280
     1
102
RTVSPost2010PropOp29
 70
     1
102
RTVSPost2010Prop30
280
     1
102
RTVSPost2010PropOp30
 70
     1
102
RTVSPost2010Prop31
280
     0
102
RTVSPost2010PropOp31
 70
     1
102
RTVSPost2010Prop32
280
     0
102
RTVSPost2010PropOp32
 70
     1
102
RTVSPost2010Prop33
280
     0
102
RTVSPost2010PropOp33
 70
     1
102
RTVSPost2010Prop34
280
     0
102
RTVSPost2010PropOp34
 70
     1
102
RTVSPost2010Prop35
280
     0
102
RTVSPost2010PropOp35
 70
     1
102
RTVSPost2010Prop36
280
     0
102
RTVSPost2010PropOp36
 70
     1
102
RTVSPost2010Prop37
 90
       50
102
RTVSPost2010PropOp37
 70
     1
102
RTVSPost2010Prop38
140
0.0
102
RTVSPost2010PropOp38
 70
     1
102
RTVSPost2010Prop39
140
1.0
102
RTVSPost2010PropOp39
 70
     1
102
RTVSPost2010Prop40
 90
        0
102
RTVSPost2010PropOp40
 70
     1
102
RTVSPost2010Prop41ColorIndex
 90
       18
102
RTVSPost2010Prop41ColorRGB
 90
        0
102
RTVSPost2010PropOp41
 70
     1
102
RTVSPost2010Prop42
 90
       50
102
RTVSPost2010PropOp42
 70
     1
102
RTVSPost2010Prop43
 90
        3
102
RTVSPost2010PropOp43
 70
     1
102
RTVSPost2010Prop44ColorIndex
 90
        5
102
RTVSPost2010Prop44ColorRGB
 90
      255
102
RTVSPost2010PropOp44
 70
     1
102
RTVSPost2010Prop45
280
     0
102
RTVSPost2010PropOp45
 70
     1
102
RTVSPost2010Prop46
 90
       50
102
RTVSPost2010PropOp46
 70
     1
102
RTVSPost2010Prop47
 90
       50
102
RTVSPost2010PropOp47
 70
     1
102
RTVSPost2010Prop48
 90
       50
102
RTVSPost2010PropOp48
 70
     1
102
RTVSPost2010Prop49
280
     0
102
RTVSPost2010PropOp49
 70
     1
102
RTVSPost2010Prop50
 90
       50
102
RTVSPost2010PropOp50
 70
     1
102
RTVSPost2010Prop51ColorIndex
 90
      256
102
RTVSPost2010Prop51ColorRGB
 90
-16777216
102
RTVSPost2010PropOp51
 70
     0
102
RTVSPost2010Prop52
140
1.0
102
RTVSPost2010PropOp52
 70
     0
102
RTVSPost2010Prop53
 90
        2
102
RTVSPost2010PropOp53
 70
     1
102
RTVSPost2010Prop54
  1
strokes_ogs.tif
102
RTVSPost2010PropOp54
 70
     1
102
RTVSPost2010Prop55
280
     0
102
RTVSPost2010PropOp55
 70
     1
102
RTVSPost2010Prop56
140
1.0
102
RTVSPost2010PropOp56
 70
     1
102
RTVSPost2010Prop57
140
1.0
102
RTVSPost2010PropOp57
 70
     1
  0
XRECORD
  5
141
102
{ACAD_REACTORS
330
140
102
}
330
140
100
AcDbXrecord
280
     1
102
RTVSPost2010Prop28
280
     0
102
RTVSPost2010PropOp28
 70
     0
102
RTVSPost2010Prop29
280
     1
102
RTVSPost2010PropOp29
 70
     0
102
RTVSPost2010Prop30
280
     1
102
RTVSPost2010PropOp30
 70
     0
102
RTVSPost2010Prop31
280
     0
102
RTVSPost2010PropOp31
 70
     0
102
RTVSPost2010Prop32
280
     0
102
RTVSPost2010PropOp32
 70
     0
102
RTVSPost2010Prop33
280
     0
102
RTVSPost2010PropOp33
 70
     0
102
RTVSPost2010Prop34
280
     0
102
RTVSPost2010PropOp34
 70
     0
102
RTVSPost2010Prop35
280
     0
102
RTVSPost2010PropOp35
 70
     0
102
RTVSPost2010Prop36
280
     0
102
RTVSPost2010PropOp36
 70
     0
102
RTVSPost2010Prop37
 90
       50
102
RTVSPost2010PropOp37
 70
     0
102
RTVSPost2010Prop38
140
0.0
102
RTVSPost2010PropOp38
 70
     0
102
RTVSPost2010Prop39
140
1.0
102
RTVSPost2010PropOp39
 70
     0
102
RTVSPost2010Prop40
 90
        0
102
RTVSPost2010PropOp40
 70
     0
102
RTVSPost2010Prop41ColorIndex
 90
       18
102
RTVSPost2010Prop41ColorRGB
 90
        0
102
RTVSPost2010PropOp41
 70
     0
102
RTVSPost2010Prop42
 90
       50
102
RTVSPost2010PropOp42
 70
     0
102
RTVSPost2010Prop43
 90
        3
102
RTVSPost2010PropOp43
 70
     0
102
RTVSPost2010Prop44ColorIndex
 90
        5
102
RTVSPost2010Prop44ColorRGB
 90
      255
102
RTVSPost2010PropOp44
 70
     0
102
RTVSPost2010Prop45
280
     0
102
RTVSPost2010PropOp45
 70
     0
102
RTVSPost2010Prop46
 90
       50
102
RTVSPost2010PropOp46
 70
     0
102
RTVSPost2010Prop47
 90
       50
102
RTVSPost2010PropOp47
 70
     0
102
RTVSPost2010Prop48
 90
       50
102
RTVSPost2010PropOp48
 70
     0
102
RTVSPost2010Prop49
280
     0
102
RTVSPost2010PropOp49
 70
     0
102
RTVSPost2010Prop50
 90
       50
102
RTVSPost2010PropOp50
 70
     0
102
RTVSPost2010Prop51ColorIndex
 90
      256
102
RTVSPost2010Prop51ColorRGB
 90
-16777216
102
RTVSPost2010PropOp51
 70
     0
102
RTVSPost2010Prop52
140
1.0
102
RTVSPost2010PropOp52
 70
     0
102
RTVSPost2010Prop53
 90
        2
102
RTVSPost2010PropOp53
 70
     0
102
RTVSPost2010Prop54
  1
strokes_ogs.tif
102
RTVSPost2010PropOp54
 70
     0
102
RTVSPost2010Prop55
280
     0
102
RTVSPost2010PropOp55
 70
     0
102
RTVSPost2010Prop56
140
1.0
102
RTVSPost2010PropOp56
 70
     0
102
RTVSPost2010Prop57
140
1.0
102
RTVSPost2010PropOp57
 70
     0
  0
XRECORD
  5
13B
102
{ACAD_REACTORS
330
13A
102
}
330
13A
100
AcDbXrecord
280
     1
102
RTVSPost2010Prop28
280
     0
102
RTVSPost2010PropOp28
 70
     1
102
RTVSPost2010Prop29
280
     1
102
RTVSPost2010PropOp29
 70
     1
102
RTVSPost2010Prop30
280
     1
102
RTVSPost2010PropOp30
 70
     1
102
RTVSPost2010Prop31
280
     0
102
RTVSPost2010PropOp31
 70
     1
102
RTVSPost2010Prop32
280
     0
102
RTVSPost2010PropOp32
 70
     1
102
RTVSPost2010Prop33
280
     0
102
RTVSPost2010PropOp33
 70
     1
102
RTVSPost2010Prop34
280
     0
102
RTVSPost2010PropOp34
 70
     1
102
RTVSPost2010Prop35
280
     0
102
RTVSPost2010PropOp35
 70
     1
102
RTVSPost2010Prop36
280
     0
102
RTVSPost2010PropOp36
 70
     1
102
RTVSPost2010Prop37
 90
       50
102
RTVSPost2010PropOp37
 70
     1
102
RTVSPost2010Prop38
140
0.0
102
RTVSPost2010PropOp38
 70
     1
102
RTVSPost2010Prop39
140
1.0
102
RTVSPost2010PropOp39
 70
     1
102
RTVSPost2010Prop40
 90
        0
102
RTVSPost2010PropOp40
 70
     1
102
RTVSPost2010Prop41ColorIndex
 90
       18
102
RTVSPost2010Prop41ColorRGB
 90
        0
102
RTVSPost2010PropOp41
 70
     1
102
RTVSPost2010Prop42
 90
       50
102
RTVSPost2010PropOp42
 70
     1
102
RTVSPost2010Prop43
 90
        3
102
RTVSPost2010PropOp43
 70
     1
102
RTVSPost2010Prop44ColorIndex
 90
        5
102
RTVSPost2010Prop44ColorRGB
 90
      255
102
RTVSPost2010PropOp44
 70
     1
102
RTVSPost2010Prop45
280
     0
102
RTVSPost2010PropOp45
 70
     1
102
RTVSPost2010Prop46
 90
       50
102
RTVSPost2010PropOp46
 70
     1
102
RTVSPost2010Prop47
 90
       50
102
RTVSPost2010PropOp47
 70
     1
102
RTVSPost2010Prop48
 90
       50
102
RTVSPost2010PropOp48
 70
     1
102
RTVSPost2010Prop49
280
     0
102
RTVSPost2010PropOp49
 70
     1
102
RTVSPost2010Prop50
 90
       50
102
RTVSPost2010PropOp50
 70
     1
102
RTVSPost2010Prop51ColorIndex
 90
      256
102
RTVSPost2010Prop51ColorRGB
 90
-16777216
102
RTVSPost2010PropOp51
 70
     0
102
RTVSPost2010Prop52
140
1.0
102
RTVSPost2010PropOp52
 70
     0
102
RTVSPost2010Prop53
 90
        2
102
RTVSPost2010PropOp53
 70
     1
102
RTVSPost2010Prop54
  1
strokes_ogs.tif
102
RTVSPost2010PropOp54
 70
     1
102
RTVSPost2010Prop55
280
     0
102
RTVSPost2010PropOp55
 70
     1
102
RTVSPost2010Prop56
140
1.0
102
RTVSPost2010PropOp56
 70
     1
102
RTVSPost2010Prop57
140
1.0
102
RTVSPost2010PropOp57
 70
     1
  0
XRECORD
  5
143
102
{ACAD_REACTORS
330
142
102
}
330
142
100
AcDbXrecord
280
     1
102
RTVSPost2010Prop28
280
     0
102
RTVSPost2010PropOp28
 70
     0
102
RTVSPost2010Prop29
280
     1
102
RTVSPost2010PropOp29
 70
     0
102
RTVSPost2010Prop30
280
     1
102
RTVSPost2010PropOp30
 70
     0
102
RTVSPost2010Prop31
280
     0
102
RTVSPost2010PropOp31
 70
     0
102
RTVSPost2010Prop32
280
     0
102
RTVSPost2010PropOp32
 70
     0
102
RTVSPost2010Prop33
280
     0
102
RTVSPost2010PropOp33
 70
     0
102
RTVSPost2010Prop34
280
     0
102
RTVSPost2010PropOp34
 70
     0
102
RTVSPost2010Prop35
280
     0
102
RTVSPost2010PropOp35
 70
     0
102
RTVSPost2010Prop36
280
     0
102
RTVSPost2010PropOp36
 70
     0
102
RTVSPost2010Prop37
 90
       50
102
RTVSPost2010PropOp37
 70
     0
102
RTVSPost2010Prop38
140
0.0
102
RTVSPost2010PropOp38
 70
     0
102
RTVSPost2010Prop39
140
1.0
102
RTVSPost2010PropOp39
 70
     0
102
RTVSPost2010Prop40
 90
        0
102
RTVSPost2010PropOp40
 70
     0
102
RTVSPost2010Prop41ColorIndex
 90
       18
102
RTVSPost2010Prop41ColorRGB
 90
        0
102
RTVSPost2010PropOp41
 70
     0
102
RTVSPost2010Prop42
 90
       50
102
RTVSPost2010PropOp42
 70
     0
102
RTVSPost2010Prop43
 90
        3
102
RTVSPost2010PropOp43
 70
     0
102
RTVSPost2010Prop44ColorIndex
 90
        5
102
RTVSPost2010Prop44ColorRGB
 90
      255
102
RTVSPost2010PropOp44
 70
     0
102
RTVSPost2010Prop45
280
     0
102
RTVSPost2010PropOp45
 70
     0
102
RTVSPost2010Prop46
 90
       50
102
RTVSPost2010PropOp46
 70
     0
102
RTVSPost2010Prop47
 90
       50
102
RTVSPost2010PropOp47
 70
     0
102
RTVSPost2010Prop48
 90
       50
102
RTVSPost2010PropOp48
 70
     0
102
RTVSPost2010Prop49
280
     0
102
RTVSPost2010PropOp49
 70
     0
102
RTVSPost2010Prop50
 90
       50
102
RTVSPost2010PropOp50
 70
     0
102
RTVSPost2010Prop51ColorIndex
 90
      256
102
RTVSPost2010Prop51ColorRGB
 90
-16777216
102
RTVSPost2010PropOp51
 70
     0
102
RTVSPost2010Prop52
140
1.0
102
RTVSPost2010PropOp52
 70
     0
102
RTVSPost2010Prop53
 90
        2
102
RTVSPost2010PropOp53
 70
     0
102
RTVSPost2010Prop54
  1
strokes_ogs.tif
102
RTVSPost2010PropOp54
 70
     0
102
RTVSPost2010Prop55
280
     0
102
RTVSPost2010PropOp55
 70
     0
102
RTVSPost2010Prop56
140
1.0
102
RTVSPost2010PropOp56
 70
     0
102
RTVSPost2010Prop57
140
1.0
102
RTVSPost2010PropOp57
 70
     0
  0
XRECORD
  5
131
102
{ACAD_REACTORS
330
130
102
}
330
130
100
AcDbXrecord
280
     1
102
RTVSPost2010Prop28
280
     0
102
RTVSPost2010PropOp28
 70
     1
102
RTVSPost2010Prop29
280
     1
102
RTVSPost2010PropOp29
 70
     1
102
RTVSPost2010Prop30
280
     1
102
RTVSPost2010PropOp30
 70
     1
102
RTVSPost2010Prop31
280
     0
102
RTVSPost2010PropOp31
 70
     1
102
RTVSPost2010Prop32
280
     0
102
RTVSPost2010PropOp32
 70
     1
102
RTVSPost2010Prop33
280
     0
102
RTVSPost2010PropOp33
 70
     1
102
RTVSPost2010Prop34
280
     0
102
RTVSPost2010PropOp34
 70
     1
102
RTVSPost2010Prop35
280
     0
102
RTVSPost2010PropOp35
 70
     1
102
RTVSPost2010Prop36
280
     0
102
RTVSPost2010PropOp36
 70
     1
102
RTVSPost2010Prop37
 90
       50
102
RTVSPost2010PropOp37
 70
     1
102
RTVSPost2010Prop38
140
0.0
102
RTVSPost2010PropOp38
 70
     1
102
RTVSPost2010Prop39
140
1.0
102
RTVSPost2010PropOp39
 70
     1
102
RTVSPost2010Prop40
 90
        0
102
RTVSPost2010PropOp40
 70
     1
102
RTVSPost2010Prop41ColorIndex
 90
       18
102
RTVSPost2010Prop41ColorRGB
 90
        0
102
RTVSPost2010PropOp41
 70
     1
102
RTVSPost2010Prop42
 90
       50
102
RTVSPost2010PropOp42
 70
     1
102
RTVSPost2010Prop43
 90
        3
102
RTVSPost2010PropOp43
 70
     1
102
RTVSPost2010Prop44ColorIndex
 90
        5
102
RTVSPost2010Prop44ColorRGB
 90
      255
102
RTVSPost2010PropOp44
 70
     1
102
RTVSPost2010Prop45
280
     0
102
RTVSPost2010PropOp45
 70
     1
102
RTVSPost2010Prop46
 90
       50
102
RTVSPost2010PropOp46
 70
     1
102
RTVSPost2010Prop47
 90
       50
102
RTVSPost2010PropOp47
 70
     1
102
RTVSPost2010Prop48
 90
       50
102
RTVSPost2010PropOp48
 70
     1
102
RTVSPost2010Prop49
280
     0
102
RTVSPost2010PropOp49
 70
     1
102
RTVSPost2010Prop50
 90
       50
102
RTVSPost2010PropOp50
 70
     1
102
RTVSPost2010Prop51ColorIndex
 90
      256
102
RTVSPost2010Prop51ColorRGB
 90
-16777216
102
RTVSPost2010PropOp51
 70
     0
102
RTVSPost2010Prop52
140
1.0
102
RTVSPost2010PropOp52
 70
     0
102
RTVSPost2010Prop53
 90
        2
102
RTVSPost2010PropOp53
 70
     1
102
RTVSPost2010Prop54
  1
strokes_ogs.tif
102
RTVSPost2010PropOp54
 70
     1
102
RTVSPost2010Prop55
280
     0
102
RTVSPost2010PropOp55
 70
     1
102
RTVSPost2010Prop56
140
1.0
102
RTVSPost2010PropOp56
 70
     1
102
RTVSPost2010Prop57
140
1.0
102
RTVSPost2010PropOp57
 70
     1
  0
XRECORD
  5
14F
102
{ACAD_REACTORS
330
14E
102
}
330
14E
100
AcDbXrecord
280
     1
102
RTVSPost2010Prop28
280
     0
102
RTVSPost2010PropOp28
 70
     1
102
RTVSPost2010Prop29
280
     1
102
RTVSPost2010PropOp29
 70
     1
102
RTVSPost2010Prop30
280
     1
102
RTVSPost2010PropOp30
 70
     1
102
RTVSPost2010Prop31
280
     0
102
RTVSPost2010PropOp31
 70
     1
102
RTVSPost2010Prop32
280
     0
102
RTVSPost2010PropOp32
 70
     1
102
RTVSPost2010Prop33
280
     0
102
RTVSPost2010PropOp33
 70
     1
102
RTVSPost2010Prop34
280
     0
102
RTVSPost2010PropOp34
 70
     1
102
RTVSPost2010Prop35
280
     0
102
RTVSPost2010PropOp35
 70
     1
102
RTVSPost2010Prop36
280
     0
102
RTVSPost2010PropOp36
 70
     1
102
RTVSPost2010Prop37
 90
       50
102
RTVSPost2010PropOp37
 70
     1
102
RTVSPost2010Prop38
140
0.0
102
RTVSPost2010PropOp38
 70
     1
102
RTVSPost2010Prop39
140
1.0
102
RTVSPost2010PropOp39
 70
     1
102
RTVSPost2010Prop40
 90
        0
102
RTVSPost2010PropOp40
 70
     1
102
RTVSPost2010Prop41ColorIndex
 90
       18
102
RTVSPost2010Prop41ColorRGB
 90
        0
102
RTVSPost2010PropOp41
 70
     1
102
RTVSPost2010Prop42
 90
       50
102
RTVSPost2010PropOp42
 70
     1
102
RTVSPost2010Prop43
 90
        3
102
RTVSPost2010PropOp43
 70
     1
102
RTVSPost2010Prop44ColorIndex
 90
        5
102
RTVSPost2010Prop44ColorRGB
 90
      255
102
RTVSPost2010PropOp44
 70
     1
102
RTVSPost2010Prop45
280
     0
102
RTVSPost2010PropOp45
 70
     1
102
RTVSPost2010Prop46
 90
       50
102
RTVSPost2010PropOp46
 70
     1
102
RTVSPost2010Prop47
 90
       50
102
RTVSPost2010PropOp47
 70
     1
102
RTVSPost2010Prop48
 90
       50
102
RTVSPost2010PropOp48
 70
     1
102
RTVSPost2010Prop49
280
     0
102
RTVSPost2010PropOp49
 70
     1
102
RTVSPost2010Prop50
 90
       50
102
RTVSPost2010PropOp50
 70
     1
102
RTVSPost2010Prop51ColorIndex
 90
      256
102
RTVSPost2010Prop51ColorRGB
 90
-16777216
102
RTVSPost2010PropOp51
 70
     0
102
RTVSPost2010Prop52
140
1.0
102
RTVSPost2010PropOp52
 70
     0
102
RTVSPost2010Prop53
 90
        2
102
RTVSPost2010PropOp53
 70
     1
102
RTVSPost2010Prop54
  1
strokes_ogs.tif
102
RTVSPost2010PropOp54
 70
     1
102
RTVSPost2010Prop55
280
     0
102
RTVSPost2010PropOp55
 70
     1
102
RTVSPost2010Prop56
140
1.0
102
RTVSPost2010PropOp56
 70
     1
102
RTVSPost2010Prop57
140
1.0
102
RTVSPost2010PropOp57
 70
     1
  0
XRECORD
  5
14D
102
{ACAD_REACTORS
330
14C
102
}
330
14C
100
AcDbXrecord
280
     1
102
RTVSPost2010Prop28
280
     0
102
RTVSPost2010PropOp28
 70
     1
102
RTVSPost2010Prop29
280
     1
102
RTVSPost2010PropOp29
 70
     1
102
RTVSPost2010Prop30
280
     1
102
RTVSPost2010PropOp30
 70
     1
102
RTVSPost2010Prop31
280
     0
102
RTVSPost2010PropOp31
 70
     1
102
RTVSPost2010Prop32
280
     0
102
RTVSPost2010PropOp32
 70
     1
102
RTVSPost2010Prop33
280
     0
102
RTVSPost2010PropOp33
 70
     1
102
RTVSPost2010Prop34
280
     0
102
RTVSPost2010PropOp34
 70
     1
102
RTVSPost2010Prop35
280
     0
102
RTVSPost2010PropOp35
 70
     1
102
RTVSPost2010Prop36
280
     0
102
RTVSPost2010PropOp36
 70
     1
102
RTVSPost2010Prop37
 90
       50
102
RTVSPost2010PropOp37
 70
     1
102
RTVSPost2010Prop38
140
0.0
102
RTVSPost2010PropOp38
 70
     1
102
RTVSPost2010Prop39
140
1.0
102
RTVSPost2010PropOp39
 70
     1
102
RTVSPost2010Prop40
 90
        0
102
RTVSPost2010PropOp40
 70
     1
102
RTVSPost2010Prop41ColorIndex
 90
       18
102
RTVSPost2010Prop41ColorRGB
 90
        0
102
RTVSPost2010PropOp41
 70
     1
102
RTVSPost2010Prop42
 90
       50
102
RTVSPost2010PropOp42
 70
     1
102
RTVSPost2010Prop43
 90
        3
102
RTVSPost2010PropOp43
 70
     1
102
RTVSPost2010Prop44ColorIndex
 90
        5
102
RTVSPost2010Prop44ColorRGB
 90
      255
102
RTVSPost2010PropOp44
 70
     1
102
RTVSPost2010Prop45
280
     0
102
RTVSPost2010PropOp45
 70
     1
102
RTVSPost2010Prop46
 90
       50
102
RTVSPost2010PropOp46
 70
     1
102
RTVSPost2010Prop47
 90
       50
102
RTVSPost2010PropOp47
 70
     1
102
RTVSPost2010Prop48
 90
       50
102
RTVSPost2010PropOp48
 70
     1
102
RTVSPost2010Prop49
280
     0
102
RTVSPost2010PropOp49
 70
     1
102
RTVSPost2010Prop50
 90
       50
102
RTVSPost2010PropOp50
 70
     1
102
RTVSPost2010Prop51ColorIndex
 90
      256
102
RTVSPost2010Prop51ColorRGB
 90
-16777216
102
RTVSPost2010PropOp51
 70
     0
102
RTVSPost2010Prop52
140
1.0
102
RTVSPost2010PropOp52
 70
     0
102
RTVSPost2010Prop53
 90
        2
102
RTVSPost2010PropOp53
 70
     1
102
RTVSPost2010Prop54
  1
strokes_ogs.tif
102
RTVSPost2010PropOp54
 70
     1
102
RTVSPost2010Prop55
280
     0
102
RTVSPost2010PropOp55
 70
     1
102
RTVSPost2010Prop56
140
1.0
102
RTVSPost2010PropOp56
 70
     1
102
RTVSPost2010Prop57
140
1.0
102
RTVSPost2010PropOp57
 70
     1
  0
XRECORD
  5
147
102
{ACAD_REACTORS
330
146
102
}
330
146
100
AcDbXrecord
280
     1
102
RTVSPost2010Prop28
280
     0
102
RTVSPost2010PropOp28
 70
     1
102
RTVSPost2010Prop29
280
     1
102
RTVSPost2010PropOp29
 70
     1
102
RTVSPost2010Prop30
280
     1
102
RTVSPost2010PropOp30
 70
     1
102
RTVSPost2010Prop31
280
     0
102
RTVSPost2010PropOp31
 70
     1
102
RTVSPost2010Prop32
280
     0
102
RTVSPost2010PropOp32
 70
     1
102
RTVSPost2010Prop33
280
     0
102
RTVSPost2010PropOp33
 70
     1
102
RTVSPost2010Prop34
280
     0
102
RTVSPost2010PropOp34
 70
     1
102
RTVSPost2010Prop35
280
     0
102
RTVSPost2010PropOp35
 70
     1
102
RTVSPost2010Prop36
280
     0
102
RTVSPost2010PropOp36
 70
     1
102
RTVSPost2010Prop37
 90
       50
102
RTVSPost2010PropOp37
 70
     1
102
RTVSPost2010Prop38
140
0.0
102
RTVSPost2010PropOp38
 70
     1
102
RTVSPost2010Prop39
140
1.0
102
RTVSPost2010PropOp39
 70
     1
102
RTVSPost2010Prop40
 90
        0
102
RTVSPost2010PropOp40
 70
     1
102
RTVSPost2010Prop41ColorIndex
 90
       18
102
RTVSPost2010Prop41ColorRGB
 90
        0
102
RTVSPost2010PropOp41
 70
     1
102
RTVSPost2010Prop42
 90
       50
102
RTVSPost2010PropOp42
 70
     1
102
RTVSPost2010Prop43
 90
        3
102
RTVSPost2010PropOp43
 70
     1
102
RTVSPost2010Prop44ColorIndex
 90
        5
102
RTVSPost2010Prop44ColorRGB
 90
      255
102
RTVSPost2010PropOp44
 70
     1
102
RTVSPost2010Prop45
280
     0
102
RTVSPost2010PropOp45
 70
     1
102
RTVSPost2010Prop46
 90
       50
102
RTVSPost2010PropOp46
 70
     1
102
RTVSPost2010Prop47
 90
       50
102
RTVSPost2010PropOp47
 70
     1
102
RTVSPost2010Prop48
 90
       50
102
RTVSPost2010PropOp48
 70
     1
102
RTVSPost2010Prop49
280
     0
102
RTVSPost2010PropOp49
 70
     1
102
RTVSPost2010Prop50
 90
       50
102
RTVSPost2010PropOp50
 70
     1
102
RTVSPost2010Prop51ColorIndex
 90
      256
102
RTVSPost2010Prop51ColorRGB
 90
-16777216
102
RTVSPost2010PropOp51
 70
     0
102
RTVSPost2010Prop52
140
1.0
102
RTVSPost2010PropOp52
 70
     0
102
RTVSPost2010Prop53
 90
        2
102
RTVSPost2010PropOp53
 70
     1
102
RTVSPost2010Prop54
  1
strokes_ogs.tif
102
RTVSPost2010PropOp54
 70
     1
102
RTVSPost2010Prop55
280
     0
102
RTVSPost2010PropOp55
 70
     1
102
RTVSPost2010Prop56
140
1.0
102
RTVSPost2010PropOp56
 70
     1
102
RTVSPost2010Prop57
140
1.0
102
RTVSPost2010PropOp57
 70
     1
  0
XRECORD
  5
149
102
{ACAD_REACTORS
330
148
102
}
330
148
100
AcDbXrecord
280
     1
102
RTVSPost2010Prop28
280
     0
102
RTVSPost2010PropOp28
 70
     1
102
RTVSPost2010Prop29
280
     1
102
RTVSPost2010PropOp29
 70
     1
102
RTVSPost2010Prop30
280
     1
102
RTVSPost2010PropOp30
 70
     1
102
RTVSPost2010Prop31
280
     0
102
RTVSPost2010PropOp31
 70
     1
102
RTVSPost2010Prop32
280
     0
102
RTVSPost2010PropOp32
 70
     1
102
RTVSPost2010Prop33
280
     0
102
RTVSPost2010PropOp33
 70
     1
102
RTVSPost2010Prop34
280
     0
102
RTVSPost2010PropOp34
 70
     1
102
RTVSPost2010Prop35
280
     0
102
RTVSPost2010PropOp35
 70
     1
102
RTVSPost2010Prop36
280
     0
102
RTVSPost2010PropOp36
 70
     1
102
RTVSPost2010Prop37
 90
       50
102
RTVSPost2010PropOp37
 70
     1
102
RTVSPost2010Prop38
140
0.0
102
RTVSPost2010PropOp38
 70
     1
102
RTVSPost2010Prop39
140
1.0
102
RTVSPost2010PropOp39
 70
     1
102
RTVSPost2010Prop40
 90
        0
102
RTVSPost2010PropOp40
 70
     1
102
RTVSPost2010Prop41ColorIndex
 90
       18
102
RTVSPost2010Prop41ColorRGB
 90
        0
102
RTVSPost2010PropOp41
 70
     1
102
RTVSPost2010Prop42
 90
       50
102
RTVSPost2010PropOp42
 70
     1
102
RTVSPost2010Prop43
 90
        3
102
RTVSPost2010PropOp43
 70
     1
102
RTVSPost2010Prop44ColorIndex
 90
        5
102
RTVSPost2010Prop44ColorRGB
 90
      255
102
RTVSPost2010PropOp44
 70
     1
102
RTVSPost2010Prop45
280
     0
102
RTVSPost2010PropOp45
 70
     1
102
RTVSPost2010Prop46
 90
       50
102
RTVSPost2010PropOp46
 70
     1
102
RTVSPost2010Prop47
 90
       50
102
RTVSPost2010PropOp47
 70
     1
102
RTVSPost2010Prop48
 90
       50
102
RTVSPost2010PropOp48
 70
     1
102
RTVSPost2010Prop49
280
     0
102
RTVSPost2010PropOp49
 70
     1
102
RTVSPost2010Prop50
 90
       50
102
RTVSPost2010PropOp50
 70
     1
102
RTVSPost2010Prop51ColorIndex
 90
      256
102
RTVSPost2010Prop51ColorRGB
 90
-16777216
102
RTVSPost2010PropOp51
 70
     0
102
RTVSPost2010Prop52
140
1.0
102
RTVSPost2010PropOp52
 70
     0
102
RTVSPost2010Prop53
 90
        2
102
RTVSPost2010PropOp53
 70
     1
102
RTVSPost2010Prop54
  1
strokes_ogs.tif
102
RTVSPost2010PropOp54
 70
     1
102
RTVSPost2010Prop55
280
     0
102
RTVSPost2010PropOp55
 70
     1
102
RTVSPost2010Prop56
140
1.0
102
RTVSPost2010PropOp56
 70
     1
102
RTVSPost2010Prop57
140
1.0
102
RTVSPost2010PropOp57
 70
     1
  0
XRECORD
  5
139
102
{ACAD_REACTORS
330
138
102
}
330
138
100
AcDbXrecord
280
     1
102
RTVSPost2010Prop28
280
     0
102
RTVSPost2010PropOp28
 70
     1
102
RTVSPost2010Prop29
280
     1
102
RTVSPost2010PropOp29
 70
     1
102
RTVSPost2010Prop30
280
     1
102
RTVSPost2010PropOp30
 70
     1
102
RTVSPost2010Prop31
280
     0
102
RTVSPost2010PropOp31
 70
     1
102
RTVSPost2010Prop32
280
     0
102
RTVSPost2010PropOp32
 70
     1
102
RTVSPost2010Prop33
280
     0
102
RTVSPost2010PropOp33
 70
     1
102
RTVSPost2010Prop34
280
     0
102
RTVSPost2010PropOp34
 70
     1
102
RTVSPost2010Prop35
280
     0
102
RTVSPost2010PropOp35
 70
     1
102
RTVSPost2010Prop36
280
     0
102
RTVSPost2010PropOp36
 70
     1
102
RTVSPost2010Prop37
 90
       50
102
RTVSPost2010PropOp37
 70
     1
102
RTVSPost2010Prop38
140
0.0
102
RTVSPost2010PropOp38
 70
     1
102
RTVSPost2010Prop39
140
1.0
102
RTVSPost2010PropOp39
 70
     1
102
RTVSPost2010Prop40
 90
        0
102
RTVSPost2010PropOp40
 70
     1
102
RTVSPost2010Prop41ColorIndex
 90
       18
102
RTVSPost2010Prop41ColorRGB
 90
        0
102
RTVSPost2010PropOp41
 70
     1
102
RTVSPost2010Prop42
 90
       50
102
RTVSPost2010PropOp42
 70
     1
102
RTVSPost2010Prop43
 90
        3
102
RTVSPost2010PropOp43
 70
     1
102
RTVSPost2010Prop44ColorIndex
 90
        5
102
RTVSPost2010Prop44ColorRGB
 90
      255
102
RTVSPost2010PropOp44
 70
     1
102
RTVSPost2010Prop45
280
     0
102
RTVSPost2010PropOp45
 70
     1
102
RTVSPost2010Prop46
 90
       50
102
RTVSPost2010PropOp46
 70
     1
102
RTVSPost2010Prop47
 90
       50
102
RTVSPost2010PropOp47
 70
     1
102
RTVSPost2010Prop48
 90
       50
102
RTVSPost2010PropOp48
 70
     1
102
RTVSPost2010Prop49
280
     0
102
RTVSPost2010PropOp49
 70
     1
102
RTVSPost2010Prop50
 90
       50
102
RTVSPost2010PropOp50
 70
     1
102
RTVSPost2010Prop51ColorIndex
 90
      256
102
RTVSPost2010Prop51ColorRGB
 90
-16777216
102
RTVSPost2010PropOp51
 70
     0
102
RTVSPost2010Prop52
140
1.0
102
RTVSPost2010PropOp52
 70
     0
102
RTVSPost2010Prop53
 90
        2
102
RTVSPost2010PropOp53
 70
     1
102
RTVSPost2010Prop54
  1
strokes_ogs.tif
102
RTVSPost2010PropOp54
 70
     1
102
RTVSPost2010Prop55
280
     0
102
RTVSPost2010PropOp55
 70
     1
102
RTVSPost2010Prop56
140
1.0
102
RTVSPost2010PropOp56
 70
     1
102
RTVSPost2010Prop57
140
1.0
102
RTVSPost2010PropOp57
 70
     1
  0
XRECORD
  5
12B
102
{ACAD_REACTORS
330
12A
102
}
330
12A
100
AcDbXrecord
280
     1
102
RTVSPost2010Prop28
280
     0
102
RTVSPost2010PropOp28
 70
     1
102
RTVSPost2010Prop29
280
     1
102
RTVSPost2010PropOp29
 70
     1
102
RTVSPost2010Prop30
280
     1
102
RTVSPost2010PropOp30
 70
     1
102
RTVSPost2010Prop31
280
     0
102
RTVSPost2010PropOp31
 70
     1
102
RTVSPost2010Prop32
280
     0
102
RTVSPost2010PropOp32
 70
     1
102
RTVSPost2010Prop33
280
     0
102
RTVSPost2010PropOp33
 70
     1
102
RTVSPost2010Prop34
280
     0
102
RTVSPost2010PropOp34
 70
     1
102
RTVSPost2010Prop35
280
     0
102
RTVSPost2010PropOp35
 70
     1
102
RTVSPost2010Prop36
280
     0
102
RTVSPost2010PropOp36
 70
     1
102
RTVSPost2010Prop37
 90
       50
102
RTVSPost2010PropOp37
 70
     1
102
RTVSPost2010Prop38
140
0.0
102
RTVSPost2010PropOp38
 70
     1
102
RTVSPost2010Prop39
140
1.0
102
RTVSPost2010PropOp39
 70
     1
102
RTVSPost2010Prop40
 90
        0
102
RTVSPost2010PropOp40
 70
     1
102
RTVSPost2010Prop41ColorIndex
 90
       18
102
RTVSPost2010Prop41ColorRGB
 90
        0
102
RTVSPost2010PropOp41
 70
     1
102
RTVSPost2010Prop42
 90
       50
102
RTVSPost2010PropOp42
 70
     1
102
RTVSPost2010Prop43
 90
        3
102
RTVSPost2010PropOp43
 70
     1
102
RTVSPost2010Prop44ColorIndex
 90
        5
102
RTVSPost2010Prop44ColorRGB
 90
      255
102
RTVSPost2010PropOp44
 70
     1
102
RTVSPost2010Prop45
280
     0
102
RTVSPost2010PropOp45
 70
     1
102
RTVSPost2010Prop46
 90
       50
102
RTVSPost2010PropOp46
 70
     1
102
RTVSPost2010Prop47
 90
       50
102
RTVSPost2010PropOp47
 70
     1
102
RTVSPost2010Prop48
 90
       50
102
RTVSPost2010PropOp48
 70
     1
102
RTVSPost2010Prop49
280
     0
102
RTVSPost2010PropOp49
 70
     1
102
RTVSPost2010Prop50
 90
       50
102
RTVSPost2010PropOp50
 70
     1
102
RTVSPost2010Prop51ColorIndex
 90
      256
102
RTVSPost2010Prop51ColorRGB
 90
-16777216
102
RTVSPost2010PropOp51
 70
     0
102
RTVSPost2010Prop52
140
1.0
102
RTVSPost2010PropOp52
 70
     0
102
RTVSPost2010Prop53
 90
        2
102
RTVSPost2010PropOp53
 70
     1
102
RTVSPost2010Prop54
  1
strokes_ogs.tif
102
RTVSPost2010PropOp54
 70
     1
102
RTVSPost2010Prop55
280
     0
102
RTVSPost2010PropOp55
 70
     1
102
RTVSPost2010Prop56
140
1.0
102
RTVSPost2010PropOp56
 70
     1
102
RTVSPost2010Prop57
140
1.0
102
RTVSPost2010PropOp57
 70
     1
  0
XRECORD
  5
14B
102
{ACAD_REACTORS
330
14A
102
}
330
14A
100
AcDbXrecord
280
     1
102
RTVSPost2010Prop28
280
     0
102
RTVSPost2010PropOp28
 70
     1
102
RTVSPost2010Prop29
280
     1
102
RTVSPost2010PropOp29
 70
     1
102
RTVSPost2010Prop30
280
     1
102
RTVSPost2010PropOp30
 70
     1
102
RTVSPost2010Prop31
280
     0
102
RTVSPost2010PropOp31
 70
     1
102
RTVSPost2010Prop32
280
     0
102
RTVSPost2010PropOp32
 70
     1
102
RTVSPost2010Prop33
280
     0
102
RTVSPost2010PropOp33
 70
     1
102
RTVSPost2010Prop34
280
     0
102
RTVSPost2010PropOp34
 70
     1
102
RTVSPost2010Prop35
280
     0
102
RTVSPost2010PropOp35
 70
     1
102
RTVSPost2010Prop36
280
     0
102
RTVSPost2010PropOp36
 70
     1
102
RTVSPost2010Prop37
 90
       50
102
RTVSPost2010PropOp37
 70
     1
102
RTVSPost2010Prop38
140
0.0
102
RTVSPost2010PropOp38
 70
     1
102
RTVSPost2010Prop39
140
1.0
102
RTVSPost2010PropOp39
 70
     1
102
RTVSPost2010Prop40
 90
        0
102
RTVSPost2010PropOp40
 70
     1
102
RTVSPost2010Prop41ColorIndex
 90
       18
102
RTVSPost2010Prop41ColorRGB
 90
        0
102
RTVSPost2010PropOp41
 70
     1
102
RTVSPost2010Prop42
 90
       50
102
RTVSPost2010PropOp42
 70
     1
102
RTVSPost2010Prop43
 90
        3
102
RTVSPost2010PropOp43
 70
     1
102
RTVSPost2010Prop44ColorIndex
 90
        5
102
RTVSPost2010Prop44ColorRGB
 90
      255
102
RTVSPost2010PropOp44
 70
     1
102
RTVSPost2010Prop45
280
     0
102
RTVSPost2010PropOp45
 70
     1
102
RTVSPost2010Prop46
 90
       50
102
RTVSPost2010PropOp46
 70
     1
102
RTVSPost2010Prop47
 90
       50
102
RTVSPost2010PropOp47
 70
     1
102
RTVSPost2010Prop48
 90
       50
102
RTVSPost2010PropOp48
 70
     1
102
RTVSPost2010Prop49
280
     0
102
RTVSPost2010PropOp49
 70
     1
102
RTVSPost2010Prop50
 90
       50
102
RTVSPost2010PropOp50
 70
     1
102
RTVSPost2010Prop51ColorIndex
 90
      256
102
RTVSPost2010Prop51ColorRGB
 90
-16777216
102
RTVSPost2010PropOp51
 70
     0
102
RTVSPost2010Prop52
140
1.0
102
RTVSPost2010PropOp52
 70
     0
102
RTVSPost2010Prop53
 90
        2
102
RTVSPost2010PropOp53
 70
     1
102
RTVSPost2010Prop54
  1
strokes_ogs.tif
102
RTVSPost2010PropOp54
 70
     1
102
RTVSPost2010Prop55
280
     0
102
RTVSPost2010PropOp55
 70
     1
102
RTVSPost2010Prop56
140
1.0
102
RTVSPost2010PropOp56
 70
     1
102
RTVSPost2010Prop57
140
1.0
102
RTVSPost2010PropOp57
 70
     1
  0
ENDSEC
  0
EOF
