  0
SECTION
  2
HEADER
  9
$ACADVER
  1
AC1024
  9
$ACADMAINTVER
 70
     6
  9
$DWGCODEPAGE
  3
ANSI_932
  9
$INSBASE
 10
0.0
 20
0.0
 30
0.0
  9
$EXTMIN
 10
-677.162629
 20
-856.68087
 30
1.000000000000000E+20
  9
$EXTMAX
 10
898.152585
 20
1153.050722
 30
-1.000000000000000E+20
  9
$LIMMIN
 10
-677.162629
 20
-856.68087
  9
$LIMMAX
 10
898.152585
 20
1153.050722
  9
$ORTHOMODE
 70
     0
  9
$REGENMODE
 70
     1
  9
$FILLMODE
 70
     1
  9
$QTEXTMODE
 70
     0
  9
$MIRRTEXT
 70
     1
  9
$LTSCALE
 40
1.0
  9
$ATTMODE
 70
     1
  9
$TEXTSIZE
 40
0.0
  9
$TRACEWID
 40
0.05
  9
$TEXTSTYLE
  7
Standard
  9
$CLAYER
  8
0
  9
$CELTYPE
  6
Continuous
  9
$CECOLOR
 62
   256
  9
$CELTSCALE
 40
1.0
  9
$DISPSILH
 70
     0
  9
$DIMSCALE
 40
1.0
  9
$DIMASZ
 40
0.18
  9
$DIMEXO
 40
0.0625
  9
$DIMDLI
 40
0.38
  9
$DIMRND
 40
0.0
  9
$DIMDLE
 40
0.0
  9
$DIMEXE
 40
0.18
  9
$DIMTP
 40
0.0
  9
$DIMTM
 40
0.0
  9
$DIMTXT
 40
0.18
  9
$DIMCEN
 40
0.09
  9
$DIMTSZ
 40
0.0
  9
$DIMTOL
 70
     0
  9
$DIMLIM
 70
     0
  9
$DIMTIH
 70
     1
  9
$DIMTOH
 70
     1
  9
$DIMSE1
 70
     0
  9
$DIMSE2
 70
     0
  9
$DIMTAD
 70
     0
  9
$DIMZIN
 70
     0
  9
$DIMBLK
  1

  9
$DIMASO
 70
     1
  9
$DIMSHO
 70
     1
  9
$DIMPOST
  1

  9
$DIMAPOST
  1

  9
$DIMALT
 70
     0
  9
$DIMALTD
 70
     2
  9
$DIMALTF
 40
25.4
  9
$DIMLFAC
 40
1.0
  9
$DIMTOFL
 70
     0
  9
$DIMTVP
 40
0.0
  9
$DIMTIX
 70
     0
  9
$DIMSOXD
 70
     0
  9
$DIMSAH
 70
     0
  9
$DIMBLK1
  1

  9
$DIMBLK2
  1

  9
$DIMSTYLE
  2
Standard
  9
$DIMCLRD
 70
     0
  9
$DIMCLRE
 70
     0
  9
$DIMCLRT
 70
     0
  9
$DIMTFAC
 40
1.0
  9
$DIMGAP
 40
0.09
  9
$DIMJUST
 70
     0
  9
$DIMSD1
 70
     0
  9
$DIMSD2
 70
     0
  9
$DIMTOLJ
 70
     1
  9
$DIMTZIN
 70
     0
  9
$DIMALTZ
 70
     0
  9
$DIMALTTZ
 70
     0
  9
$DIMUPT
 70
     0
  9
$DIMDEC
 70
     4
  9
$DIMTDEC
 70
     4
  9
$DIMALTU
 70
     2
  9
$DIMALTTD
 70
     2
  9
$DIMTXSTY
  7
Standard
  9
$DIMAUNIT
 70
     0
  9
$DIMADEC
 70
     0
  9
$DIMALTRND
 40
0.0
  9
$DIMAZIN
 70
     0
  9
$DIMDSEP
 70
     0
  9
$DIMATFIT
 70
     3
  9
$DIMFRAC
 70
     0
  9
$DIMLDRBLK
  1

  9
$DIMLUNIT
 70
     2
  9
$DIMLWD
 70
     0
  9
$DIMLWE
 70
     0
  9
$DIMTMOVE
 70
     0
  9
$DIMFXL
 40
1.0
  9
$DIMFXLON
 70
     0
  9
$DIMJOGANG
 40
0.7853981633974483
  9
$DIMTFILL
 70
     0
  9
$DIMTFILLCLR
 70
     0
  9
$DIMARCSYM
 70
     0
  9
$DIMLTYPE
  6

  9
$DIMLTEX1
  6

  9
$DIMLTEX2
  6

  9
$DIMTXTDIRECTION
 70
     0
  9
$LUNITS
 70
     2
  9
$LUPREC
 70
     4
  9
$SKETCHINC
 40
0.1
  9
$FILLETRAD
 40
0.0
  9
$AUNITS
 70
     0
  9
$AUPREC
 70
     0
  9
$MENU
  1
acad
  9
$ELEVATION
 40
0.0
  9
$PELEVATION
 40
0.0
  9
$THICKNESS
 40
0.0
  9
$LIMCHECK
 70
     0
  9
$CHAMFERA
 40
0.0
  9
$CHAMFERB
 40
0.0
  9
$CHAMFERC
 40
0.0
  9
$CHAMFERD
 40
0.0
  9
$SKPOLY
 70
     0
  9
$TDCREATE
 40
2447893.041666667
  9
$TDUCREATE
 40
0.0
  9
$TDUPDATE
 40
2457234.640793866
  9
$TDUUPDATE
 40
2457234.599127199
  9
$TDINDWG
 40
0.0
  9
$TDUSRTIMER
 40
0.0
  9
$USRTIMER
 70
     1
  9
$ANGBASE
 50
0.0
  9
$ANGDIR
 70
     0
  9
$PDMODE
 70
     0
  9
$PDSIZE
 40
0.0
  9
$PLINEWID
 40
0.0
  9
$SPLFRAME
 70
     0
  9
$SPLINETYPE
 70
     6
  9
$SPLINESEGS
 70
     8
  9
$HANDSEED
  5
1A7
  9
$SURFTAB1
 70
     6
  9
$SURFTAB2
 70
     6
  9
$SURFTYPE
 70
     6
  9
$SURFU
 70
     6
  9
$SURFV
 70
     6
  9
$UCSBASE
  2

  9
$UCSNAME
  2

  9
$UCSORG
 10
0.0
 20
0.0
 30
0.0
  9
$UCSXDIR
 10
1.0
 20
0.0
 30
0.0
  9
$UCSYDIR
 10
0.0
 20
1.0
 30
0.0
  9
$UCSORTHOREF
  2

  9
$UCSORTHOVIEW
 70
     0
  9
$UCSORGTOP
 10
0.0
 20
0.0
 30
0.0
  9
$UCSORGBOTTOM
 10
0.0
 20
0.0
 30
0.0
  9
$UCSORGLEFT
 10
0.0
 20
0.0
 30
0.0
  9
$UCSORGRIGHT
 10
0.0
 20
0.0
 30
0.0
  9
$UCSORGFRONT
 10
0.0
 20
0.0
 30
0.0
  9
$UCSORGBACK
 10
0.0
 20
0.0
 30
0.0
  9
$PUCSBASE
  2

  9
$PUCSNAME
  2

  9
$PUCSORG
 10
0.0
 20
0.0
 30
0.0
  9
$PUCSXDIR
 10
1.0
 20
0.0
 30
0.0
  9
$PUCSYDIR
 10
0.0
 20
1.0
 30
0.0
  9
$PUCSORTHOREF
  2

  9
$PUCSORTHOVIEW
 70
     0
  9
$PUCSORGTOP
 10
0.0
 20
0.0
 30
0.0
  9
$PUCSORGBOTTOM
 10
0.0
 20
0.0
 30
0.0
  9
$PUCSORGLEFT
 10
0.0
 20
0.0
 30
0.0
  9
$PUCSORGRIGHT
 10
0.0
 20
0.0
 30
0.0
  9
$PUCSORGFRONT
 10
0.0
 20
0.0
 30
0.0
  9
$PUCSORGBACK
 10
0.0
 20
0.0
 30
0.0
  9
$USERI1
 70
     0
  9
$USERI2
 70
     0
  9
$USERI3
 70
     0
  9
$USERI4
 70
     0
  9
$USERI5
 70
     0
  9
$USERR1
 40
0.0
  9
$USERR2
 40
0.0
  9
$USERR3
 40
0.0
  9
$USERR4
 40
0.0
  9
$USERR5
 40
0.0
  9
$WORLDVIEW
 70
     1
  9
$SHADEDGE
 70
     3
  9
$SHADEDIF
 70
    70
  9
$TILEMODE
 70
     1
  9
$MAXACTVP
 70
    16
  9
$PINSBASE
 10
0.0
 20
0.0
 30
0.0
  9
$PLIMCHECK
 70
     0
  9
$PEXTMIN
 10
1.000000000000000E+20
 20
1.000000000000000E+20
 30
1.000000000000000E+20
  9
$PEXTMAX
 10
-1.000000000000000E+20
 20
-1.000000000000000E+20
 30
-1.000000000000000E+20
  9
$PLIMMIN
 10
0.0
 20
0.0
  9
$PLIMMAX
 10
12.0
 20
9.0
  9
$UNITMODE
 70
     0
  9
$VISRETAIN
 70
     0
  9
$PLINEGEN
 70
     1
  9
$PSLTSCALE
 70
     0
  9
$TREEDEPTH
 70
  3020
  9
$CMLSTYLE
  2
Standard
  9
$CMLJUST
 70
     0
  9
$CMLSCALE
 40
1.0
  9
$PROXYGRAPHICS
 70
     0
  9
$MEASUREMENT
 70
     0
  9
$CELWEIGHT
370
     0
  9
$ENDCAPS
280
     0
  9
$JOINSTYLE
280
     0
  9
$LWDISPLAY
290
     0
  9
$INSUNITS
 70
     0
  9
$HYPERLINKBASE
  1

  9
$STYLESHEET
  1

  9
$XEDIT
290
     1
  9
$CEPSNTYPE
380
     0
  9
$PSTYLEMODE
290
     1
  9
$FINGERPRINTGUID
  2

  9
$VERSIONGUID
  2

  9
$EXTNAMES
290
     1
  9
$PSVPSCALE
 40
0.0
  9
$OLESTARTUP
290
     0
  9
$SORTENTS
280
   127
  9
$INDEXCTL
280
     0
  9
$HIDETEXT
280
     1
  9
$XCLIPFRAME
280
     2
  9
$HALOGAP
280
     0
  9
$OBSCOLOR
 70
   257
  9
$OBSLTYPE
280
     0
  9
$INTERSECTIONDISPLAY
280
     0
  9
$INTERSECTIONCOLOR
 70
   257
  9
$DIMASSOC
280
     2
  9
$PROJECTNAME
  1

  9
$CAMERADISPLAY
290
     0
  9
$LENSLENGTH
 40
50.0
  9
$CAMERAHEIGHT
 40
0.0
  9
$STEPSPERSEC
 40
2.0
  9
$STEPSIZE
 40
6.0
  9
$3DDWFPREC
 40
2.0
  9
$PSOLWIDTH
 40
0.25
  9
$PSOLHEIGHT
 40
4.0
  9
$LOFTANG1
 40
1.570796326794897
  9
$LOFTANG2
 40
1.570796326794897
  9
$LOFTMAG1
 40
0.0
  9
$LOFTMAG2
 40
0.0
  9
$LOFTPARAM
 70
     7
  9
$LOFTNORMALS
280
     1
  9
$LATITUDE
 40
37.795
  9
$LONGITUDE
 40
-122.394
  9
$NORTHDIRECTION
 40
0.0
  9
$TIMEZONE
 70
 -8000
  9
$LIGHTGLYPHDISPLAY
280
     1
  9
$TILEMODELIGHTSYNCH
280
     1
  9
$SOLIDHIST
280
     0
  9
$SHOWHIST
280
     1
  9
$DWFFRAME
280
     2
  9
$DGNFRAME
280
     2
  9
$REALWORLDSCALE
290
     1
  9
$INTERFERECOLOR
 62
   256
  9
$CSHADOW
280
     0
  9
$SHADOWPLANELOCATION
 40
0.0
  0
ENDSEC
  0
SECTION
  2
CLASSES
  0
CLASS
  1
LWPOLYLINE
  2
AcDbPolyline
  3
ObjectDBX Classes
 90
        0
 91
        1
280
     0
281
     1
  0
CLASS
  1
IMAGE
  2
AcDbRasterImage
  3
ISM
 90
      127
 91
        5
280
     0
281
     1
  0
CLASS
  1
OLE2FRAME
  2
AcDbOle2Frame
  3
ObjectDBX Classes
 90
        0
 91
        1
280
     0
281
     1
  0
CLASS
  1
HATCH
  2
AcDbHatch
  3
ObjectDBX Classes
 90
        0
 91
        1
280
     0
281
     1
  0
CLASS
  1
DICTIONARYVAR
  2
AcDbDictionaryVar
  3
ObjectDBX Classes
 90
        0
 91
        4
280
     0
281
     0
  0
CLASS
  1
RASTERVARIABLES
  2
AcDbRasterVariables
  3
ISM
 90
        0
 91
        4
280
     0
281
     0
  0
CLASS
  1
IMAGEDEF
  2
AcDbRasterImageDef
  3
ISM
 90
        0
 91
        4
280
     0
281
     0
  0
CLASS
  1
IMAGEDEF_REACTOR
  2
AcDbRasterImageDefReactor
  3
ISM
 90
        1
 91
        4
280
     0
281
     0
  0
CLASS
  1
IDBUFFER
  2
AcDbIdBuffer
  3
ObjectDBX Classes
 90
        0
 91
        4
280
     0
281
     0
  0
CLASS
  1
SPATIAL_FILTER
  2
AcDbSpatialFilter
  3
ObjectDBX Classes
 90
        0
 91
        4
280
     0
281
     0
  0
CLASS
  1
XRECORD
  2
AcDbXrecord
  3
ObjectDBX Classes
 90
        0
 91
        1
280
     0
281
     0
  0
CLASS
  1
SORTENTSTABLE
  2
AcDbSortentsTable
  3
ObjectDBX Classes
 90
        0
 91
        4
280
     0
281
     0
  0
CLASS
  1
LAYER_INDEX
  2
AcDbLayerIndex
  3
ObjectDBX Classes
 90
        0
 91
        4
280
     0
281
     0
  0
CLASS
  1
SPATIAL_INDEX
  2
AcDbSpatialIndex
  3
AutoCAD 2000
 90
        0
 91
        4
280
     0
281
     0
  0
CLASS
  1
OBJECT_PTR
  2
CAseDLPNTableRecord
  3
ASE-LPNTableRecord
 90
        1
 91
        4
280
     0
281
     0
  0
CLASS
  1
LAYOUT
  2
AcDbLayout
  3
ObjectDBX Classes
 90
        0
 91
        1
280
     0
281
     0
  0
CLASS
  1
PLOTSETTINGS
  2
AcDbPlotSettings
  3
ObjectDBX Classes
 90
        0
 91
        4
280
     0
281
     0
  0
CLASS
  1
ACDBDICTIONARYWDFLT
  2
AcDbDictionaryWithDefault
  3
ObjectDBX Classes
 90
        0
 91
        4
280
     0
281
     0
  0
CLASS
  1
ACDBPLACEHOLDER
  2
AcDbPlaceHolder
  3
ObjectDBX Classes
 90
        0
 91
        1
280
     0
281
     0
  0
CLASS
  1
VBA_PROJECT
  2
AcDbVbaProject
  3
ObjectDBX Classes
 90
        0
 91
        1
280
     0
281
     0
  0
CLASS
  1
WIPEOUT
  2
AcDbWipeout
  3
WipeOut|AutoCAD Express Tool|expresstools@autodesk.com
 90
      127
 91
        4
280
     0
281
     1
  0
CLASS
  1
WIPEOUTVARIABLES
  2
AcDbWipeoutVariables
  3
WipeOut|AutoCAD Express Tool|expresstools@autodesk.com
 90
        0
 91
        4
280
     0
281
     0
  0
CLASS
  1
RTEXT
  2
RText
  3
RText|AutoCAD Express Tool|expresstools@autodesk.com
 90
        0
 91
        4
280
     0
281
     1
  0
CLASS
  1
ARCALIGNEDTEXT
  2
AcDbArcAlignedText
  3
ATEXT|AutoCAD Express Tool|expresstools@autodesk.com
 90
        0
 91
        4
280
     0
281
     1
  0
CLASS
  1
SCALE
  2
AcDbScale
  3
ObjectDBX Classes
 90
     1153
 91
        4
280
     0
281
     0
  0
CLASS
  1
VISUALSTYLE
  2
AcDbVisualStyle
  3
ObjectDBX Classes
 90
     4095
 91
        4
280
     0
281
     0
  0
CLASS
  1
MATERIAL
  2
AcDbMaterial
  3
ObjectDBX Classes
 90
     1153
 91
        4
280
     0
281
     0
  0
CLASS
  1
TABLESTYLE
  2
AcDbTableStyle
  3
ObjectDBX Classes
 90
     4095
 91
        4
280
     0
281
     0
  0
CLASS
  1
MLEADERSTYLE
  2
AcDbMLeaderStyle
  3
ACDB_MLEADERSTYLE_CLASS
 90
     4095
 91
        4
280
     0
281
     0
  0
CLASS
  1
CELLSTYLEMAP
  2
AcDbCellStyleMap
  3
ObjectDBX Classes
 90
     1152
 91
        4
280
     0
281
     0
  0
ENDSEC
  0
SECTION
  2
TABLES
  0
TABLE
  2
VPORT
  5
7
330
0
100
AcDbSymbolTable
 70
     1
  0
VPORT
  5
15
330
7
100
AcDbSymbolTableRecord
100
AcDbViewportTableRecord
  2
*ACTIVE
 70
     0
 10
0.0
 20
0.0
 11
1.0
 21
1.0
 12
6.591288
 22
4.579184
 13
0.0
 23
0.0
 14
1.0
 24
1.0
 15
0.0
 25
0.0
 16
0.0
 26
0.0
 36
1.0
 17
0.0
 27
0.0
 37
0.0
 40
9.158369
 41
0.688564
 42
50.0
 43
0.0
 44
0.0
 50
0.0
 51
0.0
 71
     0
 72
   100
 73
     1
 74
     1
 75
     0
 76
     0
 77
     0
 78
     0
281
     0
 65
     0
110
0.0
120
0.0
130
0.0
111
1.0
121
0.0
131
0.0
112
0.0
122
1.0
132
0.0
 79
     0
146
0.0
348
151
 60
     3
 61
     5
292
     1
282
     1
141
0.0
142
0.0
 63
   256
  0
ENDTAB
  0
TABLE
  2
LTYPE
  5
4
330
0
100
AcDbSymbolTable
 70
     3
  0
LTYPE
  5
11
330
4
100
AcDbSymbolTableRecord
100
AcDbLinetypeTableRecord
  2
ByBlock
 70
     0
  3

 72
    65
 73
     0
 40
0.0
  0
LTYPE
  5
12
330
4
100
AcDbSymbolTableRecord
100
AcDbLinetypeTableRecord
  2
ByLayer
 70
     0
  3

 72
    65
 73
     0
 40
0.0
  0
LTYPE
  5
13
330
4
100
AcDbSymbolTableRecord
100
AcDbLinetypeTableRecord
  2
Continuous
 70
     0
  3
Solid line
 72
    65
 73
     0
 40
0.0
  0
LTYPE
  5
37
330
4
100
AcDbSymbolTableRecord
100
AcDbLinetypeTableRecord
  2
AI9-LType1
 70
     0
  3
Illustrator Dash Style No.1
 72
    65
 73
     4
 40
4.586111
 49
2.116667
 74
     0
 49
-1.058333
 74
     0
 49
0.352778
 74
     0
 49
-1.058333
 74
     0
  0
LTYPE
  5
46
330
4
100
AcDbSymbolTableRecord
100
AcDbLinetypeTableRecord
  2
AI9-LType2
 70
     0
  3
Illustrator Dash Style No.2
 72
    65
 73
     2
 40
2.116667
 49
1.411111
 74
     0
 49
-0.705556
 74
     0
  0
ENDTAB
  0
TABLE
  2
LAYER
  5
2
330
0
100
AcDbSymbolTable
 70
     2
  0
LAYER
  5
14
330
2
100
AcDbSymbolTableRecord
100
AcDbLayerTableRecord
  2
0
 70
     0
 62
     7
  6
Continuous
370
    -3
390
1D
347
168
  0
LAYER
  5
28
330
2
100
AcDbSymbolTableRecord
100
AcDbLayerTableRecord
  2
LAYER_1
 70
     0
 62
   160
  6
Continuous
370
    -3
390
1D
347
168
  0
ENDTAB
  0
TABLE
  2
STYLE
  5
3
330
0
100
AcDbSymbolTable
 70
     5
  0
STYLE
  5
17
330
3
100
AcDbSymbolTableRecord
100
AcDbTextStyleTableRecord
  2
Standard
 70
     0
 40
0.0
 41
1.0
 50
0.0
 71
     0
 42
0.0
  3
txt
  4

  0
STYLE
  5
24
330
3
100
AcDbSymbolTableRecord
100
AcDbTextStyleTableRecord
  2
STD
 70
     0
 40
0.0
 41
1.0
 50
0.0
 71
     0
 42
0.0
  3
txt
  4

  0
STYLE
  5
25
330
3
100
AcDbSymbolTableRecord
100
AcDbTextStyleTableRecord
  2
TATESTD
 70
     4
 40
0.0
 41
1.0
 50
0.0
 71
     0
 42
0.0
  3
txt
  4

  0
STYLE
  5
26
330
3
100
AcDbSymbolTableRecord
100
AcDbTextStyleTableRecord
  2
KANJISTD
 70
     0
 40
0.0
 41
1.0
 50
0.0
 71
     0
 42
0.0
  3
txt
  4
extfont
  0
STYLE
  5
27
330
3
100
AcDbSymbolTableRecord
100
AcDbTextStyleTableRecord
  2
KANJITATE
 70
     4
 40
0.0
 41
1.0
 50
0.0
 71
     0
 42
0.0
  3
txt
  4
extfont
  0
ENDTAB
  0
TABLE
  2
VIEW
  5
5
330
0
100
AcDbSymbolTable
 70
     0
  0
ENDTAB
  0
TABLE
  2
UCS
  5
6
330
0
100
AcDbSymbolTable
 70
     0
  0
ENDTAB
  0
TABLE
  2
APPID
  5
8
330
0
100
AcDbSymbolTable
 70
     1
  0
APPID
  5
16
330
8
100
AcDbSymbolTableRecord
100
AcDbRegAppTableRecord
  2
ACAD
 70
     0
  0
ENDTAB
  0
TABLE
  2
DIMSTYLE
  5
9
330
0
100
AcDbSymbolTable
 70
     1
100
AcDbDimStyleTable
  0
DIMSTYLE
105
18
330
9
100
AcDbSymbolTableRecord
100
AcDbDimStyleTableRecord
  2
Standard
 70
     0
178
     0
340
17
  0
ENDTAB
  0
TABLE
  2
BLOCK_RECORD
  5
1
330
0
100
AcDbSymbolTable
 70
    10
  0
BLOCK_RECORD
  5
A
330
1
100
AcDbSymbolTableRecord
100
AcDbBlockTableRecord
  2
*MODEL_SPACE
340
20
 70
     0
280
     1
281
     0
  0
BLOCK_RECORD
  5
B
330
1
100
AcDbSymbolTableRecord
100
AcDbBlockTableRecord
  2
*PAPER_SPACE
340
21
 70
     0
280
     1
281
     0
  0
BLOCK_RECORD
  5
74
330
1
100
AcDbSymbolTableRecord
100
AcDbBlockTableRecord
  2
AI9-BLK1
340
0
102
{BLKREFS
331
75
102
}
 70
     0
280
     1
281
     0
  0
BLOCK_RECORD
  5
77
330
1
100
AcDbSymbolTableRecord
100
AcDbBlockTableRecord
  2
AI9-BLK2
340
0
102
{BLKREFS
331
78
102
}
 70
     0
280
     1
281
     0
  0
BLOCK_RECORD
  5
7A
330
1
100
AcDbSymbolTableRecord
100
AcDbBlockTableRecord
  2
AI9-BLK3
340
0
102
{BLKREFS
331
7B
102
}
 70
     0
280
     1
281
     0
  0
BLOCK_RECORD
  5
7D
330
1
100
AcDbSymbolTableRecord
100
AcDbBlockTableRecord
  2
AI9-BLK4
340
0
102
{BLKREFS
331
7E
102
}
 70
     0
280
     1
281
     0
  0
BLOCK_RECORD
  5
80
330
1
100
AcDbSymbolTableRecord
100
AcDbBlockTableRecord
  2
AI9-BLK5
340
0
102
{BLKREFS
331
81
102
}
 70
     0
280
     1
281
     0
  0
BLOCK_RECORD
  5
8B
330
1
100
AcDbSymbolTableRecord
100
AcDbBlockTableRecord
  2
AI9-BLK6
340
0
102
{BLKREFS
331
8C
102
}
 70
     0
280
     1
281
     0
  0
BLOCK_RECORD
  5
8E
330
1
100
AcDbSymbolTableRecord
100
AcDbBlockTableRecord
  2
AI9-BLK7
340
0
102
{BLKREFS
331
8F
102
}
 70
     0
280
     1
281
     0
  0
BLOCK_RECORD
  5
91
330
1
100
AcDbSymbolTableRecord
100
AcDbBlockTableRecord
  2
AI9-BLK8
340
0
102
{BLKREFS
331
92
102
}
 70
     0
280
     1
281
     0
  0
BLOCK_RECORD
  5
94
330
1
100
AcDbSymbolTableRecord
100
AcDbBlockTableRecord
  2
AI9-BLK9
340
0
102
{BLKREFS
331
95
102
}
 70
     0
280
     1
281
     0
  0
BLOCK_RECORD
  5
97
330
1
100
AcDbSymbolTableRecord
100
AcDbBlockTableRecord
  2
AI9-BLK10
340
0
102
{BLKREFS
331
98
102
}
 70
     0
280
     1
281
     0
  0
ENDTAB
  0
ENDSEC
  0
SECTION
  2
BLOCKS
  0
BLOCK
  5
D
330
A
100
AcDbEntity
  8
0
100
AcDbBlockBegin
  2
*MODEL_SPACE
 70
     0
 10
0.0
 20
0.0
 30
0.0
  3
*MODEL_SPACE
  1

  0
ENDBLK
  5
E
330
A
100
AcDbEntity
  8
0
100
AcDbBlockEnd
  0
BLOCK
  5
F
330
B
100
AcDbEntity
 67
     1
  8
0
100
AcDbBlockBegin
  2
*PAPER_SPACE
 70
     0
 10
0.0
 20
0.0
 30
0.0
  3
*PAPER_SPACE
  1

  0
ENDBLK
  5
10
330
B
100
AcDbEntity
 67
     1
  8
0
100
AcDbBlockEnd
  0
BLOCK
  5
76
330
74
100
AcDbEntity
  8
LAYER_1
 62
     7
100
AcDbBlockBegin
  2
AI9-BLK1
 70
     0
 10
0.0
 20
0.0
 30
0.0
  3
AI9-BLK1
  1

  0
INSERT
  5
78
330
74
100
AcDbEntity
  8
LAYER_1
 62
     7
100
AcDbBlockReference
  2
AI9-BLK2
 10
0.0
 20
0.0
 30
0.0
  0
ENDBLK
  5
8A
330
74
100
AcDbEntity
  8
LAYER_1
100
AcDbBlockEnd
  0
BLOCK
  5
79
330
77
100
AcDbEntity
  8
LAYER_1
 62
     7
100
AcDbBlockBegin
  2
AI9-BLK2
 70
     0
 10
0.0
 20
0.0
 30
0.0
  3
AI9-BLK2
  1

  0
INSERT
  5
7B
330
77
100
AcDbEntity
  8
LAYER_1
 62
     7
100
AcDbBlockReference
  2
AI9-BLK3
 10
0.0
 20
0.0
 30
0.0
  0
ENDBLK
  5
89
330
77
100
AcDbEntity
  8
LAYER_1
100
AcDbBlockEnd
  0
BLOCK
  5
7C
330
7A
100
AcDbEntity
  8
LAYER_1
 62
     7
100
AcDbBlockBegin
  2
AI9-BLK3
 70
     0
 10
0.0
 20
0.0
 30
0.0
  3
AI9-BLK3
  1

  0
INSERT
  5
7E
330
7A
100
AcDbEntity
  8
LAYER_1
 62
     7
100
AcDbBlockReference
  2
AI9-BLK4
 10
0.0
 20
0.0
 30
0.0
  0
ENDBLK
  5
88
330
7A
100
AcDbEntity
  8
LAYER_1
100
AcDbBlockEnd
  0
BLOCK
  5
7F
330
7D
100
AcDbEntity
  8
LAYER_1
 62
     7
100
AcDbBlockBegin
  2
AI9-BLK4
 70
     0
 10
0.0
 20
0.0
 30
0.0
  3
AI9-BLK4
  1

  0
INSERT
  5
81
330
7D
100
AcDbEntity
  8
LAYER_1
 62
     7
100
AcDbBlockReference
  2
AI9-BLK5
 10
0.0
 20
0.0
 30
0.0
  0
ENDBLK
  5
87
330
7D
100
AcDbEntity
  8
LAYER_1
100
AcDbBlockEnd
  0
BLOCK
  5
82
330
80
100
AcDbEntity
  8
LAYER_1
 62
     7
100
AcDbBlockBegin
  2
AI9-BLK5
 70
     0
 10
0.0
 20
0.0
 30
0.0
  3
AI9-BLK5
  1

  0
CIRCLE
  5
85
330
80
100
AcDbEntity
  8
LAYER_1
 62
     7
100
AcDbCircle
 10
0.000172
 20
-0.000345
 30
0.0
 40
1.000111
  0
LINE
  5
84
330
80
100
AcDbEntity
  8
LAYER_1
 62
     7
100
AcDbLine
 10
-0.000172
 20
1.999878
 30
0.0
 11
-0.000172
 21
-1.999878
 31
0.0
  0
LINE
  5
83
330
80
100
AcDbEntity
  8
LAYER_1
 62
     7
100
AcDbLine
 10
-2.00005
 20
-0.000345
 30
0.0
 11
2.00005
 21
-0.000345
 31
0.0
  0
ENDBLK
  5
86
330
80
100
AcDbEntity
  8
LAYER_1
100
AcDbBlockEnd
  0
BLOCK
  5
8D
330
8B
100
AcDbEntity
  8
LAYER_1
 62
     7
100
AcDbBlockBegin
  2
AI9-BLK6
 70
     0
 10
0.0
 20
0.0
 30
0.0
  3
AI9-BLK6
  1

  0
INSERT
  5
8F
330
8B
100
AcDbEntity
  8
LAYER_1
 62
     7
100
AcDbBlockReference
  2
AI9-BLK7
 10
0.0
 20
0.0
 30
0.0
  0
ENDBLK
  5
A1
330
8B
100
AcDbEntity
  8
LAYER_1
100
AcDbBlockEnd
  0
BLOCK
  5
90
330
8E
100
AcDbEntity
  8
LAYER_1
 62
     7
100
AcDbBlockBegin
  2
AI9-BLK7
 70
     0
 10
0.0
 20
0.0
 30
0.0
  3
AI9-BLK7
  1

  0
INSERT
  5
92
330
8E
100
AcDbEntity
  8
LAYER_1
 62
     7
100
AcDbBlockReference
  2
AI9-BLK8
 10
0.0
 20
0.0
 30
0.0
  0
ENDBLK
  5
A0
330
8E
100
AcDbEntity
  8
LAYER_1
100
AcDbBlockEnd
  0
BLOCK
  5
93
330
91
100
AcDbEntity
  8
LAYER_1
 62
     7
100
AcDbBlockBegin
  2
AI9-BLK8
 70
     0
 10
0.0
 20
0.0
 30
0.0
  3
AI9-BLK8
  1

  0
INSERT
  5
95
330
91
100
AcDbEntity
  8
LAYER_1
 62
     7
100
AcDbBlockReference
  2
AI9-BLK9
 10
0.0
 20
0.0
 30
0.0
  0
ENDBLK
  5
9F
330
91
100
AcDbEntity
  8
LAYER_1
100
AcDbBlockEnd
  0
BLOCK
  5
96
330
94
100
AcDbEntity
  8
LAYER_1
 62
     7
100
AcDbBlockBegin
  2
AI9-BLK9
 70
     0
 10
0.0
 20
0.0
 30
0.0
  3
AI9-BLK9
  1

  0
INSERT
  5
98
330
94
100
AcDbEntity
  8
LAYER_1
 62
     7
100
AcDbBlockReference
  2
AI9-BLK10
 10
0.0
 20
0.0
 30
0.0
  0
ENDBLK
  5
9E
330
94
100
AcDbEntity
  8
LAYER_1
100
AcDbBlockEnd
  0
BLOCK
  5
99
330
97
100
AcDbEntity
  8
LAYER_1
 62
     7
100
AcDbBlockBegin
  2
AI9-BLK10
 70
     0
 10
0.0
 20
0.0
 30
0.0
  3
AI9-BLK10
  1

  0
CIRCLE
  5
9C
330
97
100
AcDbEntity
  8
LAYER_1
 62
     7
100
AcDbCircle
 10
0.000172
 20
-0.000345
 30
0.0
 40
1.000111
  0
LINE
  5
9B
330
97
100
AcDbEntity
  8
LAYER_1
 62
     7
100
AcDbLine
 10
-0.000172
 20
1.999878
 30
0.0
 11
-0.000172
 21
-1.999878
 31
0.0
  0
LINE
  5
9A
330
97
100
AcDbEntity
  8
LAYER_1
 62
     7
100
AcDbLine
 10
-2.00005
 20
-0.000345
 30
0.0
 11
2.00005
 21
-0.000345
 31
0.0
  0
ENDBLK
  5
9D
330
97
100
AcDbEntity
  8
LAYER_1
100
AcDbBlockEnd
  0
ENDSEC
  0
SECTION
  2
ENTITIES
  0
LINE
  5
129
330
A
100
AcDbEntity
  8
LAYER_1
 62
   230
100
AcDbLine
 10
-548.856421
 20
1090.272125
 30
0.0
 11
-548.856421
 21
-832.796023
 31
0.0
  0
LINE
  5
128
330
A
100
AcDbEntity
  8
LAYER_1
 62
   230
100
AcDbLine
 10
-392.305425
 20
1090.272125
 30
0.0
 11
-392.305425
 21
-832.796023
 31
0.0
  0
LINE
  5
127
330
A
100
AcDbEntity
  8
LAYER_1
 62
   230
100
AcDbLine
 10
-235.75753
 20
1090.272125
 30
0.0
 11
-235.75753
 21
-832.796023
 31
0.0
  0
LINE
  5
126
330
A
100
AcDbEntity
  8
LAYER_1
 62
   230
100
AcDbLine
 10
-79.20619
 20
1090.272125
 30
0.0
 11
-79.20619
 21
-832.796023
 31
0.0
  0
LINE
  5
125
330
A
100
AcDbEntity
  8
LAYER_1
 62
   230
100
AcDbLine
 10
77.344805
 20
1090.272125
 30
0.0
 11
77.344805
 21
-832.796023
 31
0.0
  0
LINE
  5
124
330
A
100
AcDbEntity
  8
LAYER_1
 62
   230
100
AcDbLine
 10
233.899246
 20
1090.272125
 30
0.0
 11
233.899246
 21
-832.796023
 31
0.0
  0
LINE
  5
123
330
A
100
AcDbEntity
  8
LAYER_1
 62
   230
100
AcDbLine
 10
390.450241
 20
1090.272125
 30
0.0
 11
390.450241
 21
-832.796023
 31
0.0
  0
LINE
  5
122
330
A
100
AcDbEntity
  8
LAYER_1
 62
   230
100
AcDbLine
 10
547.001581
 20
1090.272125
 30
0.0
 11
547.001581
 21
-832.796023
 31
0.0
  0
LINE
  5
121
330
A
100
AcDbEntity
  8
LAYER_1
 62
   230
100
AcDbLine
 10
703.552577
 20
1090.272125
 30
0.0
 11
703.552577
 21
-832.796023
 31
0.0
  0
LINE
  5
120
330
A
100
AcDbEntity
  8
LAYER_1
 62
   230
100
AcDbLine
 10
860.103573
 20
1090.272125
 30
0.0
 11
860.103573
 21
-832.796023
 31
0.0
  0
LINE
  5
11F
330
A
100
AcDbEntity
  8
LAYER_1
 62
   230
100
AcDbLine
 10
-595.826164
 20
-833.05096
 30
0.0
 11
898.152585
 21
-833.057161
 31
0.0
  0
LINE
  5
11E
330
A
100
AcDbEntity
  8
LAYER_1
 62
   230
100
AcDbLine
 10
-595.826164
 20
-676.503065
 30
0.0
 11
898.152585
 21
-676.503065
 31
0.0
  0
LINE
  5
11D
330
A
100
AcDbEntity
  8
LAYER_1
 62
   230
100
AcDbLine
 10
-595.826164
 20
-519.948625
 30
0.0
 11
898.152585
 21
-519.948625
 31
0.0
  0
LINE
  5
11C
330
A
100
AcDbEntity
  8
LAYER_1
 62
   230
100
AcDbLine
 10
-595.826164
 20
-363.397285
 30
0.0
 11
898.152585
 21
-363.40073
 31
0.0
  0
LINE
  5
11B
330
A
100
AcDbEntity
  8
LAYER_1
 62
   230
100
AcDbLine
 10
-595.826164
 20
-206.846289
 30
0.0
 11
898.152585
 21
-206.84939
 31
0.0
  0
LINE
  5
11A
330
A
100
AcDbEntity
  8
LAYER_1
 62
   230
100
AcDbLine
 10
-595.826164
 20
-50.291848
 30
0.0
 11
898.152585
 21
-50.298394
 31
0.0
  0
LINE
  5
119
330
A
100
AcDbEntity
  8
LAYER_1
 62
   230
100
AcDbLine
 10
-595.826164
 20
106.256047
 30
0.0
 11
898.152585
 21
106.249501
 31
0.0
  0
LINE
  5
118
330
A
100
AcDbEntity
  8
LAYER_1
 62
   230
100
AcDbLine
 10
-595.826164
 20
262.810487
 30
0.0
 11
898.152585
 21
262.803942
 31
0.0
  0
LINE
  5
117
330
A
100
AcDbEntity
  8
LAYER_1
 62
   230
100
AcDbLine
 10
-595.826164
 20
419.358382
 30
0.0
 11
898.152585
 21
419.358382
 31
0.0
  0
LINE
  5
116
330
A
100
AcDbEntity
  8
LAYER_1
 62
   230
100
AcDbLine
 10
-595.826164
 20
575.912478
 30
0.0
 11
898.152585
 21
575.906277
 31
0.0
  0
LINE
  5
115
330
A
100
AcDbEntity
  8
LAYER_1
 62
   230
100
AcDbLine
 10
-595.826164
 20
732.463818
 30
0.0
 11
898.152585
 21
732.463818
 31
0.0
  0
LINE
  5
114
330
A
100
AcDbEntity
  8
LAYER_1
 62
   230
100
AcDbLine
 10
-595.826164
 20
889.018259
 30
0.0
 11
898.152585
 21
889.011713
 31
0.0
  0
LINE
  5
113
330
A
100
AcDbEntity
  8
LAYER_1
 62
   230
100
AcDbLine
 10
-595.826164
 20
1045.566154
 30
0.0
 11
898.152585
 21
1045.563053
 31
0.0
  0
MTEXT
  5
112
330
A
100
AcDbEntity
  8
LAYER_1
 62
     7
100
AcDbMText
 10
-677.162629
 20
-815.510105
 30
0.0
 40
30.816531
 41
0.0
 46
0.0
 71
     1
 72
     2
  1
\W1.00;\fMyriad Roman|b0|i0;200
  7
STD
 73
     1
 44
1.0
  0
MTEXT
  5
111
330
A
100
AcDbEntity
  8
LAYER_1
 62
     7
100
AcDbMText
 10
-677.162629
 20
-658.92397
 30
0.0
 40
30.816531
 41
0.0
 46
0.0
 71
     1
 72
     2
  1
\W1.00;\fMyriad Roman|b0|i0;210
  7
STD
 73
     1
 44
1.0
  0
MTEXT
  5
110
330
A
100
AcDbEntity
  8
LAYER_1
 62
     7
100
AcDbMText
 10
-677.162629
 20
-502.33749
 30
0.0
 40
30.816531
 41
0.0
 46
0.0
 71
     1
 72
     2
  1
\W1.00;\fMyriad Roman|b0|i0;220
  7
STD
 73
     1
 44
1.0
  0
MTEXT
  5
10F
330
A
100
AcDbEntity
  8
LAYER_1
 62
     7
100
AcDbMText
 10
-677.162629
 20
-345.748254
 30
0.0
 40
30.816531
 41
0.0
 46
0.0
 71
     1
 72
     2
  1
\W1.00;\fMyriad Roman|b0|i0;230
  7
STD
 73
     1
 44
1.0
  0
MTEXT
  5
10E
330
A
100
AcDbEntity
  8
LAYER_1
 62
     7
100
AcDbMText
 10
-677.162629
 20
-189.165219
 30
0.0
 40
30.816531
 41
0.0
 46
0.0
 71
     1
 72
     2
  1
\W1.00;\fMyriad Roman|b0|i0;240
  7
STD
 73
     1
 44
1.0
  0
MTEXT
  5
10D
330
A
100
AcDbEntity
  8
LAYER_1
 62
     7
100
AcDbMText
 10
-677.162629
 20
-32.575638
 30
0.0
 40
30.816531
 41
0.0
 46
0.0
 71
     1
 72
     2
  1
\W1.00;\fMyriad Roman|b0|i0;250
  7
STD
 73
     1
 44
1.0
  0
MTEXT
  5
10C
330
A
100
AcDbEntity
  8
LAYER_1
 62
     7
100
AcDbMText
 10
-677.162629
 20
124.010498
 30
0.0
 40
30.816531
 41
0.0
 46
0.0
 71
     1
 72
     2
  1
\W1.00;\fMyriad Roman|b0|i0;260
  7
STD
 73
     1
 44
1.0
  0
MTEXT
  5
10B
330
A
100
AcDbEntity
  8
LAYER_1
 62
     7
100
AcDbMText
 10
-677.162629
 20
280.599734
 30
0.0
 40
30.816531
 41
0.0
 46
0.0
 71
     1
 72
     2
  1
\W1.00;\fMyriad Roman|b0|i0;270
  7
STD
 73
     1
 44
1.0
  0
MTEXT
  5
10A
330
A
100
AcDbEntity
  8
LAYER_1
 62
     7
100
AcDbMText
 10
-677.162629
 20
437.186214
 30
0.0
 40
30.816531
 41
0.0
 46
0.0
 71
     1
 72
     2
  1
\W1.00;\fMyriad Roman|b0|i0;280
  7
STD
 73
     1
 44
1.0
  0
MTEXT
  5
109
330
A
100
AcDbEntity
  8
LAYER_1
 62
     7
100
AcDbMText
 10
-677.162629
 20
593.772349
 30
0.0
 40
30.816531
 41
0.0
 46
0.0
 71
     1
 72
     2
  1
\W1.00;\fMyriad Roman|b0|i0;290
  7
STD
 73
     1
 44
1.0
  0
MTEXT
  5
108
330
A
100
AcDbEntity
  8
LAYER_1
 62
     7
100
AcDbMText
 10
-677.162629
 20
750.352284
 30
0.0
 40
30.816531
 41
0.0
 46
0.0
 71
     1
 72
     2
  1
\W1.00;\fMyriad Roman|b0|i0;300
  7
STD
 73
     1
 44
1.0
  0
MTEXT
  5
107
330
A
100
AcDbEntity
  8
LAYER_1
 62
     7
100
AcDbMText
 10
-677.162629
 20
906.94152
 30
0.0
 40
30.816531
 41
0.0
 46
0.0
 71
     1
 72
     2
  1
\W1.00;\fMyriad Roman|b0|i0;310
  7
STD
 73
     1
 44
1.0
  0
MTEXT
  5
106
330
A
100
AcDbEntity
  8
LAYER_1
 62
     7
100
AcDbMText
 10
-677.162629
 20
1063.530756
 30
0.0
 40
30.816531
 41
0.0
 46
0.0
 71
     1
 72
     2
  1
\W1.00;\fMyriad Roman|b0|i0;320
  7
STD
 73
     1
 44
1.0
  0
MTEXT
  5
105
330
A
100
AcDbEntity
  8
LAYER_1
 62
     7
100
AcDbMText
 10
-581.331613
 20
1149.449715
 30
0.0
 40
30.816531
 41
0.0
 46
0.0
 71
     1
 72
     2
  1
\W1.00;\fMyriad Roman|b0|i0;730
  7
STD
 73
     1
 44
1.0
  0
MTEXT
  5
104
330
A
100
AcDbEntity
  8
LAYER_1
 62
     7
100
AcDbMText
 10
-425.078619
 20
1149.449715
 30
0.0
 40
30.816531
 41
0.0
 46
0.0
 71
     1
 72
     2
  1
\W1.00;\fMyriad Roman|b0|i0;740
  7
STD
 73
     1
 44
1.0
  0
MTEXT
  5
103
330
A
100
AcDbEntity
  8
LAYER_1
 62
     7
100
AcDbMText
 10
-268.828725
 20
1149.449715
 30
0.0
 40
30.816531
 41
0.0
 46
0.0
 71
     1
 72
     2
  1
\W1.00;\fMyriad Roman|b0|i0;750
  7
STD
 73
     1
 44
1.0
  0
MTEXT
  5
102
330
A
100
AcDbEntity
  8
LAYER_1
 62
     7
100
AcDbMText
 10
-112.575385
 20
1149.449715
 30
0.0
 40
30.816531
 41
0.0
 46
0.0
 71
     1
 72
     2
  1
\W1.00;\fMyriad Roman|b0|i0;760
  7
STD
 73
     1
 44
1.0
  0
MTEXT
  5
101
330
A
100
AcDbEntity
  8
LAYER_1
 62
     7
100
AcDbMText
 10
43.674509
 20
1149.446614
 30
0.0
 40
30.816531
 41
0.0
 46
0.0
 71
     1
 72
     2
  1
\W1.00;\fMyriad Roman|b0|i0;770
  7
STD
 73
     1
 44
1.0
  0
MTEXT
  5
100
330
A
100
AcDbEntity
  8
LAYER_1
 62
     7
100
AcDbMText
 10
199.929226
 20
1149.446614
 30
0.0
 40
30.816531
 41
0.0
 46
0.0
 71
     1
 72
     2
  1
\W1.00;\fMyriad Roman|b0|i0;780
  7
STD
 73
     1
 44
1.0
  0
MTEXT
  5
FF
330
A
100
AcDbEntity
  8
LAYER_1
 62
     7
100
AcDbMText
 10
356.180843
 20
1149.446614
 30
0.0
 40
30.816531
 41
0.0
 46
0.0
 71
     1
 72
     2
  1
\W1.00;\fMyriad Roman|b0|i0;790
  7
STD
 73
     1
 44
1.0
  0
MTEXT
  5
FE
330
A
100
AcDbEntity
  8
LAYER_1
 62
     7
100
AcDbMText
 10
512.43556
 20
1149.446614
 30
0.0
 40
30.816531
 41
0.0
 46
0.0
 71
     1
 72
     2
  1
\W1.00;\fMyriad Roman|b0|i0;800
  7
STD
 73
     1
 44
1.0
  0
MTEXT
  5
FD
330
A
100
AcDbEntity
  8
LAYER_1
 62
     7
100
AcDbMText
 10
668.687177
 20
1149.446614
 30
0.0
 40
30.816531
 41
0.0
 46
0.0
 71
     1
 72
     2
  1
\W1.00;\fMyriad Roman|b0|i0;810
  7
STD
 73
     1
 44
1.0
  0
MTEXT
  5
FC
330
A
100
AcDbEntity
  8
LAYER_1
 62
     7
100
AcDbMText
 10
824.942239
 20
1149.446614
 30
0.0
 40
30.816531
 41
0.0
 46
0.0
 71
     1
 72
     2
  1
\W1.00;\fMyriad Roman|b0|i0;820
  7
STD
 73
     1
 44
1.0
  0
SPLINE
  5
FB
330
A
100
AcDbEntity
  8
LAYER_1
 62
     7
100
AcDbSpline
210
0.0
220
0.0
230
1.0
 70
     8
 71
     3
 72
    29
 73
    25
 74
     0
 42
0.000000001
 43
0.00000001
 40
0.0
 40
0.0
 40
0.0
 40
0.0
 40
1.0
 40
1.0
 40
1.0
 40
2.0
 40
2.0
 40
2.0
 40
3.0
 40
3.0
 40
3.0
 40
4.0
 40
4.0
 40
4.0
 40
5.0
 40
5.0
 40
5.0
 40
6.0
 40
6.0
 40
6.0
 40
7.0
 40
7.0
 40
7.0
 40
8.0
 40
8.0
 40
8.0
 40
8.0
 10
43.70654839409722
 20
666.9236328124999
 30
0.0
 10
43.34963650173611
 20
667.4049126519096
 30
0.0
 10
43.42921820746528
 20
668.2334581163194
 30
0.0
 10
44.07620713975694
 20
668.357826063368
 30
0.0
 10
44.89200575086805
 20
668.5076877170138
 30
0.0
 10
46.07401801215277
 20
668.3323323567707
 30
0.0
 10
46.42782931857639
 20
667.5547743055555
 30
0.0
 10
46.41198187934027
 20
667.7714708116318
 30
0.0
 10
46.29415961371527
 20
668.192116970486
 30
0.0
 10
46.63487955729166
 20
668.1538764105902
 30
0.0
 10
46.9025634765625
 20
668.1218370225694
 30
0.0
 10
46.95355088975694
 20
667.8255588107638
 30
0.0
 10
47.32010904947916
 20
667.8861924913194
 30
0.0
 10
47.64842664930555
 20
667.9468261718749
 30
0.0
 10
47.61018608940972
 20
668.198318142361
 30
0.0
 10
47.90336371527777
 20
668.1028889973958
 30
0.0
 10
48.19309624565972
 20
668.0074598524305
 30
0.0
 10
48.12006022135417
 20
667.7714708116318
 30
0.0
 10
48.21858995225694
 20
667.5230794270833
 30
0.0
 10
48.36535101996527
 20
667.6185085720485
 30
0.0
 10
48.48317328559028
 20
668.246204969618
 30
0.0
 10
48.68712293836805
 20
667.8255588107638
 30
0.0
 10
48.75740288628472
 20
667.6822428385416
 30
0.0
 10
48.69056803385416
 20
667.044900173611
 30
0.0
 10
48.65542805989583
 20
667.0066596137152
 30
0.0
  0
SPLINE
  5
FA
330
A
100
AcDbEntity
  8
LAYER_1
 62
     7
100
AcDbSpline
210
0.0
220
0.0
230
1.0
 70
     8
 71
     3
 72
   107
 73
   103
 74
     0
 42
0.000000001
 43
0.00000001
 40
0.0
 40
0.0
 40
0.0
 40
0.0
 40
1.0
 40
1.0
 40
1.0
 40
2.0
 40
2.0
 40
2.0
 40
3.0
 40
3.0
 40
3.0
 40
4.0
 40
4.0
 40
4.0
 40
5.0
 40
5.0
 40
5.0
 40
6.0
 40
6.0
 40
6.0
 40
7.0
 40
7.0
 40
7.0
 40
8.0
 40
8.0
 40
8.0
 40
9.0
 40
9.0
 40
9.0
 40
10.0
 40
10.0
 40
10.0
 40
11.0
 40
11.0
 40
11.0
 40
12.0
 40
12.0
 40
12.0
 40
13.0
 40
13.0
 40
13.0
 40
14.0
 40
14.0
 40
14.0
 40
15.0
 40
15.0
 40
15.0
 40
16.0
 40
16.0
 40
16.0
 40
17.0
 40
17.0
 40
17.0
 40
18.0
 40
18.0
 40
18.0
 40
19.0
 40
19.0
 40
19.0
 40
20.0
 40
20.0
 40
20.0
 40
21.0
 40
21.0
 40
21.0
 40
22.0
 40
22.0
 40
22.0
 40
23.0
 40
23.0
 40
23.0
 40
24.0
 40
24.0
 40
24.0
 40
25.0
 40
25.0
 40
25.0
 40
26.0
 40
26.0
 40
26.0
 40
27.0
 40
27.0
 40
27.0
 40
28.0
 40
28.0
 40
28.0
 40
29.0
 40
29.0
 40
29.0
 40
30.0
 40
30.0
 40
30.0
 40
31.0
 40
31.0
 40
31.0
 40
32.0
 40
32.0
 40
32.0
 40
33.0
 40
33.0
 40
33.0
 40
34.0
 40
34.0
 40
34.0
 40
34.0
 10
49.84708658854166
 20
666.8027099609375
 30
0.0
 10
49.46468098958333
 20
667.0576470269096
 30
0.0
 10
49.33101128472222
 20
668.0453559027777
 30
0.0
 10
49.88222656249999
 20
668.1728244357638
 30
0.0
 10
50.14991048177083
 20
668.2334581163194
 30
0.0
 10
50.49717610677083
 20
668.0009141710069
 30
0.0
 10
50.73316514756944
 20
667.8923936631944
 30
0.0
 10
51.01979709201388
 20
667.7649251302083
 30
0.0
 10
51.20135362413194
 20
667.4782931857638
 30
0.0
 10
51.45319010416666
 20
667.3635715060764
 30
0.0
 10
51.75291341145833
 20
667.2233561197916
 30
0.0
 10
52.15116644965277
 20
667.4238606770833
 30
0.0
 10
52.47603895399305
 20
667.268142361111
 30
0.0
 10
52.78196343315972
 20
667.1179361979166
 30
0.0
 10
53.04344618055555
 20
666.8602430555555
 30
0.0
 10
53.35867241753472
 20
666.7072808159721
 30
0.0
 10
53.74452311197916
 20
666.522279188368
 30
0.0
 10
53.83375108506944
 20
666.6817871093749
 30
0.0
 10
54.22890353732638
 20
666.7196831597222
 30
0.0
 10
54.6016628689236
 20
666.751722547743
 30
0.0
 10
55.21971299913194
 20
666.710036892361
 30
0.0
 10
55.08604329427083
 20
666.2098090277777
 30
0.0
 10
55.047802734375
 20
666.0888861762152
 30
0.0
 10
54.96822102864583
 20
665.9900119357638
 30
0.0
 10
54.86624620225694
 20
665.9169759114583
 30
0.0
 10
55.047802734375
 20
666.111279296875
 30
0.0
 10
55.1752712673611
 20
666.2229003906249
 30
0.0
 10
55.45260145399305
 20
666.2098090277777
 30
0.0
 10
55.61486545138889
 20
666.2036078559028
 30
0.0
 10
55.74577907986111
 20
666.1143798828124
 30
0.0
 10
55.90184190538194
 20
666.0699381510416
 30
0.0
 10
56.21086697048611
 20
665.9838107638889
 30
0.0
 10
56.52953830295139
 20
666.0251519097221
 30
0.0
 10
56.84820963541666
 20
665.9776095920138
 30
0.0
 10
57.46315917968749
 20
665.8849365234374
 30
0.0
 10
57.76288248697916
 20
665.5025309244791
 30
0.0
 10
57.30399576822916
 20
665.0343424479166
 30
0.0
 10
57.45385742187499
 20
665.2541395399305
 30
0.0
 10
57.60337456597222
 20
665.5407714843749
 30
0.0
 10
57.8169704861111
 20
665.662038845486
 30
0.0
 10
58.20247667100694
 20
665.8783908420138
 30
0.0
 10
58.49255371093749
 20
665.6744411892361
 30
0.0
 10
58.83981933593749
 20
665.5790120442708
 30
0.0
 10
59.15849066840277
 20
665.4959852430555
 30
0.0
 10
59.51230197482639
 20
665.5917588975694
 30
0.0
 10
59.83097330729166
 20
665.5214789496528
 30
0.0
 10
60.03182237413194
 20
665.4704915364583
 30
0.0
 10
60.22612575954861
 20
665.3685167100693
 30
0.0
 10
60.43317599826388
 20
665.3113281249999
 30
0.0
 10
60.57993706597222
 20
665.2730875651041
 30
0.0
 10
60.81248101128472
 20
665.2541395399305
 30
0.0
 10
60.92410210503472
 20
665.1742133246527
 30
0.0
 10
61.07051866319444
 20
665.0625922309027
 30
0.0
 10
61.09601236979166
 20
664.8620876736111
 30
0.0
 10
61.2586208767361
 20
664.7759602864583
 30
0.0
 10
61.25207519531249
 20
664.7821614583332
 30
0.0
 10
61.43707682291666
 20
665.1552652994791
 30
0.0
 10
61.46877170138888
 20
665.1873046874999
 30
0.0
 10
61.65687391493055
 20
665.3430230034721
 30
0.0
 10
61.69821506076389
 20
665.2665418836805
 30
0.0
 10
61.91181098090277
 20
665.2410481770833
 30
0.0
 10
62.43133138020833
 20
665.1873046874999
 30
0.0
 10
62.92845865885416
 20
665.0054036458333
 30
0.0
 10
63.44143337673611
 20
664.9068739149305
 30
0.0
 10
63.62953559027777
 20
664.8717339409721
 30
0.0
 10
63.7855984157986
 20
664.8493408203125
 30
0.0
 10
63.95130750868055
 20
664.7759602864583
 30
0.0
 10
64.17420518663194
 20
664.6739854600694
 30
0.0
 10
64.21899142795138
 20
664.4827826605903
 30
0.0
 10
64.42604166666666
 20
664.3680609809027
 30
0.0
 10
64.77020670572917
 20
664.8779351128471
 30
0.0
 10
65.51296929253472
 20
664.6357449001736
 30
0.0
 10
66.04489203559027
 20
664.5754557291666
 30
0.0
 10
66.35081651475694
 20
664.5403157552083
 30
0.0
 10
66.79695638020833
 20
664.5944037543402
 30
0.0
 10
67.06153971354166
 20
664.4063015407985
 30
0.0
 10
67.26548936631944
 20
664.2598849826388
 30
0.0
 10
67.33542480468749
 20
663.9219211154514
 30
0.0
 10
67.50767957899305
 20
663.7403645833333
 30
0.0
 10
67.89628634982638
 20
664.3553141276041
 30
0.0
 10
68.15776909722221
 20
664.1003770616319
 30
0.0
 10
68.73137749565971
 20
664.0145941840277
 30
0.0
 10
69.2825927734375
 20
663.9284667968749
 30
0.0
 10
70.13973253038193
 20
664.1641113281249
 30
0.0
 10
69.93922797309027
 20
663.3324652777777
 30
0.0
 10
70.2065673828125
 20
663.2911241319443
 30
0.0
 10
70.50939127604165
 20
663.609450954861
 30
0.0
 10
70.72298719618055
 20
663.7369194878472
 30
0.0
 10
70.99687228732638
 20
663.8964274088542
 30
0.0
 10
71.30934244791666
 20
664.0428439670138
 30
0.0
 10
71.56738009982638
 20
664.2212999131943
 30
0.0
 10
71.97527940538194
 20
664.5017306857638
 30
0.0
 10
72.52649468315971
 20
665.2286458333333
 30
0.0
 10
73.13524305555555
 20
665.1135796440972
 30
0.0
 10
73.9954833984375
 20
664.9544162326388
 30
0.0
 10
73.36468641493055
 20
663.8388943142361
 30
0.0
 10
73.21172417534721
 20
663.4055013020833
 30
0.0
 10
73.03981391059027
 20
662.9307671440972
 30
0.0
 10
73.44771321614583
 20
661.8379828559027
 30
0.0
 10
72.97607964409721
 20
661.6719292534722
 30
0.0
 10
72.81657172309028
 20
661.6147406684028
 30
0.0
 10
72.50444607204861
 20
661.6436794704861
 30
0.0
 10
72.39592556423611
 20
661.7646023220485
 30
0.0
  0
SPLINE
  5
F9
330
A
100
AcDbEntity
  8
LAYER_1
 62
     7
100
AcDbSpline
210
0.0
220
0.0
230
1.0
 70
     8
 71
     3
 72
    17
 73
    13
 74
     0
 42
0.000000001
 43
0.00000001
 40
0.0
 40
0.0
 40
0.0
 40
0.0
 40
1.0
 40
1.0
 40
1.0
 40
2.0
 40
2.0
 40
2.0
 40
3.0
 40
3.0
 40
3.0
 40
4.0
 40
4.0
 40
4.0
 40
4.0
 10
73.79807942708332
 20
661.4300835503471
 30
0.0
 10
74.51190321180555
 20
661.4617784288193
 30
0.0
 10
74.89740939670138
 20
661.3790961371527
 30
0.0
 10
74.95804307725693
 20
660.6397786458333
 30
0.0
 10
75.02177734374999
 20
659.9066623263889
 30
0.0
 10
75.0345241970486
 20
659.173890516493
 30
0.0
 10
75.0376247829861
 20
658.431472439236
 30
0.0
 10
75.0376247829861
 20
658.026673719618
 30
0.0
 10
75.05381673177082
 20
657.2939019097222
 30
0.0
 10
74.66486545138888
 20
657.1629882812499
 30
0.0
 10
74.46091579861111
 20
657.0961534288194
 30
0.0
 10
73.39328070746527
 20
657.0579128689235
 30
0.0
 10
73.36778700086805
 20
657.0899522569443
 30
0.0
  0
SPLINE
  5
F8
330
A
100
AcDbEntity
  8
LAYER_1
 62
     7
100
AcDbSpline
210
0.0
220
0.0
230
1.0
 70
     8
 71
     3
 72
    17
 73
    13
 74
     0
 42
0.000000001
 43
0.00000001
 40
0.0
 40
0.0
 40
0.0
 40
0.0
 40
1.0
 40
1.0
 40
1.0
 40
2.0
 40
2.0
 40
2.0
 40
3.0
 40
3.0
 40
3.0
 40
4.0
 40
4.0
 40
4.0
 40
4.0
 10
71.76822916666666
 20
655.789773220486
 30
0.0
 10
72.0455593532986
 20
655.6526584201388
 30
0.0
 10
72.26845703125
 20
655.802175564236
 30
0.0
 10
72.48825412326389
 20
655.5348361545139
 30
0.0
 10
72.7431911892361
 20
655.2223659939235
 30
0.0
 10
72.48825412326389
 20
654.8940483940971
 30
0.0
 10
72.52339409722221
 20
654.524734157986
 30
0.0
 10
72.54578721788194
 20
654.3045925564236
 30
0.0
 10
72.81657172309028
 20
653.896693250868
 30
0.0
 10
72.70185004340277
 20
653.6768961588541
 30
0.0
 10
72.57438151041666
 20
653.437806532118
 30
0.0
 10
72.12204047309027
 20
653.5366807725694
 30
0.0
 10
71.87985026041666
 20
653.5332356770833
 30
0.0
  0
SPLINE
  5
F7
330
A
100
AcDbEntity
  8
LAYER_1
 62
     7
100
AcDbSpline
210
0.0
220
0.0
230
1.0
 70
     8
 71
     3
 72
    20
 73
    16
 74
     0
 42
0.000000001
 43
0.00000001
 40
0.0
 40
0.0
 40
0.0
 40
0.0
 40
1.0
 40
1.0
 40
1.0
 40
2.0
 40
2.0
 40
2.0
 40
3.0
 40
3.0
 40
3.0
 40
4.0
 40
4.0
 40
4.0
 40
5.0
 40
5.0
 40
5.0
 40
5.0
 10
70.85700141059027
 20
653.1894151475694
 30
0.0
 10
71.37307671440972
 20
653.1894151475694
 30
0.0
 10
71.94668511284722
 20
653.383718532986
 30
0.0
 10
71.94978569878471
 20
652.6919433593749
 30
0.0
 10
71.95633138020833
 20
652.0546006944444
 30
0.0
 10
71.37927788628471
 20
651.8251573350694
 30
0.0
 10
71.37617730034721
 20
651.2133083767361
 30
0.0
 10
71.37307671440972
 20
650.7609673394097
 30
0.0
 10
71.7044949001736
 20
650.2607394748263
 30
0.0
 10
71.58322753906249
 20
649.8114990234375
 30
0.0
 10
71.45265842013889
 20
649.3271185980902
 30
0.0
 10
70.90798882378472
 20
649.6774848090278
 30
0.0
 10
70.60826551649305
 20
649.9134738498263
 30
0.0
 10
70.662353515625
 20
649.9644612630208
 30
0.0
 10
70.60206434461804
 20
649.9579155815971
 30
0.0
 10
70.59551866319444
 20
649.9803087022569
 30
0.0
  0
SPLINE
  5
F6
330
A
100
AcDbEntity
  8
LAYER_1
 62
     7
100
AcDbSpline
210
0.0
220
0.0
230
1.0
 70
     8
 71
     3
 72
    20
 73
    16
 74
     0
 42
0.000000001
 43
0.00000001
 40
0.0
 40
0.0
 40
0.0
 40
0.0
 40
1.0
 40
1.0
 40
1.0
 40
2.0
 40
2.0
 40
2.0
 40
3.0
 40
3.0
 40
3.0
 40
4.0
 40
4.0
 40
4.0
 40
5.0
 40
5.0
 40
5.0
 40
5.0
 10
63.81109212239583
 20
647.4278374565972
 30
0.0
 10
63.86207953559027
 20
647.8674316406249
 30
0.0
 10
63.4383327907986
 20
648.4220920138888
 30
0.0
 10
64.113916015625
 20
648.4220920138888
 30
0.0
 10
64.7033718532986
 20
648.4220920138888
 30
0.0
 10
65.31212022569444
 20
648.3583577473958
 30
0.0
 10
65.91742350260417
 20
648.3649034288194
 30
0.0
 10
66.18510742187499
 20
648.3649034288194
 30
0.0
 10
66.4114501953125
 20
648.3328640407985
 30
0.0
 10
66.66638726128471
 20
648.2946234809027
 30
0.0
 10
66.83209635416667
 20
648.2691297743055
 30
0.0
 10
67.14422200520833
 20
648.3232177734375
 30
0.0
 10
67.29098307291666
 20
648.2374348958333
 30
0.0
 10
67.57761501736111
 20
648.0682807074652
 30
0.0
 10
67.51732584635415
 20
647.3320638020833
 30
0.0
 10
67.53317328559027
 20
647.0392306857639
 30
0.0
  0
SPLINE
  5
F5
330
A
100
AcDbEntity
  8
LAYER_1
 62
     7
100
AcDbSpline
210
0.0
220
0.0
230
1.0
 70
     8
 71
     3
 72
    38
 73
    34
 74
     0
 42
0.000000001
 43
0.00000001
 40
0.0
 40
0.0
 40
0.0
 40
0.0
 40
1.0
 40
1.0
 40
1.0
 40
2.0
 40
2.0
 40
2.0
 40
3.0
 40
3.0
 40
3.0
 40
4.0
 40
4.0
 40
4.0
 40
5.0
 40
5.0
 40
5.0
 40
6.0
 40
6.0
 40
6.0
 40
7.0
 40
7.0
 40
7.0
 40
8.0
 40
8.0
 40
8.0
 40
9.0
 40
9.0
 40
9.0
 40
10.0
 40
10.0
 40
10.0
 40
11.0
 40
11.0
 40
11.0
 40
11.0
 10
67.94417317708333
 20
645.9430013020833
 30
0.0
 10
68.0334011501736
 20
646.5737982855902
 30
0.0
 10
68.9480740017361
 20
646.4590766059027
 30
0.0
 10
69.26984592013888
 20
646.0863172743055
 30
0.0
 10
69.29533962673611
 20
646.5737982855902
 30
0.0
 10
69.00836317274305
 20
647.3734049479166
 30
0.0
 10
69.4100613064236
 20
647.695521375868
 30
0.0
 10
69.67119954427082
 20
647.9087727864583
 30
0.0
 10
70.07599826388888
 20
647.8357367621527
 30
0.0
 10
70.36917588975693
 20
647.755810546875
 30
0.0
 10
70.86320258246528
 20
647.6190402560763
 30
0.0
 10
71.06715223524304
 20
647.5870008680555
 30
0.0
 10
71.55153266059027
 20
647.7751030815972
 30
0.0
 10
71.87330457899304
 20
647.8994710286457
 30
0.0
 10
72.17302788628471
 20
648.0493326822916
 30
0.0
 10
72.48205295138888
 20
647.8040418836805
 30
0.0
 10
72.78143174913194
 20
647.5615071614583
 30
0.0
 10
72.68910319010416
 20
647.2810763888888
 30
0.0
 10
72.721142578125
 20
646.94345703125
 30
0.0
 10
72.74973687065972
 20
646.6692274305555
 30
0.0
 10
72.91234537760415
 20
646.0063910590277
 30
0.0
 10
73.27855902777777
 20
646.3729492187499
 30
0.0
 10
73.5303955078125
 20
646.6247856987846
 30
0.0
 10
73.32954644097221
 20
646.8986707899305
 30
0.0
 10
73.83942057291667
 20
646.8159884982638
 30
0.0
 10
74.60733235677083
 20
646.7012668185763
 30
0.0
 10
75.32770182291667
 20
646.3378092447916
 30
0.0
 10
76.09251302083332
 20
646.2103407118055
 30
0.0
 10
76.39189181857638
 20
646.1658989800346
 30
0.0
 10
76.71400824652777
 20
645.9808973524305
 30
0.0
 10
76.54175347222221
 20
645.5984917534722
 30
0.0
 10
76.40153808593749
 20
645.2801649305555
 30
0.0
 10
75.8344753689236
 20
645.1971381293403
 30
0.0
 10
75.79933539496527
 20
644.8116319444443
 30
0.0
  0
SPLINE
  5
F4
330
A
100
AcDbEntity
  8
LAYER_1
 62
     7
100
AcDbSpline
210
0.0
220
0.0
230
1.0
 70
     8
 71
     3
 72
    59
 73
    55
 74
     0
 42
0.000000001
 43
0.00000001
 40
0.0
 40
0.0
 40
0.0
 40
0.0
 40
1.0
 40
1.0
 40
1.0
 40
2.0
 40
2.0
 40
2.0
 40
3.0
 40
3.0
 40
3.0
 40
4.0
 40
4.0
 40
4.0
 40
5.0
 40
5.0
 40
5.0
 40
6.0
 40
6.0
 40
6.0
 40
7.0
 40
7.0
 40
7.0
 40
8.0
 40
8.0
 40
8.0
 40
9.0
 40
9.0
 40
9.0
 40
10.0
 40
10.0
 40
10.0
 40
11.0
 40
11.0
 40
11.0
 40
12.0
 40
12.0
 40
12.0
 40
13.0
 40
13.0
 40
13.0
 40
14.0
 40
14.0
 40
14.0
 40
15.0
 40
15.0
 40
15.0
 40
16.0
 40
16.0
 40
16.0
 40
17.0
 40
17.0
 40
17.0
 40
18.0
 40
18.0
 40
18.0
 40
18.0
 10
77.02613389756944
 20
645.5984917534722
 30
0.0
 10
77.42783203124999
 20
646.0542778862847
 30
0.0
 10
77.69861653645833
 20
646.1214572482638
 30
0.0
 10
78.2529324001736
 20
645.8472276475694
 30
0.0
 10
78.71836480034722
 20
645.6115831163194
 30
0.0
 10
79.23754069010415
 20
645.4103895399305
 30
0.0
 10
79.728466796875
 20
645.2291775173611
 30
0.0
 10
80.21284722222221
 20
645.0507215711805
 30
0.0
 10
80.66863335503471
 20
644.9835422092013
 30
0.0
 10
81.06068522135416
 20
644.6297309027777
 30
0.0
 10
81.49717881944444
 20
644.2411241319444
 30
0.0
 10
81.60535481770833
 20
644.1040093315971
 30
0.0
 10
81.50337999131943
 20
643.501806640625
 30
0.0
 10
81.52577311197916
 20
643.8683648003472
 30
0.0
 10
81.64359537760416
 20
643.9224527994791
 30
0.0
 10
81.9209255642361
 20
644.0116807725694
 30
0.0
 10
82.05459526909722
 20
644.0626681857639
 30
0.0
 10
82.06734212239583
 20
643.9351996527777
 30
0.0
 10
82.19825575086804
 20
644.0499213324653
 30
0.0
 10
82.2554443359375
 20
644.0978081597221
 30
0.0
 10
82.21410319010415
 20
644.2349229600694
 30
0.0
 10
82.2619900173611
 20
644.2859103732638
 30
0.0
 10
82.47524142795137
 20
644.5374023437499
 30
0.0
 10
82.593408203125
 20
644.4512749565972
 30
0.0
 10
82.90243326822916
 20
644.3493001302082
 30
0.0
 10
83.38991427951387
 20
644.1963378906249
 30
0.0
 10
83.89014214409721
 20
644.1584418402778
 30
0.0
 10
84.38416883680554
 20
644.0116807725694
 30
0.0
 10
84.72523328993054
 20
643.9159071180555
 30
0.0
 10
85.05355088975693
 20
643.7629448784721
 30
0.0
 10
85.39427083333332
 20
643.6420220269097
 30
0.0
 10
85.76737467447916
 20
643.5080078125
 30
0.0
 10
86.19732259114582
 20
643.4701117621527
 30
0.0
 10
86.56078016493055
 20
643.3233506944443
 30
0.0
 10
87.10889485677083
 20
643.106654188368
 30
0.0
 10
87.13438856336805
 20
642.695654296875
 30
0.0
 10
87.07685546875
 20
642.1633870442707
 30
0.0
 10
87.0896023220486
 20
642.35458984375
 30
0.0
 10
87.14058973524305
 20
642.5137532552083
 30
0.0
 10
87.28390570746527
 20
642.6412217881943
 30
0.0
 10
87.34763997395832
 20
642.6987548828124
 30
0.0
 10
87.50714789496527
 20
642.6667154947916
 30
0.0
 10
87.5453884548611
 20
642.7084011501736
 30
0.0
 10
87.60257703993055
 20
642.7752360026041
 30
0.0
 10
87.5453884548611
 20
642.8961588541666
 30
0.0
 10
87.58052842881943
 20
642.9409450954861
 30
0.0
 10
87.94054090711805
 20
643.336097547743
 30
0.0
 10
88.17618543836805
 20
642.9409450954861
 30
0.0
 10
88.60957845052083
 20
642.8072753906249
 30
0.0
 10
88.99198404947916
 20
642.6894531249999
 30
0.0
 10
89.43812391493054
 20
642.70185546875
 30
0.0
 10
89.80158148871527
 20
642.5392469618055
 30
0.0
 10
90.18054199218749
 20
642.3673366970486
 30
0.0
 10
90.18054199218749
 20
642.1409939236111
 30
0.0
 10
90.1839870876736
 20
641.7554877387153
 30
0.0
  0
SPLINE
  5
F3
330
A
100
AcDbEntity
  8
LAYER_1
 62
     7
100
AcDbSpline
210
0.0
220
0.0
230
1.0
 70
     8
 71
     3
 72
    17
 73
    13
 74
     0
 42
0.000000001
 43
0.00000001
 40
0.0
 40
0.0
 40
0.0
 40
0.0
 40
1.0
 40
1.0
 40
1.0
 40
2.0
 40
2.0
 40
2.0
 40
3.0
 40
3.0
 40
3.0
 40
4.0
 40
4.0
 40
4.0
 40
4.0
 10
90.65562065972222
 20
642.3352973090277
 30
0.0
 10
91.61473524305555
 20
643.1831353081596
 30
0.0
 10
92.812939453125
 20
642.5330457899305
 30
0.0
 10
93.38964843749999
 20
641.5994249131944
 30
0.0
 10
93.76585286458332
 20
641.729994032118
 30
0.0
 10
93.4054958767361
 20
642.1730333116319
 30
0.0
 10
93.52676323784722
 20
642.4214246961805
 30
0.0
 10
93.67317979600693
 20
642.7211480034722
 30
0.0
 10
94.47623155381943
 20
642.4600097656249
 30
0.0
 10
94.65813259548611
 20
642.3483886718749
 30
0.0
 10
95.2282958984375
 20
642.0169704861111
 30
0.0
 10
95.4735866970486
 20
641.4113226996527
 30
0.0
 10
95.6809814453125
 20
640.8187662760416
 30
0.0
  0
SPLINE
  5
F2
330
A
100
AcDbEntity
  8
LAYER_1
 62
     7
100
AcDbSpline
210
0.0
220
0.0
230
1.0
 70
     8
 71
     3
 72
    23
 73
    19
 74
     0
 42
0.000000001
 43
0.00000001
 40
0.0
 40
0.0
 40
0.0
 40
0.0
 40
1.0
 40
1.0
 40
1.0
 40
2.0
 40
2.0
 40
2.0
 40
3.0
 40
3.0
 40
3.0
 40
4.0
 40
4.0
 40
4.0
 40
5.0
 40
5.0
 40
5.0
 40
6.0
 40
6.0
 40
6.0
 40
6.0
 10
96.39790581597221
 20
641.1625868055555
 30
0.0
 10
95.64584147135416
 20
642.2078287760417
 30
0.0
 10
97.38561469184027
 20
641.7875271267361
 30
0.0
 10
97.79351399739582
 20
641.6790066189236
 30
0.0
 10
98.60311143663193
 20
641.4623101128471
 30
0.0
 10
99.41580946180555
 20
641.21357421875
 30
0.0
 10
100.225062391493
 20
640.9396891276041
 30
0.0
 10
100.6267605251736
 20
640.812220594618
 30
0.0
 10
100.683949110243
 20
641.0258165147569
 30
0.0
 10
101.0377604166667
 20
641.0737033420138
 30
0.0
 10
101.378480360243
 20
641.1246907552082
 30
0.0
 10
101.8504584418403
 20
640.8952473958333
 30
0.0
 10
102.1977240668403
 20
640.8442599826388
 30
0.0
 10
102.7616861979167
 20
640.751931423611
 30
0.0
 10
103.37353515625
 20
640.6148166232638
 30
0.0
 10
103.9151041666667
 20
640.4394612630208
 30
0.0
 10
104.4921576605903
 20
640.2513590494791
 30
0.0
 10
105.320703125
 20
639.8562065972221
 30
0.0
 10
105.4829671223958
 20
639.2157633463542
 30
0.0
  0
SPLINE
  5
F1
330
A
100
AcDbEntity
  8
LAYER_1
 62
     7
100
AcDbSpline
210
0.0
220
0.0
230
1.0
 70
     8
 71
     3
 72
   113
 73
   109
 74
     0
 42
0.000000001
 43
0.00000001
 40
0.0
 40
0.0
 40
0.0
 40
0.0
 40
1.0
 40
1.0
 40
1.0
 40
2.0
 40
2.0
 40
2.0
 40
3.0
 40
3.0
 40
3.0
 40
4.0
 40
4.0
 40
4.0
 40
5.0
 40
5.0
 40
5.0
 40
6.0
 40
6.0
 40
6.0
 40
7.0
 40
7.0
 40
7.0
 40
8.0
 40
8.0
 40
8.0
 40
9.0
 40
9.0
 40
9.0
 40
10.0
 40
10.0
 40
10.0
 40
11.0
 40
11.0
 40
11.0
 40
12.0
 40
12.0
 40
12.0
 40
13.0
 40
13.0
 40
13.0
 40
14.0
 40
14.0
 40
14.0
 40
15.0
 40
15.0
 40
15.0
 40
16.0
 40
16.0
 40
16.0
 40
17.0
 40
17.0
 40
17.0
 40
18.0
 40
18.0
 40
18.0
 40
19.0
 40
19.0
 40
19.0
 40
20.0
 40
20.0
 40
20.0
 40
21.0
 40
21.0
 40
21.0
 40
22.0
 40
22.0
 40
22.0
 40
23.0
 40
23.0
 40
23.0
 40
24.0
 40
24.0
 40
24.0
 40
25.0
 40
25.0
 40
25.0
 40
26.0
 40
26.0
 40
26.0
 40
27.0
 40
27.0
 40
27.0
 40
28.0
 40
28.0
 40
28.0
 40
29.0
 40
29.0
 40
29.0
 40
30.0
 40
30.0
 40
30.0
 40
31.0
 40
31.0
 40
31.0
 40
32.0
 40
32.0
 40
32.0
 40
33.0
 40
33.0
 40
33.0
 40
34.0
 40
34.0
 40
34.0
 40
35.0
 40
35.0
 40
35.0
 40
36.0
 40
36.0
 40
36.0
 40
36.0
 10
105.7571967230903
 20
638.7344835069443
 30
0.0
 10
106.2191840277778
 20
638.788916015625
 30
0.0
 10
106.5984890407986
 20
638.9067382812499
 30
0.0
 10
107.050830078125
 20
638.912939453125
 30
0.0
 10
107.5958441840278
 20
638.9194851345486
 30
0.0
 10
107.6692247178819
 20
639.0280056423611
 30
0.0
 10
107.8028944227431
 20
639.5309895833333
 30
0.0
 10
107.85078125
 20
639.7159912109374
 30
0.0
 10
107.8411349826389
 20
639.8562065972221
 30
0.0
 10
108.0388834635417
 20
639.942333984375
 30
0.0
 10
108.2076931423611
 20
640.0091688368055
 30
0.0
 10
108.7334147135417
 20
639.9106391059028
 30
0.0
 10
108.8608832465278
 20
639.7990180121527
 30
0.0
 10
109.0203911675347
 20
639.6557020399305
 30
0.0
 10
108.9501112196181
 20
639.3687255859375
 30
0.0
 10
109.0775797526042
 20
639.2254096137152
 30
0.0
 10
109.3804036458333
 20
638.8874457465278
 30
0.0
 10
110.151416015625
 20
639.2825981987846
 30
0.0
 10
110.4287462022569
 20
638.8206108940972
 30
0.0
 10
110.5083279079861
 20
638.6834960937499
 30
0.0
 10
110.2757839626736
 20
638.5880669487847
 30
0.0
 10
110.5021267361111
 20
638.4096110026042
 30
0.0
 10
110.6995307074653
 20
638.2535481770833
 30
0.0
 10
111.4422932942708
 20
638.3651692708332
 30
0.0
 10
111.6937852647569
 20
638.3458767361111
 30
0.0
 10
111.6810384114583
 20
638.2693956163193
 30
0.0
 10
111.7227240668403
 20
638.1674207899305
 30
0.0
 10
111.697230360243
 20
638.0874945746527
 30
0.0
 10
112.1016845703125
 20
638.3934190538193
 30
0.0
 10
112.7645209418403
 20
638.8619520399305
 30
0.0
 10
113.303333875868
 20
638.67109375
 30
0.0
 10
113.4432047526042
 20
638.6201063368055
 30
0.0
 10
113.6378526475694
 20
638.3265842013889
 30
0.0
 10
113.7556749131944
 20
638.3265842013889
 30
0.0
 10
114.0330050998264
 20
638.3331298828124
 30
0.0
 10
113.8672960069444
 20
638.8206108940972
 30
0.0
 10
113.9565239800347
 20
639.0025119357638
 30
0.0
 10
114.2080159505208
 20
639.4992947048611
 30
0.0
 10
114.7530300564236
 20
638.8109646267361
 30
0.0
 10
115.0462076822917
 20
638.5753200954861
 30
0.0
 10
115.3424858940972
 20
638.3265842013889
 30
0.0
 10
115.9577799479167
 20
637.7340277777777
 30
0.0
 10
115.945033094618
 20
637.3736707899305
 30
0.0
 10
115.8365125868055
 20
637.775368923611
 30
0.0
 10
115.7793240017361
 20
637.9283311631943
 30
0.0
 10
115.9608805338542
 20
638.2342556423611
 30
0.0
 10
116.0852484809028
 20
638.4416503906249
 30
0.0
 10
115.9257405598958
 20
638.4351047092014
 30
0.0
 10
116.2316650390625
 20
638.4671440972222
 30
0.0
 10
116.5375895182292
 20
638.5019395616318
 30
0.0
 10
116.8497151692708
 20
638.3555230034722
 30
0.0
 10
117.146337890625
 20
638.3141818576388
 30
0.0
 10
117.5159966362847
 20
638.2693956163193
 30
0.0
 10
117.8825547960069
 20
638.3586235894097
 30
0.0
 10
118.2518690321181
 20
638.3010904947917
 30
0.0
 10
118.5898328993055
 20
638.2470024956597
 30
0.0
 10
118.5453911675347
 20
638.1357259114583
 30
0.0
 10
118.7682888454861
 20
637.9283311631943
 30
0.0
 10
118.9753390842014
 20
637.7402289496528
 30
0.0
 10
119.1283013237847
 20
637.7595214843749
 30
0.0
 10
119.44697265625
 20
637.7595214843749
 30
0.0
 10
119.8262776692708
 20
637.7595214843749
 30
0.0
 10
120.1704427083333
 20
637.7467746310763
 30
0.0
 10
120.5463026258681
 20
637.6702935112846
 30
0.0
 10
120.7567979600694
 20
637.6258517795138
 30
0.0
 10
121.276318359375
 20
637.5586724175347
 30
0.0
 10
121.4323811848958
 20
637.3612684461805
 30
0.0
 10
121.7031656901042
 20
637.0140028211805
 30
0.0
 10
121.1870903862847
 20
636.4145562065971
 30
0.0
 10
121.0213812934028
 20
636.105531141493
 30
0.0
 10
121.1870903862847
 20
636.4021538628472
 30
0.0
 10
121.394140625
 20
636.7204806857638
 30
0.0
 10
121.6266845703125
 20
636.9564697265624
 30
0.0
 10
121.9133165147569
 20
637.2496473524305
 30
0.0
 10
122.3308620876736
 20
637.1731662326388
 30
0.0
 10
122.722913953993
 20
637.1604193793402
 30
0.0
 10
123.1149658203125
 20
637.1476725260416
 30
0.0
 10
123.4877251519097
 20
637.1252794053819
 30
0.0
 10
123.8477376302083
 20
636.9499240451388
 30
0.0
 10
124.0678792317708
 20
636.8448486328124
 30
0.0
 10
124.1602077907986
 20
636.7335720486111
 30
0.0
 10
124.3035237630208
 20
636.5485704210068
 30
0.0
 10
124.3958523220486
 20
636.4304036458333
 30
0.0
 10
124.4309922960069
 20
636.1727105034722
 30
0.0
 10
124.6380425347222
 20
636.1437717013888
 30
0.0
 10
124.8485378689236
 20
636.1151774088542
 30
0.0
 10
124.8164984809028
 20
636.2808865017361
 30
0.0
 10
124.9760064019097
 20
636.3191270616319
 30
0.0
 10
125.1799560546875
 20
636.37666015625
 30
0.0
 10
125.3263726128472
 20
636.2681396484375
 30
0.0
 10
125.530322265625
 20
636.2808865017361
 30
0.0
 10
125.8903347439236
 20
636.3063802083333
 30
0.0
 10
126.1518174913194
 20
636.504128689236
 30
0.0
 10
126.2792860243055
 20
636.793861219618
 30
0.0
 10
126.3492214626736
 20
636.9533691406249
 30
0.0
 10
126.276185438368
 20
637.0649902343749
 30
0.0
 10
126.4511962890625
 20
637.1793674045139
 30
0.0
 10
126.6840847439236
 20
637.3323296440972
 30
0.0
 10
127.0502983940972
 20
637.1793674045139
 30
0.0
 10
127.3083360460069
 20
637.1380262586805
 30
0.0
 10
127.8598958333333
 20
637.0584445529513
 30
0.0
 10
128.341175672743
 20
637.0140028211805
 30
0.0
 10
128.8668972439236
 20
636.8128092447917
 30
0.0
 10
129.2141628689236
 20
636.6791395399305
 30
0.0
 10
129.7367838541666
 20
636.7046332465277
 30
0.0
 10
129.8260118272569
 20
636.2615939670138
 30
0.0
 10
129.88974609375
 20
635.9432671440971
 30
0.0
 10
129.6668484157986
 20
635.821999782986
 30
0.0
 10
129.4914930555555
 20
635.6118489583333
 30
0.0
  0
SPLINE
  5
F0
330
A
100
AcDbEntity
  8
LAYER_1
 62
     7
100
AcDbSpline
210
0.0
220
0.0
230
1.0
 70
     8
 71
     3
 72
    20
 73
    16
 74
     0
 42
0.000000001
 43
0.00000001
 40
0.0
 40
0.0
 40
0.0
 40
0.0
 40
1.0
 40
1.0
 40
1.0
 40
2.0
 40
2.0
 40
2.0
 40
3.0
 40
3.0
 40
3.0
 40
4.0
 40
4.0
 40
4.0
 40
5.0
 40
5.0
 40
5.0
 40
5.0
 10
129.7974175347222
 20
636.0896837022569
 30
0.0
 10
129.9596815321181
 20
636.045241970486
 30
0.0
 10
130.8044189453125
 20
636.0101019965277
 30
0.0
 10
130.925341796875
 20
636.1341254340277
 30
0.0
 10
131.0941514756944
 20
636.2967339409722
 30
0.0
 10
130.80751953125
 20
636.9437228732638
 30
0.0
 10
131.2536593967014
 20
636.8479492187499
 30
0.0
 10
130.8616075303819
 20
636.7780137803819
 30
0.0
 10
130.6831515842014
 20
637.4790907118055
 30
0.0
 10
130.7151909722222
 20
637.76572265625
 30
0.0
 10
130.7437852647569
 20
638.0461534288194
 30
0.0
 10
130.7627332899305
 20
637.98896484375
 30
0.0
 10
130.9859754774305
 20
638.1102322048611
 30
0.0
 10
131.1420383029514
 20
638.1929144965277
 30
0.0
 10
131.4097222222222
 20
638.2056613498263
 30
0.0
 10
131.3938747829861
 20
638.4161566840277
 30
0.0
  0
SPLINE
  5
EF
330
A
100
AcDbEntity
  8
LAYER_1
 62
     7
100
AcDbSpline
210
0.0
220
0.0
230
1.0
 70
     8
 71
     3
 72
    41
 73
    37
 74
     0
 42
0.000000001
 43
0.00000001
 40
0.0
 40
0.0
 40
0.0
 40
0.0
 40
1.0
 40
1.0
 40
1.0
 40
2.0
 40
2.0
 40
2.0
 40
3.0
 40
3.0
 40
3.0
 40
4.0
 40
4.0
 40
4.0
 40
5.0
 40
5.0
 40
5.0
 40
6.0
 40
6.0
 40
6.0
 40
7.0
 40
7.0
 40
7.0
 40
8.0
 40
8.0
 40
8.0
 40
9.0
 40
9.0
 40
9.0
 40
10.0
 40
10.0
 40
10.0
 40
11.0
 40
11.0
 40
11.0
 40
12.0
 40
12.0
 40
12.0
 40
12.0
 10
131.2791531032986
 20
641.7937282986111
 30
0.0
 10
131.0848497178819
 20
641.6345648871527
 30
0.0
 10
131.0273166232639
 20
641.1625868055555
 30
0.0
 10
130.7024441189236
 20
641.2456136067708
 30
0.0
 10
130.4313151041667
 20
641.3155490451388
 30
0.0
 10
130.2497585720486
 20
641.8702094184027
 30
0.0
 10
130.0840494791667
 20
642.0614122178819
 30
0.0
 10
129.8005181206597
 20
642.4090223524305
 30
0.0
 10
129.4594536675347
 20
642.7817816840277
 30
0.0
 10
129.2937445746528
 20
643.2213758680555
 30
0.0
 10
129.089794921875
 20
643.7694905598958
 30
0.0
 10
129.6826958550347
 20
643.6037814670138
 30
0.0
 10
129.730238172743
 20
644.0433756510416
 30
0.0
 10
129.7557318793403
 20
644.2762641059027
 30
0.0
 10
129.3798719618055
 20
644.5504937065972
 30
0.0
 10
129.3257839626736
 20
644.8274793836805
 30
0.0
 10
129.2844428168403
 20
645.0252278645833
 30
0.0
 10
129.2555040147569
 20
645.1206570095486
 30
0.0
 10
129.1917697482639
 20
645.3056586371528
 30
0.0
 10
129.1438829210069
 20
645.464822048611
 30
0.0
 10
129.0549994574653
 20
645.7135579427082
 30
0.0
 10
129.1569742838542
 20
645.8789225260416
 30
0.0
 10
129.3033908420139
 20
646.1083658854166
 30
0.0
 10
130.0234157986111
 20
646.3347086588541
 30
0.0
 10
130.2752522786458
 20
646.4463297526041
 30
0.0
 10
130.6576578776042
 20
646.60859375
 30
0.0
 10
130.8171657986111
 20
646.4845703125
 30
0.0
 10
131.1961263020833
 20
646.4080891927083
 30
0.0
 10
131.4383165147569
 20
646.3509006076388
 30
0.0
 10
131.565785047743
 20
646.4080891927083
 30
0.0
 10
131.8145209418403
 20
646.2041395399305
 30
0.0
 10
131.9864312065972
 20
646.0573784722221
 30
0.0
 10
132.1393934461805
 20
645.9808973524305
 30
0.0
 10
132.3178493923611
 20
645.8534288194444
 30
0.0
 10
132.649267578125
 20
645.6177842881943
 30
0.0
 10
132.7164469401042
 20
645.2226318359375
 30
0.0
 10
132.7033555772569
 20
644.8402262369791
 30
0.0
  0
SPLINE
  5
EE
330
A
100
AcDbEntity
  8
LAYER_1
 62
     7
100
AcDbSpline
210
0.0
220
0.0
230
1.0
 70
     8
 71
     3
 72
    23
 73
    19
 74
     0
 42
0.000000001
 43
0.00000001
 40
0.0
 40
0.0
 40
0.0
 40
0.0
 40
1.0
 40
1.0
 40
1.0
 40
2.0
 40
2.0
 40
2.0
 40
3.0
 40
3.0
 40
3.0
 40
4.0
 40
4.0
 40
4.0
 40
5.0
 40
5.0
 40
5.0
 40
6.0
 40
6.0
 40
6.0
 40
6.0
 10
133.0061794704861
 20
646.0704698350694
 30
0.0
 10
132.7929280598958
 20
646.5131646050347
 30
0.0
 10
132.5982801649305
 20
647.5008734809027
 30
0.0
 10
133.3661919487847
 20
647.5139648437499
 30
0.0
 10
133.6690158420139
 20
647.5236111111111
 30
0.0
 10
134.1661431206597
 20
647.2431803385416
 30
0.0
 10
134.4403727213542
 20
647.1281141493055
 30
0.0
 10
134.7428521050347
 20
647.007191297743
 30
0.0
 10
135.0329291449653
 20
646.8414822048611
 30
0.0
 10
135.3230061848958
 20
646.6947211371527
 30
0.0
 10
135.6416775173611
 20
646.5259114583333
 30
0.0
 10
135.9348551432292
 20
646.3856960720485
 30
0.0
 10
136.2469807942708
 20
646.2168863932291
 30
0.0
 10
136.4702229817708
 20
646.0987196180555
 30
0.0
 10
136.7919949001736
 20
646.0001898871527
 30
0.0
 10
136.9577039930555
 20
645.812087673611
 30
0.0
 10
137.4868706597222
 20
645.2064398871527
 30
0.0
 10
136.8398817274305
 20
644.990087890625
 30
0.0
 10
136.3555013020833
 20
644.990087890625
 30
0.0
  0
SPLINE
  5
ED
330
A
100
AcDbEntity
  8
LAYER_1
 62
     7
100
AcDbSpline
210
0.0
220
0.0
230
1.0
 70
     8
 71
     3
 72
    17
 73
    13
 74
     0
 42
0.000000001
 43
0.00000001
 40
0.0
 40
0.0
 40
0.0
 40
0.0
 40
1.0
 40
1.0
 40
1.0
 40
2.0
 40
2.0
 40
2.0
 40
3.0
 40
3.0
 40
3.0
 40
4.0
 40
4.0
 40
4.0
 40
4.0
 10
137.4803249782986
 20
645.4393283420138
 30
0.0
 10
137.3049696180555
 20
645.5061631944444
 30
0.0
 10
137.1616536458333
 20
646.019482421875
 30
0.0
 10
137.3466552734375
 20
646.1786458333332
 30
0.0
 10
137.5471598307292
 20
646.3412543402777
 30
0.0
 10
137.9519585503472
 20
646.1118109809028
 30
0.0
 10
138.1335150824653
 20
646.0449761284722
 30
0.0
 10
138.3533121744792
 20
645.9554036458333
 30
0.0
 10
138.6912760416666
 20
645.8920138888889
 30
0.0
 10
138.7774034288194
 20
645.6432779947916
 30
0.0
 10
138.8697319878472
 20
645.3979871961805
 30
0.0
 10
138.5479600694444
 20
644.9167073567708
 30
0.0
 10
138.5414143880208
 20
644.8274793836805
 30
0.0
  0
SPLINE
  5
EC
330
A
100
AcDbEntity
  8
LAYER_1
 62
     7
100
AcDbSpline
210
0.0
220
0.0
230
1.0
 70
     8
 71
     3
 72
    23
 73
    19
 74
     0
 42
0.000000001
 43
0.00000001
 40
0.0
 40
0.0
 40
0.0
 40
0.0
 40
1.0
 40
1.0
 40
1.0
 40
2.0
 40
2.0
 40
2.0
 40
3.0
 40
3.0
 40
3.0
 40
4.0
 40
4.0
 40
4.0
 40
5.0
 40
5.0
 40
5.0
 40
6.0
 40
6.0
 40
6.0
 40
6.0
 10
139.1532633463542
 20
645.0314290364582
 30
0.0
 10
139.1532633463542
 20
645.5860894097221
 30
0.0
 10
139.1660101996528
 20
645.7865939670138
 30
0.0
 10
139.76201171875
 20
645.7865939670138
 30
0.0
 10
140.2177978515625
 20
645.7865939670138
 30
0.0
 10
140.6670383029514
 20
645.688064236111
 30
0.0
 10
141.0907850477431
 20
645.5444037543402
 30
0.0
 10
142.4994845920139
 20
645.0569227430555
 30
0.0
 10
142.1646213107639
 20
643.1001085069444
 30
0.0
 10
142.1711669921875
 20
641.9466905381944
 30
0.0
 10
142.1711669921875
 20
641.1563856336805
 30
0.0
 10
142.1839138454861
 20
640.3212944878471
 30
0.0
 10
142.0436984592014
 20
639.5502821180555
 30
0.0
 10
141.9575710720486
 20
639.1106879340277
 30
0.0
 10
141.7918619791666
 20
638.3076361762152
 30
0.0
 10
141.5272786458333
 20
637.941078016493
 30
0.0
 10
141.1958604600694
 20
637.4852918836805
 30
0.0
 10
140.7659125434028
 20
638.0206597222221
 30
0.0
 10
140.5426703559028
 20
638.3810167100694
 30
0.0
  0
SPLINE
  5
EB
330
A
100
AcDbEntity
  8
LAYER_1
 62
     7
100
AcDbSpline
210
0.0
220
0.0
230
1.0
 70
     8
 71
     3
 72
    14
 73
    10
 74
     0
 42
0.000000001
 43
0.00000001
 40
0.0
 40
0.0
 40
0.0
 40
0.0
 40
1.0
 40
1.0
 40
1.0
 40
2.0
 40
2.0
 40
2.0
 40
3.0
 40
3.0
 40
3.0
 40
3.0
 10
140.520277235243
 20
634.7257703993055
 30
0.0
 10
140.8423936631944
 20
634.7478190104166
 30
0.0
 10
141.2151529947917
 20
634.4515407986111
 30
0.0
 10
141.5114312065972
 20
634.3495659722222
 30
0.0
 10
141.8524956597222
 20
634.2220974392361
 30
0.0
 10
142.1008870442708
 20
634.1776557074652
 30
0.0
 10
142.2252549913194
 20
633.7887044270833
 30
0.0
 10
142.3847629123264
 20
633.2598822699653
 30
0.0
 10
142.1808132595486
 20
632.3610568576388
 30
0.0
 10
141.7601671006944
 20
631.9979437934027
 30
0.0
  0
SPLINE
  5
EA
330
A
100
AcDbEntity
  8
LAYER_1
 62
     7
100
AcDbSpline
210
0.0
220
0.0
230
1.0
 70
     8
 71
     3
 72
    20
 73
    16
 74
     0
 42
0.000000001
 43
0.00000001
 40
0.0
 40
0.0
 40
0.0
 40
0.0
 40
1.0
 40
1.0
 40
1.0
 40
2.0
 40
2.0
 40
2.0
 40
3.0
 40
3.0
 40
3.0
 40
4.0
 40
4.0
 40
4.0
 40
5.0
 40
5.0
 40
5.0
 40
5.0
 10
62.82648383246527
 20
636.159619140625
 30
0.0
 10
62.91571180555555
 20
635.9046820746527
 30
0.0
 10
62.99219292534722
 20
635.5925564236111
 30
0.0
 10
63.26952311197916
 20
635.4905815972222
 30
0.0
 10
63.4255859375
 20
635.4333930121527
 30
0.0
 10
63.62298990885416
 20
635.5222764756944
 30
0.0
 10
63.78249782986111
 20
635.4843804253471
 30
0.0
 10
64.26033257378472
 20
635.3693142361111
 30
0.0
 10
64.5821044921875
 20
634.0470865885416
 30
0.0
 10
65.15605740017361
 20
634.4646321614583
 30
0.0
 10
65.35346137152777
 20
634.611048719618
 30
0.0
 10
65.41719563802083
 20
634.9869086371527
 30
0.0
 10
65.6052978515625
 20
635.1784559461805
 30
0.0
 10
65.77410753038194
 20
635.3503662109374
 30
0.0
 10
66.0703857421875
 20
635.4457953559028
 30
0.0
 10
66.14066569010416
 20
635.6976318359374
 30
0.0
  0
SPLINE
  5
E9
330
A
100
AcDbEntity
  8
LAYER_1
 62
     7
100
AcDbSpline
210
0.0
220
0.0
230
1.0
 70
     8
 71
     3
 72
    11
 73
     7
 74
     0
 42
0.000000001
 43
0.00000001
 40
0.0
 40
0.0
 40
0.0
 40
0.0
 40
1.0
 40
1.0
 40
1.0
 40
2.0
 40
2.0
 40
2.0
 40
2.0
 10
67.12837456597222
 20
635.3248725043402
 30
0.0
 10
67.05499403211805
 20
634.4260470920138
 30
0.0
 10
68.01755371093749
 20
634.5504150390624
 30
0.0
 10
68.69623752170138
 20
634.547314453125
 30
0.0
 10
69.13273111979166
 20
634.54111328125
 30
0.0
 10
70.99377170138888
 20
634.152162000868
 30
0.0
 10
70.4394558376736
 20
635.1653645833333
 30
0.0
  0
SPLINE
  5
E8
330
A
100
AcDbEntity
  8
LAYER_1
 62
     7
100
AcDbSpline
210
0.0
220
0.0
230
1.0
 70
     8
 71
     3
 72
    23
 73
    19
 74
     0
 42
0.000000001
 43
0.00000001
 40
0.0
 40
0.0
 40
0.0
 40
0.0
 40
1.0
 40
1.0
 40
1.0
 40
2.0
 40
2.0
 40
2.0
 40
3.0
 40
3.0
 40
3.0
 40
4.0
 40
4.0
 40
4.0
 40
5.0
 40
5.0
 40
5.0
 40
6.0
 40
6.0
 40
6.0
 40
6.0
 10
71.29349500868055
 20
635.0316948784722
 30
0.0
 10
71.33173556857638
 20
634.88837890625
 30
0.0
 10
71.28694932725693
 20
634.5983018663194
 30
0.0
 10
71.40477159288194
 20
634.4901258680555
 30
0.0
 10
71.48779839409721
 20
634.4229465060763
 30
0.0
 10
72.18577473958332
 20
634.3688585069444
 30
0.0
 10
72.2812038845486
 20
634.3626573350693
 30
0.0
 10
72.81657172309028
 20
634.333718532986
 30
0.0
 10
72.80692545572916
 20
634.7895046657985
 30
0.0
 10
73.07150878906249
 20
635.1653645833333
 30
0.0
 10
73.09080132378472
 20
634.4835801866319
 30
0.0
 10
72.86135796440972
 20
634.1077202690972
 30
0.0
 10
73.69300401475694
 20
633.9802517361111
 30
0.0
 10
73.93519422743054
 20
633.9482123480902
 30
0.0
 10
74.49295518663193
 20
633.8141981336805
 30
0.0
 10
74.6776123046875
 20
633.9895534939236
 30
0.0
 10
74.83057454427083
 20
634.1266682942708
 30
0.0
 10
74.81472710503472
 20
634.5345675998263
 30
0.0
 10
74.8112820095486
 20
634.7385172526041
 30
0.0
  0
SPLINE
  5
E7
330
A
100
AcDbEntity
  8
LAYER_1
 62
     7
100
AcDbSpline
210
0.0
220
0.0
230
1.0
 70
     8
 71
     3
 72
    29
 73
    25
 74
     0
 42
0.000000001
 43
0.00000001
 40
0.0
 40
0.0
 40
0.0
 40
0.0
 40
1.0
 40
1.0
 40
1.0
 40
2.0
 40
2.0
 40
2.0
 40
3.0
 40
3.0
 40
3.0
 40
4.0
 40
4.0
 40
4.0
 40
5.0
 40
5.0
 40
5.0
 40
6.0
 40
6.0
 40
6.0
 40
7.0
 40
7.0
 40
7.0
 40
8.0
 40
8.0
 40
8.0
 40
8.0
 10
75.97469075520833
 20
634.7064778645832
 30
0.0
 10
75.97469075520833
 20
634.4453396267361
 30
0.0
 10
75.93645019531249
 20
633.8972249348958
 30
0.0
 10
76.21343587239582
 20
633.7604546440972
 30
0.0
 10
76.49731174045138
 20
633.6167941623263
 30
0.0
 10
76.96239963107638
 20
634.0085015190972
 30
0.0
 10
77.198388671875
 20
634.1201226128471
 30
0.0
 10
76.8731716579861
 20
633.9065266927083
 30
0.0
 10
77.22388237847221
 20
633.6264404296875
 30
0.0
 10
77.34170464409722
 20
633.3873508029513
 30
0.0
 10
77.46262749565972
 20
633.1579074435763
 30
0.0
 10
77.35445149739583
 20
633.1486056857639
 30
0.0
 10
77.61558973524305
 20
633.0369845920138
 30
0.0
 10
77.81023763020832
 20
632.9539577907985
 30
0.0
 10
78.05552842881944
 20
632.9729058159721
 30
0.0
 10
78.25947808159721
 20
632.9412109374999
 30
0.0
 10
78.75660536024304
 20
632.8743760850693
 30
0.0
 10
79.23754069010415
 20
632.6862738715278
 30
0.0
 10
79.70607367621527
 20
632.5016167534721
 30
0.0
 10
80.11087239583333
 20
632.3486545138888
 30
0.0
 10
80.44883626302082
 20
632.0172363281249
 30
0.0
 10
80.85983615451389
 20
631.8959689670138
 30
0.0
 10
80.80230305989582
 20
632.1956922743055
 30
0.0
 10
80.73236762152777
 20
632.5078179253471
 30
0.0
 10
80.68758138020833
 20
632.8137424045138
 30
0.0
  0
SPLINE
  5
E6
330
A
100
AcDbEntity
  8
LAYER_1
 62
     7
100
AcDbSpline
210
0.0
220
0.0
230
1.0
 70
     8
 71
     3
 72
    11
 73
     7
 74
     0
 42
0.000000001
 43
0.00000001
 40
0.0
 40
0.0
 40
0.0
 40
0.0
 40
1.0
 40
1.0
 40
1.0
 40
2.0
 40
2.0
 40
2.0
 40
2.0
 10
81.5767605251736
 20
633.1579074435763
 30
0.0
 10
81.44309082031249
 20
632.5016167534721
 30
0.0
 10
81.78691134982638
 20
632.4185899522569
 30
0.0
 10
82.29678548177083
 20
632.1381591796875
 30
0.0
 10
82.66334364149304
 20
631.9311089409722
 30
0.0
 10
83.26244574652777
 20
631.7113118489583
 30
0.0
 10
83.04574924045139
 20
632.4120442708332
 30
0.0
  0
SPLINE
  5
E5
330
A
100
AcDbEntity
  8
LAYER_1
 62
     7
100
AcDbSpline
210
0.0
220
0.0
230
1.0
 70
     8
 71
     3
 72
    56
 73
    52
 74
     0
 42
0.000000001
 43
0.00000001
 40
0.0
 40
0.0
 40
0.0
 40
0.0
 40
1.0
 40
1.0
 40
1.0
 40
2.0
 40
2.0
 40
2.0
 40
3.0
 40
3.0
 40
3.0
 40
4.0
 40
4.0
 40
4.0
 40
5.0
 40
5.0
 40
5.0
 40
6.0
 40
6.0
 40
6.0
 40
7.0
 40
7.0
 40
7.0
 40
8.0
 40
8.0
 40
8.0
 40
9.0
 40
9.0
 40
9.0
 40
10.0
 40
10.0
 40
10.0
 40
11.0
 40
11.0
 40
11.0
 40
12.0
 40
12.0
 40
12.0
 40
13.0
 40
13.0
 40
13.0
 40
14.0
 40
14.0
 40
14.0
 40
15.0
 40
15.0
 40
15.0
 40
16.0
 40
16.0
 40
16.0
 40
17.0
 40
17.0
 40
17.0
 40
17.0
 10
83.86809353298611
 20
631.797439236111
 30
0.0
 10
83.6448513454861
 20
631.0229817708333
 30
0.0
 10
84.46064995659721
 20
630.9368543836805
 30
0.0
 10
85.0215115017361
 20
631.0546766493055
 30
0.0
 10
85.27954915364583
 20
631.1056640625
 30
0.0
 10
85.65885416666666
 20
631.2076388888888
 30
0.0
 10
85.9265380859375
 20
631.1184109157986
 30
0.0
 10
86.11119520399305
 20
631.0581217447916
 30
0.0
 10
86.19422200520833
 20
630.882421875
 30
0.0
 10
86.39507107204861
 20
630.8445258246527
 30
0.0
 10
86.59247504340277
 20
630.8093858506944
 30
0.0
 10
86.69134928385417
 20
630.9241075303819
 30
0.0
 10
86.87945149739582
 20
630.9561469184027
 30
0.0
 10
87.35108506944444
 20
631.0450303819443
 30
0.0
 10
87.48165418836805
 20
630.7232584635416
 30
0.0
 10
87.87026095920137
 20
630.5830430772569
 30
0.0
 10
88.17618543836805
 20
630.4745225694444
 30
0.0
 10
88.52999674479166
 20
630.5255099826388
 30
0.0
 10
88.85831434461805
 20
630.4111328124999
 30
0.0
 10
89.39678276909721
 20
630.2133843315971
 30
0.0
 10
89.88770887586804
 20
629.7544976128472
 30
0.0
 10
90.48336588541666
 20
629.7228027343749
 30
0.0
 10
90.81478407118055
 20
629.7035101996527
 30
0.0
 10
90.9963406032986
 20
629.9267523871528
 30
0.0
 10
91.31191134982637
 20
629.9646484374999
 30
0.0
 10
91.6784695095486
 20
630.0094346788194
 30
0.0
 10
92.03538140190972
 20
629.8151312934027
 30
0.0
 10
92.40193956163193
 20
629.8819661458333
 30
0.0
 10
92.67892523871527
 20
629.9329535590277
 30
0.0
 10
92.84463433159722
 20
630.0476752387152
 30
0.0
 10
93.14745822482638
 20
629.9808403862846
 30
0.0
 10
93.56500379774305
 20
629.8947129991319
 30
0.0
 10
94.07177734374999
 20
629.6015353732638
 30
0.0
 10
94.4317898220486
 20
629.3879394531249
 30
0.0
 10
94.83004286024304
 20
629.1553955078124
 30
0.0
 10
95.25068901909721
 20
628.9834852430555
 30
0.0
 10
95.65204264322915
 20
628.7602430555555
 30
0.0
 10
95.94866536458332
 20
628.5945339626736
 30
0.0
 10
96.17810872395833
 20
628.3268500434027
 30
0.0
 10
96.484033203125
 20
628.1931803385417
 30
0.0
 10
96.75171712239583
 20
628.0719129774305
 30
0.0
 10
96.98116048177083
 20
628.1676866319444
 30
0.0
 10
97.25504557291666
 20
628.1676866319444
 30
0.0
 10
97.5227294921875
 20
628.1676866319444
 30
0.0
 10
97.77766655815971
 20
628.0974066840278
 30
0.0
 10
98.04224989149304
 20
628.0657118055555
 30
0.0
 10
98.39916178385415
 20
628.0274712456596
 30
0.0
 10
98.72747938368055
 20
627.9065483940972
 30
0.0
 10
99.07164442274305
 20
627.8521158854167
 30
0.0
 10
99.52088487413194
 20
627.7790798611111
 30
0.0
 10
99.584619140625
 20
628.1614854600693
 30
0.0
 10
99.58151855468749
 20
628.5755859374999
 30
0.0
  0
SPLINE
  5
E4
330
A
100
AcDbEntity
  8
LAYER_1
 62
     7
100
AcDbSpline
210
0.0
220
0.0
230
1.0
 70
     8
 71
     3
 72
    11
 73
     7
 74
     0
 42
0.000000001
 43
0.00000001
 40
0.0
 40
0.0
 40
0.0
 40
0.0
 40
1.0
 40
1.0
 40
1.0
 40
2.0
 40
2.0
 40
2.0
 40
2.0
 10
100.0242133246528
 20
628.479812282986
 30
0.0
 10
100.2571017795139
 20
628.0402180989582
 30
0.0
 10
100.6966959635417
 20
627.9382432725694
 30
0.0
 10
101.1459364149305
 20
627.8266221788194
 30
0.0
 10
101.5569363064236
 20
627.7184461805555
 30
0.0
 10
101.7419379340278
 20
627.8776095920139
 30
0.0
 10
101.8342664930556
 20
628.3144476996528
 30
0.0
  0
SPLINE
  5
E3
330
A
100
AcDbEntity
  8
LAYER_1
 62
     7
100
AcDbSpline
210
0.0
220
0.0
230
1.0
 70
     8
 71
     3
 72
   113
 73
   109
 74
     0
 42
0.000000001
 43
0.00000001
 40
0.0
 40
0.0
 40
0.0
 40
0.0
 40
1.0
 40
1.0
 40
1.0
 40
2.0
 40
2.0
 40
2.0
 40
3.0
 40
3.0
 40
3.0
 40
4.0
 40
4.0
 40
4.0
 40
5.0
 40
5.0
 40
5.0
 40
6.0
 40
6.0
 40
6.0
 40
7.0
 40
7.0
 40
7.0
 40
8.0
 40
8.0
 40
8.0
 40
9.0
 40
9.0
 40
9.0
 40
10.0
 40
10.0
 40
10.0
 40
11.0
 40
11.0
 40
11.0
 40
12.0
 40
12.0
 40
12.0
 40
13.0
 40
13.0
 40
13.0
 40
14.0
 40
14.0
 40
14.0
 40
15.0
 40
15.0
 40
15.0
 40
16.0
 40
16.0
 40
16.0
 40
17.0
 40
17.0
 40
17.0
 40
18.0
 40
18.0
 40
18.0
 40
19.0
 40
19.0
 40
19.0
 40
20.0
 40
20.0
 40
20.0
 40
21.0
 40
21.0
 40
21.0
 40
22.0
 40
22.0
 40
22.0
 40
23.0
 40
23.0
 40
23.0
 40
24.0
 40
24.0
 40
24.0
 40
25.0
 40
25.0
 40
25.0
 40
26.0
 40
26.0
 40
26.0
 40
27.0
 40
27.0
 40
27.0
 40
28.0
 40
28.0
 40
28.0
 40
29.0
 40
29.0
 40
29.0
 40
30.0
 40
30.0
 40
30.0
 40
31.0
 40
31.0
 40
31.0
 40
32.0
 40
32.0
 40
32.0
 40
33.0
 40
33.0
 40
33.0
 40
34.0
 40
34.0
 40
34.0
 40
35.0
 40
35.0
 40
35.0
 40
36.0
 40
36.0
 40
36.0
 40
36.0
 10
102.3124457465278
 20
628.008523220486
 30
0.0
 10
102.4654079861111
 20
627.7308485243055
 30
0.0
 10
102.5353434244792
 20
627.4666097005207
 30
0.0
 10
102.6597113715278
 20
627.1796332465277
 30
0.0
 10
102.8254204644097
 20
626.7972276475693
 30
0.0
 10
103.0772569444444
 20
626.9122938368055
 30
0.0
 10
103.4500162760417
 20
626.7782796223958
 30
0.0
 10
103.8293212890625
 20
626.6318630642361
 30
0.0
 10
104.0236246744792
 20
626.2494574652777
 30
0.0
 10
104.3994845920139
 20
626.1088975694444
 30
0.0
 10
104.7598415798611
 20
625.9879747178819
 30
0.0
 10
105.2917643229167
 20
625.9879747178819
 30
0.0
 10
105.6328287760417
 20
626.175732421875
 30
0.0
 10
106.0183349609375
 20
626.3893283420139
 30
0.0
 10
105.7888916015625
 20
626.6697591145833
 30
0.0
 10
106.0376274956597
 20
626.9246961805555
 30
0.0
 10
106.2732720269097
 20
627.1672309027778
 30
0.0
 10
106.8468804253472
 20
627.033216688368
 30
0.0
 10
107.1304117838542
 20
627.033216688368
 30
0.0
 10
107.39189453125
 20
627.0363172743055
 30
0.0
 10
107.621337890625
 20
627.0301161024305
 30
0.0
 10
107.8793755425347
 20
626.991531032986
 30
0.0
 10
108.3351616753472
 20
626.9312418619791
 30
0.0
 10
108.7844021267361
 20
626.8547607421874
 30
0.0
 10
109.2463894314236
 20
626.7782796223958
 30
0.0
 10
109.7118218315972
 20
626.6986979166666
 30
0.0
 10
110.4287462022569
 20
626.8992024739583
 30
0.0
 10
110.8238986545139
 20
626.5932779947916
 30
0.0
 10
111.126722547743
 20
626.3576334635416
 30
0.0
 10
111.0946831597222
 20
625.8891004774305
 30
0.0
 10
111.5056830512153
 20
625.7395833333333
 30
0.0
 10
112.0634440104167
 20
625.5356336805555
 30
0.0
 10
111.9838623046875
 20
626.6952528211805
 30
0.0
 10
112.5605712890625
 20
626.574329969618
 30
0.0
 10
112.6308512369792
 20
626.5615831163194
 30
0.0
 10
113.0576985677083
 20
626.3703803168402
 30
0.0
 10
113.1152316623264
 20
626.3383409288194
 30
0.0
 10
113.309535047743
 20
626.2239637586805
 30
0.0
 10
113.3191813151042
 20
625.9879747178819
 30
0.0
 10
113.5548258463542
 20
625.8698079427082
 30
0.0
 10
114.0168131510417
 20
625.6310628255208
 30
0.0
 10
115.5974229600694
 20
625.0416069878472
 30
0.0
 10
115.4572075737847
 20
626.0644558376736
 30
0.0
 10
115.7472846137153
 20
625.7967719184027
 30
0.0
 10
116.1010959201389
 20
625.8508599175346
 30
0.0
 10
116.4514621310764
 20
625.8029730902778
 30
0.0
 10
116.7129448784722
 20
625.7650770399305
 30
0.0
 10
116.9423882378472
 20
625.7330376519096
 30
0.0
 10
117.2066270616319
 20
625.7457845052082
 30
0.0
 10
117.3216932508681
 20
625.7519856770833
 30
0.0
 10
117.5731852213542
 20
625.8350124782986
 30
0.0
 10
117.6848063151042
 20
625.7519856770833
 30
0.0
 10
117.9238959418403
 20
625.5611273871527
 30
0.0
 10
117.6655137803819
 20
625.2676052517361
 30
0.0
 10
118.022425672743
 20
625.1277343749999
 30
0.0
 10
118.3603895399306
 20
624.9937201605902
 30
0.0
 10
118.5357449001736
 20
625.1911241319444
 30
0.0
 10
118.6790608723958
 20
625.4336588541667
 30
0.0
 10
118.8544162326389
 20
625.2965440538194
 30
0.0
 10
118.9849853515625
 20
625.0829481336805
 30
0.0
 10
119.2047824435764
 20
624.9871744791666
 30
0.0
 10
119.4373263888889
 20
624.8789984809027
 30
0.0
 10
119.7274034288194
 20
624.898291015625
 30
0.0
 10
119.9726942274306
 20
624.7928710937499
 30
0.0
 10
120.2627712673611
 20
624.6688476562499
 30
0.0
 10
120.540101453993
 20
624.5537814670138
 30
0.0
 10
120.8522271050347
 20
624.4869466145833
 30
0.0
 10
121.3049126519097
 20
624.3884168836805
 30
0.0
 10
122.834535047743
 20
624.0569986979166
 30
0.0
 10
122.9075710720486
 20
624.7577311197916
 30
0.0
 10
122.8696750217014
 20
624.4201117621527
 30
0.0
 10
123.1370144314236
 20
624.3753255208333
 30
0.0
 10
123.4143446180555
 20
624.3884168836805
 30
0.0
 10
123.5356119791667
 20
623.821009657118
 30
0.0
 10
124.0678792317708
 20
623.9067925347222
 30
0.0
 10
124.4850802951389
 20
623.7255805121528
 30
0.0
 10
124.787904188368
 20
623.591566297743
 30
0.0
 10
125.5113742404514
 20
623.0468967013888
 30
0.0
 10
125.6832845052083
 20
623.6139594184027
 30
0.0
 10
125.823499891493
 20
623.4386040581596
 30
0.0
 10
126.0147026909722
 20
623.4065646701388
 30
0.0
 10
126.2313991970486
 20
623.3779703776041
 30
0.0
 10
126.5948567708333
 20
623.3269829644097
 30
0.0
 10
126.8687418619792
 20
623.2790961371527
 30
0.0
 10
126.8019070095486
 20
623.75107421875
 30
0.0
 10
126.906982421875
 20
623.3845160590278
 30
0.0
 10
127.4072102864583
 20
623.3590223524305
 30
0.0
 10
127.6941867404514
 20
623.2157063802083
 30
0.0
 10
127.8757432725694
 20
623.1261338975694
 30
0.0
 10
128.000111219618
 20
622.960769314236
 30
0.0
 10
128.1975151909722
 20
622.8842881944444
 30
0.0
 10
128.4779459635417
 20
622.7757676866319
 30
0.0
 10
128.8317572699653
 20
622.7726671006944
 30
0.0
 10
129.1280354817708
 20
622.7058322482638
 30
0.0
 10
129.9183403862847
 20
622.5304768880208
 30
0.0
 10
130.7754801432291
 20
622.444349500868
 30
0.0
 10
131.5850775824653
 20
622.3168809678818
 30
0.0
 10
132.5410915798611
 20
622.1573730468749
 30
0.0
 10
133.506751844618
 20
622.1384250217013
 30
0.0
 10
134.4624213324653
 20
621.9665147569444
 30
0.0
 10
135.466322157118
 20
621.7942599826388
 30
0.0
 10
136.5625515407986
 20
621.7494737413194
 30
0.0
 10
137.585400390625
 20
621.6474989149305
 30
0.0
 10
138.0187934027778
 20
621.596511501736
 30
0.0
 10
138.3884521484375
 20
621.5393229166666
 30
0.0
 10
138.8028971354167
 20
621.4180555555555
 30
0.0
 10
139.1691107855903
 20
621.3098795572917
 30
0.0
 10
139.3475667317708
 20
621.3643120659722
 30
0.0
 10
139.5770100911458
 20
621.7239800347222
 30
0.0
  0
SPLINE
  5
E2
330
A
100
AcDbEntity
  8
LAYER_1
 62
     7
100
AcDbSpline
210
0.0
220
0.0
230
1.0
 70
     8
 71
     3
 72
    32
 73
    28
 74
     0
 42
0.000000001
 43
0.00000001
 40
0.0
 40
0.0
 40
0.0
 40
0.0
 40
1.0
 40
1.0
 40
1.0
 40
2.0
 40
2.0
 40
2.0
 40
3.0
 40
3.0
 40
3.0
 40
4.0
 40
4.0
 40
4.0
 40
5.0
 40
5.0
 40
5.0
 40
6.0
 40
6.0
 40
6.0
 40
7.0
 40
7.0
 40
7.0
 40
8.0
 40
8.0
 40
8.0
 40
9.0
 40
9.0
 40
9.0
 40
9.0
 10
140.7562662760417
 20
625.8574055989583
 30
0.0
 10
141.2182535807291
 20
625.7519856770833
 30
0.0
 10
141.5689643012153
 20
625.6820502387152
 30
0.0
 10
141.5624186197917
 20
625.14013671875
 30
0.0
 10
141.5593180338541
 20
624.8597059461805
 30
0.0
 10
141.3905083550347
 20
624.3308837890625
 30
0.0
 10
140.9760633680555
 20
624.5282877604166
 30
0.0
 10
141.2788872612847
 20
624.3818712022569
 30
0.0
 10
141.6134060329861
 20
624.3119357638889
 30
0.0
 10
141.890736219618
 20
624.1141872829861
 30
0.0
 10
142.2445475260417
 20
623.8654513888888
 30
0.0
 10
142.467445203993
 20
623.4926920572916
 30
0.0
 10
142.7544216579861
 20
623.1709201388888
 30
0.0
 10
143.037953016493
 20
622.8587944878471
 30
0.0
 10
143.4300048828125
 20
622.6672471788194
 30
0.0
 10
143.66875
 20
622.3168809678818
 30
0.0
 10
143.9205864800347
 20
621.9568684895833
 30
0.0
 10
144.0194607204861
 20
621.4755886501736
 30
0.0
 10
143.9746744791667
 20
621.0421956380208
 30
0.0
 10
143.8823459201389
 20
620.1244222005208
 30
0.0
 10
142.5342800564236
 20
620.8351453993055
 30
0.0
 10
141.9989122178819
 20
620.908181423611
 30
0.0
 10
141.7184814453125
 20
620.9529676649305
 30
0.0
 10
141.3584689670139
 20
620.8289442274305
 30
0.0
 10
141.1066324869792
 20
620.9657145182291
 30
0.0
 10
140.9123291015625
 20
621.067689344618
 30
0.0
 10
140.5268229166666
 20
621.4945366753471
 30
0.0
 10
140.4982286241319
 20
621.7239800347222
 30
0.0
  0
SPLINE
  5
E1
330
A
100
AcDbEntity
  8
LAYER_1
 62
     7
100
AcDbSpline
210
0.0
220
0.0
230
1.0
 70
     8
 71
     3
 72
    32
 73
    28
 74
     0
 42
0.000000001
 43
0.00000001
 40
0.0
 40
0.0
 40
0.0
 40
0.0
 40
1.0
 40
1.0
 40
1.0
 40
2.0
 40
2.0
 40
2.0
 40
3.0
 40
3.0
 40
3.0
 40
4.0
 40
4.0
 40
4.0
 40
5.0
 40
5.0
 40
5.0
 40
6.0
 40
6.0
 40
6.0
 40
7.0
 40
7.0
 40
7.0
 40
8.0
 40
8.0
 40
8.0
 40
9.0
 40
9.0
 40
9.0
 40
9.0
 10
141.5655192057291
 20
628.180433485243
 30
0.0
 10
141.7408745659722
 20
627.9254964192708
 30
0.0
 10
141.8366482204861
 20
627.549636501736
 30
0.0
 10
141.9224310980903
 20
627.2595594618055
 30
0.0
 10
142.062646484375
 20
626.7717339409721
 30
0.0
 10
142.0753933376736
 20
626.6253173828125
 30
0.0
 10
142.6014594184028
 20
626.7848253038194
 30
0.0
 10
142.9838650173611
 20
626.8992024739583
 30
0.0
 10
143.0600016276042
 20
627.2816080729166
 30
0.0
 10
143.2419026692708
 20
627.6068250868055
 30
0.0
 10
143.439306640625
 20
627.950990125868
 30
0.0
 10
143.6370551215278
 20
628.2889539930555
 30
0.0
 10
143.8248128255208
 20
628.6327745225694
 30
0.0
 10
144.0287624782986
 20
629.0089789496527
 30
0.0
 10
144.1755235460069
 20
629.3848388671875
 30
0.0
 10
144.357080078125
 20
629.7672444661458
 30
0.0
 10
144.5517279730903
 20
630.1623969184027
 30
0.0
 10
144.6151177300347
 20
630.5957899305555
 30
0.0
 10
144.809765625
 20
630.9909423828125
 30
0.0
 10
144.9658284505208
 20
631.3034125434027
 30
0.0
 10
145.1504855685764
 20
631.4722222222222
 30
0.0
 10
145.0264621310764
 20
631.8449815538194
 30
0.0
 10
144.9341335720486
 20
632.1316134982638
 30
0.0
 10
144.7012451171875
 20
632.4251356336805
 30
0.0
 10
144.5100423177083
 20
632.6545789930555
 30
0.0
 10
144.2616509331597
 20
632.9667046440971
 30
0.0
 10
144.0225613064236
 20
633.0879720052083
 30
0.0
 10
143.6305094401042
 20
633.1706542968749
 30
0.0
  0
SPLINE
  5
E0
330
A
100
AcDbEntity
  8
LAYER_1
 62
     7
100
AcDbSpline
210
0.0
220
0.0
230
1.0
 70
     8
 71
     3
 72
   278
 73
   274
 74
     0
 42
0.000000001
 43
0.00000001
 40
0.0
 40
0.0
 40
0.0
 40
0.0
 40
1.0
 40
1.0
 40
1.0
 40
2.0
 40
2.0
 40
2.0
 40
3.0
 40
3.0
 40
3.0
 40
4.0
 40
4.0
 40
4.0
 40
5.0
 40
5.0
 40
5.0
 40
6.0
 40
6.0
 40
6.0
 40
7.0
 40
7.0
 40
7.0
 40
8.0
 40
8.0
 40
8.0
 40
9.0
 40
9.0
 40
9.0
 40
10.0
 40
10.0
 40
10.0
 40
11.0
 40
11.0
 40
11.0
 40
12.0
 40
12.0
 40
12.0
 40
13.0
 40
13.0
 40
13.0
 40
14.0
 40
14.0
 40
14.0
 40
15.0
 40
15.0
 40
15.0
 40
16.0
 40
16.0
 40
16.0
 40
17.0
 40
17.0
 40
17.0
 40
18.0
 40
18.0
 40
18.0
 40
19.0
 40
19.0
 40
19.0
 40
20.0
 40
20.0
 40
20.0
 40
21.0
 40
21.0
 40
21.0
 40
22.0
 40
22.0
 40
22.0
 40
23.0
 40
23.0
 40
23.0
 40
24.0
 40
24.0
 40
24.0
 40
25.0
 40
25.0
 40
25.0
 40
26.0
 40
26.0
 40
26.0
 40
27.0
 40
27.0
 40
27.0
 40
28.0
 40
28.0
 40
28.0
 40
29.0
 40
29.0
 40
29.0
 40
30.0
 40
30.0
 40
30.0
 40
31.0
 40
31.0
 40
31.0
 40
32.0
 40
32.0
 40
32.0
 40
33.0
 40
33.0
 40
33.0
 40
34.0
 40
34.0
 40
34.0
 40
35.0
 40
35.0
 40
35.0
 40
36.0
 40
36.0
 40
36.0
 40
37.0
 40
37.0
 40
37.0
 40
38.0
 40
38.0
 40
38.0
 40
39.0
 40
39.0
 40
39.0
 40
40.0
 40
40.0
 40
40.0
 40
41.0
 40
41.0
 40
41.0
 40
42.0
 40
42.0
 40
42.0
 40
43.0
 40
43.0
 40
43.0
 40
44.0
 40
44.0
 40
44.0
 40
45.0
 40
45.0
 40
45.0
 40
46.0
 40
46.0
 40
46.0
 40
47.0
 40
47.0
 40
47.0
 40
48.0
 40
48.0
 40
48.0
 40
49.0
 40
49.0
 40
49.0
 40
50.0
 40
50.0
 40
50.0
 40
51.0
 40
51.0
 40
51.0
 40
52.0
 40
52.0
 40
52.0
 40
53.0
 40
53.0
 40
53.0
 40
54.0
 40
54.0
 40
54.0
 40
55.0
 40
55.0
 40
55.0
 40
56.0
 40
56.0
 40
56.0
 40
57.0
 40
57.0
 40
57.0
 40
58.0
 40
58.0
 40
58.0
 40
59.0
 40
59.0
 40
59.0
 40
60.0
 40
60.0
 40
60.0
 40
61.0
 40
61.0
 40
61.0
 40
62.0
 40
62.0
 40
62.0
 40
63.0
 40
63.0
 40
63.0
 40
64.0
 40
64.0
 40
64.0
 40
65.0
 40
65.0
 40
65.0
 40
66.0
 40
66.0
 40
66.0
 40
67.0
 40
67.0
 40
67.0
 40
68.0
 40
68.0
 40
68.0
 40
69.0
 40
69.0
 40
69.0
 40
70.0
 40
70.0
 40
70.0
 40
71.0
 40
71.0
 40
71.0
 40
72.0
 40
72.0
 40
72.0
 40
73.0
 40
73.0
 40
73.0
 40
74.0
 40
74.0
 40
74.0
 40
75.0
 40
75.0
 40
75.0
 40
76.0
 40
76.0
 40
76.0
 40
77.0
 40
77.0
 40
77.0
 40
78.0
 40
78.0
 40
78.0
 40
79.0
 40
79.0
 40
79.0
 40
80.0
 40
80.0
 40
80.0
 40
81.0
 40
81.0
 40
81.0
 40
82.0
 40
82.0
 40
82.0
 40
83.0
 40
83.0
 40
83.0
 40
84.0
 40
84.0
 40
84.0
 40
85.0
 40
85.0
 40
85.0
 40
86.0
 40
86.0
 40
86.0
 40
87.0
 40
87.0
 40
87.0
 40
88.0
 40
88.0
 40
88.0
 40
89.0
 40
89.0
 40
89.0
 40
90.0
 40
90.0
 40
90.0
 40
91.0
 40
91.0
 40
91.0
 40
91.0
 10
72.58712836371527
 20
626.9439887152777
 30
0.0
 10
72.55853407118055
 20
626.574329969618
 30
0.0
 10
72.74009060329861
 20
626.0834038628471
 30
0.0
 10
73.16073676215277
 20
626.0644558376736
 30
0.0
 10
73.43806694878471
 20
626.0455078125
 30
0.0
 10
73.81737196180555
 20
626.2108723958332
 30
0.0
 10
74.08815646701389
 20
626.2684054904513
 30
0.0
 10
74.35894097222221
 20
625.9624810112847
 30
0.0
 10
74.39408094618055
 20
625.5035942925347
 30
0.0
 10
74.88156195746527
 20
625.5225423177083
 30
0.0
 10
75.34044867621527
 20
625.5290879991319
 30
0.0
 10
75.63362630208333
 20
625.8953016493055
 30
0.0
 10
76.03497992621527
 20
626.0324164496527
 30
0.0
 10
76.3984375
 20
626.1567843967014
 30
0.0
 10
76.5193603515625
 20
625.9180392795138
 30
0.0
 10
76.81908365885415
 20
625.7774793836805
 30
0.0
 10
76.93380533854166
 20
625.7264919704861
 30
0.0
 10
77.15670301649305
 20
625.7009982638888
 30
0.0
 10
77.24593098958333
 20
625.6086697048611
 30
0.0
 10
77.37994520399305
 20
625.4781005859375
 30
0.0
 10
77.31931152343749
 20
625.3220377604166
 30
0.0
 10
77.41508517795138
 20
625.1849229600693
 30
0.0
 10
77.6634765625
 20
624.8342122395833
 30
0.0
 10
78.19574381510417
 20
624.9747721354166
 30
0.0
 10
78.45378146701388
 20
625.2297092013888
 30
0.0
 10
78.68012424045138
 20
625.4398600260416
 30
0.0
 10
78.97330186631943
 20
625.497048611111
 30
0.0
 10
79.20584581163193
 20
625.7395833333333
 30
0.0
 10
79.19964463975694
 20
625.5831759982639
 30
0.0
 10
79.03703613281249
 20
625.2297092013888
 30
0.0
 10
79.11661783854166
 20
625.0891493055555
 30
0.0
 10
79.20584581163193
 20
624.9361870659721
 30
0.0
 10
79.6264919704861
 20
624.8535047743055
 30
0.0
 10
79.79530164930554
 20
624.8152642144097
 30
0.0
 10
79.91346842447916
 20
624.7832248263888
 30
0.0
 10
80.01854383680555
 20
624.7291368272569
 30
0.0
 10
80.14291178385416
 20
624.7546305338541
 30
0.0
 10
80.30517578124999
 20
624.7928710937499
 30
0.0
 10
80.28622775607639
 20
624.9044921875
 30
0.0
 10
80.41025119357639
 20
624.9616807725694
 30
0.0
 10
80.68448079427083
 20
625.0891493055555
 30
0.0
 10
81.03829210069443
 20
625.0478081597222
 30
0.0
 10
81.28668348524305
 20
624.8597059461805
 30
0.0
 10
81.25154351128471
 20
624.9809733072916
 30
0.0
 10
81.2356960720486
 20
625.1466824001735
 30
0.0
 10
81.20055609809027
 20
625.2359103732638
 30
0.0
 10
81.29012858072916
 20
624.5951226128471
 30
0.0
 10
81.66288791232638
 20
624.4807454427083
 30
0.0
 10
82.2619900173611
 20
624.4552517361111
 30
0.0
 10
82.35741916232638
 20
624.4487060546875
 30
0.0
 10
82.57721625434027
 20
624.4201117621527
 30
0.0
 10
82.66334364149304
 20
624.4552517361111
 30
0.0
 10
82.76841905381944
 20
624.4996934678819
 30
0.0
 10
82.80665961371527
 20
624.6623019748263
 30
0.0
 10
82.87383897569444
 20
624.7005425347222
 30
0.0
 10
83.12877604166665
 20
624.8280110677083
 30
0.0
 10
83.36442057291666
 20
624.6206163194444
 30
0.0
 10
83.33892686631944
 20
625.0636555989582
 30
0.0
 10
83.48568793402777
 20
624.8280110677083
 30
0.0
 10
83.36752115885416
 20
624.6368082682291
 30
0.0
 10
83.68963758680555
 20
624.5348334418402
 30
0.0
 10
83.96352267795137
 20
624.4456054687499
 30
0.0
 10
84.24085286458333
 20
624.6082139756944
 30
0.0
 10
84.51163736979166
 20
624.4328586154513
 30
0.0
 10
84.82720811631944
 20
624.2416558159722
 30
0.0
 10
85.0215115017361
 20
623.7955159505208
 30
0.0
 10
85.40081651475694
 20
623.7124891493055
 30
0.0
 10
85.73223470052082
 20
623.6394531249999
 30
0.0
 10
85.929638671875
 20
623.7858696831597
 30
0.0
 10
85.84041069878471
 20
624.1141872829861
 30
0.0
 10
85.90724555121527
 20
623.4513509114582
 30
0.0
 10
86.43951280381944
 20
624.0122124565971
 30
0.0
 10
86.69134928385417
 20
624.0631998697916
 30
0.0
 10
86.92079264322916
 20
624.107986111111
 30
0.0
 10
87.0737548828125
 20
623.9612250434027
 30
0.0
 10
87.27115885416666
 20
623.8943901909722
 30
0.0
 10
87.48165418836805
 20
623.821009657118
 30
0.0
 10
87.70455186631943
 20
623.8082628038194
 30
0.0
 10
87.92469346788194
 20
623.7889702690971
 30
0.0
 10
88.5778835720486
 20
623.7379828559027
 30
0.0
 10
89.19937879774305
 20
623.5023383246527
 30
0.0
 10
89.81742892795138
 20
623.3045898437499
 30
0.0
 10
90.45167100694444
 20
623.1006401909722
 30
0.0
 10
90.62048068576388
 20
623.1709201388888
 30
0.0
 10
90.72555609809027
 20
623.8275553385416
 30
0.0
 10
90.90401204427083
 20
623.7062879774305
 30
0.0
 10
90.91675889756944
 20
623.5309326171874
 30
0.0
 10
91.03802625868055
 20
623.3941623263888
 30
0.0
 10
91.18134223090277
 20
623.2281087239583
 30
0.0
 10
91.41078559027777
 20
623.1199327256944
 30
0.0
 10
91.61163465711805
 20
622.9924641927083
 30
0.0
 10
92.02918023003471
 20
622.737527126736
 30
0.0
 10
92.49426812065971
 20
622.6293511284722
 30
0.0
 10
92.98484971788194
 20
622.5370225694444
 30
0.0
 10
93.65733235677082
 20
622.4188557942708
 30
0.0
 10
94.37115614149305
 20
622.2531467013888
 30
0.0
 10
95.05948621961805
 20
622.2180067274305
 30
0.0
 10
95.61724717881944
 20
622.1894124348958
 30
0.0
 10
95.45773925781249
 20
622.5718180338541
 30
0.0
 10
95.77020941840277
 20
622.8649956597221
 30
0.0
 10
95.63964029947915
 20
622.737527126736
 30
0.0
 10
96.37895779079861
 20
622.1511718749999
 30
0.0
 10
96.4871337890625
 20
622.1036295572916
 30
0.0
 10
96.81235080295139
 20
621.9534233940972
 30
0.0
 10
97.17856445312499
 20
621.9982096354166
 30
0.0
 10
97.51962890624999
 20
621.91552734375
 30
0.0
 10
97.98161621093749
 20
621.8070068359375
 30
0.0
 10
98.43085666232638
 20
621.7687662760416
 30
0.0
 10
98.88974338107639
 20
621.6474989149305
 30
0.0
 10
99.21806098090276
 20
621.5520697699652
 30
0.0
 10
99.56877170138888
 20
621.3960069444444
 30
0.0
 10
99.90949164496527
 20
621.5200303819444
 30
0.0
 10
100.3683783637153
 20
621.6891845703125
 30
0.0
 10
100.1806206597222
 20
622.0299045138888
 30
0.0
 10
100.2887966579861
 20
622.3999077690971
 30
0.0
 10
100.4004177517361
 20
622.0109564887152
 30
0.0
 10
100.502392578125
 20
621.8707411024305
 30
0.0
 10
100.7921251085069
 20
621.5775634765624
 30
0.0
 10
100.9164930555555
 20
621.4500949435763
 30
0.0
 10
100.9516330295139
 20
621.3353732638889
 30
0.0
 10
101.1235432942708
 20
621.2430447048611
 30
0.0
 10
101.372279188368
 20
621.1121310763888
 30
0.0
 10
102.290052625868
 20
620.7552191840277
 30
0.0
 10
102.4302680121528
 20
621.1696641710068
 30
0.0
 10
102.637318250868
 20
620.8351453993055
 30
0.0
 10
102.8733072916667
 20
620.77451171875
 30
0.0
 10
103.2236735026042
 20
620.6725368923611
 30
0.0
 10
103.6539659288194
 20
620.5485134548611
 30
0.0
 10
103.950244140625
 20
620.3283718532986
 30
0.0
 10
104.2244737413194
 20
620.8413465711805
 30
0.0
 10
104.5620930989583
 20
620.5002821180555
 30
0.0
 10
105.5594482421875
 20
619.850537109375
 30
0.0
 10
105.9831949869792
 20
620.3728135850694
 30
0.0
 10
106.1616509331597
 20
619.9394205729166
 30
0.0
 10
106.7703993055555
 20
619.63349609375
 30
0.0
 10
107.232386610243
 20
619.6941297743055
 30
0.0
 10
107.3887939453125
 20
619.7134223090277
 30
0.0
 10
107.4842230902778
 20
619.8408908420138
 30
0.0
 10
107.6309841579861
 20
619.8567382812499
 30
0.0
 10
107.8380343967014
 20
619.8822319878471
 30
0.0
 10
107.9114149305556
 20
619.7930040147569
 30
0.0
 10
108.1153645833333
 20
619.7006754557291
 30
0.0
 10
108.4688313802083
 20
619.5253200954861
 30
0.0
 10
108.650732421875
 20
619.6145480685764
 30
0.0
 10
108.9948974609375
 20
619.7006754557291
 30
0.0
 10
109.4410373263889
 20
619.8119520399305
 30
0.0
 10
109.4537841796875
 20
619.5060275607639
 30
0.0
 10
109.8551378038194
 20
619.3596110026041
 30
0.0
 10
110.1197211371528
 20
619.2641818576388
 30
0.0
 10
110.5975558810764
 20
619.1463595920138
 30
0.0
 10
110.8779866536458
 20
619.1301676432291
 30
0.0
 10
111.0278483072917
 20
619.1208658854166
 30
0.0
 10
111.06298828125
 20
619.1811550564236
 30
0.0
 10
111.1935574001736
 20
619.1877007378472
 30
0.0
 10
111.4546956380208
 20
619.2066487630208
 30
0.0
 10
111.4515950520833
 20
619.1236219618055
 30
0.0
 10
111.6937852647569
 20
619.0347384982638
 30
0.0
 10
111.8405463324653
 20
618.9837510850693
 30
0.0
 10
111.9680148654514
 20
619.0281928168403
 30
0.0
 10
112.1113308376736
 20
618.9961534288194
 30
0.0
 10
112.3438747829861
 20
618.945166015625
 30
0.0
 10
112.4234564887153
 20
618.7667100694443
 30
0.0
 10
112.627406141493
 20
618.6840277777777
 30
0.0
 10
112.7645209418403
 20
618.6171929253471
 30
0.0
 10
112.9908637152778
 20
618.5820529513888
 30
0.0
 10
113.1341796875
 20
618.6523328993055
 30
0.0
 10
113.2743950737847
 20
618.7157226562499
 30
0.0
 10
113.3064344618056
 20
618.9803059895833
 30
0.0
 10
113.363623046875
 20
619.002699110243
 30
0.0
 10
113.3701687282986
 20
619.0188910590277
 30
0.0
 10
113.3701687282986
 20
619.0378390842013
 30
0.0
 10
113.3667236328125
 20
619.0602322048611
 30
0.0
 10
113.4941921657986
 20
618.6523328993055
 30
0.0
 10
114.2176622178819
 20
618.4035970052083
 30
0.0
 10
114.6255615234375
 20
618.2568359375
 30
0.0
 10
114.9314860026042
 20
618.154861111111
 30
0.0
 10
115.2694498697917
 20
618.0501302083333
 30
0.0
 10
115.5881212022569
 20
617.9894965277778
 30
0.0
 10
115.9894748263889
 20
617.9130154079861
 30
0.0
 10
116.0532090928819
 20
617.9064697265625
 30
0.0
 10
116.34638671875
 20
618.1803548177082
 30
0.0
 10
116.6778049045139
 20
617.689773220486
 30
0.0
 10
116.7956271701389
 20
617.4761773003472
 30
0.0
 10
117.4298692491319
 20
617.6070909288194
 30
0.0
 10
117.6655137803819
 20
617.6518771701388
 30
0.0
 10
117.7740342881944
 20
617.6642795138888
 30
0.0
 10
118.016224500868
 20
617.6387858072916
 30
0.0
 10
118.3476426866319
 20
617.6132921006944
 30
0.0
 10
118.3445421006944
 20
617.556103515625
 30
0.0
 10
118.4623643663194
 20
617.9130154079861
 30
0.0
 10
118.5419460720486
 20
617.6325846354166
 30
0.0
 10
118.7779351128472
 20
617.6642795138888
 30
0.0
 10
118.9467447916667
 20
617.5178629557291
 30
0.0
 10
119.1858344184028
 20
617.3139133029513
 30
0.0
 10
119.2526692708333
 20
617.1099636501735
 30
0.0
 10
119.5902886284722
 20
616.9824951171875
 30
0.0
 10
119.7783908420139
 20
616.9091145833332
 30
0.0
 10
120.0429741753472
 20
616.7657986111111
 30
0.0
 10
120.2372775607639
 20
616.873974609375
 30
0.0
 10
120.4412272135417
 20
616.9890407986111
 30
0.0
 10
120.4126329210069
 20
617.2756727430555
 30
0.0
 10
120.5717963324653
 20
617.4158881293403
 30
0.0
 10
120.5528483072917
 20
617.3297607421874
 30
0.0
 10
120.5910888671875
 20
617.2022922092013
 30
0.0
 10
120.5814425998264
 20
617.1165093315972
 30
0.0
 10
120.8587727864583
 20
617.1227105034721
 30
0.0
 10
121.0785698784722
 20
616.9759494357638
 30
0.0
 10
121.1264567057292
 20
617.3459526909721
 30
0.0
 10
121.3621012369792
 20
616.5969889322917
 30
0.0
 10
121.7765462239583
 20
616.5301540798611
 30
0.0
 10
122.4583306206597
 20
616.3675455729166
 30
0.0
 10
122.7422064887153
 20
616.3007107204861
 30
0.0
 10
123.1659532335069
 20
616.0264811197916
 30
0.0
 10
123.4429389105903
 20
616.067822265625
 30
0.0
 10
123.7778021918403
 20
616.1157090928818
 30
0.0
 10
123.9752061631944
 20
616.5491021050346
 30
0.0
 10
124.2239420572917
 20
616.7403049045138
 30
0.0
 10
124.5391682942708
 20
616.4405815972221
 30
0.0
 10
124.7431179470486
 20
616.0485297309027
 30
0.0
 10
125.1927029079861
 20
615.8735188802083
 30
0.0
 10
125.3487657335069
 20
615.8128851996527
 30
0.0
 10
125.5461697048611
 20
615.7618977864582
 30
0.0
 10
125.7025770399305
 20
615.8352783203125
 30
0.0
 10
125.8810329861111
 20
615.9117594401041
 30
0.0
 10
125.9158284505208
 20
616.2111382378472
 30
0.0
 10
126.10703125
 20
616.2559244791667
 30
0.0
 10
126.3812608506944
 20
616.3165581597221
 30
0.0
 10
127.018603515625
 20
615.6440755208333
 30
0.0
 10
127.3403754340278
 20
615.5386555989583
 30
0.0
 10
127.7579210069444
 20
615.4084309895833
 30
0.0
 10
128.172021484375
 20
615.2489230685763
 30
0.0
 10
128.4779459635417
 20
615.5930881076388
 30
0.0
 10
128.6849962022569
 20
615.0005316840277
 30
0.0
 10
129.6792507595486
 20
615.1149088541666
 30
0.0
 10
130.1956705729167
 20
614.9939860026041
 30
0.0
 10
130.6225179036458
 20
614.8985568576388
 30
0.0
 10
131.4479627821181
 20
614.5416449652777
 30
0.0
 10
131.607470703125
 20
615.2010362413193
 30
0.0
 10
131.8717095269097
 20
615.1280002170138
 30
0.0
 10
132.0470648871528
 20
614.7803900824653
 30
0.0
 10
132.3977756076389
 20
614.69736328125
 30
0.0
 10
132.7164469401042
 20
614.6181260850694
 30
0.0
 10
132.9806857638889
 20
614.6594672309027
 30
0.0
 10
133.283509657118
 20
614.6656684027777
 30
0.0
 10
133.7138020833333
 20
614.6718695746528
 30
0.0
 10
133.9911322699653
 20
614.4396701388888
 30
0.0
 10
134.3766384548611
 20
614.2991102430555
 30
0.0
 10
135.2337782118055
 20
613.9997314453125
 30
0.0
 10
136.1928927951389
 20
614.2226291232638
 30
0.0
 10
137.072425672743
 20
614.1716417100694
 30
0.0
 10
137.531312391493
 20
614.1526936848958
 30
0.0
 10
137.9009711371528
 20
613.776833767361
 30
0.0
 10
138.3757052951389
 20
613.8305772569444
 30
0.0
 10
138.6626817491319
 20
613.8657172309028
 30
0.0
 10
138.7167697482639
 20
614.0507188585069
 30
0.0
 10
138.9272650824653
 20
614.1654405381944
 30
0.0
 10
139.2362901475694
 20
614.3311496310763
 30
0.0
 10
139.3985541449653
 20
614.1461480034721
 30
0.0
 10
139.6951768663194
 20
614.0317708333333
 30
0.0
 10
139.9246202256944
 20
613.9421983506944
 30
0.0
 10
140.1633653428819
 20
613.8498697916666
 30
0.0
 10
140.4055555555555
 20
613.8116292317708
 30
0.0
 10
140.6511908637153
 20
613.7637424045138
 30
0.0
 10
140.8995822482639
 20
613.8498697916666
 30
0.0
 10
141.0907850477431
 20
613.8147298177083
 30
0.0
 10
141.4349500868055
 20
613.7447943793402
 30
0.0
 10
142.1839138454861
 20
613.3813368055555
 30
0.0
 10
142.2634955512153
 20
614.0731119791666
 30
0.0
 10
142.2572943793403
 20
613.9869845920139
 30
0.0
 10
143.2546495225694
 20
613.6555664062499
 30
0.0
 10
143.3659261067708
 20
613.6362738715277
 30
0.0
 10
143.7483317057292
 20
613.5694390190972
 30
0.0
 10
144.1372829861111
 20
613.6748589409722
 30
0.0
 10
144.3443332248264
 20
614.0186794704861
 30
0.0
  0
SPLINE
  5
DF
330
A
100
AcDbEntity
  8
LAYER_1
 62
     7
100
AcDbSpline
210
0.0
220
0.0
230
1.0
 70
     8
 71
     3
 72
    86
 73
    82
 74
     0
 42
0.000000001
 43
0.00000001
 40
0.0
 40
0.0
 40
0.0
 40
0.0
 40
1.0
 40
1.0
 40
1.0
 40
2.0
 40
2.0
 40
2.0
 40
3.0
 40
3.0
 40
3.0
 40
4.0
 40
4.0
 40
4.0
 40
5.0
 40
5.0
 40
5.0
 40
6.0
 40
6.0
 40
6.0
 40
7.0
 40
7.0
 40
7.0
 40
8.0
 40
8.0
 40
8.0
 40
9.0
 40
9.0
 40
9.0
 40
10.0
 40
10.0
 40
10.0
 40
11.0
 40
11.0
 40
11.0
 40
12.0
 40
12.0
 40
12.0
 40
13.0
 40
13.0
 40
13.0
 40
14.0
 40
14.0
 40
14.0
 40
15.0
 40
15.0
 40
15.0
 40
16.0
 40
16.0
 40
16.0
 40
17.0
 40
17.0
 40
17.0
 40
18.0
 40
18.0
 40
18.0
 40
19.0
 40
19.0
 40
19.0
 40
20.0
 40
20.0
 40
20.0
 40
21.0
 40
21.0
 40
21.0
 40
22.0
 40
22.0
 40
22.0
 40
23.0
 40
23.0
 40
23.0
 40
24.0
 40
24.0
 40
24.0
 40
25.0
 40
25.0
 40
25.0
 40
26.0
 40
26.0
 40
26.0
 40
27.0
 40
27.0
 40
27.0
 40
27.0
 10
129.4467068142361
 20
554.9159993489583
 30
0.0
 10
128.97197265625
 20
555.1898844401042
 30
0.0
 10
128.8255560980903
 20
555.4351752387153
 30
0.0
 10
128.9113389756944
 20
555.9577962239583
 30
0.0
 10
129.0164143880208
 20
556.556898328993
 30
0.0
 10
129.0928955078125
 20
557.1401529947916
 30
0.0
 10
129.1631754557291
 20
557.74580078125
 30
0.0
 10
129.2334554036458
 20
558.3414577907986
 30
0.0
 10
129.3288845486111
 20
558.9150661892361
 30
0.0
 10
129.3957194010416
 20
559.5076226128472
 30
0.0
 10
129.5138861762153
 20
560.5849039713542
 30
0.0
 10
129.4914930555555
 20
561.7510687934027
 30
0.0
 10
129.7974175347222
 20
562.809402126736
 30
0.0
 10
129.8769992404514
 20
563.0736409505208
 30
0.0
 10
129.9851752387153
 20
563.2937825520833
 30
0.0
 10
130.0330620659722
 20
563.5611219618055
 30
0.0
 10
130.0809488932292
 20
563.841552734375
 30
0.0
 10
130.0330620659722
 20
564.1509223090277
 30
0.0
 10
130.1126437717014
 20
564.4248074001736
 30
0.0
 10
130.2690511067708
 20
565.0111626519097
 30
0.0
 10
130.6004692925347
 20
565.2595540364583
 30
0.0
 10
130.9732286241319
 20
565.6454047309028
 30
0.0
 10
131.2281656901042
 20
565.9127441406249
 30
0.0
 10
131.6743055555555
 20
566.3943684895833
 30
0.0
 10
131.7666341145833
 20
566.7416341145832
 30
0.0
 10
131.8272677951389
 20
566.942138671875
 30
0.0
 10
131.7156467013889
 20
567.1495334201388
 30
0.0
 10
131.8272677951389
 20
567.3534830729166
 30
0.0
 10
131.9354437934028
 20
567.5605333116318
 30
0.0
 10
132.1776340060764
 20
567.5415852864583
 30
0.0
 10
132.2734076605903
 20
567.6911024305555
 30
0.0
 10
132.5379909939236
 20
568.1086480034721
 30
0.0
 10
132.2351671006944
 20
569.5232042100694
 30
0.0
 10
133.2387234157986
 20
568.7425455729166
 30
0.0
 10
133.7775363498264
 20
568.322243923611
 30
0.0
 10
133.5511935763889
 20
566.942138671875
 30
0.0
 10
133.6087266710069
 20
566.3271891276041
 30
0.0
 10
133.7871826171875
 20
566.6617078993055
 30
0.0
 10
133.6149278428819
 20
567.0854546440971
 30
0.0
 10
133.7520426432291
 20
567.4044704861111
 30
0.0
 10
133.8636637369792
 20
567.6690538194443
 30
0.0
 10
134.1055094401042
 20
567.8027235243055
 30
0.0
 10
134.4624213324653
 20
567.9143446180555
 30
0.0
 10
135.2306776258681
 20
568.1561903211805
 30
0.0
 10
135.1507514105903
 20
567.4141167534722
 30
0.0
 10
135.4408284505208
 20
566.8560112847222
 30
0.0
 10
135.584144422743
 20
567.0599609374999
 30
0.0
 10
135.6385769314236
 20
567.3024956597221
 30
0.0
 10
135.6478786892361
 20
567.5443413628471
 30
0.0
 10
136.0175374348958
 20
567.576380750868
 30
0.0
 10
136.3937418619792
 20
567.2356608072917
 30
0.0
 10
136.725160047743
 20
567.0854546440971
 30
0.0
 10
137.3625027126736
 20
566.7988226996528
 30
0.0
 10
137.8213894314236
 20
566.5245930989582
 30
0.0
 10
138.3884521484375
 20
566.1456325954861
 30
0.0
 10
138.8983262803819
 20
565.8045681423611
 30
0.0
 10
139.3861518012153
 20
565.3711751302083
 30
0.0
 10
139.9501139322917
 20
565.1162380642361
 30
0.0
 10
140.5905571831597
 20
564.8165147569443
 30
0.0
 10
141.3171278211805
 20
564.6890462239583
 30
0.0
 10
141.9927110460069
 20
564.5171359592014
 30
0.0
 10
142.5280788845486
 20
564.3769205729166
 30
0.0
 10
143.0059136284722
 20
564.3386800130207
 30
0.0
 10
143.5412814670139
 20
564.2749457465277
 30
0.0
 10
144.0766493055555
 20
564.2112114800346
 30
0.0
 10
144.2805989583333
 20
563.8959852430555
 30
0.0
 10
144.6757514105903
 20
563.5676676432291
 30
0.0
 10
145.5235894097222
 20
562.8727918836805
 30
0.0
 10
146.2722086588541
 20
562.7198296440972
 30
0.0
 10
146.3996771918403
 20
561.4837293836805
 30
0.0
 10
146.4761583116319
 20
560.7251193576388
 30
0.0
 10
146.7600341796875
 20
560.0622829861111
 30
0.0
 10
146.7727810329861
 20
559.2657769097221
 30
0.0
 10
146.7789822048611
 20
558.5357611762153
 30
0.0
 10
146.8968044704861
 20
557.7265082465277
 30
0.0
 10
146.8299696180555
 20
557.0092393663194
 30
0.0
 10
146.7662353515625
 20
556.3594943576388
 30
0.0
 10
146.3710828993055
 20
556.1169596354166
 30
0.0
 10
145.8836018880208
 20
555.8175808376735
 30
0.0
 10
145.4695014105903
 20
555.5560980902777
 30
0.0
 10
145.0870958116319
 20
554.9222005208333
 30
0.0
 10
144.6151177300347
 20
554.8743136935764
 30
0.0
  0
SPLINE
  5
DE
330
A
100
AcDbEntity
  8
LAYER_1
 62
     7
100
AcDbSpline
210
0.0
220
0.0
230
1.0
 70
     8
 71
     3
 72
    29
 73
    25
 74
     0
 42
0.000000001
 43
0.00000001
 40
0.0
 40
0.0
 40
0.0
 40
0.0
 40
1.0
 40
1.0
 40
1.0
 40
2.0
 40
2.0
 40
2.0
 40
3.0
 40
3.0
 40
3.0
 40
4.0
 40
4.0
 40
4.0
 40
5.0
 40
5.0
 40
5.0
 40
6.0
 40
6.0
 40
6.0
 40
7.0
 40
7.0
 40
7.0
 40
8.0
 40
8.0
 40
8.0
 40
8.0
 10
212.8097493489583
 20
576.7027832031249
 30
0.0
 10
212.7239664713541
 20
576.47333984375
 30
0.0
 10
212.4559380425347
 20
576.2091010199653
 30
0.0
 10
212.4338894314236
 20
575.9476182725693
 30
0.0
 10
212.4114963107639
 20
575.6671875
 30
0.0
 10
212.5995985243055
 20
575.4280978732638
 30
0.0
 10
212.6633327907986
 20
575.154212782118
 30
0.0
 10
212.8162950303819
 20
574.523415798611
 30
0.0
 10
212.4879774305555
 20
574.0073404947916
 30
0.0
 10
212.5455105251736
 20
573.4047932942708
 30
0.0
 10
212.8893310546875
 20
573.3889458550346
 30
0.0
 10
213.3261691623264
 20
573.376199001736
 30
0.0
 10
213.6734347873264
 20
573.3093641493055
 30
0.0
 10
214.0558403862847
 20
573.2294379340277
 30
0.0
 10
214.3393717447916
 20
572.9366048177083
 30
0.0
 10
214.7503716362847
 20
572.8821723090277
 30
0.0
 10
215.1903103298611
 20
572.8280843098958
 30
0.0
 10
215.2764377170139
 20
572.9999945746528
 30
0.0
 10
215.5727159288194
 20
573.2104899088541
 30
0.0
 10
215.8913872612847
 20
573.430287000868
 30
0.0
 10
216.0539957682292
 20
573.3634521484374
 30
0.0
 10
216.4584499782986
 20
573.4113389756944
 30
0.0
 10
218.4373128255208
 20
573.6438829210069
 30
0.0
 10
217.7427815755208
 20
575.7150743272568
 30
0.0
 10
216.6403510199653
 20
576.482986111111
 30
0.0
  0
SPLINE
  5
DD
330
A
100
AcDbEntity
  8
LAYER_1
 62
     7
100
AcDbSpline
210
0.0
220
0.0
230
1.0
 70
     8
 71
     3
 72
    32
 73
    28
 74
     0
 42
0.000000001
 43
0.00000001
 40
0.0
 40
0.0
 40
0.0
 40
0.0
 40
1.0
 40
1.0
 40
1.0
 40
2.0
 40
2.0
 40
2.0
 40
3.0
 40
3.0
 40
3.0
 40
4.0
 40
4.0
 40
4.0
 40
5.0
 40
5.0
 40
5.0
 40
6.0
 40
6.0
 40
6.0
 40
7.0
 40
7.0
 40
7.0
 40
8.0
 40
8.0
 40
8.0
 40
9.0
 40
9.0
 40
9.0
 40
9.0
 10
219.4763536241319
 20
576.4895317925346
 30
0.0
 10
219.5941758897569
 20
575.8105034722222
 30
0.0
 10
219.3712782118055
 20
575.3516167534722
 30
0.0
 10
218.969580078125
 20
574.8004014756943
 30
0.0
 10
218.5713270399305
 20
574.2526312934027
 30
0.0
 10
218.4087185329861
 20
573.8860731336805
 30
0.0
 10
218.96337890625
 20
573.4781738281249
 30
0.0
 10
219.4126193576389
 20
573.1498562282985
 30
0.0
 10
219.6772026909722
 20
572.9937934027777
 30
0.0
 10
220.2380642361111
 20
573.1309082031249
 30
0.0
 10
220.757240125868
 20
573.2549316406249
 30
0.0
 10
221.2226725260416
 20
573.4175401475694
 30
0.0
 10
221.7514946831597
 20
573.4781738281249
 30
0.0
 10
222.1118516710069
 20
573.5164143880207
 30
0.0
 10
222.6599663628472
 20
573.5229600694444
 30
0.0
 10
222.98173828125
 20
573.6693766276042
 30
0.0
 10
223.2907633463541
 20
573.8033908420139
 30
0.0
 10
223.5009141710069
 20
574.2047444661458
 30
0.0
 10
223.7751437717014
 20
574.4341878255208
 30
0.0
 10
224.1733968098958
 20
574.7652615017361
 30
0.0
 10
224.428333875868
 20
574.8389865451388
 30
0.0
 10
224.8651719835069
 20
575.0332899305555
 30
0.0
 10
225.2920193142361
 20
575.2306939019097
 30
0.0
 10
225.3619547526041
 20
575.6926812065972
 30
0.0
 10
225.1834988064236
 20
576.141921657986
 30
0.0
 10
225.0339816623264
 20
576.5150254991319
 30
0.0
 10
224.5812961154514
 20
576.7413682725694
 30
0.0
 10
224.3360053168403
 20
577.0280002170139
 30
0.0
  0
SPLINE
  5
DC
330
A
100
AcDbEntity
  8
LAYER_1
 62
     7
100
AcDbSpline
210
0.0
220
0.0
230
1.0
 70
    11
 71
     3
 72
    26
 73
    22
 74
     0
 42
0.000000001
 43
0.00000001
 40
0.0
 40
0.0
 40
0.0
 40
0.0
 40
1.0
 40
1.0
 40
1.0
 40
2.0
 40
2.0
 40
2.0
 40
3.0
 40
3.0
 40
3.0
 40
4.0
 40
4.0
 40
4.0
 40
5.0
 40
5.0
 40
5.0
 40
6.0
 40
6.0
 40
6.0
 40
7.0
 40
7.0
 40
7.0
 40
7.0
 10
144.1562310112847
 20
615.3443522135416
 30
0.0
 10
144.1979166666667
 20
615.0322265625
 30
0.0
 10
144.2489040798611
 20
614.7390489366319
 30
0.0
 10
144.2712972005208
 20
614.4265787760417
 30
0.0
 10
144.3060926649305
 20
613.8498697916666
 30
0.0
 10
144.6344102647569
 20
613.7065538194444
 30
0.0
 10
145.1601318359375
 20
613.5694390190972
 30
0.0
 10
145.4278157552083
 20
613.5026041666666
 30
0.0
 10
146.5209445529514
 20
613.426123046875
 30
0.0
 10
146.1798800998264
 20
614.0317708333333
 30
0.0
 10
146.0620578342014
 20
614.248122829861
 30
0.0
 10
145.7306396484375
 20
614.4520724826389
 30
0.0
 10
145.5649305555555
 20
614.6436197916667
 30
0.0
 10
145.3578803168403
 20
614.8730631510416
 30
0.0
 10
145.15703125
 20
615.1280002170138
 30
0.0
 10
144.9561821831597
 20
615.3636447482638
 30
0.0
 10
144.8607530381944
 20
615.4752658420139
 30
0.0
 10
144.7935736762153
 20
615.6058349609375
 30
0.0
 10
144.6915988498264
 20
615.7078097873264
 30
0.0
 10
144.2551052517361
 20
616.1412027994791
 30
0.0
 10
144.0862955729166
 20
615.8190863715278
 30
0.0
 10
144.1562310112847
 20
615.3443522135416
 30
0.0
  0
SPLINE
  5
DB
330
A
100
AcDbEntity
  8
LAYER_1
 62
     7
100
AcDbSpline
210
0.0
220
0.0
230
1.0
 70
    11
 71
     3
 72
    29
 73
    25
 74
     0
 42
0.000000001
 43
0.00000001
 40
0.0
 40
0.0
 40
0.0
 40
0.0
 40
1.0
 40
1.0
 40
1.0
 40
2.0
 40
2.0
 40
2.0
 40
3.0
 40
3.0
 40
3.0
 40
4.0
 40
4.0
 40
4.0
 40
5.0
 40
5.0
 40
5.0
 40
6.0
 40
6.0
 40
6.0
 40
7.0
 40
7.0
 40
7.0
 40
8.0
 40
8.0
 40
8.0
 40
8.0
 10
149.4272271050347
 20
614.9777940538194
 30
0.0
 10
149.2198323567708
 20
614.7517957899305
 30
0.0
 10
148.9586941189236
 20
614.5285536024305
 30
0.0
 10
148.774037000868
 20
614.2929090711805
 30
0.0
 10
148.3309977213542
 20
613.7320475260416
 30
0.0
 10
149.0861626519097
 20
613.3048556857639
 30
0.0
 10
149.5705430772569
 20
613.2221733940971
 30
0.0
 10
149.8764675564236
 20
613.1773871527777
 30
0.0
 10
150.2364800347222
 20
613.1456922743055
 30
0.0
 10
150.5455050998264
 20
613.1649848090277
 30
0.0
 10
150.8324815538194
 20
613.1839328342013
 30
0.0
 10
150.9472032335069
 20
613.2573133680555
 30
0.0
 10
150.9217095269097
 20
613.5790852864583
 30
0.0
 10
150.8962158203125
 20
613.9043023003471
 30
0.0
 10
150.7401529947917
 20
614.0634657118055
 30
0.0
 10
150.5616970486111
 20
614.3184027777777
 30
0.0
 10
150.4214816623264
 20
614.5223524305555
 30
0.0
 10
150.4021891276041
 20
614.7263020833333
 30
0.0
 10
150.3481011284722
 20
614.9523003472221
 30
0.0
 10
150.322607421875
 20
615.0577202690972
 30
0.0
 10
150.3098605685764
 20
615.2010362413193
 30
0.0
 10
150.2526719835069
 20
615.2933648003471
 30
0.0
 10
149.9846435546875
 20
615.7012641059027
 30
0.0
 10
149.6215304904514
 20
615.1851888020833
 30
0.0
 10
149.4272271050347
 20
614.9777940538194
 30
0.0
  0
SPLINE
  5
DA
330
A
100
AcDbEntity
  8
LAYER_1
 62
     7
100
AcDbSpline
210
0.0
220
0.0
230
1.0
 70
    11
 71
     3
 72
    23
 73
    19
 74
     0
 42
0.000000001
 43
0.00000001
 40
0.0
 40
0.0
 40
0.0
 40
0.0
 40
1.0
 40
1.0
 40
1.0
 40
2.0
 40
2.0
 40
2.0
 40
3.0
 40
3.0
 40
3.0
 40
4.0
 40
4.0
 40
4.0
 40
5.0
 40
5.0
 40
5.0
 40
6.0
 40
6.0
 40
6.0
 40
6.0
 10
146.1512858072917
 20
614.5161512586805
 30
0.0
 10
146.138538953993
 20
614.2801622178819
 30
0.0
 10
146.2915011935764
 20
614.1303005642361
 30
0.0
 10
146.4286159939236
 20
613.9676920572916
 30
0.0
 10
146.5271457248264
 20
613.8498697916666
 30
0.0
 10
146.6325656467014
 20
613.6173258463541
 30
0.0
 10
146.7600341796875
 20
613.5377441406249
 30
0.0
 10
146.9288438585069
 20
613.426123046875
 30
0.0
 10
147.2792100694444
 20
613.5184516059027
 30
0.0
 10
147.4259711371528
 20
613.6300726996527
 30
0.0
 10
147.5947808159722
 20
613.7575412326388
 30
0.0
 10
147.5978814019097
 20
613.9043023003471
 30
0.0
 10
147.569287109375
 20
614.1110080295139
 30
0.0
 10
147.5310465494792
 20
614.4045301649305
 30
0.0
 10
147.4163248697917
 20
614.8599717881943
 30
0.0
 10
147.1710340711805
 20
615.0577202690972
 30
0.0
 10
146.8620090060764
 20
615.3064561631944
 30
0.0
 10
146.1702338324653
 20
614.8920111762152
 30
0.0
 10
146.1512858072917
 20
614.5161512586805
 30
0.0
  0
SPLINE
  5
D9
330
A
100
AcDbEntity
  8
LAYER_1
 62
     7
100
AcDbSpline
210
0.0
220
0.0
230
1.0
 70
    11
 71
     3
 72
    20
 73
    16
 74
     0
 42
0.000000001
 43
0.00000001
 40
0.0
 40
0.0
 40
0.0
 40
0.0
 40
1.0
 40
1.0
 40
1.0
 40
2.0
 40
2.0
 40
2.0
 40
3.0
 40
3.0
 40
3.0
 40
4.0
 40
4.0
 40
4.0
 40
5.0
 40
5.0
 40
5.0
 40
5.0
 10
151.1256591796875
 20
613.5983778211805
 30
0.0
 10
151.1318603515625
 20
613.1966796874999
 30
0.0
 10
151.8201904296875
 20
613.0375162760416
 30
0.0
 10
152.1230143229166
 20
613.0085774739583
 30
0.0
 10
152.5436604817708
 20
612.967236328125
 30
0.0
 10
152.5119656032986
 20
613.4643636067708
 30
0.0
 10
152.6552815755208
 20
613.7926812065972
 30
0.0
 10
152.7603569878472
 20
614.0252251519097
 30
0.0
 10
152.910218641493
 20
614.3790364583333
 30
0.0
 10
152.728662109375
 20
614.6050347222222
 30
0.0
 10
152.5023193359375
 20
614.8920111762152
 30
0.0
 10
151.9190646701389
 20
614.8186306423611
 30
0.0
 10
151.70546875
 20
614.5860866970486
 30
0.0
 10
151.5015190972222
 20
614.3724907769097
 30
0.0
 10
151.12255859375
 20
613.9105034722222
 30
0.0
 10
151.1256591796875
 20
613.5983778211805
 30
0.0
  0
SPLINE
  5
D8
330
A
100
AcDbEntity
  8
LAYER_1
 62
     7
100
AcDbSpline
210
0.0
220
0.0
230
1.0
 70
    11
 71
     3
 72
    20
 73
    16
 74
     0
 42
0.000000001
 43
0.00000001
 40
0.0
 40
0.0
 40
0.0
 40
0.0
 40
1.0
 40
1.0
 40
1.0
 40
2.0
 40
2.0
 40
2.0
 40
3.0
 40
3.0
 40
3.0
 40
4.0
 40
4.0
 40
4.0
 40
5.0
 40
5.0
 40
5.0
 40
5.0
 10
153.4934733072917
 20
612.9958306206597
 30
0.0
 10
153.6016493055556
 20
612.5558919270833
 30
0.0
 10
154.1049777560764
 20
612.4890570746527
 30
0.0
 10
154.4749810112847
 20
612.6103244357638
 30
0.0
 10
154.6117513020833
 20
612.6551106770833
 30
0.0
 10
154.7106255425347
 20
612.7185004340278
 30
0.0
 10
154.8126003689236
 20
612.8142740885417
 30
0.0
 10
154.9814100477431
 20
612.9734374999999
 30
0.0
 10
154.9879557291667
 20
612.9989312065971
 30
0.0
 10
154.8508409288194
 20
613.202880859375
 30
0.0
 10
154.6723849826389
 20
613.4709092881944
 30
0.0
 10
154.5163221571181
 20
613.9421983506944
 30
0.0
 10
154.1625108506944
 20
614.0441731770833
 30
0.0
 10
153.7067247178819
 20
614.1847330729166
 30
0.0
 10
153.4073459201389
 20
613.3558430989583
 30
0.0
 10
153.4934733072917
 20
612.9958306206597
 30
0.0
  0
SPLINE
  5
D7
330
A
100
AcDbEntity
  8
LAYER_1
 62
     7
100
AcDbSpline
210
0.0
220
0.0
230
1.0
 70
    11
 71
     3
 72
    29
 73
    25
 74
     0
 42
0.000000001
 43
0.00000001
 40
0.0
 40
0.0
 40
0.0
 40
0.0
 40
1.0
 40
1.0
 40
1.0
 40
2.0
 40
2.0
 40
2.0
 40
3.0
 40
3.0
 40
3.0
 40
4.0
 40
4.0
 40
4.0
 40
5.0
 40
5.0
 40
5.0
 40
6.0
 40
6.0
 40
6.0
 40
7.0
 40
7.0
 40
7.0
 40
8.0
 40
8.0
 40
8.0
 40
8.0
 10
148.0185275607639
 20
566.7350884331597
 30
0.0
 10
148.1205023871528
 20
566.3082411024305
 30
0.0
 10
148.0791612413194
 20
565.1544786241319
 30
0.0
 10
148.8215793185764
 20
565.3263888888888
 30
0.0
 10
148.9745415581597
 20
565.3649739583333
 30
0.0
 10
149.0923638237847
 20
565.5303385416667
 30
0.0
 10
149.232923719618
 20
565.5813259548611
 30
0.0
 10
149.3473008897569
 20
565.6261121961805
 30
0.0
 10
149.4940619574653
 20
565.5975179036458
 30
0.0
 10
149.5960367838541
 20
565.68330078125
 30
0.0
 10
149.9467475043403
 20
565.9799235026042
 30
0.0
 10
149.5354031032986
 20
566.5245930989582
 30
0.0
 10
149.3094048394097
 20
566.7350884331597
 30
0.0
 10
148.9745415581597
 20
567.04755859375
 30
0.0
 10
148.6496690538194
 20
567.3086968315972
 30
0.0
 10
148.375439453125
 20
567.6849012586805
 30
0.0
 10
148.2448703342014
 20
567.863357204861
 30
0.0
 10
148.1174018012153
 20
568.1437879774305
 30
0.0
 10
147.8848578559028
 20
568.2202690972222
 30
0.0
 10
147.6299207899305
 20
568.3091525607639
 30
0.0
 10
147.4800591362847
 20
568.1627360026041
 30
0.0
 10
147.4959065755208
 20
567.9205457899305
 30
0.0
 10
147.5120985243055
 20
567.4809516059028
 30
0.0
 10
147.9199978298611
 20
567.1429877387152
 30
0.0
 10
148.0185275607639
 20
566.7350884331597
 30
0.0
  0
SPLINE
  5
D6
330
A
100
AcDbEntity
  8
LAYER_1
 62
     7
100
AcDbSpline
210
0.0
220
0.0
230
1.0
 70
    11
 71
     3
 72
    14
 73
    10
 74
     0
 42
0.000000001
 43
0.00000001
 40
0.0
 40
0.0
 40
0.0
 40
0.0
 40
1.0
 40
1.0
 40
1.0
 40
2.0
 40
2.0
 40
2.0
 40
3.0
 40
3.0
 40
3.0
 40
3.0
 10
129.1314805772569
 20
562.9492730034722
 30
0.0
 10
129.2747965494792
 20
563.0832872178819
 30
0.0
 10
129.3319851345486
 20
563.4147054036458
 30
0.0
 10
129.265150282118
 20
563.5962619357639
 30
0.0
 10
129.1280354817708
 20
563.9562744140625
 30
0.0
 10
128.4176567925347
 20
563.8828938802083
 30
0.0
 10
128.4555528428819
 20
563.4591471354166
 30
0.0
 10
128.4844916449653
 20
563.210755750868
 30
0.0
 10
128.8510498046875
 20
562.6943359375
 30
0.0
 10
129.1314805772569
 20
562.9492730034722
 30
0.0
  0
SPLINE
  5
D5
330
A
100
AcDbEntity
  8
LAYER_1
 62
     7
100
AcDbSpline
210
0.0
220
0.0
230
1.0
 70
    11
 71
     3
 72
    17
 73
    13
 74
     0
 42
0.000000001
 43
0.00000001
 40
0.0
 40
0.0
 40
0.0
 40
0.0
 40
1.0
 40
1.0
 40
1.0
 40
2.0
 40
2.0
 40
2.0
 40
3.0
 40
3.0
 40
3.0
 40
4.0
 40
4.0
 40
4.0
 40
4.0
 10
127.9711724175347
 20
559.4121934678819
 30
0.0
 10
128.0256049262153
 20
559.080775282118
 30
0.0
 10
128.1592746310764
 20
558.9788004557291
 30
0.0
 10
128.4972384982639
 20
559.0618272569444
 30
0.0
 10
128.8124647352431
 20
559.141064453125
 30
0.0
 10
129.4436062282986
 20
559.2657769097221
 30
0.0
 10
129.2524034288194
 20
559.7053710937499
 30
0.0
 10
129.1121880425347
 20
560.0240424262153
 30
0.0
 10
128.6471001519097
 20
560.4829291449653
 30
0.0
 10
128.2994900173611
 20
560.5432183159721
 30
0.0
 10
127.6941867404514
 20
560.6486382378472
 30
0.0
 10
127.9139838324653
 20
559.7563585069444
 30
0.0
 10
127.9711724175347
 20
559.4121934678819
 30
0.0
  0
SPLINE
  5
D4
330
A
100
AcDbEntity
  8
LAYER_1
 62
     7
100
AcDbSpline
210
0.0
220
0.0
230
1.0
 70
    11
 71
     3
 72
    14
 73
    10
 74
     0
 42
0.000000001
 43
0.00000001
 40
0.0
 40
0.0
 40
0.0
 40
0.0
 40
1.0
 40
1.0
 40
1.0
 40
2.0
 40
2.0
 40
2.0
 40
3.0
 40
3.0
 40
3.0
 40
3.0
 10
128.0032118055555
 20
562.7136284722221
 30
0.0
 10
128.1496283637153
 20
562.6498942057291
 30
0.0
 10
128.4462510850694
 20
562.6943359375
 30
0.0
 10
128.5065402560764
 20
562.8218044704861
 30
0.0
 10
128.6502007378472
 20
563.1087809244791
 30
0.0
 10
128.3025906032986
 20
564.064794921875
 30
0.0
 10
127.8788438585069
 20
563.7526692708333
 30
0.0
 10
127.5922119140625
 20
563.5421739366319
 30
0.0
 10
127.6941867404514
 20
562.8665907118055
 30
0.0
 10
128.0032118055555
 20
562.7136284722221
 30
0.0
  0
SPLINE
  5
D3
330
A
100
AcDbEntity
  8
LAYER_1
 62
     7
100
AcDbSpline
210
0.0
220
0.0
230
1.0
 70
    11
 71
     3
 72
    14
 73
    10
 74
     0
 42
0.000000001
 43
0.00000001
 40
0.0
 40
0.0
 40
0.0
 40
0.0
 40
1.0
 40
1.0
 40
1.0
 40
2.0
 40
2.0
 40
2.0
 40
3.0
 40
3.0
 40
3.0
 40
3.0
 10
164.7964870876736
 20
570.0716634114583
 30
0.0
 10
164.971497938368
 20
570.1068033854166
 30
0.0
 10
165.2233344184028
 20
570.1192057291667
 30
0.0
 10
165.2074869791666
 20
570.3455485026041
 30
0.0
 10
165.1819932725694
 20
570.6676649305555
 30
0.0
 10
164.6435248480903
 20
570.7789415147569
 30
0.0
 10
164.4268283420139
 20
570.5911838107638
 30
0.0
 10
164.0668158637152
 20
570.259765625
 30
0.0
 10
164.4523220486111
 20
569.9917371961805
 30
0.0
 10
164.7964870876736
 20
570.0716634114583
 30
0.0
  0
SPLINE
  5
D2
330
A
100
AcDbEntity
  8
LAYER_1
 62
     7
100
AcDbSpline
210
0.0
220
0.0
230
1.0
 70
    11
 71
     3
 72
    11
 73
     7
 74
     0
 42
0.000000001
 43
0.00000001
 40
0.0
 40
0.0
 40
0.0
 40
0.0
 40
1.0
 40
1.0
 40
1.0
 40
2.0
 40
2.0
 40
2.0
 40
2.0
 10
165.2808675130208
 20
570.8743706597222
 30
0.0
 10
165.5740451388889
 20
570.746902126736
 30
0.0
 10
165.7683485243055
 20
571.081765407986
 30
0.0
 10
165.589892578125
 20
571.3174099392361
 30
0.0
 10
165.2743218315972
 20
571.7222086588541
 30
0.0
 10
164.6752197265625
 20
571.1486002604166
 30
0.0
 10
165.2808675130208
 20
570.8743706597222
 30
0.0
  0
SPLINE
  5
D1
330
A
100
AcDbEntity
  8
LAYER_1
 62
     7
100
AcDbSpline
210
0.0
220
0.0
230
1.0
 70
    11
 71
     3
 72
    11
 73
     7
 74
     0
 42
0.000000001
 43
0.00000001
 40
0.0
 40
0.0
 40
0.0
 40
0.0
 40
1.0
 40
1.0
 40
1.0
 40
2.0
 40
2.0
 40
2.0
 40
2.0
 10
166.396044921875
 20
571.2219807942707
 30
0.0
 10
166.6478814019097
 20
571.0052842881944
 30
0.0
 10
166.9696533203125
 20
571.3429036458333
 30
0.0
 10
166.9090196397569
 20
571.6171332465277
 30
0.0
 10
166.7977430555555
 20
572.1270073784722
 30
0.0
 10
166.0167399088542
 20
571.5599446614583
 30
0.0
 10
166.396044921875
 20
571.2219807942707
 30
0.0
  0
SPLINE
  5
D0
330
A
100
AcDbEntity
  8
LAYER_1
 62
     7
100
AcDbSpline
210
0.0
220
0.0
230
1.0
 70
    11
 71
     3
 72
    11
 73
     7
 74
     0
 42
0.000000001
 43
0.00000001
 40
0.0
 40
0.0
 40
0.0
 40
0.0
 40
1.0
 40
1.0
 40
1.0
 40
2.0
 40
2.0
 40
2.0
 40
2.0
 10
165.7525010850694
 20
570.5271050347221
 30
0.0
 10
165.8927164713542
 20
570.3551947699652
 30
0.0
 10
166.1666015625
 20
570.3806884765625
 30
0.0
 10
166.3068169487847
 20
570.5463975694444
 30
0.0
 10
166.6733751085069
 20
570.9859917534721
 30
0.0
 10
165.3446017795139
 20
571.0369791666666
 30
0.0
 10
165.7525010850694
 20
570.5271050347221
 30
0.0
  0
SPLINE
  5
CF
330
A
100
AcDbEntity
  8
LAYER_1
 62
     7
100
AcDbSpline
210
0.0
220
0.0
230
1.0
 70
    11
 71
     3
 72
    11
 73
     7
 74
     0
 42
0.000000001
 43
0.00000001
 40
0.0
 40
0.0
 40
0.0
 40
0.0
 40
1.0
 40
1.0
 40
1.0
 40
2.0
 40
2.0
 40
2.0
 40
2.0
 10
178.4638699001736
 20
585.1666937934027
 30
0.0
 10
178.6774658203125
 20
585.0712646484375
 30
0.0
 10
178.9227566189236
 20
585.42783203125
 30
0.0
 10
178.7987331814236
 20
585.6159342447916
 30
0.0
 10
178.6106309678819
 20
585.88671875
 30
0.0
 10
178.1389973958333
 20
585.313454861111
 30
0.0
 10
178.4638699001736
 20
585.1666937934027
 30
0.0
  0
SPLINE
  5
CE
330
A
100
AcDbEntity
  8
LAYER_1
 62
     7
100
AcDbSpline
210
0.0
220
0.0
230
1.0
 70
    11
 71
     3
 72
    14
 73
    10
 74
     0
 42
0.000000001
 43
0.00000001
 40
0.0
 40
0.0
 40
0.0
 40
0.0
 40
1.0
 40
1.0
 40
1.0
 40
2.0
 40
2.0
 40
2.0
 40
3.0
 40
3.0
 40
3.0
 40
3.0
 10
176.5838812934028
 20
586.1416558159722
 30
0.0
 10
176.5170464409722
 20
586.0303792317708
 30
0.0
 10
177.020374891493
 20
585.8932644314235
 30
0.0
 10
177.1478434244792
 20
586.0624186197916
 30
0.0
 10
177.243617078993
 20
586.1960883246527
 30
0.0
 10
177.1767822265625
 20
586.3841905381944
 30
0.0
 10
177.0238199869792
 20
586.4351779513888
 30
0.0
 10
176.8260715060764
 20
586.4985677083333
 30
0.0
 10
176.679310438368
 20
586.2884168836805
 30
0.0
 10
176.5838812934028
 20
586.1416558159722
 30
0.0
  0
SPLINE
  5
CD
330
A
100
AcDbEntity
  8
LAYER_1
 62
     7
100
AcDbSpline
210
0.0
220
0.0
230
1.0
 70
    11
 71
     3
 72
    11
 73
     7
 74
     0
 42
0.000000001
 43
0.00000001
 40
0.0
 40
0.0
 40
0.0
 40
0.0
 40
1.0
 40
1.0
 40
1.0
 40
2.0
 40
2.0
 40
2.0
 40
2.0
 10
178.8431749131944
 20
586.7855441623263
 30
0.0
 10
179.1012125651042
 20
586.798291015625
 30
0.0
 10
179.1363525390625
 20
587.2444308810764
 30
0.0
 10
178.8879611545139
 20
587.2954182942708
 30
0.0
 10
178.6392252604167
 20
587.3464057074652
 30
0.0
 10
178.4800618489583
 20
586.7727973090277
 30
0.0
 10
178.8431749131944
 20
586.7855441623263
 30
0.0
  0
SPLINE
  5
CC
330
A
100
AcDbEntity
  8
LAYER_1
 62
     7
100
AcDbSpline
210
0.0
220
0.0
230
1.0
 70
    11
 71
     3
 72
    14
 73
    10
 74
     0
 42
0.000000001
 43
0.00000001
 40
0.0
 40
0.0
 40
0.0
 40
0.0
 40
1.0
 40
1.0
 40
1.0
 40
2.0
 40
2.0
 40
2.0
 40
3.0
 40
3.0
 40
3.0
 40
3.0
 10
177.8616672092014
 20
587.1455566406249
 30
0.0
 10
177.9030083550347
 20
587.1169623480902
 30
0.0
 10
178.1262505425347
 20
587.1648491753472
 30
0.0
 10
178.1579454210069
 20
587.1965440538194
 30
0.0
 10
178.3016059027778
 20
587.3371039496527
 30
0.0
 10
178.2089328342014
 20
587.716064453125
 30
0.0
 10
177.9732883029514
 20
587.6778238932291
 30
0.0
 10
177.7851860894097
 20
587.6457845052083
 30
0.0
 10
177.702503797743
 20
587.2509765625
 30
0.0
 10
177.8616672092014
 20
587.1455566406249
 30
0.0
  0
SPLINE
  5
CB
330
A
100
AcDbEntity
  8
LAYER_1
 62
     7
100
AcDbSpline
210
0.0
220
0.0
230
1.0
 70
    11
 71
     3
 72
    11
 73
     7
 74
     0
 42
0.000000001
 43
0.00000001
 40
0.0
 40
0.0
 40
0.0
 40
0.0
 40
1.0
 40
1.0
 40
1.0
 40
2.0
 40
2.0
 40
2.0
 40
2.0
 10
178.0942111545139
 20
585.660720486111
 30
0.0
 10
178.3078070746528
 20
585.5873399522569
 30
0.0
 10
178.4480224609375
 20
585.8295301649305
 30
0.0
 10
178.3398464626736
 20
586.0079861111111
 30
0.0
 10
178.1324517144097
 20
586.3710991753471
 30
0.0
 10
177.7469455295139
 20
585.7881890190972
 30
0.0
 10
178.0942111545139
 20
585.660720486111
 30
0.0
  0
SPLINE
  5
CA
330
A
100
AcDbEntity
  8
LAYER_1
 62
     7
100
AcDbSpline
210
0.0
220
0.0
230
1.0
 70
    11
 71
     3
 72
    14
 73
    10
 74
     0
 42
0.000000001
 43
0.00000001
 40
0.0
 40
0.0
 40
0.0
 40
0.0
 40
1.0
 40
1.0
 40
1.0
 40
2.0
 40
2.0
 40
2.0
 40
3.0
 40
3.0
 40
3.0
 40
3.0
 10
177.708704969618
 20
589.0610297309028
 30
0.0
 10
177.63876953125
 20
588.9590549045139
 30
0.0
 10
177.702503797743
 20
588.6465847439235
 30
0.0
 10
177.7851860894097
 20
588.5635579427083
 30
0.0
 10
177.98603515625
 20
588.3661539713542
 30
0.0
 10
178.2282253689236
 20
588.5125705295138
 30
0.0
 10
178.2726671006944
 20
588.761306423611
 30
0.0
 10
178.3236545138889
 20
589.0672309027777
 30
0.0
 10
177.9254014756944
 20
589.3828016493055
 30
0.0
 10
177.708704969618
 20
589.0610297309028
 30
0.0
  0
SPLINE
  5
C9
330
A
100
AcDbEntity
  8
LAYER_1
 62
     7
100
AcDbSpline
210
0.0
220
0.0
230
1.0
 70
    11
 71
     3
 72
    11
 73
     7
 74
     0
 42
0.000000001
 43
0.00000001
 40
0.0
 40
0.0
 40
0.0
 40
0.0
 40
1.0
 40
1.0
 40
1.0
 40
2.0
 40
2.0
 40
2.0
 40
2.0
 10
178.5117567274305
 20
588.9142686631944
 30
0.0
 10
178.7029595269097
 20
588.7740532769096
 30
0.0
 10
178.9547960069444
 20
588.9845486111111
 30
0.0
 10
178.8273274739583
 20
589.1946994357638
 30
0.0
 10
178.6616183810764
 20
589.4751302083333
 30
0.0
 10
178.215478515625
 20
589.1278645833332
 30
0.0
 10
178.5117567274305
 20
588.9142686631944
 30
0.0
  0
SPLINE
  5
C8
330
A
100
AcDbEntity
  8
LAYER_1
 62
     7
100
AcDbSpline
210
0.0
220
0.0
230
1.0
 70
    11
 71
     3
 72
    11
 73
     7
 74
     0
 42
0.000000001
 43
0.00000001
 40
0.0
 40
0.0
 40
0.0
 40
0.0
 40
1.0
 40
1.0
 40
1.0
 40
2.0
 40
2.0
 40
2.0
 40
2.0
 10
177.6577175564236
 20
587.6778238932291
 30
0.0
 10
177.931947157118
 20
587.6457845052083
 30
0.0
 10
177.9192003038194
 20
587.9868489583333
 30
0.0
 10
177.7469455295139
 20
588.1112169053819
 30
0.0
 10
177.3965793185764
 20
588.3851019965277
 30
0.0
 10
177.3297444661458
 20
587.7129638671875
 30
0.0
 10
177.6577175564236
 20
587.6778238932291
 30
0.0
  0
SPLINE
  5
C7
330
A
100
AcDbEntity
  8
LAYER_1
 62
     7
100
AcDbSpline
210
0.0
220
0.0
230
1.0
 70
    11
 71
     3
 72
    11
 73
     7
 74
     0
 42
0.000000001
 43
0.00000001
 40
0.0
 40
0.0
 40
0.0
 40
0.0
 40
1.0
 40
1.0
 40
1.0
 40
2.0
 40
2.0
 40
2.0
 40
2.0
 10
178.6457709418403
 20
586.1292534722222
 30
0.0
 10
178.849720594618
 20
586.0207329644097
 30
0.0
 10
179.0664171006944
 20
586.2691243489583
 30
0.0
 10
178.9355034722222
 20
586.460671657986
 30
0.0
 10
178.7222520616319
 20
586.7600504557291
 30
0.0
 10
178.2695665147569
 20
586.3173556857638
 30
0.0
 10
178.6457709418403
 20
586.1292534722222
 30
0.0
  0
SPLINE
  5
C6
330
A
100
AcDbEntity
  8
LAYER_1
 62
     7
100
AcDbSpline
210
0.0
220
0.0
230
1.0
 70
    11
 71
     3
 72
    11
 73
     7
 74
     0
 42
0.000000001
 43
0.00000001
 40
0.0
 40
0.0
 40
0.0
 40
0.0
 40
1.0
 40
1.0
 40
1.0
 40
2.0
 40
2.0
 40
2.0
 40
2.0
 10
177.2022759331597
 20
586.8430772569444
 30
0.0
 10
177.4062255859375
 20
586.8747721354166
 30
0.0
 10
177.479261610243
 20
587.3718994140625
 30
0.0
 10
177.2243245442708
 20
587.3529513888889
 30
0.0
 10
177.020374891493
 20
587.3398600260416
 30
0.0
 10
176.8515652126736
 20
586.8044921874999
 30
0.0
 10
177.2022759331597
 20
586.8430772569444
 30
0.0
  0
SPLINE
  5
C5
330
A
100
AcDbEntity
  8
LAYER_1
 62
     7
100
AcDbSpline
210
0.0
220
0.0
230
1.0
 70
    11
 71
     3
 72
    11
 73
     7
 74
     0
 42
0.000000001
 43
0.00000001
 40
0.0
 40
0.0
 40
0.0
 40
0.0
 40
1.0
 40
1.0
 40
1.0
 40
2.0
 40
2.0
 40
2.0
 40
2.0
 10
177.473060438368
 20
586.0079861111111
 30
0.0
 10
177.644970703125
 20
585.9187581380207
 30
0.0
 10
177.8044786241319
 20
586.1926432291666
 30
0.0
 10
177.6673638237847
 20
586.3042643229167
 30
0.0
 10
177.5113009982639
 20
586.4413791232638
 30
0.0
 10
177.2656656901042
 20
586.1227077907986
 30
0.0
 10
177.473060438368
 20
586.0079861111111
 30
0.0
  0
SPLINE
  5
C4
330
A
100
AcDbEntity
  8
LAYER_1
 62
     7
100
AcDbSpline
210
0.0
220
0.0
230
1.0
 70
    11
 71
     3
 72
    14
 73
    10
 74
     0
 42
0.000000001
 43
0.00000001
 40
0.0
 40
0.0
 40
0.0
 40
0.0
 40
1.0
 40
1.0
 40
1.0
 40
2.0
 40
2.0
 40
2.0
 40
3.0
 40
3.0
 40
3.0
 40
3.0
 10
178.1358968098958
 20
586.5561008029514
 30
0.0
 10
178.1548448350694
 20
586.4220865885416
 30
0.0
 10
178.2471733940972
 20
586.342849392361
 30
0.0
 10
178.3715413411458
 20
586.4220865885416
 30
0.0
 10
178.4545681423611
 20
586.4796196831596
 30
0.0
 10
178.5276041666667
 20
586.8044921874999
 30
0.0
 10
178.4225287543402
 20
586.8716715494791
 30
0.0
 10
178.2664659288194
 20
586.9705457899305
 30
0.0
 10
178.1197048611111
 20
586.6770236545138
 30
0.0
 10
178.1358968098958
 20
586.5561008029514
 30
0.0
  0
SPLINE
  5
C3
330
A
100
AcDbEntity
  8
LAYER_1
 62
     7
100
AcDbSpline
210
0.0
220
0.0
230
1.0
 70
    11
 71
     3
 72
    11
 73
     7
 74
     0
 42
0.000000001
 43
0.00000001
 40
0.0
 40
0.0
 40
0.0
 40
0.0
 40
1.0
 40
1.0
 40
1.0
 40
2.0
 40
2.0
 40
2.0
 40
2.0
 10
177.6101752387153
 20
586.6232801649305
 30
0.0
 10
177.8554660373264
 20
586.6232801649305
 30
0.0
 10
177.8937065972222
 20
587.0022406684027
 30
0.0
 10
177.6704644097222
 20
587.0725206163194
 30
0.0
 10
177.3996799045139
 20
587.1648491753472
 30
0.0
 10
177.2722113715278
 20
586.6232801649305
 30
0.0
 10
177.6101752387153
 20
586.6232801649305
 30
0.0
  0
SPLINE
  5
C2
330
A
100
AcDbEntity
  8
LAYER_1
 62
     7
100
AcDbSpline
210
0.0
220
0.0
230
1.0
 70
    11
 71
     3
 72
    11
 73
     7
 74
     0
 42
0.000000001
 43
0.00000001
 40
0.0
 40
0.0
 40
0.0
 40
0.0
 40
1.0
 40
1.0
 40
1.0
 40
2.0
 40
2.0
 40
2.0
 40
2.0
 10
181.3574055989583
 20
592.6236029730902
 30
0.0
 10
181.615443250868
 20
592.7066297743055
 30
0.0
 10
181.5389621310764
 20
593.1079833984375
 30
0.0
 10
181.2747233072917
 20
593.0600965711805
 30
0.0
 10
181.038734266493
 20
593.0125542534722
 30
0.0
 10
181.0452799479166
 20
592.5216281467013
 30
0.0
 10
181.3574055989583
 20
592.6236029730902
 30
0.0
  0
SPLINE
  5
C1
330
A
100
AcDbEntity
  8
LAYER_1
 62
     7
100
AcDbSpline
210
0.0
220
0.0
230
1.0
 70
    11
 71
     3
 72
    11
 73
     7
 74
     0
 42
0.000000001
 43
0.00000001
 40
0.0
 40
0.0
 40
0.0
 40
0.0
 40
1.0
 40
1.0
 40
1.0
 40
2.0
 40
2.0
 40
2.0
 40
2.0
 10
182.0839762369791
 20
594.4749972873263
 30
0.0
 10
182.2817247178819
 20
594.4016167534721
 30
0.0
 10
182.4663818359375
 20
594.6503526475694
 30
0.0
 10
182.3199652777778
 20
594.8095160590277
 30
0.0
 10
182.116015625
 20
595.0293131510416
 30
0.0
 10
181.7622043185764
 20
594.599365234375
 30
0.0
 10
182.0839762369791
 20
594.4749972873263
 30
0.0
  0
SPLINE
  5
C0
330
A
100
AcDbEntity
  8
LAYER_1
 62
     7
100
AcDbSpline
210
0.0
220
0.0
230
1.0
 70
    11
 71
     3
 72
    11
 73
     7
 74
     0
 42
0.000000001
 43
0.00000001
 40
0.0
 40
0.0
 40
0.0
 40
0.0
 40
1.0
 40
1.0
 40
1.0
 40
2.0
 40
2.0
 40
2.0
 40
2.0
 10
181.615443250868
 20
593.0759440104166
 30
0.0
 10
181.8290391710069
 20
592.9295274522569
 30
0.0
 10
182.0457356770833
 20
593.2419976128472
 30
0.0
 10
181.9692545572917
 20
593.4394015842014
 30
0.0
 10
181.8193929036458
 20
593.8283528645833
 30
0.0
 10
181.3384575737847
 20
593.2609456380208
 30
0.0
 10
181.615443250868
 20
593.0759440104166
 30
0.0
  0
SPLINE
  5
BF
330
A
100
AcDbEntity
  8
LAYER_1
 62
     7
100
AcDbSpline
210
0.0
220
0.0
230
1.0
 70
    11
 71
     3
 72
    14
 73
    10
 74
     0
 42
0.000000001
 43
0.00000001
 40
0.0
 40
0.0
 40
0.0
 40
0.0
 40
1.0
 40
1.0
 40
1.0
 40
2.0
 40
2.0
 40
2.0
 40
3.0
 40
3.0
 40
3.0
 40
3.0
 10
180.8506320529514
 20
593.1462239583333
 30
0.0
 10
181.0228868272569
 20
593.0855902777777
 30
0.0
 10
181.150355360243
 20
593.21650390625
 30
0.0
 10
181.1951416015625
 20
593.3694661458333
 30
0.0
 10
181.2461290147569
 20
593.5603244357638
 30
0.0
 10
181.1024685329861
 20
593.7708197699652
 30
0.0
 10
180.8923177083333
 20
593.675390625
 30
0.0
 10
180.7169623480902
 20
593.5954644097221
 30
0.0
 10
180.6404812282986
 20
593.21650390625
 30
0.0
 10
180.8506320529514
 20
593.1462239583333
 30
0.0
  0
SPLINE
  5
BE
330
A
100
AcDbEntity
  8
LAYER_1
 62
     7
100
AcDbSpline
210
0.0
220
0.0
230
1.0
 70
    11
 71
     3
 72
    11
 73
     7
 74
     0
 42
0.000000001
 43
0.00000001
 40
0.0
 40
0.0
 40
0.0
 40
0.0
 40
1.0
 40
1.0
 40
1.0
 40
2.0
 40
2.0
 40
2.0
 40
2.0
 10
181.4500786675347
 20
593.7897677951388
 30
0.0
 10
181.6953694661458
 20
593.6147569444444
 30
0.0
 10
181.8259385850694
 20
594.0161105685763
 30
0.0
 10
181.774951171875
 20
594.204212782118
 30
0.0
 10
181.6443820529514
 20
594.6565538194444
 30
0.0
 10
181.1951416015625
 20
593.974769422743
 30
0.0
 10
181.4500786675347
 20
593.7897677951388
 30
0.0
  0
SPLINE
  5
BD
330
A
100
AcDbEntity
  8
LAYER_1
 62
     7
100
AcDbSpline
210
0.0
220
0.0
230
1.0
 70
    11
 71
     3
 72
    11
 73
     7
 74
     0
 42
0.000000001
 43
0.00000001
 40
0.0
 40
0.0
 40
0.0
 40
0.0
 40
1.0
 40
1.0
 40
1.0
 40
2.0
 40
2.0
 40
2.0
 40
2.0
 10
180.4206841362847
 20
593.745326063368
 30
0.0
 10
180.6628743489583
 20
593.5668701171875
 30
0.0
 10
180.857177734375
 20
593.8951877170139
 30
0.0
 10
180.7583034939236
 20
594.1149848090278
 30
0.0
 10
180.5894938151042
 20
594.487744140625
 30
0.0
 10
180.1116590711805
 20
593.9682237413194
 30
0.0
 10
180.4206841362847
 20
593.745326063368
 30
0.0
  0
SPLINE
  5
BC
330
A
100
AcDbEntity
  8
LAYER_1
 62
     7
100
AcDbSpline
210
0.0
220
0.0
230
1.0
 70
    11
 71
     3
 72
    11
 73
     7
 74
     0
 42
0.000000001
 43
0.00000001
 40
0.0
 40
0.0
 40
0.0
 40
0.0
 40
1.0
 40
1.0
 40
1.0
 40
2.0
 40
2.0
 40
2.0
 40
2.0
 10
179.7802408854166
 20
594.1756184895833
 30
0.0
 10
180.0606716579861
 20
594.1211859809027
 30
0.0
 10
180.1530002170139
 20
594.5835177951388
 30
0.0
 10
179.9490505642361
 20
594.7330349392361
 30
0.0
 10
179.655872938368
 20
594.9435302734374
 30
0.0
 10
179.3978352864583
 20
594.2486545138888
 30
0.0
 10
179.7802408854166
 20
594.1756184895833
 30
0.0
  0
SPLINE
  5
BB
330
A
100
AcDbEntity
  8
LAYER_1
 62
     7
100
AcDbSpline
210
0.0
220
0.0
230
1.0
 70
    11
 71
     3
 72
    11
 73
     7
 74
     0
 42
0.000000001
 43
0.00000001
 40
0.0
 40
0.0
 40
0.0
 40
0.0
 40
1.0
 40
1.0
 40
1.0
 40
2.0
 40
2.0
 40
2.0
 40
2.0
 10
181.6061414930555
 20
594.7206325954861
 30
0.0
 10
181.8896728515625
 20
594.5866183810764
 30
0.0
 10
182.074329969618
 20
595.2239610460069
 30
0.0
 10
181.8610785590278
 20
595.3579752604167
 30
0.0
 10
181.5389621310764
 20
595.5584798177083
 30
0.0
 10
181.3574055989583
 20
594.8350097656249
 30
0.0
 10
181.6061414930555
 20
594.7206325954861
 30
0.0
  0
SPLINE
  5
BA
330
A
100
AcDbEntity
  8
LAYER_1
 62
     7
100
AcDbSpline
210
0.0
220
0.0
230
1.0
 70
    11
 71
     3
 72
    14
 73
    10
 74
     0
 42
0.000000001
 43
0.00000001
 40
0.0
 40
0.0
 40
0.0
 40
0.0
 40
1.0
 40
1.0
 40
1.0
 40
2.0
 40
2.0
 40
2.0
 40
3.0
 40
3.0
 40
3.0
 40
3.0
 10
179.9776448567708
 20
595.1602267795139
 30
0.0
 10
180.2008870442708
 20
594.7488823784722
 30
0.0
 10
180.6342800564236
 20
595.2684027777777
 30
0.0
 10
180.4778727213541
 20
595.5553792317708
 30
0.0
 10
180.4079372829861
 20
595.6763020833333
 30
0.0
 10
180.1561008029514
 20
595.7403808593749
 30
0.0
 10
180.0317328559028
 20
595.6828477647568
 30
0.0
 10
179.8088351779514
 20
595.5901746961805
 30
0.0
 10
179.8822157118055
 20
595.3228352864583
 30
0.0
 10
179.9776448567708
 20
595.1602267795139
 30
0.0
  0
SPLINE
  5
B9
330
A
100
AcDbEntity
  8
LAYER_1
 62
     7
100
AcDbSpline
210
0.0
220
0.0
230
1.0
 70
    11
 71
     3
 72
    11
 73
     7
 74
     0
 42
0.000000001
 43
0.00000001
 40
0.0
 40
0.0
 40
0.0
 40
0.0
 40
1.0
 40
1.0
 40
1.0
 40
2.0
 40
2.0
 40
2.0
 40
2.0
 10
181.1055691189236
 20
594.5421766493055
 30
0.0
 10
181.2492296006944
 20
594.3285807291666
 30
0.0
 10
181.4149386935764
 20
594.599365234375
 30
0.0
 10
181.3828993055555
 20
594.7619737413194
 30
0.0
 10
181.3064181857639
 20
595.121986219618
 30
0.0
 10
180.9781005859375
 20
594.7268337673611
 30
0.0
 10
181.1055691189236
 20
594.5421766493055
 30
0.0
  0
SPLINE
  5
B8
330
A
100
AcDbEntity
  8
LAYER_1
 62
     7
100
AcDbSpline
210
0.0
220
0.0
230
1.0
 70
    11
 71
     3
 72
    11
 73
     7
 74
     0
 42
0.000000001
 43
0.00000001
 40
0.0
 40
0.0
 40
0.0
 40
0.0
 40
1.0
 40
1.0
 40
1.0
 40
2.0
 40
2.0
 40
2.0
 40
2.0
 10
180.7138617621528
 20
594.5228841145832
 30
0.0
 10
180.920912000868
 20
594.5769721137152
 30
0.0
 10
180.8892171223958
 20
594.9976182725694
 30
0.0
 10
180.691468641493
 20
595.0424045138889
 30
0.0
 10
180.4206841362847
 20
595.1092393663193
 30
0.0
 10
180.4079372829861
 20
594.4429578993055
 30
0.0
 10
180.7138617621528
 20
594.5228841145832
 30
0.0
  0
SPLINE
  5
B7
330
A
100
AcDbEntity
  8
LAYER_1
 62
     7
100
AcDbSpline
210
0.0
220
0.0
230
1.0
 70
    11
 71
     3
 72
    14
 73
    10
 74
     0
 42
0.000000001
 43
0.00000001
 40
0.0
 40
0.0
 40
0.0
 40
0.0
 40
1.0
 40
1.0
 40
1.0
 40
2.0
 40
2.0
 40
2.0
 40
3.0
 40
3.0
 40
3.0
 40
3.0
 10
180.6466824001736
 20
595.4344563802083
 30
0.0
 10
180.6532280815972
 20
595.4024169921875
 30
0.0
 10
180.7583034939236
 20
595.3896701388888
 30
0.0
 10
180.857177734375
 20
595.3958713107638
 30
0.0
 10
180.9433051215278
 20
595.4024169921875
 30
0.0
 10
181.0290879991319
 20
595.4151638454861
 30
0.0
 10
181.0452799479166
 20
595.4310112847222
 30
0.0
 10
181.261976453993
 20
595.6573540581596
 30
0.0
 10
180.5288601345486
 20
595.9567328559027
 30
0.0
 10
180.6466824001736
 20
595.4344563802083
 30
0.0
  0
SPLINE
  5
B6
330
A
100
AcDbEntity
  8
LAYER_1
 62
     7
100
AcDbSpline
210
0.0
220
0.0
230
1.0
 70
    11
 71
     3
 72
    20
 73
    16
 74
     0
 42
0.000000001
 43
0.00000001
 40
0.0
 40
0.0
 40
0.0
 40
0.0
 40
1.0
 40
1.0
 40
1.0
 40
2.0
 40
2.0
 40
2.0
 40
3.0
 40
3.0
 40
3.0
 40
4.0
 40
4.0
 40
4.0
 40
5.0
 40
5.0
 40
5.0
 40
5.0
 10
142.5918131510417
 20
579.8929416232638
 30
0.0
 10
142.8243570963542
 20
579.5518771701388
 30
0.0
 10
142.9073838975694
 20
579.0929904513888
 30
0.0
 10
143.4138129340278
 20
579.3513726128472
 30
0.0
 10
143.7483317057292
 20
579.5201822916666
 30
0.0
 10
144.0831949869792
 20
579.7303331163193
 30
0.0
 10
143.7197374131944
 20
580.0810438368055
 30
0.0
 10
143.439306640625
 20
580.3549289279514
 30
0.0
 10
143.0985866970486
 20
580.6353597005208
 30
0.0
 10
142.744775390625
 20
580.7948676215277
 30
0.0
 10
142.5311794704861
 20
580.8871961805555
 30
0.0
 10
142.3782172309028
 20
580.9285373263889
 30
0.0
 10
142.2986355251736
 20
580.6736002604166
 30
0.0
 10
142.1966606987847
 20
580.36767578125
 30
0.0
 10
142.4261040581597
 20
580.1285861545139
 30
0.0
 10
142.5918131510417
 20
579.8929416232638
 30
0.0
  0
SPLINE
  5
B5
330
A
100
AcDbEntity
  8
LAYER_1
 62
     7
100
AcDbSpline
210
0.0
220
0.0
230
1.0
 70
    11
 71
     3
 72
    26
 73
    22
 74
     0
 42
0.000000001
 43
0.00000001
 40
0.0
 40
0.0
 40
0.0
 40
0.0
 40
1.0
 40
1.0
 40
1.0
 40
2.0
 40
2.0
 40
2.0
 40
3.0
 40
3.0
 40
3.0
 40
4.0
 40
4.0
 40
4.0
 40
5.0
 40
5.0
 40
5.0
 40
6.0
 40
6.0
 40
6.0
 40
7.0
 40
7.0
 40
7.0
 40
7.0
 10
137.4486300998264
 20
608.3497748480902
 30
0.0
 10
137.3625027126736
 20
608.1968126085069
 30
0.0
 10
137.2222873263889
 20
608.155126953125
 30
0.0
 10
137.1203125
 20
608.0214572482638
 30
0.0
 10
137.0279839409722
 20
607.9098361545139
 30
0.0
 10
136.9990451388889
 20
607.8175075954861
 30
0.0
 10
137.0407307942708
 20
607.683837890625
 30
0.0
 10
137.1554524739583
 20
607.3365722656249
 30
0.0
 10
137.4420844184028
 20
607.3014322916666
 30
0.0
 10
137.7414632161458
 20
607.294886610243
 30
0.0
 10
138.0859727647569
 20
607.294886610243
 30
0.0
 10
139.0385416666666
 20
607.0940375434027
 30
0.0
 10
139.2169976128472
 20
607.4988362630207
 30
0.0
 10
139.2965793185764
 20
607.696240234375
 30
0.0
 10
139.0864284939236
 20
607.9959635416666
 30
0.0
 10
138.9527587890625
 20
608.155126953125
 30
0.0
 10
138.7867051866319
 20
608.3590766059027
 30
0.0
 10
138.5827555338541
 20
608.2956868489583
 30
0.0
 10
138.3533121744792
 20
608.3370279947916
 30
0.0
 10
138.0570339626736
 20
608.3911159939236
 30
0.0
 10
137.6270860460069
 20
608.6780924479166
 30
0.0
 10
137.4486300998264
 20
608.3497748480902
 30
0.0
  0
SPLINE
  5
B4
330
A
100
AcDbEntity
  8
LAYER_1
 62
     7
100
AcDbSpline
210
0.0
220
0.0
230
1.0
 70
    11
 71
     3
 72
    38
 73
    34
 74
     0
 42
0.000000001
 43
0.00000001
 40
0.0
 40
0.0
 40
0.0
 40
0.0
 40
1.0
 40
1.0
 40
1.0
 40
2.0
 40
2.0
 40
2.0
 40
3.0
 40
3.0
 40
3.0
 40
4.0
 40
4.0
 40
4.0
 40
5.0
 40
5.0
 40
5.0
 40
6.0
 40
6.0
 40
6.0
 40
7.0
 40
7.0
 40
7.0
 40
8.0
 40
8.0
 40
8.0
 40
9.0
 40
9.0
 40
9.0
 40
10.0
 40
10.0
 40
10.0
 40
11.0
 40
11.0
 40
11.0
 40
11.0
 10
138.3664035373264
 20
610.9849283854167
 30
0.0
 10
138.3822509765625
 20
610.7685763888888
 30
0.0
 10
138.6592366536458
 20
610.5932210286458
 30
0.0
 10
138.7391628689236
 20
610.3985731336805
 30
0.0
 10
138.7867051866319
 20
610.2965983072916
 30
0.0
 10
138.8187445746528
 20
610.1756754557291
 30
0.0
 10
138.8631863064236
 20
610.0737006293402
 30
0.0
 10
138.9272650824653
 20
609.9334852430555
 30
0.0
 10
139.0416422526042
 20
609.8508029513888
 30
0.0
 10
139.1343153211805
 20
609.7329806857638
 30
0.0
 10
139.2169976128472
 20
609.6213595920138
 30
0.0
 10
139.3000244140625
 20
609.519384765625
 30
0.0
 10
139.3923529730903
 20
609.4108642578125
 30
0.0
 10
139.5294677734375
 20
609.2451551649305
 30
0.0
 10
139.5770100911458
 20
608.9902180989583
 30
0.0
 10
139.8098985460069
 20
609.0825466579861
 30
0.0
 10
140.1285698784722
 20
609.2100151909722
 30
0.0
 10
140.3163275824653
 20
609.4745985243055
 30
0.0
 10
140.2305447048611
 20
609.8060167100693
 30
0.0
 10
140.1888590494792
 20
609.9589789496528
 30
0.0
 10
140.1158230251736
 20
610.0926486545138
 30
0.0
 10
140.0806830512153
 20
610.2587022569444
 30
0.0
 10
140.0234944661458
 20
610.5198404947917
 30
0.0
 10
139.9435682508681
 20
610.8195638020833
 30
0.0
 10
139.7237711588542
 20
610.9945746527777
 30
0.0
 10
139.590101453993
 20
611.0999945746527
 30
0.0
 10
139.4274929470486
 20
611.1633843315972
 30
0.0
 10
139.2841769748264
 20
611.2591579861111
 30
0.0
 10
139.1629096137153
 20
611.3418402777777
 30
0.0
 10
139.0671359592014
 20
611.5202962239583
 30
0.0
 10
138.9396674262153
 20
611.5747287326388
 30
0.0
 10
138.6978217230903
 20
611.6732584635416
 30
0.0
 10
138.3471110026042
 20
611.2019694010417
 30
0.0
 10
138.3664035373264
 20
610.9849283854167
 30
0.0
  0
SPLINE
  5
B3
330
A
100
AcDbEntity
  8
LAYER_1
 62
     7
100
AcDbSpline
210
0.0
220
0.0
230
1.0
 70
    11
 71
     3
 72
    23
 73
    19
 74
     0
 42
0.000000001
 43
0.00000001
 40
0.0
 40
0.0
 40
0.0
 40
0.0
 40
1.0
 40
1.0
 40
1.0
 40
2.0
 40
2.0
 40
2.0
 40
3.0
 40
3.0
 40
3.0
 40
4.0
 40
4.0
 40
4.0
 40
5.0
 40
5.0
 40
5.0
 40
6.0
 40
6.0
 40
6.0
 40
6.0
 10
137.1234130859375
 20
611.7338921440971
 30
0.0
 10
137.0979193793403
 20
611.6033230251736
 30
0.0
 10
136.9769965277778
 20
611.3418402777777
 30
0.0
 10
137.0469319661458
 20
611.2143717447916
 30
0.0
 10
137.1616536458333
 20
611.0011203342013
 30
0.0
 10
137.7128689236111
 20
611.1285888671874
 30
0.0
 10
137.8851236979166
 20
611.2750054253472
 30
0.0
 10
137.9998453776041
 20
611.3673339843749
 30
0.0
 10
138.1783013237847
 20
611.488601345486
 30
0.0
 10
138.1783013237847
 20
611.6477647569444
 30
0.0
 10
138.1748562282986
 20
611.947488064236
 30
0.0
 10
137.8627305772569
 20
612.1831325954861
 30
0.0
 10
137.6046929253472
 20
612.272705078125
 30
0.0
 10
137.4899712456597
 20
612.3171468098958
 30
0.0
 10
137.3242621527778
 20
612.3681342230902
 30
0.0
 10
137.23193359375
 20
612.2758056640624
 30
0.0
 10
137.1427056206597
 20
612.1831325954861
 30
0.0
 10
137.1458062065972
 20
611.8613606770833
 30
0.0
 10
137.1234130859375
 20
611.7338921440971
 30
0.0
  0
SPLINE
  5
B2
330
A
100
AcDbEntity
  8
LAYER_1
 62
     7
100
AcDbSpline
210
0.0
220
0.0
230
1.0
 70
    11
 71
     3
 72
    14
 73
    10
 74
     0
 42
0.000000001
 43
0.00000001
 40
0.0
 40
0.0
 40
0.0
 40
0.0
 40
1.0
 40
1.0
 40
1.0
 40
2.0
 40
2.0
 40
2.0
 40
3.0
 40
3.0
 40
3.0
 40
3.0
 10
179.3850884331597
 20
589.4399902343749
 30
0.0
 10
179.4998101128472
 20
589.4368896484375
 30
0.0
 10
179.7895426432291
 20
589.6759792751735
 30
0.0
 10
179.7929877387153
 20
589.7872558593749
 30
0.0
 10
179.8022894965277
 20
590.0869791666667
 30
0.0
 10
179.2479736328125
 20
590.3801567925346
 30
0.0
 10
179.085365125868
 20
590.1379665798611
 30
0.0
 10
178.9262017144097
 20
589.8957763671874
 30
0.0
 10
179.1012125651042
 20
589.4623833550347
 30
0.0
 10
179.3850884331597
 20
589.4399902343749
 30
0.0
  0
SPLINE
  5
B1
330
A
100
AcDbEntity
  8
LAYER_1
 62
     7
100
AcDbSpline
210
0.0
220
0.0
230
1.0
 70
    11
 71
     3
 72
    14
 73
    10
 74
     0
 42
0.000000001
 43
0.00000001
 40
0.0
 40
0.0
 40
0.0
 40
0.0
 40
1.0
 40
1.0
 40
1.0
 40
2.0
 40
2.0
 40
2.0
 40
3.0
 40
3.0
 40
3.0
 40
3.0
 10
129.8132649739583
 20
559.4886745876736
 30
0.0
 10
129.7939724392361
 20
559.2974717881943
 30
0.0
 10
129.5965684678819
 20
558.9405598958333
 30
0.0
 10
129.4436062282986
 20
558.8351399739582
 30
0.0
 10
129.3257839626736
 20
558.9853461371528
 30
0.0
 10
129.3926188151042
 20
559.4214952256943
 30
0.0
 10
129.4374050564236
 20
559.5779025607638
 30
0.0
 10
129.54248046875
 20
559.956863064236
 30
0.0
 10
129.8515055338542
 20
559.8776258680555
 30
0.0
 10
129.8132649739583
 20
559.4886745876736
 30
0.0
  0
SPLINE
  5
B0
330
A
100
AcDbEntity
  8
LAYER_1
 62
     7
100
AcDbSpline
210
0.0
220
0.0
230
1.0
 70
     8
 71
     3
 72
     8
 73
     4
 74
     0
 42
0.000000001
 43
0.00000001
 40
0.0
 40
0.0
 40
0.0
 40
0.0
 40
1.0
 40
1.0
 40
1.0
 40
1.0
 10
131.2154188368056
 20
565.9320366753471
 30
0.0
 10
131.5468370225694
 20
565.5048448350694
 30
0.0
 10
132.4963053385416
 20
567.0920003255208
 30
0.0
 10
131.9516357421875
 20
567.4489122178819
 30
0.0
  0
SPLINE
  5
AF
330
A
100
AcDbEntity
  8
LAYER_1
 62
     7
100
AcDbSpline
210
0.0
220
0.0
230
1.0
 70
     8
 71
     3
 72
     8
 73
     4
 74
     0
 42
0.000000001
 43
0.00000001
 40
0.0
 40
0.0
 40
0.0
 40
0.0
 40
1.0
 40
1.0
 40
1.0
 40
1.0
 10
129.6220621744792
 20
561.4706380208332
 30
0.0
 10
129.8866455078125
 20
561.7066270616319
 30
0.0
 10
130.3165934244792
 20
562.4331976996527
 30
0.0
 10
129.7684787326389
 20
562.6467936197917
 30
0.0
  0
SPLINE
  5
AE
330
A
100
AcDbEntity
  8
LAYER_1
 62
     7
100
AcDbSpline
210
0.0
220
0.0
230
1.0
 70
     8
 71
     3
 72
    11
 73
     7
 74
     0
 42
0.000000001
 43
0.00000001
 40
0.0
 40
0.0
 40
0.0
 40
0.0
 40
1.0
 40
1.0
 40
1.0
 40
2.0
 40
2.0
 40
2.0
 40
2.0
 10
129.4405056423611
 20
559.8900282118055
 30
0.0
 10
129.8322129991319
 20
560.0815755208333
 30
0.0
 10
130.0458089192708
 20
560.2627875434027
 30
0.0
 10
130.0268608940972
 20
560.7251193576388
 30
0.0
 10
130.0141140407986
 20
561.0117513020833
 30
0.0
 10
130.0203152126736
 20
561.7576144748264
 30
0.0
 10
129.5614284939236
 20
561.4706380208332
 30
0.0
  0
POLYLINE
  5
A9
330
A
100
AcDbEntity
  8
LAYER_1
 62
     7
100
AcDb2dPolyline
 66
     1
 10
0.0
 20
0.0
 30
0.0
 70
     1
  0
VERTEX
  5
AA
330
A9
100
AcDbEntity
  8
LAYER_1
 62
     7
100
AcDbVertex
100
AcDb2dVertex
 10
103.195079
 20
618.779801
 30
0.0
  0
VERTEX
  5
AB
330
A9
100
AcDbEntity
  8
LAYER_1
 62
     7
100
AcDbVertex
100
AcDb2dVertex
 10
103.172686
 20
620.226397
 30
0.0
  0
VERTEX
  5
AC
330
A9
100
AcDbEntity
  8
LAYER_1
 62
     7
100
AcDbVertex
100
AcDb2dVertex
 10
104.377436
 20
619.432992
 30
0.0
  0
SEQEND
  5
AD
330
A9
100
AcDbEntity
  8
LAYER_1
 62
     7
  0
HATCH
  5
A8
330
A
100
AcDbEntity
  8
LAYER_1
 62
     7
100
AcDbHatch
 10
0.0
 20
0.0
 30
0.0
210
0.0
220
0.0
230
1.0
  2
SOLID
 70
     1
 71
     0
 91
        1
 92
        3
 72
     0
 73
     1
 93
        3
 10
103.1950792100694
 20
618.7798014322916
 10
103.1726860894097
 20
620.2263970269097
 10
104.3774359809028
 20
619.4329915364583
 97
        0
 75
     0
 76
     1
 98
        1
 10
0.0
 20
0.0
  0
POLYLINE
  5
A3
330
A
100
AcDbEntity
  8
LAYER_1
 62
     7
100
AcDb2dPolyline
 66
     1
 10
0.0
 20
0.0
 30
0.0
 70
     1
  0
VERTEX
  5
A4
330
A3
100
AcDbEntity
  8
LAYER_1
 62
     7
100
AcDbVertex
100
AcDb2dVertex
 10
104.549346
 20
565.645405
 30
0.0
  0
VERTEX
  5
A5
330
A3
100
AcDbEntity
  8
LAYER_1
 62
     7
100
AcDbVertex
100
AcDb2dVertex
 10
104.523853
 20
567.0889
 30
0.0
  0
VERTEX
  5
A6
330
A3
100
AcDbEntity
  8
LAYER_1
 62
     7
100
AcDbVertex
100
AcDb2dVertex
 10
105.731703
 20
566.29515
 30
0.0
  0
SEQEND
  5
A7
330
A3
100
AcDbEntity
  8
LAYER_1
 62
     7
  0
HATCH
  5
A2
330
A
100
AcDbEntity
  8
LAYER_1
 62
     7
100
AcDbHatch
 10
0.0
 20
0.0
 30
0.0
210
0.0
220
0.0
230
1.0
  2
SOLID
 70
     1
 71
     0
 91
        1
 92
        3
 72
     0
 73
     1
 93
        3
 10
104.5493462456597
 20
565.6454047309028
 10
104.5238525390625
 20
567.0888997395833
 10
105.731703016493
 20
566.2951497395833
 97
        0
 75
     0
 76
     1
 98
        1
 10
0.0
 20
0.0
  0
INSERT
  5
8C
330
A
100
AcDbEntity
  8
LAYER_1
 62
     7
100
AcDbBlockReference
  2
AI9-BLK6
 10
234.415149
 20
575.874582
 30
0.0
  0
INSERT
  5
75
330
A
100
AcDbEntity
  8
LAYER_1
 62
     7
100
AcDbBlockReference
  2
AI9-BLK1
 10
77.354451
 20
575.886985
 30
0.0
  0
MTEXT
  5
73
330
A
100
AcDbEntity
  8
LAYER_1
 62
     7
100
AcDbMText
 10
79.400149
 20
576.632523
 30
0.0
 40
1.232675
 41
0.0
 46
0.0
 71
     1
 72
     2
  1
\W1.00;\fHelvetica|b0|i0;770/290
  7
STD
 73
     1
 44
1.0
  0
SPLINE
  5
72
330
A
100
AcDbEntity
  8
LAYER_1
 62
     7
100
AcDbSpline
210
0.0
220
0.0
230
1.0
 70
    11
 71
     3
 72
    20
 73
    16
 74
     0
 42
0.000000001
 43
0.00000001
 40
0.0
 40
0.0
 40
0.0
 40
0.0
 40
1.0
 40
1.0
 40
1.0
 40
2.0
 40
2.0
 40
2.0
 40
3.0
 40
3.0
 40
3.0
 40
4.0
 40
4.0
 40
4.0
 40
5.0
 40
5.0
 40
5.0
 40
5.0
 10
178.7890869140625
 20
587.9262152777777
 30
0.0
 10
178.9609971788194
 20
587.8404324001735
 30
0.0
 10
179.5855929904514
 20
587.8180392795139
 30
0.0
 10
179.703759765625
 20
587.9710015190972
 30
0.0
 10
179.7482014973958
 20
588.0316351996527
 30
0.0
 10
179.7482014973958
 20
588.4553819444444
 30
0.0
 10
179.7547471788194
 20
588.5256618923611
 30
0.0
 10
179.7705946180555
 20
588.6786241319444
 30
0.0
 10
179.7864420572917
 20
588.8536349826388
 30
0.0
 10
179.6400254991319
 20
588.9204698350694
 30
0.0
 10
179.4453776041667
 20
589.0065972222221
 30
0.0
 10
178.9644422743055
 20
588.7995469835068
 30
0.0
 10
178.8145806206597
 20
588.6848253038194
 30
0.0
 10
178.6106309678819
 20
588.5256618923611
 30
0.0
 10
178.4990098741319
 20
588.079177517361
 30
0.0
 10
178.7890869140625
 20
587.9262152777777
 30
0.0
  0
HATCH
  5
71
330
A
100
AcDbEntity
  8
LAYER_1
 62
     7
100
AcDbHatch
 10
0.0
 20
0.0
 30
0.0
210
0.0
220
0.0
230
1.0
  2
SOLID
 70
     1
 71
     0
 91
        1
 92
        1
 93
        1
 72
     4
 94
        3
 73
     0
 74
     0
 95
       20
 96
       16
 40
0.0
 40
0.0
 40
0.0
 40
0.0
 40
1.0
 40
1.0
 40
1.0
 40
2.0
 40
2.0
 40
2.0
 40
3.0
 40
3.0
 40
3.0
 40
4.0
 40
4.0
 40
4.0
 40
5.0
 40
5.0
 40
5.0
 40
5.0
 10
178.7890869140625
 20
587.9262152777777
 10
178.9609971788194
 20
587.8404324001735
 10
179.5855929904514
 20
587.8180392795139
 10
179.703759765625
 20
587.9710015190972
 10
179.7482014973958
 20
588.0316351996527
 10
179.7482014973958
 20
588.4553819444444
 10
179.7547471788194
 20
588.5256618923611
 10
179.7705946180555
 20
588.6786241319444
 10
179.7864420572917
 20
588.8536349826388
 10
179.6400254991319
 20
588.9204698350694
 10
179.4453776041667
 20
589.0065972222221
 10
178.9644422743055
 20
588.7995469835068
 10
178.8145806206597
 20
588.6848253038194
 10
178.6106309678819
 20
588.5256618923611
 10
178.4990098741319
 20
588.079177517361
 10
178.7890869140625
 20
587.9262152777777
 97
        0
 97
        0
 75
     0
 76
     1
 98
        1
 10
0.0
 20
0.0
  0
SPLINE
  5
70
330
A
100
AcDbEntity
  8
LAYER_1
 62
     7
100
AcDbSpline
210
0.0
220
0.0
230
1.0
 70
    11
 71
     3
 72
    20
 73
    16
 74
     0
 42
0.000000001
 43
0.00000001
 40
0.0
 40
0.0
 40
0.0
 40
0.0
 40
1.0
 40
1.0
 40
1.0
 40
2.0
 40
2.0
 40
2.0
 40
3.0
 40
3.0
 40
3.0
 40
4.0
 40
4.0
 40
4.0
 40
5.0
 40
5.0
 40
5.0
 40
5.0
 10
177.5591878255208
 20
590.2017008463541
 30
0.0
 10
177.6577175564236
 20
590.0997260199653
 30
0.0
 10
177.9095540364583
 20
589.956410047743
 30
0.0
 10
178.0370225694444
 20
589.8768283420138
 30
0.0
 10
178.1741373697917
 20
589.8003472222222
 30
0.0
 10
178.4607693142361
 20
589.5867513020833
 30
0.0
 10
178.6040852864583
 20
589.5963975694444
 30
0.0
 10
178.9355034722222
 20
589.6087999131944
 30
0.0
 10
178.9864908854167
 20
590.1889539930555
 30
0.0
 10
178.9293023003472
 20
590.4183973524305
 30
0.0
 10
178.8462754991319
 20
590.7560167100694
 30
0.0
 10
178.4352756076389
 20
591.1384223090278
 30
0.0
 10
178.0594156901041
 20
591.055740017361
 30
0.0
 10
177.7789849175347
 20
590.992005750868
 30
0.0
 10
177.2946044921875
 20
590.4821316189235
 30
0.0
 10
177.5591878255208
 20
590.2017008463541
 30
0.0
  0
HATCH
  5
6F
330
A
100
AcDbEntity
  8
LAYER_1
 62
     7
100
AcDbHatch
 10
0.0
 20
0.0
 30
0.0
210
0.0
220
0.0
230
1.0
  2
SOLID
 70
     1
 71
     0
 91
        1
 92
        1
 93
        1
 72
     4
 94
        3
 73
     0
 74
     0
 95
       20
 96
       16
 40
0.0
 40
0.0
 40
0.0
 40
0.0
 40
1.0
 40
1.0
 40
1.0
 40
2.0
 40
2.0
 40
2.0
 40
3.0
 40
3.0
 40
3.0
 40
4.0
 40
4.0
 40
4.0
 40
5.0
 40
5.0
 40
5.0
 40
5.0
 10
177.5591878255208
 20
590.2017008463541
 10
177.6577175564236
 20
590.0997260199653
 10
177.9095540364583
 20
589.956410047743
 10
178.0370225694444
 20
589.8768283420138
 10
178.1741373697917
 20
589.8003472222222
 10
178.4607693142361
 20
589.5867513020833
 10
178.6040852864583
 20
589.5963975694444
 10
178.9355034722222
 20
589.6087999131944
 10
178.9864908854167
 20
590.1889539930555
 10
178.9293023003472
 20
590.4183973524305
 10
178.8462754991319
 20
590.7560167100694
 10
178.4352756076389
 20
591.1384223090278
 10
178.0594156901041
 20
591.055740017361
 10
177.7789849175347
 20
590.992005750868
 10
177.2946044921875
 20
590.4821316189235
 10
177.5591878255208
 20
590.2017008463541
 97
        0
 97
        0
 75
     0
 76
     1
 98
        1
 10
0.0
 20
0.0
  0
SPLINE
  5
6E
330
A
100
AcDbEntity
  8
LAYER_1
 62
     7
100
AcDbSpline
210
0.0
220
0.0
230
1.0
 70
    11
 71
     3
 72
    35
 73
    31
 74
     0
 42
0.000000001
 43
0.00000001
 40
0.0
 40
0.0
 40
0.0
 40
0.0
 40
1.0
 40
1.0
 40
1.0
 40
2.0
 40
2.0
 40
2.0
 40
3.0
 40
3.0
 40
3.0
 40
4.0
 40
4.0
 40
4.0
 40
5.0
 40
5.0
 40
5.0
 40
6.0
 40
6.0
 40
6.0
 40
7.0
 40
7.0
 40
7.0
 40
8.0
 40
8.0
 40
8.0
 40
9.0
 40
9.0
 40
9.0
 40
10.0
 40
10.0
 40
10.0
 40
10.0
 10
179.0343777126736
 20
592.8402994791666
 30
0.0
 10
178.9196560329861
 20
592.7576171874999
 30
0.0
 10
178.7890869140625
 20
592.7510715060763
 30
0.0
 10
178.7315538194444
 20
592.6108561197916
 30
0.0
 10
178.6902126736111
 20
592.5088812934027
 30
0.0
 10
178.7604926215278
 20
592.3590196397569
 30
0.0
 10
178.7349989149305
 20
592.2539442274305
 30
0.0
 10
178.68056640625
 20
592.0182996961805
 30
0.0
 10
178.451123046875
 20
591.9032335069444
 30
0.0
 10
178.4383761935764
 20
591.6517415364583
 30
0.0
 10
178.4163275824653
 20
591.2979302300347
 30
0.0
 10
178.7794406467014
 20
591.1287760416666
 30
0.0
 10
179.0664171006944
 20
591.0302463107638
 30
0.0
 10
179.2765679253472
 20
590.9599663628471
 30
0.0
 10
179.5346055772569
 20
590.9282714843749
 30
0.0
 10
179.7165066189236
 20
591.0812337239582
 30
0.0
 10
179.8022894965277
 20
591.1515136718749
 30
0.0
 10
179.8694688585069
 20
591.3044759114583
 30
0.0
 10
179.9425048828125
 20
591.3902587890625
 30
0.0
 10
180.0413791232639
 20
591.498779296875
 30
0.0
 10
180.1530002170139
 20
591.6038547092013
 30
0.0
 10
180.2453287760416
 20
591.7247775607639
 30
0.0
 10
180.5068115234375
 20
592.069287109375
 30
0.0
 10
180.4906195746528
 20
592.5915635850694
 30
0.0
 10
180.2136338975694
 20
592.9229817708333
 30
0.0
 10
180.0827202690972
 20
593.0855902777777
 30
0.0
 10
179.8343288845486
 20
593.2419976128472
 30
0.0
 10
179.6238335503472
 20
593.2543999565971
 30
0.0
 10
179.3341010199653
 20
593.2674913194444
 30
0.0
 10
179.2479736328125
 20
592.999462890625
 30
0.0
 10
179.0343777126736
 20
592.8402994791666
 30
0.0
  0
HATCH
  5
6D
330
A
100
AcDbEntity
  8
LAYER_1
 62
     7
100
AcDbHatch
 10
0.0
 20
0.0
 30
0.0
210
0.0
220
0.0
230
1.0
  2
SOLID
 70
     1
 71
     0
 91
        1
 92
        1
 93
        1
 72
     4
 94
        3
 73
     0
 74
     0
 95
       35
 96
       31
 40
0.0
 40
0.0
 40
0.0
 40
0.0
 40
1.0
 40
1.0
 40
1.0
 40
2.0
 40
2.0
 40
2.0
 40
3.0
 40
3.0
 40
3.0
 40
4.0
 40
4.0
 40
4.0
 40
5.0
 40
5.0
 40
5.0
 40
6.0
 40
6.0
 40
6.0
 40
7.0
 40
7.0
 40
7.0
 40
8.0
 40
8.0
 40
8.0
 40
9.0
 40
9.0
 40
9.0
 40
10.0
 40
10.0
 40
10.0
 40
10.0
 10
179.0343777126736
 20
592.8402994791666
 10
178.9196560329861
 20
592.7576171874999
 10
178.7890869140625
 20
592.7510715060763
 10
178.7315538194444
 20
592.6108561197916
 10
178.6902126736111
 20
592.5088812934027
 10
178.7604926215278
 20
592.3590196397569
 10
178.7349989149305
 20
592.2539442274305
 10
178.68056640625
 20
592.0182996961805
 10
178.451123046875
 20
591.9032335069444
 10
178.4383761935764
 20
591.6517415364583
 10
178.4163275824653
 20
591.2979302300347
 10
178.7794406467014
 20
591.1287760416666
 10
179.0664171006944
 20
591.0302463107638
 10
179.2765679253472
 20
590.9599663628471
 10
179.5346055772569
 20
590.9282714843749
 10
179.7165066189236
 20
591.0812337239582
 10
179.8022894965277
 20
591.1515136718749
 10
179.8694688585069
 20
591.3044759114583
 10
179.9425048828125
 20
591.3902587890625
 10
180.0413791232639
 20
591.498779296875
 10
180.1530002170139
 20
591.6038547092013
 10
180.2453287760416
 20
591.7247775607639
 10
180.5068115234375
 20
592.069287109375
 10
180.4906195746528
 20
592.5915635850694
 10
180.2136338975694
 20
592.9229817708333
 10
180.0827202690972
 20
593.0855902777777
 10
179.8343288845486
 20
593.2419976128472
 10
179.6238335503472
 20
593.2543999565971
 10
179.3341010199653
 20
593.2674913194444
 10
179.2479736328125
 20
592.999462890625
 10
179.0343777126736
 20
592.8402994791666
 97
        0
 97
        0
 75
     0
 76
     1
 98
        1
 10
0.0
 20
0.0
  0
SPLINE
  5
6C
330
A
100
AcDbEntity
  8
LAYER_1
 62
     7
100
AcDbSpline
210
0.0
220
0.0
230
1.0
 70
    11
 71
     3
 72
    23
 73
    19
 74
     0
 42
0.000000001
 43
0.00000001
 40
0.0
 40
0.0
 40
0.0
 40
0.0
 40
1.0
 40
1.0
 40
1.0
 40
2.0
 40
2.0
 40
2.0
 40
3.0
 40
3.0
 40
3.0
 40
4.0
 40
4.0
 40
4.0
 40
5.0
 40
5.0
 40
5.0
 40
6.0
 40
6.0
 40
6.0
 40
6.0
 10
179.8184814453125
 20
591.0174994574652
 30
0.0
 10
179.703759765625
 20
590.7115749782986
 30
0.0
 10
179.5569986979166
 20
590.2240939670138
 30
0.0
 10
180.0382785373264
 20
590.2688802083333
 30
0.0
 10
180.3473036024305
 20
590.2971299913194
 30
0.0
 10
180.4492784288194
 20
590.5427652994791
 30
0.0
 10
180.6563286675347
 20
590.7243218315972
 30
0.0
 10
180.8189371744791
 20
590.8710828993055
 30
0.0
 10
180.9815456814236
 20
590.9730577256944
 30
0.0
 10
181.0738742404514
 20
591.1832085503472
 30
0.0
 10
181.1696478949653
 20
591.396804470486
 30
0.0
 10
181.1376085069444
 20
591.4636393229166
 30
0.0
 10
180.975
 20
591.638650173611
 30
0.0
 10
180.7837972005208
 20
591.83984375
 30
0.0
 10
180.6435818142361
 20
592.1264756944444
 30
0.0
 10
180.398291015625
 20
591.8777398003472
 30
0.0
 10
180.1881401909722
 20
591.6613878038194
 30
0.0
 10
179.9235568576389
 20
591.2979302300347
 30
0.0
 10
179.8184814453125
 20
591.0174994574652
 30
0.0
  0
HATCH
  5
6B
330
A
100
AcDbEntity
  8
LAYER_1
 62
     7
100
AcDbHatch
 10
0.0
 20
0.0
 30
0.0
210
0.0
220
0.0
230
1.0
  2
SOLID
 70
     1
 71
     0
 91
        1
 92
        1
 93
        1
 72
     4
 94
        3
 73
     0
 74
     0
 95
       23
 96
       19
 40
0.0
 40
0.0
 40
0.0
 40
0.0
 40
1.0
 40
1.0
 40
1.0
 40
2.0
 40
2.0
 40
2.0
 40
3.0
 40
3.0
 40
3.0
 40
4.0
 40
4.0
 40
4.0
 40
5.0
 40
5.0
 40
5.0
 40
6.0
 40
6.0
 40
6.0
 40
6.0
 10
179.8184814453125
 20
591.0174994574652
 10
179.703759765625
 20
590.7115749782986
 10
179.5569986979166
 20
590.2240939670138
 10
180.0382785373264
 20
590.2688802083333
 10
180.3473036024305
 20
590.2971299913194
 10
180.4492784288194
 20
590.5427652994791
 10
180.6563286675347
 20
590.7243218315972
 10
180.8189371744791
 20
590.8710828993055
 10
180.9815456814236
 20
590.9730577256944
 10
181.0738742404514
 20
591.1832085503472
 10
181.1696478949653
 20
591.396804470486
 10
181.1376085069444
 20
591.4636393229166
 10
180.975
 20
591.638650173611
 10
180.7837972005208
 20
591.83984375
 10
180.6435818142361
 20
592.1264756944444
 10
180.398291015625
 20
591.8777398003472
 10
180.1881401909722
 20
591.6613878038194
 10
179.9235568576389
 20
591.2979302300347
 10
179.8184814453125
 20
591.0174994574652
 97
        0
 97
        0
 75
     0
 76
     1
 98
        1
 10
0.0
 20
0.0
  0
SPLINE
  5
6A
330
A
100
AcDbEntity
  8
LAYER_1
 62
     7
100
AcDbSpline
210
0.0
220
0.0
230
1.0
 70
    11
 71
     3
 72
    38
 73
    34
 74
     0
 42
0.000000001
 43
0.00000001
 40
0.0
 40
0.0
 40
0.0
 40
0.0
 40
1.0
 40
1.0
 40
1.0
 40
2.0
 40
2.0
 40
2.0
 40
3.0
 40
3.0
 40
3.0
 40
4.0
 40
4.0
 40
4.0
 40
5.0
 40
5.0
 40
5.0
 40
6.0
 40
6.0
 40
6.0
 40
7.0
 40
7.0
 40
7.0
 40
8.0
 40
8.0
 40
8.0
 40
9.0
 40
9.0
 40
9.0
 40
10.0
 40
10.0
 40
10.0
 40
11.0
 40
11.0
 40
11.0
 40
11.0
 10
180.7328097873264
 20
595.8423556857639
 30
0.0
 10
180.4206841362847
 20
595.8389105902777
 30
0.0
 10
180.1530002170139
 20
596.1386338975694
 30
0.0
 10
179.9042643229166
 20
596.31708984375
 30
0.0
 10
179.662074110243
 20
596.4921006944444
 30
0.0
 10
179.6017849392361
 20
596.6002766927082
 30
0.0
 10
179.5855929904514
 20
596.8872531467014
 30
0.0
 10
179.5728461371528
 20
597.0846571180555
 30
0.0
 10
179.6017849392361
 20
597.2886067708333
 30
0.0
 10
179.5855929904514
 20
597.4801540798611
 30
0.0
 10
179.5600992838542
 20
597.7474934895832
 30
0.0
 10
179.3530490451389
 20
597.9486870659722
 30
0.0
 10
179.4167833116319
 20
598.2194715711805
 30
0.0
 10
179.47431640625
 20
598.4489149305555
 30
0.0
 10
179.6875678168403
 20
598.6018771701388
 30
0.0
 10
179.9235568576389
 20
598.6080783420139
 30
0.0
 10
180.0541259765625
 20
598.6080783420139
 30
0.0
 10
180.1719482421875
 20
598.5412434895833
 30
0.0
 10
180.2932156032986
 20
598.5188503689236
 30
0.0
 10
180.5577989366319
 20
598.4744086371527
 30
0.0
 10
180.8251383463542
 20
598.4744086371527
 30
0.0
 10
181.0835205078125
 20
598.397927517361
 30
0.0
 10
181.3226101345486
 20
598.3276475694444
 30
0.0
 10
181.7239637586805
 20
598.2384195963541
 30
0.0
 10
181.838685438368
 20
598.0089762369792
 30
0.0
 10
181.9916476779514
 20
597.7192437065971
 30
0.0
 10
181.7684054904514
 20
597.3461398654514
 30
0.0
 10
181.6729763454861
 20
597.0784559461805
 30
0.0
 10
181.5741021050347
 20
596.8042263454861
 30
0.0
 10
181.7050157335069
 20
596.4028727213541
 30
0.0
 10
181.5710015190972
 20
596.1510362413194
 30
0.0
 10
181.4404324001736
 20
595.9188368055555
 30
0.0
 10
180.9781005859375
 20
595.8451117621527
 30
0.0
 10
180.7328097873264
 20
595.8423556857639
 30
0.0
  0
HATCH
  5
69
330
A
100
AcDbEntity
  8
LAYER_1
 62
     7
100
AcDbHatch
 10
0.0
 20
0.0
 30
0.0
210
0.0
220
0.0
230
1.0
  2
SOLID
 70
     1
 71
     0
 91
        1
 92
        1
 93
        1
 72
     4
 94
        3
 73
     0
 74
     0
 95
       38
 96
       34
 40
0.0
 40
0.0
 40
0.0
 40
0.0
 40
1.0
 40
1.0
 40
1.0
 40
2.0
 40
2.0
 40
2.0
 40
3.0
 40
3.0
 40
3.0
 40
4.0
 40
4.0
 40
4.0
 40
5.0
 40
5.0
 40
5.0
 40
6.0
 40
6.0
 40
6.0
 40
7.0
 40
7.0
 40
7.0
 40
8.0
 40
8.0
 40
8.0
 40
9.0
 40
9.0
 40
9.0
 40
10.0
 40
10.0
 40
10.0
 40
11.0
 40
11.0
 40
11.0
 40
11.0
 10
180.7328097873264
 20
595.8423556857639
 10
180.4206841362847
 20
595.8389105902777
 10
180.1530002170139
 20
596.1386338975694
 10
179.9042643229166
 20
596.31708984375
 10
179.662074110243
 20
596.4921006944444
 10
179.6017849392361
 20
596.6002766927082
 10
179.5855929904514
 20
596.8872531467014
 10
179.5728461371528
 20
597.0846571180555
 10
179.6017849392361
 20
597.2886067708333
 10
179.5855929904514
 20
597.4801540798611
 10
179.5600992838542
 20
597.7474934895832
 10
179.3530490451389
 20
597.9486870659722
 10
179.4167833116319
 20
598.2194715711805
 10
179.47431640625
 20
598.4489149305555
 10
179.6875678168403
 20
598.6018771701388
 10
179.9235568576389
 20
598.6080783420139
 10
180.0541259765625
 20
598.6080783420139
 10
180.1719482421875
 20
598.5412434895833
 10
180.2932156032986
 20
598.5188503689236
 10
180.5577989366319
 20
598.4744086371527
 10
180.8251383463542
 20
598.4744086371527
 10
181.0835205078125
 20
598.397927517361
 10
181.3226101345486
 20
598.3276475694444
 10
181.7239637586805
 20
598.2384195963541
 10
181.838685438368
 20
598.0089762369792
 10
181.9916476779514
 20
597.7192437065971
 10
181.7684054904514
 20
597.3461398654514
 10
181.6729763454861
 20
597.0784559461805
 10
181.5741021050347
 20
596.8042263454861
 10
181.7050157335069
 20
596.4028727213541
 10
181.5710015190972
 20
596.1510362413194
 10
181.4404324001736
 20
595.9188368055555
 10
180.9781005859375
 20
595.8451117621527
 10
180.7328097873264
 20
595.8423556857639
 97
        0
 97
        0
 75
     0
 76
     1
 98
        1
 10
0.0
 20
0.0
  0
SPLINE
  5
68
330
A
100
AcDbEntity
  8
LAYER_1
 62
     7
100
AcDbSpline
210
0.0
220
0.0
230
1.0
 70
    11
 71
     3
 72
    23
 73
    19
 74
     0
 42
0.000000001
 43
0.00000001
 40
0.0
 40
0.0
 40
0.0
 40
0.0
 40
1.0
 40
1.0
 40
1.0
 40
2.0
 40
2.0
 40
2.0
 40
3.0
 40
3.0
 40
3.0
 40
4.0
 40
4.0
 40
4.0
 40
5.0
 40
5.0
 40
5.0
 40
6.0
 40
6.0
 40
6.0
 40
6.0
 10
181.6443820529514
 20
604.3889485677083
 30
0.0
 10
181.5995958116319
 20
604.134011501736
 30
0.0
 10
181.9310139973958
 20
603.3946940104166
 30
0.0
 10
182.1732042100694
 20
603.2699815538194
 30
0.0
 10
182.4443332248264
 20
603.1204644097222
 30
0.0
 10
182.8170925564236
 20
603.442236328125
 30
0.0
 10
182.9252685546875
 20
603.6875271267361
 30
0.0
 10
183.0144965277778
 20
603.8914767795138
 30
0.0
 10
182.8870279947917
 20
604.134011501736
 30
0.0
 10
182.7946994357639
 20
604.3152235243055
 30
0.0
 10
182.7278645833333
 20
604.4492377387152
 30
0.0
 10
182.692724609375
 20
604.6183919270833
 30
0.0
 10
182.6065972222222
 20
604.7393147786457
 30
0.0
 10
182.4822292751736
 20
604.9177707248264
 30
0.0
 10
182.4887749565972
 20
604.8857313368055
 30
0.0
 10
182.291370985243
 20
604.8285427517361
 30
0.0
 10
182.061927625868
 20
604.764808485243
 30
0.0
 10
181.6919243706597
 20
604.6628336588541
 30
0.0
 10
181.6443820529514
 20
604.3889485677083
 30
0.0
  0
HATCH
  5
67
330
A
100
AcDbEntity
  8
LAYER_1
 62
     7
100
AcDbHatch
 10
0.0
 20
0.0
 30
0.0
210
0.0
220
0.0
230
1.0
  2
SOLID
 70
     1
 71
     0
 91
        1
 92
        1
 93
        1
 72
     4
 94
        3
 73
     0
 74
     0
 95
       23
 96
       19
 40
0.0
 40
0.0
 40
0.0
 40
0.0
 40
1.0
 40
1.0
 40
1.0
 40
2.0
 40
2.0
 40
2.0
 40
3.0
 40
3.0
 40
3.0
 40
4.0
 40
4.0
 40
4.0
 40
5.0
 40
5.0
 40
5.0
 40
6.0
 40
6.0
 40
6.0
 40
6.0
 10
181.6443820529514
 20
604.3889485677083
 10
181.5995958116319
 20
604.134011501736
 10
181.9310139973958
 20
603.3946940104166
 10
182.1732042100694
 20
603.2699815538194
 10
182.4443332248264
 20
603.1204644097222
 10
182.8170925564236
 20
603.442236328125
 10
182.9252685546875
 20
603.6875271267361
 10
183.0144965277778
 20
603.8914767795138
 10
182.8870279947917
 20
604.134011501736
 10
182.7946994357639
 20
604.3152235243055
 10
182.7278645833333
 20
604.4492377387152
 10
182.692724609375
 20
604.6183919270833
 10
182.6065972222222
 20
604.7393147786457
 10
182.4822292751736
 20
604.9177707248264
 10
182.4887749565972
 20
604.8857313368055
 10
182.291370985243
 20
604.8285427517361
 10
182.061927625868
 20
604.764808485243
 10
181.6919243706597
 20
604.6628336588541
 10
181.6443820529514
 20
604.3889485677083
 97
        0
 97
        0
 75
     0
 76
     1
 98
        1
 10
0.0
 20
0.0
  0
SPLINE
  5
66
330
A
100
AcDbEntity
  8
LAYER_1
 62
     7
100
AcDbSpline
210
0.0
220
0.0
230
1.0
 70
    11
 71
     3
 72
    20
 73
    16
 74
     0
 42
0.000000001
 43
0.00000001
 40
0.0
 40
0.0
 40
0.0
 40
0.0
 40
1.0
 40
1.0
 40
1.0
 40
2.0
 40
2.0
 40
2.0
 40
3.0
 40
3.0
 40
3.0
 40
4.0
 40
4.0
 40
4.0
 40
5.0
 40
5.0
 40
5.0
 40
5.0
 10
184.1744601779514
 20
603.3244140625
 30
0.0
 10
184.2922824435764
 20
603.1332112630208
 30
0.0
 10
184.4421440972222
 20
602.8083387586805
 30
0.0
 10
184.6653862847222
 20
602.7187662760416
 30
0.0
 10
184.9806125217014
 20
602.5947428385416
 30
0.0
 10
185.3089301215278
 20
602.7890462239583
 30
0.0
 10
185.3502712673611
 20
603.1204644097222
 30
0.0
 10
185.3757649739583
 20
603.388148328993
 30
0.0
 10
185.1845621744791
 20
603.4008951822916
 30
0.0
 10
185.0284993489583
 20
603.56005859375
 30
0.0
 10
184.8469428168403
 20
603.7419596354166
 30
0.0
 10
184.703626844618
 20
604.0637315538194
 30
0.0
 10
184.4008029513889
 20
603.9617567274305
 30
0.0
 10
184.0979790581597
 20
603.8597819010416
 30
0.0
 10
184.0311442057292
 20
603.5731499565971
 30
0.0
 10
184.1744601779514
 20
603.3244140625
 30
0.0
  0
HATCH
  5
65
330
A
100
AcDbEntity
  8
LAYER_1
 62
     7
100
AcDbHatch
 10
0.0
 20
0.0
 30
0.0
210
0.0
220
0.0
230
1.0
  2
SOLID
 70
     1
 71
     0
 91
        1
 92
        1
 93
        1
 72
     4
 94
        3
 73
     0
 74
     0
 95
       20
 96
       16
 40
0.0
 40
0.0
 40
0.0
 40
0.0
 40
1.0
 40
1.0
 40
1.0
 40
2.0
 40
2.0
 40
2.0
 40
3.0
 40
3.0
 40
3.0
 40
4.0
 40
4.0
 40
4.0
 40
5.0
 40
5.0
 40
5.0
 40
5.0
 10
184.1744601779514
 20
603.3244140625
 10
184.2922824435764
 20
603.1332112630208
 10
184.4421440972222
 20
602.8083387586805
 10
184.6653862847222
 20
602.7187662760416
 10
184.9806125217014
 20
602.5947428385416
 10
185.3089301215278
 20
602.7890462239583
 10
185.3502712673611
 20
603.1204644097222
 10
185.3757649739583
 20
603.388148328993
 10
185.1845621744791
 20
603.4008951822916
 10
185.0284993489583
 20
603.56005859375
 10
184.8469428168403
 20
603.7419596354166
 10
184.703626844618
 20
604.0637315538194
 10
184.4008029513889
 20
603.9617567274305
 10
184.0979790581597
 20
603.8597819010416
 10
184.0311442057292
 20
603.5731499565971
 10
184.1744601779514
 20
603.3244140625
 97
        0
 97
        0
 75
     0
 76
     1
 98
        1
 10
0.0
 20
0.0
  0
SPLINE
  5
64
330
A
100
AcDbEntity
  8
LAYER_1
 62
     7
100
AcDbSpline
210
0.0
220
0.0
230
1.0
 70
    11
 71
     3
 72
    17
 73
    13
 74
     0
 42
0.000000001
 43
0.00000001
 40
0.0
 40
0.0
 40
0.0
 40
0.0
 40
1.0
 40
1.0
 40
1.0
 40
2.0
 40
2.0
 40
2.0
 40
3.0
 40
3.0
 40
3.0
 40
4.0
 40
4.0
 40
4.0
 40
4.0
 10
180.3187093098958
 20
603.4677300347222
 30
0.0
 10
180.3600504557292
 20
603.2417317708333
 30
0.0
 10
180.5257595486111
 20
603.101171875
 30
0.0
 10
180.7775960286458
 20
603.0632758246527
 30
0.0
 10
181.0545817057292
 20
603.0246907552083
 30
0.0
 10
181.1820502387152
 20
603.4105414496527
 30
0.0
 10
181.1885959201389
 20
603.6241373697916
 30
0.0
 10
181.1951416015625
 20
603.9424641927083
 30
0.0
 10
180.9433051215278
 20
604.134011501736
 30
0.0
 10
180.6373806423611
 20
604.1209201388888
 30
0.0
 10
180.2708224826389
 20
604.1085177951388
 30
0.0
 10
180.2580756293403
 20
603.777099609375
 30
0.0
 10
180.3187093098958
 20
603.4677300347222
 30
0.0
  0
HATCH
  5
63
330
A
100
AcDbEntity
  8
LAYER_1
 62
     7
100
AcDbHatch
 10
0.0
 20
0.0
 30
0.0
210
0.0
220
0.0
230
1.0
  2
SOLID
 70
     1
 71
     0
 91
        1
 92
        1
 93
        1
 72
     4
 94
        3
 73
     0
 74
     0
 95
       17
 96
       13
 40
0.0
 40
0.0
 40
0.0
 40
0.0
 40
1.0
 40
1.0
 40
1.0
 40
2.0
 40
2.0
 40
2.0
 40
3.0
 40
3.0
 40
3.0
 40
4.0
 40
4.0
 40
4.0
 40
4.0
 10
180.3187093098958
 20
603.4677300347222
 10
180.3600504557292
 20
603.2417317708333
 10
180.5257595486111
 20
603.101171875
 10
180.7775960286458
 20
603.0632758246527
 10
181.0545817057292
 20
603.0246907552083
 10
181.1820502387152
 20
603.4105414496527
 10
181.1885959201389
 20
603.6241373697916
 10
181.1951416015625
 20
603.9424641927083
 10
180.9433051215278
 20
604.134011501736
 10
180.6373806423611
 20
604.1209201388888
 10
180.2708224826389
 20
604.1085177951388
 10
180.2580756293403
 20
603.777099609375
 10
180.3187093098958
 20
603.4677300347222
 97
        0
 97
        0
 75
     0
 76
     1
 98
        1
 10
0.0
 20
0.0
  0
SPLINE
  5
62
330
A
100
AcDbEntity
  8
LAYER_1
 62
     7
100
AcDbSpline
210
0.0
220
0.0
230
1.0
 70
    11
 71
     3
 72
    17
 73
    13
 74
     0
 42
0.000000001
 43
0.00000001
 40
0.0
 40
0.0
 40
0.0
 40
0.0
 40
1.0
 40
1.0
 40
1.0
 40
2.0
 40
2.0
 40
2.0
 40
3.0
 40
3.0
 40
3.0
 40
4.0
 40
4.0
 40
4.0
 40
4.0
 10
179.5253038194444
 20
601.8678276909721
 30
0.0
 10
179.8756700303819
 20
601.839577907986
 30
0.0
 10
179.9011637369792
 20
601.9732476128472
 30
0.0
 10
179.8822157118055
 20
602.3077663845486
 30
0.0
 10
179.8694688585069
 20
602.527907986111
 30
0.0
 10
179.8980631510416
 20
602.8145399305555
 30
0.0
 10
179.7292534722222
 20
602.992995876736
 30
0.0
 10
179.3785427517361
 20
603.3626546223958
 30
0.0
 10
179.0502251519097
 20
602.9130696614583
 30
0.0
 10
179.0471245659722
 20
602.5754503038194
 30
0.0
 10
179.0409233940972
 20
602.1964898003472
 30
0.0
 10
179.0822645399305
 20
601.8967664930555
 30
0.0
 10
179.5253038194444
 20
601.8678276909721
 30
0.0
  0
HATCH
  5
61
330
A
100
AcDbEntity
  8
LAYER_1
 62
     7
100
AcDbHatch
 10
0.0
 20
0.0
 30
0.0
210
0.0
220
0.0
230
1.0
  2
SOLID
 70
     1
 71
     0
 91
        1
 92
        1
 93
        1
 72
     4
 94
        3
 73
     0
 74
     0
 95
       17
 96
       13
 40
0.0
 40
0.0
 40
0.0
 40
0.0
 40
1.0
 40
1.0
 40
1.0
 40
2.0
 40
2.0
 40
2.0
 40
3.0
 40
3.0
 40
3.0
 40
4.0
 40
4.0
 40
4.0
 40
4.0
 10
179.5253038194444
 20
601.8678276909721
 10
179.8756700303819
 20
601.839577907986
 10
179.9011637369792
 20
601.9732476128472
 10
179.8822157118055
 20
602.3077663845486
 10
179.8694688585069
 20
602.527907986111
 10
179.8980631510416
 20
602.8145399305555
 10
179.7292534722222
 20
602.992995876736
 10
179.3785427517361
 20
603.3626546223958
 10
179.0502251519097
 20
602.9130696614583
 10
179.0471245659722
 20
602.5754503038194
 10
179.0409233940972
 20
602.1964898003472
 10
179.0822645399305
 20
601.8967664930555
 10
179.5253038194444
 20
601.8678276909721
 97
        0
 97
        0
 75
     0
 76
     1
 98
        1
 10
0.0
 20
0.0
  0
SPLINE
  5
60
330
A
100
AcDbEntity
  8
LAYER_1
 62
     7
100
AcDbSpline
210
0.0
220
0.0
230
1.0
 70
    11
 71
     3
 72
    17
 73
    13
 74
     0
 42
0.000000001
 43
0.00000001
 40
0.0
 40
0.0
 40
0.0
 40
0.0
 40
1.0
 40
1.0
 40
1.0
 40
2.0
 40
2.0
 40
2.0
 40
3.0
 40
3.0
 40
3.0
 40
4.0
 40
4.0
 40
4.0
 40
4.0
 10
180.8444308810764
 20
602.470374891493
 30
0.0
 10
180.8699245876736
 20
602.3494520399305
 30
0.0
 10
181.2140896267361
 20
601.9222601996527
 30
0.0
 10
181.3512044270833
 20
601.8933213975694
 30
0.0
 10
181.4307861328125
 20
601.8774739583333
 30
0.0
 10
181.6795220269097
 20
602.0435275607638
 30
0.0
 10
181.720863172743
 20
602.1324110243055
 30
0.0
 10
181.8228379991319
 20
602.3684000651041
 30
0.0
 10
181.5520534939236
 20
602.6743245442708
 30
0.0
 10
181.3701524522569
 20
602.7952473958333
 30
0.0
 10
181.1279622395833
 20
602.9547553168402
 30
0.0
 10
180.7806966145833
 20
602.8017930772569
 30
0.0
 10
180.8444308810764
 20
602.470374891493
 30
0.0
  0
HATCH
  5
5F
330
A
100
AcDbEntity
  8
LAYER_1
 62
     7
100
AcDbHatch
 10
0.0
 20
0.0
 30
0.0
210
0.0
220
0.0
230
1.0
  2
SOLID
 70
     1
 71
     0
 91
        1
 92
        1
 93
        1
 72
     4
 94
        3
 73
     0
 74
     0
 95
       17
 96
       13
 40
0.0
 40
0.0
 40
0.0
 40
0.0
 40
1.0
 40
1.0
 40
1.0
 40
2.0
 40
2.0
 40
2.0
 40
3.0
 40
3.0
 40
3.0
 40
4.0
 40
4.0
 40
4.0
 40
4.0
 10
180.8444308810764
 20
602.470374891493
 10
180.8699245876736
 20
602.3494520399305
 10
181.2140896267361
 20
601.9222601996527
 10
181.3512044270833
 20
601.8933213975694
 10
181.4307861328125
 20
601.8774739583333
 10
181.6795220269097
 20
602.0435275607638
 10
181.720863172743
 20
602.1324110243055
 10
181.8228379991319
 20
602.3684000651041
 10
181.5520534939236
 20
602.6743245442708
 10
181.3701524522569
 20
602.7952473958333
 10
181.1279622395833
 20
602.9547553168402
 10
180.7806966145833
 20
602.8017930772569
 10
180.8444308810764
 20
602.470374891493
 97
        0
 97
        0
 75
     0
 76
     1
 98
        1
 10
0.0
 20
0.0
  0
SPLINE
  5
5E
330
A
100
AcDbEntity
  8
LAYER_1
 62
     7
100
AcDbSpline
210
0.0
220
0.0
230
1.0
 70
    11
 71
     3
 72
    26
 73
    22
 74
     0
 42
0.000000001
 43
0.00000001
 40
0.0
 40
0.0
 40
0.0
 40
0.0
 40
1.0
 40
1.0
 40
1.0
 40
2.0
 40
2.0
 40
2.0
 40
3.0
 40
3.0
 40
3.0
 40
4.0
 40
4.0
 40
4.0
 40
5.0
 40
5.0
 40
5.0
 40
6.0
 40
6.0
 40
6.0
 40
7.0
 40
7.0
 40
7.0
 40
7.0
 10
182.9986490885416
 20
602.1833984374999
 30
0.0
 10
182.7723063151041
 20
601.9859944661458
 30
0.0
 10
182.5587103949653
 20
601.9095133463541
 30
0.0
 10
182.5173692491319
 20
601.6101345486111
 30
0.0
 10
182.4729275173611
 20
601.2339301215277
 30
0.0
 10
182.4760281032986
 20
600.4629177517361
 30
0.0
 10
182.9604085286458
 20
600.4181315104166
 30
0.0
 10
183.5467637803819
 20
600.3733452690972
 30
0.0
 10
184.1999538845486
 20
600.9183593749999
 30
0.0
 10
184.2030544704861
 20
601.498513454861
 30
0.0
 10
184.2064995659722
 20
601.7789442274305
 30
0.0
 10
184.2702338324653
 20
602.1134629991319
 30
0.0
 10
184.2285481770833
 20
602.3938937717013
 30
0.0
 10
184.1937527126736
 20
602.6488308376736
 30
0.0
 10
183.846142578125
 20
602.9420084635416
 30
0.0
 10
183.5946506076389
 20
602.9547553168402
 30
0.0
 10
183.3652072482639
 20
602.9737033420138
 30
0.0
 10
183.3938015407986
 20
602.8910210503471
 30
0.0
 10
183.3300672743055
 20
602.7253119574652
 30
0.0
 10
183.2470404730903
 20
602.4958685980902
 30
0.0
 10
183.1898518880208
 20
602.3460069444444
 30
0.0
 10
182.9986490885416
 20
602.1833984374999
 30
0.0
  0
HATCH
  5
5D
330
A
100
AcDbEntity
  8
LAYER_1
 62
     7
100
AcDbHatch
 10
0.0
 20
0.0
 30
0.0
210
0.0
220
0.0
230
1.0
  2
SOLID
 70
     1
 71
     0
 91
        1
 92
        1
 93
        1
 72
     4
 94
        3
 73
     0
 74
     0
 95
       26
 96
       22
 40
0.0
 40
0.0
 40
0.0
 40
0.0
 40
1.0
 40
1.0
 40
1.0
 40
2.0
 40
2.0
 40
2.0
 40
3.0
 40
3.0
 40
3.0
 40
4.0
 40
4.0
 40
4.0
 40
5.0
 40
5.0
 40
5.0
 40
6.0
 40
6.0
 40
6.0
 40
7.0
 40
7.0
 40
7.0
 40
7.0
 10
182.9986490885416
 20
602.1833984374999
 10
182.7723063151041
 20
601.9859944661458
 10
182.5587103949653
 20
601.9095133463541
 10
182.5173692491319
 20
601.6101345486111
 10
182.4729275173611
 20
601.2339301215277
 10
182.4760281032986
 20
600.4629177517361
 10
182.9604085286458
 20
600.4181315104166
 10
183.5467637803819
 20
600.3733452690972
 10
184.1999538845486
 20
600.9183593749999
 10
184.2030544704861
 20
601.498513454861
 10
184.2064995659722
 20
601.7789442274305
 10
184.2702338324653
 20
602.1134629991319
 10
184.2285481770833
 20
602.3938937717013
 10
184.1937527126736
 20
602.6488308376736
 10
183.846142578125
 20
602.9420084635416
 10
183.5946506076389
 20
602.9547553168402
 10
183.3652072482639
 20
602.9737033420138
 10
183.3938015407986
 20
602.8910210503471
 10
183.3300672743055
 20
602.7253119574652
 10
183.2470404730903
 20
602.4958685980902
 10
183.1898518880208
 20
602.3460069444444
 10
182.9986490885416
 20
602.1833984374999
 97
        0
 97
        0
 75
     0
 76
     1
 98
        1
 10
0.0
 20
0.0
  0
SPLINE
  5
5C
330
A
100
AcDbEntity
  8
LAYER_1
 62
     7
100
AcDbSpline
210
0.0
220
0.0
230
1.0
 70
    11
 71
     3
 72
    17
 73
    13
 74
     0
 42
0.000000001
 43
0.00000001
 40
0.0
 40
0.0
 40
0.0
 40
0.0
 40
1.0
 40
1.0
 40
1.0
 40
2.0
 40
2.0
 40
2.0
 40
3.0
 40
3.0
 40
3.0
 40
4.0
 40
4.0
 40
4.0
 40
4.0
 10
183.6676866319444
 20
600.1983344184027
 30
0.0
 10
183.610498046875
 20
600.0295247395833
 30
0.0
 10
183.7059271918403
 20
599.4493706597221
 30
0.0
 10
183.8588894314236
 20
599.3728895399305
 30
0.0
 10
184.0280436197916
 20
599.2902072482639
 30
0.0
 10
184.6143988715278
 20
599.3666883680555
 30
0.0
 10
184.7353217230903
 20
599.5131049262152
 30
0.0
 10
184.8565890842014
 20
599.6533203125
 30
0.0
 10
184.8310953776042
 20
599.9275499131944
 30
0.0
 10
184.7894097222222
 20
600.0901584201388
 30
0.0
 10
184.6970811631944
 20
600.4308783637152
 30
0.0
 10
183.7951551649305
 20
600.5772949218749
 30
0.0
 10
183.6676866319444
 20
600.1983344184027
 30
0.0
  0
HATCH
  5
5B
330
A
100
AcDbEntity
  8
LAYER_1
 62
     7
100
AcDbHatch
 10
0.0
 20
0.0
 30
0.0
210
0.0
220
0.0
230
1.0
  2
SOLID
 70
     1
 71
     0
 91
        1
 92
        1
 93
        1
 72
     4
 94
        3
 73
     0
 74
     0
 95
       17
 96
       13
 40
0.0
 40
0.0
 40
0.0
 40
0.0
 40
1.0
 40
1.0
 40
1.0
 40
2.0
 40
2.0
 40
2.0
 40
3.0
 40
3.0
 40
3.0
 40
4.0
 40
4.0
 40
4.0
 40
4.0
 10
183.6676866319444
 20
600.1983344184027
 10
183.610498046875
 20
600.0295247395833
 10
183.7059271918403
 20
599.4493706597221
 10
183.8588894314236
 20
599.3728895399305
 10
184.0280436197916
 20
599.2902072482639
 10
184.6143988715278
 20
599.3666883680555
 10
184.7353217230903
 20
599.5131049262152
 10
184.8565890842014
 20
599.6533203125
 10
184.8310953776042
 20
599.9275499131944
 10
184.7894097222222
 20
600.0901584201388
 10
184.6970811631944
 20
600.4308783637152
 10
183.7951551649305
 20
600.5772949218749
 10
183.6676866319444
 20
600.1983344184027
 97
        0
 97
        0
 75
     0
 76
     1
 98
        1
 10
0.0
 20
0.0
  0
SPLINE
  5
5A
330
A
100
AcDbEntity
  8
LAYER_1
 62
     7
100
AcDbSpline
210
0.0
220
0.0
230
1.0
 70
    11
 71
     3
 72
    20
 73
    16
 74
     0
 42
0.000000001
 43
0.00000001
 40
0.0
 40
0.0
 40
0.0
 40
0.0
 40
1.0
 40
1.0
 40
1.0
 40
2.0
 40
2.0
 40
2.0
 40
3.0
 40
3.0
 40
3.0
 40
4.0
 40
4.0
 40
4.0
 40
5.0
 40
5.0
 40
5.0
 40
5.0
 10
179.7165066189236
 20
599.3601426866319
 30
0.0
 10
179.5538981119792
 20
599.4431694878472
 30
0.0
 10
179.139453125
 20
599.3346489800347
 30
0.0
 10
178.9609971788194
 20
599.3346489800347
 30
0.0
 10
178.5851372612847
 20
599.3346489800347
 30
0.0
 10
178.5692898220486
 20
599.2836615668402
 30
0.0
 10
178.5723904079861
 20
598.9202039930555
 30
0.0
 10
178.5754909939236
 20
598.6080783420139
 30
0.0
 10
178.4225287543402
 20
597.9865831163194
 30
0.0
 10
178.8686686197917
 20
597.9610894097221
 30
0.0
 10
179.2286810980902
 20
597.939040798611
 30
0.0
 10
179.3468478732639
 20
598.3469401041666
 30
0.0
 10
179.544251844618
 20
598.569837782118
 30
0.0
 10
179.7068603515625
 20
598.7548394097222
 30
0.0
 10
180.0861653645833
 20
599.1689398871528
 30
0.0
 10
179.7165066189236
 20
599.3601426866319
 30
0.0
  0
HATCH
  5
59
330
A
100
AcDbEntity
  8
LAYER_1
 62
     7
100
AcDbHatch
 10
0.0
 20
0.0
 30
0.0
210
0.0
220
0.0
230
1.0
  2
SOLID
 70
     1
 71
     0
 91
        1
 92
        1
 93
        1
 72
     4
 94
        3
 73
     0
 74
     0
 95
       20
 96
       16
 40
0.0
 40
0.0
 40
0.0
 40
0.0
 40
1.0
 40
1.0
 40
1.0
 40
2.0
 40
2.0
 40
2.0
 40
3.0
 40
3.0
 40
3.0
 40
4.0
 40
4.0
 40
4.0
 40
5.0
 40
5.0
 40
5.0
 40
5.0
 10
179.7165066189236
 20
599.3601426866319
 10
179.5538981119792
 20
599.4431694878472
 10
179.139453125
 20
599.3346489800347
 10
178.9609971788194
 20
599.3346489800347
 10
178.5851372612847
 20
599.3346489800347
 10
178.5692898220486
 20
599.2836615668402
 10
178.5723904079861
 20
598.9202039930555
 10
178.5754909939236
 20
598.6080783420139
 10
178.4225287543402
 20
597.9865831163194
 10
178.8686686197917
 20
597.9610894097221
 10
179.2286810980902
 20
597.939040798611
 10
179.3468478732639
 20
598.3469401041666
 10
179.544251844618
 20
598.569837782118
 10
179.7068603515625
 20
598.7548394097222
 10
180.0861653645833
 20
599.1689398871528
 10
179.7165066189236
 20
599.3601426866319
 97
        0
 97
        0
 75
     0
 76
     1
 98
        1
 10
0.0
 20
0.0
  0
SPLINE
  5
58
330
A
100
AcDbEntity
  8
LAYER_1
 62
     7
100
AcDbSpline
210
0.0
220
0.0
230
1.0
 70
    11
 71
     3
 72
    26
 73
    22
 74
     0
 42
0.000000001
 43
0.00000001
 40
0.0
 40
0.0
 40
0.0
 40
0.0
 40
1.0
 40
1.0
 40
1.0
 40
2.0
 40
2.0
 40
2.0
 40
3.0
 40
3.0
 40
3.0
 40
4.0
 40
4.0
 40
4.0
 40
5.0
 40
5.0
 40
5.0
 40
6.0
 40
6.0
 40
6.0
 40
7.0
 40
7.0
 40
7.0
 40
7.0
 10
181.5200141059028
 20
598.9966851128472
 30
0.0
 10
181.6602294921875
 20
599.0159776475693
 30
0.0
 10
181.8834716796875
 20
599.0221788194444
 30
0.0
 10
182.0267876519097
 20
599.0032307942707
 30
0.0
 10
182.2403835720486
 20
598.9618896484375
 30
0.0
 10
182.1349636501736
 20
599.0097764756944
 30
0.0
 10
182.1477105034722
 20
598.7927354600694
 30
0.0
 10
182.1542561848958
 20
598.7162543402777
 30
0.0
 10
182.1032687717014
 20
598.6942057291666
 30
0.0
 10
182.1415093315972
 20
598.6142795138888
 30
0.0
 10
182.1670030381944
 20
598.5632921006944
 30
0.0
 10
182.297572157118
 20
598.5539903428819
 30
0.0
 10
182.3261664496528
 20
598.4933566623263
 30
0.0
 10
182.3933458116319
 20
598.3469401041666
 30
0.0
 10
182.2751790364583
 20
598.2001790364583
 30
0.0
 10
182.1415093315972
 20
598.1333441840277
 30
0.0
 10
181.8769259982639
 20
597.9865831163194
 30
0.0
 10
181.4562798394097
 20
598.270458984375
 30
0.0
 10
181.268177625868
 20
598.4551161024305
 30
0.0
 10
181.038734266493
 20
598.681458875868
 30
0.0
 10
181.2013427734375
 20
598.9618896484375
 30
0.0
 10
181.5200141059028
 20
598.9966851128472
 30
0.0
  0
HATCH
  5
57
330
A
100
AcDbEntity
  8
LAYER_1
 62
     7
100
AcDbHatch
 10
0.0
 20
0.0
 30
0.0
210
0.0
220
0.0
230
1.0
  2
SOLID
 70
     1
 71
     0
 91
        1
 92
        1
 93
        1
 72
     4
 94
        3
 73
     0
 74
     0
 95
       26
 96
       22
 40
0.0
 40
0.0
 40
0.0
 40
0.0
 40
1.0
 40
1.0
 40
1.0
 40
2.0
 40
2.0
 40
2.0
 40
3.0
 40
3.0
 40
3.0
 40
4.0
 40
4.0
 40
4.0
 40
5.0
 40
5.0
 40
5.0
 40
6.0
 40
6.0
 40
6.0
 40
7.0
 40
7.0
 40
7.0
 40
7.0
 10
181.5200141059028
 20
598.9966851128472
 10
181.6602294921875
 20
599.0159776475693
 10
181.8834716796875
 20
599.0221788194444
 10
182.0267876519097
 20
599.0032307942707
 10
182.2403835720486
 20
598.9618896484375
 10
182.1349636501736
 20
599.0097764756944
 10
182.1477105034722
 20
598.7927354600694
 10
182.1542561848958
 20
598.7162543402777
 10
182.1032687717014
 20
598.6942057291666
 10
182.1415093315972
 20
598.6142795138888
 10
182.1670030381944
 20
598.5632921006944
 10
182.297572157118
 20
598.5539903428819
 10
182.3261664496528
 20
598.4933566623263
 10
182.3933458116319
 20
598.3469401041666
 10
182.2751790364583
 20
598.2001790364583
 10
182.1415093315972
 20
598.1333441840277
 10
181.8769259982639
 20
597.9865831163194
 10
181.4562798394097
 20
598.270458984375
 10
181.268177625868
 20
598.4551161024305
 10
181.038734266493
 20
598.681458875868
 10
181.2013427734375
 20
598.9618896484375
 10
181.5200141059028
 20
598.9966851128472
 97
        0
 97
        0
 75
     0
 76
     1
 98
        1
 10
0.0
 20
0.0
  0
SPLINE
  5
56
330
A
100
AcDbEntity
  8
LAYER_1
 62
     7
100
AcDbSpline
210
0.0
220
0.0
230
1.0
 70
    11
 71
     3
 72
    14
 73
    10
 74
     0
 42
0.000000001
 43
0.00000001
 40
0.0
 40
0.0
 40
0.0
 40
0.0
 40
1.0
 40
1.0
 40
1.0
 40
2.0
 40
2.0
 40
2.0
 40
3.0
 40
3.0
 40
3.0
 40
3.0
 10
180.6053412543403
 20
598.7899793836805
 30
0.0
 10
181.0800754123264
 20
598.6973063151041
 30
0.0
 10
181.0259874131944
 20
598.8947102864582
 30
0.0
 10
181.1279622395833
 20
599.2902072482639
 30
0.0
 10
180.8347846137153
 20
599.4748643663194
 30
0.0
 10
180.1881401909722
 20
599.7711425781249
 30
0.0
 10
179.9648980034722
 20
599.3632432725694
 30
0.0
 10
179.7420003255208
 20
598.9456976996527
 30
0.0
 10
180.3152642144097
 20
598.8437228732638
 30
0.0
 10
180.6053412543403
 20
598.7899793836805
 30
0.0
  0
HATCH
  5
55
330
A
100
AcDbEntity
  8
LAYER_1
 62
     7
100
AcDbHatch
 10
0.0
 20
0.0
 30
0.0
210
0.0
220
0.0
230
1.0
  2
SOLID
 70
     1
 71
     0
 91
        1
 92
        1
 93
        1
 72
     4
 94
        3
 73
     0
 74
     0
 95
       14
 96
       10
 40
0.0
 40
0.0
 40
0.0
 40
0.0
 40
1.0
 40
1.0
 40
1.0
 40
2.0
 40
2.0
 40
2.0
 40
3.0
 40
3.0
 40
3.0
 40
3.0
 10
180.6053412543403
 20
598.7899793836805
 10
181.0800754123264
 20
598.6973063151041
 10
181.0259874131944
 20
598.8947102864582
 10
181.1279622395833
 20
599.2902072482639
 10
180.8347846137153
 20
599.4748643663194
 10
180.1881401909722
 20
599.7711425781249
 10
179.9648980034722
 20
599.3632432725694
 10
179.7420003255208
 20
598.9456976996527
 10
180.3152642144097
 20
598.8437228732638
 10
180.6053412543403
 20
598.7899793836805
 97
        0
 97
        0
 75
     0
 76
     1
 98
        1
 10
0.0
 20
0.0
  0
SPLINE
  5
54
330
A
100
AcDbEntity
  8
LAYER_1
 62
     7
100
AcDbSpline
210
0.0
220
0.0
230
1.0
 70
    11
 71
     3
 72
    17
 73
    13
 74
     0
 42
0.000000001
 43
0.00000001
 40
0.0
 40
0.0
 40
0.0
 40
0.0
 40
1.0
 40
1.0
 40
1.0
 40
2.0
 40
2.0
 40
2.0
 40
3.0
 40
3.0
 40
3.0
 40
4.0
 40
4.0
 40
4.0
 40
4.0
 10
180.1244059244792
 20
601.7055636935763
 30
0.0
 10
180.0444797092014
 20
601.5398546006944
 30
0.0
 10
180.3407579210069
 20
601.2787163628471
 30
0.0
 10
180.4334309895833
 20
601.1381564670138
 30
0.0
 10
180.6118869357639
 20
600.8770182291667
 30
0.0
 10
180.7138617621528
 20
600.692361111111
 30
0.0
 10
180.8347846137153
 20
601.093714735243
 30
0.0
 10
180.8857720269097
 20
601.2594238281249
 30
0.0
 10
181.0676730685764
 20
601.5970431857638
 30
0.0
 10
180.9495062934027
 20
601.7596516927083
 30
0.0
 10
180.8382297092014
 20
601.9126139322916
 30
0.0
 10
180.2101888020833
 20
601.8905653211805
 30
0.0
 10
180.1244059244792
 20
601.7055636935763
 30
0.0
  0
HATCH
  5
53
330
A
100
AcDbEntity
  8
LAYER_1
 62
     7
100
AcDbHatch
 10
0.0
 20
0.0
 30
0.0
210
0.0
220
0.0
230
1.0
  2
SOLID
 70
     1
 71
     0
 91
        1
 92
        1
 93
        1
 72
     4
 94
        3
 73
     0
 74
     0
 95
       17
 96
       13
 40
0.0
 40
0.0
 40
0.0
 40
0.0
 40
1.0
 40
1.0
 40
1.0
 40
2.0
 40
2.0
 40
2.0
 40
3.0
 40
3.0
 40
3.0
 40
4.0
 40
4.0
 40
4.0
 40
4.0
 10
180.1244059244792
 20
601.7055636935763
 10
180.0444797092014
 20
601.5398546006944
 10
180.3407579210069
 20
601.2787163628471
 10
180.4334309895833
 20
601.1381564670138
 10
180.6118869357639
 20
600.8770182291667
 10
180.7138617621528
 20
600.692361111111
 10
180.8347846137153
 20
601.093714735243
 10
180.8857720269097
 20
601.2594238281249
 10
181.0676730685764
 20
601.5970431857638
 10
180.9495062934027
 20
601.7596516927083
 10
180.8382297092014
 20
601.9126139322916
 10
180.2101888020833
 20
601.8905653211805
 10
180.1244059244792
 20
601.7055636935763
 97
        0
 97
        0
 75
     0
 76
     1
 98
        1
 10
0.0
 20
0.0
  0
SPLINE
  5
52
330
A
100
AcDbEntity
  8
LAYER_1
 62
     7
100
AcDbSpline
210
0.0
220
0.0
230
1.0
 70
    11
 71
     3
 72
    20
 73
    16
 74
     0
 42
0.000000001
 43
0.00000001
 40
0.0
 40
0.0
 40
0.0
 40
0.0
 40
1.0
 40
1.0
 40
1.0
 40
2.0
 40
2.0
 40
2.0
 40
3.0
 40
3.0
 40
3.0
 40
4.0
 40
4.0
 40
4.0
 40
5.0
 40
5.0
 40
5.0
 40
5.0
 10
183.4637369791666
 20
599.0797119140625
 30
0.0
 10
183.1292182074653
 20
599.0097764756944
 30
0.0
 10
182.6737765842014
 20
598.506103515625
 30
0.0
 10
182.3485595703125
 20
598.8375217013888
 30
0.0
 10
182.2496853298611
 20
598.9456976996527
 30
0.0
 10
182.116015625
 20
599.2550672743055
 30
0.0
 10
182.2052435980902
 20
599.3921820746527
 30
0.0
 10
182.3678521050347
 20
599.6436740451388
 30
0.0
 10
182.7978000217014
 20
599.6850151909722
 30
0.0
 10
183.0654839409722
 20
599.717054578993
 30
0.0
 10
183.2280924479167
 20
599.7360026041666
 30
0.0
 10
183.3173204210069
 20
599.7649414062499
 30
0.0
 10
183.4127495659722
 20
599.6150797526041
 30
0.0
 10
183.4416883680555
 20
599.5768391927082
 30
0.0
 10
183.5116238064236
 20
599.086257595486
 30
0.0
 10
183.4637369791666
 20
599.0797119140625
 30
0.0
  0
HATCH
  5
51
330
A
100
AcDbEntity
  8
LAYER_1
 62
     7
100
AcDbHatch
 10
0.0
 20
0.0
 30
0.0
210
0.0
220
0.0
230
1.0
  2
SOLID
 70
     1
 71
     0
 91
        1
 92
        1
 93
        1
 72
     4
 94
        3
 73
     0
 74
     0
 95
       20
 96
       16
 40
0.0
 40
0.0
 40
0.0
 40
0.0
 40
1.0
 40
1.0
 40
1.0
 40
2.0
 40
2.0
 40
2.0
 40
3.0
 40
3.0
 40
3.0
 40
4.0
 40
4.0
 40
4.0
 40
5.0
 40
5.0
 40
5.0
 40
5.0
 10
183.4637369791666
 20
599.0797119140625
 10
183.1292182074653
 20
599.0097764756944
 10
182.6737765842014
 20
598.506103515625
 10
182.3485595703125
 20
598.8375217013888
 10
182.2496853298611
 20
598.9456976996527
 10
182.116015625
 20
599.2550672743055
 10
182.2052435980902
 20
599.3921820746527
 10
182.3678521050347
 20
599.6436740451388
 10
182.7978000217014
 20
599.6850151909722
 10
183.0654839409722
 20
599.717054578993
 10
183.2280924479167
 20
599.7360026041666
 10
183.3173204210069
 20
599.7649414062499
 10
183.4127495659722
 20
599.6150797526041
 10
183.4416883680555
 20
599.5768391927082
 10
183.5116238064236
 20
599.086257595486
 10
183.4637369791666
 20
599.0797119140625
 97
        0
 97
        0
 75
     0
 76
     1
 98
        1
 10
0.0
 20
0.0
  0
SPLINE
  5
50
330
A
100
AcDbEntity
  8
LAYER_1
 62
     7
100
AcDbSpline
210
0.0
220
0.0
230
1.0
 70
    11
 71
     3
 72
    17
 73
    13
 74
     0
 42
0.000000001
 43
0.00000001
 40
0.0
 40
0.0
 40
0.0
 40
0.0
 40
1.0
 40
1.0
 40
1.0
 40
2.0
 40
2.0
 40
2.0
 40
3.0
 40
3.0
 40
3.0
 40
4.0
 40
4.0
 40
4.0
 40
4.0
 10
182.2272922092014
 20
599.8700168185763
 30
0.0
 10
181.8927734375
 20
599.6502197265625
 30
0.0
 10
181.6250895182291
 20
599.8700168185763
 30
0.0
 10
181.4624810112847
 20
600.175941297743
 30
0.0
 10
181.3512044270833
 20
600.3733452690972
 30
0.0
 10
181.3828993055555
 20
600.4374240451389
 30
0.0
 10
181.5582546657986
 20
600.5263075086805
 30
0.0
 10
181.7684054904514
 20
600.6255262586805
 30
0.0
 10
182.0233425564236
 20
600.7302571614583
 30
0.0
 10
182.1893961588542
 20
600.5518012152777
 30
0.0
 10
182.3261664496528
 20
600.4119303385417
 30
0.0
 10
182.4281412760417
 20
599.9974853515624
 30
0.0
 10
182.2272922092014
 20
599.8700168185763
 30
0.0
  0
HATCH
  5
4F
330
A
100
AcDbEntity
  8
LAYER_1
 62
     7
100
AcDbHatch
 10
0.0
 20
0.0
 30
0.0
210
0.0
220
0.0
230
1.0
  2
SOLID
 70
     1
 71
     0
 91
        1
 92
        1
 93
        1
 72
     4
 94
        3
 73
     0
 74
     0
 95
       17
 96
       13
 40
0.0
 40
0.0
 40
0.0
 40
0.0
 40
1.0
 40
1.0
 40
1.0
 40
2.0
 40
2.0
 40
2.0
 40
3.0
 40
3.0
 40
3.0
 40
4.0
 40
4.0
 40
4.0
 40
4.0
 10
182.2272922092014
 20
599.8700168185763
 10
181.8927734375
 20
599.6502197265625
 10
181.6250895182291
 20
599.8700168185763
 10
181.4624810112847
 20
600.175941297743
 10
181.3512044270833
 20
600.3733452690972
 10
181.3828993055555
 20
600.4374240451389
 10
181.5582546657986
 20
600.5263075086805
 10
181.7684054904514
 20
600.6255262586805
 10
182.0233425564236
 20
600.7302571614583
 10
182.1893961588542
 20
600.5518012152777
 10
182.3261664496528
 20
600.4119303385417
 10
182.4281412760417
 20
599.9974853515624
 10
182.2272922092014
 20
599.8700168185763
 97
        0
 97
        0
 75
     0
 76
     1
 98
        1
 10
0.0
 20
0.0
  0
SPLINE
  5
4E
330
A
100
AcDbEntity
  8
LAYER_1
 62
     7
100
AcDbSpline
210
0.0
220
0.0
230
1.0
 70
    11
 71
     3
 72
    20
 73
    16
 74
     0
 42
0.000000001
 43
0.00000001
 40
0.0
 40
0.0
 40
0.0
 40
0.0
 40
1.0
 40
1.0
 40
1.0
 40
2.0
 40
2.0
 40
2.0
 40
3.0
 40
3.0
 40
3.0
 40
4.0
 40
4.0
 40
4.0
 40
5.0
 40
5.0
 40
5.0
 40
5.0
 10
180.3727973090278
 20
599.8634711371527
 30
0.0
 10
180.4427327473958
 20
599.828675672743
 30
0.0
 10
180.8923177083333
 20
599.8097276475694
 30
0.0
 10
180.9336588541667
 20
599.8445231119791
 30
0.0
 10
181.0035942925347
 20
599.8955105251736
 30
0.0
 10
180.9718994140625
 20
599.9082573784722
 30
0.0
 10
180.9911919487847
 20
600.0040310329861
 30
0.0
 10
181.0545817057292
 20
600.3385498046874
 30
0.0
 10
180.857177734375
 20
600.6379286024305
 30
0.0
 10
180.5033664279514
 20
600.6027886284721
 30
0.0
 10
180.3218098958333
 20
600.5838406032985
 30
0.0
 10
180.1943413628472
 20
600.5073594835069
 30
0.0
 10
180.1719482421875
 20
600.351296657986
 30
0.0
 10
180.1498996310764
 20
600.2203830295139
 30
0.0
 10
180.2518744574652
 20
599.9275499131944
 30
0.0
 10
180.3727973090278
 20
599.8634711371527
 30
0.0
  0
HATCH
  5
4D
330
A
100
AcDbEntity
  8
LAYER_1
 62
     7
100
AcDbHatch
 10
0.0
 20
0.0
 30
0.0
210
0.0
220
0.0
230
1.0
  2
SOLID
 70
     1
 71
     0
 91
        1
 92
        1
 93
        1
 72
     4
 94
        3
 73
     0
 74
     0
 95
       20
 96
       16
 40
0.0
 40
0.0
 40
0.0
 40
0.0
 40
1.0
 40
1.0
 40
1.0
 40
2.0
 40
2.0
 40
2.0
 40
3.0
 40
3.0
 40
3.0
 40
4.0
 40
4.0
 40
4.0
 40
5.0
 40
5.0
 40
5.0
 40
5.0
 10
180.3727973090278
 20
599.8634711371527
 10
180.4427327473958
 20
599.828675672743
 10
180.8923177083333
 20
599.8097276475694
 10
180.9336588541667
 20
599.8445231119791
 10
181.0035942925347
 20
599.8955105251736
 10
180.9718994140625
 20
599.9082573784722
 10
180.9911919487847
 20
600.0040310329861
 10
181.0545817057292
 20
600.3385498046874
 10
180.857177734375
 20
600.6379286024305
 10
180.5033664279514
 20
600.6027886284721
 10
180.3218098958333
 20
600.5838406032985
 10
180.1943413628472
 20
600.5073594835069
 10
180.1719482421875
 20
600.351296657986
 10
180.1498996310764
 20
600.2203830295139
 10
180.2518744574652
 20
599.9275499131944
 10
180.3727973090278
 20
599.8634711371527
 97
        0
 97
        0
 75
     0
 76
     1
 98
        1
 10
0.0
 20
0.0
  0
SPLINE
  5
4C
330
A
100
AcDbEntity
  8
LAYER_1
 62
     7
100
AcDbSpline
210
0.0
220
0.0
230
1.0
 70
    11
 71
     3
 72
    17
 73
    13
 74
     0
 42
0.000000001
 43
0.00000001
 40
0.0
 40
0.0
 40
0.0
 40
0.0
 40
1.0
 40
1.0
 40
1.0
 40
2.0
 40
2.0
 40
2.0
 40
3.0
 40
3.0
 40
3.0
 40
4.0
 40
4.0
 40
4.0
 40
4.0
 10
183.5657118055555
 20
604.1912000868055
 30
0.0
 10
183.8685356987847
 20
604.3569091796875
 30
0.0
 10
183.7410671657986
 20
604.8443901909721
 30
0.0
 10
183.6456380208333
 20
605.1248209635417
 30
0.0
 10
183.610498046875
 20
605.2395426432291
 30
0.0
 10
183.1230170355903
 20
605.1375678168403
 30
0.0
 10
183.0337890625
 20
605.112074110243
 30
0.0
 10
182.7978000217014
 20
605.0197455512152
 30
0.0
 10
182.6861789279514
 20
604.9560112847222
 30
0.0
 10
182.7278645833333
 20
604.7138210720485
 30
0.0
 10
182.7915988498264
 20
604.3379611545138
 30
0.0
 10
183.1833062065972
 20
603.9838053385416
 30
0.0
 10
183.5657118055555
 20
604.1912000868055
 30
0.0
  0
HATCH
  5
4B
330
A
100
AcDbEntity
  8
LAYER_1
 62
     7
100
AcDbHatch
 10
0.0
 20
0.0
 30
0.0
210
0.0
220
0.0
230
1.0
  2
SOLID
 70
     1
 71
     0
 91
        1
 92
        1
 93
        1
 72
     4
 94
        3
 73
     0
 74
     0
 95
       17
 96
       13
 40
0.0
 40
0.0
 40
0.0
 40
0.0
 40
1.0
 40
1.0
 40
1.0
 40
2.0
 40
2.0
 40
2.0
 40
3.0
 40
3.0
 40
3.0
 40
4.0
 40
4.0
 40
4.0
 40
4.0
 10
183.5657118055555
 20
604.1912000868055
 10
183.8685356987847
 20
604.3569091796875
 10
183.7410671657986
 20
604.8443901909721
 10
183.6456380208333
 20
605.1248209635417
 10
183.610498046875
 20
605.2395426432291
 10
183.1230170355903
 20
605.1375678168403
 10
183.0337890625
 20
605.112074110243
 10
182.7978000217014
 20
605.0197455512152
 10
182.6861789279514
 20
604.9560112847222
 10
182.7278645833333
 20
604.7138210720485
 10
182.7915988498264
 20
604.3379611545138
 10
183.1833062065972
 20
603.9838053385416
 10
183.5657118055555
 20
604.1912000868055
 97
        0
 97
        0
 75
     0
 76
     1
 98
        1
 10
0.0
 20
0.0
  0
SPLINE
  5
4A
330
A
100
AcDbEntity
  8
LAYER_1
  6
AI9-LType2
 62
     7
100
AcDbSpline
210
0.0
220
0.0
230
1.0
 70
     8
 71
     3
 72
   197
 73
   193
 74
     0
 42
0.000000001
 43
0.00000001
 40
0.0
 40
0.0
 40
0.0
 40
0.0
 40
1.0
 40
1.0
 40
1.0
 40
2.0
 40
2.0
 40
2.0
 40
3.0
 40
3.0
 40
3.0
 40
4.0
 40
4.0
 40
4.0
 40
5.0
 40
5.0
 40
5.0
 40
6.0
 40
6.0
 40
6.0
 40
7.0
 40
7.0
 40
7.0
 40
8.0
 40
8.0
 40
8.0
 40
9.0
 40
9.0
 40
9.0
 40
10.0
 40
10.0
 40
10.0
 40
11.0
 40
11.0
 40
11.0
 40
12.0
 40
12.0
 40
12.0
 40
13.0
 40
13.0
 40
13.0
 40
14.0
 40
14.0
 40
14.0
 40
15.0
 40
15.0
 40
15.0
 40
16.0
 40
16.0
 40
16.0
 40
17.0
 40
17.0
 40
17.0
 40
18.0
 40
18.0
 40
18.0
 40
19.0
 40
19.0
 40
19.0
 40
20.0
 40
20.0
 40
20.0
 40
21.0
 40
21.0
 40
21.0
 40
22.0
 40
22.0
 40
22.0
 40
23.0
 40
23.0
 40
23.0
 40
24.0
 40
24.0
 40
24.0
 40
25.0
 40
25.0
 40
25.0
 40
26.0
 40
26.0
 40
26.0
 40
27.0
 40
27.0
 40
27.0
 40
28.0
 40
28.0
 40
28.0
 40
29.0
 40
29.0
 40
29.0
 40
30.0
 40
30.0
 40
30.0
 40
31.0
 40
31.0
 40
31.0
 40
32.0
 40
32.0
 40
32.0
 40
33.0
 40
33.0
 40
33.0
 40
34.0
 40
34.0
 40
34.0
 40
35.0
 40
35.0
 40
35.0
 40
36.0
 40
36.0
 40
36.0
 40
37.0
 40
37.0
 40
37.0
 40
38.0
 40
38.0
 40
38.0
 40
39.0
 40
39.0
 40
39.0
 40
40.0
 40
40.0
 40
40.0
 40
41.0
 40
41.0
 40
41.0
 40
42.0
 40
42.0
 40
42.0
 40
43.0
 40
43.0
 40
43.0
 40
44.0
 40
44.0
 40
44.0
 40
45.0
 40
45.0
 40
45.0
 40
46.0
 40
46.0
 40
46.0
 40
47.0
 40
47.0
 40
47.0
 40
48.0
 40
48.0
 40
48.0
 40
49.0
 40
49.0
 40
49.0
 40
50.0
 40
50.0
 40
50.0
 40
51.0
 40
51.0
 40
51.0
 40
52.0
 40
52.0
 40
52.0
 40
53.0
 40
53.0
 40
53.0
 40
54.0
 40
54.0
 40
54.0
 40
55.0
 40
55.0
 40
55.0
 40
56.0
 40
56.0
 40
56.0
 40
57.0
 40
57.0
 40
57.0
 40
58.0
 40
58.0
 40
58.0
 40
59.0
 40
59.0
 40
59.0
 40
60.0
 40
60.0
 40
60.0
 40
61.0
 40
61.0
 40
61.0
 40
62.0
 40
62.0
 40
62.0
 40
63.0
 40
63.0
 40
63.0
 40
64.0
 40
64.0
 40
64.0
 40
64.0
 10
105.0113335503472
 20
590.692626953125
 30
0.0
 10
105.2983100043403
 20
590.6733344184028
 30
0.0
 10
105.6552218967014
 20
590.6512858072916
 30
0.0
 10
105.9163601345486
 20
590.5841064453125
 30
0.0
 10
106.4644748263889
 20
590.4500922309027
 30
0.0
 10
106.8468804253472
 20
590.0869791666667
 30
0.0
 10
107.4363362630208
 20
590.0297905815971
 30
0.0
 10
107.6278835720486
 20
590.01669921875
 30
0.0
 10
108.1215657552083
 20
590.0552842881943
 30
0.0
 10
108.3286159939236
 20
589.9753580729166
 30
0.0
 10
108.5294650607639
 20
589.8892306857639
 30
0.0
 10
108.5708062065972
 20
589.6949273003472
 30
0.0
 10
108.7399603949653
 20
589.5833062065972
 30
0.0
 10
109.0903266059028
 20
589.3476616753471
 30
0.0
 10
109.1892008463542
 20
589.6759792751735
 30
0.0
 10
109.5140733506944
 20
589.7362684461805
 30
0.0
 10
110.1579616970486
 20
589.8513346354166
 30
0.0
 10
110.7922037760417
 20
589.2518880208332
 30
0.0
 10
111.3975070529514
 20
589.1819525824652
 30
0.0
 10
111.6045572916667
 20
589.156458875868
 30
0.0
 10
111.7351264105903
 20
589.2139919704861
 30
0.0
 10
111.9521674262153
 20
589.1471571180555
 30
0.0
 10
112.1337239583333
 20
589.092724609375
 30
0.0
 10
112.2959879557292
 20
588.9811035156249
 30
0.0
 10
112.4809895833333
 20
588.9397623697917
 30
0.0
 10
112.8093071831597
 20
588.869482421875
 30
0.0
 10
113.1310791015625
 20
588.8060926649305
 30
0.0
 10
113.4593967013889
 20
588.8412326388889
 30
0.0
 10
114.0550537109375
 20
588.9080674913193
 30
0.0
 10
114.6000678168403
 20
588.7420138888889
 30
0.0
 10
115.1674750434028
 20
588.538064236111
 30
0.0
 10
115.6677029079861
 20
588.3596082899305
 30
0.0
 10
115.7028428819444
 20
587.8242404513888
 30
0.0
 10
115.9767279730903
 20
587.3846462673611
 30
0.0
 10
116.2953993055555
 20
586.8685709635416
 30
0.0
 10
116.5472357855903
 20
586.2629231770833
 30
0.0
 10
116.7766791449653
 20
585.7020616319444
 30
0.0
 10
116.8914008246528
 20
585.4088840060764
 30
0.0
 10
116.9613362630208
 20
585.0840115017361
 30
0.0
 10
117.1111979166667
 20
584.8035807291666
 30
0.0
 10
117.381982421875
 20
584.2937065972221
 30
0.0
 10
117.7485405815972
 20
583.4462131076389
 30
0.0
 10
118.2584147135417
 20
583.1464898003471
 30
0.0
 10
118.8289225260417
 20
582.8088704427083
 30
0.0
 10
119.3770372178819
 20
582.4519585503472
 30
0.0
 10
119.8931125217014
 20
582.0309678819444
 30
0.0
 10
120.3519992404514
 20
581.6616536458333
 30
0.0
 10
120.4891140407986
 20
581.189675564236
 30
0.0
 10
120.7502522786458
 20
580.6673990885416
 30
0.0
 10
120.9862413194444
 20
580.201966688368
 30
0.0
 10
121.400341796875
 20
579.7365342881944
 30
0.0
 10
121.5567491319444
 20
579.2459526909722
 30
0.0
 10
121.7734456380208
 20
579.3162326388889
 30
0.0
 10
121.7606987847222
 20
579.7940673828125
 30
0.0
 10
121.8147867838542
 20
580.0107638888888
 30
0.0
 10
121.9133165147569
 20
580.3993706597222
 30
0.0
 10
122.088671875
 20
580.7817762586805
 30
0.0
 10
122.2354329427083
 20
581.1579806857638
 30
0.0
 10
122.54755859375
 20
581.9737792968749
 30
0.0
 10
122.9651041666666
 20
582.668310546875
 30
0.0
 10
123.4525851779514
 20
583.3886800130208
 30
0.0
 10
123.7998508029514
 20
583.9050998263889
 30
0.0
 10
123.9404106987847
 20
584.4594156901042
 30
0.0
 10
124.3927517361111
 20
584.9021104600694
 30
0.0
 10
124.9184733072916
 20
585.4154296874999
 30
0.0
 10
125.2340440538194
 20
586.0813666449652
 30
0.0
 10
125.8489935980903
 20
586.5116590711805
 30
0.0
 10
126.2920328776042
 20
586.8175835503472
 30
0.0
 10
126.3747151692708
 20
586.6963161892361
 30
0.0
 10
126.7571207682292
 20
586.3903917100694
 30
0.0
 10
127.0757921006944
 20
586.1292534722222
 30
0.0
 10
127.4581976996528
 20
585.9886935763889
 30
0.0
 10
127.7803141276042
 20
585.714808485243
 30
0.0
 10
128.111732313368
 20
585.4343777126736
 30
0.0
 10
128.3887179904514
 20
585.1222520616319
 30
0.0
 10
128.6787950303819
 20
584.8035807291666
 30
0.0
 10
128.9974663628472
 20
584.4659613715277
 30
0.0
 10
129.2778971354167
 20
584.0608181423611
 30
0.0
 10
129.6348090277778
 20
583.7710856119791
 30
0.0
 10
130.0172146267361
 20
583.4586154513888
 30
0.0
 10
130.4823025173611
 20
583.1912760416666
 30
0.0
 10
130.8519612630208
 20
582.8598578559028
 30
0.0
 10
131.1771782769097
 20
582.5663357204861
 30
0.0
 10
131.5147976345486
 20
582.2924506293402
 30
0.0
 10
131.8145209418403
 20
581.97998046875
 30
0.0
 10
131.9609375
 20
581.8239176432292
 30
0.0
 10
132.0598117404514
 20
581.6296142578125
 30
0.0
 10
132.190380859375
 20
581.4701063368055
 30
0.0
 10
132.3784830729167
 20
581.2630560980903
 30
0.0
 10
132.5727864583333
 20
581.2565104166666
 30
0.0
 10
132.8053304036458
 20
581.1131944444444
 30
0.0
 10
133.0637125651042
 20
580.9602322048611
 30
0.0
 10
133.3028021918403
 20
580.7628282335069
 30
0.0
 10
133.5701416015625
 20
580.606765407986
 30
0.0
 10
133.9911322699653
 20
580.36767578125
 30
0.0
 10
134.2236762152778
 20
579.9056884765624
 30
0.0
 10
134.6570692274306
 20
579.7048394097221
 30
0.0
 10
134.8865125868055
 20
579.5966634114583
 30
0.0
 10
135.0711697048611
 20
579.6156114366319
 30
0.0
 10
135.3199055989583
 20
579.5966634114583
 30
0.0
 10
135.6671712239583
 20
579.567724609375
 30
0.0
 10
135.9699951171875
 20
579.4182074652778
 30
0.0
 10
136.2979682074653
 20
579.3351806640625
 30
0.0
 10
136.6231852213542
 20
579.2521538628472
 30
0.0
 10
136.9515028211806
 20
579.2586995442708
 30
0.0
 10
137.2794759114583
 20
579.1822184244791
 30
0.0
 10
137.7225151909722
 20
579.0867892795138
 30
0.0
 10
138.6530354817708
 20
578.7870659722222
 30
0.0
 10
139.0578342013889
 20
579.0578504774305
 30
0.0
 10
139.3572129991319
 20
579.2521538628472
 30
0.0
 10
139.6279975043403
 20
579.6793457031249
 30
0.0
 10
139.831947157118
 20
579.9659776475694
 30
0.0
 10
140.0965304904514
 20
580.3549289279514
 30
0.0
 10
140.3928087022569
 20
580.6353597005208
 30
0.0
 10
140.7276719835069
 20
580.9540310329861
 30
0.0
 10
141.4318495008681
 20
581.6230685763888
 30
0.0
 10
142.0850396050347
 20
582.336892361111
 30
0.0
 10
142.8116102430556
 20
582.9742350260416
 30
0.0
 10
143.3693712022569
 20
583.4651611328125
 30
0.0
 10
143.8792453342014
 20
583.9815809461805
 30
0.0
 10
144.3412326388889
 20
584.5548448350694
 30
0.0
 10
144.6151177300347
 20
584.9021104600694
 30
0.0
 10
144.9179416232639
 20
585.2211263020832
 30
0.0
 10
145.2176649305555
 20
585.5363525390625
 30
0.0
 10
145.8994493272569
 20
586.2312282986111
 30
0.0
 10
146.6928548177083
 20
586.8365315755208
 30
0.0
 10
147.3301974826389
 20
587.5631022135416
 30
0.0
 10
147.7222493489583
 20
588.0123426649305
 30
0.0
 10
148.1332492404514
 20
588.40439453125
 30
0.0
 10
148.5476942274306
 20
588.8346869574652
 30
0.0
 10
149.1433512369792
 20
589.4399902343749
 30
0.0
 10
149.8316813151042
 20
589.8957763671874
 30
0.0
 10
150.4786702473958
 20
590.4311442057291
 30
0.0
 10
150.839027235243
 20
590.7305230034722
 30
0.0
 10
151.310316297743
 20
590.9089789496527
 30
0.0
 10
151.6386338975694
 20
591.2534884982639
 30
0.0
 10
152.0082926432291
 20
591.6420952690971
 30
0.0
 10
152.1454074435764
 20
592.1995117187499
 30
0.0
 10
152.4385850694444
 20
592.6363498263888
 30
0.0
 10
152.7317626953125
 20
593.0662977430555
 30
0.0
 10
152.8974717881944
 20
593.4266547309027
 30
0.0
 10
153.0025472005208
 20
593.9427300347222
 30
0.0
 10
153.1331163194444
 20
594.5800726996528
 30
0.0
 10
152.9388129340278
 20
595.1888210720485
 30
0.0
 10
152.8051432291666
 20
595.810316297743
 30
0.0
 10
152.6649278428819
 20
596.4635064019096
 30
0.0
 10
152.7414089626736
 20
597.0977484809027
 30
0.0
 10
152.7731038411458
 20
597.7667860243055
 30
0.0
 10
152.7858506944444
 20
598.1205973307291
 30
0.0
 10
152.8144449869791
 20
598.4868109809028
 30
0.0
 10
152.8337375217014
 20
598.8313205295138
 30
0.0
 10
152.846484375
 20
599.2168267144096
 30
0.0
 10
153.0407877604167
 20
599.5830403645833
 30
0.0
 10
152.8750786675347
 20
599.9654459635416
 30
0.0
 10
152.7252170138889
 20
600.3034098307292
 30
0.0
 10
152.2983696831597
 20
600.5328531901041
 30
0.0
 10
152.0623806423611
 20
600.8577256944444
 30
0.0
 10
151.6737738715278
 20
601.3930935329861
 30
0.0
 10
151.6417344835069
 20
602.1455023871528
 30
0.0
 10
151.1032660590278
 20
602.5754503038194
 30
0.0
 10
150.3098605685764
 20
603.2031467013888
 30
0.0
 10
148.945947265625
 20
604.1147189670138
 30
0.0
 10
148.7261501736111
 20
605.1792534722222
 30
0.0
 10
148.4615668402778
 20
606.4601399739582
 30
0.0
 10
149.3473008897569
 20
607.5880642361111
 30
0.0
 10
149.8826687282986
 20
608.6650010850694
 30
0.0
 10
150.0487223307292
 20
609.0029649522569
 30
0.0
 10
150.2140869140625
 20
609.2579020182291
 30
0.0
 10
150.4628228081597
 20
609.5448784722222
 30
0.0
 10
150.7656467013889
 20
609.9048909505208
 30
0.0
 10
151.1001654730903
 20
610.2456108940971
 30
0.0
 10
151.3551025390625
 20
610.6411078559028
 30
0.0
 10
151.6482801649306
 20
611.0869032118055
 30
0.0
 10
151.7599012586805
 20
611.0490071614582
 30
0.0
 10
152.3080159505208
 20
611.12548828125
 30
0.0
 10
152.5595079210069
 20
611.1571831597222
 30
0.0
 10
152.9388129340278
 20
611.1764756944444
 30
0.0
 10
153.1203694661458
 20
610.9883734809027
 30
0.0
 10
153.3150173611111
 20
610.7809787326388
 30
0.0
 10
153.4135470920139
 20
610.2649034288194
 30
0.0
 10
153.5062201605903
 20
610.0037651909722
 30
0.0
 10
154.0253960503472
 20
608.5216851128472
 30
0.0
 10
154.1945502387153
 20
606.3009765625
 30
0.0
 10
152.7379638671875
 20
605.2650363498263
 30
0.0
 10
152.3748508029514
 20
605.0069986979166
 30
0.0
 10
152.0785725911458
 20
605.0035536024305
 30
0.0
 10
151.699267578125
 20
604.8188964843749
 30
0.0
 10
151.4505316840278
 20
604.6948730468749
 30
0.0
 10
151.2593288845486
 20
604.4461371527777
 30
0.0
 10
151.0746717664931
 20
604.248388671875
 30
0.0
 10
150.8738226996528
 20
604.0285915798611
 30
0.0
 10
150.2905680338542
 20
603.43603515625
 30
0.0
 10
150.3450005425347
 20
603.2699815538194
 30
0.0
  0
SPLINE
  5
49
330
A
100
AcDbEntity
  8
LAYER_1
  6
AI9-LType2
 62
     7
100
AcDbSpline
210
0.0
220
0.0
230
1.0
 70
     8
 71
     3
 72
    35
 73
    31
 74
     0
 42
0.000000001
 43
0.00000001
 40
0.0
 40
0.0
 40
0.0
 40
0.0
 40
1.0
 40
1.0
 40
1.0
 40
2.0
 40
2.0
 40
2.0
 40
3.0
 40
3.0
 40
3.0
 40
4.0
 40
4.0
 40
4.0
 40
5.0
 40
5.0
 40
5.0
 40
6.0
 40
6.0
 40
6.0
 40
7.0
 40
7.0
 40
7.0
 40
8.0
 40
8.0
 40
8.0
 40
9.0
 40
9.0
 40
9.0
 40
10.0
 40
10.0
 40
10.0
 40
10.0
 10
179.7003146701389
 20
587.7863444010416
 30
0.0
 10
179.6972140842014
 20
586.9960394965277
 30
0.0
 10
179.2286810980902
 20
586.2312282986111
 30
0.0
 10
178.9802897135417
 20
585.4695176866319
 30
0.0
 10
178.6585177951389
 20
584.4721625434028
 30
0.0
 10
178.279212782118
 20
583.4906548394097
 30
0.0
 10
177.8427191840278
 20
582.5311957465277
 30
0.0
 10
177.4220730251736
 20
581.6168674045139
 30
0.0
 10
176.9056532118055
 20
580.8138156467013
 30
0.0
 10
176.3768310546875
 20
579.9535753038194
 30
0.0
 10
175.4941975911458
 20
578.5066351996527
 30
0.0
 10
174.4455105251736
 20
577.2064561631944
 30
0.0
 10
173.5628770616319
 20
575.7884548611111
 30
0.0
 10
173.3844211154514
 20
575.4983778211805
 30
0.0
 10
173.1870171440972
 20
575.2403401692708
 30
0.0
 10
172.9703206380208
 20
574.9757568359374
 30
0.0
 10
172.5207356770833
 20
574.4341878255208
 30
0.0
 10
172.0366997612847
 20
573.9687554253471
 30
0.0
 10
171.5585205078125
 20
573.4464789496527
 30
0.0
 10
170.930824110243
 20
572.7516031901041
 30
0.0
 10
170.0257975260417
 20
572.1525010850694
 30
0.0
 10
169.2544406467014
 20
571.5978407118055
 30
0.0
 10
168.6680853949653
 20
571.1740939670138
 30
0.0
 10
167.9766547309028
 20
570.8936631944443
 30
0.0
 10
167.3362114800347
 20
570.5780924479166
 30
0.0
 10
166.6351345486111
 20
570.2277262369792
 30
0.0
 10
165.883070203993
 20
569.8642686631944
 30
0.0
 10
165.1279052734375
 20
569.6348253038194
 30
0.0
 10
164.3916883680556
 20
569.4184733072916
 30
0.0
 10
163.6809651692708
 20
569.0295220269097
 30
0.0
 10
163.0150282118055
 20
568.6247233072916
 30
0.0
  0
SPLINE
  5
48
330
A
100
AcDbEntity
  8
LAYER_1
  6
AI9-LType2
 62
     7
100
AcDbSpline
210
0.0
220
0.0
230
1.0
 70
     8
 71
     3
 72
    32
 73
    28
 74
     0
 42
0.000000001
 43
0.00000001
 40
0.0
 40
0.0
 40
0.0
 40
0.0
 40
1.0
 40
1.0
 40
1.0
 40
2.0
 40
2.0
 40
2.0
 40
3.0
 40
3.0
 40
3.0
 40
4.0
 40
4.0
 40
4.0
 40
5.0
 40
5.0
 40
5.0
 40
6.0
 40
6.0
 40
6.0
 40
7.0
 40
7.0
 40
7.0
 40
8.0
 40
8.0
 40
8.0
 40
9.0
 40
9.0
 40
9.0
 40
9.0
 10
177.5336941189236
 20
588.7868001302082
 30
0.0
 10
176.9821343315972
 20
587.4452799479166
 30
0.0
 10
176.5297932942708
 20
586.0624186197916
 30
0.0
 10
176.0388671875
 20
584.6954047309027
 30
0.0
 10
175.8414632161458
 20
584.1279975043402
 30
0.0
 10
175.5100450303819
 20
583.643617078993
 30
0.0
 10
175.2168674045139
 20
583.1209960937499
 30
0.0
 10
174.8024224175347
 20
582.3782335069444
 30
0.0
 10
174.4710042317708
 20
581.6296142578125
 30
0.0
 10
174.1206380208333
 20
580.8648030598957
 30
0.0
 10
173.5659776475694
 20
579.6411051432291
 30
0.0
 10
172.8332058376736
 20
578.4460015190972
 30
0.0
 10
172.1097357855903
 20
577.3084309895833
 30
0.0
 10
171.2398491753472
 20
575.954163953993
 30
0.0
 10
169.7133273654514
 20
574.4979220920138
 30
0.0
 10
168.2794786241319
 20
573.7586046006944
 30
0.0
 10
167.3169189453125
 20
573.258376736111
 30
0.0
 10
166.3578043619792
 20
572.6909695095486
 30
0.0
 10
165.4400309244791
 20
572.1366536458332
 30
0.0
 10
164.6497260199653
 20
571.6553738064235
 30
0.0
 10
163.7863850911458
 20
571.1548014322916
 30
0.0
 10
162.9258002387153
 20
570.7789415147569
 30
0.0
 10
162.4445203993055
 20
570.5656901041666
 30
0.0
 10
161.9539388020833
 20
570.4061821831597
 30
0.0
 10
161.4919514973958
 20
570.1512451171875
 30
0.0
 10
161.1350396050347
 20
569.9538411458333
 30
0.0
 10
160.8067220052083
 20
569.6734103732639
 30
0.0
 10
160.4339626736111
 20
569.5393961588541
 30
0.0
  0
SPLINE
  5
47
330
A
100
AcDbEntity
  8
LAYER_1
  6
AI9-LType2
 62
     7
100
AcDbSpline
210
0.0
220
0.0
230
1.0
 70
     8
 71
     3
 72
     8
 73
     4
 74
     0
 42
0.000000001
 43
0.00000001
 40
0.0
 40
0.0
 40
0.0
 40
0.0
 40
1.0
 40
1.0
 40
1.0
 40
1.0
 10
212.949964735243
 20
576.7027832031249
 30
0.0
 10
212.949964735243
 20
576.7027832031249
 30
0.0
 10
222.9242051866319
 20
575.9352159288194
 30
0.0
 10
224.4317789713541
 20
577.1237738715278
 30
0.0
  0
SPLINE
  5
45
330
A
100
AcDbEntity
  8
LAYER_1
 62
     7
100
AcDbSpline
210
0.0
220
0.0
230
1.0
 70
     8
 71
     3
 72
    29
 73
    25
 74
     0
 42
0.000000001
 43
0.00000001
 40
0.0
 40
0.0
 40
0.0
 40
0.0
 40
1.0
 40
1.0
 40
1.0
 40
2.0
 40
2.0
 40
2.0
 40
3.0
 40
3.0
 40
3.0
 40
4.0
 40
4.0
 40
4.0
 40
5.0
 40
5.0
 40
5.0
 40
6.0
 40
6.0
 40
6.0
 40
7.0
 40
7.0
 40
7.0
 40
8.0
 40
8.0
 40
8.0
 40
8.0
 10
143.1016872829861
 20
632.8519829644097
 30
0.0
 10
143.1016872829861
 20
632.8519829644097
 30
0.0
 10
143.4300048828125
 20
633.8527832031249
 30
0.0
 10
145.220765516493
 20
633.393896484375
 30
0.0
 10
147.0149712456597
 20
632.935009765625
 30
0.0
 10
155.5136773003472
 20
630.9079155815972
 30
0.0
 10
156.2433485243055
 20
630.7804470486111
 30
0.0
 10
156.9730197482639
 20
630.650222439236
 30
0.0
 10
160.5548855251736
 20
630.1307020399305
 30
0.0
 10
160.5548855251736
 20
630.1307020399305
 30
0.0
 10
160.5548855251736
 20
630.1307020399305
 30
0.0
 10
160.829115125868
 20
628.0719129774305
 30
0.0
 10
160.765380859375
 20
627.1479383680555
 30
0.0
 10
160.7047471788194
 20
626.2174180772569
 30
0.0
 10
160.7843288845486
 20
621.4435492621527
 30
0.0
 10
160.7843288845486
 20
621.4435492621527
 30
0.0
 10
160.7843288845486
 20
621.4435492621527
 30
0.0
 10
160.7367865668403
 20
616.6700249565972
 30
0.0
 10
160.7367865668403
 20
616.6700249565972
 30
0.0
 10
160.7367865668403
 20
616.6700249565972
 30
0.0
 10
160.6727077907986
 20
615.8032389322916
 30
0.0
 10
159.2836452907986
 20
615.2678710937499
 30
0.0
 10
157.8907931857639
 20
614.7325032552083
 30
0.0
 10
154.9717637803819
 20
614.5926323784722
 30
0.0
 10
154.9717637803819
 20
614.5926323784722
 30
0.0
  0
SPLINE
  5
44
330
A
100
AcDbEntity
  8
LAYER_1
 62
     7
100
AcDbSpline
210
0.0
220
0.0
230
1.0
 70
     8
 71
     3
 72
    47
 73
    43
 74
     0
 42
0.000000001
 43
0.00000001
 40
0.0
 40
0.0
 40
0.0
 40
0.0
 40
1.0
 40
1.0
 40
1.0
 40
2.0
 40
2.0
 40
2.0
 40
3.0
 40
3.0
 40
3.0
 40
4.0
 40
4.0
 40
4.0
 40
5.0
 40
5.0
 40
5.0
 40
6.0
 40
6.0
 40
6.0
 40
7.0
 40
7.0
 40
7.0
 40
8.0
 40
8.0
 40
8.0
 40
9.0
 40
9.0
 40
9.0
 40
10.0
 40
10.0
 40
10.0
 40
11.0
 40
11.0
 40
11.0
 40
12.0
 40
12.0
 40
12.0
 40
13.0
 40
13.0
 40
13.0
 40
14.0
 40
14.0
 40
14.0
 40
14.0
 10
160.5548855251736
 20
630.1307020399305
 30
0.0
 10
160.5548855251736
 20
630.1307020399305
 30
0.0
 10
168.983656141493
 20
628.9004584418402
 30
0.0
 10
168.983656141493
 20
628.9004584418402
 30
0.0
 10
168.983656141493
 20
628.9004584418402
 30
0.0
 10
170.7778618706597
 20
628.2441677517361
 30
0.0
 10
171.7052815755208
 20
627.9830295138888
 30
0.0
 10
172.6354573567708
 20
627.7184461805555
 30
0.0
 10
180.003138563368
 20
626.2239637586805
 30
0.0
 10
181.261976453993
 20
626.0899495442708
 30
0.0
 10
182.5239149305555
 20
625.9624810112847
 30
0.0
 10
191.2806586371528
 20
625.5290879991319
 30
0.0
 10
191.2806586371528
 20
625.5290879991319
 30
0.0
 10
191.2806586371528
 20
625.5290879991319
 30
0.0
 10
195.9907931857639
 20
625.4143663194444
 30
0.0
 10
197.848388671875
 20
625.6183159722221
 30
0.0
 10
199.7032280815972
 20
625.8222656249999
 30
0.0
 10
202.953675672743
 20
626.16953125
 30
0.0
 10
203.7501817491319
 20
626.0358615451388
 30
0.0
 10
204.5435872395833
 20
625.9049479166666
 30
0.0
 10
206.6692111545139
 20
625.8477593315972
 30
0.0
 10
207.666566297743
 20
625.3888726128472
 30
0.0
 10
208.6639214409722
 20
624.9237847222222
 30
0.0
 10
210.7864447699653
 20
624.0060112847221
 30
0.0
 10
210.7864447699653
 20
624.0060112847221
 30
0.0
 10
210.7864447699653
 20
624.0060112847221
 30
0.0
 10
211.6497856987847
 20
623.1454264322916
 30
0.0
 10
212.3126220703125
 20
624.675048828125
 30
0.0
 10
212.9658121744791
 20
626.2046712239583
 30
0.0
 10
213.6193467881944
 20
629.5219536675347
 30
0.0
 10
213.6193467881944
 20
629.5219536675347
 30
0.0
 10
213.6193467881944
 20
629.5219536675347
 30
0.0
 10
213.2176486545139
 20
630.6436767578124
 30
0.0
 10
215.3401719835069
 20
630.7170572916666
 30
0.0
 10
217.4592502170139
 20
630.7935384114583
 30
0.0
 10
219.715443250868
 20
630.9334092881944
 30
0.0
 10
219.715443250868
 20
630.9334092881944
 30
0.0
 10
219.715443250868
 20
630.9334092881944
 30
0.0
 10
220.7796332465278
 20
630.8059407552083
 30
0.0
 10
221.0376708984375
 20
632.198792860243
 30
0.0
 10
221.2991536458333
 20
633.5913004557291
 30
0.0
 10
221.8248752170139
 20
635.9177734374999
 30
0.0
 10
221.8248752170139
 20
635.9177734374999
 30
0.0
  0
SPLINE
  5
43
330
A
100
AcDbEntity
  8
LAYER_1
 62
     7
100
AcDbSpline
210
0.0
220
0.0
230
1.0
 70
     8
 71
     3
 72
    41
 73
    37
 74
     0
 42
0.000000001
 43
0.00000001
 40
0.0
 40
0.0
 40
0.0
 40
0.0
 40
1.0
 40
1.0
 40
1.0
 40
2.0
 40
2.0
 40
2.0
 40
3.0
 40
3.0
 40
3.0
 40
4.0
 40
4.0
 40
4.0
 40
5.0
 40
5.0
 40
5.0
 40
6.0
 40
6.0
 40
6.0
 40
7.0
 40
7.0
 40
7.0
 40
8.0
 40
8.0
 40
8.0
 40
9.0
 40
9.0
 40
9.0
 40
10.0
 40
10.0
 40
10.0
 40
11.0
 40
11.0
 40
11.0
 40
12.0
 40
12.0
 40
12.0
 40
12.0
 10
182.9890028211805
 20
607.7217339409722
 30
0.0
 10
182.9890028211805
 20
607.7217339409722
 30
0.0
 10
202.4913438585069
 20
606.1990017361111
 30
0.0
 10
202.4913438585069
 20
606.1990017361111
 30
0.0
 10
202.4913438585069
 20
606.1990017361111
 30
0.0
 10
208.931605360243
 20
605.1661621093749
 30
0.0
 10
209.7250108506944
 20
604.9656575520833
 30
0.0
 10
210.5218614366319
 20
604.7713541666666
 30
0.0
 10
213.1763075086805
 20
604.8443901909721
 30
0.0
 10
213.1763075086805
 20
604.8443901909721
 30
0.0
 10
213.1763075086805
 20
604.8443901909721
 30
0.0
 10
216.2896402994791
 20
605.1186197916666
 30
0.0
 10
216.2896402994791
 20
605.1186197916666
 30
0.0
 10
216.2896402994791
 20
605.1186197916666
 30
0.0
 10
218.0135660807291
 20
605.5933539496527
 30
0.0
 10
217.7586290147569
 20
603.6620334201389
 30
0.0
 10
217.4974907769097
 20
601.7403591579861
 30
0.0
 10
216.7771213107639
 20
599.1496473524305
 30
0.0
 10
216.7771213107639
 20
599.1496473524305
 30
0.0
 10
216.7771213107639
 20
599.1496473524305
 30
0.0
 10
215.8531467013889
 20
597.9579888237847
 30
0.0
 10
214.6580430772569
 20
596.8872531467014
 30
0.0
 10
213.4725857204861
 20
595.8230631510417
 30
0.0
 10
211.156103515625
 20
594.0257568359375
 30
0.0
 10
210.7640516493055
 20
593.2289062499999
 30
0.0
 10
210.3657986111111
 20
592.4324001736111
 30
0.0
 10
208.1891872829861
 20
588.2452311197916
 30
0.0
 10
208.2625678168403
 20
587.3143663194444
 30
0.0
 10
208.3325032552083
 20
586.3903917100694
 30
0.0
 10
208.6067328559027
 20
583.3376925998264
 30
0.0
 10
208.6067328559027
 20
583.3376925998264
 30
0.0
 10
208.6067328559027
 20
583.3376925998264
 30
0.0
 10
210.6779242621528
 20
579.3003851996527
 30
0.0
 10
210.8756727430555
 20
578.9655219184027
 30
0.0
 10
211.0796223958333
 20
578.6403049045139
 30
0.0
 10
212.4114963107639
 20
576.7827094184028
 30
0.0
 10
213.0074978298611
 20
576.7889105902777
 30
0.0
  0
SPLINE
  5
42
330
A
100
AcDbEntity
  8
LAYER_1
 62
     7
100
AcDbSpline
210
0.0
220
0.0
230
1.0
 70
     8
 71
     3
 72
     8
 73
     4
 74
     0
 42
0.000000001
 43
0.00000001
 40
0.0
 40
0.0
 40
0.0
 40
0.0
 40
1.0
 40
1.0
 40
1.0
 40
1.0
 10
140.0679361979167
 20
613.3434407552082
 30
0.0
 10
140.0679361979167
 20
613.3434407552082
 30
0.0
 10
150.0676703559028
 20
610.8512586805555
 30
0.0
 10
151.2658745659722
 20
611.2143717447916
 30
0.0
  0
SPLINE
  5
41
330
A
100
AcDbEntity
  8
LAYER_1
 62
     7
100
AcDbSpline
210
0.0
220
0.0
230
1.0
 70
    11
 71
     3
 72
    35
 73
    31
 74
     0
 42
0.000000001
 43
0.00000001
 40
0.0
 40
0.0
 40
0.0
 40
0.0
 40
1.0
 40
1.0
 40
1.0
 40
2.0
 40
2.0
 40
2.0
 40
3.0
 40
3.0
 40
3.0
 40
4.0
 40
4.0
 40
4.0
 40
5.0
 40
5.0
 40
5.0
 40
6.0
 40
6.0
 40
6.0
 40
7.0
 40
7.0
 40
7.0
 40
8.0
 40
8.0
 40
8.0
 40
9.0
 40
9.0
 40
9.0
 40
10.0
 40
10.0
 40
10.0
 40
10.0
 10
109.6704806857639
 20
613.9997314453125
 30
0.0
 10
109.2656819661458
 20
613.7575412326388
 30
0.0
 10
108.8002495659722
 20
613.3303493923611
 30
0.0
 10
108.5487575954861
 20
612.9100477430555
 30
0.0
 10
108.1281114366319
 20
612.2086263020833
 30
0.0
 10
108.0037434895833
 20
610.3668782552082
 30
0.0
 10
108.4753770616319
 20
609.6403076171874
 30
0.0
 10
108.7237684461805
 20
609.2579020182291
 30
0.0
 10
109.2625813802083
 20
609.0983940972221
 30
0.0
 10
109.6002007378472
 20
608.7607747395833
 30
0.0
 10
109.9667588975694
 20
608.3976616753472
 30
0.0
 10
110.3970513237847
 20
608.0021647135416
 30
0.0
 10
110.9227728949653
 20
607.8746961805555
 30
0.0
 10
111.4261013454861
 20
607.753773328993
 30
0.0
 10
112.3600667317708
 20
607.7792670355902
 30
0.0
 10
112.8568495008681
 20
607.9291286892361
 30
0.0
 10
113.5231309678819
 20
608.1361789279513
 30
0.0
 10
113.7877143012153
 20
608.489990234375
 30
0.0
 10
114.1952690972222
 20
608.9964192708333
 30
0.0
 10
115.2532579210069
 20
610.3220920138888
 30
0.0
 10
115.0176133897569
 20
611.9857286241319
 30
0.0
 10
114.115687391493
 20
613.3496419270833
 30
0.0
 10
113.7811686197917
 20
613.8498697916666
 30
0.0
 10
113.2712944878472
 20
614.5478461371528
 30
0.0
 10
112.7073323567708
 20
614.8155300564235
 30
0.0
 10
112.2071044921875
 20
615.0515190972221
 30
0.0
 10
111.6014567057292
 20
614.7201009114583
 30
0.0
 10
111.1456705729167
 20
614.525453016493
 30
0.0
 10
110.6867838541667
 20
614.3246039496527
 30
0.0
 10
110.091126844618
 20
614.2612141927083
 30
0.0
 10
109.6704806857639
 20
613.9997314453125
 30
0.0
  0
SPLINE
  5
40
330
A
100
AcDbEntity
  8
LAYER_1
 62
     7
100
AcDbSpline
210
0.0
220
0.0
230
1.0
 70
    11
 71
     3
 72
    35
 73
    31
 74
     0
 42
0.000000001
 43
0.00000001
 40
0.0
 40
0.0
 40
0.0
 40
0.0
 40
1.0
 40
1.0
 40
1.0
 40
2.0
 40
2.0
 40
2.0
 40
3.0
 40
3.0
 40
3.0
 40
4.0
 40
4.0
 40
4.0
 40
5.0
 40
5.0
 40
5.0
 40
6.0
 40
6.0
 40
6.0
 40
7.0
 40
7.0
 40
7.0
 40
8.0
 40
8.0
 40
8.0
 40
9.0
 40
9.0
 40
9.0
 40
10.0
 40
10.0
 40
10.0
 40
10.0
 10
129.9693277994791
 20
592.0658420138889
 30
0.0
 10
129.8132649739583
 20
591.4922336154514
 30
0.0
 10
130.1477837456597
 20
591.0109537760416
 30
0.0
 10
130.4919487847222
 20
590.5427652994791
 30
0.0
 10
130.8998480902778
 20
589.9884494357639
 30
0.0
 10
131.2154188368056
 20
589.3731553819443
 30
0.0
 10
131.607470703125
 20
588.7995469835068
 30
0.0
 10
132.3371419270833
 20
587.7512044270833
 30
0.0
 10
133.4333713107639
 20
586.798291015625
 30
0.0
 10
134.7814371744792
 20
587.0628743489583
 30
0.0
 10
135.2592719184028
 20
587.1586480034722
 30
0.0
 10
135.8645751953125
 20
587.3178114149305
 30
0.0
 10
136.320361328125
 20
587.4835205078125
 30
0.0
 10
136.890869140625
 20
587.6905707465277
 30
0.0
 10
137.3401095920139
 20
588.2197374131944
 30
0.0
 10
137.872376844618
 20
588.5256618923611
 30
0.0
 10
138.8886800130208
 20
589.1216634114583
 30
0.0
 10
139.7523654513889
 20
589.5963975694444
 30
0.0
 10
139.8608859592014
 20
590.9089789496527
 30
0.0
 10
139.9659613715278
 20
592.193310546875
 30
0.0
 10
139.7206705729166
 20
593.3308810763889
 30
0.0
 10
138.9110731336805
 20
594.3444281684027
 30
0.0
 10
138.3343641493055
 20
595.064453125
 30
0.0
 10
137.4165907118056
 20
595.9443305121528
 30
0.0
 10
136.4733235677083
 20
596.1320882161458
 30
0.0
 10
135.1634982638889
 20
596.3901258680555
 30
0.0
 10
133.8030300564236
 20
595.5777723524305
 30
0.0
 10
132.7002549913194
 20
594.9817708333333
 30
0.0
 10
131.4576090494791
 20
594.3189344618055
 30
0.0
 10
130.354833984375
 20
593.4903889973958
 30
0.0
 10
129.9693277994791
 20
592.0658420138889
 30
0.0
  0
SPLINE
  5
3F
330
A
100
AcDbEntity
  8
LAYER_1
 62
     7
100
AcDbSpline
210
0.0
220
0.0
230
1.0
 70
    11
 71
     3
 72
    35
 73
    31
 74
     0
 42
0.000000001
 43
0.00000001
 40
0.0
 40
0.0
 40
0.0
 40
0.0
 40
1.0
 40
1.0
 40
1.0
 40
2.0
 40
2.0
 40
2.0
 40
3.0
 40
3.0
 40
3.0
 40
4.0
 40
4.0
 40
4.0
 40
5.0
 40
5.0
 40
5.0
 40
6.0
 40
6.0
 40
6.0
 40
7.0
 40
7.0
 40
7.0
 40
8.0
 40
8.0
 40
8.0
 40
9.0
 40
9.0
 40
9.0
 40
10.0
 40
10.0
 40
10.0
 40
10.0
 10
136.4478298611111
 20
610.9404866536457
 30
0.0
 10
136.2948676215278
 20
610.335183376736
 30
0.0
 10
136.1928927951389
 20
609.6912950303819
 30
0.0
 10
135.9665500217014
 20
609.1176866319444
 30
0.0
 10
135.8487277560764
 20
608.8117621527778
 30
0.0
 10
135.7181586371528
 20
608.6112575954861
 30
0.0
 10
135.6861192491319
 20
608.2891411675347
 30
0.0
 10
135.625830078125
 20
607.6424967447916
 30
0.0
 10
135.9410563151042
 20
607.2056586371527
 30
0.0
 10
136.4223361545139
 20
606.8108506944444
 30
0.0
 10
136.9800971137153
 20
606.3454182942708
 30
0.0
 10
137.6842746310764
 20
606.4601399739582
 30
0.0
 10
138.3788058810764
 20
606.5397216796874
 30
0.0
 10
138.9272650824653
 20
606.6069010416666
 30
0.0
 10
139.5515163845486
 20
606.7467719184027
 30
0.0
 10
139.8960259331597
 20
607.224951171875
 30
0.0
 10
140.3673149956597
 20
607.8684950086805
 30
0.0
 10
140.6766845703125
 20
608.9585232204861
 30
0.0
 10
140.67978515625
 20
609.7357367621527
 30
0.0
 10
140.6828857421875
 20
610.4178656684027
 30
0.0
 10
140.2973795572917
 20
611.3135904947916
 30
0.0
 10
139.6920762803819
 20
611.7083984374999
 30
0.0
 10
139.3351643880208
 20
611.9412868923611
 30
0.0
 10
138.8569851345486
 20
611.9922743055555
 30
0.0
 10
138.4714789496528
 20
612.2151719835069
 30
0.0
 10
138.1590087890625
 20
612.3905273437499
 30
0.0
 10
137.6715277777778
 20
612.801527235243
 30
0.0
 10
137.2667290581597
 20
612.635818142361
 30
0.0
 10
136.7857937282986
 20
612.4477159288194
 30
0.0
 10
136.5625515407986
 20
611.3993733723958
 30
0.0
 10
136.4478298611111
 20
610.9404866536457
 30
0.0
  0
POLYLINE
  5
38
330
A
100
AcDbEntity
  8
LAYER_1
  6
AI9-LType1
 62
     7
100
AcDb2dPolyline
 66
     1
 10
0.0
 20
0.0
 30
0.0
  0
VERTEX
  5
39
330
38
100
AcDbEntity
  8
LAYER_1
  6
AI9-LType1
 62
     7
100
AcDbVertex
100
AcDb2dVertex
 10
91.640229
 20
554.313452
 30
0.0
  0
VERTEX
  5
3A
330
38
100
AcDbEntity
  8
LAYER_1
  6
AI9-LType1
 62
     7
100
AcDbVertex
100
AcDb2dVertex
 10
130.759633
 20
554.931847
 30
0.0
  0
VERTEX
  5
3B
330
38
100
AcDbEntity
  8
LAYER_1
  6
AI9-LType1
 62
     7
100
AcDbVertex
100
AcDb2dVertex
 10
149.417581
 20
555.237771
 30
0.0
  0
VERTEX
  5
3C
330
38
100
AcDbEntity
  8
LAYER_1
  6
AI9-LType1
 62
     7
100
AcDbVertex
100
AcDb2dVertex
 10
171.561621
 20
555.677365
 30
0.0
  0
VERTEX
  5
3D
330
38
100
AcDbEntity
  8
LAYER_1
  6
AI9-LType1
 62
     7
100
AcDbVertex
100
AcDb2dVertex
 10
208.753149
 20
557.251774
 30
0.0
  0
SEQEND
  5
3E
330
38
100
AcDbEntity
  8
LAYER_1
  6
AI9-LType1
 62
     7
  0
MTEXT
  5
36
330
A
100
AcDbEntity
  8
LAYER_1
 62
     7
100
AcDbMText
 10
78.218137
 20
576.126911
 30
0.0
 40
1.574901
 41
0.0
 46
0.0
 71
     1
 72
     2
  1
\fHelvetica|b0|i0;
  7
STD
 73
     1
 44
1.0
  0
MTEXT
  5
35
330
A
100
AcDbEntity
  8
LAYER_1
 62
     7
100
AcDbMText
 10
236.515451
 20
576.53985
 30
0.0
 40
1.232675
 41
0.0
 46
0.0
 71
     1
 72
     2
  1
\W1.00;\fHelvetica|b0|i0;780/290
  7
STD
 73
     1
 44
1.0
  0
MTEXT
  5
34
330
A
100
AcDbEntity
  8
LAYER_1
 62
     7
100
AcDbMText
 10
134.283965
 20
642.895621
 30
0.0
 40
1.643461
 41
0.0
 46
0.0
 71
     1
 72
     2
  1
\W1.00;\fHelvetica|b1|i0;560
  7
STD
 73
     1
 44
1.0
  0
MTEXT
  5
33
330
A
100
AcDbEntity
  8
LAYER_1
 62
     7
100
AcDbMText
 10
129.931087
 20
629.96411
 30
0.0
 40
1.643461
 41
0.0
 46
0.0
 71
     1
 72
     2
  1
\W1.00;\fHelvetica|b1|i0;559
  7
STD
 73
     1
 44
1.0
  0
MTEXT
  5
32
330
A
100
AcDbEntity
  8
LAYER_1
 62
     7
100
AcDbMText
 10
125.527222
 20
620.556933
 30
0.0
 40
1.643461
 41
0.0
 46
0.0
 71
     1
 72
     2
  1
\W1.00;\fHelvetica|b1|i0;558
  7
STD
 73
     1
 44
1.0
  0
MTEXT
  5
31
330
A
100
AcDbEntity
  8
LAYER_1
 62
     7
100
AcDbMText
 10
109.762809
 20
612.227036
 30
0.0
 40
1.643461
 41
0.0
 46
0.0
 71
     1
 72
     2
  1
\W1.00;\fHelvetica|b1|i0;867
  7
STD
 73
     1
 44
1.0
  0
MTEXT
  5
30
330
A
100
AcDbEntity
  8
LAYER_1
 62
     7
100
AcDbMText
 10
141.323329
 20
609.865768
 30
0.0
 40
1.643461
 41
0.0
 46
0.0
 71
     1
 72
     2
  1
\W1.00;\fHelvetica|b1|i0;868
  7
STD
 73
     1
 44
1.0
  0
MTEXT
  5
2F
330
A
100
AcDbEntity
  8
LAYER_1
 62
     7
100
AcDbMText
 10
126.760566
 20
600.994578
 30
0.0
 40
2.099868
 41
0.0
 46
0.0
 71
     1
 72
     2
  1
\fHelvetica|b0|i0;
  7
STD
 73
     1
 44
1.0
  0
MTEXT
  5
2E
330
A
100
AcDbEntity
  8
LAYER_1
 62
     7
100
AcDbMText
 10
118.095806
 20
595.688166
 30
0.0
 40
1.643461
 41
0.0
 46
0.0
 71
     1
 72
     2
  1
\W1.00;\fHelvetica|b1|i0;838
  7
STD
 73
     1
 44
1.0
  0
MTEXT
  5
2D
330
A
100
AcDbEntity
  8
LAYER_1
 62
     7
100
AcDbMText
 10
133.439572
 20
592.632367
 30
0.0
 40
1.643461
 41
0.0
 46
0.0
 71
     1
 72
     2
  1
\W1.00;\fHelvetica|b1|i0;846
  7
STD
 73
     1
 44
1.0
  0
MTEXT
  5
2C
330
A
100
AcDbEntity
  8
LAYER_1
 62
     7
100
AcDbMText
 10
134.191637
 20
574.178368
 30
0.0
 40
1.643461
 41
0.0
 46
0.0
 71
     1
 72
     2
  1
\W1.00;\fHelvetica|b1|i0;846
  7
STD
 73
     1
 44
1.0
  0
MTEXT
  5
2B
330
A
100
AcDbEntity
  8
LAYER_1
 62
     7
100
AcDbMText
 10
135.389841
 20
560.91544
 30
0.0
 40
1.643461
 41
0.0
 46
0.0
 71
     1
 72
     2
  1
\W1.00;\fHelvetica|b1|i0;618
  7
STD
 73
     1
 44
1.0
  0
MTEXT
  5
2A
330
A
100
AcDbEntity
  8
LAYER_1
 62
     7
100
AcDbMText
 10
177.998782
 20
581.335554
 30
0.0
 40
1.643461
 41
0.0
 46
0.0
 71
     1
 72
     2
  1
\W1.00;\fHelvetica|b1|i0;865
  7
STD
 73
     1
 44
1.0
  0
MTEXT
  5
29
330
A
100
AcDbEntity
  8
LAYER_1
 62
     7
100
AcDbMText
 10
187.173071
 20
592.030164
 30
0.0
 40
1.643461
 41
0.0
 46
0.0
 71
     1
 72
     2
  1
\W1.00;\fHelvetica|b1|i0;866
  7
STD
 73
     1
 44
1.0
  0
ENDSEC
  0
SECTION
  2
OBJECTS
  0
DICTIONARY
  5
19
330
0
100
AcDbDictionary
281
     1
  3
ACAD_DETAILVIEWSTYLE
350
1A5
  3
ACAD_GROUP
350
1A
  3
ACAD_LAYOUT
350
1E
  3
ACAD_MATERIAL
350
165
  3
ACAD_MLEADERSTYLE
350
16B
  3
ACAD_MLINESTYLE
350
1B
  3
ACAD_PLOTSETTINGS
350
22
  3
ACAD_PLOTSTYLENAME
350
1F
  3
ACAD_SCALELIST
350
12A
  3
ACAD_SECTIONVIEWSTYLE
350
1A6
  3
ACAD_TABLESTYLE
350
169
  3
ACAD_VISUALSTYLE
350
14C
  3
ACAD_WIPEOUT_VARS
350
23
  3
ACDB_RECOMPOSE_DATA
350
1A1
  3
AcDbVariableDictionary
350
16D
  0
DICTIONARY
  5
1A5
102
{ACAD_REACTORS
330
19
102
}
330
19
100
AcDbDictionary
281
     1
  0
DICTIONARY
  5
1A
102
{ACAD_REACTORS
330
19
102
}
330
19
100
AcDbDictionary
281
     1
  0
DICTIONARY
  5
1E
102
{ACAD_REACTORS
330
19
102
}
330
19
100
AcDbDictionary
281
     1
  3
Layout1
350
21
  3
Model
350
20
  0
DICTIONARY
  5
165
102
{ACAD_REACTORS
330
19
102
}
330
19
100
AcDbDictionary
281
     1
  3
ByBlock
350
167
  3
ByLayer
350
166
  3
Global
350
168
  0
DICTIONARY
  5
16B
102
{ACAD_REACTORS
330
19
102
}
330
19
100
AcDbDictionary
281
     1
  3
Standard
350
16C
  0
DICTIONARY
  5
1B
102
{ACAD_REACTORS
330
19
102
}
330
19
100
AcDbDictionary
281
     1
  3
Standard
350
1C
  0
DICTIONARY
  5
22
102
{ACAD_REACTORS
330
19
102
}
330
19
100
AcDbDictionary
281
     1
  0
ACDBDICTIONARYWDFLT
  5
1F
102
{ACAD_REACTORS
330
19
102
}
330
19
100
AcDbDictionary
281
     1
  3
Normal
350
1D
100
AcDbDictionaryWithDefault
340
1D
  0
DICTIONARY
  5
12A
102
{ACAD_REACTORS
330
19
102
}
330
19
100
AcDbDictionary
281
     1
  3
A0
350
12B
  3
A1
350
12C
  3
A2
350
12D
  3
A3
350
12E
  3
A4
350
12F
  3
A5
350
130
  3
A6
350
131
  3
A7
350
132
  3
A8
350
133
  3
A9
350
134
  3
B0
350
135
  3
B1
350
136
  3
B2
350
137
  3
B3
350
138
  3
B4
350
139
  3
B5
350
13A
  3
B6
350
13B
  3
B7
350
13C
  3
B8
350
13D
  3
B9
350
13E
  3
C0
350
13F
  3
C1
350
140
  3
C2
350
141
  3
C3
350
142
  3
C4
350
143
  3
C5
350
144
  3
C6
350
145
  3
C7
350
146
  3
C8
350
147
  3
C9
350
148
  3
D0
350
149
  3
D1
350
14A
  3
D2
350
14B
  0
DICTIONARY
  5
1A6
102
{ACAD_REACTORS
330
19
102
}
330
19
100
AcDbDictionary
281
     1
  0
DICTIONARY
  5
169
102
{ACAD_REACTORS
330
19
102
}
330
19
100
AcDbDictionary
281
     1
  3
Standard
350
16A
  0
DICTIONARY
  5
14C
102
{ACAD_REACTORS
330
19
102
}
330
19
100
AcDbDictionary
281
     1
  3
2dWireframe
350
151
  3
Basic
350
154
  3
Brighten
350
158
  3
ColorChange
350
15C
  3
Conceptual
350
156
  3
Dim
350
157
  3
EdgeColorOff
350
15F
  3
Facepattern
350
15B
  3
Flat
350
14D
  3
FlatWithEdges
350
14E
  3
Gouraud
350
14F
  3
GouraudWithEdges
350
150
  3
Hidden
350
153
  3
JitterOff
350
15D
  3
Linepattern
350
15A
  3
OverhangOff
350
15E
  3
Realistic
350
155
  3
Shaded
350
164
  3
Shaded with edges
350
163
  3
Shades of Gray
350
160
  3
Sketchy
350
161
  3
Thicken
350
159
  3
Wireframe
350
152
  3
X-Ray
350
162
  0
WIPEOUTVARIABLES
  5
23
330
19
100
AcDbWipeoutVariables
 70
     1
  0
XRECORD
  5
1A1
102
{ACAD_REACTORS
330
19
102
}
330
19
100
AcDbXrecord
280
     1
 90
        1
330
16A
  0
DICTIONARY
  5
16D
102
{ACAD_REACTORS
330
19
102
}
330
19
100
AcDbDictionary
281
     1
  3
CANNOSCALE
350
16E
  3
CMLEADERSTYLE
350
1A3
  3
CTABLESTYLE
350
1A2
  3
MSLTSCALE
350
1A4
  0
LAYOUT
  5
21
102
{ACAD_REACTORS
330
1E
102
}
330
1E
100
AcDbPlotSettings
  1

  2

  4

  6

 40
0.0
 41
0.0
 42
0.0
 43
0.0
 44
0.0
 45
0.0
 46
0.0
 47
0.0
 48
0.0
 49
0.0
140
0.0
141
0.0
142
1.0
143
1.0
 70
     0
 72
     0
 73
     0
 74
     0
  7

 75
     0
 76
     0
 77
     2
 78
   300
147
1.0
148
0.0
149
0.0
100
AcDbLayout
  1
Layout1
 70
     0
 71
     0
 10
0.0
 20
0.0
 11
0.0
 21
0.0
 12
0.0
 22
0.0
 32
0.0
 14
0.0
 24
0.0
 34
0.0
 15
0.0
 25
0.0
 35
0.0
146
0.0
 13
0.0
 23
0.0
 33
0.0
 16
0.0
 26
0.0
 36
0.0
 17
0.0
 27
0.0
 37
0.0
 76
     0
330
B
  0
LAYOUT
  5
20
102
{ACAD_REACTORS
330
1E
102
}
330
1E
100
AcDbPlotSettings
  1

  2

  4

  6

 40
0.0
 41
0.0
 42
0.0
 43
0.0
 44
0.0
 45
0.0
 46
0.0
 47
0.0
 48
0.0
 49
0.0
140
0.0
141
0.0
142
1.0
143
1.0
 70
  1024
 72
     0
 73
     0
 74
     0
  7

 75
     0
 76
     0
 77
     2
 78
   300
147
1.0
148
0.0
149
0.0
100
AcDbLayout
  1
Model
 70
     0
 71
     1
 10
0.0
 20
0.0
 11
0.0
 21
0.0
 12
0.0
 22
0.0
 32
0.0
 14
0.0
 24
0.0
 34
0.0
 15
0.0
 25
0.0
 35
0.0
146
0.0
 13
0.0
 23
0.0
 33
0.0
 16
0.0
 26
0.0
 36
0.0
 17
0.0
 27
0.0
 37
0.0
 76
     0
330
A
331
15
  0
MATERIAL
  5
167
102
{ACAD_REACTORS
330
165
102
}
330
165
100
AcDbMaterial
  1
ByBlock
 72
     1
 94
      127
  0
MATERIAL
  5
166
102
{ACAD_REACTORS
330
165
102
}
330
165
100
AcDbMaterial
  1
ByLayer
 72
     1
 94
      127
  0
MATERIAL
  5
168
102
{ACAD_REACTORS
330
165
102
}
330
165
100
AcDbMaterial
  1
Global
 72
     1
 94
      127
  0
MLEADERSTYLE
  5
16C
102
{ACAD_REACTORS
330
16B
102
}
330
16B
100
AcDbMLeaderStyle
179
     2
170
     2
171
     1
172
     0
 90
        2
 40
0.0
 41
0.0
173
     1
 91
-1056964608
340
11
 92
       -2
290
     1
 42
0.09
291
     1
 43
0.36
  3
Standard
341
0
 44
0.18
300

342
17
174
     1
178
     6
175
     1
176
     0
 93
-1056964608
 45
0.18
292
     0
297
     0
 46
0.18
343
0
 94
-1056964608
 47
1.0
 49
1.0
140
1.0
293
     1
141
0.0
294
     1
177
     0
142
1.0
295
     0
296
     0
143
0.125
271
     0
272
     9
273
     9
  0
MLINESTYLE
  5
1C
102
{ACAD_REACTORS
330
1B
102
}
330
1B
100
AcDbMlineStyle
  2
Standard
 70
     0
  3

 62
     0
 51
90.0
 52
90.0
 71
     2
 49
0.5
 62
   256
  6
BYLAYER
 49
-0.5
 62
   256
  6
BYLAYER
  0
ACDBPLACEHOLDER
  5
1D
102
{ACAD_REACTORS
330
1F
102
}
330
1F
  0
SCALE
  5
12B
102
{ACAD_REACTORS
330
12A
102
}
330
12A
100
AcDbScale
 70
     0
300
1:1
140
1.0
141
1.0
290
     1
  0
SCALE
  5
12C
102
{ACAD_REACTORS
330
12A
102
}
330
12A
100
AcDbScale
 70
     0
300
1:2
140
1.0
141
2.0
290
     0
  0
SCALE
  5
12D
102
{ACAD_REACTORS
330
12A
102
}
330
12A
100
AcDbScale
 70
     0
300
1:4
140
1.0
141
4.0
290
     0
  0
SCALE
  5
12E
102
{ACAD_REACTORS
330
12A
102
}
330
12A
100
AcDbScale
 70
     0
300
1:5
140
1.0
141
5.0
290
     0
  0
SCALE
  5
12F
102
{ACAD_REACTORS
330
12A
102
}
330
12A
100
AcDbScale
 70
     0
300
1:8
140
1.0
141
8.0
290
     0
  0
SCALE
  5
130
102
{ACAD_REACTORS
330
12A
102
}
330
12A
100
AcDbScale
 70
     0
300
1:10
140
1.0
141
10.0
290
     0
  0
SCALE
  5
131
102
{ACAD_REACTORS
330
12A
102
}
330
12A
100
AcDbScale
 70
     0
300
1:16
140
1.0
141
16.0
290
     0
  0
SCALE
  5
132
102
{ACAD_REACTORS
330
12A
102
}
330
12A
100
AcDbScale
 70
     0
300
1:20
140
1.0
141
20.0
290
     0
  0
SCALE
  5
133
102
{ACAD_REACTORS
330
12A
102
}
330
12A
100
AcDbScale
 70
     0
300
1:30
140
1.0
141
30.0
290
     0
  0
SCALE
  5
134
102
{ACAD_REACTORS
330
12A
102
}
330
12A
100
AcDbScale
 70
     0
300
1:40
140
1.0
141
40.0
290
     0
  0
SCALE
  5
135
102
{ACAD_REACTORS
330
12A
102
}
330
12A
100
AcDbScale
 70
     0
300
1:50
140
1.0
141
50.0
290
     0
  0
SCALE
  5
136
102
{ACAD_REACTORS
330
12A
102
}
330
12A
100
AcDbScale
 70
     0
300
1:100
140
1.0
141
100.0
290
     0
  0
SCALE
  5
137
102
{ACAD_REACTORS
330
12A
102
}
330
12A
100
AcDbScale
 70
     0
300
2:1
140
2.0
141
1.0
290
     0
  0
SCALE
  5
138
102
{ACAD_REACTORS
330
12A
102
}
330
12A
100
AcDbScale
 70
     0
300
4:1
140
4.0
141
1.0
290
     0
  0
SCALE
  5
139
102
{ACAD_REACTORS
330
12A
102
}
330
12A
100
AcDbScale
 70
     0
300
8:1
140
8.0
141
1.0
290
     0
  0
SCALE
  5
13A
102
{ACAD_REACTORS
330
12A
102
}
330
12A
100
AcDbScale
 70
     0
300
10:1
140
10.0
141
1.0
290
     0
  0
SCALE
  5
13B
102
{ACAD_REACTORS
330
12A
102
}
330
12A
100
AcDbScale
 70
     0
300
100:1
140
100.0
141
1.0
290
     0
  0
SCALE
  5
13C
102
{ACAD_REACTORS
330
12A
102
}
330
12A
100
AcDbScale
 70
     0
300
1/128" = 1'-0"
140
0.0078125
141
12.0
290
     0
  0
SCALE
  5
13D
102
{ACAD_REACTORS
330
12A
102
}
330
12A
100
AcDbScale
 70
     0
300
1/64" = 1'-0"
140
0.015625
141
12.0
290
     0
  0
SCALE
  5
13E
102
{ACAD_REACTORS
330
12A
102
}
330
12A
100
AcDbScale
 70
     0
300
1/32" = 1'-0"
140
0.03125
141
12.0
290
     0
  0
SCALE
  5
13F
102
{ACAD_REACTORS
330
12A
102
}
330
12A
100
AcDbScale
 70
     0
300
1/16" = 1'-0"
140
0.0625
141
12.0
290
     0
  0
SCALE
  5
140
102
{ACAD_REACTORS
330
12A
102
}
330
12A
100
AcDbScale
 70
     0
300
3/32" = 1'-0"
140
0.09375
141
12.0
290
     0
  0
SCALE
  5
141
102
{ACAD_REACTORS
330
12A
102
}
330
12A
100
AcDbScale
 70
     0
300
1/8" = 1'-0"
140
0.125
141
12.0
290
     0
  0
SCALE
  5
142
102
{ACAD_REACTORS
330
12A
102
}
330
12A
100
AcDbScale
 70
     0
300
3/16" = 1'-0"
140
0.1875
141
12.0
290
     0
  0
SCALE
  5
143
102
{ACAD_REACTORS
330
12A
102
}
330
12A
100
AcDbScale
 70
     0
300
1/4" = 1'-0"
140
0.25
141
12.0
290
     0
  0
SCALE
  5
144
102
{ACAD_REACTORS
330
12A
102
}
330
12A
100
AcDbScale
 70
     0
300
3/8" = 1'-0"
140
0.375
141
12.0
290
     0
  0
SCALE
  5
145
102
{ACAD_REACTORS
330
12A
102
}
330
12A
100
AcDbScale
 70
     0
300
1/2" = 1'-0"
140
0.5
141
12.0
290
     0
  0
SCALE
  5
146
102
{ACAD_REACTORS
330
12A
102
}
330
12A
100
AcDbScale
 70
     0
300
3/4" = 1'-0"
140
0.75
141
12.0
290
     0
  0
SCALE
  5
147
102
{ACAD_REACTORS
330
12A
102
}
330
12A
100
AcDbScale
 70
     0
300
1" = 1'-0"
140
1.0
141
12.0
290
     0
  0
SCALE
  5
148
102
{ACAD_REACTORS
330
12A
102
}
330
12A
100
AcDbScale
 70
     0
300
1-1/2" = 1'-0"
140
1.5
141
12.0
290
     0
  0
SCALE
  5
149
102
{ACAD_REACTORS
330
12A
102
}
330
12A
100
AcDbScale
 70
     0
300
3" = 1'-0"
140
3.0
141
12.0
290
     0
  0
SCALE
  5
14A
102
{ACAD_REACTORS
330
12A
102
}
330
12A
100
AcDbScale
 70
     0
300
6" = 1'-0"
140
6.0
141
12.0
290
     0
  0
SCALE
  5
14B
102
{ACAD_REACTORS
330
12A
102
}
330
12A
100
AcDbScale
 70
     0
300
1'-0" = 1'-0"
140
12.0
141
12.0
290
     0
  0
TABLESTYLE
  5
16A
102
{ACAD_REACTORS
330
169
102
}
102
{ACAD_XDICTIONARY
360
19F
102
}
330
169
100
AcDbTableStyle
  3
Standard
 70
     0
 71
     0
 40
0.06
 41
0.06
280
     0
281
     0
  7
Standard
140
0.18
170
     2
 62
     0
 63
   257
283
     0
 90
        4
 91
        0
  1

274
    -2
284
     1
 64
     0
275
    -2
285
     1
 65
     0
276
    -2
286
     1
 66
     0
277
    -2
287
     1
 67
     0
278
    -2
288
     1
 68
     0
279
    -2
289
     1
 69
     0
  7
Standard
140
0.25
170
     5
 62
     0
 63
   257
283
     0
 90
        4
 91
        0
  1

274
    -2
284
     1
 64
     0
275
    -2
285
     1
 65
     0
276
    -2
286
     1
 66
     0
277
    -2
287
     1
 67
     0
278
    -2
288
     1
 68
     0
279
    -2
289
     1
 69
     0
  7
Standard
140
0.18
170
     5
 62
     0
 63
   257
283
     0
 90
        4
 91
        0
  1

274
    -2
284
     1
 64
     0
275
    -2
285
     1
 65
     0
276
    -2
286
     1
 66
     0
277
    -2
287
     1
 67
     0
278
    -2
288
     1
 68
     0
279
    -2
289
     1
 69
     0
  0
VISUALSTYLE
  5
151
102
{ACAD_REACTORS
330
14C
102
}
102
{ACAD_XDICTIONARY
360
177
102
}
330
14C
100
AcDbVisualStyle
  2
2dWireframe
 70
     4
177
     2
291
     0
 71
     0
176
     1
 72
     2
176
     1
 73
     0
176
     1
 90
        0
176
     1
 40
0.6
176
     1
 41
30.0
176
     1
 62
     5
 63
     7
421
 16777215
176
     1
 74
     1
176
     1
 91
        4
176
     1
 64
     7
176
     1
 65
   257
176
     1
 75
     1
176
     1
175
     1
176
     1
 42
1.0
176
     1
 92
        0
176
     1
 66
   257
176
     1
 43
1.0
176
     1
 76
     1
176
     1
 77
     6
176
     1
 78
     2
176
     1
 67
     7
176
     1
 79
     5
176
     1
170
     0
176
     1
171
     0
176
     1
290
     0
176
     1
 93
        1
176
     1
 44
0.0
176
     1
173
     0
176
     1
  0
VISUALSTYLE
  5
154
102
{ACAD_REACTORS
330
14C
102
}
102
{ACAD_XDICTIONARY
360
17D
102
}
330
14C
100
AcDbVisualStyle
  2
Basic
 70
     7
177
     2
291
     1
 71
     1
176
     1
 72
     0
176
     1
 73
     1
176
     1
 90
        0
176
     1
 40
0.6
176
     1
 41
30.0
176
     1
 62
     5
 63
     7
421
 16777215
176
     1
 74
     0
176
     1
 91
        4
176
     1
 64
     7
176
     1
 65
   257
176
     1
 75
     1
176
     1
175
     1
176
     1
 42
1.0
176
     1
 92
        8
176
     1
 66
     7
176
     1
 43
1.0
176
     1
 76
     1
176
     1
 77
     6
176
     1
 78
     2
176
     1
 67
     7
176
     1
 79
     5
176
     1
170
     0
176
     1
171
     0
176
     1
290
     0
176
     1
 93
        1
176
     1
 44
0.0
176
     1
173
     0
176
     1
  0
VISUALSTYLE
  5
158
102
{ACAD_REACTORS
330
14C
102
}
102
{ACAD_XDICTIONARY
360
185
102
}
330
14C
100
AcDbVisualStyle
  2
Brighten
 70
    12
177
     2
291
     1
 71
     2
176
     1
 72
     2
176
     1
 73
     0
176
     1
 90
        0
176
     1
 40
0.6
176
     1
 41
30.0
176
     1
 62
     5
 63
     7
421
 16777215
176
     1
 74
     1
176
     1
 91
        4
176
     1
 64
     7
176
     1
 65
   257
176
     1
 75
     1
176
     1
175
     1
176
     1
 42
1.0
176
     1
 92
        8
176
     1
 66
     7
176
     1
 43
1.0
176
     1
 76
     1
176
     1
 77
     6
176
     1
 78
     2
176
     1
 67
     7
176
     1
 79
     5
176
     1
170
     0
176
     1
171
     0
176
     1
290
     0
176
     1
 93
        1
176
     1
 44
50.0
176
     1
173
     0
176
     1
  0
VISUALSTYLE
  5
15C
102
{ACAD_REACTORS
330
14C
102
}
102
{ACAD_XDICTIONARY
360
18D
102
}
330
14C
100
AcDbVisualStyle
  2
ColorChange
 70
    16
177
     2
291
     1
 71
     2
176
     1
 72
     2
176
     1
 73
     3
176
     1
 90
        0
176
     1
 40
0.6
176
     1
 41
30.0
176
     1
 62
     5
 63
     8
421
  8421504
176
     1
 74
     1
176
     1
 91
        4
176
     1
 64
     7
176
     1
 65
   257
176
     1
 75
     1
176
     1
175
     1
176
     1
 42
1.0
176
     1
 92
        8
176
     1
 66
     8
424
  8421504
176
     1
 43
1.0
176
     1
 76
     1
176
     1
 77
     6
176
     1
 78
     2
176
     1
 67
     7
176
     1
 79
     5
176
     1
170
     0
176
     1
171
     0
176
     1
290
     0
176
     1
 93
        1
176
     1
 44
0.0
176
     1
173
     0
176
     1
  0
VISUALSTYLE
  5
156
102
{ACAD_REACTORS
330
14C
102
}
102
{ACAD_XDICTIONARY
360
181
102
}
330
14C
100
AcDbVisualStyle
  2
Conceptual
 70
     9
177
     2
291
     0
 71
     3
176
     1
 72
     2
176
     1
 73
     0
176
     1
 90
        0
176
     1
 40
0.6
176
     1
 41
30.0
176
     1
 62
     5
 63
     7
421
 16777215
176
     1
 74
     2
176
     1
 91
        2
176
     1
 64
     7
176
     1
 65
   257
176
     1
 75
     1
176
     1
175
     1
176
     1
 42
179.0
176
     1
 92
        8
176
     1
 66
     7
176
     1
 43
1.0
176
     1
 76
     1
176
     1
 77
     6
176
     1
 78
     2
176
     1
 67
     7
176
     1
 79
     3
176
     1
170
     0
176
     1
171
     0
176
     1
290
     0
176
     1
 93
        1
176
     1
 44
0.0
176
     1
173
     0
176
     1
  0
VISUALSTYLE
  5
157
102
{ACAD_REACTORS
330
14C
102
}
102
{ACAD_XDICTIONARY
360
183
102
}
330
14C
100
AcDbVisualStyle
  2
Dim
 70
    11
177
     2
291
     1
 71
     2
176
     1
 72
     2
176
     1
 73
     0
176
     1
 90
        0
176
     1
 40
0.6
176
     1
 41
30.0
176
     1
 62
     5
 63
     7
421
 16777215
176
     1
 74
     1
176
     1
 91
        4
176
     1
 64
     7
176
     1
 65
   257
176
     1
 75
     1
176
     1
175
     1
176
     1
 42
1.0
176
     1
 92
        8
176
     1
 66
     7
176
     1
 43
1.0
176
     1
 76
     1
176
     1
 77
     6
176
     1
 78
     2
176
     1
 67
     7
176
     1
 79
     5
176
     1
170
     0
176
     1
171
     0
176
     1
290
     0
176
     1
 93
        1
176
     1
 44
-50.0
176
     1
173
     0
176
     1
  0
VISUALSTYLE
  5
15F
102
{ACAD_REACTORS
330
14C
102
}
102
{ACAD_XDICTIONARY
360
193
102
}
330
14C
100
AcDbVisualStyle
  2
EdgeColorOff
 70
    22
177
     2
291
     1
 71
     2
176
     0
 72
     2
176
     0
 73
     0
176
     0
 90
        0
176
     0
 40
0.6
176
     0
 41
30.0
176
     0
 62
     5
 63
     7
421
 16777215
176
     0
 74
     1
176
     0
 91
        4
176
     0
 64
     7
176
     0
 65
   257
176
     0
 75
     1
176
     0
175
     1
176
     0
 42
1.0
176
     0
 92
        8
176
     2
 66
     7
176
     0
 43
1.0
176
     0
 76
     1
176
     0
 77
     6
176
     0
 78
     2
176
     0
 67
     7
176
     0
 79
     5
176
     0
170
     0
176
     0
171
     0
176
     0
290
     0
176
     0
 93
        1
176
     0
 44
0.0
176
     0
173
     0
176
     0
  0
VISUALSTYLE
  5
15B
102
{ACAD_REACTORS
330
14C
102
}
102
{ACAD_XDICTIONARY
360
18B
102
}
330
14C
100
AcDbVisualStyle
  2
Facepattern
 70
    15
177
     2
291
     1
 71
     2
176
     1
 72
     2
176
     1
 73
     0
176
     1
 90
        0
176
     1
 40
0.6
176
     1
 41
30.0
176
     1
 62
     5
 63
     7
421
 16777215
176
     1
 74
     1
176
     1
 91
        4
176
     1
 64
     7
176
     1
 65
   257
176
     1
 75
     1
176
     1
175
     1
176
     1
 42
1.0
176
     1
 92
        8
176
     1
 66
     7
176
     1
 43
1.0
176
     1
 76
     1
176
     1
 77
     6
176
     1
 78
     2
176
     1
 67
     7
176
     1
 79
     5
176
     1
170
     0
176
     1
171
     0
176
     1
290
     0
176
     1
 93
        1
176
     1
 44
0.0
176
     1
173
     0
176
     1
  0
VISUALSTYLE
  5
14D
102
{ACAD_REACTORS
330
14C
102
}
102
{ACAD_XDICTIONARY
360
16F
102
}
330
14C
100
AcDbVisualStyle
  2
Flat
 70
     0
177
     2
291
     1
 71
     2
176
     1
 72
     1
176
     1
 73
     1
176
     1
 90
        2
176
     1
 40
0.6
176
     1
 41
30.0
176
     1
 62
     5
 63
     7
421
 16777215
176
     1
 74
     0
176
     1
 91
        0
176
     1
 64
     7
176
     1
 65
   257
176
     1
 75
     1
176
     1
175
     1
176
     1
 42
1.0
176
     1
 92
        8
176
     1
 66
     7
176
     1
 43
1.0
176
     1
 76
     1
176
     1
 77
     6
176
     1
 78
     2
176
     1
 67
     7
176
     1
 79
     5
176
     1
170
     0
176
     1
171
     0
176
     1
290
     0
176
     1
 93
       13
176
     1
 44
0.0
176
     1
173
     0
176
     1
  0
VISUALSTYLE
  5
14E
102
{ACAD_REACTORS
330
14C
102
}
102
{ACAD_XDICTIONARY
360
171
102
}
330
14C
100
AcDbVisualStyle
  2
FlatWithEdges
 70
     1
177
     2
291
     1
 71
     2
176
     1
 72
     1
176
     1
 73
     1
176
     1
 90
        2
176
     1
 40
0.6
176
     1
 41
30.0
176
     1
 62
     5
 63
     7
421
 16777215
176
     1
 74
     1
176
     1
 91
        0
176
     1
 64
     7
176
     1
 65
   257
176
     1
 75
     1
176
     1
175
     1
176
     1
 42
1.0
176
     1
 92
        0
176
     1
 66
   257
176
     1
 43
1.0
176
     1
 76
     1
176
     1
 77
     6
176
     1
 78
     2
176
     1
 67
     7
176
     1
 79
     5
176
     1
170
     0
176
     1
171
     0
176
     1
290
     0
176
     1
 93
       13
176
     1
 44
0.0
176
     1
173
     0
176
     1
  0
VISUALSTYLE
  5
14F
102
{ACAD_REACTORS
330
14C
102
}
102
{ACAD_XDICTIONARY
360
173
102
}
330
14C
100
AcDbVisualStyle
  2
Gouraud
 70
     2
177
     2
291
     1
 71
     2
176
     1
 72
     2
176
     1
 73
     1
176
     1
 90
        2
176
     1
 40
0.6
176
     1
 41
30.0
176
     1
 62
     5
 63
     7
421
 16777215
176
     1
 74
     0
176
     1
 91
        0
176
     1
 64
     7
176
     1
 65
   257
176
     1
 75
     1
176
     1
175
     1
176
     1
 42
1.0
176
     1
 92
        0
176
     1
 66
     7
176
     1
 43
1.0
176
     1
 76
     1
176
     1
 77
     6
176
     1
 78
     2
176
     1
 67
     7
176
     1
 79
     5
176
     1
170
     0
176
     1
171
     0
176
     1
290
     0
176
     1
 93
       13
176
     1
 44
0.0
176
     1
173
     0
176
     1
  0
VISUALSTYLE
  5
150
102
{ACAD_REACTORS
330
14C
102
}
102
{ACAD_XDICTIONARY
360
175
102
}
330
14C
100
AcDbVisualStyle
  2
GouraudWithEdges
 70
     3
177
     2
291
     1
 71
     2
176
     1
 72
     2
176
     1
 73
     1
176
     1
 90
        2
176
     1
 40
0.6
176
     1
 41
30.0
176
     1
 62
     5
 63
     7
421
 16777215
176
     1
 74
     1
176
     1
 91
        0
176
     1
 64
     7
176
     1
 65
   257
176
     1
 75
     1
176
     1
175
     1
176
     1
 42
1.0
176
     1
 92
        0
176
     1
 66
   257
176
     1
 43
1.0
176
     1
 76
     1
176
     1
 77
     6
176
     1
 78
     2
176
     1
 67
     7
176
     1
 79
     5
176
     1
170
     0
176
     1
171
     0
176
     1
290
     0
176
     1
 93
       13
176
     1
 44
0.0
176
     1
173
     0
176
     1
  0
VISUALSTYLE
  5
153
102
{ACAD_REACTORS
330
14C
102
}
102
{ACAD_XDICTIONARY
360
17B
102
}
330
14C
100
AcDbVisualStyle
  2
Hidden
 70
     6
177
     2
291
     0
 71
     1
176
     1
 72
     2
176
     1
 73
     2
176
     1
 90
        0
176
     1
 40
0.6
176
     1
 41
30.0
176
     1
 62
     5
 63
     7
421
 16777215
176
     1
 74
     2
176
     1
 91
        2
176
     1
 64
     7
176
     1
 65
   257
176
     1
 75
     2
176
     1
175
     1
176
     1
 42
40.0
176
     1
 92
        0
176
     1
 66
   257
176
     1
 43
1.0
176
     1
 76
     1
176
     1
 77
     6
176
     1
 78
     2
176
     1
 67
     7
176
     1
 79
     3
176
     1
170
     0
176
     1
171
     0
176
     1
290
     0
176
     1
 93
        1
176
     1
 44
0.0
176
     1
173
     0
176
     1
  0
VISUALSTYLE
  5
15D
102
{ACAD_REACTORS
330
14C
102
}
102
{ACAD_XDICTIONARY
360
18F
102
}
330
14C
100
AcDbVisualStyle
  2
JitterOff
 70
    20
177
     2
291
     1
 71
     2
176
     0
 72
     2
176
     0
 73
     0
176
     0
 90
        0
176
     0
 40
0.6
176
     0
 41
30.0
176
     0
 62
     5
 63
     7
421
 16777215
176
     0
 74
     1
176
     0
 91
        4
176
     0
 64
     7
176
     0
 65
   257
176
     0
 75
     1
176
     0
175
     1
176
     0
 42
1.0
176
     0
 92
       10
176
     2
 66
     7
176
     0
 43
1.0
176
     0
 76
     1
176
     0
 77
     6
176
     0
 78
     2
176
     0
 67
     7
176
     0
 79
     5
176
     0
170
     0
176
     0
171
     0
176
     0
290
     0
176
     0
 93
        1
176
     0
 44
0.0
176
     0
173
     0
176
     0
  0
VISUALSTYLE
  5
15A
102
{ACAD_REACTORS
330
14C
102
}
102
{ACAD_XDICTIONARY
360
189
102
}
330
14C
100
AcDbVisualStyle
  2
Linepattern
 70
    14
177
     2
291
     1
 71
     2
176
     1
 72
     2
176
     1
 73
     0
176
     1
 90
        0
176
     1
 40
0.6
176
     1
 41
30.0
176
     1
 62
     5
 63
     7
421
 16777215
176
     1
 74
     1
176
     1
 91
        4
176
     1
 64
     7
176
     1
 65
   257
176
     1
 75
     7
176
     1
175
     7
176
     1
 42
1.0
176
     1
 92
        8
176
     1
 66
     7
176
     1
 43
1.0
176
     1
 76
     1
176
     1
 77
     6
176
     1
 78
     2
176
     1
 67
     7
176
     1
 79
     5
176
     1
170
     0
176
     1
171
     0
176
     1
290
     0
176
     1
 93
        1
176
     1
 44
0.0
176
     1
173
     0
176
     1
  0
VISUALSTYLE
  5
15E
102
{ACAD_REACTORS
330
14C
102
}
102
{ACAD_XDICTIONARY
360
191
102
}
330
14C
100
AcDbVisualStyle
  2
OverhangOff
 70
    21
177
     2
291
     1
 71
     2
176
     0
 72
     2
176
     0
 73
     0
176
     0
 90
        0
176
     0
 40
0.6
176
     0
 41
30.0
176
     0
 62
     5
 63
     7
421
 16777215
176
     0
 74
     1
176
     0
 91
        4
176
     0
 64
     7
176
     0
 65
   257
176
     0
 75
     1
176
     0
175
     1
176
     0
 42
1.0
176
     0
 92
        9
176
     2
 66
     7
176
     0
 43
1.0
176
     0
 76
     1
176
     0
 77
     6
176
     0
 78
     2
176
     0
 67
     7
176
     0
 79
     5
176
     0
170
     0
176
     0
171
     0
176
     0
290
     0
176
     0
 93
        1
176
     0
 44
0.0
176
     0
173
     0
176
     0
  0
VISUALSTYLE
  5
155
102
{ACAD_REACTORS
330
14C
102
}
102
{ACAD_XDICTIONARY
360
17F
102
}
330
14C
100
AcDbVisualStyle
  2
Realistic
 70
     8
177
     2
291
     0
 71
     2
176
     1
 72
     3
176
     1
 73
     0
176
     1
 90
        2
176
     1
 40
0.6
176
     1
 41
30.0
176
     1
 62
     5
 63
     7
421
 16777215
176
     1
 74
     0
176
     1
 91
        0
176
     1
 64
     7
176
     1
 65
   257
176
     1
 75
     1
176
     1
175
     1
176
     1
 42
1.0
176
     1
 92
        8
176
     1
 66
   257
176
     1
 43
1.0
176
     1
 76
     1
176
     1
 77
     6
176
     1
 78
     2
176
     1
 67
     7
176
     1
 79
     3
176
     1
170
     0
176
     1
171
     0
176
     1
290
     0
176
     1
 93
       13
176
     1
 44
0.0
176
     1
173
     0
176
     1
  0
VISUALSTYLE
  5
164
102
{ACAD_REACTORS
330
14C
102
}
102
{ACAD_XDICTIONARY
360
19D
102
}
330
14C
100
AcDbVisualStyle
  2
Shaded
 70
    27
177
     2
291
     0
 71
     2
176
     1
 72
     2
176
     1
 73
     1
176
     1
 90
        2
176
     1
 40
0.6
176
     1
 41
30.0
176
     1
 62
     5
 63
     7
421
 16777215
176
     1
 74
     0
176
     1
 91
        4
176
     1
 64
     7
176
     1
 65
   257
176
     1
 75
     1
176
     1
175
     1
176
     1
 42
1.0
176
     1
 92
        8
176
     1
 66
   257
176
     1
 43
1.0
176
     1
 76
     1
176
     1
 77
     6
176
     1
 78
     2
176
     1
 67
     8
425
  7895160
176
     1
 79
     3
176
     1
170
     0
176
     1
171
     0
176
     1
290
     0
176
     1
 93
        5
176
     1
 44
0.0
176
     1
173
     0
176
     1
  0
VISUALSTYLE
  5
163
102
{ACAD_REACTORS
330
14C
102
}
102
{ACAD_XDICTIONARY
360
19B
102
}
330
14C
100
AcDbVisualStyle
  2
Shaded with edges
 70
    26
177
     2
291
     0
 71
     2
176
     1
 72
     2
176
     1
 73
     1
176
     1
 90
        2
176
     1
 40
0.6
176
     1
 41
30.0
176
     1
 62
     5
 63
     7
421
 16777215
176
     1
 74
     1
176
     1
 91
       10
176
     1
 64
     7
176
     1
 65
   257
176
     1
 75
     2
176
     1
175
     1
176
     1
 42
1.0
176
     1
 92
        8
176
     1
 66
   257
176
     1
 43
1.0
176
     1
 76
     1
176
     1
 77
     6
176
     1
 78
     2
176
     1
 67
     7
176
     1
 79
     3
176
     1
170
     0
176
     1
171
     0
176
     1
290
     0
176
     1
 93
        5
176
     1
 44
0.0
176
     1
173
     0
176
     1
  0
VISUALSTYLE
  5
160
102
{ACAD_REACTORS
330
14C
102
}
102
{ACAD_XDICTIONARY
360
195
102
}
330
14C
100
AcDbVisualStyle
  2
Shades of Gray
 70
    23
177
     2
291
     0
 71
     2
176
     1
 72
     2
176
     1
 73
     3
176
     1
 90
        0
176
     1
 40
0.6
176
     1
 41
30.0
176
     1
 62
     5
 63
     7
421
 16777215
176
     1
 74
     2
176
     1
 91
        2
176
     1
 64
     7
176
     1
 65
     7
176
     1
 75
     1
176
     1
175
     1
176
     1
 42
40.0
176
     1
 92
        8
176
     1
 66
     7
176
     1
 43
1.0
176
     1
 76
     1
176
     1
 77
     6
176
     1
 78
     2
176
     1
 67
     7
176
     1
 79
     3
176
     1
170
     0
176
     1
171
     0
176
     1
290
     0
176
     1
 93
        1
176
     1
 44
0.0
176
     1
173
     0
176
     1
  0
VISUALSTYLE
  5
161
102
{ACAD_REACTORS
330
14C
102
}
102
{ACAD_XDICTIONARY
360
197
102
}
330
14C
100
AcDbVisualStyle
  2
Sketchy
 70
    24
177
     2
291
     0
 71
     1
176
     1
 72
     2
176
     1
 73
     2
176
     1
 90
        0
176
     1
 40
0.6
176
     1
 41
30.0
176
     1
 62
     5
 63
     7
421
 16777215
176
     1
 74
     2
176
     1
 91
        2
176
     1
 64
     7
176
     1
 65
     7
176
     1
 75
     1
176
     1
175
     1
176
     1
 42
40.0
176
     1
 92
       11
176
     1
 66
     7
176
     1
 43
1.0
176
     1
 76
     1
176
     1
 77
     6
176
     1
 78
     2
176
     1
 67
     7
176
     1
 79
     6
176
     1
170
     0
176
     1
171
     0
176
     1
290
     0
176
     1
 93
        1
176
     1
 44
0.0
176
     1
173
     0
176
     1
  0
VISUALSTYLE
  5
159
102
{ACAD_REACTORS
330
14C
102
}
102
{ACAD_XDICTIONARY
360
187
102
}
330
14C
100
AcDbVisualStyle
  2
Thicken
 70
    13
177
     2
291
     1
 71
     2
176
     1
 72
     2
176
     1
 73
     0
176
     1
 90
        0
176
     1
 40
0.6
176
     1
 41
30.0
176
     1
 62
     5
 63
     7
421
 16777215
176
     1
 74
     1
176
     1
 91
        4
176
     1
 64
     7
176
     1
 65
   257
176
     1
 75
     1
176
     1
175
     1
176
     1
 42
1.0
176
     1
 92
       12
176
     1
 66
     7
176
     1
 43
1.0
176
     1
 76
     1
176
     1
 77
     6
176
     1
 78
     2
176
     1
 67
     7
176
     1
 79
     5
176
     1
170
     0
176
     1
171
     0
176
     1
290
     0
176
     1
 93
        1
176
     1
 44
0.0
176
     1
173
     0
176
     1
  0
VISUALSTYLE
  5
152
102
{ACAD_REACTORS
330
14C
102
}
102
{ACAD_XDICTIONARY
360
179
102
}
330
14C
100
AcDbVisualStyle
  2
Wireframe
 70
     5
177
     2
291
     0
 71
     0
176
     1
 72
     2
176
     1
 73
     0
176
     1
 90
        0
176
     1
 40
0.6
176
     1
 41
30.0
176
     1
 62
     5
 63
     7
421
 16777215
176
     1
 74
     1
176
     1
 91
        4
176
     1
 64
     7
176
     1
 65
   257
176
     1
 75
     1
176
     1
175
     1
176
     1
 42
1.0
176
     1
 92
        0
176
     1
 66
   257
176
     1
 43
1.0
176
     1
 76
     1
176
     1
 77
     6
176
     1
 78
     2
176
     1
 67
     7
176
     1
 79
     3
176
     1
170
     0
176
     1
171
     0
176
     1
290
     0
176
     1
 93
        1
176
     1
 44
0.0
176
     1
173
     0
176
     1
  0
VISUALSTYLE
  5
162
102
{ACAD_REACTORS
330
14C
102
}
102
{ACAD_XDICTIONARY
360
199
102
}
330
14C
100
AcDbVisualStyle
  2
X-Ray
 70
    25
177
     2
291
     0
 71
     2
176
     1
 72
     2
176
     1
 73
     1
176
     1
 90
        1
176
     1
 40
0.5
176
     1
 41
30.0
176
     1
 62
     5
 63
     7
421
 16777215
176
     1
 74
     1
176
     1
 91
        0
176
     1
 64
     7
176
     1
 65
   257
176
     1
 75
     1
176
     1
175
     1
176
     1
 42
1.0
176
     1
 92
        8
176
     1
 66
     7
176
     1
 43
1.0
176
     1
 76
     1
176
     1
 77
     6
176
     1
 78
     2
176
     1
 67
     7
176
     1
 79
     3
176
     1
170
     0
176
     1
171
     0
176
     1
290
     0
176
     1
 93
       13
176
     1
 44
0.0
176
     1
173
     0
176
     1
  0
DICTIONARYVAR
  5
16E
102
{ACAD_REACTORS
330
16D
102
}
330
16D
100
DictionaryVariables
280
     0
  1
1:1
  0
DICTIONARYVAR
  5
1A3
102
{ACAD_REACTORS
330
16D
102
}
330
16D
100
DictionaryVariables
280
     0
  1
Standard
  0
DICTIONARYVAR
  5
1A2
102
{ACAD_REACTORS
330
16D
102
}
330
16D
100
DictionaryVariables
280
     0
  1
Standard
  0
DICTIONARYVAR
  5
1A4
102
{ACAD_REACTORS
330
16D
102
}
330
16D
100
DictionaryVariables
280
     0
  1
0
  0
DICTIONARY
  5
19F
330
16A
100
AcDbDictionary
280
     1
281
     1
  3
ACAD_ROUNDTRIP_2008_TABLESTYLE_CELLSTYLEMAP
360
1A0
  0
DICTIONARY
  5
177
330
151
100
AcDbDictionary
280
     1
281
     1
  3
ACAD_XREC_ROUNDTRIP
360
178
  0
DICTIONARY
  5
17D
330
154
100
AcDbDictionary
280
     1
281
     1
  3
ACAD_XREC_ROUNDTRIP
360
17E
  0
DICTIONARY
  5
185
330
158
100
AcDbDictionary
280
     1
281
     1
  3
ACAD_XREC_ROUNDTRIP
360
186
  0
DICTIONARY
  5
18D
330
15C
100
AcDbDictionary
280
     1
281
     1
  3
ACAD_XREC_ROUNDTRIP
360
18E
  0
DICTIONARY
  5
181
330
156
100
AcDbDictionary
280
     1
281
     1
  3
ACAD_XREC_ROUNDTRIP
360
182
  0
DICTIONARY
  5
183
330
157
100
AcDbDictionary
280
     1
281
     1
  3
ACAD_XREC_ROUNDTRIP
360
184
  0
DICTIONARY
  5
193
330
15F
100
AcDbDictionary
280
     1
281
     1
  3
ACAD_XREC_ROUNDTRIP
360
194
  0
DICTIONARY
  5
18B
330
15B
100
AcDbDictionary
280
     1
281
     1
  3
ACAD_XREC_ROUNDTRIP
360
18C
  0
DICTIONARY
  5
16F
330
14D
100
AcDbDictionary
280
     1
281
     1
  3
ACAD_XREC_ROUNDTRIP
360
170
  0
DICTIONARY
  5
171
330
14E
100
AcDbDictionary
280
     1
281
     1
  3
ACAD_XREC_ROUNDTRIP
360
172
  0
DICTIONARY
  5
173
330
14F
100
AcDbDictionary
280
     1
281
     1
  3
ACAD_XREC_ROUNDTRIP
360
174
  0
DICTIONARY
  5
175
330
150
100
AcDbDictionary
280
     1
281
     1
  3
ACAD_XREC_ROUNDTRIP
360
176
  0
DICTIONARY
  5
17B
330
153
100
AcDbDictionary
280
     1
281
     1
  3
ACAD_XREC_ROUNDTRIP
360
17C
  0
DICTIONARY
  5
18F
330
15D
100
AcDbDictionary
280
     1
281
     1
  3
ACAD_XREC_ROUNDTRIP
360
190
  0
DICTIONARY
  5
189
330
15A
100
AcDbDictionary
280
     1
281
     1
  3
ACAD_XREC_ROUNDTRIP
360
18A
  0
DICTIONARY
  5
191
330
15E
100
AcDbDictionary
280
     1
281
     1
  3
ACAD_XREC_ROUNDTRIP
360
192
  0
DICTIONARY
  5
17F
330
155
100
AcDbDictionary
280
     1
281
     1
  3
ACAD_XREC_ROUNDTRIP
360
180
  0
DICTIONARY
  5
19D
330
164
100
AcDbDictionary
280
     1
281
     1
  3
ACAD_XREC_ROUNDTRIP
360
19E
  0
DICTIONARY
  5
19B
330
163
100
AcDbDictionary
280
     1
281
     1
  3
ACAD_XREC_ROUNDTRIP
360
19C
  0
DICTIONARY
  5
195
330
160
100
AcDbDictionary
280
     1
281
     1
  3
ACAD_XREC_ROUNDTRIP
360
196
  0
DICTIONARY
  5
197
330
161
100
AcDbDictionary
280
     1
281
     1
  3
ACAD_XREC_ROUNDTRIP
360
198
  0
DICTIONARY
  5
187
330
159
100
AcDbDictionary
280
     1
281
     1
  3
ACAD_XREC_ROUNDTRIP
360
188
  0
DICTIONARY
  5
179
330
152
100
AcDbDictionary
280
     1
281
     1
  3
ACAD_XREC_ROUNDTRIP
360
17A
  0
DICTIONARY
  5
199
330
162
100
AcDbDictionary
280
     1
281
     1
  3
ACAD_XREC_ROUNDTRIP
360
19A
  0
CELLSTYLEMAP
  5
1A0
102
{ACAD_REACTORS
330
19F
102
}
330
19F
100
AcDbCellStyleMap
 90
        3
300
CELLSTYLE
  1
TABLEFORMAT_BEGIN
 90
        5
170
     1
 91
        0
 92
    32768
 62
   257
 93
        1
300
CONTENTFORMAT
  1
CONTENTFORMAT_BEGIN
 90
        0
 91
        0
 92
        4
 93
        0
300

 40
0.0
140
1.0
 94
        5
 62
     0
340
17
144
0.25
309
CONTENTFORMAT_END
171
     1
301
MARGIN
  1
CELLMARGIN_BEGIN
 40
0.06
 40
0.06
 40
0.06
 40
0.06
 40
0.06
 40
0.06
309
CELLMARGIN_END
 94
        6
 95
        1
302
GRIDFORMAT
  1
GRIDFORMAT_BEGIN
 90
        0
 91
        1
 62
     0
 92
       -2
340
11
 93
        0
 40
0.045
309
GRIDFORMAT_END
 95
        2
302
GRIDFORMAT
  1
GRIDFORMAT_BEGIN
 90
        0
 91
        1
 62
     0
 92
       -2
340
11
 93
        0
 40
0.045
309
GRIDFORMAT_END
 95
        4
302
GRIDFORMAT
  1
GRIDFORMAT_BEGIN
 90
        0
 91
        1
 62
     0
 92
       -2
340
11
 93
        0
 40
0.045
309
GRIDFORMAT_END
 95
        8
302
GRIDFORMAT
  1
GRIDFORMAT_BEGIN
 90
        0
 91
        1
 62
     0
 92
       -2
340
11
 93
        0
 40
0.045
309
GRIDFORMAT_END
 95
       16
302
GRIDFORMAT
  1
GRIDFORMAT_BEGIN
 90
        0
 91
        1
 62
     0
 92
       -2
340
11
 93
        0
 40
0.045
309
GRIDFORMAT_END
 95
       32
302
GRIDFORMAT
  1
GRIDFORMAT_BEGIN
 90
        0
 91
        1
 62
     0
 92
       -2
340
11
 93
        0
 40
0.045
309
GRIDFORMAT_END
309
TABLEFORMAT_END
  1
CELLSTYLE_BEGIN
 90
        1
 91
        1
300
_TITLE
309
CELLSTYLE_END
300
CELLSTYLE
  1
TABLEFORMAT_BEGIN
 90
        5
170
     1
 91
        0
 92
        0
 62
   257
 93
        1
300
CONTENTFORMAT
  1
CONTENTFORMAT_BEGIN
 90
        0
 91
        0
 92
        4
 93
        0
300

 40
0.0
140
1.0
 94
        5
 62
     0
340
17
144
0.18
309
CONTENTFORMAT_END
171
     1
301
MARGIN
  1
CELLMARGIN_BEGIN
 40
0.06
 40
0.06
 40
0.06
 40
0.06
 40
0.06
 40
0.06
309
CELLMARGIN_END
 94
        6
 95
        1
302
GRIDFORMAT
  1
GRIDFORMAT_BEGIN
 90
        0
 91
        1
 62
     0
 92
       -2
340
11
 93
        0
 40
0.045
309
GRIDFORMAT_END
 95
        2
302
GRIDFORMAT
  1
GRIDFORMAT_BEGIN
 90
        0
 91
        1
 62
     0
 92
       -2
340
11
 93
        0
 40
0.045
309
GRIDFORMAT_END
 95
        4
302
GRIDFORMAT
  1
GRIDFORMAT_BEGIN
 90
        0
 91
        1
 62
     0
 92
       -2
340
11
 93
        0
 40
0.045
309
GRIDFORMAT_END
 95
        8
302
GRIDFORMAT
  1
GRIDFORMAT_BEGIN
 90
        0
 91
        1
 62
     0
 92
       -2
340
11
 93
        0
 40
0.045
309
GRIDFORMAT_END
 95
       16
302
GRIDFORMAT
  1
GRIDFORMAT_BEGIN
 90
        0
 91
        1
 62
     0
 92
       -2
340
11
 93
        0
 40
0.045
309
GRIDFORMAT_END
 95
       32
302
GRIDFORMAT
  1
GRIDFORMAT_BEGIN
 90
        0
 91
        1
 62
     0
 92
       -2
340
11
 93
        0
 40
0.045
309
GRIDFORMAT_END
309
TABLEFORMAT_END
  1
CELLSTYLE_BEGIN
 90
        2
 91
        1
300
_HEADER
309
CELLSTYLE_END
300
CELLSTYLE
  1
TABLEFORMAT_BEGIN
 90
        5
170
     1
 91
        0
 92
        0
 62
   257
 93
        1
300
CONTENTFORMAT
  1
CONTENTFORMAT_BEGIN
 90
        0
 91
        0
 92
        4
 93
        0
300

 40
0.0
140
1.0
 94
        2
 62
     0
340
17
144
0.18
309
CONTENTFORMAT_END
171
     1
301
MARGIN
  1
CELLMARGIN_BEGIN
 40
0.06
 40
0.06
 40
0.06
 40
0.06
 40
0.06
 40
0.06
309
CELLMARGIN_END
 94
        6
 95
        1
302
GRIDFORMAT
  1
GRIDFORMAT_BEGIN
 90
        0
 91
        1
 62
     0
 92
       -2
340
11
 93
        0
 40
0.045
309
GRIDFORMAT_END
 95
        2
302
GRIDFORMAT
  1
GRIDFORMAT_BEGIN
 90
        0
 91
        1
 62
     0
 92
       -2
340
11
 93
        0
 40
0.045
309
GRIDFORMAT_END
 95
        4
302
GRIDFORMAT
  1
GRIDFORMAT_BEGIN
 90
        0
 91
        1
 62
     0
 92
       -2
340
11
 93
        0
 40
0.045
309
GRIDFORMAT_END
 95
        8
302
GRIDFORMAT
  1
GRIDFORMAT_BEGIN
 90
        0
 91
        1
 62
     0
 92
       -2
340
11
 93
        0
 40
0.045
309
GRIDFORMAT_END
 95
       16
302
GRIDFORMAT
  1
GRIDFORMAT_BEGIN
 90
        0
 91
        1
 62
     0
 92
       -2
340
11
 93
        0
 40
0.045
309
GRIDFORMAT_END
 95
       32
302
GRIDFORMAT
  1
GRIDFORMAT_BEGIN
 90
        0
 91
        1
 62
     0
 92
       -2
340
11
 93
        0
 40
0.045
309
GRIDFORMAT_END
309
TABLEFORMAT_END
  1
CELLSTYLE_BEGIN
 90
        3
 91
        2
300
_DATA
309
CELLSTYLE_END
  0
XRECORD
  5
178
102
{ACAD_REACTORS
330
177
102
}
330
177
100
AcDbXrecord
280
     1
102
RTVSPost2010Prop28
280
     1
102
RTVSPost2010PropOp28
 70
     1
102
RTVSPost2010Prop29
280
     1
102
RTVSPost2010PropOp29
 70
     1
102
RTVSPost2010Prop30
280
     0
102
RTVSPost2010PropOp30
 70
     1
102
RTVSPost2010Prop31
280
     0
102
RTVSPost2010PropOp31
 70
     1
102
RTVSPost2010Prop32
280
     0
102
RTVSPost2010PropOp32
 70
     1
102
RTVSPost2010Prop33
280
     0
102
RTVSPost2010PropOp33
 70
     1
102
RTVSPost2010Prop34
280
     0
102
RTVSPost2010PropOp34
 70
     1
102
RTVSPost2010Prop35
280
     0
102
RTVSPost2010PropOp35
 70
     1
102
RTVSPost2010Prop36
280
     0
102
RTVSPost2010PropOp36
 70
     1
102
RTVSPost2010Prop37
 90
       50
102
RTVSPost2010PropOp37
 70
     1
102
RTVSPost2010Prop38
140
0.0
102
RTVSPost2010PropOp38
 70
     1
102
RTVSPost2010Prop39
140
1.0
102
RTVSPost2010PropOp39
 70
     1
102
RTVSPost2010Prop40
 90
        0
102
RTVSPost2010PropOp40
 70
     1
102
RTVSPost2010Prop41ColorIndex
 90
       18
102
RTVSPost2010Prop41ColorRGB
 90
        0
102
RTVSPost2010PropOp41
 70
     1
102
RTVSPost2010Prop42
 90
       50
102
RTVSPost2010PropOp42
 70
     1
102
RTVSPost2010Prop43
 90
        3
102
RTVSPost2010PropOp43
 70
     1
102
RTVSPost2010Prop44ColorIndex
 90
        5
102
RTVSPost2010Prop44ColorRGB
 90
      255
102
RTVSPost2010PropOp44
 70
     1
102
RTVSPost2010Prop45
280
     0
102
RTVSPost2010PropOp45
 70
     1
102
RTVSPost2010Prop46
 90
       50
102
RTVSPost2010PropOp46
 70
     1
102
RTVSPost2010Prop47
 90
       50
102
RTVSPost2010PropOp47
 70
     1
102
RTVSPost2010Prop48
 90
       50
102
RTVSPost2010PropOp48
 70
     1
102
RTVSPost2010Prop49
280
     0
102
RTVSPost2010PropOp49
 70
     1
102
RTVSPost2010Prop50
 90
       50
102
RTVSPost2010PropOp50
 70
     1
102
RTVSPost2010Prop51ColorIndex
 90
      256
102
RTVSPost2010Prop51ColorRGB
 90
-16777216
102
RTVSPost2010PropOp51
 70
     0
102
RTVSPost2010Prop52
140
1.0
102
RTVSPost2010PropOp52
 70
     0
102
RTVSPost2010Prop53
 90
        2
102
RTVSPost2010PropOp53
 70
     1
102
RTVSPost2010Prop54
  1
strokes_ogs.tif
102
RTVSPost2010PropOp54
 70
     1
102
RTVSPost2010Prop55
280
     0
102
RTVSPost2010PropOp55
 70
     1
102
RTVSPost2010Prop56
140
1.0
102
RTVSPost2010PropOp56
 70
     1
102
RTVSPost2010Prop57
140
1.0
102
RTVSPost2010PropOp57
 70
     1
  0
XRECORD
  5
17E
102
{ACAD_REACTORS
330
17D
102
}
330
17D
100
AcDbXrecord
280
     1
102
RTVSPost2010Prop28
280
     0
102
RTVSPost2010PropOp28
 70
     1
102
RTVSPost2010Prop29
280
     1
102
RTVSPost2010PropOp29
 70
     1
102
RTVSPost2010Prop30
280
     1
102
RTVSPost2010PropOp30
 70
     1
102
RTVSPost2010Prop31
280
     0
102
RTVSPost2010PropOp31
 70
     1
102
RTVSPost2010Prop32
280
     0
102
RTVSPost2010PropOp32
 70
     1
102
RTVSPost2010Prop33
280
     0
102
RTVSPost2010PropOp33
 70
     1
102
RTVSPost2010Prop34
280
     0
102
RTVSPost2010PropOp34
 70
     1
102
RTVSPost2010Prop35
280
     0
102
RTVSPost2010PropOp35
 70
     1
102
RTVSPost2010Prop36
280
     0
102
RTVSPost2010PropOp36
 70
     1
102
RTVSPost2010Prop37
 90
       50
102
RTVSPost2010PropOp37
 70
     1
102
RTVSPost2010Prop38
140
0.0
102
RTVSPost2010PropOp38
 70
     1
102
RTVSPost2010Prop39
140
1.0
102
RTVSPost2010PropOp39
 70
     1
102
RTVSPost2010Prop40
 90
        0
102
RTVSPost2010PropOp40
 70
     1
102
RTVSPost2010Prop41ColorIndex
 90
       18
102
RTVSPost2010Prop41ColorRGB
 90
        0
102
RTVSPost2010PropOp41
 70
     1
102
RTVSPost2010Prop42
 90
       50
102
RTVSPost2010PropOp42
 70
     1
102
RTVSPost2010Prop43
 90
        3
102
RTVSPost2010PropOp43
 70
     1
102
RTVSPost2010Prop44ColorIndex
 90
        5
102
RTVSPost2010Prop44ColorRGB
 90
      255
102
RTVSPost2010PropOp44
 70
     1
102
RTVSPost2010Prop45
280
     0
102
RTVSPost2010PropOp45
 70
     1
102
RTVSPost2010Prop46
 90
       50
102
RTVSPost2010PropOp46
 70
     1
102
RTVSPost2010Prop47
 90
       50
102
RTVSPost2010PropOp47
 70
     1
102
RTVSPost2010Prop48
 90
       50
102
RTVSPost2010PropOp48
 70
     1
102
RTVSPost2010Prop49
280
     0
102
RTVSPost2010PropOp49
 70
     1
102
RTVSPost2010Prop50
 90
       50
102
RTVSPost2010PropOp50
 70
     1
102
RTVSPost2010Prop51ColorIndex
 90
      256
102
RTVSPost2010Prop51ColorRGB
 90
-16777216
102
RTVSPost2010PropOp51
 70
     0
102
RTVSPost2010Prop52
140
1.0
102
RTVSPost2010PropOp52
 70
     0
102
RTVSPost2010Prop53
 90
        2
102
RTVSPost2010PropOp53
 70
     1
102
RTVSPost2010Prop54
  1
strokes_ogs.tif
102
RTVSPost2010PropOp54
 70
     1
102
RTVSPost2010Prop55
280
     0
102
RTVSPost2010PropOp55
 70
     1
102
RTVSPost2010Prop56
140
1.0
102
RTVSPost2010PropOp56
 70
     1
102
RTVSPost2010Prop57
140
1.0
102
RTVSPost2010PropOp57
 70
     1
  0
XRECORD
  5
186
102
{ACAD_REACTORS
330
185
102
}
330
185
100
AcDbXrecord
280
     1
102
RTVSPost2010Prop28
280
     0
102
RTVSPost2010PropOp28
 70
     1
102
RTVSPost2010Prop29
280
     1
102
RTVSPost2010PropOp29
 70
     1
102
RTVSPost2010Prop30
280
     1
102
RTVSPost2010PropOp30
 70
     1
102
RTVSPost2010Prop31
280
     0
102
RTVSPost2010PropOp31
 70
     1
102
RTVSPost2010Prop32
280
     0
102
RTVSPost2010PropOp32
 70
     1
102
RTVSPost2010Prop33
280
     0
102
RTVSPost2010PropOp33
 70
     1
102
RTVSPost2010Prop34
280
     0
102
RTVSPost2010PropOp34
 70
     1
102
RTVSPost2010Prop35
280
     0
102
RTVSPost2010PropOp35
 70
     1
102
RTVSPost2010Prop36
280
     0
102
RTVSPost2010PropOp36
 70
     1
102
RTVSPost2010Prop37
 90
       50
102
RTVSPost2010PropOp37
 70
     1
102
RTVSPost2010Prop38
140
0.0
102
RTVSPost2010PropOp38
 70
     1
102
RTVSPost2010Prop39
140
1.0
102
RTVSPost2010PropOp39
 70
     1
102
RTVSPost2010Prop40
 90
        0
102
RTVSPost2010PropOp40
 70
     1
102
RTVSPost2010Prop41ColorIndex
 90
       18
102
RTVSPost2010Prop41ColorRGB
 90
        0
102
RTVSPost2010PropOp41
 70
     1
102
RTVSPost2010Prop42
 90
       50
102
RTVSPost2010PropOp42
 70
     1
102
RTVSPost2010Prop43
 90
        3
102
RTVSPost2010PropOp43
 70
     1
102
RTVSPost2010Prop44ColorIndex
 90
        5
102
RTVSPost2010Prop44ColorRGB
 90
      255
102
RTVSPost2010PropOp44
 70
     1
102
RTVSPost2010Prop45
280
     0
102
RTVSPost2010PropOp45
 70
     1
102
RTVSPost2010Prop46
 90
       50
102
RTVSPost2010PropOp46
 70
     1
102
RTVSPost2010Prop47
 90
       50
102
RTVSPost2010PropOp47
 70
     1
102
RTVSPost2010Prop48
 90
       50
102
RTVSPost2010PropOp48
 70
     1
102
RTVSPost2010Prop49
280
     0
102
RTVSPost2010PropOp49
 70
     1
102
RTVSPost2010Prop50
 90
       50
102
RTVSPost2010PropOp50
 70
     1
102
RTVSPost2010Prop51ColorIndex
 90
      256
102
RTVSPost2010Prop51ColorRGB
 90
-16777216
102
RTVSPost2010PropOp51
 70
     0
102
RTVSPost2010Prop52
140
1.0
102
RTVSPost2010PropOp52
 70
     0
102
RTVSPost2010Prop53
 90
        2
102
RTVSPost2010PropOp53
 70
     1
102
RTVSPost2010Prop54
  1
strokes_ogs.tif
102
RTVSPost2010PropOp54
 70
     1
102
RTVSPost2010Prop55
280
     0
102
RTVSPost2010PropOp55
 70
     1
102
RTVSPost2010Prop56
140
1.0
102
RTVSPost2010PropOp56
 70
     1
102
RTVSPost2010Prop57
140
1.0
102
RTVSPost2010PropOp57
 70
     1
  0
XRECORD
  5
18E
102
{ACAD_REACTORS
330
18D
102
}
330
18D
100
AcDbXrecord
280
     1
102
RTVSPost2010Prop28
280
     0
102
RTVSPost2010PropOp28
 70
     1
102
RTVSPost2010Prop29
280
     1
102
RTVSPost2010PropOp29
 70
     1
102
RTVSPost2010Prop30
280
     1
102
RTVSPost2010PropOp30
 70
     1
102
RTVSPost2010Prop31
280
     0
102
RTVSPost2010PropOp31
 70
     1
102
RTVSPost2010Prop32
280
     0
102
RTVSPost2010PropOp32
 70
     1
102
RTVSPost2010Prop33
280
     0
102
RTVSPost2010PropOp33
 70
     1
102
RTVSPost2010Prop34
280
     0
102
RTVSPost2010PropOp34
 70
     1
102
RTVSPost2010Prop35
280
     0
102
RTVSPost2010PropOp35
 70
     1
102
RTVSPost2010Prop36
280
     0
102
RTVSPost2010PropOp36
 70
     1
102
RTVSPost2010Prop37
 90
       50
102
RTVSPost2010PropOp37
 70
     1
102
RTVSPost2010Prop38
140
0.0
102
RTVSPost2010PropOp38
 70
     1
102
RTVSPost2010Prop39
140
1.0
102
RTVSPost2010PropOp39
 70
     1
102
RTVSPost2010Prop40
 90
        0
102
RTVSPost2010PropOp40
 70
     1
102
RTVSPost2010Prop41ColorIndex
 90
       18
102
RTVSPost2010Prop41ColorRGB
 90
        0
102
RTVSPost2010PropOp41
 70
     1
102
RTVSPost2010Prop42
 90
       50
102
RTVSPost2010PropOp42
 70
     1
102
RTVSPost2010Prop43
 90
        3
102
RTVSPost2010PropOp43
 70
     1
102
RTVSPost2010Prop44ColorIndex
 90
        5
102
RTVSPost2010Prop44ColorRGB
 90
      255
102
RTVSPost2010PropOp44
 70
     1
102
RTVSPost2010Prop45
280
     0
102
RTVSPost2010PropOp45
 70
     1
102
RTVSPost2010Prop46
 90
       50
102
RTVSPost2010PropOp46
 70
     1
102
RTVSPost2010Prop47
 90
       50
102
RTVSPost2010PropOp47
 70
     1
102
RTVSPost2010Prop48
 90
       50
102
RTVSPost2010PropOp48
 70
     1
102
RTVSPost2010Prop49
280
     0
102
RTVSPost2010PropOp49
 70
     1
102
RTVSPost2010Prop50
 90
       50
102
RTVSPost2010PropOp50
 70
     1
102
RTVSPost2010Prop51ColorIndex
 90
      256
102
RTVSPost2010Prop51ColorRGB
 90
-16777216
102
RTVSPost2010PropOp51
 70
     0
102
RTVSPost2010Prop52
140
1.0
102
RTVSPost2010PropOp52
 70
     0
102
RTVSPost2010Prop53
 90
        2
102
RTVSPost2010PropOp53
 70
     1
102
RTVSPost2010Prop54
  1
strokes_ogs.tif
102
RTVSPost2010PropOp54
 70
     1
102
RTVSPost2010Prop55
280
     0
102
RTVSPost2010PropOp55
 70
     1
102
RTVSPost2010Prop56
140
1.0
102
RTVSPost2010PropOp56
 70
     1
102
RTVSPost2010Prop57
140
1.0
102
RTVSPost2010PropOp57
 70
     1
  0
XRECORD
  5
182
102
{ACAD_REACTORS
330
181
102
}
330
181
100
AcDbXrecord
280
     1
102
RTVSPost2010Prop28
280
     0
102
RTVSPost2010PropOp28
 70
     1
102
RTVSPost2010Prop29
280
     1
102
RTVSPost2010PropOp29
 70
     1
102
RTVSPost2010Prop30
280
     1
102
RTVSPost2010PropOp30
 70
     1
102
RTVSPost2010Prop31
280
     0
102
RTVSPost2010PropOp31
 70
     1
102
RTVSPost2010Prop32
280
     0
102
RTVSPost2010PropOp32
 70
     1
102
RTVSPost2010Prop33
280
     0
102
RTVSPost2010PropOp33
 70
     1
102
RTVSPost2010Prop34
280
     0
102
RTVSPost2010PropOp34
 70
     1
102
RTVSPost2010Prop35
280
     0
102
RTVSPost2010PropOp35
 70
     1
102
RTVSPost2010Prop36
280
     0
102
RTVSPost2010PropOp36
 70
     1
102
RTVSPost2010Prop37
 90
       50
102
RTVSPost2010PropOp37
 70
     1
102
RTVSPost2010Prop38
140
0.0
102
RTVSPost2010PropOp38
 70
     1
102
RTVSPost2010Prop39
140
1.0
102
RTVSPost2010PropOp39
 70
     1
102
RTVSPost2010Prop40
 90
        0
102
RTVSPost2010PropOp40
 70
     1
102
RTVSPost2010Prop41ColorIndex
 90
       18
102
RTVSPost2010Prop41ColorRGB
 90
        0
102
RTVSPost2010PropOp41
 70
     1
102
RTVSPost2010Prop42
 90
       50
102
RTVSPost2010PropOp42
 70
     1
102
RTVSPost2010Prop43
 90
        3
102
RTVSPost2010PropOp43
 70
     1
102
RTVSPost2010Prop44ColorIndex
 90
        5
102
RTVSPost2010Prop44ColorRGB
 90
      255
102
RTVSPost2010PropOp44
 70
     1
102
RTVSPost2010Prop45
280
     0
102
RTVSPost2010PropOp45
 70
     1
102
RTVSPost2010Prop46
 90
       50
102
RTVSPost2010PropOp46
 70
     1
102
RTVSPost2010Prop47
 90
       50
102
RTVSPost2010PropOp47
 70
     1
102
RTVSPost2010Prop48
 90
       50
102
RTVSPost2010PropOp48
 70
     1
102
RTVSPost2010Prop49
280
     0
102
RTVSPost2010PropOp49
 70
     1
102
RTVSPost2010Prop50
 90
       50
102
RTVSPost2010PropOp50
 70
     1
102
RTVSPost2010Prop51ColorIndex
 90
      256
102
RTVSPost2010Prop51ColorRGB
 90
-16777216
102
RTVSPost2010PropOp51
 70
     0
102
RTVSPost2010Prop52
140
1.0
102
RTVSPost2010PropOp52
 70
     0
102
RTVSPost2010Prop53
 90
        2
102
RTVSPost2010PropOp53
 70
     1
102
RTVSPost2010Prop54
  1
strokes_ogs.tif
102
RTVSPost2010PropOp54
 70
     1
102
RTVSPost2010Prop55
280
     0
102
RTVSPost2010PropOp55
 70
     1
102
RTVSPost2010Prop56
140
1.0
102
RTVSPost2010PropOp56
 70
     1
102
RTVSPost2010Prop57
140
1.0
102
RTVSPost2010PropOp57
 70
     1
  0
XRECORD
  5
184
102
{ACAD_REACTORS
330
183
102
}
330
183
100
AcDbXrecord
280
     1
102
RTVSPost2010Prop28
280
     0
102
RTVSPost2010PropOp28
 70
     1
102
RTVSPost2010Prop29
280
     1
102
RTVSPost2010PropOp29
 70
     1
102
RTVSPost2010Prop30
280
     1
102
RTVSPost2010PropOp30
 70
     1
102
RTVSPost2010Prop31
280
     0
102
RTVSPost2010PropOp31
 70
     1
102
RTVSPost2010Prop32
280
     0
102
RTVSPost2010PropOp32
 70
     1
102
RTVSPost2010Prop33
280
     0
102
RTVSPost2010PropOp33
 70
     1
102
RTVSPost2010Prop34
280
     0
102
RTVSPost2010PropOp34
 70
     1
102
RTVSPost2010Prop35
280
     0
102
RTVSPost2010PropOp35
 70
     1
102
RTVSPost2010Prop36
280
     0
102
RTVSPost2010PropOp36
 70
     1
102
RTVSPost2010Prop37
 90
       50
102
RTVSPost2010PropOp37
 70
     1
102
RTVSPost2010Prop38
140
0.0
102
RTVSPost2010PropOp38
 70
     1
102
RTVSPost2010Prop39
140
1.0
102
RTVSPost2010PropOp39
 70
     1
102
RTVSPost2010Prop40
 90
        0
102
RTVSPost2010PropOp40
 70
     1
102
RTVSPost2010Prop41ColorIndex
 90
       18
102
RTVSPost2010Prop41ColorRGB
 90
        0
102
RTVSPost2010PropOp41
 70
     1
102
RTVSPost2010Prop42
 90
       50
102
RTVSPost2010PropOp42
 70
     1
102
RTVSPost2010Prop43
 90
        3
102
RTVSPost2010PropOp43
 70
     1
102
RTVSPost2010Prop44ColorIndex
 90
        5
102
RTVSPost2010Prop44ColorRGB
 90
      255
102
RTVSPost2010PropOp44
 70
     1
102
RTVSPost2010Prop45
280
     0
102
RTVSPost2010PropOp45
 70
     1
102
RTVSPost2010Prop46
 90
       50
102
RTVSPost2010PropOp46
 70
     1
102
RTVSPost2010Prop47
 90
       50
102
RTVSPost2010PropOp47
 70
     1
102
RTVSPost2010Prop48
 90
       50
102
RTVSPost2010PropOp48
 70
     1
102
RTVSPost2010Prop49
280
     0
102
RTVSPost2010PropOp49
 70
     1
102
RTVSPost2010Prop50
 90
       50
102
RTVSPost2010PropOp50
 70
     1
102
RTVSPost2010Prop51ColorIndex
 90
      256
102
RTVSPost2010Prop51ColorRGB
 90
-16777216
102
RTVSPost2010PropOp51
 70
     0
102
RTVSPost2010Prop52
140
1.0
102
RTVSPost2010PropOp52
 70
     0
102
RTVSPost2010Prop53
 90
        2
102
RTVSPost2010PropOp53
 70
     1
102
RTVSPost2010Prop54
  1
strokes_ogs.tif
102
RTVSPost2010PropOp54
 70
     1
102
RTVSPost2010Prop55
280
     0
102
RTVSPost2010PropOp55
 70
     1
102
RTVSPost2010Prop56
140
1.0
102
RTVSPost2010PropOp56
 70
     1
102
RTVSPost2010Prop57
140
1.0
102
RTVSPost2010PropOp57
 70
     1
  0
XRECORD
  5
194
102
{ACAD_REACTORS
330
193
102
}
330
193
100
AcDbXrecord
280
     1
102
RTVSPost2010Prop28
280
     0
102
RTVSPost2010PropOp28
 70
     0
102
RTVSPost2010Prop29
280
     1
102
RTVSPost2010PropOp29
 70
     0
102
RTVSPost2010Prop30
280
     1
102
RTVSPost2010PropOp30
 70
     0
102
RTVSPost2010Prop31
280
     0
102
RTVSPost2010PropOp31
 70
     0
102
RTVSPost2010Prop32
280
     0
102
RTVSPost2010PropOp32
 70
     0
102
RTVSPost2010Prop33
280
     0
102
RTVSPost2010PropOp33
 70
     0
102
RTVSPost2010Prop34
280
     0
102
RTVSPost2010PropOp34
 70
     0
102
RTVSPost2010Prop35
280
     0
102
RTVSPost2010PropOp35
 70
     0
102
RTVSPost2010Prop36
280
     0
102
RTVSPost2010PropOp36
 70
     0
102
RTVSPost2010Prop37
 90
       50
102
RTVSPost2010PropOp37
 70
     0
102
RTVSPost2010Prop38
140
0.0
102
RTVSPost2010PropOp38
 70
     0
102
RTVSPost2010Prop39
140
1.0
102
RTVSPost2010PropOp39
 70
     0
102
RTVSPost2010Prop40
 90
        0
102
RTVSPost2010PropOp40
 70
     0
102
RTVSPost2010Prop41ColorIndex
 90
       18
102
RTVSPost2010Prop41ColorRGB
 90
        0
102
RTVSPost2010PropOp41
 70
     0
102
RTVSPost2010Prop42
 90
       50
102
RTVSPost2010PropOp42
 70
     0
102
RTVSPost2010Prop43
 90
        3
102
RTVSPost2010PropOp43
 70
     0
102
RTVSPost2010Prop44ColorIndex
 90
        5
102
RTVSPost2010Prop44ColorRGB
 90
      255
102
RTVSPost2010PropOp44
 70
     0
102
RTVSPost2010Prop45
280
     0
102
RTVSPost2010PropOp45
 70
     0
102
RTVSPost2010Prop46
 90
       50
102
RTVSPost2010PropOp46
 70
     0
102
RTVSPost2010Prop47
 90
       50
102
RTVSPost2010PropOp47
 70
     0
102
RTVSPost2010Prop48
 90
       50
102
RTVSPost2010PropOp48
 70
     0
102
RTVSPost2010Prop49
280
     0
102
RTVSPost2010PropOp49
 70
     0
102
RTVSPost2010Prop50
 90
       50
102
RTVSPost2010PropOp50
 70
     0
102
RTVSPost2010Prop51ColorIndex
 90
      256
102
RTVSPost2010Prop51ColorRGB
 90
-16777216
102
RTVSPost2010PropOp51
 70
     0
102
RTVSPost2010Prop52
140
1.0
102
RTVSPost2010PropOp52
 70
     0
102
RTVSPost2010Prop53
 90
        2
102
RTVSPost2010PropOp53
 70
     0
102
RTVSPost2010Prop54
  1
strokes_ogs.tif
102
RTVSPost2010PropOp54
 70
     0
102
RTVSPost2010Prop55
280
     0
102
RTVSPost2010PropOp55
 70
     0
102
RTVSPost2010Prop56
140
1.0
102
RTVSPost2010PropOp56
 70
     0
102
RTVSPost2010Prop57
140
1.0
102
RTVSPost2010PropOp57
 70
     0
  0
XRECORD
  5
18C
102
{ACAD_REACTORS
330
18B
102
}
330
18B
100
AcDbXrecord
280
     1
102
RTVSPost2010Prop28
280
     0
102
RTVSPost2010PropOp28
 70
     1
102
RTVSPost2010Prop29
280
     1
102
RTVSPost2010PropOp29
 70
     1
102
RTVSPost2010Prop30
280
     1
102
RTVSPost2010PropOp30
 70
     1
102
RTVSPost2010Prop31
280
     0
102
RTVSPost2010PropOp31
 70
     1
102
RTVSPost2010Prop32
280
     0
102
RTVSPost2010PropOp32
 70
     1
102
RTVSPost2010Prop33
280
     0
102
RTVSPost2010PropOp33
 70
     1
102
RTVSPost2010Prop34
280
     0
102
RTVSPost2010PropOp34
 70
     1
102
RTVSPost2010Prop35
280
     0
102
RTVSPost2010PropOp35
 70
     1
102
RTVSPost2010Prop36
280
     0
102
RTVSPost2010PropOp36
 70
     1
102
RTVSPost2010Prop37
 90
       50
102
RTVSPost2010PropOp37
 70
     1
102
RTVSPost2010Prop38
140
0.0
102
RTVSPost2010PropOp38
 70
     1
102
RTVSPost2010Prop39
140
1.0
102
RTVSPost2010PropOp39
 70
     1
102
RTVSPost2010Prop40
 90
        0
102
RTVSPost2010PropOp40
 70
     1
102
RTVSPost2010Prop41ColorIndex
 90
       18
102
RTVSPost2010Prop41ColorRGB
 90
        0
102
RTVSPost2010PropOp41
 70
     1
102
RTVSPost2010Prop42
 90
       50
102
RTVSPost2010PropOp42
 70
     1
102
RTVSPost2010Prop43
 90
        3
102
RTVSPost2010PropOp43
 70
     1
102
RTVSPost2010Prop44ColorIndex
 90
        5
102
RTVSPost2010Prop44ColorRGB
 90
      255
102
RTVSPost2010PropOp44
 70
     1
102
RTVSPost2010Prop45
280
     0
102
RTVSPost2010PropOp45
 70
     1
102
RTVSPost2010Prop46
 90
       50
102
RTVSPost2010PropOp46
 70
     1
102
RTVSPost2010Prop47
 90
       50
102
RTVSPost2010PropOp47
 70
     1
102
RTVSPost2010Prop48
 90
       50
102
RTVSPost2010PropOp48
 70
     1
102
RTVSPost2010Prop49
280
     0
102
RTVSPost2010PropOp49
 70
     1
102
RTVSPost2010Prop50
 90
       50
102
RTVSPost2010PropOp50
 70
     1
102
RTVSPost2010Prop51ColorIndex
 90
      256
102
RTVSPost2010Prop51ColorRGB
 90
-16777216
102
RTVSPost2010PropOp51
 70
     0
102
RTVSPost2010Prop52
140
1.0
102
RTVSPost2010PropOp52
 70
     0
102
RTVSPost2010Prop53
 90
        2
102
RTVSPost2010PropOp53
 70
     1
102
RTVSPost2010Prop54
  1
strokes_ogs.tif
102
RTVSPost2010PropOp54
 70
     1
102
RTVSPost2010Prop55
280
     0
102
RTVSPost2010PropOp55
 70
     1
102
RTVSPost2010Prop56
140
1.0
102
RTVSPost2010PropOp56
 70
     1
102
RTVSPost2010Prop57
140
1.0
102
RTVSPost2010PropOp57
 70
     1
  0
XRECORD
  5
170
102
{ACAD_REACTORS
330
16F
102
}
330
16F
100
AcDbXrecord
280
     1
102
RTVSPost2010Prop28
280
     0
102
RTVSPost2010PropOp28
 70
     1
102
RTVSPost2010Prop29
280
     1
102
RTVSPost2010PropOp29
 70
     1
102
RTVSPost2010Prop30
280
     1
102
RTVSPost2010PropOp30
 70
     1
102
RTVSPost2010Prop31
280
     0
102
RTVSPost2010PropOp31
 70
     1
102
RTVSPost2010Prop32
280
     0
102
RTVSPost2010PropOp32
 70
     1
102
RTVSPost2010Prop33
280
     0
102
RTVSPost2010PropOp33
 70
     1
102
RTVSPost2010Prop34
280
     0
102
RTVSPost2010PropOp34
 70
     1
102
RTVSPost2010Prop35
280
     0
102
RTVSPost2010PropOp35
 70
     1
102
RTVSPost2010Prop36
280
     0
102
RTVSPost2010PropOp36
 70
     1
102
RTVSPost2010Prop37
 90
       50
102
RTVSPost2010PropOp37
 70
     1
102
RTVSPost2010Prop38
140
0.0
102
RTVSPost2010PropOp38
 70
     1
102
RTVSPost2010Prop39
140
1.0
102
RTVSPost2010PropOp39
 70
     1
102
RTVSPost2010Prop40
 90
        0
102
RTVSPost2010PropOp40
 70
     1
102
RTVSPost2010Prop41ColorIndex
 90
       18
102
RTVSPost2010Prop41ColorRGB
 90
        0
102
RTVSPost2010PropOp41
 70
     1
102
RTVSPost2010Prop42
 90
       50
102
RTVSPost2010PropOp42
 70
     1
102
RTVSPost2010Prop43
 90
        3
102
RTVSPost2010PropOp43
 70
     1
102
RTVSPost2010Prop44ColorIndex
 90
        5
102
RTVSPost2010Prop44ColorRGB
 90
      255
102
RTVSPost2010PropOp44
 70
     1
102
RTVSPost2010Prop45
280
     0
102
RTVSPost2010PropOp45
 70
     1
102
RTVSPost2010Prop46
 90
       50
102
RTVSPost2010PropOp46
 70
     1
102
RTVSPost2010Prop47
 90
       50
102
RTVSPost2010PropOp47
 70
     1
102
RTVSPost2010Prop48
 90
       50
102
RTVSPost2010PropOp48
 70
     1
102
RTVSPost2010Prop49
280
     0
102
RTVSPost2010PropOp49
 70
     1
102
RTVSPost2010Prop50
 90
       50
102
RTVSPost2010PropOp50
 70
     1
102
RTVSPost2010Prop51ColorIndex
 90
      256
102
RTVSPost2010Prop51ColorRGB
 90
-16777216
102
RTVSPost2010PropOp51
 70
     0
102
RTVSPost2010Prop52
140
1.0
102
RTVSPost2010PropOp52
 70
     0
102
RTVSPost2010Prop53
 90
        2
102
RTVSPost2010PropOp53
 70
     1
102
RTVSPost2010Prop54
  1
strokes_ogs.tif
102
RTVSPost2010PropOp54
 70
     1
102
RTVSPost2010Prop55
280
     0
102
RTVSPost2010PropOp55
 70
     1
102
RTVSPost2010Prop56
140
1.0
102
RTVSPost2010PropOp56
 70
     1
102
RTVSPost2010Prop57
140
1.0
102
RTVSPost2010PropOp57
 70
     1
  0
XRECORD
  5
172
102
{ACAD_REACTORS
330
171
102
}
330
171
100
AcDbXrecord
280
     1
102
RTVSPost2010Prop28
280
     0
102
RTVSPost2010PropOp28
 70
     1
102
RTVSPost2010Prop29
280
     1
102
RTVSPost2010PropOp29
 70
     1
102
RTVSPost2010Prop30
280
     1
102
RTVSPost2010PropOp30
 70
     1
102
RTVSPost2010Prop31
280
     0
102
RTVSPost2010PropOp31
 70
     1
102
RTVSPost2010Prop32
280
     0
102
RTVSPost2010PropOp32
 70
     1
102
RTVSPost2010Prop33
280
     0
102
RTVSPost2010PropOp33
 70
     1
102
RTVSPost2010Prop34
280
     0
102
RTVSPost2010PropOp34
 70
     1
102
RTVSPost2010Prop35
280
     0
102
RTVSPost2010PropOp35
 70
     1
102
RTVSPost2010Prop36
280
     0
102
RTVSPost2010PropOp36
 70
     1
102
RTVSPost2010Prop37
 90
       50
102
RTVSPost2010PropOp37
 70
     1
102
RTVSPost2010Prop38
140
0.0
102
RTVSPost2010PropOp38
 70
     1
102
RTVSPost2010Prop39
140
1.0
102
RTVSPost2010PropOp39
 70
     1
102
RTVSPost2010Prop40
 90
        0
102
RTVSPost2010PropOp40
 70
     1
102
RTVSPost2010Prop41ColorIndex
 90
       18
102
RTVSPost2010Prop41ColorRGB
 90
        0
102
RTVSPost2010PropOp41
 70
     1
102
RTVSPost2010Prop42
 90
       50
102
RTVSPost2010PropOp42
 70
     1
102
RTVSPost2010Prop43
 90
        3
102
RTVSPost2010PropOp43
 70
     1
102
RTVSPost2010Prop44ColorIndex
 90
        5
102
RTVSPost2010Prop44ColorRGB
 90
      255
102
RTVSPost2010PropOp44
 70
     1
102
RTVSPost2010Prop45
280
     0
102
RTVSPost2010PropOp45
 70
     1
102
RTVSPost2010Prop46
 90
       50
102
RTVSPost2010PropOp46
 70
     1
102
RTVSPost2010Prop47
 90
       50
102
RTVSPost2010PropOp47
 70
     1
102
RTVSPost2010Prop48
 90
       50
102
RTVSPost2010PropOp48
 70
     1
102
RTVSPost2010Prop49
280
     0
102
RTVSPost2010PropOp49
 70
     1
102
RTVSPost2010Prop50
 90
       50
102
RTVSPost2010PropOp50
 70
     1
102
RTVSPost2010Prop51ColorIndex
 90
      256
102
RTVSPost2010Prop51ColorRGB
 90
-16777216
102
RTVSPost2010PropOp51
 70
     0
102
RTVSPost2010Prop52
140
1.0
102
RTVSPost2010PropOp52
 70
     0
102
RTVSPost2010Prop53
 90
        2
102
RTVSPost2010PropOp53
 70
     1
102
RTVSPost2010Prop54
  1
strokes_ogs.tif
102
RTVSPost2010PropOp54
 70
     1
102
RTVSPost2010Prop55
280
     0
102
RTVSPost2010PropOp55
 70
     1
102
RTVSPost2010Prop56
140
1.0
102
RTVSPost2010PropOp56
 70
     1
102
RTVSPost2010Prop57
140
1.0
102
RTVSPost2010PropOp57
 70
     1
  0
XRECORD
  5
174
102
{ACAD_REACTORS
330
173
102
}
330
173
100
AcDbXrecord
280
     1
102
RTVSPost2010Prop28
280
     0
102
RTVSPost2010PropOp28
 70
     1
102
RTVSPost2010Prop29
280
     1
102
RTVSPost2010PropOp29
 70
     1
102
RTVSPost2010Prop30
280
     1
102
RTVSPost2010PropOp30
 70
     1
102
RTVSPost2010Prop31
280
     0
102
RTVSPost2010PropOp31
 70
     1
102
RTVSPost2010Prop32
280
     0
102
RTVSPost2010PropOp32
 70
     1
102
RTVSPost2010Prop33
280
     0
102
RTVSPost2010PropOp33
 70
     1
102
RTVSPost2010Prop34
280
     0
102
RTVSPost2010PropOp34
 70
     1
102
RTVSPost2010Prop35
280
     0
102
RTVSPost2010PropOp35
 70
     1
102
RTVSPost2010Prop36
280
     0
102
RTVSPost2010PropOp36
 70
     1
102
RTVSPost2010Prop37
 90
       50
102
RTVSPost2010PropOp37
 70
     1
102
RTVSPost2010Prop38
140
0.0
102
RTVSPost2010PropOp38
 70
     1
102
RTVSPost2010Prop39
140
1.0
102
RTVSPost2010PropOp39
 70
     1
102
RTVSPost2010Prop40
 90
        0
102
RTVSPost2010PropOp40
 70
     1
102
RTVSPost2010Prop41ColorIndex
 90
       18
102
RTVSPost2010Prop41ColorRGB
 90
        0
102
RTVSPost2010PropOp41
 70
     1
102
RTVSPost2010Prop42
 90
       50
102
RTVSPost2010PropOp42
 70
     1
102
RTVSPost2010Prop43
 90
        3
102
RTVSPost2010PropOp43
 70
     1
102
RTVSPost2010Prop44ColorIndex
 90
        5
102
RTVSPost2010Prop44ColorRGB
 90
      255
102
RTVSPost2010PropOp44
 70
     1
102
RTVSPost2010Prop45
280
     0
102
RTVSPost2010PropOp45
 70
     1
102
RTVSPost2010Prop46
 90
       50
102
RTVSPost2010PropOp46
 70
     1
102
RTVSPost2010Prop47
 90
       50
102
RTVSPost2010PropOp47
 70
     1
102
RTVSPost2010Prop48
 90
       50
102
RTVSPost2010PropOp48
 70
     1
102
RTVSPost2010Prop49
280
     0
102
RTVSPost2010PropOp49
 70
     1
102
RTVSPost2010Prop50
 90
       50
102
RTVSPost2010PropOp50
 70
     1
102
RTVSPost2010Prop51ColorIndex
 90
      256
102
RTVSPost2010Prop51ColorRGB
 90
-16777216
102
RTVSPost2010PropOp51
 70
     0
102
RTVSPost2010Prop52
140
1.0
102
RTVSPost2010PropOp52
 70
     0
102
RTVSPost2010Prop53
 90
        2
102
RTVSPost2010PropOp53
 70
     1
102
RTVSPost2010Prop54
  1
strokes_ogs.tif
102
RTVSPost2010PropOp54
 70
     1
102
RTVSPost2010Prop55
280
     0
102
RTVSPost2010PropOp55
 70
     1
102
RTVSPost2010Prop56
140
1.0
102
RTVSPost2010PropOp56
 70
     1
102
RTVSPost2010Prop57
140
1.0
102
RTVSPost2010PropOp57
 70
     1
  0
XRECORD
  5
176
102
{ACAD_REACTORS
330
175
102
}
330
175
100
AcDbXrecord
280
     1
102
RTVSPost2010Prop28
280
     0
102
RTVSPost2010PropOp28
 70
     1
102
RTVSPost2010Prop29
280
     1
102
RTVSPost2010PropOp29
 70
     1
102
RTVSPost2010Prop30
280
     1
102
RTVSPost2010PropOp30
 70
     1
102
RTVSPost2010Prop31
280
     0
102
RTVSPost2010PropOp31
 70
     1
102
RTVSPost2010Prop32
280
     0
102
RTVSPost2010PropOp32
 70
     1
102
RTVSPost2010Prop33
280
     0
102
RTVSPost2010PropOp33
 70
     1
102
RTVSPost2010Prop34
280
     0
102
RTVSPost2010PropOp34
 70
     1
102
RTVSPost2010Prop35
280
     0
102
RTVSPost2010PropOp35
 70
     1
102
RTVSPost2010Prop36
280
     0
102
RTVSPost2010PropOp36
 70
     1
102
RTVSPost2010Prop37
 90
       50
102
RTVSPost2010PropOp37
 70
     1
102
RTVSPost2010Prop38
140
0.0
102
RTVSPost2010PropOp38
 70
     1
102
RTVSPost2010Prop39
140
1.0
102
RTVSPost2010PropOp39
 70
     1
102
RTVSPost2010Prop40
 90
        0
102
RTVSPost2010PropOp40
 70
     1
102
RTVSPost2010Prop41ColorIndex
 90
       18
102
RTVSPost2010Prop41ColorRGB
 90
        0
102
RTVSPost2010PropOp41
 70
     1
102
RTVSPost2010Prop42
 90
       50
102
RTVSPost2010PropOp42
 70
     1
102
RTVSPost2010Prop43
 90
        3
102
RTVSPost2010PropOp43
 70
     1
102
RTVSPost2010Prop44ColorIndex
 90
        5
102
RTVSPost2010Prop44ColorRGB
 90
      255
102
RTVSPost2010PropOp44
 70
     1
102
RTVSPost2010Prop45
280
     0
102
RTVSPost2010PropOp45
 70
     1
102
RTVSPost2010Prop46
 90
       50
102
RTVSPost2010PropOp46
 70
     1
102
RTVSPost2010Prop47
 90
       50
102
RTVSPost2010PropOp47
 70
     1
102
RTVSPost2010Prop48
 90
       50
102
RTVSPost2010PropOp48
 70
     1
102
RTVSPost2010Prop49
280
     0
102
RTVSPost2010PropOp49
 70
     1
102
RTVSPost2010Prop50
 90
       50
102
RTVSPost2010PropOp50
 70
     1
102
RTVSPost2010Prop51ColorIndex
 90
      256
102
RTVSPost2010Prop51ColorRGB
 90
-16777216
102
RTVSPost2010PropOp51
 70
     0
102
RTVSPost2010Prop52
140
1.0
102
RTVSPost2010PropOp52
 70
     0
102
RTVSPost2010Prop53
 90
        2
102
RTVSPost2010PropOp53
 70
     1
102
RTVSPost2010Prop54
  1
strokes_ogs.tif
102
RTVSPost2010PropOp54
 70
     1
102
RTVSPost2010Prop55
280
     0
102
RTVSPost2010PropOp55
 70
     1
102
RTVSPost2010Prop56
140
1.0
102
RTVSPost2010PropOp56
 70
     1
102
RTVSPost2010Prop57
140
1.0
102
RTVSPost2010PropOp57
 70
     1
  0
XRECORD
  5
17C
102
{ACAD_REACTORS
330
17B
102
}
330
17B
100
AcDbXrecord
280
     1
102
RTVSPost2010Prop28
280
     0
102
RTVSPost2010PropOp28
 70
     1
102
RTVSPost2010Prop29
280
     1
102
RTVSPost2010PropOp29
 70
     1
102
RTVSPost2010Prop30
280
     1
102
RTVSPost2010PropOp30
 70
     1
102
RTVSPost2010Prop31
280
     0
102
RTVSPost2010PropOp31
 70
     1
102
RTVSPost2010Prop32
280
     0
102
RTVSPost2010PropOp32
 70
     1
102
RTVSPost2010Prop33
280
     0
102
RTVSPost2010PropOp33
 70
     1
102
RTVSPost2010Prop34
280
     0
102
RTVSPost2010PropOp34
 70
     1
102
RTVSPost2010Prop35
280
     0
102
RTVSPost2010PropOp35
 70
     1
102
RTVSPost2010Prop36
280
     0
102
RTVSPost2010PropOp36
 70
     1
102
RTVSPost2010Prop37
 90
       50
102
RTVSPost2010PropOp37
 70
     1
102
RTVSPost2010Prop38
140
0.0
102
RTVSPost2010PropOp38
 70
     1
102
RTVSPost2010Prop39
140
1.0
102
RTVSPost2010PropOp39
 70
     1
102
RTVSPost2010Prop40
 90
        0
102
RTVSPost2010PropOp40
 70
     1
102
RTVSPost2010Prop41ColorIndex
 90
       18
102
RTVSPost2010Prop41ColorRGB
 90
        0
102
RTVSPost2010PropOp41
 70
     1
102
RTVSPost2010Prop42
 90
       50
102
RTVSPost2010PropOp42
 70
     1
102
RTVSPost2010Prop43
 90
        3
102
RTVSPost2010PropOp43
 70
     1
102
RTVSPost2010Prop44ColorIndex
 90
        5
102
RTVSPost2010Prop44ColorRGB
 90
      255
102
RTVSPost2010PropOp44
 70
     1
102
RTVSPost2010Prop45
280
     0
102
RTVSPost2010PropOp45
 70
     1
102
RTVSPost2010Prop46
 90
       50
102
RTVSPost2010PropOp46
 70
     1
102
RTVSPost2010Prop47
 90
       50
102
RTVSPost2010PropOp47
 70
     1
102
RTVSPost2010Prop48
 90
       50
102
RTVSPost2010PropOp48
 70
     1
102
RTVSPost2010Prop49
280
     0
102
RTVSPost2010PropOp49
 70
     1
102
RTVSPost2010Prop50
 90
       50
102
RTVSPost2010PropOp50
 70
     1
102
RTVSPost2010Prop51ColorIndex
 90
      256
102
RTVSPost2010Prop51ColorRGB
 90
-16777216
102
RTVSPost2010PropOp51
 70
     0
102
RTVSPost2010Prop52
140
1.0
102
RTVSPost2010PropOp52
 70
     0
102
RTVSPost2010Prop53
 90
        2
102
RTVSPost2010PropOp53
 70
     1
102
RTVSPost2010Prop54
  1
strokes_ogs.tif
102
RTVSPost2010PropOp54
 70
     1
102
RTVSPost2010Prop55
280
     0
102
RTVSPost2010PropOp55
 70
     1
102
RTVSPost2010Prop56
140
1.0
102
RTVSPost2010PropOp56
 70
     1
102
RTVSPost2010Prop57
140
1.0
102
RTVSPost2010PropOp57
 70
     1
  0
XRECORD
  5
190
102
{ACAD_REACTORS
330
18F
102
}
330
18F
100
AcDbXrecord
280
     1
102
RTVSPost2010Prop28
280
     0
102
RTVSPost2010PropOp28
 70
     0
102
RTVSPost2010Prop29
280
     1
102
RTVSPost2010PropOp29
 70
     0
102
RTVSPost2010Prop30
280
     1
102
RTVSPost2010PropOp30
 70
     0
102
RTVSPost2010Prop31
280
     0
102
RTVSPost2010PropOp31
 70
     0
102
RTVSPost2010Prop32
280
     0
102
RTVSPost2010PropOp32
 70
     0
102
RTVSPost2010Prop33
280
     0
102
RTVSPost2010PropOp33
 70
     0
102
RTVSPost2010Prop34
280
     0
102
RTVSPost2010PropOp34
 70
     0
102
RTVSPost2010Prop35
280
     0
102
RTVSPost2010PropOp35
 70
     0
102
RTVSPost2010Prop36
280
     0
102
RTVSPost2010PropOp36
 70
     0
102
RTVSPost2010Prop37
 90
       50
102
RTVSPost2010PropOp37
 70
     0
102
RTVSPost2010Prop38
140
0.0
102
RTVSPost2010PropOp38
 70
     0
102
RTVSPost2010Prop39
140
1.0
102
RTVSPost2010PropOp39
 70
     0
102
RTVSPost2010Prop40
 90
        0
102
RTVSPost2010PropOp40
 70
     0
102
RTVSPost2010Prop41ColorIndex
 90
       18
102
RTVSPost2010Prop41ColorRGB
 90
        0
102
RTVSPost2010PropOp41
 70
     0
102
RTVSPost2010Prop42
 90
       50
102
RTVSPost2010PropOp42
 70
     0
102
RTVSPost2010Prop43
 90
        3
102
RTVSPost2010PropOp43
 70
     0
102
RTVSPost2010Prop44ColorIndex
 90
        5
102
RTVSPost2010Prop44ColorRGB
 90
      255
102
RTVSPost2010PropOp44
 70
     0
102
RTVSPost2010Prop45
280
     0
102
RTVSPost2010PropOp45
 70
     0
102
RTVSPost2010Prop46
 90
       50
102
RTVSPost2010PropOp46
 70
     0
102
RTVSPost2010Prop47
 90
       50
102
RTVSPost2010PropOp47
 70
     0
102
RTVSPost2010Prop48
 90
       50
102
RTVSPost2010PropOp48
 70
     0
102
RTVSPost2010Prop49
280
     0
102
RTVSPost2010PropOp49
 70
     0
102
RTVSPost2010Prop50
 90
       50
102
RTVSPost2010PropOp50
 70
     0
102
RTVSPost2010Prop51ColorIndex
 90
      256
102
RTVSPost2010Prop51ColorRGB
 90
-16777216
102
RTVSPost2010PropOp51
 70
     0
102
RTVSPost2010Prop52
140
1.0
102
RTVSPost2010PropOp52
 70
     0
102
RTVSPost2010Prop53
 90
        2
102
RTVSPost2010PropOp53
 70
     0
102
RTVSPost2010Prop54
  1
strokes_ogs.tif
102
RTVSPost2010PropOp54
 70
     0
102
RTVSPost2010Prop55
280
     0
102
RTVSPost2010PropOp55
 70
     0
102
RTVSPost2010Prop56
140
1.0
102
RTVSPost2010PropOp56
 70
     0
102
RTVSPost2010Prop57
140
1.0
102
RTVSPost2010PropOp57
 70
     0
  0
XRECORD
  5
18A
102
{ACAD_REACTORS
330
189
102
}
330
189
100
AcDbXrecord
280
     1
102
RTVSPost2010Prop28
280
     0
102
RTVSPost2010PropOp28
 70
     1
102
RTVSPost2010Prop29
280
     1
102
RTVSPost2010PropOp29
 70
     1
102
RTVSPost2010Prop30
280
     1
102
RTVSPost2010PropOp30
 70
     1
102
RTVSPost2010Prop31
280
     0
102
RTVSPost2010PropOp31
 70
     1
102
RTVSPost2010Prop32
280
     0
102
RTVSPost2010PropOp32
 70
     1
102
RTVSPost2010Prop33
280
     0
102
RTVSPost2010PropOp33
 70
     1
102
RTVSPost2010Prop34
280
     0
102
RTVSPost2010PropOp34
 70
     1
102
RTVSPost2010Prop35
280
     0
102
RTVSPost2010PropOp35
 70
     1
102
RTVSPost2010Prop36
280
     0
102
RTVSPost2010PropOp36
 70
     1
102
RTVSPost2010Prop37
 90
       50
102
RTVSPost2010PropOp37
 70
     1
102
RTVSPost2010Prop38
140
0.0
102
RTVSPost2010PropOp38
 70
     1
102
RTVSPost2010Prop39
140
1.0
102
RTVSPost2010PropOp39
 70
     1
102
RTVSPost2010Prop40
 90
        0
102
RTVSPost2010PropOp40
 70
     1
102
RTVSPost2010Prop41ColorIndex
 90
       18
102
RTVSPost2010Prop41ColorRGB
 90
        0
102
RTVSPost2010PropOp41
 70
     1
102
RTVSPost2010Prop42
 90
       50
102
RTVSPost2010PropOp42
 70
     1
102
RTVSPost2010Prop43
 90
        3
102
RTVSPost2010PropOp43
 70
     1
102
RTVSPost2010Prop44ColorIndex
 90
        5
102
RTVSPost2010Prop44ColorRGB
 90
      255
102
RTVSPost2010PropOp44
 70
     1
102
RTVSPost2010Prop45
280
     0
102
RTVSPost2010PropOp45
 70
     1
102
RTVSPost2010Prop46
 90
       50
102
RTVSPost2010PropOp46
 70
     1
102
RTVSPost2010Prop47
 90
       50
102
RTVSPost2010PropOp47
 70
     1
102
RTVSPost2010Prop48
 90
       50
102
RTVSPost2010PropOp48
 70
     1
102
RTVSPost2010Prop49
280
     0
102
RTVSPost2010PropOp49
 70
     1
102
RTVSPost2010Prop50
 90
       50
102
RTVSPost2010PropOp50
 70
     1
102
RTVSPost2010Prop51ColorIndex
 90
      256
102
RTVSPost2010Prop51ColorRGB
 90
-16777216
102
RTVSPost2010PropOp51
 70
     0
102
RTVSPost2010Prop52
140
1.0
102
RTVSPost2010PropOp52
 70
     0
102
RTVSPost2010Prop53
 90
        2
102
RTVSPost2010PropOp53
 70
     1
102
RTVSPost2010Prop54
  1
strokes_ogs.tif
102
RTVSPost2010PropOp54
 70
     1
102
RTVSPost2010Prop55
280
     0
102
RTVSPost2010PropOp55
 70
     1
102
RTVSPost2010Prop56
140
1.0
102
RTVSPost2010PropOp56
 70
     1
102
RTVSPost2010Prop57
140
1.0
102
RTVSPost2010PropOp57
 70
     1
  0
XRECORD
  5
192
102
{ACAD_REACTORS
330
191
102
}
330
191
100
AcDbXrecord
280
     1
102
RTVSPost2010Prop28
280
     0
102
RTVSPost2010PropOp28
 70
     0
102
RTVSPost2010Prop29
280
     1
102
RTVSPost2010PropOp29
 70
     0
102
RTVSPost2010Prop30
280
     1
102
RTVSPost2010PropOp30
 70
     0
102
RTVSPost2010Prop31
280
     0
102
RTVSPost2010PropOp31
 70
     0
102
RTVSPost2010Prop32
280
     0
102
RTVSPost2010PropOp32
 70
     0
102
RTVSPost2010Prop33
280
     0
102
RTVSPost2010PropOp33
 70
     0
102
RTVSPost2010Prop34
280
     0
102
RTVSPost2010PropOp34
 70
     0
102
RTVSPost2010Prop35
280
     0
102
RTVSPost2010PropOp35
 70
     0
102
RTVSPost2010Prop36
280
     0
102
RTVSPost2010PropOp36
 70
     0
102
RTVSPost2010Prop37
 90
       50
102
RTVSPost2010PropOp37
 70
     0
102
RTVSPost2010Prop38
140
0.0
102
RTVSPost2010PropOp38
 70
     0
102
RTVSPost2010Prop39
140
1.0
102
RTVSPost2010PropOp39
 70
     0
102
RTVSPost2010Prop40
 90
        0
102
RTVSPost2010PropOp40
 70
     0
102
RTVSPost2010Prop41ColorIndex
 90
       18
102
RTVSPost2010Prop41ColorRGB
 90
        0
102
RTVSPost2010PropOp41
 70
     0
102
RTVSPost2010Prop42
 90
       50
102
RTVSPost2010PropOp42
 70
     0
102
RTVSPost2010Prop43
 90
        3
102
RTVSPost2010PropOp43
 70
     0
102
RTVSPost2010Prop44ColorIndex
 90
        5
102
RTVSPost2010Prop44ColorRGB
 90
      255
102
RTVSPost2010PropOp44
 70
     0
102
RTVSPost2010Prop45
280
     0
102
RTVSPost2010PropOp45
 70
     0
102
RTVSPost2010Prop46
 90
       50
102
RTVSPost2010PropOp46
 70
     0
102
RTVSPost2010Prop47
 90
       50
102
RTVSPost2010PropOp47
 70
     0
102
RTVSPost2010Prop48
 90
       50
102
RTVSPost2010PropOp48
 70
     0
102
RTVSPost2010Prop49
280
     0
102
RTVSPost2010PropOp49
 70
     0
102
RTVSPost2010Prop50
 90
       50
102
RTVSPost2010PropOp50
 70
     0
102
RTVSPost2010Prop51ColorIndex
 90
      256
102
RTVSPost2010Prop51ColorRGB
 90
-16777216
102
RTVSPost2010PropOp51
 70
     0
102
RTVSPost2010Prop52
140
1.0
102
RTVSPost2010PropOp52
 70
     0
102
RTVSPost2010Prop53
 90
        2
102
RTVSPost2010PropOp53
 70
     0
102
RTVSPost2010Prop54
  1
strokes_ogs.tif
102
RTVSPost2010PropOp54
 70
     0
102
RTVSPost2010Prop55
280
     0
102
RTVSPost2010PropOp55
 70
     0
102
RTVSPost2010Prop56
140
1.0
102
RTVSPost2010PropOp56
 70
     0
102
RTVSPost2010Prop57
140
1.0
102
RTVSPost2010PropOp57
 70
     0
  0
XRECORD
  5
180
102
{ACAD_REACTORS
330
17F
102
}
330
17F
100
AcDbXrecord
280
     1
102
RTVSPost2010Prop28
280
     0
102
RTVSPost2010PropOp28
 70
     1
102
RTVSPost2010Prop29
280
     1
102
RTVSPost2010PropOp29
 70
     1
102
RTVSPost2010Prop30
280
     1
102
RTVSPost2010PropOp30
 70
     1
102
RTVSPost2010Prop31
280
     0
102
RTVSPost2010PropOp31
 70
     1
102
RTVSPost2010Prop32
280
     0
102
RTVSPost2010PropOp32
 70
     1
102
RTVSPost2010Prop33
280
     0
102
RTVSPost2010PropOp33
 70
     1
102
RTVSPost2010Prop34
280
     0
102
RTVSPost2010PropOp34
 70
     1
102
RTVSPost2010Prop35
280
     0
102
RTVSPost2010PropOp35
 70
     1
102
RTVSPost2010Prop36
280
     0
102
RTVSPost2010PropOp36
 70
     1
102
RTVSPost2010Prop37
 90
       50
102
RTVSPost2010PropOp37
 70
     1
102
RTVSPost2010Prop38
140
0.0
102
RTVSPost2010PropOp38
 70
     1
102
RTVSPost2010Prop39
140
1.0
102
RTVSPost2010PropOp39
 70
     1
102
RTVSPost2010Prop40
 90
        0
102
RTVSPost2010PropOp40
 70
     1
102
RTVSPost2010Prop41ColorIndex
 90
       18
102
RTVSPost2010Prop41ColorRGB
 90
        0
102
RTVSPost2010PropOp41
 70
     1
102
RTVSPost2010Prop42
 90
       50
102
RTVSPost2010PropOp42
 70
     1
102
RTVSPost2010Prop43
 90
        3
102
RTVSPost2010PropOp43
 70
     1
102
RTVSPost2010Prop44ColorIndex
 90
        5
102
RTVSPost2010Prop44ColorRGB
 90
      255
102
RTVSPost2010PropOp44
 70
     1
102
RTVSPost2010Prop45
280
     0
102
RTVSPost2010PropOp45
 70
     1
102
RTVSPost2010Prop46
 90
       50
102
RTVSPost2010PropOp46
 70
     1
102
RTVSPost2010Prop47
 90
       50
102
RTVSPost2010PropOp47
 70
     1
102
RTVSPost2010Prop48
 90
       50
102
RTVSPost2010PropOp48
 70
     1
102
RTVSPost2010Prop49
280
     0
102
RTVSPost2010PropOp49
 70
     1
102
RTVSPost2010Prop50
 90
       50
102
RTVSPost2010PropOp50
 70
     1
102
RTVSPost2010Prop51ColorIndex
 90
      256
102
RTVSPost2010Prop51ColorRGB
 90
-16777216
102
RTVSPost2010PropOp51
 70
     0
102
RTVSPost2010Prop52
140
1.0
102
RTVSPost2010PropOp52
 70
     0
102
RTVSPost2010Prop53
 90
        2
102
RTVSPost2010PropOp53
 70
     1
102
RTVSPost2010Prop54
  1
strokes_ogs.tif
102
RTVSPost2010PropOp54
 70
     1
102
RTVSPost2010Prop55
280
     0
102
RTVSPost2010PropOp55
 70
     1
102
RTVSPost2010Prop56
140
1.0
102
RTVSPost2010PropOp56
 70
     1
102
RTVSPost2010Prop57
140
1.0
102
RTVSPost2010PropOp57
 70
     1
  0
XRECORD
  5
19E
102
{ACAD_REACTORS
330
19D
102
}
330
19D
100
AcDbXrecord
280
     1
102
RTVSPost2010Prop28
280
     0
102
RTVSPost2010PropOp28
 70
     1
102
RTVSPost2010Prop29
280
     1
102
RTVSPost2010PropOp29
 70
     1
102
RTVSPost2010Prop30
280
     1
102
RTVSPost2010PropOp30
 70
     1
102
RTVSPost2010Prop31
280
     0
102
RTVSPost2010PropOp31
 70
     1
102
RTVSPost2010Prop32
280
     0
102
RTVSPost2010PropOp32
 70
     1
102
RTVSPost2010Prop33
280
     0
102
RTVSPost2010PropOp33
 70
     1
102
RTVSPost2010Prop34
280
     0
102
RTVSPost2010PropOp34
 70
     1
102
RTVSPost2010Prop35
280
     0
102
RTVSPost2010PropOp35
 70
     1
102
RTVSPost2010Prop36
280
     0
102
RTVSPost2010PropOp36
 70
     1
102
RTVSPost2010Prop37
 90
       50
102
RTVSPost2010PropOp37
 70
     1
102
RTVSPost2010Prop38
140
0.0
102
RTVSPost2010PropOp38
 70
     1
102
RTVSPost2010Prop39
140
1.0
102
RTVSPost2010PropOp39
 70
     1
102
RTVSPost2010Prop40
 90
        0
102
RTVSPost2010PropOp40
 70
     1
102
RTVSPost2010Prop41ColorIndex
 90
       18
102
RTVSPost2010Prop41ColorRGB
 90
        0
102
RTVSPost2010PropOp41
 70
     1
102
RTVSPost2010Prop42
 90
       50
102
RTVSPost2010PropOp42
 70
     1
102
RTVSPost2010Prop43
 90
        3
102
RTVSPost2010PropOp43
 70
     1
102
RTVSPost2010Prop44ColorIndex
 90
        5
102
RTVSPost2010Prop44ColorRGB
 90
      255
102
RTVSPost2010PropOp44
 70
     1
102
RTVSPost2010Prop45
280
     0
102
RTVSPost2010PropOp45
 70
     1
102
RTVSPost2010Prop46
 90
       50
102
RTVSPost2010PropOp46
 70
     1
102
RTVSPost2010Prop47
 90
       50
102
RTVSPost2010PropOp47
 70
     1
102
RTVSPost2010Prop48
 90
       50
102
RTVSPost2010PropOp48
 70
     1
102
RTVSPost2010Prop49
280
     0
102
RTVSPost2010PropOp49
 70
     1
102
RTVSPost2010Prop50
 90
       50
102
RTVSPost2010PropOp50
 70
     1
102
RTVSPost2010Prop51ColorIndex
 90
      256
102
RTVSPost2010Prop51ColorRGB
 90
-16777216
102
RTVSPost2010PropOp51
 70
     0
102
RTVSPost2010Prop52
140
1.0
102
RTVSPost2010PropOp52
 70
     0
102
RTVSPost2010Prop53
 90
        2
102
RTVSPost2010PropOp53
 70
     1
102
RTVSPost2010Prop54
  1
strokes_ogs.tif
102
RTVSPost2010PropOp54
 70
     1
102
RTVSPost2010Prop55
280
     0
102
RTVSPost2010PropOp55
 70
     1
102
RTVSPost2010Prop56
140
1.0
102
RTVSPost2010PropOp56
 70
     1
102
RTVSPost2010Prop57
140
1.0
102
RTVSPost2010PropOp57
 70
     1
  0
XRECORD
  5
19C
102
{ACAD_REACTORS
330
19B
102
}
330
19B
100
AcDbXrecord
280
     1
102
RTVSPost2010Prop28
280
     0
102
RTVSPost2010PropOp28
 70
     1
102
RTVSPost2010Prop29
280
     1
102
RTVSPost2010PropOp29
 70
     1
102
RTVSPost2010Prop30
280
     1
102
RTVSPost2010PropOp30
 70
     1
102
RTVSPost2010Prop31
280
     0
102
RTVSPost2010PropOp31
 70
     1
102
RTVSPost2010Prop32
280
     0
102
RTVSPost2010PropOp32
 70
     1
102
RTVSPost2010Prop33
280
     0
102
RTVSPost2010PropOp33
 70
     1
102
RTVSPost2010Prop34
280
     0
102
RTVSPost2010PropOp34
 70
     1
102
RTVSPost2010Prop35
280
     0
102
RTVSPost2010PropOp35
 70
     1
102
RTVSPost2010Prop36
280
     0
102
RTVSPost2010PropOp36
 70
     1
102
RTVSPost2010Prop37
 90
       50
102
RTVSPost2010PropOp37
 70
     1
102
RTVSPost2010Prop38
140
0.0
102
RTVSPost2010PropOp38
 70
     1
102
RTVSPost2010Prop39
140
1.0
102
RTVSPost2010PropOp39
 70
     1
102
RTVSPost2010Prop40
 90
        0
102
RTVSPost2010PropOp40
 70
     1
102
RTVSPost2010Prop41ColorIndex
 90
       18
102
RTVSPost2010Prop41ColorRGB
 90
        0
102
RTVSPost2010PropOp41
 70
     1
102
RTVSPost2010Prop42
 90
       50
102
RTVSPost2010PropOp42
 70
     1
102
RTVSPost2010Prop43
 90
        3
102
RTVSPost2010PropOp43
 70
     1
102
RTVSPost2010Prop44ColorIndex
 90
        5
102
RTVSPost2010Prop44ColorRGB
 90
      255
102
RTVSPost2010PropOp44
 70
     1
102
RTVSPost2010Prop45
280
     0
102
RTVSPost2010PropOp45
 70
     1
102
RTVSPost2010Prop46
 90
       50
102
RTVSPost2010PropOp46
 70
     1
102
RTVSPost2010Prop47
 90
       50
102
RTVSPost2010PropOp47
 70
     1
102
RTVSPost2010Prop48
 90
       50
102
RTVSPost2010PropOp48
 70
     1
102
RTVSPost2010Prop49
280
     0
102
RTVSPost2010PropOp49
 70
     1
102
RTVSPost2010Prop50
 90
       50
102
RTVSPost2010PropOp50
 70
     1
102
RTVSPost2010Prop51ColorIndex
 90
      256
102
RTVSPost2010Prop51ColorRGB
 90
-16777216
102
RTVSPost2010PropOp51
 70
     0
102
RTVSPost2010Prop52
140
1.0
102
RTVSPost2010PropOp52
 70
     0
102
RTVSPost2010Prop53
 90
        2
102
RTVSPost2010PropOp53
 70
     1
102
RTVSPost2010Prop54
  1
strokes_ogs.tif
102
RTVSPost2010PropOp54
 70
     1
102
RTVSPost2010Prop55
280
     0
102
RTVSPost2010PropOp55
 70
     1
102
RTVSPost2010Prop56
140
1.0
102
RTVSPost2010PropOp56
 70
     1
102
RTVSPost2010Prop57
140
1.0
102
RTVSPost2010PropOp57
 70
     1
  0
XRECORD
  5
196
102
{ACAD_REACTORS
330
195
102
}
330
195
100
AcDbXrecord
280
     1
102
RTVSPost2010Prop28
280
     0
102
RTVSPost2010PropOp28
 70
     1
102
RTVSPost2010Prop29
280
     1
102
RTVSPost2010PropOp29
 70
     1
102
RTVSPost2010Prop30
280
     1
102
RTVSPost2010PropOp30
 70
     1
102
RTVSPost2010Prop31
280
     0
102
RTVSPost2010PropOp31
 70
     1
102
RTVSPost2010Prop32
280
     0
102
RTVSPost2010PropOp32
 70
     1
102
RTVSPost2010Prop33
280
     0
102
RTVSPost2010PropOp33
 70
     1
102
RTVSPost2010Prop34
280
     0
102
RTVSPost2010PropOp34
 70
     1
102
RTVSPost2010Prop35
280
     0
102
RTVSPost2010PropOp35
 70
     1
102
RTVSPost2010Prop36
280
     0
102
RTVSPost2010PropOp36
 70
     1
102
RTVSPost2010Prop37
 90
       50
102
RTVSPost2010PropOp37
 70
     1
102
RTVSPost2010Prop38
140
0.0
102
RTVSPost2010PropOp38
 70
     1
102
RTVSPost2010Prop39
140
1.0
102
RTVSPost2010PropOp39
 70
     1
102
RTVSPost2010Prop40
 90
        0
102
RTVSPost2010PropOp40
 70
     1
102
RTVSPost2010Prop41ColorIndex
 90
       18
102
RTVSPost2010Prop41ColorRGB
 90
        0
102
RTVSPost2010PropOp41
 70
     1
102
RTVSPost2010Prop42
 90
       50
102
RTVSPost2010PropOp42
 70
     1
102
RTVSPost2010Prop43
 90
        3
102
RTVSPost2010PropOp43
 70
     1
102
RTVSPost2010Prop44ColorIndex
 90
        5
102
RTVSPost2010Prop44ColorRGB
 90
      255
102
RTVSPost2010PropOp44
 70
     1
102
RTVSPost2010Prop45
280
     0
102
RTVSPost2010PropOp45
 70
     1
102
RTVSPost2010Prop46
 90
       50
102
RTVSPost2010PropOp46
 70
     1
102
RTVSPost2010Prop47
 90
       50
102
RTVSPost2010PropOp47
 70
     1
102
RTVSPost2010Prop48
 90
       50
102
RTVSPost2010PropOp48
 70
     1
102
RTVSPost2010Prop49
280
     0
102
RTVSPost2010PropOp49
 70
     1
102
RTVSPost2010Prop50
 90
       50
102
RTVSPost2010PropOp50
 70
     1
102
RTVSPost2010Prop51ColorIndex
 90
      256
102
RTVSPost2010Prop51ColorRGB
 90
-16777216
102
RTVSPost2010PropOp51
 70
     0
102
RTVSPost2010Prop52
140
1.0
102
RTVSPost2010PropOp52
 70
     0
102
RTVSPost2010Prop53
 90
        2
102
RTVSPost2010PropOp53
 70
     1
102
RTVSPost2010Prop54
  1
strokes_ogs.tif
102
RTVSPost2010PropOp54
 70
     1
102
RTVSPost2010Prop55
280
     0
102
RTVSPost2010PropOp55
 70
     1
102
RTVSPost2010Prop56
140
1.0
102
RTVSPost2010PropOp56
 70
     1
102
RTVSPost2010Prop57
140
1.0
102
RTVSPost2010PropOp57
 70
     1
  0
XRECORD
  5
198
102
{ACAD_REACTORS
330
197
102
}
330
197
100
AcDbXrecord
280
     1
102
RTVSPost2010Prop28
280
     0
102
RTVSPost2010PropOp28
 70
     1
102
RTVSPost2010Prop29
280
     1
102
RTVSPost2010PropOp29
 70
     1
102
RTVSPost2010Prop30
280
     1
102
RTVSPost2010PropOp30
 70
     1
102
RTVSPost2010Prop31
280
     0
102
RTVSPost2010PropOp31
 70
     1
102
RTVSPost2010Prop32
280
     0
102
RTVSPost2010PropOp32
 70
     1
102
RTVSPost2010Prop33
280
     0
102
RTVSPost2010PropOp33
 70
     1
102
RTVSPost2010Prop34
280
     0
102
RTVSPost2010PropOp34
 70
     1
102
RTVSPost2010Prop35
280
     0
102
RTVSPost2010PropOp35
 70
     1
102
RTVSPost2010Prop36
280
     0
102
RTVSPost2010PropOp36
 70
     1
102
RTVSPost2010Prop37
 90
       50
102
RTVSPost2010PropOp37
 70
     1
102
RTVSPost2010Prop38
140
0.0
102
RTVSPost2010PropOp38
 70
     1
102
RTVSPost2010Prop39
140
1.0
102
RTVSPost2010PropOp39
 70
     1
102
RTVSPost2010Prop40
 90
        0
102
RTVSPost2010PropOp40
 70
     1
102
RTVSPost2010Prop41ColorIndex
 90
       18
102
RTVSPost2010Prop41ColorRGB
 90
        0
102
RTVSPost2010PropOp41
 70
     1
102
RTVSPost2010Prop42
 90
       50
102
RTVSPost2010PropOp42
 70
     1
102
RTVSPost2010Prop43
 90
        3
102
RTVSPost2010PropOp43
 70
     1
102
RTVSPost2010Prop44ColorIndex
 90
        5
102
RTVSPost2010Prop44ColorRGB
 90
      255
102
RTVSPost2010PropOp44
 70
     1
102
RTVSPost2010Prop45
280
     0
102
RTVSPost2010PropOp45
 70
     1
102
RTVSPost2010Prop46
 90
       50
102
RTVSPost2010PropOp46
 70
     1
102
RTVSPost2010Prop47
 90
       50
102
RTVSPost2010PropOp47
 70
     1
102
RTVSPost2010Prop48
 90
       50
102
RTVSPost2010PropOp48
 70
     1
102
RTVSPost2010Prop49
280
     0
102
RTVSPost2010PropOp49
 70
     1
102
RTVSPost2010Prop50
 90
       50
102
RTVSPost2010PropOp50
 70
     1
102
RTVSPost2010Prop51ColorIndex
 90
      256
102
RTVSPost2010Prop51ColorRGB
 90
-16777216
102
RTVSPost2010PropOp51
 70
     0
102
RTVSPost2010Prop52
140
1.0
102
RTVSPost2010PropOp52
 70
     0
102
RTVSPost2010Prop53
 90
        2
102
RTVSPost2010PropOp53
 70
     1
102
RTVSPost2010Prop54
  1
strokes_ogs.tif
102
RTVSPost2010PropOp54
 70
     1
102
RTVSPost2010Prop55
280
     0
102
RTVSPost2010PropOp55
 70
     1
102
RTVSPost2010Prop56
140
1.0
102
RTVSPost2010PropOp56
 70
     1
102
RTVSPost2010Prop57
140
1.0
102
RTVSPost2010PropOp57
 70
     1
  0
XRECORD
  5
188
102
{ACAD_REACTORS
330
187
102
}
330
187
100
AcDbXrecord
280
     1
102
RTVSPost2010Prop28
280
     0
102
RTVSPost2010PropOp28
 70
     1
102
RTVSPost2010Prop29
280
     1
102
RTVSPost2010PropOp29
 70
     1
102
RTVSPost2010Prop30
280
     1
102
RTVSPost2010PropOp30
 70
     1
102
RTVSPost2010Prop31
280
     0
102
RTVSPost2010PropOp31
 70
     1
102
RTVSPost2010Prop32
280
     0
102
RTVSPost2010PropOp32
 70
     1
102
RTVSPost2010Prop33
280
     0
102
RTVSPost2010PropOp33
 70
     1
102
RTVSPost2010Prop34
280
     0
102
RTVSPost2010PropOp34
 70
     1
102
RTVSPost2010Prop35
280
     0
102
RTVSPost2010PropOp35
 70
     1
102
RTVSPost2010Prop36
280
     0
102
RTVSPost2010PropOp36
 70
     1
102
RTVSPost2010Prop37
 90
       50
102
RTVSPost2010PropOp37
 70
     1
102
RTVSPost2010Prop38
140
0.0
102
RTVSPost2010PropOp38
 70
     1
102
RTVSPost2010Prop39
140
1.0
102
RTVSPost2010PropOp39
 70
     1
102
RTVSPost2010Prop40
 90
        0
102
RTVSPost2010PropOp40
 70
     1
102
RTVSPost2010Prop41ColorIndex
 90
       18
102
RTVSPost2010Prop41ColorRGB
 90
        0
102
RTVSPost2010PropOp41
 70
     1
102
RTVSPost2010Prop42
 90
       50
102
RTVSPost2010PropOp42
 70
     1
102
RTVSPost2010Prop43
 90
        3
102
RTVSPost2010PropOp43
 70
     1
102
RTVSPost2010Prop44ColorIndex
 90
        5
102
RTVSPost2010Prop44ColorRGB
 90
      255
102
RTVSPost2010PropOp44
 70
     1
102
RTVSPost2010Prop45
280
     0
102
RTVSPost2010PropOp45
 70
     1
102
RTVSPost2010Prop46
 90
       50
102
RTVSPost2010PropOp46
 70
     1
102
RTVSPost2010Prop47
 90
       50
102
RTVSPost2010PropOp47
 70
     1
102
RTVSPost2010Prop48
 90
       50
102
RTVSPost2010PropOp48
 70
     1
102
RTVSPost2010Prop49
280
     0
102
RTVSPost2010PropOp49
 70
     1
102
RTVSPost2010Prop50
 90
       50
102
RTVSPost2010PropOp50
 70
     1
102
RTVSPost2010Prop51ColorIndex
 90
      256
102
RTVSPost2010Prop51ColorRGB
 90
-16777216
102
RTVSPost2010PropOp51
 70
     0
102
RTVSPost2010Prop52
140
1.0
102
RTVSPost2010PropOp52
 70
     0
102
RTVSPost2010Prop53
 90
        2
102
RTVSPost2010PropOp53
 70
     1
102
RTVSPost2010Prop54
  1
strokes_ogs.tif
102
RTVSPost2010PropOp54
 70
     1
102
RTVSPost2010Prop55
280
     0
102
RTVSPost2010PropOp55
 70
     1
102
RTVSPost2010Prop56
140
1.0
102
RTVSPost2010PropOp56
 70
     1
102
RTVSPost2010Prop57
140
1.0
102
RTVSPost2010PropOp57
 70
     1
  0
XRECORD
  5
17A
102
{ACAD_REACTORS
330
179
102
}
330
179
100
AcDbXrecord
280
     1
102
RTVSPost2010Prop28
280
     0
102
RTVSPost2010PropOp28
 70
     1
102
RTVSPost2010Prop29
280
     1
102
RTVSPost2010PropOp29
 70
     1
102
RTVSPost2010Prop30
280
     1
102
RTVSPost2010PropOp30
 70
     1
102
RTVSPost2010Prop31
280
     0
102
RTVSPost2010PropOp31
 70
     1
102
RTVSPost2010Prop32
280
     0
102
RTVSPost2010PropOp32
 70
     1
102
RTVSPost2010Prop33
280
     0
102
RTVSPost2010PropOp33
 70
     1
102
RTVSPost2010Prop34
280
     0
102
RTVSPost2010PropOp34
 70
     1
102
RTVSPost2010Prop35
280
     0
102
RTVSPost2010PropOp35
 70
     1
102
RTVSPost2010Prop36
280
     0
102
RTVSPost2010PropOp36
 70
     1
102
RTVSPost2010Prop37
 90
       50
102
RTVSPost2010PropOp37
 70
     1
102
RTVSPost2010Prop38
140
0.0
102
RTVSPost2010PropOp38
 70
     1
102
RTVSPost2010Prop39
140
1.0
102
RTVSPost2010PropOp39
 70
     1
102
RTVSPost2010Prop40
 90
        0
102
RTVSPost2010PropOp40
 70
     1
102
RTVSPost2010Prop41ColorIndex
 90
       18
102
RTVSPost2010Prop41ColorRGB
 90
        0
102
RTVSPost2010PropOp41
 70
     1
102
RTVSPost2010Prop42
 90
       50
102
RTVSPost2010PropOp42
 70
     1
102
RTVSPost2010Prop43
 90
        3
102
RTVSPost2010PropOp43
 70
     1
102
RTVSPost2010Prop44ColorIndex
 90
        5
102
RTVSPost2010Prop44ColorRGB
 90
      255
102
RTVSPost2010PropOp44
 70
     1
102
RTVSPost2010Prop45
280
     0
102
RTVSPost2010PropOp45
 70
     1
102
RTVSPost2010Prop46
 90
       50
102
RTVSPost2010PropOp46
 70
     1
102
RTVSPost2010Prop47
 90
       50
102
RTVSPost2010PropOp47
 70
     1
102
RTVSPost2010Prop48
 90
       50
102
RTVSPost2010PropOp48
 70
     1
102
RTVSPost2010Prop49
280
     0
102
RTVSPost2010PropOp49
 70
     1
102
RTVSPost2010Prop50
 90
       50
102
RTVSPost2010PropOp50
 70
     1
102
RTVSPost2010Prop51ColorIndex
 90
      256
102
RTVSPost2010Prop51ColorRGB
 90
-16777216
102
RTVSPost2010PropOp51
 70
     0
102
RTVSPost2010Prop52
140
1.0
102
RTVSPost2010PropOp52
 70
     0
102
RTVSPost2010Prop53
 90
        2
102
RTVSPost2010PropOp53
 70
     1
102
RTVSPost2010Prop54
  1
strokes_ogs.tif
102
RTVSPost2010PropOp54
 70
     1
102
RTVSPost2010Prop55
280
     0
102
RTVSPost2010PropOp55
 70
     1
102
RTVSPost2010Prop56
140
1.0
102
RTVSPost2010PropOp56
 70
     1
102
RTVSPost2010Prop57
140
1.0
102
RTVSPost2010PropOp57
 70
     1
  0
XRECORD
  5
19A
102
{ACAD_REACTORS
330
199
102
}
330
199
100
AcDbXrecord
280
     1
102
RTVSPost2010Prop28
280
     0
102
RTVSPost2010PropOp28
 70
     1
102
RTVSPost2010Prop29
280
     1
102
RTVSPost2010PropOp29
 70
     1
102
RTVSPost2010Prop30
280
     1
102
RTVSPost2010PropOp30
 70
     1
102
RTVSPost2010Prop31
280
     0
102
RTVSPost2010PropOp31
 70
     1
102
RTVSPost2010Prop32
280
     0
102
RTVSPost2010PropOp32
 70
     1
102
RTVSPost2010Prop33
280
     0
102
RTVSPost2010PropOp33
 70
     1
102
RTVSPost2010Prop34
280
     0
102
RTVSPost2010PropOp34
 70
     1
102
RTVSPost2010Prop35
280
     0
102
RTVSPost2010PropOp35
 70
     1
102
RTVSPost2010Prop36
280
     0
102
RTVSPost2010PropOp36
 70
     1
102
RTVSPost2010Prop37
 90
       50
102
RTVSPost2010PropOp37
 70
     1
102
RTVSPost2010Prop38
140
0.0
102
RTVSPost2010PropOp38
 70
     1
102
RTVSPost2010Prop39
140
1.0
102
RTVSPost2010PropOp39
 70
     1
102
RTVSPost2010Prop40
 90
        0
102
RTVSPost2010PropOp40
 70
     1
102
RTVSPost2010Prop41ColorIndex
 90
       18
102
RTVSPost2010Prop41ColorRGB
 90
        0
102
RTVSPost2010PropOp41
 70
     1
102
RTVSPost2010Prop42
 90
       50
102
RTVSPost2010PropOp42
 70
     1
102
RTVSPost2010Prop43
 90
        3
102
RTVSPost2010PropOp43
 70
     1
102
RTVSPost2010Prop44ColorIndex
 90
        5
102
RTVSPost2010Prop44ColorRGB
 90
      255
102
RTVSPost2010PropOp44
 70
     1
102
RTVSPost2010Prop45
280
     0
102
RTVSPost2010PropOp45
 70
     1
102
RTVSPost2010Prop46
 90
       50
102
RTVSPost2010PropOp46
 70
     1
102
RTVSPost2010Prop47
 90
       50
102
RTVSPost2010PropOp47
 70
     1
102
RTVSPost2010Prop48
 90
       50
102
RTVSPost2010PropOp48
 70
     1
102
RTVSPost2010Prop49
280
     0
102
RTVSPost2010PropOp49
 70
     1
102
RTVSPost2010Prop50
 90
       50
102
RTVSPost2010PropOp50
 70
     1
102
RTVSPost2010Prop51ColorIndex
 90
      256
102
RTVSPost2010Prop51ColorRGB
 90
-16777216
102
RTVSPost2010PropOp51
 70
     0
102
RTVSPost2010Prop52
140
1.0
102
RTVSPost2010PropOp52
 70
     0
102
RTVSPost2010Prop53
 90
        2
102
RTVSPost2010PropOp53
 70
     1
102
RTVSPost2010Prop54
  1
strokes_ogs.tif
102
RTVSPost2010PropOp54
 70
     1
102
RTVSPost2010Prop55
280
     0
102
RTVSPost2010PropOp55
 70
     1
102
RTVSPost2010Prop56
140
1.0
102
RTVSPost2010PropOp56
 70
     1
102
RTVSPost2010Prop57
140
1.0
102
RTVSPost2010PropOp57
 70
     1
  0
ENDSEC
  0
EOF
