  0
SECTION
  2
HEADER
  9
$ACADVER
  1
AC1024
  9
$ACADMAINTVER
 70
     6
  9
$DWGCODEPAGE
  3
ANSI_932
  9
$INSBASE
 10
0.0
 20
0.0
 30
0.0
  9
$EXTMIN
 10
-677.162629
 20
-856.68087
 30
1.000000000000000E+20
  9
$EXTMAX
 10
898.152585
 20
1153.050722
 30
-1.000000000000000E+20
  9
$LIMMIN
 10
-677.162629
 20
-856.68087
  9
$LIMMAX
 10
898.152585
 20
1153.050722
  9
$ORTHOMODE
 70
     0
  9
$REGENMODE
 70
     1
  9
$FILLMODE
 70
     1
  9
$QTEXTMODE
 70
     0
  9
$MIRRTEXT
 70
     1
  9
$LTSCALE
 40
1.0
  9
$ATTMODE
 70
     1
  9
$TEXTSIZE
 40
0.0
  9
$TRACEWID
 40
0.05
  9
$TEXTSTYLE
  7
Standard
  9
$CLAYER
  8
0
  9
$CELTYPE
  6
Continuous
  9
$CECOLOR
 62
   256
  9
$CELTSCALE
 40
1.0
  9
$DISPSILH
 70
     0
  9
$DIMSCALE
 40
1.0
  9
$DIMASZ
 40
0.18
  9
$DIMEXO
 40
0.0625
  9
$DIMDLI
 40
0.38
  9
$DIMRND
 40
0.0
  9
$DIMDLE
 40
0.0
  9
$DIMEXE
 40
0.18
  9
$DIMTP
 40
0.0
  9
$DIMTM
 40
0.0
  9
$DIMTXT
 40
0.18
  9
$DIMCEN
 40
0.09
  9
$DIMTSZ
 40
0.0
  9
$DIMTOL
 70
     0
  9
$DIMLIM
 70
     0
  9
$DIMTIH
 70
     1
  9
$DIMTOH
 70
     1
  9
$DIMSE1
 70
     0
  9
$DIMSE2
 70
     0
  9
$DIMTAD
 70
     0
  9
$DIMZIN
 70
     0
  9
$DIMBLK
  1

  9
$DIMASO
 70
     1
  9
$DIMSHO
 70
     1
  9
$DIMPOST
  1

  9
$DIMAPOST
  1

  9
$DIMALT
 70
     0
  9
$DIMALTD
 70
     2
  9
$DIMALTF
 40
25.4
  9
$DIMLFAC
 40
1.0
  9
$DIMTOFL
 70
     0
  9
$DIMTVP
 40
0.0
  9
$DIMTIX
 70
     0
  9
$DIMSOXD
 70
     0
  9
$DIMSAH
 70
     0
  9
$DIMBLK1
  1

  9
$DIMBLK2
  1

  9
$DIMSTYLE
  2
Standard
  9
$DIMCLRD
 70
     0
  9
$DIMCLRE
 70
     0
  9
$DIMCLRT
 70
     0
  9
$DIMTFAC
 40
1.0
  9
$DIMGAP
 40
0.09
  9
$DIMJUST
 70
     0
  9
$DIMSD1
 70
     0
  9
$DIMSD2
 70
     0
  9
$DIMTOLJ
 70
     1
  9
$DIMTZIN
 70
     0
  9
$DIMALTZ
 70
     0
  9
$DIMALTTZ
 70
     0
  9
$DIMUPT
 70
     0
  9
$DIMDEC
 70
     4
  9
$DIMTDEC
 70
     4
  9
$DIMALTU
 70
     2
  9
$DIMALTTD
 70
     2
  9
$DIMTXSTY
  7
Standard
  9
$DIMAUNIT
 70
     0
  9
$DIMADEC
 70
     0
  9
$DIMALTRND
 40
0.0
  9
$DIMAZIN
 70
     0
  9
$DIMDSEP
 70
     0
  9
$DIMATFIT
 70
     3
  9
$DIMFRAC
 70
     0
  9
$DIMLDRBLK
  1

  9
$DIMLUNIT
 70
     2
  9
$DIMLWD
 70
     0
  9
$DIMLWE
 70
     0
  9
$DIMTMOVE
 70
     0
  9
$DIMFXL
 40
1.0
  9
$DIMFXLON
 70
     0
  9
$DIMJOGANG
 40
0.7853981633974483
  9
$DIMTFILL
 70
     0
  9
$DIMTFILLCLR
 70
     0
  9
$DIMARCSYM
 70
     0
  9
$DIMLTYPE
  6

  9
$DIMLTEX1
  6

  9
$DIMLTEX2
  6

  9
$DIMTXTDIRECTION
 70
     0
  9
$LUNITS
 70
     2
  9
$LUPREC
 70
     4
  9
$SKETCHINC
 40
0.1
  9
$FILLETRAD
 40
0.0
  9
$AUNITS
 70
     0
  9
$AUPREC
 70
     0
  9
$MENU
  1
acad
  9
$ELEVATION
 40
0.0
  9
$PELEVATION
 40
0.0
  9
$THICKNESS
 40
0.0
  9
$LIMCHECK
 70
     0
  9
$CHAMFERA
 40
0.0
  9
$CHAMFERB
 40
0.0
  9
$CHAMFERC
 40
0.0
  9
$CHAMFERD
 40
0.0
  9
$SKPOLY
 70
     0
  9
$TDCREATE
 40
2447893.041666667
  9
$TDUCREATE
 40
0.0
  9
$TDUPDATE
 40
2457234.640806111
  9
$TDUUPDATE
 40
2457234.599139445
  9
$TDINDWG
 40
0.0
  9
$TDUSRTIMER
 40
0.0
  9
$USRTIMER
 70
     1
  9
$ANGBASE
 50
0.0
  9
$ANGDIR
 70
     0
  9
$PDMODE
 70
     0
  9
$PDSIZE
 40
0.0
  9
$PLINEWID
 40
0.0
  9
$SPLFRAME
 70
     0
  9
$SPLINETYPE
 70
     6
  9
$SPLINESEGS
 70
     8
  9
$HANDSEED
  5
1A1
  9
$SURFTAB1
 70
     6
  9
$SURFTAB2
 70
     6
  9
$SURFTYPE
 70
     6
  9
$SURFU
 70
     6
  9
$SURFV
 70
     6
  9
$UCSBASE
  2

  9
$UCSNAME
  2

  9
$UCSORG
 10
0.0
 20
0.0
 30
0.0
  9
$UCSXDIR
 10
1.0
 20
0.0
 30
0.0
  9
$UCSYDIR
 10
0.0
 20
1.0
 30
0.0
  9
$UCSORTHOREF
  2

  9
$UCSORTHOVIEW
 70
     0
  9
$UCSORGTOP
 10
0.0
 20
0.0
 30
0.0
  9
$UCSORGBOTTOM
 10
0.0
 20
0.0
 30
0.0
  9
$UCSORGLEFT
 10
0.0
 20
0.0
 30
0.0
  9
$UCSORGRIGHT
 10
0.0
 20
0.0
 30
0.0
  9
$UCSORGFRONT
 10
0.0
 20
0.0
 30
0.0
  9
$UCSORGBACK
 10
0.0
 20
0.0
 30
0.0
  9
$PUCSBASE
  2

  9
$PUCSNAME
  2

  9
$PUCSORG
 10
0.0
 20
0.0
 30
0.0
  9
$PUCSXDIR
 10
1.0
 20
0.0
 30
0.0
  9
$PUCSYDIR
 10
0.0
 20
1.0
 30
0.0
  9
$PUCSORTHOREF
  2

  9
$PUCSORTHOVIEW
 70
     0
  9
$PUCSORGTOP
 10
0.0
 20
0.0
 30
0.0
  9
$PUCSORGBOTTOM
 10
0.0
 20
0.0
 30
0.0
  9
$PUCSORGLEFT
 10
0.0
 20
0.0
 30
0.0
  9
$PUCSORGRIGHT
 10
0.0
 20
0.0
 30
0.0
  9
$PUCSORGFRONT
 10
0.0
 20
0.0
 30
0.0
  9
$PUCSORGBACK
 10
0.0
 20
0.0
 30
0.0
  9
$USERI1
 70
     0
  9
$USERI2
 70
     0
  9
$USERI3
 70
     0
  9
$USERI4
 70
     0
  9
$USERI5
 70
     0
  9
$USERR1
 40
0.0
  9
$USERR2
 40
0.0
  9
$USERR3
 40
0.0
  9
$USERR4
 40
0.0
  9
$USERR5
 40
0.0
  9
$WORLDVIEW
 70
     1
  9
$SHADEDGE
 70
     3
  9
$SHADEDIF
 70
    70
  9
$TILEMODE
 70
     1
  9
$MAXACTVP
 70
    16
  9
$PINSBASE
 10
0.0
 20
0.0
 30
0.0
  9
$PLIMCHECK
 70
     0
  9
$PEXTMIN
 10
1.000000000000000E+20
 20
1.000000000000000E+20
 30
1.000000000000000E+20
  9
$PEXTMAX
 10
-1.000000000000000E+20
 20
-1.000000000000000E+20
 30
-1.000000000000000E+20
  9
$PLIMMIN
 10
0.0
 20
0.0
  9
$PLIMMAX
 10
12.0
 20
9.0
  9
$UNITMODE
 70
     0
  9
$VISRETAIN
 70
     0
  9
$PLINEGEN
 70
     1
  9
$PSLTSCALE
 70
     0
  9
$TREEDEPTH
 70
  3020
  9
$CMLSTYLE
  2
Standard
  9
$CMLJUST
 70
     0
  9
$CMLSCALE
 40
1.0
  9
$PROXYGRAPHICS
 70
     0
  9
$MEASUREMENT
 70
     0
  9
$CELWEIGHT
370
     0
  9
$ENDCAPS
280
     0
  9
$JOINSTYLE
280
     0
  9
$LWDISPLAY
290
     0
  9
$INSUNITS
 70
     0
  9
$HYPERLINKBASE
  1

  9
$STYLESHEET
  1

  9
$XEDIT
290
     1
  9
$CEPSNTYPE
380
     0
  9
$PSTYLEMODE
290
     1
  9
$FINGERPRINTGUID
  2

  9
$VERSIONGUID
  2

  9
$EXTNAMES
290
     1
  9
$PSVPSCALE
 40
0.0
  9
$OLESTARTUP
290
     0
  9
$SORTENTS
280
   127
  9
$INDEXCTL
280
     0
  9
$HIDETEXT
280
     1
  9
$XCLIPFRAME
280
     2
  9
$HALOGAP
280
     0
  9
$OBSCOLOR
 70
   257
  9
$OBSLTYPE
280
     0
  9
$INTERSECTIONDISPLAY
280
     0
  9
$INTERSECTIONCOLOR
 70
   257
  9
$DIMASSOC
280
     2
  9
$PROJECTNAME
  1

  9
$CAMERADISPLAY
290
     0
  9
$LENSLENGTH
 40
50.0
  9
$CAMERAHEIGHT
 40
0.0
  9
$STEPSPERSEC
 40
2.0
  9
$STEPSIZE
 40
6.0
  9
$3DDWFPREC
 40
2.0
  9
$PSOLWIDTH
 40
0.25
  9
$PSOLHEIGHT
 40
4.0
  9
$LOFTANG1
 40
1.570796326794897
  9
$LOFTANG2
 40
1.570796326794897
  9
$LOFTMAG1
 40
0.0
  9
$LOFTMAG2
 40
0.0
  9
$LOFTPARAM
 70
     7
  9
$LOFTNORMALS
280
     1
  9
$LATITUDE
 40
37.795
  9
$LONGITUDE
 40
-122.394
  9
$NORTHDIRECTION
 40
0.0
  9
$TIMEZONE
 70
 -8000
  9
$LIGHTGLYPHDISPLAY
280
     1
  9
$TILEMODELIGHTSYNCH
280
     1
  9
$SOLIDHIST
280
     0
  9
$SHOWHIST
280
     1
  9
$DWFFRAME
280
     2
  9
$DGNFRAME
280
     2
  9
$REALWORLDSCALE
290
     1
  9
$INTERFERECOLOR
 62
   256
  9
$CSHADOW
280
     0
  9
$SHADOWPLANELOCATION
 40
0.0
  0
ENDSEC
  0
SECTION
  2
CLASSES
  0
CLASS
  1
LWPOLYLINE
  2
AcDbPolyline
  3
ObjectDBX Classes
 90
        0
 91
        1
280
     0
281
     1
  0
CLASS
  1
IMAGE
  2
AcDbRasterImage
  3
ISM
 90
      127
 91
        5
280
     0
281
     1
  0
CLASS
  1
OLE2FRAME
  2
AcDbOle2Frame
  3
ObjectDBX Classes
 90
        0
 91
        1
280
     0
281
     1
  0
CLASS
  1
HATCH
  2
AcDbHatch
  3
ObjectDBX Classes
 90
        0
 91
        1
280
     0
281
     1
  0
CLASS
  1
DICTIONARYVAR
  2
AcDbDictionaryVar
  3
ObjectDBX Classes
 90
        0
 91
        4
280
     0
281
     0
  0
CLASS
  1
RASTERVARIABLES
  2
AcDbRasterVariables
  3
ISM
 90
        0
 91
        4
280
     0
281
     0
  0
CLASS
  1
IMAGEDEF
  2
AcDbRasterImageDef
  3
ISM
 90
        0
 91
        4
280
     0
281
     0
  0
CLASS
  1
IMAGEDEF_REACTOR
  2
AcDbRasterImageDefReactor
  3
ISM
 90
        1
 91
        4
280
     0
281
     0
  0
CLASS
  1
IDBUFFER
  2
AcDbIdBuffer
  3
ObjectDBX Classes
 90
        0
 91
        4
280
     0
281
     0
  0
CLASS
  1
SPATIAL_FILTER
  2
AcDbSpatialFilter
  3
ObjectDBX Classes
 90
        0
 91
        4
280
     0
281
     0
  0
CLASS
  1
XRECORD
  2
AcDbXrecord
  3
ObjectDBX Classes
 90
        0
 91
        1
280
     0
281
     0
  0
CLASS
  1
SORTENTSTABLE
  2
AcDbSortentsTable
  3
ObjectDBX Classes
 90
        0
 91
        4
280
     0
281
     0
  0
CLASS
  1
LAYER_INDEX
  2
AcDbLayerIndex
  3
ObjectDBX Classes
 90
        0
 91
        4
280
     0
281
     0
  0
CLASS
  1
SPATIAL_INDEX
  2
AcDbSpatialIndex
  3
AutoCAD 2000
 90
        0
 91
        4
280
     0
281
     0
  0
CLASS
  1
OBJECT_PTR
  2
CAseDLPNTableRecord
  3
ASE-LPNTableRecord
 90
        1
 91
        4
280
     0
281
     0
  0
CLASS
  1
LAYOUT
  2
AcDbLayout
  3
ObjectDBX Classes
 90
        0
 91
        1
280
     0
281
     0
  0
CLASS
  1
PLOTSETTINGS
  2
AcDbPlotSettings
  3
ObjectDBX Classes
 90
        0
 91
        4
280
     0
281
     0
  0
CLASS
  1
ACDBDICTIONARYWDFLT
  2
AcDbDictionaryWithDefault
  3
ObjectDBX Classes
 90
        0
 91
        4
280
     0
281
     0
  0
CLASS
  1
ACDBPLACEHOLDER
  2
AcDbPlaceHolder
  3
ObjectDBX Classes
 90
        0
 91
        1
280
     0
281
     0
  0
CLASS
  1
VBA_PROJECT
  2
AcDbVbaProject
  3
ObjectDBX Classes
 90
        0
 91
        1
280
     0
281
     0
  0
CLASS
  1
WIPEOUT
  2
AcDbWipeout
  3
WipeOut|AutoCAD Express Tool|expresstools@autodesk.com
 90
      127
 91
        4
280
     0
281
     1
  0
CLASS
  1
WIPEOUTVARIABLES
  2
AcDbWipeoutVariables
  3
WipeOut|AutoCAD Express Tool|expresstools@autodesk.com
 90
        0
 91
        4
280
     0
281
     0
  0
CLASS
  1
RTEXT
  2
RText
  3
RText|AutoCAD Express Tool|expresstools@autodesk.com
 90
        0
 91
        4
280
     0
281
     1
  0
CLASS
  1
ARCALIGNEDTEXT
  2
AcDbArcAlignedText
  3
ATEXT|AutoCAD Express Tool|expresstools@autodesk.com
 90
        0
 91
        4
280
     0
281
     1
  0
CLASS
  1
SCALE
  2
AcDbScale
  3
ObjectDBX Classes
 90
     1153
 91
        4
280
     0
281
     0
  0
CLASS
  1
VISUALSTYLE
  2
AcDbVisualStyle
  3
ObjectDBX Classes
 90
     4095
 91
        4
280
     0
281
     0
  0
CLASS
  1
MATERIAL
  2
AcDbMaterial
  3
ObjectDBX Classes
 90
     1153
 91
        4
280
     0
281
     0
  0
CLASS
  1
TABLESTYLE
  2
AcDbTableStyle
  3
ObjectDBX Classes
 90
     4095
 91
        4
280
     0
281
     0
  0
CLASS
  1
MLEADERSTYLE
  2
AcDbMLeaderStyle
  3
ACDB_MLEADERSTYLE_CLASS
 90
     4095
 91
        4
280
     0
281
     0
  0
CLASS
  1
CELLSTYLEMAP
  2
AcDbCellStyleMap
  3
ObjectDBX Classes
 90
     1152
 91
        4
280
     0
281
     0
  0
ENDSEC
  0
SECTION
  2
TABLES
  0
TABLE
  2
VPORT
  5
7
330
0
100
AcDbSymbolTable
 70
     1
  0
VPORT
  5
15
330
7
100
AcDbSymbolTableRecord
100
AcDbViewportTableRecord
  2
*ACTIVE
 70
     0
 10
0.0
 20
0.0
 11
1.0
 21
1.0
 12
6.591288
 22
4.579184
 13
0.0
 23
0.0
 14
1.0
 24
1.0
 15
0.0
 25
0.0
 16
0.0
 26
0.0
 36
1.0
 17
0.0
 27
0.0
 37
0.0
 40
9.158369
 41
0.688564
 42
50.0
 43
0.0
 44
0.0
 50
0.0
 51
0.0
 71
     0
 72
   100
 73
     1
 74
     1
 75
     0
 76
     0
 77
     0
 78
     0
281
     0
 65
     0
110
0.0
120
0.0
130
0.0
111
1.0
121
0.0
131
0.0
112
0.0
122
1.0
132
0.0
 79
     0
146
0.0
348
14B
 60
     3
 61
     5
292
     1
282
     1
141
0.0
142
0.0
 63
   256
  0
ENDTAB
  0
TABLE
  2
LTYPE
  5
4
330
0
100
AcDbSymbolTable
 70
     1
  0
LTYPE
  5
11
330
4
100
AcDbSymbolTableRecord
100
AcDbLinetypeTableRecord
  2
ByBlock
 70
     0
  3

 72
    65
 73
     0
 40
0.0
  0
LTYPE
  5
12
330
4
100
AcDbSymbolTableRecord
100
AcDbLinetypeTableRecord
  2
ByLayer
 70
     0
  3

 72
    65
 73
     0
 40
0.0
  0
LTYPE
  5
13
330
4
100
AcDbSymbolTableRecord
100
AcDbLinetypeTableRecord
  2
Continuous
 70
     0
  3
Solid line
 72
    65
 73
     0
 40
0.0
  0
ENDTAB
  0
TABLE
  2
LAYER
  5
2
330
0
100
AcDbSymbolTable
 70
     2
  0
LAYER
  5
14
330
2
100
AcDbSymbolTableRecord
100
AcDbLayerTableRecord
  2
0
 70
     0
 62
     7
  6
Continuous
370
    -3
390
1D
347
162
  0
LAYER
  5
28
330
2
100
AcDbSymbolTableRecord
100
AcDbLayerTableRecord
  2
LAYER_1
 70
     0
 62
   160
  6
Continuous
370
    -3
390
1D
347
162
  0
ENDTAB
  0
TABLE
  2
STYLE
  5
3
330
0
100
AcDbSymbolTable
 70
     5
  0
STYLE
  5
17
330
3
100
AcDbSymbolTableRecord
100
AcDbTextStyleTableRecord
  2
Standard
 70
     0
 40
0.0
 41
1.0
 50
0.0
 71
     0
 42
0.0
  3
txt
  4

  0
STYLE
  5
24
330
3
100
AcDbSymbolTableRecord
100
AcDbTextStyleTableRecord
  2
STD
 70
     0
 40
0.0
 41
1.0
 50
0.0
 71
     0
 42
0.0
  3
txt
  4

  0
STYLE
  5
25
330
3
100
AcDbSymbolTableRecord
100
AcDbTextStyleTableRecord
  2
TATESTD
 70
     4
 40
0.0
 41
1.0
 50
0.0
 71
     0
 42
0.0
  3
txt
  4

  0
STYLE
  5
26
330
3
100
AcDbSymbolTableRecord
100
AcDbTextStyleTableRecord
  2
KANJISTD
 70
     0
 40
0.0
 41
1.0
 50
0.0
 71
     0
 42
0.0
  3
txt
  4
extfont
  0
STYLE
  5
27
330
3
100
AcDbSymbolTableRecord
100
AcDbTextStyleTableRecord
  2
KANJITATE
 70
     4
 40
0.0
 41
1.0
 50
0.0
 71
     0
 42
0.0
  3
txt
  4
extfont
  0
ENDTAB
  0
TABLE
  2
VIEW
  5
5
330
0
100
AcDbSymbolTable
 70
     0
  0
ENDTAB
  0
TABLE
  2
UCS
  5
6
330
0
100
AcDbSymbolTable
 70
     0
  0
ENDTAB
  0
TABLE
  2
APPID
  5
8
330
0
100
AcDbSymbolTable
 70
     1
  0
APPID
  5
16
330
8
100
AcDbSymbolTableRecord
100
AcDbRegAppTableRecord
  2
ACAD
 70
     0
  0
ENDTAB
  0
TABLE
  2
DIMSTYLE
  5
9
330
0
100
AcDbSymbolTable
 70
     1
100
AcDbDimStyleTable
  0
DIMSTYLE
105
18
330
9
100
AcDbSymbolTableRecord
100
AcDbDimStyleTableRecord
  2
Standard
 70
     0
178
     0
340
17
  0
ENDTAB
  0
TABLE
  2
BLOCK_RECORD
  5
1
330
0
100
AcDbSymbolTable
 70
     1
  0
BLOCK_RECORD
  5
A
330
1
100
AcDbSymbolTableRecord
100
AcDbBlockTableRecord
  2
*MODEL_SPACE
340
20
 70
     0
280
     1
281
     0
  0
BLOCK_RECORD
  5
B
330
1
100
AcDbSymbolTableRecord
100
AcDbBlockTableRecord
  2
*PAPER_SPACE
340
21
 70
     0
280
     1
281
     0
  0
BLOCK_RECORD
  5
29
330
1
100
AcDbSymbolTableRecord
100
AcDbBlockTableRecord
  2
AI9-BLK1
340
0
102
{BLKREFS
331
2A
102
}
 70
     0
280
     1
281
     0
  0
ENDTAB
  0
ENDSEC
  0
SECTION
  2
BLOCKS
  0
BLOCK
  5
D
330
A
100
AcDbEntity
  8
0
100
AcDbBlockBegin
  2
*MODEL_SPACE
 70
     0
 10
0.0
 20
0.0
 30
0.0
  3
*MODEL_SPACE
  1

  0
ENDBLK
  5
E
330
A
100
AcDbEntity
  8
0
100
AcDbBlockEnd
  0
BLOCK
  5
F
330
B
100
AcDbEntity
 67
     1
  8
0
100
AcDbBlockBegin
  2
*PAPER_SPACE
 70
     0
 10
0.0
 20
0.0
 30
0.0
  3
*PAPER_SPACE
  1

  0
ENDBLK
  5
10
330
B
100
AcDbEntity
 67
     1
  8
0
100
AcDbBlockEnd
  0
BLOCK
  5
2B
330
29
100
AcDbEntity
  8
LAYER_1
 62
     7
100
AcDbBlockBegin
  2
AI9-BLK1
 70
     0
 10
0.0
 20
0.0
 30
0.0
  3
AI9-BLK1
  1

  0
SPLINE
  5
F4
330
29
100
AcDbEntity
  8
LAYER_1
 62
     7
100
AcDbSpline
210
0.0
220
0.0
230
1.0
 70
     8
 71
     3
 72
    44
 73
    40
 74
     0
 42
0.000000001
 43
0.00000001
 40
0.0
 40
0.0
 40
0.0
 40
0.0
 40
1.0
 40
1.0
 40
1.0
 40
2.0
 40
2.0
 40
2.0
 40
3.0
 40
3.0
 40
3.0
 40
4.0
 40
4.0
 40
4.0
 40
5.0
 40
5.0
 40
5.0
 40
6.0
 40
6.0
 40
6.0
 40
7.0
 40
7.0
 40
7.0
 40
8.0
 40
8.0
 40
8.0
 40
9.0
 40
9.0
 40
9.0
 40
10.0
 40
10.0
 40
10.0
 40
11.0
 40
11.0
 40
11.0
 40
12.0
 40
12.0
 40
12.0
 40
13.0
 40
13.0
 40
13.0
 40
13.0
 10
8.120951334635416
 20
-3.269137234157986
 30
0.0
 10
8.080988226996528
 20
-3.342862277560763
 30
0.0
 10
7.997961425781249
 20
-3.41934339735243
 30
0.0
 10
7.901498752170138
 20
-3.370595296223958
 30
0.0
 10
7.808136664496527
 20
-3.324603271484375
 30
0.0
 10
7.83397488064236
 20
-3.17129652235243
 30
0.0
 10
7.842932128906249
 20
-3.066048855251736
 30
0.0
 10
7.869803873697916
 20
-2.824547661675347
 30
0.0
 10
7.933538140190971
 20
-2.580462646484375
 30
0.0
 10
7.971778700086805
 20
-2.341889784071181
 30
0.0
 10
7.992104763454861
 20
-2.222689480251736
 30
0.0
 10
8.02931179470486
 20
-2.097288004557292
 30
0.0
 10
8.049637858072916
 20
-1.978259955512153
 30
0.0
 10
8.069963921440971
 20
-1.864571804470486
 30
0.0
 10
8.022421603732639
 20
-1.767936876085069
 30
0.0
 10
8.011741807725693
 20
-1.648219807942708
 30
0.0
 10
7.990382215711805
 20
-1.341089545355903
 30
0.0
 10
8.065485297309028
 20
-1.01173841688368
 30
0.0
 10
8.115094672309027
 20
-0.7133931477864582
 30
0.0
 10
8.138521321614583
 20
-0.5740390353732638
 30
0.0
 10
8.190197753906249
 20
-0.4350294325086805
 30
0.0
 10
8.208112250434027
 20
-0.2901631673177083
 30
0.0
 10
8.222926161024304
 20
-0.1482252332899305
 30
0.0
 10
8.189508734809028
 20
-0.011627197265625
 30
0.0
 10
8.207078721788193
 20
0.1361673990885416
 30
0.0
 10
8.22740478515625
 20
0.2924024793836805
 30
0.0
 10
8.501978895399304
 20
0.6667121039496527
 30
0.0
 10
8.551932779947915
 20
0.3423563639322916
 30
0.0
 10
8.627035861545139
 20
-0.1099846733940972
 30
0.0
 10
8.462704806857639
 20
-0.603839111328125
 30
0.0
 10
8.403449164496527
 20
-1.047050645616319
 30
0.0
 10
8.374510362413194
 20
-1.263058132595486
 30
0.0
 10
8.373476833767361
 20
-1.484750027126736
 30
0.0
 10
8.346949598524304
 20
-1.697829182942708
 30
0.0
 10
8.323178439670139
 20
-1.888342963324653
 30
0.0
 10
8.282870822482638
 20
-2.064559597439236
 30
0.0
 10
8.290105523003472
 20
-2.263341606987847
 30
0.0
 10
8.297340223524305
 20
-2.587697347005208
 30
0.0
 10
8.283904351128472
 20
-3.014027913411458
 30
0.0
 10
8.109238009982638
 20
-3.280333794487847
 30
0.0
  0
SPLINE
  5
F3
330
29
100
AcDbEntity
  8
LAYER_1
 62
     7
100
AcDbSpline
210
0.0
220
0.0
230
1.0
 70
     8
 71
     3
 72
    11
 73
     7
 74
     0
 42
0.000000001
 43
0.00000001
 40
0.0
 40
0.0
 40
0.0
 40
0.0
 40
1.0
 40
1.0
 40
1.0
 40
2.0
 40
2.0
 40
2.0
 40
2.0
 10
7.782987467447916
 20
-3.262074788411458
 30
0.0
 10
7.674466959635416
 20
-3.273099093967013
 30
0.0
 10
7.242796495225694
 20
-3.17749769422743
 30
0.0
 10
7.31893310546875
 20
-3.425372314453125
 30
0.0
 10
7.385767957899305
 20
-3.630355495876736
 30
0.0
 10
7.809514702690971
 20
-3.569032796223958
 30
0.0
 10
7.960065375434027
 20
-3.638106960720486
 30
0.0
  0
SPLINE
  5
F2
330
29
100
AcDbEntity
  8
LAYER_1
 62
     7
100
AcDbSpline
210
0.0
220
0.0
230
1.0
 70
     8
 71
     3
 72
    29
 73
    25
 74
     0
 42
0.000000001
 43
0.00000001
 40
0.0
 40
0.0
 40
0.0
 40
0.0
 40
1.0
 40
1.0
 40
1.0
 40
2.0
 40
2.0
 40
2.0
 40
3.0
 40
3.0
 40
3.0
 40
4.0
 40
4.0
 40
4.0
 40
5.0
 40
5.0
 40
5.0
 40
6.0
 40
6.0
 40
6.0
 40
7.0
 40
7.0
 40
7.0
 40
8.0
 40
8.0
 40
8.0
 40
8.0
 10
7.75646023220486
 20
-6.699074300130207
 30
0.0
 10
7.736823187934027
 20
-6.593654378255208
 30
0.0
 10
7.674466959635416
 20
-6.562304009331597
 30
0.0
 10
7.62623562282986
 20
-6.47962171766493
 30
0.0
 10
7.589717610677083
 20
-6.413992648654514
 30
0.0
 10
7.590406629774304
 20
-6.28583509657118
 30
0.0
 10
7.602119954427082
 20
-6.212282307942708
 30
0.0
 10
7.619345431857639
 20
-6.115819634331596
 30
0.0
 10
7.648284233940972
 20
-6.030553521050346
 30
0.0
 10
7.665854220920139
 20
-5.930990261501735
 30
0.0
 10
7.680668131510416
 20
-5.840039740668402
 30
0.0
 10
7.683768717447916
 20
-5.74633314344618
 30
0.0
 10
7.707195366753472
 20
-5.658310953776041
 30
0.0
 10
7.764728461371528
 20
-5.445059543185764
 30
0.0
 10
7.788499620225694
 20
-5.263330756293402
 30
0.0
 10
7.783676486545138
 20
-5.041811116536458
 30
0.0
 10
7.778853352864583
 20
-4.859910074869791
 30
0.0
 10
7.825017632378471
 20
-4.675252956814235
 30
0.0
 10
7.845688205295138
 20
-4.496452501085069
 30
0.0
 10
7.862913682725694
 20
-4.342801242404514
 30
0.0
 10
7.866703287760416
 20
-4.186393907335069
 30
0.0
 10
7.899087185329861
 20
-4.041699896918402
 30
0.0
 10
7.930437554253471
 20
-3.907857937282986
 30
0.0
 10
8.070997450086805
 20
-3.621398247612847
 30
0.0
 10
7.854989963107638
 20
-3.597799343532986
 30
0.0
  0
SPLINE
  5
F1
330
29
100
AcDbEntity
  8
LAYER_1
 62
     7
100
AcDbSpline
210
0.0
220
0.0
230
1.0
 70
     8
 71
     3
 72
    17
 73
    13
 74
     0
 42
0.000000001
 43
0.00000001
 40
0.0
 40
0.0
 40
0.0
 40
0.0
 40
1.0
 40
1.0
 40
1.0
 40
2.0
 40
2.0
 40
2.0
 40
3.0
 40
3.0
 40
3.0
 40
4.0
 40
4.0
 40
4.0
 40
4.0
 10
7.584205457899305
 20
-3.818629964192708
 30
0.0
 10
7.556300184461805
 20
-3.727507188585069
 30
0.0
 10
7.297918023003471
 20
-3.56197035047743
 30
0.0
 10
7.201110839843749
 20
-3.660500081380208
 30
0.0
 10
7.137721082899305
 20
-3.731296793619791
 30
0.0
 10
7.211790635850694
 20
-3.828448486328125
 30
0.0
 10
7.271390787760416
 20
-3.868411593967013
 30
0.0
 10
7.358896213107638
 20
-3.931456841362847
 30
0.0
 10
7.467072211371527
 20
-3.920432535807291
 30
0.0
 10
7.569391547309027
 20
-3.918020968967014
 30
0.0
 10
7.586617024739582
 20
-3.881158447265625
 30
0.0
 10
7.586617024739582
 20
-3.841367594401041
 30
0.0
 10
7.564568413628471
 20
-3.818457709418402
 30
0.0
  0
SPLINE
  5
F0
330
29
100
AcDbEntity
  8
LAYER_1
 62
     7
100
AcDbSpline
210
0.0
220
0.0
230
1.0
 70
     8
 71
     3
 72
    11
 73
     7
 74
     0
 42
0.000000001
 43
0.00000001
 40
0.0
 40
0.0
 40
0.0
 40
0.0
 40
1.0
 40
1.0
 40
1.0
 40
2.0
 40
2.0
 40
2.0
 40
2.0
 10
7.864291720920138
 20
-4.069777425130208
 30
0.0
 10
7.759216308593749
 20
-4.069605170355902
 30
0.0
 10
7.455358886718749
 20
-3.977276611328125
 30
0.0
 10
7.429520670572916
 20
-4.079595947265624
 30
0.0
 10
7.400926378038194
 20
-4.184671359592014
 30
0.0
 10
7.772996690538194
 20
-4.234280734592014
 30
0.0
 10
7.837764485677083
 20
-4.257190619574653
 30
0.0
  0
SPLINE
  5
EF
330
29
100
AcDbEntity
  8
LAYER_1
 62
     7
100
AcDbSpline
210
0.0
220
0.0
230
1.0
 70
     8
 71
     3
 72
    11
 73
     7
 74
     0
 42
0.000000001
 43
0.00000001
 40
0.0
 40
0.0
 40
0.0
 40
0.0
 40
1.0
 40
1.0
 40
1.0
 40
2.0
 40
2.0
 40
2.0
 40
2.0
 10
7.829151746961805
 20
-4.285612657335069
 30
0.0
 10
7.681357150607639
 20
-4.296636962890624
 30
0.0
 10
7.023343912760416
 20
-3.998291693793402
 30
0.0
 10
6.985103352864583
 20
-4.316618516710069
 30
0.0
 10
6.958231608072916
 20
-4.555191379123263
 30
0.0
 10
7.632092285156249
 20
-4.523841010199653
 30
0.0
 10
7.774030219184027
 20
-4.615308295355902
 30
0.0
  0
SPLINE
  5
EE
330
29
100
AcDbEntity
  8
LAYER_1
 62
     7
100
AcDbSpline
210
0.0
220
0.0
230
1.0
 70
     8
 71
     3
 72
    14
 73
    10
 74
     0
 42
0.000000001
 43
0.00000001
 40
0.0
 40
0.0
 40
0.0
 40
0.0
 40
1.0
 40
1.0
 40
1.0
 40
2.0
 40
2.0
 40
2.0
 40
3.0
 40
3.0
 40
3.0
 40
3.0
 10
7.738545735677083
 20
-4.899528672960069
 30
0.0
 10
7.656207953559028
 20
-4.870762125651042
 30
0.0
 10
7.602808973524305
 20
-4.807889133029513
 30
0.0
 10
7.514959038628471
 20
-4.796175808376736
 30
0.0
 10
7.431932237413194
 20
-4.787390814887153
 30
0.0
 10
7.349594455295138
 20
-4.806855604383681
 30
0.0
 10
7.267256673177083
 20
-4.783945719401041
 30
0.0
 10
7.162181260850693
 20
-4.760863579644097
 30
0.0
 10
6.892774793836805
 20
-4.634600830078124
 30
0.0
 10
7.013008626302082
 20
-4.493179660373263
 30
0.0
  0
SPLINE
  5
ED
330
29
100
AcDbEntity
  8
LAYER_1
 62
     7
100
AcDbSpline
210
0.0
220
0.0
230
1.0
 70
     8
 71
     3
 72
    38
 73
    34
 74
     0
 42
0.000000001
 43
0.00000001
 40
0.0
 40
0.0
 40
0.0
 40
0.0
 40
1.0
 40
1.0
 40
1.0
 40
2.0
 40
2.0
 40
2.0
 40
3.0
 40
3.0
 40
3.0
 40
4.0
 40
4.0
 40
4.0
 40
5.0
 40
5.0
 40
5.0
 40
6.0
 40
6.0
 40
6.0
 40
7.0
 40
7.0
 40
7.0
 40
8.0
 40
8.0
 40
8.0
 40
9.0
 40
9.0
 40
9.0
 40
10.0
 40
10.0
 40
10.0
 40
11.0
 40
11.0
 40
11.0
 40
11.0
 10
7.730966525607638
 20
-6.658766682942708
 30
0.0
 10
7.753704155815972
 20
-6.753162299262153
 30
0.0
 10
7.72200927734375
 20
-6.832227240668402
 30
0.0
 10
7.704094780815971
 20
-6.923177761501735
 30
0.0
 10
7.686869303385416
 20
-7.031353759765624
 30
0.0
 10
7.686180284288194
 20
-7.145041910807291
 30
0.0
 10
7.674466959635416
 20
-7.253217909071179
 30
0.0
 10
7.656207953559028
 20
-7.448899332682291
 30
0.0
 10
7.63243679470486
 20
-7.633900960286458
 30
0.0
 10
7.606254069010416
 20
-7.826998562282985
 30
0.0
 10
7.58282741970486
 20
-8.025952826605902
 30
0.0
 10
7.528050401475694
 20
-8.216466606987847
 30
0.0
 10
7.507035319010416
 20
-8.412320285373264
 30
0.0
 10
7.483608669704861
 20
-8.599733479817708
 30
0.0
 10
7.505657280815972
 20
-8.784735107421874
 30
0.0
 10
7.453636338975694
 20
-8.966463894314236
 30
0.0
 10
7.418840874565972
 20
-9.063098822699653
 30
0.0
 10
7.292750379774305
 20
-9.383492702907985
 30
0.0
 10
7.133586968315972
 20
-9.246377902560763
 30
0.0
 10
7.000606282552083
 20
-9.121148681640625
 30
0.0
 10
7.192842610677083
 20
-8.769059922960068
 30
0.0
 10
7.207656521267361
 20
-8.644175211588541
 30
0.0
 10
7.222814941406249
 20
-8.467958577473958
 30
0.0
 10
7.223503960503471
 20
-8.297598605685764
 30
0.0
 10
7.235561794704861
 20
-8.115697564019097
 30
0.0
 10
7.253476291232638
 20
-7.930868191189235
 30
0.0
 10
7.322722710503472
 20
-7.763092041015624
 30
0.0
 10
7.337536621093749
 20
-7.570166693793402
 30
0.0
 10
7.349594455295138
 20
-7.399462212456597
 30
0.0
 10
7.344771321614583
 20
-7.192067464192708
 30
0.0
 10
7.405060492621527
 20
-7.030147976345486
 30
0.0
 10
7.448468695746527
 20
-6.919560411241319
 30
0.0
 10
7.546653917100694
 20
-6.581252034505208
 30
0.0
 10
7.71925320095486
 20
-6.68736097547743
 30
0.0
  0
SPLINE
  5
EC
330
29
100
AcDbEntity
  8
LAYER_1
 62
     7
100
AcDbSpline
210
0.0
220
0.0
230
1.0
 70
     8
 71
     3
 72
     8
 73
     4
 74
     0
 42
0.000000001
 43
0.00000001
 40
0.0
 40
0.0
 40
0.0
 40
0.0
 40
1.0
 40
1.0
 40
1.0
 40
1.0
 10
7.041258409288194
 20
-4.444431559244792
 30
0.0
 10
7.020932345920138
 20
-4.476126437717014
 30
0.0
 10
6.998194715711805
 20
-4.504031711154513
 30
0.0
 10
6.98131374782986
 20
-4.532626003689236
 30
0.0
  0
SPLINE
  5
EB
330
29
100
AcDbEntity
  8
LAYER_1
 62
     7
100
AcDbSpline
210
0.0
220
0.0
230
1.0
 70
     8
 71
     3
 72
    26
 73
    22
 74
     0
 42
0.000000001
 43
0.00000001
 40
0.0
 40
0.0
 40
0.0
 40
0.0
 40
1.0
 40
1.0
 40
1.0
 40
2.0
 40
2.0
 40
2.0
 40
3.0
 40
3.0
 40
3.0
 40
4.0
 40
4.0
 40
4.0
 40
5.0
 40
5.0
 40
5.0
 40
6.0
 40
6.0
 40
6.0
 40
7.0
 40
7.0
 40
7.0
 40
7.0
 10
7.127385796440971
 20
-10.07113376193576
 30
0.0
 10
7.144611273871528
 20
-9.965713840060763
 30
0.0
 10
7.317555067274305
 20
-9.52594740125868
 30
0.0
 10
7.16390380859375
 20
-9.454117160373263
 30
0.0
 10
6.999917263454861
 20
-9.376602511935763
 30
0.0
 10
6.923436143663194
 20
-9.925406222873264
 30
0.0
 10
6.900009494357638
 20
-10.01894056532118
 30
0.0
 10
6.836619737413193
 20
-10.29747653537326
 30
0.0
 10
6.769440375434027
 20
-10.58100789388021
 30
0.0
 10
6.711907280815971
 20
-10.8597161187066
 30
0.0
 10
6.674011230468749
 20
-11.03007609049479
 30
0.0
 10
6.584094238281249
 20
-11.39370591905382
 30
0.0
 10
6.79183349609375
 20
-11.4798333062066
 30
0.0
 10
7.137376573350694
 20
-11.62314927842882
 30
0.0
 10
7.038157823350693
 20
-11.01422865125868
 30
0.0
 10
7.041602918836805
 20
-10.84972534179687
 30
0.0
 10
7.048148600260416
 20
-10.69590182834201
 30
0.0
 10
7.046081542968749
 20
-10.54242282443576
 30
0.0
 10
7.069508192274305
 20
-10.38928833007812
 30
0.0
 10
7.081221516927083
 20
-10.29265340169271
 30
0.0
 10
7.081910536024305
 20
-10.09903903537326
 30
0.0
 10
7.138754611545139
 20
-10.01997409396701
 30
0.0
  0
SPLINE
  5
EA
330
29
100
AcDbEntity
  8
LAYER_1
 62
     7
100
AcDbSpline
210
0.0
220
0.0
230
1.0
 70
     8
 71
     3
 72
    23
 73
    19
 74
     0
 42
0.000000001
 43
0.00000001
 40
0.0
 40
0.0
 40
0.0
 40
0.0
 40
1.0
 40
1.0
 40
1.0
 40
2.0
 40
2.0
 40
2.0
 40
3.0
 40
3.0
 40
3.0
 40
4.0
 40
4.0
 40
4.0
 40
5.0
 40
5.0
 40
5.0
 40
6.0
 40
6.0
 40
6.0
 40
6.0
 10
6.878649902343749
 20
-12.34989217122396
 30
0.0
 10
6.88519558376736
 20
-12.15093790690104
 30
0.0
 10
6.945829264322916
 20
-11.90082397460937
 30
0.0
 10
6.915512424045138
 20
-11.69911363389757
 30
0.0
 10
6.877271864149305
 20
-11.3776862250434
 30
0.0
 10
6.675733778211805
 20
-11.93131306966146
 30
0.0
 10
6.649895562065971
 20
-12.02519192165799
 30
0.0
 10
6.589261881510416
 20
-12.25239596896701
 30
0.0
 10
6.565146213107639
 20
-12.53627183702257
 30
0.0
 10
6.564112684461805
 20
-12.76950480143229
 30
0.0
 10
6.563423665364582
 20
-12.89473402235243
 30
0.0
 10
6.616822645399305
 20
-13.07112291124132
 30
0.0
 10
6.759449598524305
 20
-12.92677341037326
 30
0.0
 10
6.85384521484375
 20
-12.83892347547743
 30
0.0
 10
6.829040527343749
 20
-12.66804673936632
 30
0.0
 10
6.849366590711805
 20
-12.54901869032118
 30
0.0
 10
6.864180501302083
 20
-12.4690924750434
 30
0.0
 10
6.895530870225694
 20
-12.39553968641493
 30
0.0
 10
6.867970106336805
 20
-12.32405395507812
 30
0.0
  0
SPLINE
  5
E9
330
29
100
AcDbEntity
  8
LAYER_1
 62
     7
100
AcDbSpline
210
0.0
220
0.0
230
1.0
 70
     8
 71
     3
 72
    11
 73
     7
 74
     0
 42
0.000000001
 43
0.00000001
 40
0.0
 40
0.0
 40
0.0
 40
0.0
 40
1.0
 40
1.0
 40
1.0
 40
2.0
 40
2.0
 40
2.0
 40
2.0
 10
6.564457194010416
 20
-12.74108276367187
 30
0.0
 10
6.479363335503471
 20
-12.6611565483941
 30
0.0
 10
6.038735622829861
 20
-12.55143025716146
 30
0.0
 10
5.956397840711805
 20
-12.66167331271701
 30
0.0
 10
5.798956976996528
 20
-12.86338365342882
 30
0.0
 10
6.449391004774305
 20
-12.94813300238715
 30
0.0
 10
6.600286187065971
 20
-12.95433417426215
 30
0.0
  0
SPLINE
  5
E8
330
29
100
AcDbEntity
  8
LAYER_1
 62
     7
100
AcDbSpline
210
0.0
220
0.0
230
1.0
 70
     8
 71
     3
 72
    14
 73
    10
 74
     0
 42
0.000000001
 43
0.00000001
 40
0.0
 40
0.0
 40
0.0
 40
0.0
 40
1.0
 40
1.0
 40
1.0
 40
2.0
 40
2.0
 40
2.0
 40
3.0
 40
3.0
 40
3.0
 40
3.0
 10
5.538852267795138
 20
-12.60035061306423
 30
0.0
 10
5.453413899739583
 20
-12.55470309787326
 30
0.0
 10
4.846388075086805
 20
-12.30217759874132
 30
0.0
 10
5.010030110677083
 20
-12.59277140299479
 30
0.0
 10
5.111315917968749
 20
-12.7696770562066
 30
0.0
 10
5.523349338107638
 20
-12.83358357747396
 30
0.0
 10
5.705594889322916
 20
-12.78879733615451
 30
0.0
 10
5.714207628038194
 20
-12.71214396158854
 30
0.0
 10
5.572269694010416
 20
-12.65788370768229
 30
0.0
 10
5.527483452690972
 20
-12.60035061306423
 30
0.0
  0
SPLINE
  5
E7
330
29
100
AcDbEntity
  8
LAYER_1
 62
     7
100
AcDbSpline
210
0.0
220
0.0
230
1.0
 70
     8
 71
     3
 72
    20
 73
    16
 74
     0
 42
0.000000001
 43
0.00000001
 40
0.0
 40
0.0
 40
0.0
 40
0.0
 40
1.0
 40
1.0
 40
1.0
 40
2.0
 40
2.0
 40
2.0
 40
3.0
 40
3.0
 40
3.0
 40
4.0
 40
4.0
 40
4.0
 40
5.0
 40
5.0
 40
5.0
 40
5.0
 10
6.099024793836805
 20
-12.48890177408854
 30
0.0
 10
6.022543674045139
 20
-12.47770521375868
 30
0.0
 10
5.991537814670139
 20
-12.40329115125868
 30
0.0
 10
5.929181586371527
 20
-12.36901245117187
 30
0.0
 10
5.84959988064236
 20
-12.3202643500434
 30
0.0
 10
5.750381130642361
 20
-12.3171637641059
 30
0.0
 10
5.665287272135416
 20
-12.29976603190104
 30
0.0
 10
5.525760904947917
 20
-12.26514282226562
 30
0.0
 10
5.239128960503471
 20
-12.24722832573785
 30
0.0
 10
5.416895887586805
 20
-12.45496758355035
 30
0.0
 10
5.509913465711805
 20
-12.56658867730035
 30
0.0
 10
5.689058430989583
 20
-12.61292521158854
 30
0.0
 10
5.825484212239583
 20
-12.61878187391493
 30
0.0
 10
5.899553765190972
 20
-12.62481079101562
 30
0.0
 10
6.271624077690972
 20
-12.61516452365451
 30
0.0
 10
6.073531087239583
 20
-12.48890177408854
 30
0.0
  0
SPLINE
  5
E6
330
29
100
AcDbEntity
  8
LAYER_1
 62
     7
100
AcDbSpline
210
0.0
220
0.0
230
1.0
 70
     8
 71
     3
 72
    14
 73
    10
 74
     0
 42
0.000000001
 43
0.00000001
 40
0.0
 40
0.0
 40
0.0
 40
0.0
 40
1.0
 40
1.0
 40
1.0
 40
2.0
 40
2.0
 40
2.0
 40
3.0
 40
3.0
 40
3.0
 40
3.0
 10
6.833863661024305
 20
-11.53116522894965
 30
0.0
 10
6.722931586371527
 20
-11.5079108344184
 30
0.0
 10
6.646794976128471
 20
-11.43074069552951
 30
0.0
 10
6.527250162760416
 20
-11.41885511610243
 30
0.0
 10
6.428031412760416
 20
-11.40438571506076
 30
0.0
 10
6.285404459635416
 20
-11.42074991861979
 30
0.0
 10
6.192386881510416
 20
-11.38664347330729
 30
0.0
 10
6.085933430989583
 20
-11.55648668077257
 30
0.0
 10
6.643005371093749
 20
-11.66965806749132
 30
0.0
 10
6.750492350260416
 20
-11.69859686957465
 30
0.0
  0
SPLINE
  5
E5
330
29
100
AcDbEntity
  8
LAYER_1
 62
     7
100
AcDbSpline
210
0.0
220
0.0
230
1.0
 70
     8
 71
     3
 72
    11
 73
     7
 74
     0
 42
0.000000001
 43
0.00000001
 40
0.0
 40
0.0
 40
0.0
 40
0.0
 40
1.0
 40
1.0
 40
1.0
 40
2.0
 40
2.0
 40
2.0
 40
2.0
 10
6.724998643663194
 20
-11.7466559516059
 30
0.0
 10
6.585816786024305
 20
-11.74613918728299
 30
0.0
 10
6.191353352864582
 20
-11.61401977539062
 30
0.0
 10
6.09420166015625
 20
-11.74992879231771
 30
0.0
 10
5.956742350260416
 20
-11.93975355360243
 30
0.0
 10
6.507268608940971
 20
-12.07015041775174
 30
0.0
 10
6.616133626302083
 20
-12.03053181966146
 30
0.0
  0
SPLINE
  5
E4
330
29
100
AcDbEntity
  8
LAYER_1
 62
     7
100
AcDbSpline
210
0.0
220
0.0
230
1.0
 70
     8
 71
     3
 72
    11
 73
     7
 74
     0
 42
0.000000001
 43
0.00000001
 40
0.0
 40
0.0
 40
0.0
 40
0.0
 40
1.0
 40
1.0
 40
1.0
 40
2.0
 40
2.0
 40
2.0
 40
2.0
 10
6.627157931857639
 20
-12.03053181966146
 30
0.0
 10
6.473162163628472
 20
-12.08117472330729
 30
0.0
 10
6.220636664496527
 20
-11.94939982096354
 30
0.0
 10
6.097991265190972
 20
-12.10218980577257
 30
0.0
 10
5.918157280815971
 20
-12.32353719075521
 30
0.0
 10
6.443534342447916
 20
-12.37107950846354
 30
0.0
 10
6.572036404079861
 20
-12.31475219726562
 30
0.0
  0
SPLINE
  5
E3
330
29
100
AcDbEntity
  8
LAYER_1
 62
     7
100
AcDbSpline
210
0.0
220
0.0
230
1.0
 70
     8
 71
     3
 72
    11
 73
     7
 74
     0
 42
0.000000001
 43
0.00000001
 40
0.0
 40
0.0
 40
0.0
 40
0.0
 40
1.0
 40
1.0
 40
1.0
 40
2.0
 40
2.0
 40
2.0
 40
2.0
 10
6.543442111545138
 20
-12.32594875759549
 30
0.0
 10
6.446979437934028
 20
-12.30286661783854
 30
0.0
 10
6.031500922309027
 20
-12.2611809624566
 30
0.0
 10
6.022888183593749
 20
-12.40363566080729
 30
0.0
 10
6.016342502170138
 20
-12.56848347981771
 30
0.0
 10
6.416662597656249
 20
-12.69474622938368
 30
0.0
 10
6.522427029079861
 20
-12.61016913519965
 30
0.0
  0
SPLINE
  5
E2
330
29
100
AcDbEntity
  8
LAYER_1
 62
     7
100
AcDbSpline
210
0.0
220
0.0
230
1.0
 70
     8
 71
     3
 72
    11
 73
     7
 74
     0
 42
0.000000001
 43
0.00000001
 40
0.0
 40
0.0
 40
0.0
 40
0.0
 40
1.0
 40
1.0
 40
1.0
 40
2.0
 40
2.0
 40
2.0
 40
2.0
 10
6.029433865017361
 20
-12.14749281141493
 30
0.0
 10
5.844776746961805
 20
-12.12992282443576
 30
0.0
 10
5.645994737413194
 20
-12.0040045844184
 30
0.0
 10
5.46168212890625
 20
-12.02054104275173
 30
0.0
 10
5.179873318142361
 20
-12.04241739908854
 30
0.0
 10
5.491654459635416
 20
-12.28512437608507
 30
0.0
 10
5.639449055989583
 20
-12.28254055447048
 30
0.0
  0
SPLINE
  5
E1
330
29
100
AcDbEntity
  8
LAYER_1
 62
     7
100
AcDbSpline
210
0.0
220
0.0
230
1.0
 70
     8
 71
     3
 72
    11
 73
     7
 74
     0
 42
0.000000001
 43
0.00000001
 40
0.0
 40
0.0
 40
0.0
 40
0.0
 40
1.0
 40
1.0
 40
1.0
 40
2.0
 40
2.0
 40
2.0
 40
2.0
 10
6.065262858072916
 20
-11.7497565375434
 30
0.0
 10
5.98602566189236
 20
-11.76078084309896
 30
0.0
 10
5.624979654947916
 20
-11.67138061523437
 30
0.0
 10
5.654262966579861
 20
-11.53202650282118
 30
0.0
 10
5.674244520399305
 20
-11.4271233452691
 30
0.0
 10
6.091790093315971
 20
-11.49413045247396
 30
0.0
 10
6.17171630859375
 20
-11.49430270724826
 30
0.0
  0
SPLINE
  5
E0
330
29
100
AcDbEntity
  8
LAYER_1
 62
     7
100
AcDbSpline
210
0.0
220
0.0
230
1.0
 70
     8
 71
     3
 72
    11
 73
     7
 74
     0
 42
0.000000001
 43
0.00000001
 40
0.0
 40
0.0
 40
0.0
 40
0.0
 40
1.0
 40
1.0
 40
1.0
 40
2.0
 40
2.0
 40
2.0
 40
2.0
 10
6.05079345703125
 20
-11.79798787434896
 30
0.0
 10
5.942961968315972
 20
-11.80608384874132
 30
0.0
 10
5.465816243489583
 20
-11.65088229709201
 30
0.0
 10
5.493721516927083
 20
-11.8613776312934
 30
0.0
 10
5.518526204427083
 20
-12.0319098578559
 30
0.0
 10
5.898864746093749
 20
-12.05602552625868
 30
0.0
 10
6.015308973524305
 20
-12.11924302842882
 30
0.0
  0
SPLINE
  5
DF
330
29
100
AcDbEntity
  8
LAYER_1
 62
     7
100
AcDbSpline
210
0.0
220
0.0
230
1.0
 70
     8
 71
     3
 72
    11
 73
     7
 74
     0
 42
0.000000001
 43
0.00000001
 40
0.0
 40
0.0
 40
0.0
 40
0.0
 40
1.0
 40
1.0
 40
1.0
 40
2.0
 40
2.0
 40
2.0
 40
2.0
 10
6.976146104600693
 20
-9.57555677625868
 30
0.0
 10
6.836964246961805
 20
-9.566599527994791
 30
0.0
 10
6.541719563802083
 20
-9.432068549262151
 30
0.0
 10
6.427686903211805
 20
-9.554024929470485
 30
0.0
 10
6.235795084635416
 20
-9.760386149088541
 30
0.0
 10
6.832830132378471
 20
-9.836695014105901
 30
0.0
 10
6.957887098524305
 20
-9.837211778428818
 30
0.0
  0
SPLINE
  5
DE
330
29
100
AcDbEntity
  8
LAYER_1
 62
     7
100
AcDbSpline
210
0.0
220
0.0
230
1.0
 70
     8
 71
     3
 72
    11
 73
     7
 74
     0
 42
0.000000001
 43
0.00000001
 40
0.0
 40
0.0
 40
0.0
 40
0.0
 40
1.0
 40
1.0
 40
1.0
 40
2.0
 40
2.0
 40
2.0
 40
2.0
 10
6.881405978732638
 20
-9.82549845377604
 30
0.0
 10
6.80733642578125
 20
-9.825326199001735
 30
0.0
 10
6.528972710503472
 20
-9.773133002387151
 30
0.0
 10
6.499689398871527
 20
-9.874935574001736
 30
0.0
 10
6.462482367621528
 20
-10.00033704969618
 30
0.0
 10
6.769095865885416
 20
-10.08922051323785
 30
0.0
 10
6.843509928385416
 20
-10.05287475585937
 30
0.0
  0
SPLINE
  5
DD
330
29
100
AcDbEntity
  8
LAYER_1
 62
     7
100
AcDbSpline
210
0.0
220
0.0
230
1.0
 70
     8
 71
     3
 72
    11
 73
     7
 74
     0
 42
0.000000001
 43
0.00000001
 40
0.0
 40
0.0
 40
0.0
 40
0.0
 40
1.0
 40
1.0
 40
1.0
 40
2.0
 40
2.0
 40
2.0
 40
2.0
 10
6.809403483072916
 20
-10.0754401312934
 30
0.0
 10
6.720864529079861
 20
-10.06958346896701
 30
0.0
 10
6.28058132595486
 20
-9.942459445529513
 30
0.0
 10
6.240273708767361
 20
-10.02772555881076
 30
0.0
 10
6.166204155815971
 20
-10.18947279188368
 30
0.0
 10
6.77943115234375
 20
-10.23994344075521
 30
0.0
 10
6.851089138454861
 20
-10.24028795030382
 30
0.0
  0
SPLINE
  5
DC
330
29
100
AcDbEntity
  8
LAYER_1
 62
     7
100
AcDbSpline
210
0.0
220
0.0
230
1.0
 70
     8
 71
     3
 72
    11
 73
     7
 74
     0
 42
0.000000001
 43
0.00000001
 40
0.0
 40
0.0
 40
0.0
 40
0.0
 40
1.0
 40
1.0
 40
1.0
 40
2.0
 40
2.0
 40
2.0
 40
2.0
 10
6.793900553385416
 20
-10.2800788031684
 30
0.0
 10
6.688480631510416
 20
-10.27956203884549
 30
0.0
 10
6.209267849392361
 20
-10.13572930230035
 30
0.0
 10
6.148978678385416
 20
-10.22065090603298
 30
0.0
 10
6.071464029947916
 20
-10.33675062391493
 30
0.0
 10
6.656096733940972
 20
-10.53518812391493
 30
0.0
 10
6.73292236328125
 20
-10.57549574110243
 30
0.0
  0
SPLINE
  5
DB
330
29
100
AcDbEntity
  8
LAYER_1
 62
     7
100
AcDbSpline
210
0.0
220
0.0
230
1.0
 70
     8
 71
     3
 72
    11
 73
     7
 74
     0
 42
0.000000001
 43
0.00000001
 40
0.0
 40
0.0
 40
0.0
 40
0.0
 40
1.0
 40
1.0
 40
1.0
 40
2.0
 40
2.0
 40
2.0
 40
2.0
 10
6.724309624565971
 20
-10.56412692599826
 30
0.0
 10
6.605109320746527
 20
-10.56963907877604
 30
0.0
 10
6.213746473524305
 20
-10.36879001193576
 30
0.0
 10
6.178606499565972
 20
-10.57325642903646
 30
0.0
 10
6.157935926649305
 20
-10.72105102539062
 30
0.0
 10
6.561356608072916
 20
-10.78512980143229
 30
0.0
 10
6.675044759114583
 20
-10.7915032280816
 30
0.0
  0
SPLINE
  5
DA
330
29
100
AcDbEntity
  8
LAYER_1
 62
     7
100
AcDbSpline
210
0.0
220
0.0
230
1.0
 70
     8
 71
     3
 72
    11
 73
     7
 74
     0
 42
0.000000001
 43
0.00000001
 40
0.0
 40
0.0
 40
0.0
 40
0.0
 40
1.0
 40
1.0
 40
1.0
 40
2.0
 40
2.0
 40
2.0
 40
2.0
 10
6.671944173177082
 20
-10.83387790256076
 30
0.0
 10
6.609587944878472
 20
-10.81372409396701
 30
0.0
 10
6.356373426649305
 20
-10.80425008138021
 30
0.0
 10
6.310553656684027
 20
-10.88676011827257
 30
0.0
 10
6.247508409288194
 20
-11.0056159125434
 30
0.0
 10
6.548609754774305
 20
-11.06952243381076
 30
0.0
 10
6.625435384114582
 20
-11.11534220377604
 30
0.0
  0
SPLINE
  5
D9
330
29
100
AcDbEntity
  8
LAYER_1
 62
     7
100
AcDbSpline
210
0.0
220
0.0
230
1.0
 70
     8
 71
     3
 72
    11
 73
     7
 74
     0
 42
0.000000001
 43
0.00000001
 40
0.0
 40
0.0
 40
0.0
 40
0.0
 40
1.0
 40
1.0
 40
1.0
 40
2.0
 40
2.0
 40
2.0
 40
2.0
 10
6.622679307725694
 20
-11.15513305664062
 30
0.0
 10
6.556877983940971
 20
-11.14324747721354
 30
0.0
 10
6.474540201822916
 20
-11.1203375922309
 30
0.0
 10
6.479707845052083
 20
-11.20835978190104
 30
0.0
 10
6.48521999782986
 20
-11.30241088867187
 30
0.0
 10
6.629914008246527
 20
-11.30826755099826
 30
0.0
 10
6.698126898871527
 20
-11.31429646809896
 30
0.0
  0
SPLINE
  5
D8
330
29
100
AcDbEntity
  8
LAYER_1
 62
     7
100
AcDbSpline
210
0.0
220
0.0
230
1.0
 70
     8
 71
     3
 72
    26
 73
    22
 74
     0
 42
0.000000001
 43
0.00000001
 40
0.0
 40
0.0
 40
0.0
 40
0.0
 40
1.0
 40
1.0
 40
1.0
 40
2.0
 40
2.0
 40
2.0
 40
3.0
 40
3.0
 40
3.0
 40
4.0
 40
4.0
 40
4.0
 40
5.0
 40
5.0
 40
5.0
 40
6.0
 40
6.0
 40
6.0
 40
7.0
 40
7.0
 40
7.0
 40
7.0
 10
7.016109212239583
 20
-9.564532470703124
 30
0.0
 10
6.91620144314236
 20
-9.524569363064236
 30
0.0
 10
6.800101725260416
 20
-9.58640882703993
 30
0.0
 10
6.702950032552082
 20
-9.54644571940104
 30
0.0
 10
6.627157931857639
 20
-9.517506917317707
 30
0.0
 10
6.556188964843749
 20
-9.446193440755208
 30
0.0
 10
6.501756456163194
 20
-9.391933186848958
 30
0.0
 10
6.417007107204861
 20
-9.317863633897568
 30
0.0
 10
6.351894802517361
 20
-9.266187201605902
 30
0.0
 10
6.488665093315972
 20
-9.238281928168401
 30
0.0
 10
6.608554416232638
 20
-9.221745469835069
 30
0.0
 10
6.76117214626736
 20
-9.262053087022569
 30
0.0
 10
6.875204806857639
 20
-9.279623074001735
 30
0.0
 10
6.759105088975693
 20
-9.22243448893229
 30
0.0
 10
6.412183973524305
 20
-9.164212375217014
 30
0.0
 10
6.379111056857639
 20
-8.993335639105903
 30
0.0
 10
6.353961859809028
 20
-8.879647488064235
 30
0.0
 10
6.557911512586805
 20
-8.94028116861979
 30
0.0
 10
6.635081651475693
 20
-8.957678900824652
 30
0.0
 10
6.773918999565971
 20
-8.989029269748263
 30
0.0
 10
6.893463812934027
 20
-9.018140326605902
 30
0.0
 10
7.038846842447916
 20
-9.018829345703125
 30
0.0
  0
SPLINE
  5
D7
330
29
100
AcDbEntity
  8
LAYER_1
 62
     7
100
AcDbSpline
210
0.0
220
0.0
230
1.0
 70
     8
 71
     3
 72
     8
 73
     4
 74
     0
 42
0.000000001
 43
0.00000001
 40
0.0
 40
0.0
 40
0.0
 40
0.0
 40
1.0
 40
1.0
 40
1.0
 40
1.0
 10
7.095001898871527
 20
-9.035882568359375
 30
0.0
 10
7.040913899739583
 20
-9.033126491970485
 30
0.0
 10
6.992682562934027
 20
-9.03295423719618
 30
0.0
 10
6.938594563802083
 20
-9.032781982421874
 30
0.0
  0
SPLINE
  5
D6
330
29
100
AcDbEntity
  8
LAYER_1
 62
     7
100
AcDbSpline
210
0.0
220
0.0
230
1.0
 70
     8
 71
     3
 72
    14
 73
    10
 74
     0
 42
0.000000001
 43
0.00000001
 40
0.0
 40
0.0
 40
0.0
 40
0.0
 40
1.0
 40
1.0
 40
1.0
 40
2.0
 40
2.0
 40
2.0
 40
3.0
 40
3.0
 40
3.0
 40
3.0
 10
7.726487901475694
 20
-5.081085205078124
 30
0.0
 10
7.527705891927083
 20
-5.077812364366319
 30
0.0
 10
7.311698404947916
 20
-5.091075981987847
 30
0.0
 10
7.126696777343749
 20
-5.027686225043403
 30
0.0
 10
7.056072319878472
 20
-4.99909193250868
 30
0.0
 10
6.956509060329861
 20
-4.944659423828124
 30
0.0
 10
7.002328830295138
 20
-4.851125081380208
 30
0.0
 10
7.037124294704861
 20
-4.760174560546875
 30
0.0
 10
7.170449490017361
 20
-4.789457872178819
 30
0.0
 10
7.253131781684028
 20
-4.789630126953124
 30
0.0
  0
SPLINE
  5
D5
330
29
100
AcDbEntity
  8
LAYER_1
 62
     7
100
AcDbSpline
210
0.0
220
0.0
230
1.0
 70
     8
 71
     3
 72
    14
 73
    10
 74
     0
 42
0.000000001
 43
0.00000001
 40
0.0
 40
0.0
 40
0.0
 40
0.0
 40
1.0
 40
1.0
 40
1.0
 40
2.0
 40
2.0
 40
2.0
 40
3.0
 40
3.0
 40
3.0
 40
3.0
 10
7.246241590711805
 20
-5.039571804470485
 30
0.0
 10
7.172172037760416
 20
-5.039227294921875
 30
0.0
 10
7.018865288628471
 20
-5.021829562717014
 30
0.0
 10
6.995438639322916
 20
-5.106751166449652
 30
0.0
 10
6.969600423177083
 20
-5.206142171223958
 30
0.0
 10
7.120151095920138
 20
-5.249550374348958
 30
0.0
 10
7.185263400607639
 20
-5.281072998046874
 30
0.0
 10
7.37818874782986
 20
-5.381153021918403
 30
0.0
 10
7.568702528211805
 20
-5.359104410807292
 30
0.0
 10
7.785399034288194
 20
-5.365822347005208
 30
0.0
  0
SPLINE
  5
D4
330
29
100
AcDbEntity
  8
LAYER_1
 62
     7
100
AcDbSpline
210
0.0
220
0.0
230
1.0
 70
     8
 71
     3
 72
    17
 73
    13
 74
     0
 42
0.000000001
 43
0.00000001
 40
0.0
 40
0.0
 40
0.0
 40
0.0
 40
1.0
 40
1.0
 40
1.0
 40
2.0
 40
2.0
 40
2.0
 40
3.0
 40
3.0
 40
3.0
 40
4.0
 40
4.0
 40
4.0
 40
4.0
 10
7.742679850260416
 20
-5.365650092230903
 30
0.0
 10
7.645183648003472
 20
-5.419565836588541
 30
0.0
 10
7.480852593315972
 20
-5.370300971137152
 30
0.0
 10
7.372676595052083
 20
-5.369784206814235
 30
0.0
 10
7.276213921440972
 20
-5.363927544487847
 30
0.0
 10
7.006118435329861
 20
-5.345668538411458
 30
0.0
 10
6.976835123697916
 20
-5.456600613064236
 30
0.0
 10
7.073642306857638
 20
-5.470897759331597
 30
0.0
 10
7.229705132378472
 20
-5.539799669053819
 30
0.0
 10
7.323756239149305
 20
-5.57425062391493
 30
0.0
 10
7.436755371093749
 20
-5.614730495876736
 30
0.0
 10
7.57042507595486
 20
-5.643669297960069
 30
0.0
 10
7.677912055121527
 20
-5.703786214192708
 30
0.0
  0
SPLINE
  5
D3
330
29
100
AcDbEntity
  8
LAYER_1
 62
     7
100
AcDbSpline
210
0.0
220
0.0
230
1.0
 70
     8
 71
     3
 72
    14
 73
    10
 74
     0
 42
0.000000001
 43
0.00000001
 40
0.0
 40
0.0
 40
0.0
 40
0.0
 40
1.0
 40
1.0
 40
1.0
 40
2.0
 40
2.0
 40
2.0
 40
3.0
 40
3.0
 40
3.0
 40
3.0
 10
7.677912055121527
 20
-5.723595513237846
 30
0.0
 10
7.518748643663193
 20
-5.745816379123263
 30
0.0
 10
7.401959906684027
 20
-5.745127360026041
 30
0.0
 10
7.246241590711805
 20
-5.727557373046874
 30
0.0
 10
7.149434407552083
 20
-5.715844048394096
 30
0.0
 10
6.816982693142361
 20
-5.67191908094618
 30
0.0
 10
6.773574490017361
 20
-5.805072021484374
 30
0.0
 10
6.727410210503471
 20
-5.95872328016493
 30
0.0
 10
7.512202962239583
 20
-5.995758056640624
 30
0.0
 10
7.605565049913194
 20
-6.07034437391493
 30
0.0
  0
SPLINE
  5
D2
330
29
100
AcDbEntity
  8
LAYER_1
 62
     7
100
AcDbSpline
210
0.0
220
0.0
230
1.0
 70
     8
 71
     3
 72
    14
 73
    10
 74
     0
 42
0.000000001
 43
0.00000001
 40
0.0
 40
0.0
 40
0.0
 40
0.0
 40
1.0
 40
1.0
 40
1.0
 40
2.0
 40
2.0
 40
2.0
 40
3.0
 40
3.0
 40
3.0
 40
3.0
 10
7.597296820746527
 20
-6.058458794487847
 30
0.0
 10
7.477752007378472
 20
-6.035376654730902
 30
0.0
 10
7.364063856336805
 20
-6.040716552734374
 30
0.0
 10
7.235906304253471
 20
-6.042955864800347
 30
0.0
 10
7.164937337239583
 20
-6.042783610026041
 30
0.0
 10
6.954786512586805
 20
-6.027625189887152
 30
0.0
 10
6.911722819010416
 20
-6.078612603081597
 30
0.0
 10
6.797690158420139
 20
-6.220550537109374
 30
0.0
 10
7.442612033420138
 20
-6.348019070095486
 30
0.0
 10
7.544931369357638
 20
-6.343023681640624
 30
0.0
  0
SPLINE
  5
D1
330
29
100
AcDbEntity
  8
LAYER_1
 62
     7
100
AcDbSpline
210
0.0
220
0.0
230
1.0
 70
     8
 71
     3
 72
    14
 73
    10
 74
     0
 42
0.000000001
 43
0.00000001
 40
0.0
 40
0.0
 40
0.0
 40
0.0
 40
1.0
 40
1.0
 40
1.0
 40
2.0
 40
2.0
 40
2.0
 40
3.0
 40
3.0
 40
3.0
 40
3.0
 10
7.575937228732638
 20
-6.343023681640624
 30
0.0
 10
7.450880262586804
 20
-6.342334662543403
 30
0.0
 10
7.323411729600694
 20
-6.336305745442708
 30
0.0
 10
7.19490966796875
 20
-6.335616726345486
 30
0.0
 10
7.126696777343749
 20
-6.332516140407986
 30
0.0
 10
6.874171278211805
 20
-6.289107937282986
 30
0.0
 10
6.825595431857638
 20
-6.345435248480902
 30
0.0
 10
6.693648274739583
 20
-6.527164035373263
 30
0.0
 10
7.558022732204861
 20
-6.547490098741319
 30
0.0
 10
7.637604437934027
 20
-6.573500569661458
 30
0.0
  0
SPLINE
  5
D0
330
29
100
AcDbEntity
  8
LAYER_1
 62
     7
100
AcDbSpline
210
0.0
220
0.0
230
1.0
 70
     8
 71
     3
 72
    23
 73
    19
 74
     0
 42
0.000000001
 43
0.00000001
 40
0.0
 40
0.0
 40
0.0
 40
0.0
 40
1.0
 40
1.0
 40
1.0
 40
2.0
 40
2.0
 40
2.0
 40
3.0
 40
3.0
 40
3.0
 40
4.0
 40
4.0
 40
4.0
 40
5.0
 40
5.0
 40
5.0
 40
6.0
 40
6.0
 40
6.0
 40
6.0
 10
7.192842610677083
 20
-8.757691107855901
 30
0.0
 10
7.025066460503472
 20
-8.757174343532986
 30
0.0
 10
6.869003634982638
 20
-8.722378879123264
 30
0.0
 10
6.703983561197916
 20
-8.70773722330729
 30
0.0
 10
6.664364963107638
 20
-8.707564968532985
 30
0.0
 10
6.596152072482639
 20
-8.695851643880207
 30
0.0
 10
6.576515028211805
 20
-8.727202012803819
 30
0.0
 10
6.556188964843749
 20
-8.755279541015625
 30
0.0
 10
6.570313856336805
 20
-8.80075480143229
 30
0.0
 10
6.587194824218749
 20
-8.823836941189235
 30
0.0
 10
6.635081651475693
 20
-8.892049831814235
 30
0.0
 10
6.720520019531249
 20
-8.923744710286458
 30
0.0
 10
6.794245062934027
 20
-8.946826850043403
 30
0.0
 10
6.842131890190972
 20
-8.964224582248264
 30
0.0
 10
6.88485107421875
 20
-8.989373779296875
 30
0.0
 10
6.929981825086805
 20
-8.995574951171875
 30
0.0
 10
6.993027072482638
 20
-9.007116021050347
 30
0.0
 10
7.061239963107639
 20
-9.00194837782118
 30
0.0
 10
7.118084038628472
 20
-9.024858262803818
 30
0.0
  0
SPLINE
  5
CF
330
29
100
AcDbEntity
  8
LAYER_1
 62
     7
100
AcDbSpline
210
0.0
220
0.0
230
1.0
 70
     8
 71
     3
 72
    41
 73
    37
 74
     0
 42
0.000000001
 43
0.00000001
 40
0.0
 40
0.0
 40
0.0
 40
0.0
 40
1.0
 40
1.0
 40
1.0
 40
2.0
 40
2.0
 40
2.0
 40
3.0
 40
3.0
 40
3.0
 40
4.0
 40
4.0
 40
4.0
 40
5.0
 40
5.0
 40
5.0
 40
6.0
 40
6.0
 40
6.0
 40
7.0
 40
7.0
 40
7.0
 40
8.0
 40
8.0
 40
8.0
 40
9.0
 40
9.0
 40
9.0
 40
10.0
 40
10.0
 40
10.0
 40
11.0
 40
11.0
 40
11.0
 40
12.0
 40
12.0
 40
12.0
 40
12.0
 10
7.188708496093749
 20
-8.422311062282985
 30
0.0
 10
7.058139377170138
 20
-8.42179429796007
 30
0.0
 10
6.929637315538193
 20
-8.39853990342882
 30
0.0
 10
6.831452094184027
 20
-8.321542019314235
 30
0.0
 10
6.791488986545138
 20
-8.29001939561632
 30
0.0
 10
6.731544325086805
 20
-8.267109510633679
 30
0.0
 10
6.706395128038194
 20
-8.221289740668402
 30
0.0
 10
6.666776529947916
 20
-8.155832926432291
 30
0.0
 10
6.672977701822916
 20
-8.033532036675346
 30
0.0
 10
6.76427273220486
 20
-8.016995578342014
 30
0.0
 10
6.835241699218749
 20
-8.01165568033854
 30
0.0
 10
6.920335557725694
 20
-8.040422227647568
 30
0.0
 10
6.988203938802083
 20
-8.051963297526042
 30
0.0
 10
7.039535861545138
 20
-8.057819959852429
 30
0.0
 10
7.099136013454861
 20
-8.069533284505207
 30
0.0
 10
7.144266764322916
 20
-8.09812757703993
 30
0.0
 10
7.047804090711805
 20
-8.120348442925346
 30
0.0
 10
6.96581081814236
 20
-8.051963297526042
 30
0.0
 10
6.877960883246527
 20
-8.023369004991318
 30
0.0
 10
6.803891330295138
 20
-8.000114610460068
 30
0.0
 10
6.707084147135416
 20
-8.005454508463542
 30
0.0
 10
6.648173014322916
 20
-7.951021999782985
 30
0.0
 10
6.610965983072916
 20
-7.919499376085069
 30
0.0
 10
6.574103461371527
 20
-7.868511962890624
 30
0.0
 10
6.548954264322916
 20
-7.823036702473957
 30
0.0
 10
6.525872124565971
 20
-7.788585747612847
 30
0.0
 10
6.515192328559027
 20
-7.754651557074652
 30
0.0
 10
6.537929958767361
 20
-7.720372856987846
 30
0.0
 10
6.580993652343749
 20
-7.641135660807291
 30
0.0
 10
6.726032172309028
 20
-7.678514946831597
 30
0.0
 10
6.794245062934027
 20
-7.681787787543402
 30
0.0
 10
6.896219889322916
 20
-7.687816704644097
 30
0.0
 10
7.001295301649305
 20
-7.702458360460069
 30
0.0
 10
7.100858561197916
 20
-7.728468831380208
 30
0.0
 10
7.149089898003472
 20
-7.739837646484374
 30
0.0
 10
7.205589463975694
 20
-7.774460856119791
 30
0.0
 10
7.259677463107638
 20
-7.768776448567707
 30
0.0
  0
SPLINE
  5
CE
330
29
100
AcDbEntity
  8
LAYER_1
 62
     7
100
AcDbSpline
210
0.0
220
0.0
230
1.0
 70
     8
 71
     3
 72
    26
 73
    22
 74
     0
 42
0.000000001
 43
0.00000001
 40
0.0
 40
0.0
 40
0.0
 40
0.0
 40
1.0
 40
1.0
 40
1.0
 40
2.0
 40
2.0
 40
2.0
 40
3.0
 40
3.0
 40
3.0
 40
4.0
 40
4.0
 40
4.0
 40
5.0
 40
5.0
 40
5.0
 40
6.0
 40
6.0
 40
6.0
 40
7.0
 40
7.0
 40
7.0
 40
7.0
 10
7.194565158420138
 20
-8.45934583875868
 30
0.0
 10
7.145989312065971
 20
-8.465030246310763
 30
0.0
 10
7.089489746093749
 20
-8.447632514105901
 30
0.0
 10
7.038157823350693
 20
-8.441948106553818
 30
0.0
 10
6.983725314670139
 20
-8.435746934678818
 30
0.0
 10
6.927225748697916
 20
-8.441603597005207
 30
0.0
 10
6.873137749565972
 20
-8.441259087456597
 30
0.0
 10
6.793556043836805
 20
-8.441086832682291
 30
0.0
 10
6.725343153211805
 20
-8.44074232313368
 30
0.0
 10
6.648862033420138
 20
-8.445909966362846
 30
0.0
 10
6.611655002170139
 20
-8.44573771158854
 30
0.0
 10
6.557567003038194
 20
-8.440053304036457
 30
0.0
 10
6.525872124565971
 20
-8.454178195529513
 30
0.0
 10
6.418040635850694
 20
-8.510333251953124
 30
0.0
 10
6.499689398871527
 20
-8.576134575737846
 30
0.0
 10
6.567902289496527
 20
-8.613341606987847
 30
0.0
 10
6.653685167100694
 20
-8.66208970811632
 30
0.0
 10
6.738434516059027
 20
-8.682243516710068
 30
0.0
 10
6.835241699218749
 20
-8.691373019748264
 30
0.0
 10
6.945484754774305
 20
-8.70274183485243
 30
0.0
 10
7.093279351128472
 20
-8.757518853081596
 30
0.0
 10
7.207312011718749
 20
-8.73529798719618
 30
0.0
  0
SPLINE
  5
CD
330
29
100
AcDbEntity
  8
LAYER_1
 62
     7
100
AcDbSpline
210
0.0
220
0.0
230
1.0
 70
     8
 71
     3
 72
    32
 73
    28
 74
     0
 42
0.000000001
 43
0.00000001
 40
0.0
 40
0.0
 40
0.0
 40
0.0
 40
1.0
 40
1.0
 40
1.0
 40
2.0
 40
2.0
 40
2.0
 40
3.0
 40
3.0
 40
3.0
 40
4.0
 40
4.0
 40
4.0
 40
5.0
 40
5.0
 40
5.0
 40
6.0
 40
6.0
 40
6.0
 40
7.0
 40
7.0
 40
7.0
 40
8.0
 40
8.0
 40
8.0
 40
9.0
 40
9.0
 40
9.0
 40
9.0
 10
7.719597710503471
 20
-6.587969970703124
 30
0.0
 10
7.674122450086805
 20
-6.610535346137152
 30
0.0
 10
7.594540744357638
 20
-6.590209282769097
 30
0.0
 10
7.543553331163194
 20
-6.584352620442708
 30
0.0
 10
7.492221408420138
 20
-6.575567626953124
 30
0.0
 10
7.438477918836805
 20
-6.572811550564236
 30
0.0
 10
7.387145996093749
 20
-6.566610378689235
 30
0.0
 10
7.245552571614582
 20
-6.551968722873263
 30
0.0
 10
7.103270128038194
 20
-6.539910888671875
 30
0.0
 10
6.961332194010416
 20
-6.545250786675346
 30
0.0
 10
6.929637315538193
 20
-6.545250786675346
 30
0.0
 10
6.84178738064236
 20
-6.54473402235243
 30
0.0
 10
6.818360731336805
 20
-6.578495958116319
 30
0.0
 10
6.790110948350693
 20
-6.62379896375868
 30
0.0
 10
6.872448730468749
 20
-6.678403727213541
 30
0.0
 10
6.909311252170138
 20
-6.695801459418402
 30
0.0
 10
6.96271023220486
 20
-6.727151828342013
 30
0.0
 10
7.011286078559027
 20
-6.772971598307291
 30
0.0
 10
7.065029568142361
 20
-6.801393636067708
 30
0.0
 10
7.113260904947916
 20
-6.82998792860243
 30
0.0
 10
7.175961642795138
 20
-6.830160183376735
 30
0.0
 10
7.223848470052083
 20
-6.864783393012152
 30
0.0
 10
7.243830023871527
 20
-6.875979953342013
 30
0.0
 10
7.266912163628471
 20
-6.898889838324652
 30
0.0
 10
7.286549207899305
 20
-6.919215901692708
 30
0.0
 10
7.308597819010416
 20
-6.936096869574652
 30
0.0
 10
7.326167805989583
 20
-6.958834499782985
 30
0.0
 10
7.357173665364583
 20
-6.973131646050347
 30
0.0
  0
SPLINE
  5
CC
330
29
100
AcDbEntity
  8
LAYER_1
 62
     7
100
AcDbSpline
210
0.0
220
0.0
230
1.0
 70
     8
 71
     3
 72
     8
 73
     4
 74
     0
 42
0.000000001
 43
0.00000001
 40
0.0
 40
0.0
 40
0.0
 40
0.0
 40
1.0
 40
1.0
 40
1.0
 40
1.0
 10
7.42779812282986
 20
-7.00207044813368
 30
0.0
 10
7.379566786024305
 20
-7.007238091362846
 30
0.0
 10
7.326167805989583
 20
-6.952977837456596
 30
0.0
 10
7.292061360677082
 20
-6.930240207248263
 30
0.0
  0
SPLINE
  5
CB
330
29
100
AcDbEntity
  8
LAYER_1
 62
     7
100
AcDbSpline
210
0.0
220
0.0
230
1.0
 70
     8
 71
     3
 72
    35
 73
    31
 74
     0
 42
0.000000001
 43
0.00000001
 40
0.0
 40
0.0
 40
0.0
 40
0.0
 40
1.0
 40
1.0
 40
1.0
 40
2.0
 40
2.0
 40
2.0
 40
3.0
 40
3.0
 40
3.0
 40
4.0
 40
4.0
 40
4.0
 40
5.0
 40
5.0
 40
5.0
 40
6.0
 40
6.0
 40
6.0
 40
7.0
 40
7.0
 40
7.0
 40
8.0
 40
8.0
 40
8.0
 40
9.0
 40
9.0
 40
9.0
 40
10.0
 40
10.0
 40
10.0
 40
10.0
 10
7.39679226345486
 20
-6.94781019422743
 30
0.0
 10
7.345804850260416
 20
-6.97881605360243
 30
0.0
 10
7.289305284288194
 20
-6.90750257703993
 30
0.0
 10
7.249342176649304
 20
-6.881836615668402
 30
0.0
 10
7.212479654947916
 20
-6.858926730685763
 30
0.0
 10
7.16424831814236
 20
-6.852897813585069
 30
0.0
 10
7.124285210503472
 20
-6.83308851453993
 30
0.0
 10
7.087767198350694
 20
-6.815690782335069
 30
0.0
 10
7.053660753038193
 20
-6.79588148328993
 30
0.0
 10
7.013697645399305
 20
-6.778483751085068
 30
0.0
 10
6.96271023220486
 20
-6.761086018880207
 30
0.0
 10
6.66815456814236
 20
-6.640679931640625
 30
0.0
 10
6.672633192274305
 20
-6.765736897786458
 30
0.0
 10
6.675389268663194
 20
-6.822580973307291
 30
0.0
 10
6.740157063802083
 20
-6.856859673394097
 30
0.0
 10
6.780120171440972
 20
-6.896822781032985
 30
0.0
 10
6.839720323350694
 20
-6.948326958550346
 30
0.0
 10
6.907933213975694
 20
-6.994146728515624
 30
0.0
 10
6.978902180989583
 20
-7.033937581380208
 30
0.0
 10
7.038502332899305
 20
-7.06873304578993
 30
0.0
 10
7.106370713975694
 20
-7.108696153428819
 30
0.0
 10
7.177339680989583
 20
-7.114897325303819
 30
0.0
 10
7.228671603732638
 20
-7.12609388563368
 30
0.0
 10
7.28827175564236
 20
-7.120753987630208
 30
0.0
 10
7.333747016059027
 20
-7.157788764105902
 30
0.0
 10
7.339259168836805
 20
-7.157788764105902
 30
0.0
 10
7.342015245225694
 20
-7.157788764105902
 30
0.0
 10
7.344771321614583
 20
-7.157788764105902
 30
0.0
 10
7.35028347439236
 20
-7.163645426432291
 30
0.0
 10
7.339259168836805
 20
-7.157788764105902
 30
0.0
 10
7.339259168836805
 20
-7.160889350043402
 30
0.0
  0
SPLINE
  5
CA
330
29
100
AcDbEntity
  8
LAYER_1
 62
     7
100
AcDbSpline
210
0.0
220
0.0
230
1.0
 70
     8
 71
     3
 72
    20
 73
    16
 74
     0
 42
0.000000001
 43
0.00000001
 40
0.0
 40
0.0
 40
0.0
 40
0.0
 40
1.0
 40
1.0
 40
1.0
 40
2.0
 40
2.0
 40
2.0
 40
3.0
 40
3.0
 40
3.0
 40
4.0
 40
4.0
 40
4.0
 40
5.0
 40
5.0
 40
5.0
 40
5.0
 10
7.35028347439236
 20
-7.149176025390624
 30
0.0
 10
7.231083170572916
 20
-7.137634955512152
 30
0.0
 10
7.115327962239583
 20
-7.114380560980902
 30
0.0
 10
6.995438639322916
 20
-7.102322726779513
 30
0.0
 10
6.924469672309027
 20
-7.090953911675347
 30
0.0
 10
6.762205674913194
 20
-7.073211669921874
 30
0.0
 10
6.730855305989583
 20
-7.15865003797743
 30
0.0
 10
6.69916042751736
 20
-7.243571641710068
 30
0.0
 10
6.784254286024305
 20
-7.295248074001735
 30
0.0
 10
6.846955023871527
 20
-7.323497856987847
 30
0.0
 10
6.905866156684027
 20
-7.352092149522568
 30
0.0
 10
6.96271023220486
 20
-7.380686442057291
 30
0.0
 10
7.022999403211805
 20
-7.397911919487846
 30
0.0
 10
7.104992675781249
 20
-7.42995130750868
 30
0.0
 10
7.192842610677083
 20
-7.424611409505208
 30
0.0
 10
7.278280978732639
 20
-7.442181396484374
 30
0.0
  0
SPLINE
  5
C9
330
29
100
AcDbEntity
  8
LAYER_1
 62
     7
100
AcDbSpline
210
0.0
220
0.0
230
1.0
 70
     8
 71
     3
 72
     8
 73
     4
 74
     0
 42
0.000000001
 43
0.00000001
 40
0.0
 40
0.0
 40
0.0
 40
0.0
 40
1.0
 40
1.0
 40
1.0
 40
1.0
 10
7.355106608072916
 20
-7.459234619140624
 30
0.0
 10
7.30687527126736
 20
-7.430468071831597
 30
0.0
 10
7.267256673177083
 20
-7.450449625651041
 30
0.0
 10
7.221436903211805
 20
-7.435980224609374
 30
0.0
  0
SPLINE
  5
C8
330
29
100
AcDbEntity
  8
LAYER_1
 62
     7
100
AcDbSpline
210
0.0
220
0.0
230
1.0
 70
     8
 71
     3
 72
    14
 73
    10
 74
     0
 42
0.000000001
 43
0.00000001
 40
0.0
 40
0.0
 40
0.0
 40
0.0
 40
1.0
 40
1.0
 40
1.0
 40
2.0
 40
2.0
 40
2.0
 40
3.0
 40
3.0
 40
3.0
 40
3.0
 10
7.344082302517361
 20
-7.450621880425347
 30
0.0
 10
7.169760470920139
 20
-7.452688937717014
 30
0.0
 10
6.986136881510416
 20
-7.338311767578125
 30
0.0
 10
6.815260145399305
 20
-7.368973117404513
 30
0.0
 10
6.76082763671875
 20
-7.38034193250868
 30
0.0
 10
6.701227484809027
 20
-7.405491129557291
 30
0.0
 10
6.718108452690972
 20
-7.470947943793402
 30
0.0
 10
6.737745496961805
 20
-7.542089165581596
 30
0.0
 10
6.814226616753472
 20
-7.613747151692707
 30
0.0
 10
6.850744628906249
 20
-7.687472195095485
 30
0.0
  0
SPLINE
  5
C7
330
29
100
AcDbEntity
  8
LAYER_1
 62
     7
100
AcDbSpline
210
0.0
220
0.0
230
1.0
 70
     8
 71
     3
 72
    14
 73
    10
 74
     0
 42
0.000000001
 43
0.00000001
 40
0.0
 40
0.0
 40
0.0
 40
0.0
 40
1.0
 40
1.0
 40
1.0
 40
2.0
 40
2.0
 40
2.0
 40
3.0
 40
3.0
 40
3.0
 40
3.0
 10
7.871181911892361
 20
-3.156999376085069
 30
0.0
 10
7.811237250434028
 20
-3.179564751519097
 30
0.0
 10
7.717875162760416
 20
-3.131333414713541
 30
0.0
 10
7.664131673177082
 20
-3.113763427734375
 30
0.0
 10
7.595574273003471
 20
-3.102222357855903
 30
0.0
 10
7.513581000434027
 20
-3.090509033203125
 30
0.0
 10
7.468450249565971
 20
-3.033492702907986
 30
0.0
 10
7.333057996961805
 20
-2.839706081814236
 30
0.0
 10
7.807103135850694
 20
-2.906713189019097
 30
0.0
 10
7.89254150390625
 20
-2.910158284505208
 30
0.0
  0
SPLINE
  5
C6
330
29
100
AcDbEntity
  8
LAYER_1
 62
     7
100
AcDbSpline
210
0.0
220
0.0
230
1.0
 70
     8
 71
     3
 72
    17
 73
    13
 74
     0
 42
0.000000001
 43
0.00000001
 40
0.0
 40
0.0
 40
0.0
 40
0.0
 40
1.0
 40
1.0
 40
1.0
 40
2.0
 40
2.0
 40
2.0
 40
3.0
 40
3.0
 40
3.0
 40
4.0
 40
4.0
 40
4.0
 40
4.0
 10
7.922513834635416
 20
-2.563409423828125
 30
0.0
 10
7.882550726996527
 20
-2.551696099175347
 30
0.0
 10
7.845688205295138
 20
-2.517761908637153
 30
0.0
 10
7.805725097656249
 20
-2.505876329210069
 30
0.0
 10
7.757838270399305
 20
-2.494679768880208
 30
0.0
 10
7.666543240017361
 20
-2.499847412109375
 30
0.0
 10
7.615211317274305
 20
-2.505187310112847
 30
0.0
 10
7.530117458767361
 20
-2.504842800564236
 30
0.0
 10
7.418840874565972
 20
-2.521551513671875
 30
0.0
 10
7.384734429253472
 20
-2.606817626953125
 30
0.0
 10
7.27276882595486
 20
-2.879324679904514
 30
0.0
 10
7.716497124565971
 20
-2.87519056532118
 30
0.0
 10
7.869459364149304
 20
-2.906885443793402
 30
0.0
  0
SPLINE
  5
C5
330
29
100
AcDbEntity
  8
LAYER_1
 62
     7
100
AcDbSpline
210
0.0
220
0.0
230
1.0
 70
     8
 71
     3
 72
    32
 73
    28
 74
     0
 42
0.000000001
 43
0.00000001
 40
0.0
 40
0.0
 40
0.0
 40
0.0
 40
1.0
 40
1.0
 40
1.0
 40
2.0
 40
2.0
 40
2.0
 40
3.0
 40
3.0
 40
3.0
 40
4.0
 40
4.0
 40
4.0
 40
5.0
 40
5.0
 40
5.0
 40
6.0
 40
6.0
 40
6.0
 40
7.0
 40
7.0
 40
7.0
 40
8.0
 40
8.0
 40
8.0
 40
9.0
 40
9.0
 40
9.0
 40
9.0
 10
8.818927680121528
 20
2.266097683376736
 30
0.0
 10
8.811003960503472
 20
2.379958089192708
 30
0.0
 10
8.857857259114583
 20
2.689499918619791
 30
0.0
 10
8.69593777126736
 20
2.707069905598958
 30
0.0
 10
8.516792805989583
 20
2.727740478515625
 30
0.0
 10
8.522993977864582
 20
2.184621175130208
 30
0.0
 10
8.516448296440972
 20
2.059564208984375
 30
0.0
 10
8.489921061197915
 20
1.73262464735243
 30
0.0
 10
8.505423990885415
 20
1.434279378255208
 30
0.0
 10
8.424464246961804
 20
1.113368733723958
 30
0.0
 10
8.389668782552082
 20
0.971603054470486
 30
0.0
 10
8.27735866970486
 20
0.6990960015190971
 30
0.0
 10
8.376232910156249
 20
0.559225124782986
 30
0.0
 10
8.475107150607638
 20
0.4167704264322916
 30
0.0
 10
8.550554741753471
 20
0.6806647406684028
 30
0.0
 10
8.570536295572916
 20
0.7602464463975693
 30
0.0
 10
8.59361843532986
 20
0.8511969672309027
 30
0.0
 10
8.605331759982638
 20
0.925094265407986
 30
0.0
 10
8.64598388671875
 20
1.016044786241319
 30
0.0
 10
8.68319091796875
 20
1.100966389973958
 30
0.0
 10
8.703172471788193
 20
1.186060248480903
 30
0.0
 10
8.712474229600694
 20
1.27683851453993
 30
0.0
 10
8.732800292968749
 20
1.456155734592014
 30
0.0
 10
8.747958713107638
 20
1.635128445095486
 30
0.0
 10
8.779998101128472
 20
1.813928900824653
 30
0.0
 10
8.803424750434028
 20
1.967580159505208
 30
0.0
 10
8.849589029947916
 20
2.118130832248263
 30
0.0
 10
8.827540418836804
 20
2.277121988932291
 30
0.0
  0
SPLINE
  5
C4
330
29
100
AcDbEntity
  8
LAYER_1
 62
     7
100
AcDbSpline
210
0.0
220
0.0
230
1.0
 70
     8
 71
     3
 72
    11
 73
     7
 74
     0
 42
0.000000001
 43
0.00000001
 40
0.0
 40
0.0
 40
0.0
 40
0.0
 40
1.0
 40
1.0
 40
1.0
 40
2.0
 40
2.0
 40
2.0
 40
2.0
 10
8.37037624782986
 20
1.076678466796875
 30
0.0
 10
8.287693956163194
 20
1.022934977213542
 30
0.0
 10
7.93905029296875
 20
1.223611789279514
 30
0.0
 10
8.081332736545138
 20
1.333510335286458
 30
0.0
 10
8.175383843315972
 20
1.398622639973958
 30
0.0
 10
8.371409776475694
 20
1.304054768880208
 30
0.0
 10
8.473729112413194
 20
1.303710259331597
 30
0.0
  0
SPLINE
  5
C3
330
29
100
AcDbEntity
  8
LAYER_1
 62
     7
100
AcDbSpline
210
0.0
220
0.0
230
1.0
 70
     8
 71
     3
 72
    11
 73
     7
 74
     0
 42
0.000000001
 43
0.00000001
 40
0.0
 40
0.0
 40
0.0
 40
0.0
 40
1.0
 40
1.0
 40
1.0
 40
2.0
 40
2.0
 40
2.0
 40
2.0
 10
8.505768500434026
 20
1.590686713324653
 30
0.0
 10
8.421019151475694
 20
1.608256700303819
 30
0.0
 10
8.142655436197916
 20
1.643224419487847
 30
0.0
 10
8.082366265190972
 20
1.578112114800347
 30
0.0
 10
7.951108127170138
 20
1.422221544053819
 30
0.0
 10
8.34557156032986
 20
1.315251329210069
 30
0.0
 10
8.428253851996526
 20
1.320935736762153
 30
0.0
  0
SPLINE
  5
C2
330
29
100
AcDbEntity
  8
LAYER_1
 62
     7
100
AcDbSpline
210
0.0
220
0.0
230
1.0
 70
     8
 71
     3
 72
    20
 73
    16
 74
     0
 42
0.000000001
 43
0.00000001
 40
0.0
 40
0.0
 40
0.0
 40
0.0
 40
1.0
 40
1.0
 40
1.0
 40
2.0
 40
2.0
 40
2.0
 40
3.0
 40
3.0
 40
3.0
 40
4.0
 40
4.0
 40
4.0
 40
5.0
 40
5.0
 40
5.0
 40
5.0
 10
8.470628526475693
 20
1.874907090928819
 30
0.0
 10
8.302852376302083
 20
1.915386962890625
 30
0.0
 10
8.092701551649304
 20
1.956039089626736
 30
0.0
 10
7.930437554253471
 20
1.854581027560764
 30
0.0
 10
7.878761121961805
 20
1.823230658637153
 30
0.0
 10
7.864636230468749
 20
1.800665283203125
 30
0.0
 10
7.867047797309027
 20
1.735036214192708
 30
0.0
 10
7.872904459635416
 20
1.644085693359375
 30
0.0
 10
7.889440917968749
 20
1.664067247178819
 30
0.0
 10
7.960409884982639
 20
1.638229031032986
 30
0.0
 10
7.98900417751736
 20
1.632716878255208
 30
0.0
 10
8.025522189670138
 20
1.60395033094618
 30
0.0
 10
8.05687255859375
 20
1.597921413845486
 30
0.0
 10
8.096491156684028
 20
1.592237006293403
 30
0.0
 10
8.142310926649305
 20
1.626171196831597
 30
0.0
 10
8.173661295572916
 20
1.614630126953125
 30
0.0
  0
SPLINE
  5
C1
330
29
100
AcDbEntity
  8
LAYER_1
 62
     7
100
AcDbSpline
210
0.0
220
0.0
230
1.0
 70
     8
 71
     3
 72
    14
 73
    10
 74
     0
 42
0.000000001
 43
0.00000001
 40
0.0
 40
0.0
 40
0.0
 40
0.0
 40
1.0
 40
1.0
 40
1.0
 40
2.0
 40
2.0
 40
2.0
 40
3.0
 40
3.0
 40
3.0
 40
3.0
 10
8.548487684461804
 20
2.141729736328125
 30
0.0
 10
8.469250488281249
 20
2.142074245876736
 30
0.0
 10
8.421019151475694
 20
2.222344970703125
 30
0.0
 10
8.335580783420138
 20
2.222689480251736
 30
0.0
 10
8.270123969184027
 20
2.228373887803819
 30
0.0
 10
8.16229248046875
 20
2.214593505859375
 30
0.0
 10
8.130597601996527
 20
2.14345228407118
 30
0.0
 10
8.058595106336805
 20
1.961895751953125
 30
0.0
 10
8.356940375434027
 20
1.955350070529514
 30
0.0
 10
8.459604220920138
 20
1.951732720269097
 30
0.0
  0
SPLINE
  5
C0
330
29
100
AcDbEntity
  8
LAYER_1
 62
     7
100
AcDbSpline
210
0.0
220
0.0
230
1.0
 70
     8
 71
     3
 72
    14
 73
    10
 74
     0
 42
0.000000001
 43
0.00000001
 40
0.0
 40
0.0
 40
0.0
 40
0.0
 40
1.0
 40
1.0
 40
1.0
 40
2.0
 40
2.0
 40
2.0
 40
3.0
 40
3.0
 40
3.0
 40
3.0
 10
8.617389594184028
 20
2.949087863498264
 30
0.0
 10
8.520926920572915
 20
3.006276448567708
 30
0.0
 10
8.335580783420138
 20
2.973031277126736
 30
0.0
 10
8.23360595703125
 20
2.936341010199652
 30
0.0
 10
8.176761881510416
 20
2.913775634765625
 30
0.0
 10
8.147823079427083
 20
2.888454182942708
 30
0.0
 10
8.158847384982638
 20
2.822825113932292
 30
0.0
 10
8.200877549913194
 20
2.643507893880208
 30
0.0
 10
8.463049316406249
 20
2.745310465494792
 30
0.0
 10
8.55916748046875
 20
2.668140326605903
 30
0.0
  0
SPLINE
  5
BF
330
29
100
AcDbEntity
  8
LAYER_1
 62
     7
100
AcDbSpline
210
0.0
220
0.0
230
1.0
 70
    11
 71
     3
 72
    47
 73
    43
 74
     0
 42
0.000000001
 43
0.00000001
 40
0.0
 40
0.0
 40
0.0
 40
0.0
 40
1.0
 40
1.0
 40
1.0
 40
2.0
 40
2.0
 40
2.0
 40
3.0
 40
3.0
 40
3.0
 40
4.0
 40
4.0
 40
4.0
 40
5.0
 40
5.0
 40
5.0
 40
6.0
 40
6.0
 40
6.0
 40
7.0
 40
7.0
 40
7.0
 40
8.0
 40
8.0
 40
8.0
 40
9.0
 40
9.0
 40
9.0
 40
10.0
 40
10.0
 40
10.0
 40
11.0
 40
11.0
 40
11.0
 40
12.0
 40
12.0
 40
12.0
 40
13.0
 40
13.0
 40
13.0
 40
14.0
 40
14.0
 40
14.0
 40
14.0
 10
9.06180691189236
 20
4.51695081922743
 30
0.0
 10
9.011164008246526
 20
4.582235378689235
 30
0.0
 10
9.08351101345486
 20
4.857498508029513
 30
0.0
 10
9.097635904947916
 20
4.919854736328125
 30
0.0
 10
9.121407063802083
 20
5.022518581814236
 30
0.0
 10
9.161370171440971
 20
5.107440185546874
 30
0.0
 10
9.169638400607639
 20
5.215271674262152
 30
0.0
 10
9.190997992621528
 20
5.493979899088541
 30
0.0
 10
9.349127875434027
 20
5.772171359592013
 30
0.0
 10
9.319155544704861
 20
6.05639173719618
 30
0.0
 10
9.308131239149304
 20
6.136145697699652
 30
0.0
 10
9.248531087239583
 20
6.227440728081596
 30
0.0
 10
9.165848795572916
 20
6.159400092230902
 30
0.0
 10
9.057672797309026
 20
6.077579074435763
 30
0.0
 10
9.045270453559027
 20
5.903946261935763
 30
0.0
 10
9.03045654296875
 20
5.77888929578993
 30
0.0
 10
8.977057562934027
 20
5.358243136935763
 30
0.0
 10
8.893686252170138
 20
4.943625895182291
 30
0.0
 10
8.837186686197915
 20
4.523324245876736
 30
0.0
 10
8.811003960503472
 20
4.30456068250868
 30
0.0
 10
8.80101318359375
 20
4.077184380425347
 30
0.0
 10
8.748992241753472
 20
3.864105224609375
 30
0.0
 10
8.702827962239583
 20
3.687888590494791
 30
0.0
 10
8.719019911024304
 20
3.505643039279513
 30
0.0
 10
8.687325032552083
 20
3.327014838324653
 30
0.0
 10
8.669755045572916
 20
3.222111680772569
 30
0.0
 10
8.661142306857638
 20
3.125304497612847
 30
0.0
 10
8.629102918836805
 20
3.017473008897569
 30
0.0
 10
8.60292019314236
 20
2.937719048394097
 30
0.0
 10
8.597063530815971
 20
2.844012451171875
 30
0.0
 10
8.599130588107638
 20
2.75581800672743
 30
0.0
 10
8.710062662760416
 20
2.744276936848958
 30
0.0
 10
8.83201904296875
 20
2.675547281901042
 30
0.0
 10
8.861302354600694
 20
2.825925699869791
 30
0.0
 10
8.905055067274304
 20
3.044517008463541
 30
0.0
 10
8.960176595052083
 20
3.266381157769097
 30
0.0
 10
8.983603244357639
 20
3.487900797526041
 30
0.0
 10
9.007374403211804
 20
3.726645914713541
 30
0.0
 10
8.982569715711804
 20
3.965391031901041
 30
0.0
 10
9.023910861545138
 20
4.195695665147569
 30
0.0
 10
9.040791829427082
 20
4.297670491536458
 30
0.0
 10
9.06146240234375
 20
4.414114718967014
 30
0.0
 10
9.06180691189236
 20
4.51695081922743
 30
0.0
  0
SPLINE
  5
BE
330
29
100
AcDbEntity
  8
LAYER_1
 62
     7
100
AcDbSpline
210
0.0
220
0.0
230
1.0
 70
     8
 71
     3
 72
    26
 73
    22
 74
     0
 42
0.000000001
 43
0.00000001
 40
0.0
 40
0.0
 40
0.0
 40
0.0
 40
1.0
 40
1.0
 40
1.0
 40
2.0
 40
2.0
 40
2.0
 40
3.0
 40
3.0
 40
3.0
 40
4.0
 40
4.0
 40
4.0
 40
5.0
 40
5.0
 40
5.0
 40
6.0
 40
6.0
 40
6.0
 40
7.0
 40
7.0
 40
7.0
 40
7.0
 10
-8.85992431640625
 20
9.771582709418402
 30
0.0
 10
-8.819272189670139
 20
9.828426784939236
 30
0.0
 10
-8.790333387586804
 20
10.13245646158854
 30
0.0
 10
-8.766562228732639
 20
10.24614461263021
 30
0.0
 10
-8.700071885850694
 20
10.52157999674479
 30
0.0
 10
-8.639093695746528
 20
10.81114027235243
 30
0.0
 10
-8.58087158203125
 20
11.08381958007812
 30
0.0
 10
-8.53470730251736
 20
11.32273695203993
 30
0.0
 10
-8.22464870876736
 20
12.03759426540799
 30
0.0
 10
-8.533329264322916
 20
12.22655775282118
 30
0.0
 10
-8.896097819010416
 20
12.44394327799479
 30
0.0
 10
-8.950874837239583
 20
11.72202351888021
 30
0.0
 10
-8.986014811197915
 20
11.53478257921007
 30
0.0
 10
-9.064218478732638
 20
11.08571438259549
 30
0.0
 10
-9.106248643663193
 20
10.61993747287326
 30
0.0
 10
-9.202022298177083
 20
10.16794094509549
 30
0.0
 10
-9.243018934461805
 20
9.983628336588541
 30
0.0
 10
-9.590629069010415
 20
9.143714057074652
 30
0.0
 10
-9.338103569878472
 20
8.99454142252604
 30
0.0
 10
-9.099702962239583
 20
8.857254367404513
 30
0.0
 10
-8.846143934461805
 20
9.65496622721354
 30
0.0
 10
-8.859579806857639
 20
9.828426784939236
 30
0.0
  0
SPLINE
  5
BD
330
29
100
AcDbEntity
  8
LAYER_1
 62
     7
100
AcDbSpline
210
0.0
220
0.0
230
1.0
 70
     8
 71
     3
 72
    23
 73
    19
 74
     0
 42
0.000000001
 43
0.00000001
 40
0.0
 40
0.0
 40
0.0
 40
0.0
 40
1.0
 40
1.0
 40
1.0
 40
2.0
 40
2.0
 40
2.0
 40
3.0
 40
3.0
 40
3.0
 40
4.0
 40
4.0
 40
4.0
 40
5.0
 40
5.0
 40
5.0
 40
6.0
 40
6.0
 40
6.0
 40
6.0
 10
-6.947896321614583
 20
12.08978746202257
 30
0.0
 10
-6.839031304253472
 20
12.13198988172743
 30
0.0
 10
-6.830074055989583
 20
12.33370022243924
 30
0.0
 10
-6.837997775607638
 20
12.4534172905816
 30
0.0
 10
-7.168037923177082
 20
12.47718844943576
 30
0.0
 10
-7.426075575086805
 20
12.59191012912326
 30
0.0
 10
-7.726832411024305
 20
12.73522610134549
 30
0.0
 10
-7.822950575086804
 20
12.78104587131076
 30
0.0
 10
-8.626346842447916
 20
13.16534627278646
 30
0.0
 10
-8.621523708767361
 20
12.94882202148437
 30
0.0
 10
-8.616011555989582
 20
12.80671183268229
 30
0.0
 10
-8.221203613281249
 20
12.80533379448785
 30
0.0
 10
-8.129908582899304
 20
12.76795450846354
 30
0.0
 10
-7.94249538845486
 20
12.69595201280382
 30
0.0
 10
-7.905977376302083
 20
12.5712395562066
 30
0.0
 10
-7.787810601128472
 20
12.43980916341146
 30
0.0
 10
-7.555611165364582
 20
12.19417385525174
 30
0.0
 10
-7.211790635850694
 20
12.19865247938368
 30
0.0
 10
-6.930670844184027
 20
12.10063951280382
 30
0.0
  0
SPLINE
  5
BC
330
29
100
AcDbEntity
  8
LAYER_1
 62
     7
100
AcDbSpline
210
0.0
220
0.0
230
1.0
 70
     8
 71
     3
 72
     8
 73
     4
 74
     0
 42
0.000000001
 43
0.00000001
 40
0.0
 40
0.0
 40
0.0
 40
0.0
 40
1.0
 40
1.0
 40
1.0
 40
1.0
 10
-7.754048665364583
 20
12.36832343207465
 30
0.0
 10
-7.788499620225694
 20
12.2861579047309
 30
0.0
 10
-7.751981608072916
 20
12.16954142252604
 30
0.0
 10
-7.669988335503471
 20
12.12096557617187
 30
0.0
  0
SPLINE
  5
BB
330
29
100
AcDbEntity
  8
LAYER_1
 62
     7
100
AcDbSpline
210
0.0
220
0.0
230
1.0
 70
     8
 71
     3
 72
    20
 73
    16
 74
     0
 42
0.000000001
 43
0.00000001
 40
0.0
 40
0.0
 40
0.0
 40
0.0
 40
1.0
 40
1.0
 40
1.0
 40
2.0
 40
2.0
 40
2.0
 40
3.0
 40
3.0
 40
3.0
 40
4.0
 40
4.0
 40
4.0
 40
5.0
 40
5.0
 40
5.0
 40
5.0
 10
-4.774041069878471
 20
11.83123304578993
 30
0.0
 10
-4.560445149739583
 20
11.85552096896701
 30
0.0
 10
-4.329279242621527
 20
12.05688680013021
 30
0.0
 10
-4.661730957031249
 20
12.12647772894965
 30
0.0
 10
-4.886351182725694
 20
12.17815416124132
 30
0.0
 10
-5.096502007378472
 20
12.21915079752604
 30
0.0
 10
-5.326634385850694
 20
12.25101793077257
 30
0.0
 10
-5.752792697482638
 20
12.30682847764757
 30
0.0
 10
-6.229249403211805
 20
12.56469387478299
 30
0.0
 10
-6.54688720703125
 20
12.14783732096354
 30
0.0
 10
-6.359818522135416
 20
11.9511223687066
 30
0.0
 10
-5.921946885850694
 20
11.97764960394965
 30
0.0
 10
-5.668732367621527
 20
11.91977199978298
 30
0.0
 10
-5.347993977864583
 20
11.85310940212674
 30
0.0
 10
-5.055160861545138
 20
11.83795098198785
 30
0.0
 10
-4.723053656684027
 20
11.83106079101562
 30
0.0
  0
SPLINE
  5
BA
330
29
100
AcDbEntity
  8
LAYER_1
 62
     7
100
AcDbSpline
210
0.0
220
0.0
230
1.0
 70
    11
 71
     3
 72
    29
 73
    25
 74
     0
 42
0.000000001
 43
0.00000001
 40
0.0
 40
0.0
 40
0.0
 40
0.0
 40
1.0
 40
1.0
 40
1.0
 40
2.0
 40
2.0
 40
2.0
 40
3.0
 40
3.0
 40
3.0
 40
4.0
 40
4.0
 40
4.0
 40
5.0
 40
5.0
 40
5.0
 40
6.0
 40
6.0
 40
6.0
 40
7.0
 40
7.0
 40
7.0
 40
8.0
 40
8.0
 40
8.0
 40
8.0
 10
-2.746257866753472
 20
11.32842135959201
 30
0.0
 10
-2.624301486545139
 20
11.3279045952691
 30
0.0
 10
-2.362818739149305
 20
11.27002699110243
 30
0.0
 10
-2.257398817274305
 20
11.32101440429687
 30
0.0
 10
-2.103403049045139
 20
11.39697875976562
 30
0.0
 10
-2.16265869140625
 20
11.53082071940104
 30
0.0
 10
-2.26497802734375
 20
11.60230645073785
 30
0.0
 10
-2.491665310329861
 20
11.74820624457465
 30
0.0
 10
-2.946417914496528
 20
11.71582234700521
 30
0.0
 10
-3.21375732421875
 20
11.76233113606771
 30
0.0
 10
-3.491776529947916
 20
11.81435207790799
 30
0.0
 10
-3.837664116753472
 20
12.00366007486979
 30
0.0
 10
-4.122229003906249
 20
11.95921834309896
 30
0.0
 10
-4.26485595703125
 20
11.93114081488715
 30
0.0
 10
-4.342026095920138
 20
11.77817857530382
 30
0.0
 10
-4.177695041232639
 20
11.69256795247396
 30
0.0
 10
-4.134975857204861
 20
11.66965806749132
 30
0.0
 10
-4.018187120225694
 20
11.67999335394965
 30
0.0
 10
-3.967199707031249
 20
11.67430894639757
 30
0.0
 10
-3.881761338975694
 20
11.65398288302951
 30
0.0
 10
-3.794255913628472
 20
11.62521633572048
 30
0.0
 10
-3.706061469184027
 20
11.59644978841146
 30
0.0
 10
-3.402548556857639
 20
11.47897203233507
 30
0.0
 10
-3.070096842447916
 20
11.35529310438368
 30
0.0
 10
-2.746257866753472
 20
11.32842135959201
 30
0.0
  0
SPLINE
  5
B9
330
29
100
AcDbEntity
  8
LAYER_1
 62
     7
100
AcDbSpline
210
0.0
220
0.0
230
1.0
 70
     8
 71
     3
 72
    20
 73
    16
 74
     0
 42
0.000000001
 43
0.00000001
 40
0.0
 40
0.0
 40
0.0
 40
0.0
 40
1.0
 40
1.0
 40
1.0
 40
2.0
 40
2.0
 40
2.0
 40
3.0
 40
3.0
 40
3.0
 40
4.0
 40
4.0
 40
4.0
 40
5.0
 40
5.0
 40
5.0
 40
5.0
 10
-8.924003092447915
 20
9.371262613932291
 30
0.0
 10
-8.666309950086804
 20
9.236214870876735
 30
0.0
 10
-8.361763509114583
 20
9.149915228949652
 30
0.0
 10
-8.084088812934027
 20
9.040877956814235
 30
0.0
 10
-7.87428249782986
 20
8.954922824435764
 30
0.0
 10
-7.414017740885416
 20
8.82211439344618
 30
0.0
 10
-7.214891221788194
 20
8.93528578016493
 30
0.0
 10
-7.142888726128471
 20
9.165245903862846
 30
0.0
 10
-7.869803873697916
 20
9.278761800130207
 30
0.0
 10
-8.031723361545138
 20
9.313385009765625
 30
0.0
 10
-8.179517957899305
 20
9.348352728949651
 30
0.0
 10
-8.33006863064236
 20
9.374707709418402
 30
0.0
 10
-8.477518717447916
 20
9.417599148220486
 30
0.0
 10
-8.636337619357638
 20
9.463763427734374
 30
0.0
 10
-8.710062662760416
 20
9.549546305338541
 30
0.0
 10
-8.849244520399305
 20
9.615347629123264
 30
0.0
  0
SPLINE
  5
B8
330
29
100
AcDbEntity
  8
LAYER_1
 62
     7
100
AcDbSpline
210
0.0
220
0.0
230
1.0
 70
     8
 71
     3
 72
    14
 73
    10
 74
     0
 42
0.000000001
 43
0.00000001
 40
0.0
 40
0.0
 40
0.0
 40
0.0
 40
1.0
 40
1.0
 40
1.0
 40
2.0
 40
2.0
 40
2.0
 40
3.0
 40
3.0
 40
3.0
 40
3.0
 10
-8.842698838975693
 20
9.754701741536458
 30
0.0
 10
-8.75174831814236
 20
9.796731906467013
 30
0.0
 10
-8.604642740885415
 20
9.642563883463541
 30
0.0
 10
-8.493710666232639
 20
9.62516615125868
 30
0.0
 10
-8.360385470920138
 20
9.59915568033854
 30
0.0
 10
-8.234983995225694
 20
9.64101359049479
 30
0.0
 10
-8.109927029079861
 20
9.652210150824653
 30
0.0
 10
-8.03551296657986
 20
9.867873128255207
 30
0.0
 10
-8.654596625434028
 20
9.946938069661458
 30
0.0
 10
-8.80790337456597
 20
9.947799343532985
 30
0.0
  0
SPLINE
  5
B7
330
29
100
AcDbEntity
  8
LAYER_1
 62
     7
100
AcDbSpline
210
0.0
220
0.0
230
1.0
 70
     8
 71
     3
 72
    20
 73
    16
 74
     0
 42
0.000000001
 43
0.00000001
 40
0.0
 40
0.0
 40
0.0
 40
0.0
 40
1.0
 40
1.0
 40
1.0
 40
2.0
 40
2.0
 40
2.0
 40
3.0
 40
3.0
 40
3.0
 40
4.0
 40
4.0
 40
4.0
 40
5.0
 40
5.0
 40
5.0
 40
5.0
 10
-8.021388075086804
 20
9.683216010199653
 30
0.0
 10
-7.901843261718749
 20
9.762108696831596
 30
0.0
 10
-7.72545437282986
 20
9.733169894748263
 30
0.0
 10
-7.59798583984375
 20
9.692690022786458
 30
0.0
 10
-7.444679090711805
 20
9.649626329210069
 30
0.0
 10
-7.313765462239583
 20
9.61465861002604
 30
0.0
 10
-7.163559299045138
 20
9.577279324001735
 30
0.0
 10
-7.052627224392361
 20
9.554024929470485
 30
0.0
 10
-6.402537706163194
 20
9.384181722005208
 30
0.0
 10
-6.522427029079861
 20
9.216750081380207
 30
0.0
 10
-6.602697753906249
 20
9.10616251627604
 30
0.0
 10
-7.281037055121527
 20
9.316485595703124
 30
0.0
 10
-7.411606174045138
 20
9.333883327907985
 30
0.0
 10
-7.579382324218749
 20
9.359893798828125
 30
0.0
 10
-8.22740478515625
 20
9.43947550455729
 30
0.0
 10
-8.03861355251736
 20
9.700269232855902
 30
0.0
  0
SPLINE
  5
B6
330
29
100
AcDbEntity
  8
LAYER_1
 62
     7
100
AcDbSpline
210
0.0
220
0.0
230
1.0
 70
     8
 71
     3
 72
    11
 73
     7
 74
     0
 42
0.000000001
 43
0.00000001
 40
0.0
 40
0.0
 40
0.0
 40
0.0
 40
1.0
 40
1.0
 40
1.0
 40
2.0
 40
2.0
 40
2.0
 40
2.0
 10
-8.750025770399304
 20
10.19188435872396
 30
0.0
 10
-8.602575683593749
 20
10.15450507269965
 30
0.0
 10
-7.281726074218749
 20
9.773822021484374
 30
0.0
 10
-7.312042914496527
 20
10.03582153320312
 30
0.0
 10
-7.345115831163194
 20
10.31160142686632
 30
0.0
 10
-8.693870713975693
 20
10.14313625759548
 30
0.0
 10
-8.654596625434028
 20
10.52399156358507
 30
0.0
  0
SPLINE
  5
B5
330
29
100
AcDbEntity
  8
LAYER_1
 62
     7
100
AcDbSpline
210
0.0
220
0.0
230
1.0
 70
     8
 71
     3
 72
    20
 73
    16
 74
     0
 42
0.000000001
 43
0.00000001
 40
0.0
 40
0.0
 40
0.0
 40
0.0
 40
1.0
 40
1.0
 40
1.0
 40
2.0
 40
2.0
 40
2.0
 40
3.0
 40
3.0
 40
3.0
 40
4.0
 40
4.0
 40
4.0
 40
5.0
 40
5.0
 40
5.0
 40
5.0
 10
-5.604309082031249
 20
9.28134562174479
 30
0.0
 10
-5.723164876302083
 20
9.327337646484374
 30
0.0
 10
-5.828240288628471
 20
9.365061442057291
 30
0.0
 10
-5.848566351996527
 20
9.213994004991319
 30
0.0
 10
-5.878538682725694
 20
9.02640855577257
 30
0.0
 10
-5.707317437065972
 20
9.037260606553819
 30
0.0
 10
-5.573992241753472
 20
9.019690619574652
 30
0.0
 10
-5.287015787760416
 20
8.967497422960069
 30
0.0
 10
-5.033801269531249
 20
8.889810519748263
 30
0.0
 10
-4.735456000434027
 20
8.914098442925347
 30
0.0
 10
-4.806080457899305
 20
9.027958848741319
 30
0.0
 10
-5.047581651475694
 20
9.057586669921875
 30
0.0
 10
-5.166781955295138
 20
9.112191433376735
 30
0.0
 10
-5.320088704427083
 20
9.177992757161457
 30
0.0
 10
-5.498889160156249
 20
9.229669189453125
 30
0.0
 10
-5.640827094184028
 20
9.29839884440104
 30
0.0
  0
SPLINE
  5
B4
330
29
100
AcDbEntity
  8
LAYER_1
 62
     7
100
AcDbSpline
210
0.0
220
0.0
230
1.0
 70
     8
 71
     3
 72
    11
 73
     7
 74
     0
 42
0.000000001
 43
0.00000001
 40
0.0
 40
0.0
 40
0.0
 40
0.0
 40
1.0
 40
1.0
 40
1.0
 40
2.0
 40
2.0
 40
2.0
 40
2.0
 10
-6.017376030815972
 20
9.658066813151041
 30
0.0
 10
-6.148634168836805
 20
9.476854790581596
 30
0.0
 10
-5.879572211371527
 20
9.370573594835069
 30
0.0
 10
-5.717308213975694
 20
9.40691935221354
 30
0.0
 10
-5.443767632378472
 20
9.468758816189235
 30
0.0
 10
-5.878883192274305
 20
9.595021565755207
 30
0.0
 10
-6.017376030815972
 20
9.624132622612846
 30
0.0
  0
SPLINE
  5
B3
330
29
100
AcDbEntity
  8
LAYER_1
 62
     7
100
AcDbSpline
210
0.0
220
0.0
230
1.0
 70
     8
 71
     3
 72
    11
 73
     7
 74
     0
 42
0.000000001
 43
0.00000001
 40
0.0
 40
0.0
 40
0.0
 40
0.0
 40
1.0
 40
1.0
 40
1.0
 40
2.0
 40
2.0
 40
2.0
 40
2.0
 10
-3.627513292100694
 20
8.835722520616319
 30
0.0
 10
-3.679534233940972
 20
8.483633761935764
 30
0.0
 10
-3.202388509114583
 20
8.459173583984374
 30
0.0
 10
-2.952274576822917
 20
8.429718017578125
 30
0.0
 10
-2.80447998046875
 20
8.411975775824653
 30
0.0
 10
-2.103058539496528
 20
8.221461995442708
 30
0.0
 10
-2.070674641927083
 20
8.448838297526041
 30
0.0
  0
SPLINE
  5
B2
330
29
100
AcDbEntity
  8
LAYER_1
 62
     7
100
AcDbSpline
210
0.0
220
0.0
230
1.0
 70
     8
 71
     3
 72
    11
 73
     7
 74
     0
 42
0.000000001
 43
0.00000001
 40
0.0
 40
0.0
 40
0.0
 40
0.0
 40
1.0
 40
1.0
 40
1.0
 40
2.0
 40
2.0
 40
2.0
 40
2.0
 10
-5.617400444878472
 20
9.50889417860243
 30
0.0
 10
-5.406905110677083
 20
9.502176242404513
 30
0.0
 10
-4.719953070746527
 20
9.31200697157118
 30
0.0
 10
-4.752681477864583
 20
9.016590033637153
 30
0.0
 10
-4.780242241753472
 20
9.005221218532986
 30
0.0
 10
-4.769217936197916
 20
9.033643256293402
 30
0.0
 10
-4.783342827690972
 20
9.033815511067708
 30
0.0
  0
SPLINE
  5
B1
330
29
100
AcDbEntity
  8
LAYER_1
 62
     7
100
AcDbSpline
210
0.0
220
0.0
230
1.0
 70
     8
 71
     3
 72
    17
 73
    13
 74
     0
 42
0.000000001
 43
0.00000001
 40
0.0
 40
0.0
 40
0.0
 40
0.0
 40
1.0
 40
1.0
 40
1.0
 40
2.0
 40
2.0
 40
2.0
 40
3.0
 40
3.0
 40
3.0
 40
4.0
 40
4.0
 40
4.0
 40
4.0
 10
4.970411512586805
 20
6.386259629991319
 30
0.0
 10
5.050337727864583
 20
6.385570610894097
 30
0.0
 10
5.22603759765625
 20
6.348019070095486
 30
0.0
 10
5.252564832899305
 20
6.447582329644097
 30
0.0
 10
5.283915201822916
 20
6.544045003255207
 30
0.0
 10
5.13612060546875
 20
6.590037027994791
 30
0.0
 10
5.062740071614583
 20
6.604506429036458
 30
0.0
 10
4.886351182725694
 20
6.642057969835069
 30
0.0
 10
4.559756130642361
 20
6.654977077907986
 30
0.0
 10
4.397147623697916
 20
6.584352620442708
 30
0.0
 10
4.419540744357638
 20
6.459295654296874
 30
0.0
 10
4.877049424913194
 20
6.409169514973958
 30
0.0
 10
5.004862467447916
 20
6.386087375217014
 30
0.0
  0
SPLINE
  5
B0
330
29
100
AcDbEntity
  8
LAYER_1
 62
     7
100
AcDbSpline
210
0.0
220
0.0
230
1.0
 70
     8
 71
     3
 72
    17
 73
    13
 74
     0
 42
0.000000001
 43
0.00000001
 40
0.0
 40
0.0
 40
0.0
 40
0.0
 40
1.0
 40
1.0
 40
1.0
 40
2.0
 40
2.0
 40
2.0
 40
3.0
 40
3.0
 40
3.0
 40
4.0
 40
4.0
 40
4.0
 40
4.0
 10
9.042514377170138
 20
5.909630669487846
 30
0.0
 10
8.783787706163194
 20
5.910836452907986
 30
0.0
 10
8.516792805989583
 20
5.934435356987847
 30
0.0
 10
8.269434950086804
 20
5.963546413845486
 30
0.0
 10
8.18124050564236
 20
5.969747585720485
 30
0.0
 10
7.729588487413194
 20
6.048295762803819
 30
0.0
 10
7.828118218315971
 20
5.868978542751735
 30
0.0
 10
7.881861707899305
 20
5.760630289713541
 30
0.0
 10
8.316632758246527
 20
5.770276557074652
 30
0.0
 10
8.425153266059027
 20
5.764075385199653
 30
0.0
 10
8.623935275607638
 20
5.74633314344618
 30
0.0
 10
8.86302490234375
 20
5.779578314887153
 30
0.0
 10
8.961210123697915
 20
5.594576687282985
 30
0.0
  0
SPLINE
  5
AF
330
29
100
AcDbEntity
  8
LAYER_1
 62
     7
100
AcDbSpline
210
0.0
220
0.0
230
1.0
 70
     8
 71
     3
 72
    11
 73
     7
 74
     0
 42
0.000000001
 43
0.00000001
 40
0.0
 40
0.0
 40
0.0
 40
0.0
 40
1.0
 40
1.0
 40
1.0
 40
2.0
 40
2.0
 40
2.0
 40
2.0
 10
8.876116265190971
 20
4.892293972439235
 30
0.0
 10
8.873704698350693
 20
5.080051676432292
 30
0.0
 10
8.532295735677083
 20
5.024930148654513
 30
0.0
 10
8.574325900607638
 20
4.845440673828125
 30
0.0
 10
8.613944498697915
 20
4.694373236762153
 30
0.0
 10
8.912289767795139
 20
4.727618408203124
 30
0.0
 10
8.876116265190971
 20
4.909691704644096
 30
0.0
  0
SPLINE
  5
AE
330
29
100
AcDbEntity
  8
LAYER_1
 62
     7
100
AcDbSpline
210
0.0
220
0.0
230
1.0
 70
     8
 71
     3
 72
    11
 73
     7
 74
     0
 42
0.000000001
 43
0.00000001
 40
0.0
 40
0.0
 40
0.0
 40
0.0
 40
1.0
 40
1.0
 40
1.0
 40
2.0
 40
2.0
 40
2.0
 40
2.0
 10
8.961210123697915
 20
5.594576687282985
 30
0.0
 10
8.899542914496527
 20
5.719633653428819
 30
0.0
 10
8.476140679253472
 20
5.78664076063368
 30
0.0
 10
8.429976399739582
 20
5.610768636067708
 30
0.0
 10
8.377955457899304
 20
5.406129964192708
 30
0.0
 10
8.812381998697916
 20
5.353247748480903
 30
0.0
 10
8.923658582899305
 20
5.381325276692708
 30
0.0
  0
SPLINE
  5
AD
330
29
100
AcDbEntity
  8
LAYER_1
 62
     7
100
AcDbSpline
210
0.0
220
0.0
230
1.0
 70
     8
 71
     3
 72
    11
 73
     7
 74
     0
 42
0.000000001
 43
0.00000001
 40
0.0
 40
0.0
 40
0.0
 40
0.0
 40
1.0
 40
1.0
 40
1.0
 40
2.0
 40
2.0
 40
2.0
 40
2.0
 10
8.974301486545139
 20
5.346874321831597
 30
0.0
 10
8.83236355251736
 20
5.353075493706597
 30
0.0
 10
8.423775227864583
 20
5.462801784939235
 30
0.0
 10
8.334891764322917
 20
5.295542399088541
 30
0.0
 10
8.225682237413194
 20
5.088319905598958
 30
0.0
 10
8.774830457899304
 20
5.120359293619791
 30
0.0
 10
8.902643500434026
 20
5.136895751953125
 30
0.0
  0
SPLINE
  5
AC
330
29
100
AcDbEntity
  8
LAYER_1
 62
     7
100
AcDbSpline
210
0.0
220
0.0
230
1.0
 70
     8
 71
     3
 72
    17
 73
    13
 74
     0
 42
0.000000001
 43
0.00000001
 40
0.0
 40
0.0
 40
0.0
 40
0.0
 40
1.0
 40
1.0
 40
1.0
 40
2.0
 40
2.0
 40
2.0
 40
3.0
 40
3.0
 40
3.0
 40
4.0
 40
4.0
 40
4.0
 40
4.0
 10
8.080299207899305
 20
6.26568128797743
 30
0.0
 10
8.191231282552083
 20
6.271193440755208
 30
0.0
 10
8.281837293836805
 20
6.182482231987847
 30
0.0
 10
8.375543891059028
 20
6.187994384765624
 30
0.0
 10
8.53470730251736
 20
6.195573594835069
 30
0.0
 10
8.478207736545139
 20
6.258791097005208
 30
0.0
 10
8.361763509114583
 20
6.341473388671875
 30
0.0
 10
8.166426595052082
 20
6.475832112630208
 30
0.0
 10
7.916657172309027
 20
6.505459933810763
 30
0.0
 10
7.683424207899304
 20
6.494607883029513
 30
0.0
 10
7.674466959635416
 20
6.398145209418402
 30
0.0
 10
7.997616916232638
 20
6.27188245985243
 30
0.0
 10
8.10062527126736
 20
6.277222357855902
 30
0.0
  0
SPLINE
  5
AB
330
29
100
AcDbEntity
  8
LAYER_1
 62
     7
100
AcDbSpline
210
0.0
220
0.0
230
1.0
 70
     8
 71
     3
 72
    17
 73
    13
 74
     0
 42
0.000000001
 43
0.00000001
 40
0.0
 40
0.0
 40
0.0
 40
0.0
 40
1.0
 40
1.0
 40
1.0
 40
2.0
 40
2.0
 40
2.0
 40
3.0
 40
3.0
 40
3.0
 40
4.0
 40
4.0
 40
4.0
 40
4.0
 10
7.134620496961805
 20
6.542322455512152
 30
0.0
 10
7.046770562065972
 20
6.579701741536458
 30
0.0
 10
6.675044759114583
 20
6.67495863172743
 30
0.0
 10
6.592362467447916
 20
6.629827880859374
 30
0.0
 10
6.32709011501736
 20
6.48892347547743
 30
0.0
 10
6.736022949218749
 20
6.401762559678819
 30
0.0
 10
6.815604654947916
 20
6.37885267469618
 30
0.0
 10
6.937905544704861
 20
6.346985541449652
 30
0.0
 10
7.36578640407986
 20
6.189200168185764
 30
0.0
 10
7.449502224392361
 20
6.328037516276041
 30
0.0
 10
7.552855088975694
 20
6.506837972005208
 30
0.0
 10
7.154602050781249
 20
6.542150200737846
 30
0.0
 10
7.069852701822916
 20
6.568505181206596
 30
0.0
  0
SPLINE
  5
AA
330
29
100
AcDbEntity
  8
LAYER_1
 62
     7
100
AcDbSpline
210
0.0
220
0.0
230
1.0
 70
     8
 71
     3
 72
    23
 73
    19
 74
     0
 42
0.000000001
 43
0.00000001
 40
0.0
 40
0.0
 40
0.0
 40
0.0
 40
1.0
 40
1.0
 40
1.0
 40
2.0
 40
2.0
 40
2.0
 40
3.0
 40
3.0
 40
3.0
 40
4.0
 40
4.0
 40
4.0
 40
5.0
 40
5.0
 40
5.0
 40
6.0
 40
6.0
 40
6.0
 40
6.0
 10
4.990737575954861
 20
9.75728556315104
 30
0.0
 10
5.090645345052083
 20
9.779678683810763
 30
0.0
 10
5.694915093315972
 20
9.45342814127604
 30
0.0
 10
5.695948621961805
 20
9.726451958550346
 30
0.0
 10
5.696982150607639
 20
9.98207804361979
 30
0.0
 10
4.973167588975694
 20
10.16690741644965
 30
0.0
 10
4.791611056857638
 20
10.21600002712674
 30
0.0
 10
4.552521430121527
 20
10.28214586046007
 30
0.0
 10
4.317221408420139
 20
10.36000501844618
 30
0.0
 10
4.076064724392361
 20
10.43769192165798
 30
0.0
 10
3.967888726128472
 20
10.46628621419271
 30
0.0
 10
3.60133056640625
 20
10.58462524414062
 30
0.0
 10
3.516236707899305
 20
10.50797186957465
 30
0.0
 10
3.224781629774305
 20
10.2333977593316
 30
0.0
 10
4.167704264322916
 20
10.06510484483507
 30
0.0
 10
4.275535753038194
 20
10.03323771158854
 30
0.0
 10
4.508768717447916
 20
9.969847954644097
 30
0.0
 10
4.812626139322917
 20
9.906113688151041
 30
0.0
 10
5.007963053385416
 20
9.774511040581597
 30
0.0
  0
SPLINE
  5
A9
330
29
100
AcDbEntity
  8
LAYER_1
 62
     7
100
AcDbSpline
210
0.0
220
0.0
230
1.0
 70
     8
 71
     3
 72
    26
 73
    22
 74
     0
 42
0.000000001
 43
0.00000001
 40
0.0
 40
0.0
 40
0.0
 40
0.0
 40
1.0
 40
1.0
 40
1.0
 40
2.0
 40
2.0
 40
2.0
 40
3.0
 40
3.0
 40
3.0
 40
4.0
 40
4.0
 40
4.0
 40
5.0
 40
5.0
 40
5.0
 40
6.0
 40
6.0
 40
6.0
 40
7.0
 40
7.0
 40
7.0
 40
7.0
 10
3.145888943142361
 20
7.231858317057291
 30
0.0
 10
3.308497450086805
 20
7.233925374348957
 30
0.0
 10
3.464215766059028
 20
7.111107720269096
 30
0.0
 10
3.611665852864583
 20
7.045306396484374
 30
0.0
 10
3.767384168836805
 20
6.982088894314235
 30
0.0
 10
3.943773057725694
 20
6.930240207248263
 30
0.0
 10
4.102591959635416
 20
6.878219265407986
 30
0.0
 10
4.210423448350694
 20
6.841012234157986
 30
0.0
 10
5.003139919704861
 20
6.658766682942708
 30
0.0
 10
4.736834038628472
 20
6.927139621310763
 30
0.0
 10
4.65242919921875
 20
7.018434651692708
 30
0.0
 10
4.364763726128472
 20
7.053574625651041
 30
0.0
 10
4.245907931857639
 20
7.102494981553819
 30
0.0
 10
4.013019476996528
 20
7.19430677625868
 30
0.0
 10
3.76876220703125
 20
7.214977349175347
 30
0.0
 10
3.530361599392361
 20
7.284223768446179
 30
0.0
 10
3.36568603515625
 20
7.338656277126735
 30
0.0
 10
2.644972059461805
 20
7.742421468098958
 30
0.0
 10
2.499933539496527
 20
7.62683851453993
 30
0.0
 10
2.268767632378472
 20
7.442698160807291
 30
0.0
 10
3.08663330078125
 20
7.240298800998263
 30
0.0
 10
3.194464789496528
 20
7.211532253689236
 30
0.0
  0
SPLINE
  5
A8
330
29
100
AcDbEntity
  8
LAYER_1
 62
     7
100
AcDbSpline
210
0.0
220
0.0
230
1.0
 70
     8
 71
     3
 72
    17
 73
    13
 74
     0
 42
0.000000001
 43
0.00000001
 40
0.0
 40
0.0
 40
0.0
 40
0.0
 40
1.0
 40
1.0
 40
1.0
 40
2.0
 40
2.0
 40
2.0
 40
3.0
 40
3.0
 40
3.0
 40
4.0
 40
4.0
 40
4.0
 40
4.0
 10
5.981202528211805
 20
6.745927598741319
 30
0.0
 10
6.136576334635416
 20
6.535087754991319
 30
0.0
 10
5.699393717447916
 20
6.58504163953993
 30
0.0
 10
5.608098687065972
 20
6.596754964192708
 30
0.0
 10
5.47752956814236
 20
6.617081027560763
 30
0.0
 10
5.141977267795139
 20
6.610018581814235
 30
0.0
 10
5.068941243489583
 20
6.732147216796874
 30
0.0
 10
4.922180175781249
 20
7.000347900390624
 30
0.0
 10
5.418618435329861
 20
6.827748616536458
 30
0.0
 10
5.507157389322916
 20
6.813106960720486
 30
0.0
 10
5.66322021484375
 20
6.787096489800347
 30
0.0
 10
5.899553765190972
 20
6.859960259331596
 30
0.0
 10
5.981202528211805
 20
6.711993408203124
 30
0.0
  0
SPLINE
  5
A7
330
29
100
AcDbEntity
  8
LAYER_1
 62
     7
100
AcDbSpline
210
0.0
220
0.0
230
1.0
 70
     8
 71
     3
 72
    23
 73
    19
 74
     0
 42
0.000000001
 43
0.00000001
 40
0.0
 40
0.0
 40
0.0
 40
0.0
 40
1.0
 40
1.0
 40
1.0
 40
2.0
 40
2.0
 40
2.0
 40
3.0
 40
3.0
 40
3.0
 40
4.0
 40
4.0
 40
4.0
 40
5.0
 40
5.0
 40
5.0
 40
6.0
 40
6.0
 40
6.0
 40
6.0
 10
6.893463812934027
 20
9.18987833658854
 30
0.0
 10
7.060895453559027
 20
9.186605495876735
 30
0.0
 10
7.904943847656249
 20
9.072400580512152
 30
0.0
 10
7.520126681857638
 20
9.42362806532118
 30
0.0
 10
7.380600314670138
 20
9.552130126953124
 30
0.0
 10
7.156669108072916
 20
9.558331298828124
 30
0.0
 10
6.980624728732638
 20
9.587786865234374
 30
0.0
 10
6.66815456814236
 20
9.642908393012151
 30
0.0
 10
6.332602267795139
 20
9.655482991536458
 30
0.0
 10
6.034256998697916
 20
9.759180365668401
 30
0.0
 10
5.918501790364583
 20
9.79380357530382
 30
0.0
 10
5.69146999782986
 20
9.959340413411457
 30
0.0
 10
5.730055067274305
 20
9.709054226345485
 30
0.0
 10
5.749347601996528
 20
9.561431884765625
 30
0.0
 10
6.001873101128472
 20
9.486328803168401
 30
0.0
 10
6.126585557725694
 20
9.431896294487846
 30
0.0
 10
6.393924967447916
 20
9.311490207248264
 30
0.0
 10
6.657474772135416
 20
9.188155788845485
 30
0.0
 10
6.949963378906249
 20
9.189706081814235
 30
0.0
  0
SPLINE
  5
A6
330
29
100
AcDbEntity
  8
LAYER_1
 62
     7
100
AcDbSpline
210
0.0
220
0.0
230
1.0
 70
     8
 71
     3
 72
    17
 73
    13
 74
     0
 42
0.000000001
 43
0.00000001
 40
0.0
 40
0.0
 40
0.0
 40
0.0
 40
1.0
 40
1.0
 40
1.0
 40
2.0
 40
2.0
 40
2.0
 40
3.0
 40
3.0
 40
3.0
 40
4.0
 40
4.0
 40
4.0
 40
4.0
 10
7.493254937065972
 20
9.196251763237846
 30
0.0
 10
7.440889485677083
 20
8.940797932942708
 30
0.0
 10
8.122673882378471
 20
8.835550265842013
 30
0.0
 10
8.29286159939236
 20
8.77836168077257
 30
0.0
 10
8.659419759114583
 20
8.65158216688368
 30
0.0
 10
8.97774658203125
 20
8.678798421223958
 30
0.0
 10
9.341548665364583
 20
8.64882609049479
 30
0.0
 10
9.531028917100693
 20
9.000914849175347
 30
0.0
 10
8.686980523003472
 20
9.112191433376735
 30
0.0
 10
8.496811252170138
 20
9.175236680772569
 30
0.0
 10
8.261166720920139
 20
9.256024169921874
 30
0.0
 10
7.861191134982638
 20
9.441887071397568
 30
0.0
 10
7.601775444878472
 20
9.352486843532985
 30
0.0
  0
SPLINE
  5
A5
330
29
100
AcDbEntity
  8
LAYER_1
 62
     7
100
AcDbSpline
210
0.0
220
0.0
230
1.0
 70
     8
 71
     3
 72
     8
 73
     4
 74
     0
 42
0.000000001
 43
0.00000001
 40
0.0
 40
0.0
 40
0.0
 40
0.0
 40
1.0
 40
1.0
 40
1.0
 40
1.0
 10
8.222237141927083
 20
8.772677273220486
 30
0.0
 10
8.02931179470486
 20
8.375630018446179
 30
0.0
 10
9.226137966579861
 20
8.299837917751736
 30
0.0
 10
9.411484103732638
 20
8.398367648654514
 30
0.0
  0
SPLINE
  5
A4
330
29
100
AcDbEntity
  8
LAYER_1
 62
     7
100
AcDbSpline
210
0.0
220
0.0
230
1.0
 70
     8
 71
     3
 72
    26
 73
    22
 74
     0
 42
0.000000001
 43
0.00000001
 40
0.0
 40
0.0
 40
0.0
 40
0.0
 40
1.0
 40
1.0
 40
1.0
 40
2.0
 40
2.0
 40
2.0
 40
3.0
 40
3.0
 40
3.0
 40
4.0
 40
4.0
 40
4.0
 40
5.0
 40
5.0
 40
5.0
 40
6.0
 40
6.0
 40
6.0
 40
7.0
 40
7.0
 40
7.0
 40
7.0
 10
2.350071885850694
 20
7.174841986762152
 30
0.0
 10
2.357306586371528
 20
7.447865804036458
 30
0.0
 10
1.862590874565972
 20
7.563448757595485
 30
0.0
 10
1.675177680121528
 20
7.595660400390624
 30
0.0
 10
1.348238118489583
 20
7.650954182942708
 30
0.0
 10
1.039557562934028
 20
7.805983479817708
 30
0.0
 10
0.6953925238715277
 20
7.82992689344618
 30
0.0
 10
0.6440606011284722
 20
7.832855224609374
 30
0.0
 10
0.5076348198784721
 20
7.856109619140624
 30
0.0
 10
0.4652601453993055
 20
7.833544243706596
 30
0.0
 10
0.3570841471354166
 20
7.773944091796874
 30
0.0
 10
0.4535468207465278
 20
7.779456244574652
 30
0.0
 10
0.5017781575520833
 20
7.733808729383679
 30
0.0
 10
0.5896280924479166
 20
7.648542616102429
 30
0.0
 10
0.7422458224826388
 20
7.533993191189236
 30
0.0
 10
0.8445651584201388
 20
7.470775689019097
 30
0.0
 10
1.119483778211805
 20
7.288013373480903
 30
0.0
 10
1.494999186197917
 20
7.337450493706597
 30
0.0
 10
1.807469346788194
 20
7.29662611219618
 30
0.0
 10
1.927358669704861
 20
7.279228379991319
 30
0.0
 10
2.349727376302083
 20
7.069766574435763
 30
0.0
 10
2.367641872829861
 20
7.212221272786458
 30
0.0
  0
SPLINE
  5
A3
330
29
100
AcDbEntity
  8
LAYER_1
 62
     7
100
AcDbSpline
210
0.0
220
0.0
230
1.0
 70
     8
 71
     3
 72
    11
 73
     7
 74
     0
 42
0.000000001
 43
0.00000001
 40
0.0
 40
0.0
 40
0.0
 40
0.0
 40
1.0
 40
1.0
 40
1.0
 40
2.0
 40
2.0
 40
2.0
 40
2.0
 10
2.07584228515625
 20
7.500231255425347
 30
0.0
 10
2.176094563802083
 20
7.675931125217013
 30
0.0
 10
2.02313232421875
 20
7.867306179470486
 30
0.0
 10
1.838475206163194
 20
7.873679606119791
 30
0.0
 10
1.602141655815972
 20
7.888838026258679
 30
0.0
 10
1.584916178385416
 20
7.746555582682291
 30
0.0
 10
1.428164333767361
 20
7.639413113064236
 30
0.0
  0
SPLINE
  5
A2
330
29
100
AcDbEntity
  8
LAYER_1
 62
     7
100
AcDbSpline
210
0.0
220
0.0
230
1.0
 70
     8
 71
     3
 72
    14
 73
    10
 74
     0
 42
0.000000001
 43
0.00000001
 40
0.0
 40
0.0
 40
0.0
 40
0.0
 40
1.0
 40
1.0
 40
1.0
 40
2.0
 40
2.0
 40
2.0
 40
3.0
 40
3.0
 40
3.0
 40
3.0
 10
-0.59996337890625
 20
8.013894992404513
 30
0.0
 10
-0.5234822591145832
 20
7.993913438585069
 30
0.0
 10
0.3109198676215277
 20
7.683165825737847
 30
0.0
 10
0.0794094509548611
 20
8.070739067925347
 30
0.0
 10
0.0142971462673611
 20
8.184771728515624
 30
0.0
 10
-0.2892157660590278
 20
8.208715142144097
 30
0.0
 10
-0.4056599934895833
 20
8.220772976345485
 30
0.0
 10
-0.5679239908854166
 20
8.238515218098957
 30
0.0
 10
-0.7987453884548611
 20
8.122760009765624
 30
0.0
 10
-0.5489759657118055
 20
8.027675374348958
 30
0.0
  0
SPLINE
  5
A1
330
29
100
AcDbEntity
  8
LAYER_1
 62
     7
100
AcDbSpline
210
0.0
220
0.0
230
1.0
 70
     8
 71
     3
 72
    17
 73
    13
 74
     0
 42
0.000000001
 43
0.00000001
 40
0.0
 40
0.0
 40
0.0
 40
0.0
 40
1.0
 40
1.0
 40
1.0
 40
2.0
 40
2.0
 40
2.0
 40
3.0
 40
3.0
 40
3.0
 40
4.0
 40
4.0
 40
4.0
 40
4.0
 10
-1.423685709635417
 20
8.207509358723957
 30
0.0
 10
-1.633836534288194
 20
8.19114515516493
 30
0.0
 10
-1.798167588975694
 20
8.413870578342014
 30
0.0
 10
-2.003150770399305
 20
8.360299343532985
 30
0.0
 10
-2.310453287760416
 20
8.284679497612846
 30
0.0
 10
-1.927703179253472
 20
8.092959933810763
 30
0.0
 10
-1.814359537760416
 20
8.044384087456596
 30
0.0
 10
-1.680345323350694
 20
7.986678738064235
 30
0.0
 10
-1.32860107421875
 20
7.825965033637152
 30
0.0
 10
-1.183218044704861
 20
7.944993082682291
 30
0.0
 10
-1.011996799045139
 20
8.075045437282986
 30
0.0
 10
-1.355817328559028
 20
8.173230658637152
 30
0.0
 10
-1.457792154947916
 20
8.207681613498263
 30
0.0
  0
SPLINE
  5
A0
330
29
100
AcDbEntity
  8
LAYER_1
 62
     7
100
AcDbSpline
210
0.0
220
0.0
230
1.0
 70
    11
 71
     3
 72
    29
 73
    25
 74
     0
 42
0.000000001
 43
0.00000001
 40
0.0
 40
0.0
 40
0.0
 40
0.0
 40
1.0
 40
1.0
 40
1.0
 40
2.0
 40
2.0
 40
2.0
 40
3.0
 40
3.0
 40
3.0
 40
4.0
 40
4.0
 40
4.0
 40
5.0
 40
5.0
 40
5.0
 40
6.0
 40
6.0
 40
6.0
 40
7.0
 40
7.0
 40
7.0
 40
8.0
 40
8.0
 40
8.0
 40
8.0
 10
-1.607309299045139
 20
11.20474243164062
 30
0.0
 10
-1.73477783203125
 20
11.19940253363715
 30
0.0
 10
-1.950785319010417
 20
11.19440714518229
 30
0.0
 10
-2.061717393663194
 20
11.26313680013021
 30
0.0
 10
-2.313209364149305
 20
11.42901814778646
 30
0.0
 10
-2.03243408203125
 20
11.46209106445312
 30
0.0
 10
-1.878438313802083
 20
11.45606214735243
 30
0.0
 10
-1.449179416232639
 20
11.42574530707465
 30
0.0
 10
-1.051959906684028
 20
11.30482245551215
 30
0.0
 10
-0.6578409830729166
 20
11.14393649631076
 30
0.0
 10
-0.2492526584201389
 20
10.9777106391059
 30
0.0
 10
0.17828369140625
 20
11.15237698025173
 30
0.0
 10
0.5872165256076388
 20
11.03128187391493
 30
0.0
 10
0.7091729058159721
 20
10.99097425672743
 30
0.0
 10
0.8648912217881943
 20
10.89950697157118
 30
0.0
 10
0.80770263671875
 20
10.74878404405382
 30
0.0
 10
0.7329440646701388
 20
10.56447143554687
 30
0.0
 10
0.42943115234375
 20
10.66196763780382
 30
0.0
 10
0.2871487087673611
 20
10.68522203233507
 30
0.0
 10
-0.0763088650173611
 20
10.75222913953993
 30
0.0
 10
-0.4659491644965277
 20
10.80201076931423
 30
0.0
 10
-0.8263061523437499
 20
10.9062249077691
 30
0.0
 10
-1.073664008246528
 20
10.96944240993924
 30
0.0
 10
-1.379588487413194
 20
11.20956556532118
 30
0.0
 10
-1.607309299045139
 20
11.20474243164062
 30
0.0
  0
SPLINE
  5
9F
330
29
100
AcDbEntity
  8
LAYER_1
 62
     7
100
AcDbSpline
210
0.0
220
0.0
230
1.0
 70
     8
 71
     3
 72
    11
 73
     7
 74
     0
 42
0.000000001
 43
0.00000001
 40
0.0
 40
0.0
 40
0.0
 40
0.0
 40
1.0
 40
1.0
 40
1.0
 40
2.0
 40
2.0
 40
2.0
 40
2.0
 10
0.7022827148437499
 20
10.64422539605035
 30
0.0
 10
0.9265584309895832
 20
10.65456068250868
 30
0.0
 10
1.704805501302083
 20
10.43562486436632
 30
0.0
 10
1.847776963975694
 20
10.63113403320312
 30
0.0
 10
1.652784559461805
 20
10.91897176106771
 30
0.0
 10
0.9961493598090276
 20
10.86178317599826
 30
0.0
 10
0.6919474283854166
 20
10.95686781141493
 30
0.0
  0
SPLINE
  5
9E
330
29
100
AcDbEntity
  8
LAYER_1
 62
     7
100
AcDbSpline
210
0.0
220
0.0
230
1.0
 70
    11
 71
     3
 72
    20
 73
    16
 74
     0
 42
0.000000001
 43
0.00000001
 40
0.0
 40
0.0
 40
0.0
 40
0.0
 40
1.0
 40
1.0
 40
1.0
 40
2.0
 40
2.0
 40
2.0
 40
3.0
 40
3.0
 40
3.0
 40
4.0
 40
4.0
 40
4.0
 40
5.0
 40
5.0
 40
5.0
 40
5.0
 10
3.28197021484375
 20
10.23322550455729
 30
0.0
 10
3.327100965711805
 20
10.26423136393229
 30
0.0
 10
3.373265245225694
 20
10.30953436957465
 30
0.0
 10
3.409783257378472
 20
10.35483737521701
 30
0.0
 10
3.339503309461805
 20
10.47472669813368
 30
0.0
 10
2.950552029079861
 20
10.58135240342882
 30
0.0
 10
2.817226833767361
 20
10.60736287434896
 30
0.0
 10
2.697682020399305
 20
10.6364739312066
 30
0.0
 10
2.27738037109375
 20
10.75464070638021
 30
0.0
 10
2.180917697482639
 20
10.66110636393229
 30
0.0
 10
2.046214463975694
 20
10.51934068467882
 30
0.0
 10
2.421040852864583
 20
10.43872545030382
 30
0.0
 10
2.508890787760417
 20
10.39290568033854
 30
0.0
 10
2.787254503038194
 20
10.26078626844618
 30
0.0
 10
2.994304741753472
 20
10.12901136610243
 30
0.0
 10
3.28197021484375
 20
10.23322550455729
 30
0.0
  0
SPLINE
  5
9D
330
29
100
AcDbEntity
  8
LAYER_1
 62
     7
100
AcDbSpline
210
0.0
220
0.0
230
1.0
 70
     8
 71
     3
 72
    11
 73
     7
 74
     0
 42
0.000000001
 43
0.00000001
 40
0.0
 40
0.0
 40
0.0
 40
0.0
 40
1.0
 40
1.0
 40
1.0
 40
2.0
 40
2.0
 40
2.0
 40
2.0
 10
3.190675184461805
 20
10.2023918999566
 30
0.0
 10
2.910933430989583
 20
10.01583997938368
 30
0.0
 10
2.48511962890625
 20
10.11126912434896
 30
0.0
 10
2.175750054253472
 20
10.18947279188368
 30
0.0
 10
1.90841064453125
 20
10.25286254882812
 30
0.0
 10
1.485352918836805
 20
10.35690443250868
 30
0.0
 10
1.301384819878472
 20
10.55671997070312
 30
0.0
  0
SPLINE
  5
9C
330
29
100
AcDbEntity
  8
LAYER_1
 62
     7
100
AcDbSpline
210
0.0
220
0.0
230
1.0
 70
     8
 71
     3
 72
    17
 73
    13
 74
     0
 42
0.000000001
 43
0.00000001
 40
0.0
 40
0.0
 40
0.0
 40
0.0
 40
1.0
 40
1.0
 40
1.0
 40
2.0
 40
2.0
 40
2.0
 40
3.0
 40
3.0
 40
3.0
 40
4.0
 40
4.0
 40
4.0
 40
4.0
 10
-1.781975640190972
 20
9.55075208875868
 30
0.0
 10
-1.912200249565972
 20
9.639118787977429
 30
0.0
 10
-2.46651611328125
 20
9.729897054036458
 30
0.0
 10
-2.586060926649306
 20
9.622237820095485
 30
0.0
 10
-2.89749755859375
 20
9.341979302300347
 30
0.0
 10
-2.129930284288194
 20
9.199524603949651
 30
0.0
 10
-1.987992350260416
 20
9.170413547092013
 30
0.0
 10
-1.820560709635417
 20
9.127522108289929
 30
0.0
 10
-1.151178656684028
 20
8.840545654296875
 30
0.0
 10
-1.038868543836805
 20
9.075673421223957
 30
0.0
 10
-0.9300035264756944
 20
9.314590793185763
 30
0.0
 10
-1.680000813802083
 20
9.459457058376735
 30
0.0
 10
-1.832963053385416
 20
9.58795912000868
 30
0.0
  0
SPLINE
  5
9B
330
29
100
AcDbEntity
  8
LAYER_1
 62
     7
100
AcDbSpline
210
0.0
220
0.0
230
1.0
 70
     8
 71
     3
 72
    20
 73
    16
 74
     0
 42
0.000000001
 43
0.00000001
 40
0.0
 40
0.0
 40
0.0
 40
0.0
 40
1.0
 40
1.0
 40
1.0
 40
2.0
 40
2.0
 40
2.0
 40
3.0
 40
3.0
 40
3.0
 40
4.0
 40
4.0
 40
4.0
 40
5.0
 40
5.0
 40
5.0
 40
5.0
 10
2.612932671440972
 20
8.754935031467014
 30
0.0
 10
2.76107177734375
 20
8.748561604817708
 30
0.0
 10
3.019109429253472
 20
8.67328626844618
 30
0.0
 10
3.158291286892361
 20
8.72410142686632
 30
0.0
 10
3.434932454427083
 20
8.831071641710068
 30
0.0
 10
2.969500054253472
 20
9.08066880967882
 30
0.0
 10
2.833418782552083
 20
9.151637776692708
 30
0.0
 10
2.535418023003472
 20
9.300982666015624
 30
0.0
 10
2.202621799045139
 20
9.356448703342013
 30
0.0
 10
1.888429090711805
 20
9.45962931315104
 30
0.0
 10
1.73787841796875
 20
9.508721923828125
 30
0.0
 10
1.408527289496528
 20
9.720250786675347
 30
0.0
 10
1.404737684461805
 20
9.458768039279512
 30
0.0
 10
1.388201226128472
 20
8.975421142578124
 30
0.0
 10
2.340770128038194
 20
8.886709933810764
 30
0.0
 10
2.630158148871527
 20
8.754762776692708
 30
0.0
  0
SPLINE
  5
9A
330
29
100
AcDbEntity
  8
LAYER_1
 62
     7
100
AcDbSpline
210
0.0
220
0.0
230
1.0
 70
     8
 71
     3
 72
    17
 73
    13
 74
     0
 42
0.000000001
 43
0.00000001
 40
0.0
 40
0.0
 40
0.0
 40
0.0
 40
1.0
 40
1.0
 40
1.0
 40
2.0
 40
2.0
 40
2.0
 40
3.0
 40
3.0
 40
3.0
 40
4.0
 40
4.0
 40
4.0
 40
4.0
 10
-1.932181803385417
 20
8.37718031141493
 30
0.0
 10
-2.05413818359375
 20
8.369084337022569
 30
0.0
 10
-2.550920952690972
 20
8.553052435980902
 30
0.0
 10
-2.555744086371528
 20
8.723756917317708
 30
0.0
 10
-2.568490939670139
 20
9.053624810112847
 30
0.0
 10
-1.955608452690972
 20
8.795414903428819
 30
0.0
 10
-1.822627766927083
 20
8.729441324869791
 30
0.0
 10
-1.648994954427083
 20
8.645897759331596
 30
0.0
 10
-1.095368109809028
 20
8.535999213324653
 30
0.0
 10
-1.033700900607639
 20
8.339628770616319
 30
0.0
 10
-0.9468844943576388
 20
8.057819959852429
 30
0.0
 10
-1.475017632378472
 20
8.18494398328993
 30
0.0
 10
-1.596974012586805
 20
8.265042453342014
 30
0.0
  0
SPLINE
  5
99
330
29
100
AcDbEntity
  8
LAYER_1
 62
     7
100
AcDbSpline
210
0.0
220
0.0
230
1.0
 70
     8
 71
     3
 72
    11
 73
     7
 74
     0
 42
0.000000001
 43
0.00000001
 40
0.0
 40
0.0
 40
0.0
 40
0.0
 40
1.0
 40
1.0
 40
1.0
 40
2.0
 40
2.0
 40
2.0
 40
2.0
 10
-6.564457194010416
 20
9.342151557074653
 30
0.0
 10
-6.433888075086805
 20
9.378325059678819
 30
0.0
 10
-6.10970458984375
 20
9.31200697157118
 30
0.0
 10
-6.148634168836805
 20
9.525086127387151
 30
0.0
 10
-6.631636555989583
 20
9.558159044053818
 30
0.0
 10
-7.133586968315972
 20
9.869940185546874
 30
0.0
 10
-7.61348876953125
 20
9.954517279730903
 30
0.0
  0
SPLINE
  5
98
330
29
100
AcDbEntity
  8
LAYER_1
 62
     7
100
AcDbSpline
210
0.0
220
0.0
230
1.0
 70
     8
 71
     3
 72
    11
 73
     7
 74
     0
 42
0.000000001
 43
0.00000001
 40
0.0
 40
0.0
 40
0.0
 40
0.0
 40
1.0
 40
1.0
 40
1.0
 40
2.0
 40
2.0
 40
2.0
 40
2.0
 10
-6.319510904947916
 20
9.551268853081597
 30
0.0
 10
-6.23372802734375
 20
9.556781005859374
 30
0.0
 10
-6.156902398003472
 20
9.562293158637152
 30
0.0
 10
-6.083177354600694
 20
9.590198432074653
 30
0.0
 10
-6.015997992621527
 20
9.976565890842013
 30
0.0
 10
-7.052971733940971
 20
10.04874064127604
 30
0.0
 10
-7.329268391927083
 20
10.07251180013021
 30
0.0
  0
SPLINE
  5
97
330
29
100
AcDbEntity
  8
LAYER_1
 62
     7
100
AcDbSpline
210
0.0
220
0.0
230
1.0
 70
     8
 71
     3
 72
    17
 73
    13
 74
     0
 42
0.000000001
 43
0.00000001
 40
0.0
 40
0.0
 40
0.0
 40
0.0
 40
1.0
 40
1.0
 40
1.0
 40
2.0
 40
2.0
 40
2.0
 40
3.0
 40
3.0
 40
3.0
 40
4.0
 40
4.0
 40
4.0
 40
4.0
 10
-2.381422254774305
 20
8.92753431532118
 30
0.0
 10
-2.489598253038194
 20
8.956473117404514
 30
0.0
 10
-2.50062255859375
 20
9.064821370442708
 30
0.0
 10
-2.576759168836805
 20
9.141646999782985
 30
0.0
 10
-2.679078504774305
 20
9.241554768880208
 30
0.0
 10
-2.803446451822917
 20
9.281862386067708
 30
0.0
 10
-2.93160400390625
 20
9.310628933376735
 30
0.0
 10
-3.079398600260416
 20
9.348352728949651
 30
0.0
 10
-3.550343153211805
 20
9.500970458984375
 30
0.0
 10
-3.67574462890625
 20
9.410364447699651
 30
0.0
 10
-4.012674967447916
 20
9.167312961154513
 30
0.0
 10
-2.669087727864583
 20
8.857598876953125
 30
0.0
 10
-2.515436469184027
 20
8.820391845703124
 30
0.0
  0
SPLINE
  5
96
330
29
100
AcDbEntity
  8
LAYER_1
 62
     7
100
AcDbSpline
210
0.0
220
0.0
230
1.0
 70
     8
 71
     3
 72
    11
 73
     7
 74
     0
 42
0.000000001
 43
0.00000001
 40
0.0
 40
0.0
 40
0.0
 40
0.0
 40
1.0
 40
1.0
 40
1.0
 40
2.0
 40
2.0
 40
2.0
 40
2.0
 10
-3.907255045572916
 20
11.65415513780382
 30
0.0
 10
-3.896575249565972
 20
11.60282321506076
 30
0.0
 10
-3.907944064670139
 20
11.53219875759548
 30
0.0
 10
-3.914145236545139
 20
11.48362291124132
 30
0.0
 10
-4.11327175564236
 20
11.37923651801215
 30
0.0
 10
-4.386123318142361
 20
11.43142971462673
 30
0.0
 10
-4.536673990885416
 20
11.57422892252604
 30
0.0
  0
SPLINE
  5
95
330
29
100
AcDbEntity
  8
LAYER_1
 62
     7
100
AcDbSpline
210
0.0
220
0.0
230
1.0
 70
     8
 71
     3
 72
    23
 73
    19
 74
     0
 42
0.000000001
 43
0.00000001
 40
0.0
 40
0.0
 40
0.0
 40
0.0
 40
1.0
 40
1.0
 40
1.0
 40
2.0
 40
2.0
 40
2.0
 40
3.0
 40
3.0
 40
3.0
 40
4.0
 40
4.0
 40
4.0
 40
5.0
 40
5.0
 40
5.0
 40
6.0
 40
6.0
 40
6.0
 40
6.0
 10
-4.75164794921875
 20
11.84225735134548
 30
0.0
 10
-4.358907063802083
 20
11.80108846028646
 30
0.0
 10
-4.474317762586805
 20
11.44331529405382
 30
0.0
 10
-4.801257324218749
 20
11.40748630099826
 30
0.0
 10
-5.162992350260416
 20
11.37785847981771
 30
0.0
 10
-5.630836317274305
 20
11.60954115125868
 30
0.0
 10
-5.988437228732638
 20
11.68223266601562
 30
0.0
 10
-6.426308865017361
 20
11.76939358181424
 30
0.0
 10
-6.86934814453125
 20
11.8644782172309
 30
0.0
 10
-7.30377468532986
 20
11.96025187174479
 30
0.0
 10
-7.581793891059027
 20
12.02105780707465
 30
0.0
 10
-7.927681477864582
 20
12.24981214735243
 30
0.0
 10
-8.21224636501736
 20
12.15438300238715
 30
0.0
 10
-8.185719129774304
 20
11.87550252278646
 30
0.0
 10
-7.623135036892361
 20
11.72271253797743
 30
0.0
 10
-7.401615397135416
 20
11.66776326497396
 30
0.0
 10
-7.151501464843749
 20
11.60127292209201
 30
0.0
 10
-6.646450466579861
 20
11.35770467122396
 30
0.0
 10
-6.40736083984375
 20
11.51032240125868
 30
0.0
  0
SPLINE
  5
94
330
29
100
AcDbEntity
  8
LAYER_1
 62
     7
100
AcDbSpline
210
0.0
220
0.0
230
1.0
 70
     8
 71
     3
 72
    11
 73
     7
 74
     0
 42
0.000000001
 43
0.00000001
 40
0.0
 40
0.0
 40
0.0
 40
0.0
 40
1.0
 40
1.0
 40
1.0
 40
2.0
 40
2.0
 40
2.0
 40
2.0
 10
-6.42320827907986
 20
11.74906751844618
 30
0.0
 10
-6.441467285156249
 20
11.46209106445312
 30
0.0
 10
-5.890596516927083
 20
11.33513929578993
 30
0.0
 10
-5.674933539496528
 20
11.27708943684896
 30
0.0
 10
-5.552977159288194
 20
11.24298299153646
 30
0.0
 10
-4.790922037760416
 20
11.19991929796007
 30
0.0
 10
-5.151279025607638
 20
11.44021470811632
 30
0.0
  0
SPLINE
  5
93
330
29
100
AcDbEntity
  8
LAYER_1
 62
     7
100
AcDbSpline
210
0.0
220
0.0
230
1.0
 70
     8
 71
     3
 72
     8
 73
     4
 74
     0
 42
0.000000001
 43
0.00000001
 40
0.0
 40
0.0
 40
0.0
 40
0.0
 40
1.0
 40
1.0
 40
1.0
 40
1.0
 10
-6.276791720920138
 20
11.52978719075521
 30
0.0
 10
-6.358784993489583
 20
11.54167277018229
 30
0.0
 10
-6.427342393663194
 20
11.53013170030382
 30
0.0
 10
-6.495899793836805
 20
11.49085761176215
 30
0.0
  0
SPLINE
  5
92
330
29
100
AcDbEntity
  8
LAYER_1
 62
     7
100
AcDbSpline
210
0.0
220
0.0
230
1.0
 70
     8
 71
     3
 72
    11
 73
     7
 74
     0
 42
0.000000001
 43
0.00000001
 40
0.0
 40
0.0
 40
0.0
 40
0.0
 40
1.0
 40
1.0
 40
1.0
 40
2.0
 40
2.0
 40
2.0
 40
2.0
 10
-3.86488037109375
 20
11.65122680664062
 30
0.0
 10
-4.062284342447916
 20
11.4645026312934
 30
0.0
 10
-3.900364854600694
 20
11.36993476019965
 30
0.0
 10
-3.724320475260416
 20
11.29827677408854
 30
0.0
 10
-3.588239203559028
 20
11.24074367947049
 30
0.0
 10
-3.134175618489583
 20
11.06263224283854
 30
0.0
 10
-3.306085883246527
 20
11.42161119249132
 30
0.0
  0
SPLINE
  5
91
330
29
100
AcDbEntity
  8
LAYER_1
 62
     7
100
AcDbSpline
210
0.0
220
0.0
230
1.0
 70
     8
 71
     3
 72
    26
 73
    22
 74
     0
 42
0.000000001
 43
0.00000001
 40
0.0
 40
0.0
 40
0.0
 40
0.0
 40
1.0
 40
1.0
 40
1.0
 40
2.0
 40
2.0
 40
2.0
 40
3.0
 40
3.0
 40
3.0
 40
4.0
 40
4.0
 40
4.0
 40
5.0
 40
5.0
 40
5.0
 40
6.0
 40
6.0
 40
6.0
 40
7.0
 40
7.0
 40
7.0
 40
7.0
 10
-1.800579155815972
 20
9.761075168185762
 30
0.0
 10
-1.701015896267361
 20
9.737993028428818
 30
0.0
 10
-1.332390679253472
 20
9.625682915581596
 30
0.0
 10
-1.283125813802083
 20
9.776233588324653
 30
0.0
 10
-1.219736056857639
 20
9.95227796766493
 30
0.0
 10
-1.614888509114583
 20
10.07888522677951
 30
0.0
 10
-1.719619411892361
 20
10.11075236002604
 30
0.0
 10
-2.139576551649305
 20
10.2459723578559
 30
0.0
 10
-2.577103678385416
 20
10.41805487738715
 30
0.0
 10
-2.999472384982639
 20
10.58445298936632
 30
0.0
 10
-3.156224229600694
 20
10.64474216037326
 30
0.0
 10
-3.337436252170138
 20
10.76221991644965
 30
0.0
 10
-3.513825141059027
 20
10.7544684516059
 30
0.0
 10
-3.891752115885416
 20
10.73293660481771
 30
0.0
 10
-3.509002007378472
 20
10.5155510796441
 30
0.0
 10
-3.35328369140625
 20
10.42115546332465
 30
0.0
 10
-2.879583062065972
 20
10.14933742947049
 30
0.0
 10
-2.33939208984375
 20
10.05321926540799
 30
0.0
 10
-1.862590874565972
 20
9.829632568359374
 30
0.0
 10
-1.823316786024305
 20
9.812407090928819
 30
0.0
 10
-1.786454264322916
 20
9.78949720594618
 30
0.0
 10
-1.755103895399305
 20
9.761075168185762
 30
0.0
  0
SPLINE
  5
90
330
29
100
AcDbEntity
  8
LAYER_1
 62
     7
100
AcDbSpline
210
0.0
220
0.0
230
1.0
 70
     8
 71
     3
 72
    11
 73
     7
 74
     0
 42
0.000000001
 43
0.00000001
 40
0.0
 40
0.0
 40
0.0
 40
0.0
 40
1.0
 40
1.0
 40
1.0
 40
2.0
 40
2.0
 40
2.0
 40
2.0
 10
9.329490831163193
 20
8.398712158203125
 30
0.0
 10
9.138632541232639
 20
8.399401177300346
 30
0.0
 10
8.971200900607638
 20
8.405946858723958
 30
0.0
 10
8.791366916232638
 20
8.361160617404513
 30
0.0
 10
8.711096191406249
 20
8.117075602213541
 30
0.0
 10
9.21993679470486
 20
8.072633870442708
 30
0.0
 10
9.38702392578125
 20
8.069016520182291
 30
0.0
  0
SPLINE
  5
8F
330
29
100
AcDbEntity
  8
LAYER_1
 62
     7
100
AcDbSpline
210
0.0
220
0.0
230
1.0
 70
     8
 71
     3
 72
    11
 73
     7
 74
     0
 42
0.000000001
 43
0.00000001
 40
0.0
 40
0.0
 40
0.0
 40
0.0
 40
1.0
 40
1.0
 40
1.0
 40
2.0
 40
2.0
 40
2.0
 40
2.0
 10
9.412862141927082
 20
8.06591593424479
 30
0.0
 10
9.21993679470486
 20
8.075389946831596
 30
0.0
 10
8.698004828559027
 20
8.327226426866318
 30
0.0
 10
8.588450792100694
 20
8.08072984483507
 30
0.0
 10
8.459259711371526
 20
7.776872422960069
 30
0.0
 10
9.178251139322915
 20
7.702802870008679
 30
0.0
 10
9.357740614149305
 20
7.722095404730903
 30
0.0
  0
SPLINE
  5
8E
330
29
100
AcDbEntity
  8
LAYER_1
 62
     7
100
AcDbSpline
210
0.0
220
0.0
230
1.0
 70
     8
 71
     3
 72
    17
 73
    13
 74
     0
 42
0.000000001
 43
0.00000001
 40
0.0
 40
0.0
 40
0.0
 40
0.0
 40
1.0
 40
1.0
 40
1.0
 40
2.0
 40
2.0
 40
2.0
 40
3.0
 40
3.0
 40
3.0
 40
4.0
 40
4.0
 40
4.0
 40
4.0
 10
9.330868869357639
 20
7.397911919487846
 30
0.0
 10
9.177217610677083
 20
7.512461344401041
 30
0.0
 10
8.932960340711805
 20
7.485072835286458
 30
0.0
 10
8.74520263671875
 20
7.513839382595485
 30
0.0
 10
8.628758409288194
 20
7.537093777126735
 30
0.0
 10
8.10682644314236
 20
7.75551283094618
 30
0.0
 10
8.120262315538193
 20
7.559486897786457
 30
0.0
 10
8.130942111545139
 20
7.431329345703125
 30
0.0
 10
8.55331081814236
 20
7.247533501519096
 30
0.0
 10
8.647706434461805
 20
7.210326470269097
 30
0.0
 10
8.82616238064236
 20
7.132811821831597
 30
0.0
 10
9.002206759982638
 20
7.072694905598958
 30
0.0
 10
9.215458170572916
 20
7.071661376953124
 30
0.0
  0
SPLINE
  5
8D
330
29
100
AcDbEntity
  8
LAYER_1
 62
     7
100
AcDbSpline
210
0.0
220
0.0
230
1.0
 70
     8
 71
     3
 72
    11
 73
     7
 74
     0
 42
0.000000001
 43
0.00000001
 40
0.0
 40
0.0
 40
0.0
 40
0.0
 40
1.0
 40
1.0
 40
1.0
 40
2.0
 40
2.0
 40
2.0
 40
2.0
 10
9.120373535156249
 20
6.813279215494791
 30
0.0
 10
8.830641004774305
 20
6.848763699001736
 30
0.0
 10
8.586728244357639
 20
6.985878499348957
 30
0.0
 10
8.285282389322916
 20
6.981744384765625
 30
0.0
 10
8.287693956163194
 20
6.884592692057291
 30
0.0
 10
8.937094455295139
 20
6.589348008897569
 30
0.0
 10
9.073864746093749
 20
6.577806939019097
 30
0.0
  0
SPLINE
  5
8C
330
29
100
AcDbEntity
  8
LAYER_1
 62
     7
100
AcDbSpline
210
0.0
220
0.0
230
1.0
 70
     8
 71
     3
 72
    11
 73
     7
 74
     0
 42
0.000000001
 43
0.00000001
 40
0.0
 40
0.0
 40
0.0
 40
0.0
 40
1.0
 40
1.0
 40
1.0
 40
2.0
 40
2.0
 40
2.0
 40
2.0
 10
8.59981960720486
 20
6.758329942491319
 30
0.0
 10
8.39518093532986
 20
6.759363471137152
 30
0.0
 10
8.147823079427083
 20
6.737487114800347
 30
0.0
 10
8.402415635850694
 20
6.554724799262152
 30
0.0
 10
8.564335123697916
 20
6.43156263563368
 30
0.0
 10
8.817205132378472
 20
6.399523247612847
 30
0.0
 10
9.001517740885415
 20
6.339061821831597
 30
0.0
  0
SPLINE
  5
8B
330
29
100
AcDbEntity
  8
LAYER_1
 62
     7
100
AcDbSpline
210
0.0
220
0.0
230
1.0
 70
     8
 71
     3
 72
    23
 73
    19
 74
     0
 42
0.000000001
 43
0.00000001
 40
0.0
 40
0.0
 40
0.0
 40
0.0
 40
1.0
 40
1.0
 40
1.0
 40
2.0
 40
2.0
 40
2.0
 40
3.0
 40
3.0
 40
3.0
 40
4.0
 40
4.0
 40
4.0
 40
5.0
 40
5.0
 40
5.0
 40
6.0
 40
6.0
 40
6.0
 40
6.0
 10
6.493143717447916
 20
6.738348388671874
 30
0.0
 10
6.566868760850694
 20
6.73231947157118
 30
0.0
 10
6.646450466579861
 20
6.680643039279513
 30
0.0
 10
6.720520019531249
 20
6.669446478949652
 30
0.0
 10
6.839720323350694
 20
6.646192084418402
 30
0.0
 10
6.947896321614583
 20
6.628277587890625
 30
0.0
 10
7.069852701822916
 20
6.639474148220486
 30
0.0
 10
7.163214789496527
 20
6.644814046223957
 30
0.0
 10
7.459148491753472
 20
6.65480482313368
 30
0.0
 10
7.329268391927083
 20
6.820169406467013
 30
0.0
 10
7.156669108072916
 20
7.037038167317708
 30
0.0
 10
6.73292236328125
 20
6.981744384765625
 30
0.0
 10
6.503134494357639
 20
7.065287950303818
 30
0.0
 10
6.366708713107639
 20
7.113863796657985
 30
0.0
 10
6.187908257378472
 20
7.137462700737847
 30
0.0
 10
6.042869737413194
 20
7.089920383029513
 30
0.0
 10
5.961909993489583
 20
6.822753228081597
 30
0.0
 10
6.348794216579861
 20
6.824131266276041
 30
0.0
 10
6.504512532552083
 20
6.732491726345486
 30
0.0
  0
SPLINE
  5
8A
330
29
100
AcDbEntity
  8
LAYER_1
 62
     7
100
AcDbSpline
210
0.0
220
0.0
230
1.0
 70
     8
 71
     3
 72
    23
 73
    19
 74
     0
 42
0.000000001
 43
0.00000001
 40
0.0
 40
0.0
 40
0.0
 40
0.0
 40
1.0
 40
1.0
 40
1.0
 40
2.0
 40
2.0
 40
2.0
 40
3.0
 40
3.0
 40
3.0
 40
4.0
 40
4.0
 40
4.0
 40
5.0
 40
5.0
 40
5.0
 40
6.0
 40
6.0
 40
6.0
 40
6.0
 10
7.244519042968749
 20
6.900267876519097
 30
0.0
 10
7.400237358940972
 20
6.822753228081597
 30
0.0
 10
7.536663140190972
 20
6.796742757161458
 30
0.0
 10
7.707195366753472
 20
6.773316107855902
 30
0.0
 10
7.868770345052083
 20
6.755746120876736
 30
0.0
 10
8.068241373697916
 20
6.720606146918402
 30
0.0
 10
8.221892632378472
 20
6.77727796766493
 30
0.0
 10
8.262200249565971
 20
6.919043646918402
 30
0.0
 10
7.600397406684027
 20
7.09508802625868
 30
0.0
 10
7.495666503906249
 20
7.121270751953125
 30
0.0
 10
7.367508951822916
 20
7.144352891710069
 30
0.0
 10
7.26036648220486
 20
7.209981960720485
 30
0.0
 10
7.129108344184028
 20
7.21911146375868
 30
0.0
 10
7.069852701822916
 20
7.224968126085069
 30
0.0
 10
6.98131374782986
 20
7.24236585828993
 30
0.0
 10
6.941350640190971
 20
7.168813069661458
 30
0.0
 10
6.918613009982638
 20
7.128849962022569
 30
0.0
 10
6.937561035156249
 20
7.020846218532985
 30
0.0
 10
6.974768066406249
 20
7.009305148654513
 30
0.0
  0
SPLINE
  5
89
330
29
100
AcDbEntity
  8
LAYER_1
 62
     7
100
AcDbSpline
210
0.0
220
0.0
230
1.0
 70
     8
 71
     3
 72
    17
 73
    13
 74
     0
 42
0.000000001
 43
0.00000001
 40
0.0
 40
0.0
 40
0.0
 40
0.0
 40
1.0
 40
1.0
 40
1.0
 40
2.0
 40
2.0
 40
2.0
 40
3.0
 40
3.0
 40
3.0
 40
4.0
 40
4.0
 40
4.0
 40
4.0
 10
4.957320149739583
 20
7.327287462022569
 30
0.0
 10
5.014853244357639
 20
7.431846110026041
 30
0.0
 10
5.296317545572916
 20
7.342962646484374
 30
0.0
 10
5.38416748046875
 20
7.314196099175347
 30
0.0
 10
5.579848904079861
 20
7.253390163845485
 30
0.0
 10
5.782076009114583
 20
7.235647922092014
 30
0.0
 10
5.929181586371527
 20
7.078551567925347
 30
0.0
 10
5.871993001302083
 20
7.007927110460069
 30
0.0
 10
5.567791069878472
 20
7.066149224175347
 30
0.0
 10
5.47408447265625
 20
7.069422064887152
 30
0.0
 10
5.312509494357639
 20
7.07028333875868
 30
0.0
 10
5.175739203559028
 20
7.064771185980902
 30
0.0
 10
5.031045193142361
 20
7.13074476453993
 30
0.0
  0
SPLINE
  5
88
330
29
100
AcDbEntity
  8
LAYER_1
 62
     7
100
AcDbSpline
210
0.0
220
0.0
230
1.0
 70
     8
 71
     3
 72
    23
 73
    19
 74
     0
 42
0.000000001
 43
0.00000001
 40
0.0
 40
0.0
 40
0.0
 40
0.0
 40
1.0
 40
1.0
 40
1.0
 40
2.0
 40
2.0
 40
2.0
 40
3.0
 40
3.0
 40
3.0
 40
4.0
 40
4.0
 40
4.0
 40
5.0
 40
5.0
 40
5.0
 40
6.0
 40
6.0
 40
6.0
 40
6.0
 10
8.168493652343749
 20
7.672830539279513
 30
0.0
 10
8.123707411024304
 20
7.749656168619791
 30
0.0
 10
8.035857476128472
 20
7.772910563151041
 30
0.0
 10
7.961787923177083
 20
7.810289849175346
 30
0.0
 10
7.868081325954861
 20
7.855937364366318
 30
0.0
 10
7.774719238281249
 20
7.856454128689236
 30
0.0
 10
7.67550048828125
 20
7.893833414713541
 30
0.0
 10
7.56732449001736
 20
7.927939860026041
 30
0.0
 10
7.172861056857638
 20
8.094510226779514
 30
0.0
 10
7.143233235677083
 20
7.878674994574652
 30
0.0
 10
7.114294433593749
 20
7.677136908637152
 30
0.0
 10
7.398170301649305
 20
7.638724093967014
 30
0.0
 10
7.534940592447916
 20
7.609785291883679
 30
0.0
 10
7.636915418836804
 20
7.589803738064235
 30
0.0
 10
7.748192003038194
 20
7.60048353407118
 30
0.0
 10
7.852922905815971
 20
7.594282362196179
 30
0.0
 10
7.929748535156249
 20
7.588425699869791
 30
0.0
 10
8.009330240885417
 20
7.556903076171874
 30
0.0
 10
8.083055284288193
 20
7.579296196831597
 30
0.0
  0
SPLINE
  5
87
330
29
100
AcDbEntity
  8
LAYER_1
 62
     7
100
AcDbSpline
210
0.0
220
0.0
230
1.0
 70
     8
 71
     3
 72
    11
 73
     7
 74
     0
 42
0.000000001
 43
0.00000001
 40
0.0
 40
0.0
 40
0.0
 40
0.0
 40
1.0
 40
1.0
 40
1.0
 40
2.0
 40
2.0
 40
2.0
 40
2.0
 10
7.364408365885416
 20
7.65009290907118
 30
0.0
 10
7.33478054470486
 20
7.42840101453993
 30
0.0
 10
7.553544108072916
 20
7.351058620876735
 30
0.0
 10
7.743713378906249
 20
7.333488633897569
 30
0.0
 10
7.848444281684027
 20
7.32143079969618
 30
0.0
 10
8.175383843315972
 20
7.249256049262153
 30
0.0
 10
8.22740478515625
 20
7.379480658637152
 30
0.0
  0
SPLINE
  5
86
330
29
100
AcDbEntity
  8
LAYER_1
 62
     7
100
AcDbSpline
210
0.0
220
0.0
230
1.0
 70
     8
 71
     3
 72
    17
 73
    13
 74
     0
 42
0.000000001
 43
0.00000001
 40
0.0
 40
0.0
 40
0.0
 40
0.0
 40
1.0
 40
1.0
 40
1.0
 40
2.0
 40
2.0
 40
2.0
 40
3.0
 40
3.0
 40
3.0
 40
4.0
 40
4.0
 40
4.0
 40
4.0
 10
8.16539306640625
 20
8.789730495876736
 30
0.0
 10
8.005540635850693
 20
8.653993733723958
 30
0.0
 10
7.633470323350694
 20
8.735470241970486
 30
0.0
 10
7.445712619357638
 20
8.76974894205729
 30
0.0
 10
7.278625488281249
 20
8.810401068793402
 30
0.0
 10
7.073986816406249
 20
8.811434597439236
 30
0.0
 10
6.923091634114583
 20
8.908414035373264
 30
0.0
 10
6.875204806857639
 20
8.937180582682291
 30
0.0
 10
6.798723687065972
 20
8.985756429036458
 30
0.0
 10
6.759105088975693
 20
9.022791205512151
 30
0.0
 10
6.707773166232638
 20
9.071539306640624
 30
0.0
 10
6.682279459635416
 20
9.154049343532986
 30
0.0
 10
6.623368326822916
 20
9.199696858723957
 30
0.0
  0
SPLINE
  5
85
330
29
100
AcDbEntity
  8
LAYER_1
 62
     7
100
AcDbSpline
210
0.0
220
0.0
230
1.0
 70
    11
 71
     3
 72
    35
 73
    31
 74
     0
 42
0.000000001
 43
0.00000001
 40
0.0
 40
0.0
 40
0.0
 40
0.0
 40
1.0
 40
1.0
 40
1.0
 40
2.0
 40
2.0
 40
2.0
 40
3.0
 40
3.0
 40
3.0
 40
4.0
 40
4.0
 40
4.0
 40
5.0
 40
5.0
 40
5.0
 40
6.0
 40
6.0
 40
6.0
 40
7.0
 40
7.0
 40
7.0
 40
8.0
 40
8.0
 40
8.0
 40
9.0
 40
9.0
 40
9.0
 40
10.0
 40
10.0
 40
10.0
 40
10.0
 10
6.006696234809027
 20
8.730130343967014
 30
0.0
 10
5.816182454427083
 20
8.73374769422743
 30
0.0
 10
5.62911376953125
 20
8.76010267469618
 30
0.0
 10
5.447557237413194
 20
8.811951361762151
 30
0.0
 10
5.35350613064236
 20
8.835205756293401
 30
0.0
 10
5.26014404296875
 20
8.85501505533854
 30
0.0
 10
5.163336859809028
 20
8.861388481987847
 30
0.0
 10
5.092712402343749
 20
8.864489067925346
 30
0.0
 10
4.941817220052083
 20
8.899284532335068
 30
0.0
 10
4.975234646267361
 20
8.796792941623263
 30
0.0
 10
4.997627766927083
 20
8.71703898111979
 30
0.0
 10
5.188486056857639
 20
8.744944254557291
 30
0.0
 10
5.262211100260417
 20
8.727202012803819
 30
0.0
 10
5.335936143663194
 20
8.709804280598958
 30
0.0
 10
5.421374511718749
 20
8.66984117296007
 30
0.0
 10
5.48958740234375
 20
8.635562472873263
 30
0.0
 10
5.685268825954861
 20
8.543750678168403
 30
0.0
 10
5.895419650607638
 20
8.557186550564236
 30
0.0
 10
6.096957736545138
 20
8.47949964735243
 30
0.0
 10
6.219258626302083
 20
8.433507622612847
 30
0.0
 10
6.352583821614583
 20
8.387515597873263
 30
0.0
 10
6.483152940538194
 20
8.370117865668401
 30
0.0
 10
6.574103461371527
 20
8.358404541015624
 30
0.0
 10
6.73326687282986
 20
8.369084337022569
 30
0.0
 10
6.668499077690972
 20
8.488973659939235
 30
0.0
 10
6.615100097656249
 20
8.588881429036457
 30
0.0
 10
6.322611490885416
 20
8.649342854817707
 30
0.0
 10
6.217536078559027
 20
8.678109402126735
 30
0.0
 10
6.146567111545139
 20
8.698263210720485
 30
0.0
 10
6.078009711371527
 20
8.71858927408854
 30
0.0
 10
6.006696234809027
 20
8.730130343967014
 30
0.0
  0
SPLINE
  5
84
330
29
100
AcDbEntity
  8
LAYER_1
 62
     7
100
AcDbSpline
210
0.0
220
0.0
230
1.0
 70
     8
 71
     3
 72
    20
 73
    16
 74
     0
 42
0.000000001
 43
0.00000001
 40
0.0
 40
0.0
 40
0.0
 40
0.0
 40
1.0
 40
1.0
 40
1.0
 40
2.0
 40
2.0
 40
2.0
 40
3.0
 40
3.0
 40
3.0
 40
4.0
 40
4.0
 40
4.0
 40
5.0
 40
5.0
 40
5.0
 40
5.0
 10
6.674700249565972
 20
8.460379367404514
 30
0.0
 10
6.808369954427083
 20
8.604901123046874
 30
0.0
 10
7.251064724392361
 20
8.432646348741319
 30
0.0
 10
7.401615397135416
 20
8.389238145616318
 30
0.0
 10
7.552166069878472
 20
8.340317789713541
 30
0.0
 10
7.736478678385416
 20
8.311378987630208
 30
0.0
 10
7.838453504774304
 20
8.188905843098958
 30
0.0
 10
7.900809733072916
 20
8.114491780598957
 30
0.0
 10
7.937672254774305
 20
8.05471937391493
 30
0.0
 10
7.837419976128471
 20
8.000975884331597
 30
0.0
 10
7.664131673177082
 20
7.91674329969618
 30
0.0
 10
7.391280110677083
 20
8.068155246310763
 30
0.0
 10
7.244174533420138
 20
8.145497639973957
 30
0.0
 10
7.048837619357638
 20
8.24264933268229
 30
0.0
 10
6.824217393663194
 20
8.249195014105903
 30
0.0
 10
6.634048122829861
 20
8.35547620985243
 30
0.0
  0
SPLINE
  5
83
330
29
100
AcDbEntity
  8
LAYER_1
 62
     7
100
AcDbSpline
210
0.0
220
0.0
230
1.0
 70
     8
 71
     3
 72
    20
 73
    16
 74
     0
 42
0.000000001
 43
0.00000001
 40
0.0
 40
0.0
 40
0.0
 40
0.0
 40
1.0
 40
1.0
 40
1.0
 40
2.0
 40
2.0
 40
2.0
 40
3.0
 40
3.0
 40
3.0
 40
4.0
 40
4.0
 40
4.0
 40
5.0
 40
5.0
 40
5.0
 40
5.0
 10
7.154946560329861
 20
7.941203477647568
 30
0.0
 10
6.953408474392361
 20
7.947576904296874
 30
0.0
 10
6.757727050781249
 20
8.033876546223958
 30
0.0
 10
6.564457194010416
 20
8.093993462456597
 30
0.0
 10
6.405638292100694
 20
8.137229410807292
 30
0.0
 10
6.229249403211805
 20
8.126721869574652
 30
0.0
 10
6.061473253038194
 20
8.173058403862846
 30
0.0
 10
5.982236056857638
 20
8.195968288845485
 30
0.0
 10
5.91126708984375
 20
8.23575914171007
 30
0.0
 10
5.834785970052083
 20
8.264870198567708
 30
0.0
 10
5.661497667100694
 20
8.321886528862846
 30
0.0
 10
5.473395453559028
 20
8.314307318793402
 30
0.0
 10
5.312509494357639
 20
8.414387342664929
 30
0.0
 10
5.073764377170138
 20
8.560287136501735
 30
0.0
 10
5.441011555989583
 20
8.618509250217013
 30
0.0
 10
5.55504421657986
 20
8.61558091905382
 30
0.0
  0
SPLINE
  5
82
330
29
100
AcDbEntity
  8
LAYER_1
 62
     7
100
AcDbSpline
210
0.0
220
0.0
230
1.0
 70
     8
 71
     3
 72
    17
 73
    13
 74
     0
 42
0.000000001
 43
0.00000001
 40
0.0
 40
0.0
 40
0.0
 40
0.0
 40
1.0
 40
1.0
 40
1.0
 40
2.0
 40
2.0
 40
2.0
 40
3.0
 40
3.0
 40
3.0
 40
4.0
 40
4.0
 40
4.0
 40
4.0
 10
5.051026746961806
 20
9.751773410373263
 30
0.0
 10
4.928381347656249
 20
9.655655246310763
 30
0.0
 10
4.984191894531249
 20
9.473409695095485
 30
0.0
 10
5.106148274739583
 20
9.410364447699651
 30
0.0
 10
5.28804931640625
 20
9.315968831380207
 30
0.0
 10
5.549187554253471
 20
9.277556016710069
 30
0.0
 10
5.750725640190971
 20
9.254301622178819
 30
0.0
 10
5.89576416015625
 20
9.230874972873263
 30
0.0
 10
6.054927571614583
 20
9.241727023654514
 30
0.0
 10
6.199621582031249
 20
9.215544297960069
 30
0.0
 10
6.341904025607638
 20
9.189361572265625
 30
0.0
 10
6.591673448350694
 20
9.094793701171874
 30
0.0
 10
6.708462185329861
 20
9.18798353407118
 30
0.0
  0
SPLINE
  5
81
330
29
100
AcDbEntity
  8
LAYER_1
 62
     7
100
AcDbSpline
210
0.0
220
0.0
230
1.0
 70
     8
 71
     3
 72
    14
 73
    10
 74
     0
 42
0.000000001
 43
0.00000001
 40
0.0
 40
0.0
 40
0.0
 40
0.0
 40
1.0
 40
1.0
 40
1.0
 40
2.0
 40
2.0
 40
2.0
 40
3.0
 40
3.0
 40
3.0
 40
3.0
 10
5.665631781684027
 20
9.266014946831596
 30
0.0
 10
5.588461642795139
 20
9.277383761935763
 30
0.0
 10
5.458237033420138
 20
9.343701850043402
 30
0.0
 10
5.38141140407986
 20
9.309767659505207
 30
0.0
 10
5.287704806857638
 20
9.261880832248263
 30
0.0
 10
5.252909342447916
 20
9.125455050998264
 30
0.0
 10
5.272201877170138
 20
9.02864786783854
 30
0.0
 10
5.302518717447916
 20
8.837961832682291
 30
0.0
 10
5.563656955295138
 20
8.783012559678818
 30
0.0
 10
5.725920952690972
 20
8.782495795355903
 30
0.0
  0
SPLINE
  5
80
330
29
100
AcDbEntity
  8
LAYER_1
 62
     7
100
AcDbSpline
210
0.0
220
0.0
230
1.0
 70
     8
 71
     3
 72
    17
 73
    13
 74
     0
 42
0.000000001
 43
0.00000001
 40
0.0
 40
0.0
 40
0.0
 40
0.0
 40
1.0
 40
1.0
 40
1.0
 40
2.0
 40
2.0
 40
2.0
 40
3.0
 40
3.0
 40
3.0
 40
4.0
 40
4.0
 40
4.0
 40
4.0
 10
8.218447536892361
 20
8.625054931640625
 30
0.0
 10
8.121640353732639
 20
8.648137071397569
 30
0.0
 10
7.482919650607638
 20
8.758724636501736
 30
0.0
 10
7.47396240234375
 20
8.622298855251735
 30
0.0
 10
7.467761230468749
 20
8.562698703342013
 30
0.0
 10
7.743368869357639
 20
8.479155137803819
 30
0.0
 10
7.80296902126736
 20
8.461757405598958
 30
0.0
 10
7.927681477864582
 20
8.42678968641493
 30
0.0
 10
8.049637858072916
 20
8.386654324001736
 30
0.0
 10
8.174694824218749
 20
8.34341837565104
 30
0.0
 10
8.373476833767361
 20
8.27176038953993
 30
0.0
 10
8.566402180989583
 20
8.185977511935763
 30
0.0
 10
8.77689751519097
 20
8.179259575737847
 30
0.0
  0
SPLINE
  5
7F
330
29
100
AcDbEntity
  8
LAYER_1
 62
     7
100
AcDbSpline
210
0.0
220
0.0
230
1.0
 70
     8
 71
     3
 72
    17
 73
    13
 74
     0
 42
0.000000001
 43
0.00000001
 40
0.0
 40
0.0
 40
0.0
 40
0.0
 40
1.0
 40
1.0
 40
1.0
 40
2.0
 40
2.0
 40
2.0
 40
3.0
 40
3.0
 40
3.0
 40
4.0
 40
4.0
 40
4.0
 40
4.0
 10
8.553655327690972
 20
7.946887885199652
 30
0.0
 10
8.277703179253471
 20
7.947921413845485
 30
0.0
 10
8.079610188802082
 20
8.071083577473958
 30
0.0
 10
7.849822319878472
 20
8.199930148654513
 30
0.0
 10
7.793322753906249
 20
8.234381103515624
 30
0.0
 10
7.730966525607638
 20
8.262803141276041
 30
0.0
 10
7.676878526475694
 20
8.297254096137152
 30
0.0
 10
7.625546603732638
 20
8.32602064344618
 30
0.0
 10
7.541141764322916
 20
8.346002197265625
 30
0.0
 10
7.507035319010416
 20
8.388721381293403
 30
0.0
 10
7.456392415364583
 20
8.457278781467013
 30
0.0
 10
7.510135904947916
 20
8.525319417317707
 30
0.0
 10
7.592818196614583
 20
8.51360609266493
 30
0.0
  0
SPLINE
  5
7E
330
29
100
AcDbEntity
  8
LAYER_1
 62
     7
100
AcDbSpline
210
0.0
220
0.0
230
1.0
 70
     8
 71
     3
 72
    20
 73
    16
 74
     0
 42
0.000000001
 43
0.00000001
 40
0.0
 40
0.0
 40
0.0
 40
0.0
 40
1.0
 40
1.0
 40
1.0
 40
2.0
 40
2.0
 40
2.0
 40
3.0
 40
3.0
 40
3.0
 40
4.0
 40
4.0
 40
4.0
 40
5.0
 40
5.0
 40
5.0
 40
5.0
 10
6.282992892795138
 20
8.137746175130207
 30
0.0
 10
6.186530219184027
 20
8.143947347005208
 30
0.0
 10
6.126585557725694
 20
8.067638481987846
 30
0.0
 10
6.126241048177083
 20
7.970831298828124
 30
0.0
 10
6.122451443142361
 20
7.845602077907985
 30
0.0
 10
6.230627441406249
 20
7.796681722005208
 30
0.0
 10
6.338458930121528
 20
7.773599582248263
 30
0.0
 10
6.488665093315972
 20
7.744488525390624
 30
0.0
 10
6.630947536892361
 20
7.744144015842013
 30
0.0
 10
6.787354871961805
 20
7.726401774088541
 30
0.0
 10
6.875893825954861
 20
7.720372856987846
 30
0.0
 10
6.971667480468749
 20
7.674553087022569
 30
0.0
 10
7.062962510850694
 20
7.662667507595486
 30
0.0
 10
7.133931477864583
 20
7.656638590494791
 30
0.0
 10
7.18285183376736
 20
7.719167073567708
 30
0.0
 10
7.253820800781249
 20
7.710382080078125
 30
0.0
  0
SPLINE
  5
7D
330
29
100
AcDbEntity
  8
LAYER_1
 62
     7
100
AcDbSpline
210
0.0
220
0.0
230
1.0
 70
     8
 71
     3
 72
    11
 73
     7
 74
     0
 42
0.000000001
 43
0.00000001
 40
0.0
 40
0.0
 40
0.0
 40
0.0
 40
1.0
 40
1.0
 40
1.0
 40
2.0
 40
2.0
 40
2.0
 40
2.0
 10
7.490843370225694
 20
7.394122314453124
 30
0.0
 10
7.271390787760416
 20
7.150381808810764
 30
0.0
 10
7.036435275607638
 20
7.401357014973958
 30
0.0
 10
6.789421929253471
 20
7.481972249348957
 30
0.0
 10
6.689514160156249
 20
7.516423204210069
 30
0.0
 10
5.968455674913194
 20
7.627355278862846
 30
0.0
 10
6.111082628038194
 20
7.797026231553819
 30
0.0
  0
SPLINE
  5
7C
330
29
100
AcDbEntity
  8
LAYER_1
 62
     7
100
AcDbSpline
210
0.0
220
0.0
230
1.0
 70
     8
 71
     3
 72
    14
 73
    10
 74
     0
 42
0.000000001
 43
0.00000001
 40
0.0
 40
0.0
 40
0.0
 40
0.0
 40
1.0
 40
1.0
 40
1.0
 40
2.0
 40
2.0
 40
2.0
 40
3.0
 40
3.0
 40
3.0
 40
3.0
 10
6.904488118489582
 20
7.134534369574652
 30
0.0
 10
6.687791612413194
 20
7.098533121744791
 30
0.0
 10
6.501067437065972
 20
7.309717475043402
 30
0.0
 10
6.299529351128472
 20
7.361910671657985
 30
0.0
 10
6.208923339843749
 20
7.387404378255208
 30
0.0
 10
6.092479112413194
 20
7.410658772786458
 30
0.0
 10
6.021854654947916
 20
7.473531765407985
 30
0.0
 10
5.897142198350694
 20
7.58498060438368
 30
0.0
 10
6.036668565538194
 20
7.649748399522569
 30
0.0
 10
6.099369303385416
 20
7.74621107313368
 30
0.0
  0
SPLINE
  5
7B
330
29
100
AcDbEntity
  8
LAYER_1
 62
     7
100
AcDbSpline
210
0.0
220
0.0
230
1.0
 70
     8
 71
     3
 72
    11
 73
     7
 74
     0
 42
0.000000001
 43
0.00000001
 40
0.0
 40
0.0
 40
0.0
 40
0.0
 40
1.0
 40
1.0
 40
1.0
 40
2.0
 40
2.0
 40
2.0
 40
2.0
 10
6.429409450954861
 20
7.105423312717013
 30
0.0
 10
6.488665093315972
 20
7.113347032335069
 30
0.0
 10
6.582371690538194
 20
7.03927747938368
 30
0.0
 10
6.634392632378471
 20
7.061842854817708
 30
0.0
 10
6.719141981336805
 20
7.098360866970485
 30
0.0
 10
6.614411078559027
 20
7.181215413411458
 30
0.0
 10
6.560667588975694
 20
7.19585706922743
 30
0.0
  0
SPLINE
  5
7A
330
29
100
AcDbEntity
  8
LAYER_1
 62
     7
100
AcDbSpline
210
0.0
220
0.0
230
1.0
 70
     8
 71
     3
 72
    32
 73
    28
 74
     0
 42
0.000000001
 43
0.00000001
 40
0.0
 40
0.0
 40
0.0
 40
0.0
 40
1.0
 40
1.0
 40
1.0
 40
2.0
 40
2.0
 40
2.0
 40
3.0
 40
3.0
 40
3.0
 40
4.0
 40
4.0
 40
4.0
 40
5.0
 40
5.0
 40
5.0
 40
6.0
 40
6.0
 40
6.0
 40
7.0
 40
7.0
 40
7.0
 40
8.0
 40
8.0
 40
8.0
 40
9.0
 40
9.0
 40
9.0
 40
9.0
 10
2.579170735677083
 20
8.242993842230902
 30
0.0
 10
2.482708062065972
 20
8.260563829210069
 30
0.0
 10
2.372120496961805
 20
8.306555853949652
 30
0.0
 10
2.272557237413194
 20
8.278650580512153
 30
0.0
 10
2.135786946614583
 20
8.250573052300346
 30
0.0
 10
2.228804524739583
 20
8.14773695203993
 30
0.0
 10
2.314242892795139
 20
8.087964545355902
 30
0.0
 10
2.407949490017361
 20
8.02216322157118
 30
0.0
 10
2.498555501302083
 20
7.976171196831596
 30
0.0
 10
2.603630913628472
 20
7.941720241970486
 30
0.0
 10
2.720075141059028
 20
7.901412624782985
 30
0.0
 10
2.830662706163194
 20
7.835783555772569
 30
0.0
 10
2.949863009982639
 20
7.803916422526041
 30
0.0
 10
3.074919976128472
 20
7.775322129991319
 30
0.0
 10
3.207900661892361
 20
7.751895480685763
 30
0.0
 10
3.332957628038194
 20
7.737253824869791
 30
0.0
 10
3.461459689670138
 20
7.722439914279513
 30
0.0
 10
3.535184733072916
 20
7.750517442491319
 30
0.0
 10
3.657485622829861
 20
7.692984347873264
 30
0.0
 10
3.745335557725694
 20
7.647164577907986
 30
0.0
 10
3.804246690538194
 20
7.573267279730902
 30
0.0
 10
3.889340549045138
 20
7.521763102213541
 30
0.0
 10
3.991315375434028
 20
7.458717854817707
 30
0.0
 10
4.133942328559027
 20
7.407041422526041
 30
0.0
 10
4.25245361328125
 20
7.378102620442708
 30
0.0
 10
4.324111599392361
 20
7.363633219401041
 30
0.0
 10
4.968344455295139
 20
7.159339057074652
 30
0.0
 10
4.969033474392361
 20
7.361221652560763
 30
0.0
  0
SPLINE
  5
79
330
29
100
AcDbEntity
  8
LAYER_1
 62
     7
100
AcDbSpline
210
0.0
220
0.0
230
1.0
 70
     8
 71
     3
 72
    11
 73
     7
 74
     0
 42
0.000000001
 43
0.00000001
 40
0.0
 40
0.0
 40
0.0
 40
0.0
 40
1.0
 40
1.0
 40
1.0
 40
2.0
 40
2.0
 40
2.0
 40
2.0
 10
8.310087076822915
 20
2.961490207248264
 30
0.0
 10
8.15953640407986
 20
2.916531711154513
 30
0.0
 10
7.972467719184027
 20
3.068115912543402
 30
0.0
 10
8.143344455295138
 20
3.178531222873263
 30
0.0
 10
8.280459255642361
 20
3.26896497938368
 30
0.0
 10
8.524027506510416
 20
3.071733262803819
 30
0.0
 10
8.635304090711804
 20
3.187660725911458
 30
0.0
  0
SPLINE
  5
78
330
29
100
AcDbEntity
  8
LAYER_1
 62
     7
100
AcDbSpline
210
0.0
220
0.0
230
1.0
 70
     8
 71
     3
 72
    11
 73
     7
 74
     0
 42
0.000000001
 43
0.00000001
 40
0.0
 40
0.0
 40
0.0
 40
0.0
 40
1.0
 40
1.0
 40
1.0
 40
2.0
 40
2.0
 40
2.0
 40
2.0
 10
8.671477593315972
 20
3.608651394314236
 30
0.0
 10
8.478207736545139
 20
3.609340413411458
 30
0.0
 10
8.06031765407986
 20
3.735775417751736
 30
0.0
 10
7.920446777343749
 20
3.574200439453125
 30
0.0
 10
7.746469455295138
 20
3.373179117838542
 30
0.0
 10
8.453747558593749
 20
3.262419297960069
 30
0.0
 10
8.618767632378471
 20
3.245021565755208
 30
0.0
  0
SPLINE
  5
77
330
29
100
AcDbEntity
  8
LAYER_1
 62
     7
100
AcDbSpline
210
0.0
220
0.0
230
1.0
 70
     8
 71
     3
 72
    11
 73
     7
 74
     0
 42
0.000000001
 43
0.00000001
 40
0.0
 40
0.0
 40
0.0
 40
0.0
 40
1.0
 40
1.0
 40
1.0
 40
2.0
 40
2.0
 40
2.0
 40
2.0
 10
8.852689615885415
 20
4.727962917751736
 30
0.0
 10
8.724532063802082
 20
4.762069363064236
 30
0.0
 10
8.171249728732638
 20
4.877996826171874
 30
0.0
 10
8.093735080295138
 20
4.753628879123263
 30
0.0
 10
7.933193630642361
 20
4.492490641276041
 30
0.0
 10
8.738312445746526
 20
4.549162462022569
 30
0.0
 10
8.834430609809028
 20
4.477676730685763
 30
0.0
  0
SPLINE
  5
76
330
29
100
AcDbEntity
  8
LAYER_1
 62
     7
100
AcDbSpline
210
0.0
220
0.0
230
1.0
 70
     8
 71
     3
 72
    11
 73
     7
 74
     0
 42
0.000000001
 43
0.00000001
 40
0.0
 40
0.0
 40
0.0
 40
0.0
 40
1.0
 40
1.0
 40
1.0
 40
2.0
 40
2.0
 40
2.0
 40
2.0
 10
8.753470865885415
 20
4.182604302300347
 30
0.0
 10
8.622901746961805
 20
4.200002034505208
 30
0.0
 10
8.483719889322916
 20
4.29990980360243
 30
0.0
 10
8.359007432725694
 20
4.354686821831597
 30
0.0
 10
8.262544759114583
 20
4.389137776692708
 30
0.0
 10
8.126807996961805
 20
4.463207329644097
 30
0.0
 10
8.127152506510416
 20
4.596877034505208
 30
0.0
  0
SPLINE
  5
75
330
29
100
AcDbEntity
  8
LAYER_1
 62
     7
100
AcDbSpline
210
0.0
220
0.0
230
1.0
 70
     8
 71
     3
 72
    17
 73
    13
 74
     0
 42
0.000000001
 43
0.00000001
 40
0.0
 40
0.0
 40
0.0
 40
0.0
 40
1.0
 40
1.0
 40
1.0
 40
2.0
 40
2.0
 40
2.0
 40
3.0
 40
3.0
 40
3.0
 40
4.0
 40
4.0
 40
4.0
 40
4.0
 10
8.211557345920138
 20
4.406535508897569
 30
0.0
 10
8.140243869357638
 20
4.437713623046875
 30
0.0
 10
7.944906955295139
 20
4.51540052625868
 30
0.0
 10
7.864636230468749
 20
4.430478922526041
 30
0.0
 10
7.762316894531249
 20
4.314206949869791
 30
0.0
 10
7.92354736328125
 20
4.225495741102431
 30
0.0
 10
7.991760253906249
 20
4.182432047526041
 30
0.0
 10
8.107515462239583
 20
4.105261908637153
 30
0.0
 10
8.21879204644097
 20
4.104917399088541
 30
0.0
 10
8.366242133246526
 20
4.089931233723958
 30
0.0
 10
8.485442437065972
 20
4.083902316623264
 30
0.0
 10
8.613599989149305
 20
4.023613145616319
 30
0.0
 10
8.721431477864583
 20
4.051518419053819
 30
0.0
  0
SPLINE
  5
74
330
29
100
AcDbEntity
  8
LAYER_1
 62
     7
100
AcDbSpline
210
0.0
220
0.0
230
1.0
 70
     8
 71
     3
 72
    17
 73
    13
 74
     0
 42
0.000000001
 43
0.00000001
 40
0.0
 40
0.0
 40
0.0
 40
0.0
 40
1.0
 40
1.0
 40
1.0
 40
2.0
 40
2.0
 40
2.0
 40
3.0
 40
3.0
 40
3.0
 40
4.0
 40
4.0
 40
4.0
 40
4.0
 10
8.090634494357639
 20
4.150737169053819
 30
0.0
 10
8.008641221788194
 20
4.162622748480902
 30
0.0
 10
7.843621148003471
 20
4.214126925998263
 30
0.0
 10
7.803658040364582
 20
4.117836507161458
 30
0.0
 10
7.772307671440972
 20
4.032570393880208
 30
0.0
 10
7.862569173177083
 20
3.981066216362847
 30
0.0
 10
7.928025987413194
 20
3.95264417860243
 30
0.0
 10
8.06961941189236
 20
3.883742268880208
 30
0.0
 10
8.260477701822916
 20
3.894249810112847
 30
0.0
 10
8.41688503689236
 20
3.870823160807291
 30
0.0
 10
8.524372016059028
 20
3.853597683376736
 30
0.0
 10
8.62117919921875
 20
3.810533989800347
 30
0.0
 10
8.732111273871528
 20
3.821213785807291
 30
0.0
  0
SPLINE
  5
73
330
29
100
AcDbEntity
  8
LAYER_1
 62
     7
100
AcDbSpline
210
0.0
220
0.0
230
1.0
 70
     8
 71
     3
 72
     8
 73
     4
 74
     0
 42
0.000000001
 43
0.00000001
 40
0.0
 40
0.0
 40
0.0
 40
0.0
 40
1.0
 40
1.0
 40
1.0
 40
1.0
 10
8.795845540364583
 20
4.088208685980902
 30
0.0
 10
8.744169108072915
 20
4.04876234266493
 30
0.0
 10
8.679401312934028
 20
4.029125298394097
 30
0.0
 10
8.608087836371528
 20
4.035326470269097
 30
0.0
  0
SPLINE
  5
72
330
29
100
AcDbEntity
  8
LAYER_1
 62
     7
100
AcDbSpline
210
0.0
220
0.0
230
1.0
 70
     8
 71
     3
 72
    11
 73
     7
 74
     0
 42
0.000000001
 43
0.00000001
 40
0.0
 40
0.0
 40
0.0
 40
0.0
 40
1.0
 40
1.0
 40
1.0
 40
2.0
 40
2.0
 40
2.0
 40
2.0
 10
8.360040961371528
 20
3.88288099500868
 30
0.0
 10
8.240496148003471
 20
3.854631212022569
 30
0.0
 10
7.93939480251736
 20
3.95264417860243
 30
0.0
 10
7.899087185329861
 20
3.836027696397569
 30
0.0
 10
7.824328613281249
 20
3.634661865234375
 30
0.0
 10
8.19674343532986
 20
3.661533610026041
 30
0.0
 10
8.29630669487847
 20
3.643963623046875
 30
0.0
  0
SPLINE
  5
71
330
29
100
AcDbEntity
  8
LAYER_1
 62
     7
100
AcDbSpline
210
0.0
220
0.0
230
1.0
 70
     8
 71
     3
 72
    11
 73
     7
 74
     0
 42
0.000000001
 43
0.00000001
 40
0.0
 40
0.0
 40
0.0
 40
0.0
 40
1.0
 40
1.0
 40
1.0
 40
2.0
 40
2.0
 40
2.0
 40
2.0
 10
8.501634385850693
 20
2.483483208550347
 30
0.0
 10
8.402071126302083
 20
2.483483208550347
 30
0.0
 10
8.302507866753471
 20
2.455750189887153
 30
0.0
 10
8.214657931857639
 20
2.518795437282986
 30
0.0
 10
8.14678955078125
 20
2.570127360026041
 30
0.0
 10
8.101314290364583
 20
2.675375027126736
 30
0.0
 10
8.232572428385415
 20
2.70620863172743
 30
0.0
  0
SPLINE
  5
70
330
29
100
AcDbEntity
  8
LAYER_1
 62
     7
100
AcDbSpline
210
0.0
220
0.0
230
1.0
 70
     8
 71
     3
 72
    11
 73
     7
 74
     0
 42
0.000000001
 43
0.00000001
 40
0.0
 40
0.0
 40
0.0
 40
0.0
 40
1.0
 40
1.0
 40
1.0
 40
2.0
 40
2.0
 40
2.0
 40
2.0
 10
8.525750054253471
 20
2.193406168619791
 30
0.0
 10
8.426875813802083
 20
2.207703314887153
 30
0.0
 10
8.287004937065971
 20
2.142935519748264
 30
0.0
 10
8.19639892578125
 20
2.205980767144097
 30
0.0
 10
8.096491156684028
 20
2.26902601453993
 30
0.0
 10
8.120606825086805
 20
2.416476101345486
 30
0.0
 10
8.186063639322915
 20
2.490373399522569
 30
0.0
  0
SPLINE
  5
6F
330
29
100
AcDbEntity
  8
LAYER_1
 62
     7
100
AcDbSpline
210
0.0
220
0.0
230
1.0
 70
     8
 71
     3
 72
    11
 73
     7
 74
     0
 42
0.000000001
 43
0.00000001
 40
0.0
 40
0.0
 40
0.0
 40
0.0
 40
1.0
 40
1.0
 40
1.0
 40
2.0
 40
2.0
 40
2.0
 40
2.0
 10
8.030000813802083
 20
0.679803466796875
 30
0.0
 10
7.962132432725694
 20
0.6799757215711805
 30
0.0
 10
7.33443603515625
 20
0.8360385470920139
 30
0.0
 10
7.566635470920138
 20
0.5795511881510416
 30
0.0
 10
7.685491265190971
 20
0.4512213812934027
 30
0.0
 10
8.105448404947916
 20
0.2987759060329861
 30
0.0
 10
8.267367892795138
 20
0.3578592936197916
 30
0.0
  0
SPLINE
  5
6E
330
29
100
AcDbEntity
  8
LAYER_1
 62
     7
100
AcDbSpline
210
0.0
220
0.0
230
1.0
 70
     8
 71
     3
 72
    20
 73
    16
 74
     0
 42
0.000000001
 43
0.00000001
 40
0.0
 40
0.0
 40
0.0
 40
0.0
 40
1.0
 40
1.0
 40
1.0
 40
2.0
 40
2.0
 40
2.0
 40
3.0
 40
3.0
 40
3.0
 40
4.0
 40
4.0
 40
4.0
 40
5.0
 40
5.0
 40
5.0
 40
5.0
 10
8.175728352864583
 20
0.1080898708767361
 30
0.0
 10
8.107515462239583
 20
0.1366841634114583
 30
0.0
 10
8.005196126302083
 20
0.1315165201822917
 30
0.0
 10
7.934227159288194
 20
0.1428853352864583
 30
0.0
 10
7.834319390190972
 20
0.1549431694878472
 30
0.0
 10
7.715808105468749
 20
0.1781975640190972
 30
0.0
 10
7.630025227864583
 20
0.224017333984375
 30
0.0
 10
7.551132541232638
 20
0.2638081868489583
 30
0.0
 10
7.454325358072916
 20
0.3297817654079861
 30
0.0
 10
7.383700900607638
 20
0.3840420193142361
 30
0.0
 10
7.346838378906249
 20
0.4181484646267361
 30
0.0
 10
7.278969997829861
 20
0.4810214572482638
 30
0.0
 10
7.330646430121528
 20
0.5264967176649306
 30
0.0
 10
7.378533257378471
 20
0.5743835449218749
 30
0.0
 10
7.622790527343749
 20
0.5078932020399305
 30
0.0
 10
7.665509711371527
 20
0.507720947265625
 30
0.0
  0
SPLINE
  5
6D
330
29
100
AcDbEntity
  8
LAYER_1
 62
     7
100
AcDbSpline
210
0.0
220
0.0
230
1.0
 70
     8
 71
     3
 72
    20
 73
    16
 74
     0
 42
0.000000001
 43
0.00000001
 40
0.0
 40
0.0
 40
0.0
 40
0.0
 40
1.0
 40
1.0
 40
1.0
 40
2.0
 40
2.0
 40
2.0
 40
3.0
 40
3.0
 40
3.0
 40
4.0
 40
4.0
 40
4.0
 40
5.0
 40
5.0
 40
5.0
 40
5.0
 10
8.21224636501736
 20
0.0820793999565972
 30
0.0
 10
8.127152506510416
 20
0.079840087890625
 30
0.0
 10
8.044470214843749
 20
0.1368564181857639
 30
0.0
 10
7.959720865885416
 20
0.1487419976128472
 30
0.0
 10
7.87738308376736
 20
0.1630391438802083
 30
0.0
 10
7.786432562934027
 20
0.1606275770399306
 30
0.0
 10
7.701338704427083
 20
0.1695848253038194
 30
0.0
 10
7.621412489149304
 20
0.1785420735677083
 30
0.0
 10
7.323756239149305
 20
0.2533006456163194
 30
0.0
 10
7.300329589843749
 20
0.151153564453125
 30
0.0
 10
7.262433539496527
 20
0.0092156304253472
 30
0.0
 10
7.65724148220486
 20
-0.0662319607204861
 30
0.0
 10
7.743024359809027
 20
-0.0893141004774305
 30
0.0
 10
7.895642089843749
 20
-0.1299662272135417
 30
0.0
 10
8.031723361545138
 20
-0.2214335123697916
 30
0.0
 10
8.191575792100693
 20
-0.1623501247829861
 30
0.0
  0
SPLINE
  5
6C
330
29
100
AcDbEntity
  8
LAYER_1
 62
     7
100
AcDbSpline
210
0.0
220
0.0
230
1.0
 70
     8
 71
     3
 72
    23
 73
    19
 74
     0
 42
0.000000001
 43
0.00000001
 40
0.0
 40
0.0
 40
0.0
 40
0.0
 40
1.0
 40
1.0
 40
1.0
 40
2.0
 40
2.0
 40
2.0
 40
3.0
 40
3.0
 40
3.0
 40
4.0
 40
4.0
 40
4.0
 40
5.0
 40
5.0
 40
5.0
 40
6.0
 40
6.0
 40
6.0
 40
6.0
 10
7.990037706163194
 20
-2.023390706380208
 30
0.0
 10
7.882206217447916
 20
-2.000136311848958
 30
0.0
 10
7.79986843532986
 20
-1.963101535373264
 30
0.0
 10
7.686180284288194
 20
-1.956900363498264
 30
0.0
 10
7.59798583984375
 20
-1.950699191623264
 30
0.0
 10
7.512547471788194
 20
-1.944670274522569
 30
0.0
 10
7.42745361328125
 20
-1.932956949869791
 30
0.0
 10
7.330990939670138
 20
-1.921243625217014
 30
0.0
 10
7.194220648871527
 20
-1.923827446831597
 30
0.0
 10
7.112227376302083
 20
-1.866294352213542
 30
0.0
 10
7.032990180121527
 20
-1.809622531467014
 30
0.0
 10
7.047459581163194
 20
-1.735552978515625
 30
0.0
 10
7.130141872829861
 20
-1.690249972873264
 30
0.0
 10
7.266912163628471
 20
-1.611357286241319
 30
0.0
 10
7.41195068359375
 20
-1.645980495876736
 30
0.0
 10
7.553888617621527
 20
-1.660794406467014
 30
0.0
 10
7.704094780815971
 20
-1.681120469835069
 30
0.0
 10
7.857746039496528
 20
-1.699034966362847
 30
0.0
 10
8.005885145399304
 20
-1.702135552300347
 30
0.0
  0
SPLINE
  5
6B
330
29
100
AcDbEntity
  8
LAYER_1
 62
     7
100
AcDbSpline
210
0.0
220
0.0
230
1.0
 70
     8
 71
     3
 72
    23
 73
    19
 74
     0
 42
0.000000001
 43
0.00000001
 40
0.0
 40
0.0
 40
0.0
 40
0.0
 40
1.0
 40
1.0
 40
1.0
 40
2.0
 40
2.0
 40
2.0
 40
3.0
 40
3.0
 40
3.0
 40
4.0
 40
4.0
 40
4.0
 40
5.0
 40
5.0
 40
5.0
 40
6.0
 40
6.0
 40
6.0
 40
6.0
 10
7.969367133246527
 20
-1.565537516276041
 30
0.0
 10
7.881517198350694
 20
-1.457189263237847
 30
0.0
 10
7.611766221788193
 20
-1.413436550564236
 30
0.0
 10
7.472584364149305
 20
-1.396038818359375
 30
0.0
 10
7.358551703559027
 20
-1.384153238932291
 30
0.0
 10
7.256576877170138
 20
-1.349702284071181
 30
0.0
 10
7.142888726128471
 20
-1.326447889539931
 30
0.0
 10
7.083288574218749
 20
-1.314906819661458
 30
0.0
 10
6.995438639322916
 20
-1.297336832682292
 30
0.0
 10
7.041258409288194
 20
-1.218099636501736
 30
0.0
 10
7.064340549045138
 20
-1.178308783637153
 30
0.0
 10
7.160803222656249
 20
-1.133350287543403
 30
0.0
 10
7.203522406684027
 20
-1.121981472439236
 30
0.0
 10
7.306186252170138
 20
-1.105617268880208
 30
0.0
 10
7.408161078559028
 20
-1.165734185112847
 30
0.0
 10
7.515992567274305
 20
-1.160049777560764
 30
0.0
 10
7.684113226996527
 20
-1.157982720269097
 30
0.0
 10
7.852233886718749
 20
-1.090458848741319
 30
0.0
 10
8.025177680121526
 20
-1.096660020616319
 30
0.0
  0
SPLINE
  5
6A
330
29
100
AcDbEntity
  8
LAYER_1
 62
     7
100
AcDbSpline
210
0.0
220
0.0
230
1.0
 70
     8
 71
     3
 72
    20
 73
    16
 74
     0
 42
0.000000001
 43
0.00000001
 40
0.0
 40
0.0
 40
0.0
 40
0.0
 40
1.0
 40
1.0
 40
1.0
 40
2.0
 40
2.0
 40
2.0
 40
3.0
 40
3.0
 40
3.0
 40
4.0
 40
4.0
 40
4.0
 40
5.0
 40
5.0
 40
5.0
 40
5.0
 10
7.219714355468749
 20
-1.349530029296875
 30
0.0
 10
7.145644802517361
 20
-1.326447889539931
 30
0.0
 10
6.997850206163194
 20
-1.342812093098958
 30
0.0
 10
7.059517415364582
 20
-1.459945339626736
 30
0.0
 10
7.088456217447916
 20
-1.514205593532986
 30
0.0
 10
7.139443630642361
 20
-1.502664523654514
 30
0.0
 10
7.187674967447916
 20
-1.520062255859375
 30
0.0
 10
7.235561794704861
 20
-1.534359402126736
 30
0.0
 10
7.278625488281249
 20
-1.565882025824653
 30
0.0
 10
7.326856825086804
 20
-1.580006917317708
 30
0.0
 10
7.417462836371527
 20
-1.606361897786458
 30
0.0
 10
7.517026095920138
 20
-1.629444037543403
 30
0.0
 10
7.61073269314236
 20
-1.646669514973958
 30
0.0
 10
7.718219672309028
 20
-1.667167833116319
 30
0.0
 10
7.835008409288194
 20
-1.661655680338542
 30
0.0
 10
7.943184407552082
 20
-1.693350558810764
 30
0.0
  0
SPLINE
  5
69
330
29
100
AcDbEntity
  8
LAYER_1
 62
     7
100
AcDbSpline
210
0.0
220
0.0
230
1.0
 70
     8
 71
     3
 72
    14
 73
    10
 74
     0
 42
0.000000001
 43
0.00000001
 40
0.0
 40
0.0
 40
0.0
 40
0.0
 40
1.0
 40
1.0
 40
1.0
 40
2.0
 40
2.0
 40
2.0
 40
3.0
 40
3.0
 40
3.0
 40
3.0
 10
8.075131564670139
 20
-0.7729932996961805
 30
0.0
 10
7.972467719184027
 20
-0.7497389051649305
 30
0.0
 10
7.862224663628472
 20
-0.7321689181857638
 30
0.0
 10
7.759905327690971
 20
-0.7206278483072917
 30
0.0
 10
7.688936360677083
 20
-0.7061584472656249
 30
0.0
 10
7.444334581163194
 20
-0.6394958496093749
 30
0.0
 10
7.398514811197916
 20
-0.7247619628906249
 30
0.0
 10
7.295506456163194
 20
-0.9032179090711805
 30
0.0
 10
7.931815592447916
 20
-0.9771152072482638
 30
0.0
 10
8.033790418836805
 20
-1.031547715928819
 30
0.0
  0
SPLINE
  5
68
330
29
100
AcDbEntity
  8
LAYER_1
 62
     7
100
AcDbSpline
210
0.0
220
0.0
230
1.0
 70
     8
 71
     3
 72
    14
 73
    10
 74
     0
 42
0.000000001
 43
0.00000001
 40
0.0
 40
0.0
 40
0.0
 40
0.0
 40
1.0
 40
1.0
 40
1.0
 40
2.0
 40
2.0
 40
2.0
 40
3.0
 40
3.0
 40
3.0
 40
3.0
 10
8.127152506510416
 20
-0.4718919542100694
 30
0.0
 10
8.036201985677083
 20
-0.5053093804253471
 30
0.0
 10
7.925614420572916
 20
-0.4453647189670139
 30
0.0
 10
7.837419976128471
 20
-0.4167704264322916
 30
0.0
 10
7.766795518663193
 20
-0.3966166178385416
 30
0.0
 10
7.687213812934028
 20
-0.3847310384114583
 30
0.0
 10
7.61348876953125
 20
-0.389898681640625
 30
0.0
 10
7.477062988281249
 20
-0.3893819173177083
 30
0.0
 10
7.370954047309027
 20
-0.5881639268663194
 30
0.0
 10
7.541141764322916
 20
-0.6456970214843749
 30
0.0
  0
SPLINE
  5
67
330
29
100
AcDbEntity
  8
LAYER_1
 62
     7
100
AcDbSpline
210
0.0
220
0.0
230
1.0
 70
     8
 71
     3
 72
     8
 73
     4
 74
     0
 42
0.000000001
 43
0.00000001
 40
0.0
 40
0.0
 40
0.0
 40
0.0
 40
1.0
 40
1.0
 40
1.0
 40
1.0
 10
7.651729329427083
 20
-0.6860046386718749
 30
0.0
 10
7.614866807725694
 20
-0.6687791612413194
 30
0.0
 10
7.501867675781249
 20
-0.5773118760850694
 30
0.0
 10
7.476029459635416
 20
-0.6059061686197916
 30
0.0
  0
SPLINE
  5
66
330
29
100
AcDbEntity
  8
LAYER_1
 62
     7
100
AcDbSpline
210
0.0
220
0.0
230
1.0
 70
     8
 71
     3
 72
    11
 73
     7
 74
     0
 42
0.000000001
 43
0.00000001
 40
0.0
 40
0.0
 40
0.0
 40
0.0
 40
1.0
 40
1.0
 40
1.0
 40
2.0
 40
2.0
 40
2.0
 40
2.0
 10
7.779886881510416
 20
-0.1067118326822917
 30
0.0
 10
7.665854220920139
 20
-0.1005106608072917
 30
0.0
 10
7.555266655815972
 20
-0.0772562662760417
 30
0.0
 10
7.509102376302082
 20
-0.2074808756510417
 30
0.0
 10
7.459837510850694
 20
-0.3383945041232639
 30
0.0
 10
7.616244845920138
 20
-0.3843865288628472
 30
0.0
 10
7.718219672309028
 20
-0.3962721082899305
 30
0.0
  0
SPLINE
  5
65
330
29
100
AcDbEntity
  8
LAYER_1
 62
     7
100
AcDbSpline
210
0.0
220
0.0
230
1.0
 70
     8
 71
     3
 72
    17
 73
    13
 74
     0
 42
0.000000001
 43
0.00000001
 40
0.0
 40
0.0
 40
0.0
 40
0.0
 40
1.0
 40
1.0
 40
1.0
 40
2.0
 40
2.0
 40
2.0
 40
3.0
 40
3.0
 40
3.0
 40
4.0
 40
4.0
 40
4.0
 40
4.0
 10
-8.665276421440971
 20
10.66627400716146
 30
0.0
 10
-8.563990614149304
 20
10.56068183051215
 30
0.0
 10
-8.375888400607638
 20
10.53708292643229
 30
0.0
 10
-8.237395562065972
 20
10.4969475640191
 30
0.0
 10
-8.041025119357638
 20
10.44509887695312
 30
0.0
 10
-7.844999186197916
 20
10.38429294162326
 30
0.0
 10
-7.652073838975694
 20
10.3296881781684
 30
0.0
 10
-7.49291042751736
 20
10.28352389865451
 30
0.0
 10
-7.276902940538194
 20
10.25148451063368
 30
0.0
 10
-7.106370713975694
 20
10.27094930013021
 30
0.0
 10
-7.012664116753472
 20
10.27611694335937
 30
0.0
 10
-6.730510796440972
 20
10.38015882703993
 30
0.0
 10
-6.886573621961805
 20
10.49160766601562
 30
0.0
  0
SPLINE
  5
64
330
29
100
AcDbEntity
  8
LAYER_1
 62
     7
100
AcDbSpline
210
0.0
220
0.0
230
1.0
 70
     8
 71
     3
 72
    26
 73
    22
 74
     0
 42
0.000000001
 43
0.00000001
 40
0.0
 40
0.0
 40
0.0
 40
0.0
 40
1.0
 40
1.0
 40
1.0
 40
2.0
 40
2.0
 40
2.0
 40
3.0
 40
3.0
 40
3.0
 40
4.0
 40
4.0
 40
4.0
 40
5.0
 40
5.0
 40
5.0
 40
6.0
 40
6.0
 40
6.0
 40
7.0
 40
7.0
 40
7.0
 40
7.0
 10
-8.635993109809027
 20
10.93085734049479
 30
0.0
 10
-8.622212727864582
 20
10.84541897243924
 30
0.0
 10
-8.386223687065971
 20
10.85006985134548
 30
0.0
 10
-8.300785319010416
 20
10.82681545681423
 30
0.0
 10
-8.141621907552082
 20
10.78650783962673
 30
0.0
 10
-7.999683973524305
 20
10.76911010742187
 30
0.0
 10
-7.840865071614583
 20
10.70606486002604
 30
0.0
 10
-7.596607801649305
 20
10.6023674858941
 30
0.0
 10
-7.315143500434028
 20
10.53036499023437
 30
0.0
 10
-7.054349772135416
 20
10.50917765299479
 30
0.0
 10
-6.755659993489583
 20
10.48540649414062
 30
0.0
 10
-6.933426920572916
 20
10.8102789984809
 30
0.0
 10
-7.058139377170138
 20
10.9186272515191
 30
0.0
 10
-7.239006890190971
 20
11.08433634440104
 30
0.0
 10
-7.463971625434027
 20
11.06245998806424
 30
0.0
 10
-7.693759494357638
 20
11.10328436957465
 30
0.0
 10
-7.853611924913194
 20
11.1294670952691
 30
0.0
 10
-8.003818088107638
 20
11.12429945203993
 30
0.0
 10
-8.159880913628472
 20
11.14755384657118
 30
0.0
 10
-8.282526312934028
 20
11.16512383355035
 30
0.0
 10
-8.384501139322916
 20
11.21404418945312
 30
0.0
 10
-8.498189290364582
 20
11.25435180664062
 30
0.0
  0
SPLINE
  5
63
330
29
100
AcDbEntity
  8
LAYER_1
 62
     7
100
AcDbSpline
210
0.0
220
0.0
230
1.0
 70
     8
 71
     3
 72
     8
 73
     4
 74
     0
 42
0.000000001
 43
0.00000001
 40
0.0
 40
0.0
 40
0.0
 40
0.0
 40
1.0
 40
1.0
 40
1.0
 40
1.0
 10
-8.476485188802082
 20
11.6720696343316
 30
0.0
 10
-8.306297471788193
 20
11.55476413302951
 30
0.0
 10
-7.695137532552082
 20
11.46157430013021
 30
0.0
 10
-7.558022732204861
 20
11.65415513780382
 30
0.0
  0
SPLINE
  5
62
330
29
100
AcDbEntity
  8
LAYER_1
 62
     7
100
AcDbSpline
210
0.0
220
0.0
230
1.0
 70
     8
 71
     3
 72
     8
 73
     4
 74
     0
 42
0.000000001
 43
0.00000001
 40
0.0
 40
0.0
 40
0.0
 40
0.0
 40
1.0
 40
1.0
 40
1.0
 40
1.0
 10
-7.532184516059028
 20
11.72236802842882
 30
0.0
 10
-7.541141764322916
 20
11.67689276801215
 30
0.0
 10
-7.575248209635416
 20
11.63744642469618
 30
0.0
 10
-7.621067979600694
 20
11.61729261610243
 30
0.0
  0
SPLINE
  5
61
330
29
100
AcDbEntity
  8
LAYER_1
 62
     7
100
AcDbSpline
210
0.0
220
0.0
230
1.0
 70
     8
 71
     3
 72
    29
 73
    25
 74
     0
 42
0.000000001
 43
0.00000001
 40
0.0
 40
0.0
 40
0.0
 40
0.0
 40
1.0
 40
1.0
 40
1.0
 40
2.0
 40
2.0
 40
2.0
 40
3.0
 40
3.0
 40
3.0
 40
4.0
 40
4.0
 40
4.0
 40
5.0
 40
5.0
 40
5.0
 40
6.0
 40
6.0
 40
6.0
 40
7.0
 40
7.0
 40
7.0
 40
8.0
 40
8.0
 40
8.0
 40
8.0
 10
-6.837997775607638
 20
10.48006659613715
 30
0.0
 10
-6.77633056640625
 20
10.40858086480035
 30
0.0
 10
-6.650929090711805
 20
10.43390231662326
 30
0.0
 10
-6.56273464626736
 20
10.41374850802951
 30
0.0
 10
-6.437677680121527
 20
10.38756578233507
 30
0.0
 10
-6.318821885850694
 20
10.32452053493924
 30
0.0
 10
-6.193764919704861
 20
10.29575398763021
 30
0.0
 10
-6.082832845052083
 20
10.26698744032118
 30
0.0
 10
-5.975001356336805
 20
10.25803019205729
 30
0.0
 10
-5.855456542968749
 20
10.25424058702257
 30
0.0
 10
-5.767262098524305
 20
10.25406833224826
 30
0.0
 10
-5.625668674045138
 20
10.29902682834201
 30
0.0
 10
-5.562623426649305
 20
10.25337931315104
 30
0.0
 10
-5.503023274739583
 20
10.20204739040799
 30
0.0
 10
-5.503712293836805
 20
10.04271172417535
 30
0.0
 10
-5.526794433593749
 20
9.96933119032118
 30
0.0
 10
-5.57020263671875
 20
9.82704874674479
 30
0.0
 10
-5.712140570746527
 20
9.81619669596354
 30
0.0
 10
-5.840642632378471
 20
9.822225613064235
 30
0.0
 10
-6.056650119357639
 20
9.828943549262151
 30
0.0
 10
-6.263355848524305
 20
9.954689534505208
 30
0.0
 10
-6.473506673177083
 20
9.98982950846354
 30
0.0
 10
-6.550676812065972
 20
10.00137057834201
 30
0.0
 10
-6.627157931857639
 20
10.0070549858941
 30
0.0
 10
-6.703639051649305
 20
10.01928507486979
 30
0.0
  0
SPLINE
  5
60
330
29
100
AcDbEntity
  8
LAYER_1
 62
     7
100
AcDbSpline
210
0.0
220
0.0
230
1.0
 70
     8
 71
     3
 72
    20
 73
    16
 74
     0
 42
0.000000001
 43
0.00000001
 40
0.0
 40
0.0
 40
0.0
 40
0.0
 40
1.0
 40
1.0
 40
1.0
 40
2.0
 40
2.0
 40
2.0
 40
3.0
 40
3.0
 40
3.0
 40
4.0
 40
4.0
 40
4.0
 40
5.0
 40
5.0
 40
5.0
 40
5.0
 10
-6.95030788845486
 20
10.85868259006076
 30
0.0
 10
-6.873826768663194
 20
10.84955308702257
 30
0.0
 10
-6.816982693142361
 20
10.8039055718316
 30
0.0
 10
-6.746013726128472
 20
10.77823961046007
 30
0.0
 10
-6.646450466579861
 20
10.74671698676215
 30
0.0
 10
-6.530350748697916
 20
10.72363484700521
 30
0.0
 10
-6.424930826822916
 20
10.70055270724826
 30
0.0
 10
-6.291605631510416
 20
10.67712605794271
 30
0.0
 10
-6.163792588975694
 20
10.63940226236979
 30
0.0
 10
-6.030467393663194
 20
10.60787963867187
 30
0.0
 10
-5.913678656684027
 20
10.57894083658854
 30
0.0
 10
-5.774841308593749
 20
10.57256740993924
 30
0.0
 10
-5.678034125434027
 20
10.51537882486979
 30
0.0
 10
-5.595696343315971
 20
10.46990356445312
 30
0.0
 10
-5.522660319010416
 20
10.2986823187934
 30
0.0
 10
-5.661842176649305
 20
10.27353312174479
 30
0.0
  0
SPLINE
  5
5F
330
29
100
AcDbEntity
  8
LAYER_1
 62
     7
100
AcDbSpline
210
0.0
220
0.0
230
1.0
 70
     8
 71
     3
 72
    11
 73
     7
 74
     0
 42
0.000000001
 43
0.00000001
 40
0.0
 40
0.0
 40
0.0
 40
0.0
 40
1.0
 40
1.0
 40
1.0
 40
2.0
 40
2.0
 40
2.0
 40
2.0
 10
-7.996583387586805
 20
11.55373060438368
 30
0.0
 10
-7.84637722439236
 20
11.46191880967882
 30
0.0
 10
-7.644150119357638
 20
11.50377671983507
 30
0.0
 10
-7.528050401475694
 20
11.36683417426215
 30
0.0
 10
-7.465349663628472
 20
11.29569295247396
 30
0.0
 10
-7.438133409288194
 20
11.15341050889757
 30
0.0
 10
-7.501178656684028
 20
11.07400105794271
 30
0.0
  0
SPLINE
  5
5E
330
29
100
AcDbEntity
  8
LAYER_1
 62
     7
100
AcDbSpline
210
0.0
220
0.0
230
1.0
 70
     8
 71
     3
 72
    20
 73
    16
 74
     0
 42
0.000000001
 43
0.00000001
 40
0.0
 40
0.0
 40
0.0
 40
0.0
 40
1.0
 40
1.0
 40
1.0
 40
2.0
 40
2.0
 40
2.0
 40
3.0
 40
3.0
 40
3.0
 40
4.0
 40
4.0
 40
4.0
 40
5.0
 40
5.0
 40
5.0
 40
5.0
 10
-6.552743869357638
 20
11.45158352322049
 30
0.0
 10
-6.486942545572916
 20
11.44538235134548
 30
0.0
 10
-6.453180609809027
 20
11.49085761176215
 30
0.0
 10
-6.392891438802082
 20
11.49654201931424
 30
0.0
 10
-6.325023057725694
 20
11.5015374077691
 30
0.0
 10
-6.214090983072916
 20
11.46708645290799
 30
0.0
 10
-6.165859646267361
 20
11.4271233452691
 30
0.0
 10
-6.050104437934027
 20
11.3186028374566
 30
0.0
 10
-6.033912489149305
 20
11.12791680230035
 30
0.0
 10
-6.18756374782986
 20
11.05780910915798
 30
0.0
 10
-6.389446343315972
 20
10.96151869032118
 30
0.0
 10
-6.744635687934027
 20
11.08244154188368
 30
0.0
 10
-6.943073187934028
 20
11.15978393554687
 30
0.0
 10
-7.124629720052083
 20
11.2317864312066
 30
0.0
 10
-7.289305284288194
 20
11.27243855794271
 30
0.0
 10
-7.486020236545138
 20
11.27863972981771
 30
0.0
  0
SPLINE
  5
5D
330
29
100
AcDbEntity
  8
LAYER_1
 62
     7
100
AcDbSpline
210
0.0
220
0.0
230
1.0
 70
     8
 71
     3
 72
    14
 73
    10
 74
     0
 42
0.000000001
 43
0.00000001
 40
0.0
 40
0.0
 40
0.0
 40
0.0
 40
1.0
 40
1.0
 40
1.0
 40
2.0
 40
2.0
 40
2.0
 40
3.0
 40
3.0
 40
3.0
 40
3.0
 10
-6.273002115885416
 20
11.02370266384549
 30
0.0
 10
-6.193075900607639
 20
11.02904256184896
 30
0.0
 10
-6.153457302517361
 20
11.09157104492187
 30
0.0
 10
-6.065262858072916
 20
11.09105428059896
 30
0.0
 10
-5.985336642795138
 20
11.09088202582465
 30
0.0
 10
-5.926081000434027
 20
11.05091891818576
 30
0.0
 10
-5.886462402343749
 20
10.97116495768229
 30
0.0
 10
-5.818938530815972
 20
10.83990681966146
 30
0.0
 10
-5.867858886718749
 20
10.66110636393229
 30
0.0
 10
-6.015997992621527
 20
10.63078952365451
 30
0.0
  0
SPLINE
  5
5C
330
29
100
AcDbEntity
  8
LAYER_1
 62
     7
100
AcDbSpline
210
0.0
220
0.0
230
1.0
 70
     8
 71
     3
 72
    23
 73
    19
 74
     0
 42
0.000000001
 43
0.00000001
 40
0.0
 40
0.0
 40
0.0
 40
0.0
 40
1.0
 40
1.0
 40
1.0
 40
2.0
 40
2.0
 40
2.0
 40
3.0
 40
3.0
 40
3.0
 40
4.0
 40
4.0
 40
4.0
 40
5.0
 40
5.0
 40
5.0
 40
6.0
 40
6.0
 40
6.0
 40
6.0
 10
-5.145077853732638
 20
10.8319831000434
 30
0.0
 10
-5.267378743489583
 20
10.86350572374132
 30
0.0
 10
-5.70972900390625
 20
11.11792602539062
 30
0.0
 10
-5.770362684461805
 20
10.91948852539062
 30
0.0
 10
-5.819283040364583
 20
10.74895629882812
 30
0.0
 10
-5.302863226996528
 20
10.55379163953993
 30
0.0
 10
-5.189864095052083
 20
10.50194295247396
 30
0.0
 10
-5.092712402343749
 20
10.46215209960937
 30
0.0
 10
-4.68688015407986
 20
10.30126614040799
 30
0.0
 10
-4.626246473524305
 20
10.45422837999132
 30
0.0
 10
-4.586283365885416
 20
10.55086330837674
 30
0.0
 10
-4.756471082899306
 20
10.67126939561632
 30
0.0
 10
-4.821583387586805
 20
10.71691691080729
 30
0.0
 10
-4.923558213975694
 20
10.79098646375868
 30
0.0
 10
-5.057227918836805
 20
10.77462226019965
 30
0.0
 10
-5.156791178385416
 20
10.84300740559896
 30
0.0
 10
-5.176772732204861
 20
10.83749525282118
 30
0.0
 10
-5.159202745225694
 20
10.83215535481771
 30
0.0
 10
-5.168159993489583
 20
10.82026977539062
 30
0.0
  0
SPLINE
  5
5B
330
29
100
AcDbEntity
  8
LAYER_1
 62
     7
100
AcDbSpline
210
0.0
220
0.0
230
1.0
 70
     8
 71
     3
 72
    20
 73
    16
 74
     0
 42
0.000000001
 43
0.00000001
 40
0.0
 40
0.0
 40
0.0
 40
0.0
 40
1.0
 40
1.0
 40
1.0
 40
2.0
 40
2.0
 40
2.0
 40
3.0
 40
3.0
 40
3.0
 40
4.0
 40
4.0
 40
4.0
 40
5.0
 40
5.0
 40
5.0
 40
5.0
 10
-3.924480523003472
 20
10.45164455837674
 30
0.0
 10
-3.733277723524305
 20
10.51899617513021
 30
0.0
 10
-3.696070692274305
 20
10.67264743381076
 30
0.0
 10
-3.871770562065972
 20
10.78719685872396
 30
0.0
 10
-4.033345540364583
 20
10.89830118815104
 30
0.0
 10
-4.20628933376736
 20
10.94188164605035
 30
0.0
 10
-4.394391547309027
 20
10.88865492078993
 30
0.0
 10
-4.465360514322916
 20
10.8660895453559
 30
0.0
 10
-4.579048665364583
 20
10.81251831054687
 30
0.0
 10
-4.608331976996527
 20
10.7358649359809
 30
0.0
 10
-4.654496256510416
 20
10.6025397406684
 30
0.0
 10
-4.526338704427083
 20
10.61890394422743
 30
0.0
 10
-4.438144259982638
 20
10.59875013563368
 30
0.0
 10
-4.282425944010416
 20
10.55568644205729
 30
0.0
 10
-4.072275119357639
 20
10.42959594726562
 30
0.0
 10
-3.924480523003472
 20
10.46869778103298
 30
0.0
  0
SPLINE
  5
5A
330
29
100
AcDbEntity
  8
LAYER_1
 62
     7
100
AcDbSpline
210
0.0
220
0.0
230
1.0
 70
     8
 71
     3
 72
    14
 73
    10
 74
     0
 42
0.000000001
 43
0.00000001
 40
0.0
 40
0.0
 40
0.0
 40
0.0
 40
1.0
 40
1.0
 40
1.0
 40
2.0
 40
2.0
 40
2.0
 40
3.0
 40
3.0
 40
3.0
 40
3.0
 10
1.585260687934028
 20
7.781006537543402
 30
0.0
 10
1.602486165364583
 20
7.93999769422743
 30
0.0
 10
1.406804741753472
 20
7.974620903862847
 30
0.0
 10
1.290360514322917
 20
8.006488037109374
 30
0.0
 10
1.208022732204861
 20
8.02681410047743
 30
0.0
 10
1.117072211371528
 20
8.026986355251735
 30
0.0
 10
1.037490505642361
 20
8.044384087456596
 30
0.0
 10
0.9579087999131943
 20
8.067466227213542
 30
0.0
 10
0.8958970811631943
 20
8.121554226345486
 30
0.0
 10
0.8101142035590277
 20
8.111046685112846
 30
0.0
  0
SPLINE
  5
59
330
29
100
AcDbEntity
  8
LAYER_1
 62
     7
100
AcDbSpline
210
0.0
220
0.0
230
1.0
 70
     8
 71
     3
 72
    17
 73
    13
 74
     0
 42
0.000000001
 43
0.00000001
 40
0.0
 40
0.0
 40
0.0
 40
0.0
 40
1.0
 40
1.0
 40
1.0
 40
2.0
 40
2.0
 40
2.0
 40
3.0
 40
3.0
 40
3.0
 40
4.0
 40
4.0
 40
4.0
 40
4.0
 10
-1.049892849392361
 20
8.478982883029513
 30
0.0
 10
-1.019231499565972
 20
8.365122477213541
 30
0.0
 10
-0.8890068901909721
 20
8.319302707248264
 30
0.0
 10
-0.7780748155381944
 20
8.29070841471354
 30
0.0
 10
-0.6729994032118055
 20
8.26745402018229
 30
0.0
 10
-0.5024671766493055
 20
8.209576416015624
 30
0.0
 10
-0.4735283745659722
 20
8.343246120876735
 30
0.0
 10
-0.4445895724826389
 20
8.49379679361979
 30
0.0
 10
-0.6264906141493055
 20
8.534104410807291
 30
0.0
 10
-0.7339775933159721
 20
8.545989990234375
 30
0.0
 10
-0.8080471462673611
 20
8.546334499782985
 30
0.0
 10
-1.095368109809028
 20
8.516017659505208
 30
0.0
 10
-1.073319498697917
 20
8.456417507595486
 30
0.0
  0
SPLINE
  5
58
330
29
100
AcDbEntity
  8
LAYER_1
 62
     7
100
AcDbSpline
210
0.0
220
0.0
230
1.0
 70
     8
 71
     3
 72
    20
 73
    16
 74
     0
 42
0.000000001
 43
0.00000001
 40
0.0
 40
0.0
 40
0.0
 40
0.0
 40
1.0
 40
1.0
 40
1.0
 40
2.0
 40
2.0
 40
2.0
 40
3.0
 40
3.0
 40
3.0
 40
4.0
 40
4.0
 40
4.0
 40
5.0
 40
5.0
 40
5.0
 40
5.0
 10
-0.8083916558159722
 20
8.534965684678818
 30
0.0
 10
-0.7484469943576388
 20
8.546162245008679
 30
0.0
 10
-0.6292466905381944
 20
8.517223442925346
 30
0.0
 10
-0.6006523980034721
 20
8.588364664713541
 30
0.0
 10
-0.5627563476562499
 20
8.681726752387153
 30
0.0
 10
-0.6798895941840277
 20
8.693612331814235
 30
0.0
 10
-0.7332885742187499
 20
8.710665554470486
 30
0.0
 10
-0.8755710177951388
 20
8.751145426432291
 30
0.0
 10
-1.051270887586806
 20
8.834344482421875
 30
0.0
 10
-1.196309407552083
 20
8.840890163845485
 30
0.0
 10
-1.341692437065972
 20
8.849675157335069
 30
0.0
 10
-1.42471923828125
 20
8.656922064887151
 30
0.0
 10
-1.302418348524305
 20
8.553913709852429
 30
0.0
 10
-1.203544108072917
 20
8.479671902126736
 30
0.0
 10
-0.9844360351562499
 20
8.484150526258679
 30
0.0
 10
-0.8821166992187499
 20
8.535137939453124
 30
0.0
  0
SPLINE
  5
57
330
29
100
AcDbEntity
  8
LAYER_1
 62
     7
100
AcDbSpline
210
0.0
220
0.0
230
1.0
 70
     8
 71
     3
 72
    20
 73
    16
 74
     0
 42
0.000000001
 43
0.00000001
 40
0.0
 40
0.0
 40
0.0
 40
0.0
 40
1.0
 40
1.0
 40
1.0
 40
2.0
 40
2.0
 40
2.0
 40
3.0
 40
3.0
 40
3.0
 40
4.0
 40
4.0
 40
4.0
 40
5.0
 40
5.0
 40
5.0
 40
5.0
 10
-0.4507907443576388
 20
8.331532796223957
 30
0.0
 10
-0.4528578016493055
 20
8.593532307942708
 30
0.0
 10
-0.1769056532118055
 20
8.486906602647569
 30
0.0
 10
-0.0012057834201389
 20
8.446771240234375
 30
0.0
 10
0.2144571940104167
 20
8.388549126519097
 30
0.0
 10
0.4390774197048611
 20
8.356681993272568
 30
0.0
 10
0.6461276584201389
 20
8.290536159939235
 30
0.0
 10
0.7143405490451388
 20
8.267626274956596
 30
0.0
 10
0.8617906358506944
 20
8.226974148220485
 30
0.0
 10
0.8104587131076388
 20
8.124999321831597
 30
0.0
 10
0.764638943142361
 20
8.034393310546875
 30
0.0
 10
0.6140882703993055
 20
8.08917032877604
 30
0.0
 10
0.5458753797743056
 20
8.103467475043402
 30
0.0
 10
0.32711181640625
 20
8.14963175455729
 30
0.0
 10
0.0911227756076389
 20
8.116214328342013
 30
0.0
 10
-0.1190280490451389
 20
8.179948594835068
 30
0.0
  0
SPLINE
  5
56
330
29
100
AcDbEntity
  8
LAYER_1
 62
     7
100
AcDbSpline
210
0.0
220
0.0
230
1.0
 70
     8
 71
     3
 72
    14
 73
    10
 74
     0
 42
0.000000001
 43
0.00000001
 40
0.0
 40
0.0
 40
0.0
 40
0.0
 40
1.0
 40
1.0
 40
1.0
 40
2.0
 40
2.0
 40
2.0
 40
3.0
 40
3.0
 40
3.0
 40
3.0
 10
5.346615939670138
 20
7.919843885633679
 30
0.0
 10
5.179184299045138
 20
7.937413872612846
 30
0.0
 10
4.65242919921875
 20
8.346346706814236
 30
0.0
 10
4.557344563802083
 20
8.07366739908854
 30
0.0
 10
4.461226399739583
 20
8.252812364366319
 30
0.0
 10
4.126363118489583
 20
8.379247368706597
 30
0.0
 10
3.944806586371528
 20
8.431268310546875
 30
0.0
 10
3.658174641927083
 20
8.517567952473957
 30
0.0
 10
3.319866265190972
 20
8.578890652126736
 30
0.0
 10
3.064584689670139
 20
8.713077121310763
 30
0.0
  0
SPLINE
  5
55
330
29
100
AcDbEntity
  8
LAYER_1
 62
     7
100
AcDbSpline
210
0.0
220
0.0
230
1.0
 70
     8
 71
     3
 72
    14
 73
    10
 74
     0
 42
0.000000001
 43
0.00000001
 40
0.0
 40
0.0
 40
0.0
 40
0.0
 40
1.0
 40
1.0
 40
1.0
 40
2.0
 40
2.0
 40
2.0
 40
3.0
 40
3.0
 40
3.0
 40
3.0
 10
6.188597276475694
 20
7.356570773654513
 30
0.0
 10
5.992915852864583
 20
7.411003282335069
 30
0.0
 10
5.802057562934027
 20
7.463024224175347
 30
0.0
 10
5.606720648871527
 20
7.531926133897569
 30
0.0
 10
5.498889160156249
 20
7.569822184244791
 30
0.0
 10
5.170227050781249
 20
7.761197238498263
 30
0.0
 10
5.098569064670138
 20
7.610818820529513
 30
0.0
 10
4.959387207031249
 20
7.687816704644097
 30
0.0
 10
4.843287489149305
 20
7.773599582248263
 30
0.0
 10
4.683779568142361
 20
7.81442396375868
 30
0.0
  0
SPLINE
  5
54
330
29
100
AcDbEntity
  8
LAYER_1
 62
     7
100
AcDbSpline
210
0.0
220
0.0
230
1.0
 70
     8
 71
     3
 72
    26
 73
    22
 74
     0
 42
0.000000001
 43
0.00000001
 40
0.0
 40
0.0
 40
0.0
 40
0.0
 40
1.0
 40
1.0
 40
1.0
 40
2.0
 40
2.0
 40
2.0
 40
3.0
 40
3.0
 40
3.0
 40
4.0
 40
4.0
 40
4.0
 40
5.0
 40
5.0
 40
5.0
 40
6.0
 40
6.0
 40
6.0
 40
7.0
 40
7.0
 40
7.0
 40
7.0
 10
5.046203613281249
 20
7.346407741970485
 30
0.0
 10
4.850866699218749
 20
7.506432427300346
 30
0.0
 10
4.575259060329861
 20
7.596004909939236
 30
0.0
 10
4.342715115017361
 20
7.702113850911458
 30
0.0
 10
4.152201334635416
 20
7.787896728515625
 30
0.0
 10
3.959275987413194
 20
7.831304931640624
 30
0.0
 10
3.754637315538194
 20
7.880397542317708
 30
0.0
 10
3.541730414496528
 20
7.932418484157985
 30
0.0
 10
3.340192328559028
 20
8.029742431640624
 30
0.0
 10
3.121428765190972
 20
8.084863959418403
 30
0.0
 10
3.010841200086805
 20
8.11087443033854
 30
0.0
 10
2.465482584635416
 20
8.195451524522568
 30
0.0
 10
2.56573486328125
 20
8.373907470703124
 30
0.0
 10
2.665987141927083
 20
8.560976155598958
 30
0.0
 10
3.282314724392361
 20
8.351686604817708
 30
0.0
 10
3.426319715711805
 20
8.297081841362846
 30
0.0
 10
3.503489854600694
 20
8.268143039279513
 30
0.0
 10
3.721908908420139
 20
8.215777587890624
 30
0.0
 10
3.698826768663194
 20
8.105362277560763
 30
0.0
 10
3.803902180989583
 20
8.130511474609374
 30
0.0
 10
3.974778917100694
 20
8.07297837999132
 30
0.0
 10
4.070897081163194
 20
8.044211832682292
 30
0.0
  0
SPLINE
  5
53
330
29
100
AcDbEntity
  8
LAYER_1
 62
     7
100
AcDbSpline
210
0.0
220
0.0
230
1.0
 70
     8
 71
     3
 72
    14
 73
    10
 74
     0
 42
0.000000001
 43
0.00000001
 40
0.0
 40
0.0
 40
0.0
 40
0.0
 40
1.0
 40
1.0
 40
1.0
 40
2.0
 40
2.0
 40
2.0
 40
3.0
 40
3.0
 40
3.0
 40
3.0
 10
3.843520779079861
 20
8.107601589626736
 30
0.0
 10
4.025421820746527
 20
8.098472086588542
 30
0.0
 10
4.18734130859375
 20
7.963941107855902
 30
0.0
 10
4.349260796440972
 20
7.906752522786458
 30
0.0
 10
4.442278374565972
 20
7.877813720703124
 30
0.0
 10
4.542186143663194
 20
7.888665771484375
 30
0.0
 10
4.630036078559027
 20
7.856970893012152
 30
0.0
 10
4.701349555121527
 20
7.839745415581596
 30
0.0
 10
4.774385579427083
 20
7.751378716362846
 30
0.0
 10
4.849144151475694
 20
7.773771837022569
 30
0.0
  0
SPLINE
  5
52
330
29
100
AcDbEntity
  8
LAYER_1
 62
     7
100
AcDbSpline
210
0.0
220
0.0
230
1.0
 70
     8
 71
     3
 72
    41
 73
    37
 74
     0
 42
0.000000001
 43
0.00000001
 40
0.0
 40
0.0
 40
0.0
 40
0.0
 40
1.0
 40
1.0
 40
1.0
 40
2.0
 40
2.0
 40
2.0
 40
3.0
 40
3.0
 40
3.0
 40
4.0
 40
4.0
 40
4.0
 40
5.0
 40
5.0
 40
5.0
 40
6.0
 40
6.0
 40
6.0
 40
7.0
 40
7.0
 40
7.0
 40
8.0
 40
8.0
 40
8.0
 40
9.0
 40
9.0
 40
9.0
 40
10.0
 40
10.0
 40
10.0
 40
11.0
 40
11.0
 40
11.0
 40
12.0
 40
12.0
 40
12.0
 40
12.0
 10
5.250497775607639
 20
7.968419731987846
 30
0.0
 10
5.392091200086805
 20
7.885392930772569
 30
0.0
 10
5.556766764322916
 20
7.879364013671874
 30
0.0
 10
5.710418023003472
 20
7.819074842664929
 30
0.0
 10
5.783798556857638
 20
7.787379964192708
 30
0.0
 10
5.945718044704861
 20
7.681787787543402
 30
0.0
 10
6.01703152126736
 20
7.704008653428819
 30
0.0
 10
6.15655788845486
 20
7.746038818359374
 30
0.0
 10
6.06629638671875
 20
7.91674329969618
 30
0.0
 10
6.012208387586805
 20
7.988229031032986
 30
0.0
 10
5.925047471788194
 20
8.107946099175347
 30
0.0
 10
5.845465766059028
 20
8.151009792751735
 30
0.0
 10
5.706283908420138
 20
8.202686225043403
 30
0.0
 10
5.56744656032986
 20
8.254190402560763
 30
0.0
 10
5.425164116753471
 20
8.300182427300346
 30
0.0
 10
5.283570692274305
 20
8.340662299262153
 30
0.0
 10
5.200888400607639
 20
8.360988362630208
 30
0.0
 10
5.113038465711805
 20
8.392338731553819
 30
0.0
 10
5.030700683593749
 20
8.39268324110243
 30
0.0
 10
4.976612684461805
 20
8.398712158203125
 30
0.0
 10
4.916668023003472
 20
8.376146782769096
 30
0.0
 10
4.863269042968749
 20
8.387860107421874
 30
0.0
 10
4.806080457899305
 20
8.40508558485243
 30
0.0
 10
4.749580891927083
 20
8.473470730251735
 30
0.0
 10
4.695148383246528
 20
8.51360609266493
 30
0.0
 10
4.599030219184027
 20
8.573895263671874
 30
0.0
 10
4.502912055121527
 20
8.608001708984375
 30
0.0
 10
4.400592719184028
 20
8.651065402560763
 30
0.0
 10
4.173560926649305
 20
8.731508382161458
 30
0.0
 10
3.975123426649305
 20
8.843301730685763
 30
0.0
 10
3.739478895399305
 20
8.915304226345485
 30
0.0
 10
3.475240071614583
 20
8.995919460720485
 30
0.0
 10
3.228915744357638
 20
9.224157036675347
 30
0.0
 10
2.941939290364583
 20
9.211410183376735
 30
0.0
 10
2.94400634765625
 20
9.134412299262152
 30
0.0
 10
3.037712944878472
 20
9.059998236762151
 30
0.0
 10
3.105925835503472
 20
9.036916097005207
 30
0.0
  0
SPLINE
  5
51
330
29
100
AcDbEntity
  8
LAYER_1
 62
     7
100
AcDbSpline
210
0.0
220
0.0
230
1.0
 70
     8
 71
     3
 72
     8
 73
     4
 74
     0
 42
0.000000001
 43
0.00000001
 40
0.0
 40
0.0
 40
0.0
 40
0.0
 40
1.0
 40
1.0
 40
1.0
 40
1.0
 10
3.224092610677083
 20
8.843646240234374
 30
0.0
 10
3.216513400607639
 20
8.911859130859375
 30
0.0
 10
3.153812662760416
 20
8.974559868706596
 30
0.0
 10
3.093868001302083
 20
9.014178466796874
 30
0.0
  0
SPLINE
  5
50
330
29
100
AcDbEntity
  8
LAYER_1
 62
     7
100
AcDbSpline
210
0.0
220
0.0
230
1.0
 70
     8
 71
     3
 72
     8
 73
     4
 74
     0
 42
0.000000001
 43
0.00000001
 40
0.0
 40
0.0
 40
0.0
 40
0.0
 40
1.0
 40
1.0
 40
1.0
 40
1.0
 10
3.009807671440972
 20
9.10306193033854
 30
0.0
 10
3.086288791232639
 20
9.026064046223958
 30
0.0
 10
3.171382649739583
 20
9.013833957248263
 30
0.0
 10
3.224437120225694
 20
8.906002468532986
 30
0.0
  0
SPLINE
  5
4F
330
29
100
AcDbEntity
  8
LAYER_1
 62
     7
100
AcDbSpline
210
0.0
220
0.0
230
1.0
 70
     8
 71
     3
 72
    14
 73
    10
 74
     0
 42
0.000000001
 43
0.00000001
 40
0.0
 40
0.0
 40
0.0
 40
0.0
 40
1.0
 40
1.0
 40
1.0
 40
2.0
 40
2.0
 40
2.0
 40
3.0
 40
3.0
 40
3.0
 40
3.0
 10
-5.532651095920138
 20
9.980355495876735
 30
0.0
 10
-5.395880805121528
 20
10.13021714952257
 30
0.0
 10
-4.790577528211805
 20
9.943492974175346
 30
0.0
 10
-4.732010904947916
 20
9.78949720594618
 30
0.0
 10
-4.641749403211805
 20
9.544723171657985
 30
0.0
 10
-5.022432454427083
 20
9.614486355251735
 30
0.0
 10
-5.156102159288194
 20
9.643425157335068
 30
0.0
 10
-5.286671278211805
 20
9.672536214192707
 30
0.0
 10
-5.545397949218749
 20
9.730241563585068
 30
0.0
 10
-5.555733235677083
 20
9.89801771375868
 30
0.0
  0
SPLINE
  5
4E
330
29
100
AcDbEntity
  8
LAYER_1
 62
     7
100
AcDbSpline
210
0.0
220
0.0
230
1.0
 70
     8
 71
     3
 72
    11
 73
     7
 74
     0
 42
0.000000001
 43
0.00000001
 40
0.0
 40
0.0
 40
0.0
 40
0.0
 40
1.0
 40
1.0
 40
1.0
 40
2.0
 40
2.0
 40
2.0
 40
2.0
 10
-3.733277723524305
 20
9.205898030598958
 30
0.0
 10
-3.940327962239583
 20
9.263603379991318
 30
0.0
 10
-4.173905436197916
 20
9.278589545355901
 30
0.0
 10
-4.389568413628472
 20
9.333538818359374
 30
0.0
 10
-4.554243977864583
 20
9.376774766710069
 30
0.0
 10
-4.832952202690972
 20
9.371951633029513
 30
0.0
 10
-4.749580891927083
 20
9.616381157769096
 30
0.0
  0
SPLINE
  5
4D
330
29
100
AcDbEntity
  8
LAYER_1
 62
     7
100
AcDbSpline
210
0.0
220
0.0
230
1.0
 70
     8
 71
     3
 72
     8
 73
     4
 74
     0
 42
0.000000001
 43
0.00000001
 40
0.0
 40
0.0
 40
0.0
 40
0.0
 40
1.0
 40
1.0
 40
1.0
 40
1.0
 10
-3.599952528211805
 20
9.182643636067708
 30
0.0
 10
-3.656796603732638
 20
9.22243448893229
 30
0.0
 10
-3.739134385850694
 20
9.217266845703124
 30
0.0
 10
-3.810447862413194
 20
9.217611355251735
 30
0.0
  0
SPLINE
  5
4C
330
29
100
AcDbEntity
  8
LAYER_1
 62
     7
100
AcDbSpline
210
0.0
220
0.0
230
1.0
 70
     8
 71
     3
 72
    20
 73
    16
 74
     0
 42
0.000000001
 43
0.00000001
 40
0.0
 40
0.0
 40
0.0
 40
0.0
 40
1.0
 40
1.0
 40
1.0
 40
2.0
 40
2.0
 40
2.0
 40
3.0
 40
3.0
 40
3.0
 40
4.0
 40
4.0
 40
4.0
 40
5.0
 40
5.0
 40
5.0
 40
5.0
 10
-4.771629503038194
 20
9.067577446831596
 30
0.0
 10
-4.604197862413194
 20
9.066888427734375
 30
0.0
 10
-4.439522298177083
 20
9.009872097439235
 30
0.0
 10
-4.272090657552083
 20
8.98058878580729
 30
0.0
 10
-4.121539984809028
 20
8.957162136501735
 30
0.0
 10
-3.973745388454861
 20
8.88257581922743
 30
0.0
 10
-3.817682562934027
 20
8.850708685980901
 30
0.0
 10
-3.666787380642361
 20
8.81901380750868
 30
0.0
 10
-3.499700249565972
 20
8.755968560112846
 30
0.0
 10
-3.340536838107639
 20
8.772332763671875
 30
0.0
 10
-3.275080023871527
 20
8.78335706922743
 30
0.0
 10
-3.155535210503472
 20
8.765614827473957
 30
0.0
 10
-3.141065809461805
 20
8.848297119140625
 30
0.0
 10
-3.126596408420139
 20
8.913753933376736
 30
0.0
 10
-3.239595540364583
 20
9.044667561848957
 30
0.0
 10
-3.294028049045139
 20
9.005221218532986
 30
0.0
  0
SPLINE
  5
4B
330
29
100
AcDbEntity
  8
LAYER_1
 62
     7
100
AcDbSpline
210
0.0
220
0.0
230
1.0
 70
     8
 71
     3
 72
    14
 73
    10
 74
     0
 42
0.000000001
 43
0.00000001
 40
0.0
 40
0.0
 40
0.0
 40
0.0
 40
1.0
 40
1.0
 40
1.0
 40
2.0
 40
2.0
 40
2.0
 40
3.0
 40
3.0
 40
3.0
 40
3.0
 10
-3.704338921440972
 20
9.404507785373262
 30
0.0
 10
-3.780820041232638
 20
9.410708957248263
 30
0.0
 10
-3.866258409288194
 20
9.456528727213541
 30
0.0
 10
-3.928614637586805
 20
9.502176242404513
 30
0.0
 10
-4.027833387586806
 20
9.565049235026041
 30
0.0
 10
-4.127052137586805
 20
9.619481743706597
 30
0.0
 10
-4.223170301649305
 20
9.68528306749132
 30
0.0
 10
-4.430220540364583
 20
9.81120130750868
 30
0.0
 10
-4.51290283203125
 20
9.865633816189236
 30
0.0
 10
-4.746135796440972
 20
9.772616238064236
 30
0.0
  0
SPLINE
  5
4A
330
29
100
AcDbEntity
  8
LAYER_1
 62
     7
100
AcDbSpline
210
0.0
220
0.0
230
1.0
 70
     8
 71
     3
 72
    20
 73
    16
 74
     0
 42
0.000000001
 43
0.00000001
 40
0.0
 40
0.0
 40
0.0
 40
0.0
 40
1.0
 40
1.0
 40
1.0
 40
2.0
 40
2.0
 40
2.0
 40
3.0
 40
3.0
 40
3.0
 40
4.0
 40
4.0
 40
4.0
 40
5.0
 40
5.0
 40
5.0
 40
5.0
 10
-4.412995062934027
 20
9.811029052734375
 30
0.0
 10
-4.376132541232638
 20
9.78829142252604
 30
0.0
 10
-4.26830105251736
 20
9.759524875217013
 30
0.0
 10
-4.245907931857639
 20
9.804827880859374
 30
0.0
 10
-4.214213053385416
 20
9.87321302625868
 30
0.0
 10
-4.347193739149305
 20
9.930229356553818
 30
0.0
 10
-4.398181152343749
 20
9.953139241536457
 30
0.0
 10
-4.545631239149305
 20
10.03065388997396
 30
0.0
 10
-4.716507975260416
 20
10.07974650065104
 30
0.0
 10
-4.87257080078125
 20
10.15105997721354
 30
0.0
 10
-5.000039333767361
 20
10.21152140299479
 30
0.0
 10
-5.144733344184028
 20
10.23201972113715
 30
0.0
 10
-5.267034233940972
 20
10.29764879014757
 30
0.0
 10
-5.329390462239583
 20
10.33227199978299
 30
0.0
 10
-5.544364420572916
 20
10.53208753797743
 30
0.0
 10
-5.587772623697916
 20
10.39290568033854
 30
0.0
  0
SPLINE
  5
49
330
29
100
AcDbEntity
  8
LAYER_1
 62
     7
100
AcDbSpline
210
0.0
220
0.0
230
1.0
 70
     8
 71
     3
 72
    26
 73
    22
 74
     0
 42
0.000000001
 43
0.00000001
 40
0.0
 40
0.0
 40
0.0
 40
0.0
 40
1.0
 40
1.0
 40
1.0
 40
2.0
 40
2.0
 40
2.0
 40
3.0
 40
3.0
 40
3.0
 40
4.0
 40
4.0
 40
4.0
 40
5.0
 40
5.0
 40
5.0
 40
6.0
 40
6.0
 40
6.0
 40
7.0
 40
7.0
 40
7.0
 40
7.0
 10
-3.375676812065972
 20
9.756252034505208
 30
0.0
 10
-3.606153700086805
 20
9.739715576171875
 30
0.0
 10
-3.855923122829861
 20
9.874074300130207
 30
0.0
 10
-4.074686686197916
 20
9.923683675130208
 30
0.0
 10
-4.184929741753471
 20
9.946765814887153
 30
0.0
 10
-4.278980848524305
 20
9.947110324435762
 30
0.0
 10
-4.375788031684027
 20
10.01273939344618
 30
0.0
 10
-4.440900336371527
 20
10.06148749457465
 30
0.0
 10
-4.519793023003472
 20
10.16983574761285
 30
0.0
 10
-4.422641330295138
 20
10.22340698242187
 30
0.0
 10
-4.360285101996527
 20
10.25441284179687
 30
0.0
 10
-4.186996799045138
 20
10.20824856228299
 30
0.0
 10
-4.124296061197916
 20
10.19670749240451
 30
0.0
 10
-4.008196343315972
 20
10.16794094509549
 30
0.0
 10
-3.942739529079861
 20
10.11385294596354
 30
0.0
 10
-3.846621365017361
 20
10.04787936740451
 30
0.0
 10
-3.690558539496527
 20
9.950383165147569
 30
0.0
 10
-3.51141357421875
 20
9.895778401692708
 30
0.0
 10
-3.355695258246528
 20
9.795526123046875
 30
0.0
 10
-3.364652506510416
 20
9.772960747612846
 30
0.0
 10
-3.381533474392361
 20
9.773133002387151
 30
0.0
 10
-3.398758951822916
 20
9.767276340060763
 30
0.0
  0
SPLINE
  5
48
330
29
100
AcDbEntity
  8
LAYER_1
 62
     7
100
AcDbSpline
210
0.0
220
0.0
230
1.0
 70
     8
 71
     3
 72
    17
 73
    13
 74
     0
 42
0.000000001
 43
0.00000001
 40
0.0
 40
0.0
 40
0.0
 40
0.0
 40
1.0
 40
1.0
 40
1.0
 40
2.0
 40
2.0
 40
2.0
 40
3.0
 40
3.0
 40
3.0
 40
4.0
 40
4.0
 40
4.0
 40
4.0
 10
-3.627857801649305
 20
9.961751980251735
 30
0.0
 10
-3.613388400607639
 20
10.12332695855035
 30
0.0
 10
-3.362929958767361
 20
10.14503106011285
 30
0.0
 10
-3.249241807725694
 20
10.09921129014757
 30
0.0
 10
-3.070096842447916
 20
10.03323771158854
 30
0.0
 10
-2.90369873046875
 20
9.91352064344618
 30
0.0
 10
-2.73006591796875
 20
9.827393256293401
 30
0.0
 10
-2.545753309461805
 20
9.747122531467014
 30
0.0
 10
-2.560222710503472
 20
9.624821641710069
 30
0.0
 10
-2.767961968315972
 20
9.619653998480901
 30
0.0
 10
-2.989481608072917
 20
9.612591552734374
 30
0.0
 10
-3.191364203559028
 20
9.71542765299479
 30
0.0
 10
-3.398758951822916
 20
9.77898966471354
 30
0.0
  0
SPLINE
  5
47
330
29
100
AcDbEntity
  8
LAYER_1
 62
     7
100
AcDbSpline
210
0.0
220
0.0
230
1.0
 70
     8
 71
     3
 72
    11
 73
     7
 74
     0
 42
0.000000001
 43
0.00000001
 40
0.0
 40
0.0
 40
0.0
 40
0.0
 40
1.0
 40
1.0
 40
1.0
 40
2.0
 40
2.0
 40
2.0
 40
2.0
 10
-1.806435818142361
 20
9.801210530598958
 30
0.0
 10
-1.735466851128472
 20
9.783640543619791
 30
0.0
 10
-1.479496256510417
 20
9.691484239366318
 30
0.0
 10
-1.600074598524305
 20
9.586925591362846
 30
0.0
 10
-1.662086317274305
 20
9.533009847005207
 30
0.0
 10
-1.883950466579861
 20
9.579518636067707
 30
0.0
 10
-1.932181803385417
 20
9.633951144748263
 30
0.0
  0
SPLINE
  5
46
330
29
100
AcDbEntity
  8
LAYER_1
 62
     7
100
AcDbSpline
210
0.0
220
0.0
230
1.0
 70
     8
 71
     3
 72
     8
 73
     4
 74
     0
 42
0.000000001
 43
0.00000001
 40
0.0
 40
0.0
 40
0.0
 40
0.0
 40
1.0
 40
1.0
 40
1.0
 40
1.0
 10
-4.565268283420139
 20
10.81251831054687
 30
0.0
 10
-4.527372233072916
 20
11.01698472764757
 30
0.0
 10
-5.259799533420138
 20
11.23609280056423
 30
0.0
 10
-5.416551378038194
 20
11.23660956488715
 30
0.0
  0
SPLINE
  5
45
330
29
100
AcDbEntity
  8
LAYER_1
 62
     7
100
AcDbSpline
210
0.0
220
0.0
230
1.0
 70
     8
 71
     3
 72
     8
 73
     4
 74
     0
 42
0.000000001
 43
0.00000001
 40
0.0
 40
0.0
 40
0.0
 40
0.0
 40
1.0
 40
1.0
 40
1.0
 40
1.0
 10
-5.710418023003472
 20
10.96479153103298
 30
0.0
 10
-5.838231065538194
 20
10.94239841037326
 30
0.0
 10
-5.914712185329861
 20
11.05660332573785
 30
0.0
 10
-6.019443088107638
 20
11.10242309570312
 30
0.0
  0
SPLINE
  5
44
330
29
100
AcDbEntity
  8
LAYER_1
 62
     7
100
AcDbSpline
210
0.0
220
0.0
230
1.0
 70
     8
 71
     3
 72
    17
 73
    13
 74
     0
 42
0.000000001
 43
0.00000001
 40
0.0
 40
0.0
 40
0.0
 40
0.0
 40
1.0
 40
1.0
 40
1.0
 40
2.0
 40
2.0
 40
2.0
 40
3.0
 40
3.0
 40
3.0
 40
4.0
 40
4.0
 40
4.0
 40
4.0
 10
-4.183896213107639
 20
10.89640638563368
 30
0.0
 10
-4.129808213975694
 20
10.92431165907118
 30
0.0
 10
-4.064351399739583
 20
10.99786444769965
 30
0.0
 10
-4.100869411892361
 20
11.06624959309896
 30
0.0
 10
-4.134631347656249
 20
11.12619425455729
 30
0.0
 10
-4.293794759114583
 20
11.12981160481771
 30
0.0
 10
-4.350294325086805
 20
11.14428100585937
 30
0.0
 10
-4.481207953559028
 20
11.18148803710937
 30
0.0
 10
-4.629347059461805
 20
11.20491468641493
 30
0.0
 10
-4.748202853732638
 20
11.26813218858507
 30
0.0
 10
-4.84156494140625
 20
11.31929185655382
 30
0.0
 10
-4.929759385850694
 20
11.37940877278646
 30
0.0
 10
-5.031389702690972
 20
11.42832912868924
 30
0.0
  0
SPLINE
  5
43
330
29
100
AcDbEntity
  8
LAYER_1
 62
     7
100
AcDbSpline
210
0.0
220
0.0
230
1.0
 70
     8
 71
     3
 72
    17
 73
    13
 74
     0
 42
0.000000001
 43
0.00000001
 40
0.0
 40
0.0
 40
0.0
 40
0.0
 40
1.0
 40
1.0
 40
1.0
 40
2.0
 40
2.0
 40
2.0
 40
3.0
 40
3.0
 40
3.0
 40
4.0
 40
4.0
 40
4.0
 40
4.0
 10
0.11317138671875
 20
9.24224378797743
 30
0.0
 10
0.1979207356770833
 20
9.224673800998263
 30
0.0
 10
0.3291788736979167
 20
9.184193929036457
 30
0.0
 10
0.4032484266493055
 20
9.246550157335069
 30
0.0
 10
0.5028116861979166
 20
9.334400092230903
 30
0.0
 10
0.3698310004340277
 20
9.405885823567708
 30
0.0
 10
0.25889892578125
 20
9.429140218098958
 30
0.0
 10
0.19068603515625
 20
9.440853542751736
 30
0.0
 10
0.0318671332465278
 20
9.455667453342013
 30
0.0
 10
0.0053398980034722
 20
9.370573594835069
 30
0.0
 10
-0.0146416558159722
 20
9.293747965494791
 30
0.0
 10
0.0962904188368055
 20
9.242416042751735
 30
0.0
 10
0.1589911566840278
 20
9.241899278428818
 30
0.0
  0
SPLINE
  5
42
330
29
100
AcDbEntity
  8
LAYER_1
 62
     7
100
AcDbSpline
210
0.0
220
0.0
230
1.0
 70
     8
 71
     3
 72
    20
 73
    16
 74
     0
 42
0.000000001
 43
0.00000001
 40
0.0
 40
0.0
 40
0.0
 40
0.0
 40
1.0
 40
1.0
 40
1.0
 40
2.0
 40
2.0
 40
2.0
 40
3.0
 40
3.0
 40
3.0
 40
4.0
 40
4.0
 40
4.0
 40
5.0
 40
5.0
 40
5.0
 40
5.0
 10
0.38912353515625
 20
9.238109673394096
 30
0.0
 10
0.4921318901909722
 20
9.464969211154513
 30
0.0
 10
0.9830579969618055
 20
9.204347737630208
 30
0.0
 10
1.155657280815972
 20
9.147159152560763
 30
0.0
 10
1.328945583767361
 20
9.089281548394096
 30
0.0
 10
1.800923665364583
 20
9.053624810112847
 30
0.0
 10
1.774051920572917
 20
8.803683132595486
 30
0.0
 10
1.75338134765625
 20
8.661400689019096
 30
0.0
 10
1.651751030815972
 20
8.673114013671874
 30
0.0
 10
1.529450141059028
 20
8.719278293185763
 30
0.0
 10
1.370631239149305
 20
8.776466878255208
 30
0.0
 10
1.231449381510417
 20
8.859838189019097
 30
0.0
 10
1.069874403211805
 20
8.908414035373264
 30
0.0
 10
0.9475735134548611
 20
8.948721652560764
 30
0.0
 10
0.34261474609375
 20
9.05930921766493
 30
0.0
 10
0.3718980577256944
 20
9.209859890407985
 30
0.0
  0
SPLINE
  5
41
330
29
100
AcDbEntity
  8
LAYER_1
 62
     7
100
AcDbSpline
210
0.0
220
0.0
230
1.0
 70
     8
 71
     3
 72
    23
 73
    19
 74
     0
 42
0.000000001
 43
0.00000001
 40
0.0
 40
0.0
 40
0.0
 40
0.0
 40
1.0
 40
1.0
 40
1.0
 40
2.0
 40
2.0
 40
2.0
 40
3.0
 40
3.0
 40
3.0
 40
4.0
 40
4.0
 40
4.0
 40
5.0
 40
5.0
 40
5.0
 40
6.0
 40
6.0
 40
6.0
 40
6.0
 10
-1.283125813802083
 20
9.762108696831596
 30
0.0
 10
-1.234549967447917
 20
9.907147216796874
 30
0.0
 10
-1.299662272135417
 20
9.952794731987847
 30
0.0
 10
-1.120517306857639
 20
9.917654758029514
 30
0.0
 10
-0.9727227105034721
 20
9.885787624782985
 30
0.0
 10
-0.8025349934895832
 20
9.845480007595485
 30
0.0
 10
-0.6636976453993055
 20
9.801899549696179
 30
0.0
 10
-0.4249525282118055
 20
9.732997639973958
 30
0.0
 10
-0.2292711046006944
 20
9.581585693359374
 30
0.0
 10
-0.0539157443576389
 20
9.424833848741319
 30
0.0
 10
-0.1765611436631944
 20
9.365578206380208
 30
0.0
 10
-0.3839558919270833
 20
9.443092854817708
 30
0.0
 10
-0.5141805013020833
 20
9.443437364366318
 30
0.0
 10
-0.6426825629340277
 20
9.449810791015624
 30
0.0
 10
-0.7384562174479166
 20
9.456011962890624
 30
0.0
 10
-0.8552449544270833
 20
9.493046739366319
 30
0.0
 10
-1.031289333767361
 20
9.55350816514757
 30
0.0
 10
-1.369597710503472
 20
9.560570610894096
 30
0.0
 10
-1.251430935329861
 20
9.804483371310763
 30
0.0
  0
SPLINE
  5
40
330
29
100
AcDbEntity
  8
LAYER_1
 62
     7
100
AcDbSpline
210
0.0
220
0.0
230
1.0
 70
     8
 71
     3
 72
    20
 73
    16
 74
     0
 42
0.000000001
 43
0.00000001
 40
0.0
 40
0.0
 40
0.0
 40
0.0
 40
1.0
 40
1.0
 40
1.0
 40
2.0
 40
2.0
 40
2.0
 40
3.0
 40
3.0
 40
3.0
 40
4.0
 40
4.0
 40
4.0
 40
5.0
 40
5.0
 40
5.0
 40
5.0
 10
-1.035767957899306
 20
9.110296630859374
 30
0.0
 10
-0.9613538953993055
 20
9.30890638563368
 30
0.0
 10
-0.538296169704861
 20
9.128038872612846
 30
0.0
 10
-0.4080715603298611
 20
9.093760172526041
 30
0.0
 10
-0.20618896484375
 20
9.038638644748263
 30
0.0
 10
0.1238511827256944
 20
8.992129855685763
 30
0.0
 10
0.29920654296875
 20
8.863455539279514
 30
0.0
 10
0.4122056749131944
 20
8.78025648328993
 30
0.0
 10
0.3753431532118055
 20
8.701019287109375
 30
0.0
 10
0.2299601236979167
 20
8.684310574001735
 30
0.0
 10
0.0477145724826389
 20
8.662261962890625
 30
0.0
 10
-0.1617472330729167
 20
8.782668050130207
 30
0.0
 10
-0.3346910264756944
 20
8.843301730685763
 30
0.0
 10
-0.4518242730034722
 20
8.880508761935763
 30
0.0
 10
-1.059539116753472
 20
8.90583021375868
 30
0.0
 10
-1.022332085503472
 20
9.081702338324652
 30
0.0
  0
SPLINE
  5
3F
330
29
100
AcDbEntity
  8
LAYER_1
 62
     7
100
AcDbSpline
210
0.0
220
0.0
230
1.0
 70
     8
 71
     3
 72
     8
 73
     4
 74
     0
 42
0.000000001
 43
0.00000001
 40
0.0
 40
0.0
 40
0.0
 40
0.0
 40
1.0
 40
1.0
 40
1.0
 40
1.0
 10
2.494076877170138
 20
8.331877305772569
 30
0.0
 10
2.561256239149305
 20
8.697746446397568
 30
0.0
 10
1.932870822482639
 20
8.623676893446179
 30
0.0
 10
1.788176812065972
 20
8.80351087782118
 30
0.0
  0
SPLINE
  5
3E
330
29
100
AcDbEntity
  8
LAYER_1
 62
     7
100
AcDbSpline
210
0.0
220
0.0
230
1.0
 70
     8
 71
     3
 72
    32
 73
    28
 74
     0
 42
0.000000001
 43
0.00000001
 40
0.0
 40
0.0
 40
0.0
 40
0.0
 40
1.0
 40
1.0
 40
1.0
 40
2.0
 40
2.0
 40
2.0
 40
3.0
 40
3.0
 40
3.0
 40
4.0
 40
4.0
 40
4.0
 40
5.0
 40
5.0
 40
5.0
 40
6.0
 40
6.0
 40
6.0
 40
7.0
 40
7.0
 40
7.0
 40
8.0
 40
8.0
 40
8.0
 40
9.0
 40
9.0
 40
9.0
 40
9.0
 10
1.222147623697917
 20
8.615408664279514
 30
0.0
 10
1.091578504774305
 20
8.692578803168402
 30
0.0
 10
0.9665215386284721
 20
8.707220458984374
 30
0.0
 10
0.8214830186631944
 20
8.735987006293403
 30
0.0
 10
0.7422458224826388
 20
8.750456407335069
 30
0.0
 10
0.5579332139756944
 20
8.833999972873263
 30
0.0
 10
0.4776624891493055
 20
8.802821858723958
 30
0.0
 10
0.2671671549479167
 20
8.723929172092014
 30
0.0
 10
0.5400187174479166
 20
8.62333238389757
 30
0.0
 10
0.6161553276909721
 20
8.600250244140625
 30
0.0
 10
0.7412122938368055
 20
8.563043212890625
 30
0.0
 10
0.8431871202256944
 20
8.51705118815104
 30
0.0
 10
0.9510186089409721
 20
8.453833685980902
 30
0.0
 10
1.092612033420139
 20
8.368395317925346
 30
0.0
 10
1.246263292100694
 20
8.29966566297743
 30
0.0
 10
1.390957302517361
 20
8.225079345703124
 30
0.0
 10
1.510157606336805
 20
8.150665283203125
 30
0.0
 10
1.609031846788194
 20
8.081935628255208
 30
0.0
 10
1.751314290364583
 20
8.072806125217014
 30
0.0
 10
1.845020887586805
 20
8.063848876953124
 30
0.0
 10
1.995571560329861
 20
8.080557590060764
 30
0.0
 10
2.061372884114583
 20
8.177020263671874
 30
0.0
 10
2.170582411024305
 20
8.33566691080729
 30
0.0
 10
1.823661295572917
 20
8.388376871744791
 30
0.0
 10
1.693092176649305
 20
8.434196641710068
 30
0.0
 10
1.599730088975694
 20
8.468819851345485
 30
0.0
 10
1.250397406684028
 20
8.64658677842882
 30
0.0
 10
1.207333713107639
 20
8.586986626519096
 30
0.0
  0
SPLINE
  5
3D
330
29
100
AcDbEntity
  8
LAYER_1
 62
     7
100
AcDbSpline
210
0.0
220
0.0
230
1.0
 70
     8
 71
     3
 72
    20
 73
    16
 74
     0
 42
0.000000001
 43
0.00000001
 40
0.0
 40
0.0
 40
0.0
 40
0.0
 40
1.0
 40
1.0
 40
1.0
 40
2.0
 40
2.0
 40
2.0
 40
3.0
 40
3.0
 40
3.0
 40
4.0
 40
4.0
 40
4.0
 40
5.0
 40
5.0
 40
5.0
 40
5.0
 10
-0.84801025390625
 20
9.868389892578124
 30
0.0
 10
-0.8449096679687499
 20
9.998959011501736
 30
0.0
 10
-0.795644802517361
 20
10.03582153320312
 30
0.0
 10
-0.7270874023437499
 20
10.10661824544271
 30
0.0
 10
-0.4404554578993055
 20
10.08267483181424
 30
0.0
 10
-0.1796617296006944
 20
9.936947292751736
 30
0.0
 10
0.1045586480034722
 20
9.876141357421874
 30
0.0
 10
0.3374471028645833
 20
9.829632568359374
 30
0.0
 10
0.5506985134548611
 20
9.809134250217014
 30
0.0
 10
0.7835869683159722
 20
9.751084391276041
 30
0.0
 10
1.033700900607639
 20
9.68752237955729
 30
0.0
 10
1.306207953559028
 20
9.686488850911458
 30
0.0
 10
1.381655544704861
 20
9.419149441189235
 30
0.0
 10
1.463304307725694
 20
9.132000732421874
 30
0.0
 10
1.161513943142361
 20
9.112708197699652
 30
0.0
 10
0.9775458441840277
 20
9.25309583875868
 30
0.0
  0
SPLINE
  5
3C
330
29
100
AcDbEntity
  8
LAYER_1
 62
     7
100
AcDbSpline
210
0.0
220
0.0
230
1.0
 70
     8
 71
     3
 72
    23
 73
    19
 74
     0
 42
0.000000001
 43
0.00000001
 40
0.0
 40
0.0
 40
0.0
 40
0.0
 40
1.0
 40
1.0
 40
1.0
 40
2.0
 40
2.0
 40
2.0
 40
3.0
 40
3.0
 40
3.0
 40
4.0
 40
4.0
 40
4.0
 40
5.0
 40
5.0
 40
5.0
 40
6.0
 40
6.0
 40
6.0
 40
6.0
 10
-1.103636338975694
 20
9.917654758029514
 30
0.0
 10
-1.021298556857639
 20
9.874935574001736
 30
0.0
 10
-0.8418090820312499
 20
9.890955268012151
 30
0.0
 10
-0.8135592990451388
 20
9.996375189887152
 30
0.0
 10
-0.7839314778645833
 20
10.12401597764757
 30
0.0
 10
-0.9513631184895832
 20
10.16707967122396
 30
0.0
 10
-1.03404541015625
 20
10.20738728841146
 30
0.0
 10
-1.335146755642361
 20
10.33950670030382
 30
0.0
 10
-1.683790418836805
 20
10.46008504231771
 30
0.0
 10
-2.01072998046875
 20
10.52089097764757
 30
0.0
 10
-2.305630154079861
 20
10.57618476019965
 30
0.0
 10
-2.510957845052083
 20
10.54879625108507
 30
0.0
 10
-2.757282172309028
 20
10.72863023546007
 30
0.0
 10
-2.887851291232639
 20
10.81734144422743
 30
0.0
 10
-3.152090115017361
 20
10.93774753146701
 30
0.0
 10
-3.322622341579861
 20
10.91001451280382
 30
0.0
 10
-3.351216634114583
 20
10.85609876844618
 30
0.0
 10
-3.388079155815972
 20
10.79081420898437
 30
0.0
 10
-3.360173882378472
 20
10.73948228624132
 30
0.0
  0
SPLINE
  5
3B
330
29
100
AcDbEntity
  8
LAYER_1
 62
     7
100
AcDbSpline
210
0.0
220
0.0
230
1.0
 70
     8
 71
     3
 72
    11
 73
     7
 74
     0
 42
0.000000001
 43
0.00000001
 40
0.0
 40
0.0
 40
0.0
 40
0.0
 40
1.0
 40
1.0
 40
1.0
 40
2.0
 40
2.0
 40
2.0
 40
2.0
 10
-3.168971082899305
 20
10.86660630967882
 30
0.0
 10
-3.038401963975694
 20
10.90880872938368
 30
0.0
 10
-2.725587293836805
 20
10.88503757052951
 30
0.0
 10
-3.020487467447917
 20
11.06211547851562
 30
0.0
 10
-3.151401095920138
 20
11.13945787217882
 30
0.0
 10
-3.298506673177083
 20
11.16012844509548
 30
0.0
 10
-3.431831868489583
 20
11.20009155273437
 30
0.0
  0
SPLINE
  5
3A
330
29
100
AcDbEntity
  8
LAYER_1
 62
     7
100
AcDbSpline
210
0.0
220
0.0
230
1.0
 70
     8
 71
     3
 72
    11
 73
     7
 74
     0
 42
0.000000001
 43
0.00000001
 40
0.0
 40
0.0
 40
0.0
 40
0.0
 40
1.0
 40
1.0
 40
1.0
 40
2.0
 40
2.0
 40
2.0
 40
2.0
 10
-4.126018608940972
 20
11.11499769422743
 30
0.0
 10
-3.981324598524305
 20
11.11448092990451
 30
0.0
 10
-3.816304524739583
 20
11.12481621636285
 30
0.0
 10
-3.679534233940972
 20
11.08175252278646
 30
0.0
 10
-3.568946668836805
 20
11.04730156792535
 30
0.0
 10
-3.475584581163194
 20
10.95617879231771
 30
0.0
 10
-3.370853678385416
 20
10.92723999023437
 30
0.0
  0
SPLINE
  5
39
330
29
100
AcDbEntity
  8
LAYER_1
 62
     7
100
AcDbSpline
210
0.0
220
0.0
230
1.0
 70
     8
 71
     3
 72
    17
 73
    13
 74
     0
 42
0.000000001
 43
0.00000001
 40
0.0
 40
0.0
 40
0.0
 40
0.0
 40
1.0
 40
1.0
 40
1.0
 40
2.0
 40
2.0
 40
2.0
 40
3.0
 40
3.0
 40
3.0
 40
4.0
 40
4.0
 40
4.0
 40
4.0
 10
2.346282280815972
 20
10.16018948025174
 30
0.0
 10
1.952852376302083
 20
9.928506808810763
 30
0.0
 10
1.552187771267361
 20
10.01549546983507
 30
0.0
 10
1.126373969184028
 20
10.11058010525174
 30
0.0
 10
0.8817721896701388
 20
10.16587388780382
 30
0.0
 10
0.6347588433159722
 20
10.22357923719618
 30
0.0
 10
0.3987698025173611
 20
10.28714124891493
 30
0.0
 10
0.3026516384548611
 20
10.31039564344618
 30
0.0
 10
0.1858629014756944
 20
10.33365003797743
 30
0.0
 10
0.1552015516493056
 20
10.41891615125868
 30
0.0
 10
0.11317138671875
 20
10.53846096462673
 30
0.0
 10
0.2099785698784722
 20
10.61752590603298
 30
0.0
 10
0.28990478515625
 20
10.66265665690104
 30
0.0
  0
SPLINE
  5
38
330
29
100
AcDbEntity
  8
LAYER_1
 62
     7
100
AcDbSpline
210
0.0
220
0.0
230
1.0
 70
     8
 71
     3
 72
    17
 73
    13
 74
     0
 42
0.000000001
 43
0.00000001
 40
0.0
 40
0.0
 40
0.0
 40
0.0
 40
1.0
 40
1.0
 40
1.0
 40
2.0
 40
2.0
 40
2.0
 40
3.0
 40
3.0
 40
3.0
 40
4.0
 40
4.0
 40
4.0
 40
4.0
 10
-0.6419935438368055
 20
10.83956231011285
 30
0.0
 10
-0.7236423068576389
 20
10.87435777452257
 30
0.0
 10
-0.9231133355034722
 20
10.93481920030382
 30
0.0
 10
-1.014063856336805
 20
10.88951619466146
 30
0.0
 10
-1.176327853732639
 20
10.80476684570312
 30
0.0
 10
-1.048859320746528
 20
10.67953762478298
 30
0.0
 10
-0.9331041124131944
 20
10.6304450141059
 30
0.0
 10
-0.7367336697048611
 20
10.55310262044271
 30
0.0
 10
-0.5179701063368055
 20
10.56929456922743
 30
0.0
 10
-0.3160875108506944
 20
10.51434529622396
 30
0.0
 10
-0.1800062391493056
 20
10.47713826497396
 30
0.0
 10
0.0156751844618056
 20
10.39066636827257
 30
0.0
 10
0.1555460611979166
 20
10.45285034179687
 30
0.0
  0
SPLINE
  5
37
330
29
100
AcDbEntity
  8
LAYER_1
 62
     7
100
AcDbSpline
210
0.0
220
0.0
230
1.0
 70
     8
 71
     3
 72
    20
 73
    16
 74
     0
 42
0.000000001
 43
0.00000001
 40
0.0
 40
0.0
 40
0.0
 40
0.0
 40
1.0
 40
1.0
 40
1.0
 40
2.0
 40
2.0
 40
2.0
 40
3.0
 40
3.0
 40
3.0
 40
4.0
 40
4.0
 40
4.0
 40
5.0
 40
5.0
 40
5.0
 40
5.0
 10
-3.155535210503472
 20
11.41575453016493
 30
0.0
 10
-3.251653374565972
 20
11.43866441514757
 30
0.0
 10
-3.302985297309028
 20
11.37613593207465
 30
0.0
 10
-3.283692762586805
 20
11.28501315646701
 30
0.0
 10
-3.264400227864583
 20
11.19423489040799
 30
0.0
 10
-3.133486599392361
 20
11.16546834309896
 30
0.0
 10
-3.062517632378472
 20
11.15065443250868
 30
0.0
 10
-2.815504286024305
 20
11.09828898111979
 30
0.0
 10
-2.548509385850694
 20
11.05453626844618
 30
0.0
 10
-2.298395453559027
 20
11.01974080403646
 30
0.0
 10
-2.045525444878472
 20
10.97908867730035
 30
0.0
 10
-1.787143283420139
 20
10.94377644856771
 30
0.0
 10
-1.542886013454861
 20
10.86040513780382
 30
0.0
 10
-1.420929633246528
 20
10.81165703667535
 30
0.0
 10
-1.211123318142361
 20
10.65748901367187
 30
0.0
 10
-1.085721842447916
 20
10.7480950249566
 30
0.0
  0
SPLINE
  5
36
330
29
100
AcDbEntity
  8
LAYER_1
 62
     7
100
AcDbSpline
210
0.0
220
0.0
230
1.0
 70
     8
 71
     3
 72
    11
 73
     7
 74
     0
 42
0.000000001
 43
0.00000001
 40
0.0
 40
0.0
 40
0.0
 40
0.0
 40
1.0
 40
1.0
 40
1.0
 40
2.0
 40
2.0
 40
2.0
 40
2.0
 10
-1.195620388454861
 20
10.30453898111979
 30
0.0
 10
-1.309308539496528
 20
10.32228122287326
 30
0.0
 10
-1.39991455078125
 20
10.4535393608941
 30
0.0
 10
-1.308619520399305
 20
10.55516967773437
 30
0.0
 10
-1.245229763454861
 20
10.62303805881076
 30
0.0
 10
-1.035423448350694
 20
10.59099867078993
 30
0.0
 10
-0.9472290039062499
 20
10.58841484917535
 30
0.0
  0
SPLINE
  5
35
330
29
100
AcDbEntity
  8
LAYER_1
 62
     7
100
AcDbSpline
210
0.0
220
0.0
230
1.0
 70
     8
 71
     3
 72
    11
 73
     7
 74
     0
 42
0.000000001
 43
0.00000001
 40
0.0
 40
0.0
 40
0.0
 40
0.0
 40
1.0
 40
1.0
 40
1.0
 40
2.0
 40
2.0
 40
2.0
 40
2.0
 10
0.0304890950520833
 20
9.907663981119791
 30
0.0
 10
0.2127346462673611
 20
9.94108140733507
 30
0.0
 10
0.2017103407118056
 20
10.11436971028646
 30
0.0
 10
0.0807874891493055
 20
10.24855617947049
 30
0.0
 10
-0.0160196940104167
 20
10.35948825412326
 30
0.0
 10
-0.2113566080729167
 20
10.44303181966146
 30
0.0
 10
-0.3450263129340278
 20
10.47765502929687
 30
0.0
  0
SPLINE
  5
34
330
29
100
AcDbEntity
  8
LAYER_1
 62
     7
100
AcDbSpline
210
0.0
220
0.0
230
1.0
 70
     8
 71
     3
 72
    11
 73
     7
 74
     0
 42
0.000000001
 43
0.00000001
 40
0.0
 40
0.0
 40
0.0
 40
0.0
 40
1.0
 40
1.0
 40
1.0
 40
2.0
 40
2.0
 40
2.0
 40
2.0
 10
-1.234205457899305
 20
10.5777350531684
 30
0.0
 10
-1.063673231336805
 20
10.57687377929687
 30
0.0
 10
-0.8845282660590277
 20
10.58789808485243
 30
0.0
 10
-0.7170966254340277
 20
10.56447143554687
 30
0.0
 10
-0.5634453667534721
 20
10.55241360134549
 30
0.0
 10
-0.4332207573784722
 20
10.47248738606771
 30
0.0
 10
-0.2740573459201389
 20
10.48867933485243
 30
0.0
  0
SPLINE
  5
33
330
29
100
AcDbEntity
  8
LAYER_1
 62
     7
100
AcDbSpline
210
0.0
220
0.0
230
1.0
 70
     8
 71
     3
 72
    14
 73
    10
 74
     0
 42
0.000000001
 43
0.00000001
 40
0.0
 40
0.0
 40
0.0
 40
0.0
 40
1.0
 40
1.0
 40
1.0
 40
2.0
 40
2.0
 40
2.0
 40
3.0
 40
3.0
 40
3.0
 40
3.0
 10
0.1486558702256944
 20
10.13159518771701
 30
0.0
 10
0.2361612955729167
 20
10.14572007921007
 30
0.0
 10
0.4349433051215277
 20
10.06510484483507
 30
0.0
 10
0.5517320421006944
 20
10.03651055230035
 30
0.0
 10
0.7133070203993055
 20
9.99603068033854
 30
0.0
 10
0.8807386610243054
 20
9.972431776258679
 30
0.0
 10
1.054715983072916
 20
9.943492974175346
 30
0.0
 10
1.167715115017361
 20
9.920410834418401
 30
0.0
 10
1.960431586371528
 20
9.780884467230901
 30
0.0
 10
1.689302571614583
 20
9.554369439019096
 30
0.0
  0
SPLINE
  5
32
330
29
100
AcDbEntity
  8
LAYER_1
 62
     7
100
AcDbSpline
210
0.0
220
0.0
230
1.0
 70
     8
 71
     3
 72
    17
 73
    13
 74
     0
 42
0.000000001
 43
0.00000001
 40
0.0
 40
0.0
 40
0.0
 40
0.0
 40
1.0
 40
1.0
 40
1.0
 40
2.0
 40
2.0
 40
2.0
 40
3.0
 40
3.0
 40
3.0
 40
4.0
 40
4.0
 40
4.0
 40
4.0
 10
1.792310926649305
 20
9.678909640842013
 30
0.0
 10
1.94871826171875
 20
9.723695882161458
 30
0.0
 10
2.258087836371528
 20
9.563326687282986
 30
0.0
 10
2.434132215711805
 20
9.511822509765624
 30
0.0
 10
2.669776746961805
 20
9.436891682942708
 30
0.0
 10
2.934015570746527
 20
9.413292778862846
 30
0.0
 10
3.175861273871528
 20
9.37522447374132
 30
0.0
 10
3.26646728515625
 20
9.357826741536458
 30
0.0
 10
3.431142849392361
 20
9.345768907335069
 30
0.0
 10
3.476618109809027
 20
9.257402208116318
 30
0.0
 10
3.356728786892361
 20
9.226568603515624
 30
0.0
 10
3.177928331163194
 20
9.25309583875868
 30
0.0
 10
3.075264485677083
 20
9.207965087890624
 30
0.0
  0
SPLINE
  5
31
330
29
100
AcDbEntity
  8
LAYER_1
 62
     7
100
AcDbSpline
210
0.0
220
0.0
230
1.0
 70
     8
 71
     3
 72
    11
 73
     7
 74
     0
 42
0.000000001
 43
0.00000001
 40
0.0
 40
0.0
 40
0.0
 40
0.0
 40
1.0
 40
1.0
 40
1.0
 40
2.0
 40
2.0
 40
2.0
 40
2.0
 10
3.132797580295139
 20
9.395033772786457
 30
0.0
 10
3.140032280815972
 20
9.656688774956596
 30
0.0
 10
3.072852918836805
 20
9.799315728081597
 30
0.0
 10
2.791044108072916
 20
9.837384033203124
 30
0.0
 10
2.507168240017361
 20
9.872179497612846
 30
0.0
 10
2.242929416232639
 20
9.944698757595486
 30
0.0
 10
1.984202745225694
 20
10.00826076931424
 30
0.0
  0
SPLINE
  5
30
330
29
100
AcDbEntity
  8
LAYER_1
 62
     7
100
AcDbSpline
210
0.0
220
0.0
230
1.0
 70
     8
 71
     3
 72
    17
 73
    13
 74
     0
 42
0.000000001
 43
0.00000001
 40
0.0
 40
0.0
 40
0.0
 40
0.0
 40
1.0
 40
1.0
 40
1.0
 40
2.0
 40
2.0
 40
2.0
 40
3.0
 40
3.0
 40
3.0
 40
4.0
 40
4.0
 40
4.0
 40
4.0
 10
2.951241048177083
 20
10.10368991427951
 30
0.0
 10
3.109715440538194
 20
9.960890706380207
 30
0.0
 10
3.362929958767361
 20
9.96313001844618
 30
0.0
 10
3.564468044704861
 20
9.899223497178818
 30
0.0
 10
3.754981825086805
 20
9.838934326171874
 30
0.0
 10
3.930337185329861
 20
9.716116672092014
 30
0.0
 10
4.120850965711806
 20
9.652726915147568
 30
0.0
 10
4.307919650607639
 20
9.583825005425346
 30
0.0
 10
4.538052029079861
 20
9.503382025824651
 30
0.0
 10
4.734077962239583
 20
9.502865261501736
 30
0.0
 10
4.836397298177083
 20
9.502348497178819
 30
0.0
 10
5.081343587239583
 20
9.606390380859374
 30
0.0
 10
4.954219563802083
 20
9.743332926432291
 30
0.0
  0
SPLINE
  5
2F
330
29
100
AcDbEntity
  8
LAYER_1
 62
     7
100
AcDbSpline
210
0.0
220
0.0
230
1.0
 70
     8
 71
     3
 72
    29
 73
    25
 74
     0
 42
0.000000001
 43
0.00000001
 40
0.0
 40
0.0
 40
0.0
 40
0.0
 40
1.0
 40
1.0
 40
1.0
 40
2.0
 40
2.0
 40
2.0
 40
3.0
 40
3.0
 40
3.0
 40
4.0
 40
4.0
 40
4.0
 40
5.0
 40
5.0
 40
5.0
 40
6.0
 40
6.0
 40
6.0
 40
7.0
 40
7.0
 40
7.0
 40
8.0
 40
8.0
 40
8.0
 40
8.0
 10
3.645772298177083
 20
8.984033881293401
 30
0.0
 10
3.574803331163194
 20
8.995574951171875
 30
0.0
 10
3.379121907552083
 20
9.093071153428818
 30
0.0
 10
3.422185601128472
 20
9.189533827039929
 30
0.0
 10
3.459392632378472
 20
9.268771023220486
 30
0.0
 10
3.729488118489583
 20
9.22519056532118
 30
0.0
 10
3.797356499565972
 20
9.210548909505208
 30
0.0
 10
3.965132649739583
 20
9.17592569986979
 30
0.0
 10
4.118094889322916
 20
9.087042236328124
 30
0.0
 10
4.294139268663194
 20
9.043978542751736
 30
0.0
 10
4.382678222656249
 20
9.02089640299479
 30
0.0
 10
4.854311794704861
 20
8.979210747612846
 30
0.0
 10
4.856378851996527
 20
8.81436292860243
 30
0.0
 10
4.790577528211805
 20
8.792142062717014
 30
0.0
 10
4.725465223524306
 20
8.81780802408854
 30
0.0
 10
4.645883517795139
 20
8.815224202473958
 30
0.0
 10
4.580771213107639
 20
8.812295871310763
 30
0.0
 10
4.50050048828125
 20
8.764409044053819
 30
0.0
 10
4.429531521267361
 20
8.76475355360243
 30
0.0
 10
4.33031277126736
 20
8.753729248046874
 30
0.0
 10
4.208011881510417
 20
8.754073757595485
 30
0.0
 10
4.114305284288194
 20
8.777328152126735
 30
0.0
 10
4.031278483072916
 20
8.800238037109374
 30
0.0
 10
3.975123426649305
 20
8.857426622178819
 30
0.0
 10
3.883828396267361
 20
8.849502902560763
 30
0.0
  0
SPLINE
  5
2E
330
29
100
AcDbEntity
  8
LAYER_1
 62
     7
100
AcDbSpline
210
0.0
220
0.0
230
1.0
 70
     8
 71
     3
 72
     8
 73
     4
 74
     0
 42
0.000000001
 43
0.00000001
 40
0.0
 40
0.0
 40
0.0
 40
0.0
 40
1.0
 40
1.0
 40
1.0
 40
1.0
 10
3.174827745225694
 20
9.207620578342013
 30
0.0
 10
3.225815158420139
 20
9.207448323567707
 30
0.0
 10
3.271290418836805
 20
9.201247151692707
 30
0.0
 10
3.319866265190972
 20
9.189706081814235
 30
0.0
  0
SPLINE
  5
2D
330
29
100
AcDbEntity
  8
LAYER_1
 62
     7
100
AcDbSpline
210
0.0
220
0.0
230
1.0
 70
     8
 71
     3
 72
     8
 73
     4
 74
     0
 42
0.000000001
 43
0.00000001
 40
0.0
 40
0.0
 40
0.0
 40
0.0
 40
1.0
 40
1.0
 40
1.0
 40
1.0
 10
3.320555284288194
 20
9.303394232855903
 30
0.0
 10
3.357073296440972
 20
9.252406819661458
 30
0.0
 10
3.347771538628472
 20
9.184021674262151
 30
0.0
 10
3.345015462239583
 20
9.115981038411457
 30
0.0
  0
SPLINE
  5
2C
330
29
100
AcDbEntity
  8
LAYER_1
 62
     7
100
AcDbSpline
210
0.0
220
0.0
230
1.0
 70
     8
 71
     3
 72
    17
 73
    13
 74
     0
 42
0.000000001
 43
0.00000001
 40
0.0
 40
0.0
 40
0.0
 40
0.0
 40
1.0
 40
1.0
 40
1.0
 40
2.0
 40
2.0
 40
2.0
 40
3.0
 40
3.0
 40
3.0
 40
4.0
 40
4.0
 40
4.0
 40
4.0
 10
5.148178439670138
 20
9.350419786241318
 30
0.0
 10
5.397603352864583
 20
9.159044731987846
 30
0.0
 10
4.883595106336805
 20
9.220539686414929
 30
0.0
 10
4.801257324218749
 20
9.229669189453125
 30
0.0
 10
4.588005913628471
 20
9.25309583875868
 30
0.0
 10
4.371998426649305
 20
9.293920220269097
 30
0.0
 10
4.170804850260416
 20
9.379875352647568
 30
0.0
 10
3.966166178385417
 20
9.45463392469618
 30
0.0
 10
3.779097493489583
 20
9.586064317491319
 30
0.0
 10
3.571702745225694
 20
9.632400851779513
 30
0.0
 10
3.407027180989583
 20
9.66702406141493
 30
0.0
 10
3.17344970703125
 20
9.576934814453125
 30
0.0
 10
3.057694498697916
 20
9.713877360026041
 30
0.0
  0
ENDBLK
  5
F5
330
29
100
AcDbEntity
  8
LAYER_1
100
AcDbBlockEnd
  0
ENDSEC
  0
SECTION
  2
ENTITIES
  0
LINE
  5
123
330
A
100
AcDbEntity
  8
LAYER_1
 62
   230
100
AcDbLine
 10
-548.856421
 20
1090.272125
 30
0.0
 11
-548.856421
 21
-832.796023
 31
0.0
  0
LINE
  5
122
330
A
100
AcDbEntity
  8
LAYER_1
 62
   230
100
AcDbLine
 10
-392.305425
 20
1090.272125
 30
0.0
 11
-392.305425
 21
-832.796023
 31
0.0
  0
LINE
  5
121
330
A
100
AcDbEntity
  8
LAYER_1
 62
   230
100
AcDbLine
 10
-235.75753
 20
1090.272125
 30
0.0
 11
-235.75753
 21
-832.796023
 31
0.0
  0
LINE
  5
120
330
A
100
AcDbEntity
  8
LAYER_1
 62
   230
100
AcDbLine
 10
-79.20619
 20
1090.272125
 30
0.0
 11
-79.20619
 21
-832.796023
 31
0.0
  0
LINE
  5
11F
330
A
100
AcDbEntity
  8
LAYER_1
 62
   230
100
AcDbLine
 10
77.344805
 20
1090.272125
 30
0.0
 11
77.344805
 21
-832.796023
 31
0.0
  0
LINE
  5
11E
330
A
100
AcDbEntity
  8
LAYER_1
 62
   230
100
AcDbLine
 10
233.899246
 20
1090.272125
 30
0.0
 11
233.899246
 21
-832.796023
 31
0.0
  0
LINE
  5
11D
330
A
100
AcDbEntity
  8
LAYER_1
 62
   230
100
AcDbLine
 10
390.450241
 20
1090.272125
 30
0.0
 11
390.450241
 21
-832.796023
 31
0.0
  0
LINE
  5
11C
330
A
100
AcDbEntity
  8
LAYER_1
 62
   230
100
AcDbLine
 10
547.001581
 20
1090.272125
 30
0.0
 11
547.001581
 21
-832.796023
 31
0.0
  0
LINE
  5
11B
330
A
100
AcDbEntity
  8
LAYER_1
 62
   230
100
AcDbLine
 10
703.552577
 20
1090.272125
 30
0.0
 11
703.552577
 21
-832.796023
 31
0.0
  0
LINE
  5
11A
330
A
100
AcDbEntity
  8
LAYER_1
 62
   230
100
AcDbLine
 10
860.103573
 20
1090.272125
 30
0.0
 11
860.103573
 21
-832.796023
 31
0.0
  0
LINE
  5
119
330
A
100
AcDbEntity
  8
LAYER_1
 62
   230
100
AcDbLine
 10
-595.826164
 20
-833.05096
 30
0.0
 11
898.152585
 21
-833.057161
 31
0.0
  0
LINE
  5
118
330
A
100
AcDbEntity
  8
LAYER_1
 62
   230
100
AcDbLine
 10
-595.826164
 20
-676.503065
 30
0.0
 11
898.152585
 21
-676.503065
 31
0.0
  0
LINE
  5
117
330
A
100
AcDbEntity
  8
LAYER_1
 62
   230
100
AcDbLine
 10
-595.826164
 20
-519.948625
 30
0.0
 11
898.152585
 21
-519.948625
 31
0.0
  0
LINE
  5
116
330
A
100
AcDbEntity
  8
LAYER_1
 62
   230
100
AcDbLine
 10
-595.826164
 20
-363.397285
 30
0.0
 11
898.152585
 21
-363.40073
 31
0.0
  0
LINE
  5
115
330
A
100
AcDbEntity
  8
LAYER_1
 62
   230
100
AcDbLine
 10
-595.826164
 20
-206.846289
 30
0.0
 11
898.152585
 21
-206.84939
 31
0.0
  0
LINE
  5
114
330
A
100
AcDbEntity
  8
LAYER_1
 62
   230
100
AcDbLine
 10
-595.826164
 20
-50.291848
 30
0.0
 11
898.152585
 21
-50.298394
 31
0.0
  0
LINE
  5
113
330
A
100
AcDbEntity
  8
LAYER_1
 62
   230
100
AcDbLine
 10
-595.826164
 20
106.256047
 30
0.0
 11
898.152585
 21
106.249501
 31
0.0
  0
LINE
  5
112
330
A
100
AcDbEntity
  8
LAYER_1
 62
   230
100
AcDbLine
 10
-595.826164
 20
262.810487
 30
0.0
 11
898.152585
 21
262.803942
 31
0.0
  0
LINE
  5
111
330
A
100
AcDbEntity
  8
LAYER_1
 62
   230
100
AcDbLine
 10
-595.826164
 20
419.358382
 30
0.0
 11
898.152585
 21
419.358382
 31
0.0
  0
LINE
  5
110
330
A
100
AcDbEntity
  8
LAYER_1
 62
   230
100
AcDbLine
 10
-595.826164
 20
575.912478
 30
0.0
 11
898.152585
 21
575.906277
 31
0.0
  0
LINE
  5
10F
330
A
100
AcDbEntity
  8
LAYER_1
 62
   230
100
AcDbLine
 10
-595.826164
 20
732.463818
 30
0.0
 11
898.152585
 21
732.463818
 31
0.0
  0
LINE
  5
10E
330
A
100
AcDbEntity
  8
LAYER_1
 62
   230
100
AcDbLine
 10
-595.826164
 20
889.018259
 30
0.0
 11
898.152585
 21
889.011713
 31
0.0
  0
LINE
  5
10D
330
A
100
AcDbEntity
  8
LAYER_1
 62
   230
100
AcDbLine
 10
-595.826164
 20
1045.566154
 30
0.0
 11
898.152585
 21
1045.563053
 31
0.0
  0
MTEXT
  5
10C
330
A
100
AcDbEntity
  8
LAYER_1
 62
     7
100
AcDbMText
 10
-677.162629
 20
-815.510105
 30
0.0
 40
30.816531
 41
0.0
 46
0.0
 71
     1
 72
     2
  1
\W1.00;\fMyriad Roman|b0|i0;200
  7
STD
 73
     1
 44
1.0
  0
MTEXT
  5
10B
330
A
100
AcDbEntity
  8
LAYER_1
 62
     7
100
AcDbMText
 10
-677.162629
 20
-658.92397
 30
0.0
 40
30.816531
 41
0.0
 46
0.0
 71
     1
 72
     2
  1
\W1.00;\fMyriad Roman|b0|i0;210
  7
STD
 73
     1
 44
1.0
  0
MTEXT
  5
10A
330
A
100
AcDbEntity
  8
LAYER_1
 62
     7
100
AcDbMText
 10
-677.162629
 20
-502.33749
 30
0.0
 40
30.816531
 41
0.0
 46
0.0
 71
     1
 72
     2
  1
\W1.00;\fMyriad Roman|b0|i0;220
  7
STD
 73
     1
 44
1.0
  0
MTEXT
  5
109
330
A
100
AcDbEntity
  8
LAYER_1
 62
     7
100
AcDbMText
 10
-677.162629
 20
-345.748254
 30
0.0
 40
30.816531
 41
0.0
 46
0.0
 71
     1
 72
     2
  1
\W1.00;\fMyriad Roman|b0|i0;230
  7
STD
 73
     1
 44
1.0
  0
MTEXT
  5
108
330
A
100
AcDbEntity
  8
LAYER_1
 62
     7
100
AcDbMText
 10
-677.162629
 20
-189.165219
 30
0.0
 40
30.816531
 41
0.0
 46
0.0
 71
     1
 72
     2
  1
\W1.00;\fMyriad Roman|b0|i0;240
  7
STD
 73
     1
 44
1.0
  0
MTEXT
  5
107
330
A
100
AcDbEntity
  8
LAYER_1
 62
     7
100
AcDbMText
 10
-677.162629
 20
-32.575638
 30
0.0
 40
30.816531
 41
0.0
 46
0.0
 71
     1
 72
     2
  1
\W1.00;\fMyriad Roman|b0|i0;250
  7
STD
 73
     1
 44
1.0
  0
MTEXT
  5
106
330
A
100
AcDbEntity
  8
LAYER_1
 62
     7
100
AcDbMText
 10
-677.162629
 20
124.010498
 30
0.0
 40
30.816531
 41
0.0
 46
0.0
 71
     1
 72
     2
  1
\W1.00;\fMyriad Roman|b0|i0;260
  7
STD
 73
     1
 44
1.0
  0
MTEXT
  5
105
330
A
100
AcDbEntity
  8
LAYER_1
 62
     7
100
AcDbMText
 10
-677.162629
 20
280.599734
 30
0.0
 40
30.816531
 41
0.0
 46
0.0
 71
     1
 72
     2
  1
\W1.00;\fMyriad Roman|b0|i0;270
  7
STD
 73
     1
 44
1.0
  0
MTEXT
  5
104
330
A
100
AcDbEntity
  8
LAYER_1
 62
     7
100
AcDbMText
 10
-677.162629
 20
437.186214
 30
0.0
 40
30.816531
 41
0.0
 46
0.0
 71
     1
 72
     2
  1
\W1.00;\fMyriad Roman|b0|i0;280
  7
STD
 73
     1
 44
1.0
  0
MTEXT
  5
103
330
A
100
AcDbEntity
  8
LAYER_1
 62
     7
100
AcDbMText
 10
-677.162629
 20
593.772349
 30
0.0
 40
30.816531
 41
0.0
 46
0.0
 71
     1
 72
     2
  1
\W1.00;\fMyriad Roman|b0|i0;290
  7
STD
 73
     1
 44
1.0
  0
MTEXT
  5
102
330
A
100
AcDbEntity
  8
LAYER_1
 62
     7
100
AcDbMText
 10
-677.162629
 20
750.352284
 30
0.0
 40
30.816531
 41
0.0
 46
0.0
 71
     1
 72
     2
  1
\W1.00;\fMyriad Roman|b0|i0;300
  7
STD
 73
     1
 44
1.0
  0
MTEXT
  5
101
330
A
100
AcDbEntity
  8
LAYER_1
 62
     7
100
AcDbMText
 10
-677.162629
 20
906.94152
 30
0.0
 40
30.816531
 41
0.0
 46
0.0
 71
     1
 72
     2
  1
\W1.00;\fMyriad Roman|b0|i0;310
  7
STD
 73
     1
 44
1.0
  0
MTEXT
  5
100
330
A
100
AcDbEntity
  8
LAYER_1
 62
     7
100
AcDbMText
 10
-677.162629
 20
1063.530756
 30
0.0
 40
30.816531
 41
0.0
 46
0.0
 71
     1
 72
     2
  1
\W1.00;\fMyriad Roman|b0|i0;320
  7
STD
 73
     1
 44
1.0
  0
MTEXT
  5
FF
330
A
100
AcDbEntity
  8
LAYER_1
 62
     7
100
AcDbMText
 10
-581.331613
 20
1149.449715
 30
0.0
 40
30.816531
 41
0.0
 46
0.0
 71
     1
 72
     2
  1
\W1.00;\fMyriad Roman|b0|i0;730
  7
STD
 73
     1
 44
1.0
  0
MTEXT
  5
FE
330
A
100
AcDbEntity
  8
LAYER_1
 62
     7
100
AcDbMText
 10
-425.078619
 20
1149.449715
 30
0.0
 40
30.816531
 41
0.0
 46
0.0
 71
     1
 72
     2
  1
\W1.00;\fMyriad Roman|b0|i0;740
  7
STD
 73
     1
 44
1.0
  0
MTEXT
  5
FD
330
A
100
AcDbEntity
  8
LAYER_1
 62
     7
100
AcDbMText
 10
-268.828725
 20
1149.449715
 30
0.0
 40
30.816531
 41
0.0
 46
0.0
 71
     1
 72
     2
  1
\W1.00;\fMyriad Roman|b0|i0;750
  7
STD
 73
     1
 44
1.0
  0
MTEXT
  5
FC
330
A
100
AcDbEntity
  8
LAYER_1
 62
     7
100
AcDbMText
 10
-112.575385
 20
1149.449715
 30
0.0
 40
30.816531
 41
0.0
 46
0.0
 71
     1
 72
     2
  1
\W1.00;\fMyriad Roman|b0|i0;760
  7
STD
 73
     1
 44
1.0
  0
MTEXT
  5
FB
330
A
100
AcDbEntity
  8
LAYER_1
 62
     7
100
AcDbMText
 10
43.674509
 20
1149.446614
 30
0.0
 40
30.816531
 41
0.0
 46
0.0
 71
     1
 72
     2
  1
\W1.00;\fMyriad Roman|b0|i0;770
  7
STD
 73
     1
 44
1.0
  0
MTEXT
  5
FA
330
A
100
AcDbEntity
  8
LAYER_1
 62
     7
100
AcDbMText
 10
199.929226
 20
1149.446614
 30
0.0
 40
30.816531
 41
0.0
 46
0.0
 71
     1
 72
     2
  1
\W1.00;\fMyriad Roman|b0|i0;780
  7
STD
 73
     1
 44
1.0
  0
MTEXT
  5
F9
330
A
100
AcDbEntity
  8
LAYER_1
 62
     7
100
AcDbMText
 10
356.180843
 20
1149.446614
 30
0.0
 40
30.816531
 41
0.0
 46
0.0
 71
     1
 72
     2
  1
\W1.00;\fMyriad Roman|b0|i0;790
  7
STD
 73
     1
 44
1.0
  0
MTEXT
  5
F8
330
A
100
AcDbEntity
  8
LAYER_1
 62
     7
100
AcDbMText
 10
512.43556
 20
1149.446614
 30
0.0
 40
30.816531
 41
0.0
 46
0.0
 71
     1
 72
     2
  1
\W1.00;\fMyriad Roman|b0|i0;800
  7
STD
 73
     1
 44
1.0
  0
MTEXT
  5
F7
330
A
100
AcDbEntity
  8
LAYER_1
 62
     7
100
AcDbMText
 10
668.687177
 20
1149.446614
 30
0.0
 40
30.816531
 41
0.0
 46
0.0
 71
     1
 72
     2
  1
\W1.00;\fMyriad Roman|b0|i0;810
  7
STD
 73
     1
 44
1.0
  0
MTEXT
  5
F6
330
A
100
AcDbEntity
  8
LAYER_1
 62
     7
100
AcDbMText
 10
824.942239
 20
1149.446614
 30
0.0
 40
30.816531
 41
0.0
 46
0.0
 71
     1
 72
     2
  1
\W1.00;\fMyriad Roman|b0|i0;820
  7
STD
 73
     1
 44
1.0
  0
INSERT
  5
2A
330
A
100
AcDbEntity
  8
LAYER_1
 62
     7
100
AcDbBlockReference
  2
AI9-BLK1
 10
78.934545
 20
568.221906
 30
0.0
  0
ENDSEC
  0
SECTION
  2
OBJECTS
  0
DICTIONARY
  5
19
330
0
100
AcDbDictionary
281
     1
  3
ACAD_DETAILVIEWSTYLE
350
19F
  3
ACAD_GROUP
350
1A
  3
ACAD_LAYOUT
350
1E
  3
ACAD_MATERIAL
350
15F
  3
ACAD_MLEADERSTYLE
350
165
  3
ACAD_MLINESTYLE
350
1B
  3
ACAD_PLOTSETTINGS
350
22
  3
ACAD_PLOTSTYLENAME
350
1F
  3
ACAD_SCALELIST
350
124
  3
ACAD_SECTIONVIEWSTYLE
350
1A0
  3
ACAD_TABLESTYLE
350
163
  3
ACAD_VISUALSTYLE
350
146
  3
ACAD_WIPEOUT_VARS
350
23
  3
ACDB_RECOMPOSE_DATA
350
19B
  3
AcDbVariableDictionary
350
167
  0
DICTIONARY
  5
19F
102
{ACAD_REACTORS
330
19
102
}
330
19
100
AcDbDictionary
281
     1
  0
DICTIONARY
  5
1A
102
{ACAD_REACTORS
330
19
102
}
330
19
100
AcDbDictionary
281
     1
  0
DICTIONARY
  5
1E
102
{ACAD_REACTORS
330
19
102
}
330
19
100
AcDbDictionary
281
     1
  3
Layout1
350
21
  3
Model
350
20
  0
DICTIONARY
  5
15F
102
{ACAD_REACTORS
330
19
102
}
330
19
100
AcDbDictionary
281
     1
  3
ByBlock
350
161
  3
ByLayer
350
160
  3
Global
350
162
  0
DICTIONARY
  5
165
102
{ACAD_REACTORS
330
19
102
}
330
19
100
AcDbDictionary
281
     1
  3
Standard
350
166
  0
DICTIONARY
  5
1B
102
{ACAD_REACTORS
330
19
102
}
330
19
100
AcDbDictionary
281
     1
  3
Standard
350
1C
  0
DICTIONARY
  5
22
102
{ACAD_REACTORS
330
19
102
}
330
19
100
AcDbDictionary
281
     1
  0
ACDBDICTIONARYWDFLT
  5
1F
102
{ACAD_REACTORS
330
19
102
}
330
19
100
AcDbDictionary
281
     1
  3
Normal
350
1D
100
AcDbDictionaryWithDefault
340
1D
  0
DICTIONARY
  5
124
102
{ACAD_REACTORS
330
19
102
}
330
19
100
AcDbDictionary
281
     1
  3
A0
350
125
  3
A1
350
126
  3
A2
350
127
  3
A3
350
128
  3
A4
350
129
  3
A5
350
12A
  3
A6
350
12B
  3
A7
350
12C
  3
A8
350
12D
  3
A9
350
12E
  3
B0
350
12F
  3
B1
350
130
  3
B2
350
131
  3
B3
350
132
  3
B4
350
133
  3
B5
350
134
  3
B6
350
135
  3
B7
350
136
  3
B8
350
137
  3
B9
350
138
  3
C0
350
139
  3
C1
350
13A
  3
C2
350
13B
  3
C3
350
13C
  3
C4
350
13D
  3
C5
350
13E
  3
C6
350
13F
  3
C7
350
140
  3
C8
350
141
  3
C9
350
142
  3
D0
350
143
  3
D1
350
144
  3
D2
350
145
  0
DICTIONARY
  5
1A0
102
{ACAD_REACTORS
330
19
102
}
330
19
100
AcDbDictionary
281
     1
  0
DICTIONARY
  5
163
102
{ACAD_REACTORS
330
19
102
}
330
19
100
AcDbDictionary
281
     1
  3
Standard
350
164
  0
DICTIONARY
  5
146
102
{ACAD_REACTORS
330
19
102
}
330
19
100
AcDbDictionary
281
     1
  3
2dWireframe
350
14B
  3
Basic
350
14E
  3
Brighten
350
152
  3
ColorChange
350
156
  3
Conceptual
350
150
  3
Dim
350
151
  3
EdgeColorOff
350
159
  3
Facepattern
350
155
  3
Flat
350
147
  3
FlatWithEdges
350
148
  3
Gouraud
350
149
  3
GouraudWithEdges
350
14A
  3
Hidden
350
14D
  3
JitterOff
350
157
  3
Linepattern
350
154
  3
OverhangOff
350
158
  3
Realistic
350
14F
  3
Shaded
350
15E
  3
Shaded with edges
350
15D
  3
Shades of Gray
350
15A
  3
Sketchy
350
15B
  3
Thicken
350
153
  3
Wireframe
350
14C
  3
X-Ray
350
15C
  0
WIPEOUTVARIABLES
  5
23
330
19
100
AcDbWipeoutVariables
 70
     1
  0
XRECORD
  5
19B
102
{ACAD_REACTORS
330
19
102
}
330
19
100
AcDbXrecord
280
     1
 90
        1
330
164
  0
DICTIONARY
  5
167
102
{ACAD_REACTORS
330
19
102
}
330
19
100
AcDbDictionary
281
     1
  3
CANNOSCALE
350
168
  3
CMLEADERSTYLE
350
19D
  3
CTABLESTYLE
350
19C
  3
MSLTSCALE
350
19E
  0
LAYOUT
  5
21
102
{ACAD_REACTORS
330
1E
102
}
330
1E
100
AcDbPlotSettings
  1

  2

  4

  6

 40
0.0
 41
0.0
 42
0.0
 43
0.0
 44
0.0
 45
0.0
 46
0.0
 47
0.0
 48
0.0
 49
0.0
140
0.0
141
0.0
142
1.0
143
1.0
 70
     0
 72
     0
 73
     0
 74
     0
  7

 75
     0
 76
     0
 77
     2
 78
   300
147
1.0
148
0.0
149
0.0
100
AcDbLayout
  1
Layout1
 70
     0
 71
     0
 10
0.0
 20
0.0
 11
0.0
 21
0.0
 12
0.0
 22
0.0
 32
0.0
 14
0.0
 24
0.0
 34
0.0
 15
0.0
 25
0.0
 35
0.0
146
0.0
 13
0.0
 23
0.0
 33
0.0
 16
0.0
 26
0.0
 36
0.0
 17
0.0
 27
0.0
 37
0.0
 76
     0
330
B
  0
LAYOUT
  5
20
102
{ACAD_REACTORS
330
1E
102
}
330
1E
100
AcDbPlotSettings
  1

  2

  4

  6

 40
0.0
 41
0.0
 42
0.0
 43
0.0
 44
0.0
 45
0.0
 46
0.0
 47
0.0
 48
0.0
 49
0.0
140
0.0
141
0.0
142
1.0
143
1.0
 70
  1024
 72
     0
 73
     0
 74
     0
  7

 75
     0
 76
     0
 77
     2
 78
   300
147
1.0
148
0.0
149
0.0
100
AcDbLayout
  1
Model
 70
     0
 71
     1
 10
0.0
 20
0.0
 11
0.0
 21
0.0
 12
0.0
 22
0.0
 32
0.0
 14
0.0
 24
0.0
 34
0.0
 15
0.0
 25
0.0
 35
0.0
146
0.0
 13
0.0
 23
0.0
 33
0.0
 16
0.0
 26
0.0
 36
0.0
 17
0.0
 27
0.0
 37
0.0
 76
     0
330
A
331
15
  0
MATERIAL
  5
161
102
{ACAD_REACTORS
330
15F
102
}
330
15F
100
AcDbMaterial
  1
ByBlock
 72
     1
 94
      127
  0
MATERIAL
  5
160
102
{ACAD_REACTORS
330
15F
102
}
330
15F
100
AcDbMaterial
  1
ByLayer
 72
     1
 94
      127
  0
MATERIAL
  5
162
102
{ACAD_REACTORS
330
15F
102
}
330
15F
100
AcDbMaterial
  1
Global
 72
     1
 94
      127
  0
MLEADERSTYLE
  5
166
102
{ACAD_REACTORS
330
165
102
}
330
165
100
AcDbMLeaderStyle
179
     2
170
     2
171
     1
172
     0
 90
        2
 40
0.0
 41
0.0
173
     1
 91
-1056964608
340
11
 92
       -2
290
     1
 42
0.09
291
     1
 43
0.36
  3
Standard
341
0
 44
0.18
300

342
17
174
     1
178
     6
175
     1
176
     0
 93
-1056964608
 45
0.18
292
     0
297
     0
 46
0.18
343
0
 94
-1056964608
 47
1.0
 49
1.0
140
1.0
293
     1
141
0.0
294
     1
177
     0
142
1.0
295
     0
296
     0
143
0.125
271
     0
272
     9
273
     9
  0
MLINESTYLE
  5
1C
102
{ACAD_REACTORS
330
1B
102
}
330
1B
100
AcDbMlineStyle
  2
Standard
 70
     0
  3

 62
     0
 51
90.0
 52
90.0
 71
     2
 49
0.5
 62
   256
  6
BYLAYER
 49
-0.5
 62
   256
  6
BYLAYER
  0
ACDBPLACEHOLDER
  5
1D
102
{ACAD_REACTORS
330
1F
102
}
330
1F
  0
SCALE
  5
125
102
{ACAD_REACTORS
330
124
102
}
330
124
100
AcDbScale
 70
     0
300
1:1
140
1.0
141
1.0
290
     1
  0
SCALE
  5
126
102
{ACAD_REACTORS
330
124
102
}
330
124
100
AcDbScale
 70
     0
300
1:2
140
1.0
141
2.0
290
     0
  0
SCALE
  5
127
102
{ACAD_REACTORS
330
124
102
}
330
124
100
AcDbScale
 70
     0
300
1:4
140
1.0
141
4.0
290
     0
  0
SCALE
  5
128
102
{ACAD_REACTORS
330
124
102
}
330
124
100
AcDbScale
 70
     0
300
1:5
140
1.0
141
5.0
290
     0
  0
SCALE
  5
129
102
{ACAD_REACTORS
330
124
102
}
330
124
100
AcDbScale
 70
     0
300
1:8
140
1.0
141
8.0
290
     0
  0
SCALE
  5
12A
102
{ACAD_REACTORS
330
124
102
}
330
124
100
AcDbScale
 70
     0
300
1:10
140
1.0
141
10.0
290
     0
  0
SCALE
  5
12B
102
{ACAD_REACTORS
330
124
102
}
330
124
100
AcDbScale
 70
     0
300
1:16
140
1.0
141
16.0
290
     0
  0
SCALE
  5
12C
102
{ACAD_REACTORS
330
124
102
}
330
124
100
AcDbScale
 70
     0
300
1:20
140
1.0
141
20.0
290
     0
  0
SCALE
  5
12D
102
{ACAD_REACTORS
330
124
102
}
330
124
100
AcDbScale
 70
     0
300
1:30
140
1.0
141
30.0
290
     0
  0
SCALE
  5
12E
102
{ACAD_REACTORS
330
124
102
}
330
124
100
AcDbScale
 70
     0
300
1:40
140
1.0
141
40.0
290
     0
  0
SCALE
  5
12F
102
{ACAD_REACTORS
330
124
102
}
330
124
100
AcDbScale
 70
     0
300
1:50
140
1.0
141
50.0
290
     0
  0
SCALE
  5
130
102
{ACAD_REACTORS
330
124
102
}
330
124
100
AcDbScale
 70
     0
300
1:100
140
1.0
141
100.0
290
     0
  0
SCALE
  5
131
102
{ACAD_REACTORS
330
124
102
}
330
124
100
AcDbScale
 70
     0
300
2:1
140
2.0
141
1.0
290
     0
  0
SCALE
  5
132
102
{ACAD_REACTORS
330
124
102
}
330
124
100
AcDbScale
 70
     0
300
4:1
140
4.0
141
1.0
290
     0
  0
SCALE
  5
133
102
{ACAD_REACTORS
330
124
102
}
330
124
100
AcDbScale
 70
     0
300
8:1
140
8.0
141
1.0
290
     0
  0
SCALE
  5
134
102
{ACAD_REACTORS
330
124
102
}
330
124
100
AcDbScale
 70
     0
300
10:1
140
10.0
141
1.0
290
     0
  0
SCALE
  5
135
102
{ACAD_REACTORS
330
124
102
}
330
124
100
AcDbScale
 70
     0
300
100:1
140
100.0
141
1.0
290
     0
  0
SCALE
  5
136
102
{ACAD_REACTORS
330
124
102
}
330
124
100
AcDbScale
 70
     0
300
1/128" = 1'-0"
140
0.0078125
141
12.0
290
     0
  0
SCALE
  5
137
102
{ACAD_REACTORS
330
124
102
}
330
124
100
AcDbScale
 70
     0
300
1/64" = 1'-0"
140
0.015625
141
12.0
290
     0
  0
SCALE
  5
138
102
{ACAD_REACTORS
330
124
102
}
330
124
100
AcDbScale
 70
     0
300
1/32" = 1'-0"
140
0.03125
141
12.0
290
     0
  0
SCALE
  5
139
102
{ACAD_REACTORS
330
124
102
}
330
124
100
AcDbScale
 70
     0
300
1/16" = 1'-0"
140
0.0625
141
12.0
290
     0
  0
SCALE
  5
13A
102
{ACAD_REACTORS
330
124
102
}
330
124
100
AcDbScale
 70
     0
300
3/32" = 1'-0"
140
0.09375
141
12.0
290
     0
  0
SCALE
  5
13B
102
{ACAD_REACTORS
330
124
102
}
330
124
100
AcDbScale
 70
     0
300
1/8" = 1'-0"
140
0.125
141
12.0
290
     0
  0
SCALE
  5
13C
102
{ACAD_REACTORS
330
124
102
}
330
124
100
AcDbScale
 70
     0
300
3/16" = 1'-0"
140
0.1875
141
12.0
290
     0
  0
SCALE
  5
13D
102
{ACAD_REACTORS
330
124
102
}
330
124
100
AcDbScale
 70
     0
300
1/4" = 1'-0"
140
0.25
141
12.0
290
     0
  0
SCALE
  5
13E
102
{ACAD_REACTORS
330
124
102
}
330
124
100
AcDbScale
 70
     0
300
3/8" = 1'-0"
140
0.375
141
12.0
290
     0
  0
SCALE
  5
13F
102
{ACAD_REACTORS
330
124
102
}
330
124
100
AcDbScale
 70
     0
300
1/2" = 1'-0"
140
0.5
141
12.0
290
     0
  0
SCALE
  5
140
102
{ACAD_REACTORS
330
124
102
}
330
124
100
AcDbScale
 70
     0
300
3/4" = 1'-0"
140
0.75
141
12.0
290
     0
  0
SCALE
  5
141
102
{ACAD_REACTORS
330
124
102
}
330
124
100
AcDbScale
 70
     0
300
1" = 1'-0"
140
1.0
141
12.0
290
     0
  0
SCALE
  5
142
102
{ACAD_REACTORS
330
124
102
}
330
124
100
AcDbScale
 70
     0
300
1-1/2" = 1'-0"
140
1.5
141
12.0
290
     0
  0
SCALE
  5
143
102
{ACAD_REACTORS
330
124
102
}
330
124
100
AcDbScale
 70
     0
300
3" = 1'-0"
140
3.0
141
12.0
290
     0
  0
SCALE
  5
144
102
{ACAD_REACTORS
330
124
102
}
330
124
100
AcDbScale
 70
     0
300
6" = 1'-0"
140
6.0
141
12.0
290
     0
  0
SCALE
  5
145
102
{ACAD_REACTORS
330
124
102
}
330
124
100
AcDbScale
 70
     0
300
1'-0" = 1'-0"
140
12.0
141
12.0
290
     0
  0
TABLESTYLE
  5
164
102
{ACAD_REACTORS
330
163
102
}
102
{ACAD_XDICTIONARY
360
199
102
}
330
163
100
AcDbTableStyle
  3
Standard
 70
     0
 71
     0
 40
0.06
 41
0.06
280
     0
281
     0
  7
Standard
140
0.18
170
     2
 62
     0
 63
   257
283
     0
 90
        4
 91
        0
  1

274
    -2
284
     1
 64
     0
275
    -2
285
     1
 65
     0
276
    -2
286
     1
 66
     0
277
    -2
287
     1
 67
     0
278
    -2
288
     1
 68
     0
279
    -2
289
     1
 69
     0
  7
Standard
140
0.25
170
     5
 62
     0
 63
   257
283
     0
 90
        4
 91
        0
  1

274
    -2
284
     1
 64
     0
275
    -2
285
     1
 65
     0
276
    -2
286
     1
 66
     0
277
    -2
287
     1
 67
     0
278
    -2
288
     1
 68
     0
279
    -2
289
     1
 69
     0
  7
Standard
140
0.18
170
     5
 62
     0
 63
   257
283
     0
 90
        4
 91
        0
  1

274
    -2
284
     1
 64
     0
275
    -2
285
     1
 65
     0
276
    -2
286
     1
 66
     0
277
    -2
287
     1
 67
     0
278
    -2
288
     1
 68
     0
279
    -2
289
     1
 69
     0
  0
VISUALSTYLE
  5
14B
102
{ACAD_REACTORS
330
146
102
}
102
{ACAD_XDICTIONARY
360
171
102
}
330
146
100
AcDbVisualStyle
  2
2dWireframe
 70
     4
177
     2
291
     0
 71
     0
176
     1
 72
     2
176
     1
 73
     0
176
     1
 90
        0
176
     1
 40
0.6
176
     1
 41
30.0
176
     1
 62
     5
 63
     7
421
 16777215
176
     1
 74
     1
176
     1
 91
        4
176
     1
 64
     7
176
     1
 65
   257
176
     1
 75
     1
176
     1
175
     1
176
     1
 42
1.0
176
     1
 92
        0
176
     1
 66
   257
176
     1
 43
1.0
176
     1
 76
     1
176
     1
 77
     6
176
     1
 78
     2
176
     1
 67
     7
176
     1
 79
     5
176
     1
170
     0
176
     1
171
     0
176
     1
290
     0
176
     1
 93
        1
176
     1
 44
0.0
176
     1
173
     0
176
     1
  0
VISUALSTYLE
  5
14E
102
{ACAD_REACTORS
330
146
102
}
102
{ACAD_XDICTIONARY
360
177
102
}
330
146
100
AcDbVisualStyle
  2
Basic
 70
     7
177
     2
291
     1
 71
     1
176
     1
 72
     0
176
     1
 73
     1
176
     1
 90
        0
176
     1
 40
0.6
176
     1
 41
30.0
176
     1
 62
     5
 63
     7
421
 16777215
176
     1
 74
     0
176
     1
 91
        4
176
     1
 64
     7
176
     1
 65
   257
176
     1
 75
     1
176
     1
175
     1
176
     1
 42
1.0
176
     1
 92
        8
176
     1
 66
     7
176
     1
 43
1.0
176
     1
 76
     1
176
     1
 77
     6
176
     1
 78
     2
176
     1
 67
     7
176
     1
 79
     5
176
     1
170
     0
176
     1
171
     0
176
     1
290
     0
176
     1
 93
        1
176
     1
 44
0.0
176
     1
173
     0
176
     1
  0
VISUALSTYLE
  5
152
102
{ACAD_REACTORS
330
146
102
}
102
{ACAD_XDICTIONARY
360
17F
102
}
330
146
100
AcDbVisualStyle
  2
Brighten
 70
    12
177
     2
291
     1
 71
     2
176
     1
 72
     2
176
     1
 73
     0
176
     1
 90
        0
176
     1
 40
0.6
176
     1
 41
30.0
176
     1
 62
     5
 63
     7
421
 16777215
176
     1
 74
     1
176
     1
 91
        4
176
     1
 64
     7
176
     1
 65
   257
176
     1
 75
     1
176
     1
175
     1
176
     1
 42
1.0
176
     1
 92
        8
176
     1
 66
     7
176
     1
 43
1.0
176
     1
 76
     1
176
     1
 77
     6
176
     1
 78
     2
176
     1
 67
     7
176
     1
 79
     5
176
     1
170
     0
176
     1
171
     0
176
     1
290
     0
176
     1
 93
        1
176
     1
 44
50.0
176
     1
173
     0
176
     1
  0
VISUALSTYLE
  5
156
102
{ACAD_REACTORS
330
146
102
}
102
{ACAD_XDICTIONARY
360
187
102
}
330
146
100
AcDbVisualStyle
  2
ColorChange
 70
    16
177
     2
291
     1
 71
     2
176
     1
 72
     2
176
     1
 73
     3
176
     1
 90
        0
176
     1
 40
0.6
176
     1
 41
30.0
176
     1
 62
     5
 63
     8
421
  8421504
176
     1
 74
     1
176
     1
 91
        4
176
     1
 64
     7
176
     1
 65
   257
176
     1
 75
     1
176
     1
175
     1
176
     1
 42
1.0
176
     1
 92
        8
176
     1
 66
     8
424
  8421504
176
     1
 43
1.0
176
     1
 76
     1
176
     1
 77
     6
176
     1
 78
     2
176
     1
 67
     7
176
     1
 79
     5
176
     1
170
     0
176
     1
171
     0
176
     1
290
     0
176
     1
 93
        1
176
     1
 44
0.0
176
     1
173
     0
176
     1
  0
VISUALSTYLE
  5
150
102
{ACAD_REACTORS
330
146
102
}
102
{ACAD_XDICTIONARY
360
17B
102
}
330
146
100
AcDbVisualStyle
  2
Conceptual
 70
     9
177
     2
291
     0
 71
     3
176
     1
 72
     2
176
     1
 73
     0
176
     1
 90
        0
176
     1
 40
0.6
176
     1
 41
30.0
176
     1
 62
     5
 63
     7
421
 16777215
176
     1
 74
     2
176
     1
 91
        2
176
     1
 64
     7
176
     1
 65
   257
176
     1
 75
     1
176
     1
175
     1
176
     1
 42
179.0
176
     1
 92
        8
176
     1
 66
     7
176
     1
 43
1.0
176
     1
 76
     1
176
     1
 77
     6
176
     1
 78
     2
176
     1
 67
     7
176
     1
 79
     3
176
     1
170
     0
176
     1
171
     0
176
     1
290
     0
176
     1
 93
        1
176
     1
 44
0.0
176
     1
173
     0
176
     1
  0
VISUALSTYLE
  5
151
102
{ACAD_REACTORS
330
146
102
}
102
{ACAD_XDICTIONARY
360
17D
102
}
330
146
100
AcDbVisualStyle
  2
Dim
 70
    11
177
     2
291
     1
 71
     2
176
     1
 72
     2
176
     1
 73
     0
176
     1
 90
        0
176
     1
 40
0.6
176
     1
 41
30.0
176
     1
 62
     5
 63
     7
421
 16777215
176
     1
 74
     1
176
     1
 91
        4
176
     1
 64
     7
176
     1
 65
   257
176
     1
 75
     1
176
     1
175
     1
176
     1
 42
1.0
176
     1
 92
        8
176
     1
 66
     7
176
     1
 43
1.0
176
     1
 76
     1
176
     1
 77
     6
176
     1
 78
     2
176
     1
 67
     7
176
     1
 79
     5
176
     1
170
     0
176
     1
171
     0
176
     1
290
     0
176
     1
 93
        1
176
     1
 44
-50.0
176
     1
173
     0
176
     1
  0
VISUALSTYLE
  5
159
102
{ACAD_REACTORS
330
146
102
}
102
{ACAD_XDICTIONARY
360
18D
102
}
330
146
100
AcDbVisualStyle
  2
EdgeColorOff
 70
    22
177
     2
291
     1
 71
     2
176
     0
 72
     2
176
     0
 73
     0
176
     0
 90
        0
176
     0
 40
0.6
176
     0
 41
30.0
176
     0
 62
     5
 63
     7
421
 16777215
176
     0
 74
     1
176
     0
 91
        4
176
     0
 64
     7
176
     0
 65
   257
176
     0
 75
     1
176
     0
175
     1
176
     0
 42
1.0
176
     0
 92
        8
176
     2
 66
     7
176
     0
 43
1.0
176
     0
 76
     1
176
     0
 77
     6
176
     0
 78
     2
176
     0
 67
     7
176
     0
 79
     5
176
     0
170
     0
176
     0
171
     0
176
     0
290
     0
176
     0
 93
        1
176
     0
 44
0.0
176
     0
173
     0
176
     0
  0
VISUALSTYLE
  5
155
102
{ACAD_REACTORS
330
146
102
}
102
{ACAD_XDICTIONARY
360
185
102
}
330
146
100
AcDbVisualStyle
  2
Facepattern
 70
    15
177
     2
291
     1
 71
     2
176
     1
 72
     2
176
     1
 73
     0
176
     1
 90
        0
176
     1
 40
0.6
176
     1
 41
30.0
176
     1
 62
     5
 63
     7
421
 16777215
176
     1
 74
     1
176
     1
 91
        4
176
     1
 64
     7
176
     1
 65
   257
176
     1
 75
     1
176
     1
175
     1
176
     1
 42
1.0
176
     1
 92
        8
176
     1
 66
     7
176
     1
 43
1.0
176
     1
 76
     1
176
     1
 77
     6
176
     1
 78
     2
176
     1
 67
     7
176
     1
 79
     5
176
     1
170
     0
176
     1
171
     0
176
     1
290
     0
176
     1
 93
        1
176
     1
 44
0.0
176
     1
173
     0
176
     1
  0
VISUALSTYLE
  5
147
102
{ACAD_REACTORS
330
146
102
}
102
{ACAD_XDICTIONARY
360
169
102
}
330
146
100
AcDbVisualStyle
  2
Flat
 70
     0
177
     2
291
     1
 71
     2
176
     1
 72
     1
176
     1
 73
     1
176
     1
 90
        2
176
     1
 40
0.6
176
     1
 41
30.0
176
     1
 62
     5
 63
     7
421
 16777215
176
     1
 74
     0
176
     1
 91
        0
176
     1
 64
     7
176
     1
 65
   257
176
     1
 75
     1
176
     1
175
     1
176
     1
 42
1.0
176
     1
 92
        8
176
     1
 66
     7
176
     1
 43
1.0
176
     1
 76
     1
176
     1
 77
     6
176
     1
 78
     2
176
     1
 67
     7
176
     1
 79
     5
176
     1
170
     0
176
     1
171
     0
176
     1
290
     0
176
     1
 93
       13
176
     1
 44
0.0
176
     1
173
     0
176
     1
  0
VISUALSTYLE
  5
148
102
{ACAD_REACTORS
330
146
102
}
102
{ACAD_XDICTIONARY
360
16B
102
}
330
146
100
AcDbVisualStyle
  2
FlatWithEdges
 70
     1
177
     2
291
     1
 71
     2
176
     1
 72
     1
176
     1
 73
     1
176
     1
 90
        2
176
     1
 40
0.6
176
     1
 41
30.0
176
     1
 62
     5
 63
     7
421
 16777215
176
     1
 74
     1
176
     1
 91
        0
176
     1
 64
     7
176
     1
 65
   257
176
     1
 75
     1
176
     1
175
     1
176
     1
 42
1.0
176
     1
 92
        0
176
     1
 66
   257
176
     1
 43
1.0
176
     1
 76
     1
176
     1
 77
     6
176
     1
 78
     2
176
     1
 67
     7
176
     1
 79
     5
176
     1
170
     0
176
     1
171
     0
176
     1
290
     0
176
     1
 93
       13
176
     1
 44
0.0
176
     1
173
     0
176
     1
  0
VISUALSTYLE
  5
149
102
{ACAD_REACTORS
330
146
102
}
102
{ACAD_XDICTIONARY
360
16D
102
}
330
146
100
AcDbVisualStyle
  2
Gouraud
 70
     2
177
     2
291
     1
 71
     2
176
     1
 72
     2
176
     1
 73
     1
176
     1
 90
        2
176
     1
 40
0.6
176
     1
 41
30.0
176
     1
 62
     5
 63
     7
421
 16777215
176
     1
 74
     0
176
     1
 91
        0
176
     1
 64
     7
176
     1
 65
   257
176
     1
 75
     1
176
     1
175
     1
176
     1
 42
1.0
176
     1
 92
        0
176
     1
 66
     7
176
     1
 43
1.0
176
     1
 76
     1
176
     1
 77
     6
176
     1
 78
     2
176
     1
 67
     7
176
     1
 79
     5
176
     1
170
     0
176
     1
171
     0
176
     1
290
     0
176
     1
 93
       13
176
     1
 44
0.0
176
     1
173
     0
176
     1
  0
VISUALSTYLE
  5
14A
102
{ACAD_REACTORS
330
146
102
}
102
{ACAD_XDICTIONARY
360
16F
102
}
330
146
100
AcDbVisualStyle
  2
GouraudWithEdges
 70
     3
177
     2
291
     1
 71
     2
176
     1
 72
     2
176
     1
 73
     1
176
     1
 90
        2
176
     1
 40
0.6
176
     1
 41
30.0
176
     1
 62
     5
 63
     7
421
 16777215
176
     1
 74
     1
176
     1
 91
        0
176
     1
 64
     7
176
     1
 65
   257
176
     1
 75
     1
176
     1
175
     1
176
     1
 42
1.0
176
     1
 92
        0
176
     1
 66
   257
176
     1
 43
1.0
176
     1
 76
     1
176
     1
 77
     6
176
     1
 78
     2
176
     1
 67
     7
176
     1
 79
     5
176
     1
170
     0
176
     1
171
     0
176
     1
290
     0
176
     1
 93
       13
176
     1
 44
0.0
176
     1
173
     0
176
     1
  0
VISUALSTYLE
  5
14D
102
{ACAD_REACTORS
330
146
102
}
102
{ACAD_XDICTIONARY
360
175
102
}
330
146
100
AcDbVisualStyle
  2
Hidden
 70
     6
177
     2
291
     0
 71
     1
176
     1
 72
     2
176
     1
 73
     2
176
     1
 90
        0
176
     1
 40
0.6
176
     1
 41
30.0
176
     1
 62
     5
 63
     7
421
 16777215
176
     1
 74
     2
176
     1
 91
        2
176
     1
 64
     7
176
     1
 65
   257
176
     1
 75
     2
176
     1
175
     1
176
     1
 42
40.0
176
     1
 92
        0
176
     1
 66
   257
176
     1
 43
1.0
176
     1
 76
     1
176
     1
 77
     6
176
     1
 78
     2
176
     1
 67
     7
176
     1
 79
     3
176
     1
170
     0
176
     1
171
     0
176
     1
290
     0
176
     1
 93
        1
176
     1
 44
0.0
176
     1
173
     0
176
     1
  0
VISUALSTYLE
  5
157
102
{ACAD_REACTORS
330
146
102
}
102
{ACAD_XDICTIONARY
360
189
102
}
330
146
100
AcDbVisualStyle
  2
JitterOff
 70
    20
177
     2
291
     1
 71
     2
176
     0
 72
     2
176
     0
 73
     0
176
     0
 90
        0
176
     0
 40
0.6
176
     0
 41
30.0
176
     0
 62
     5
 63
     7
421
 16777215
176
     0
 74
     1
176
     0
 91
        4
176
     0
 64
     7
176
     0
 65
   257
176
     0
 75
     1
176
     0
175
     1
176
     0
 42
1.0
176
     0
 92
       10
176
     2
 66
     7
176
     0
 43
1.0
176
     0
 76
     1
176
     0
 77
     6
176
     0
 78
     2
176
     0
 67
     7
176
     0
 79
     5
176
     0
170
     0
176
     0
171
     0
176
     0
290
     0
176
     0
 93
        1
176
     0
 44
0.0
176
     0
173
     0
176
     0
  0
VISUALSTYLE
  5
154
102
{ACAD_REACTORS
330
146
102
}
102
{ACAD_XDICTIONARY
360
183
102
}
330
146
100
AcDbVisualStyle
  2
Linepattern
 70
    14
177
     2
291
     1
 71
     2
176
     1
 72
     2
176
     1
 73
     0
176
     1
 90
        0
176
     1
 40
0.6
176
     1
 41
30.0
176
     1
 62
     5
 63
     7
421
 16777215
176
     1
 74
     1
176
     1
 91
        4
176
     1
 64
     7
176
     1
 65
   257
176
     1
 75
     7
176
     1
175
     7
176
     1
 42
1.0
176
     1
 92
        8
176
     1
 66
     7
176
     1
 43
1.0
176
     1
 76
     1
176
     1
 77
     6
176
     1
 78
     2
176
     1
 67
     7
176
     1
 79
     5
176
     1
170
     0
176
     1
171
     0
176
     1
290
     0
176
     1
 93
        1
176
     1
 44
0.0
176
     1
173
     0
176
     1
  0
VISUALSTYLE
  5
158
102
{ACAD_REACTORS
330
146
102
}
102
{ACAD_XDICTIONARY
360
18B
102
}
330
146
100
AcDbVisualStyle
  2
OverhangOff
 70
    21
177
     2
291
     1
 71
     2
176
     0
 72
     2
176
     0
 73
     0
176
     0
 90
        0
176
     0
 40
0.6
176
     0
 41
30.0
176
     0
 62
     5
 63
     7
421
 16777215
176
     0
 74
     1
176
     0
 91
        4
176
     0
 64
     7
176
     0
 65
   257
176
     0
 75
     1
176
     0
175
     1
176
     0
 42
1.0
176
     0
 92
        9
176
     2
 66
     7
176
     0
 43
1.0
176
     0
 76
     1
176
     0
 77
     6
176
     0
 78
     2
176
     0
 67
     7
176
     0
 79
     5
176
     0
170
     0
176
     0
171
     0
176
     0
290
     0
176
     0
 93
        1
176
     0
 44
0.0
176
     0
173
     0
176
     0
  0
VISUALSTYLE
  5
14F
102
{ACAD_REACTORS
330
146
102
}
102
{ACAD_XDICTIONARY
360
179
102
}
330
146
100
AcDbVisualStyle
  2
Realistic
 70
     8
177
     2
291
     0
 71
     2
176
     1
 72
     3
176
     1
 73
     0
176
     1
 90
        2
176
     1
 40
0.6
176
     1
 41
30.0
176
     1
 62
     5
 63
     7
421
 16777215
176
     1
 74
     0
176
     1
 91
        0
176
     1
 64
     7
176
     1
 65
   257
176
     1
 75
     1
176
     1
175
     1
176
     1
 42
1.0
176
     1
 92
        8
176
     1
 66
   257
176
     1
 43
1.0
176
     1
 76
     1
176
     1
 77
     6
176
     1
 78
     2
176
     1
 67
     7
176
     1
 79
     3
176
     1
170
     0
176
     1
171
     0
176
     1
290
     0
176
     1
 93
       13
176
     1
 44
0.0
176
     1
173
     0
176
     1
  0
VISUALSTYLE
  5
15E
102
{ACAD_REACTORS
330
146
102
}
102
{ACAD_XDICTIONARY
360
197
102
}
330
146
100
AcDbVisualStyle
  2
Shaded
 70
    27
177
     2
291
     0
 71
     2
176
     1
 72
     2
176
     1
 73
     1
176
     1
 90
        2
176
     1
 40
0.6
176
     1
 41
30.0
176
     1
 62
     5
 63
     7
421
 16777215
176
     1
 74
     0
176
     1
 91
        4
176
     1
 64
     7
176
     1
 65
   257
176
     1
 75
     1
176
     1
175
     1
176
     1
 42
1.0
176
     1
 92
        8
176
     1
 66
   257
176
     1
 43
1.0
176
     1
 76
     1
176
     1
 77
     6
176
     1
 78
     2
176
     1
 67
     8
425
  7895160
176
     1
 79
     3
176
     1
170
     0
176
     1
171
     0
176
     1
290
     0
176
     1
 93
        5
176
     1
 44
0.0
176
     1
173
     0
176
     1
  0
VISUALSTYLE
  5
15D
102
{ACAD_REACTORS
330
146
102
}
102
{ACAD_XDICTIONARY
360
195
102
}
330
146
100
AcDbVisualStyle
  2
Shaded with edges
 70
    26
177
     2
291
     0
 71
     2
176
     1
 72
     2
176
     1
 73
     1
176
     1
 90
        2
176
     1
 40
0.6
176
     1
 41
30.0
176
     1
 62
     5
 63
     7
421
 16777215
176
     1
 74
     1
176
     1
 91
       10
176
     1
 64
     7
176
     1
 65
   257
176
     1
 75
     2
176
     1
175
     1
176
     1
 42
1.0
176
     1
 92
        8
176
     1
 66
   257
176
     1
 43
1.0
176
     1
 76
     1
176
     1
 77
     6
176
     1
 78
     2
176
     1
 67
     7
176
     1
 79
     3
176
     1
170
     0
176
     1
171
     0
176
     1
290
     0
176
     1
 93
        5
176
     1
 44
0.0
176
     1
173
     0
176
     1
  0
VISUALSTYLE
  5
15A
102
{ACAD_REACTORS
330
146
102
}
102
{ACAD_XDICTIONARY
360
18F
102
}
330
146
100
AcDbVisualStyle
  2
Shades of Gray
 70
    23
177
     2
291
     0
 71
     2
176
     1
 72
     2
176
     1
 73
     3
176
     1
 90
        0
176
     1
 40
0.6
176
     1
 41
30.0
176
     1
 62
     5
 63
     7
421
 16777215
176
     1
 74
     2
176
     1
 91
        2
176
     1
 64
     7
176
     1
 65
     7
176
     1
 75
     1
176
     1
175
     1
176
     1
 42
40.0
176
     1
 92
        8
176
     1
 66
     7
176
     1
 43
1.0
176
     1
 76
     1
176
     1
 77
     6
176
     1
 78
     2
176
     1
 67
     7
176
     1
 79
     3
176
     1
170
     0
176
     1
171
     0
176
     1
290
     0
176
     1
 93
        1
176
     1
 44
0.0
176
     1
173
     0
176
     1
  0
VISUALSTYLE
  5
15B
102
{ACAD_REACTORS
330
146
102
}
102
{ACAD_XDICTIONARY
360
191
102
}
330
146
100
AcDbVisualStyle
  2
Sketchy
 70
    24
177
     2
291
     0
 71
     1
176
     1
 72
     2
176
     1
 73
     2
176
     1
 90
        0
176
     1
 40
0.6
176
     1
 41
30.0
176
     1
 62
     5
 63
     7
421
 16777215
176
     1
 74
     2
176
     1
 91
        2
176
     1
 64
     7
176
     1
 65
     7
176
     1
 75
     1
176
     1
175
     1
176
     1
 42
40.0
176
     1
 92
       11
176
     1
 66
     7
176
     1
 43
1.0
176
     1
 76
     1
176
     1
 77
     6
176
     1
 78
     2
176
     1
 67
     7
176
     1
 79
     6
176
     1
170
     0
176
     1
171
     0
176
     1
290
     0
176
     1
 93
        1
176
     1
 44
0.0
176
     1
173
     0
176
     1
  0
VISUALSTYLE
  5
153
102
{ACAD_REACTORS
330
146
102
}
102
{ACAD_XDICTIONARY
360
181
102
}
330
146
100
AcDbVisualStyle
  2
Thicken
 70
    13
177
     2
291
     1
 71
     2
176
     1
 72
     2
176
     1
 73
     0
176
     1
 90
        0
176
     1
 40
0.6
176
     1
 41
30.0
176
     1
 62
     5
 63
     7
421
 16777215
176
     1
 74
     1
176
     1
 91
        4
176
     1
 64
     7
176
     1
 65
   257
176
     1
 75
     1
176
     1
175
     1
176
     1
 42
1.0
176
     1
 92
       12
176
     1
 66
     7
176
     1
 43
1.0
176
     1
 76
     1
176
     1
 77
     6
176
     1
 78
     2
176
     1
 67
     7
176
     1
 79
     5
176
     1
170
     0
176
     1
171
     0
176
     1
290
     0
176
     1
 93
        1
176
     1
 44
0.0
176
     1
173
     0
176
     1
  0
VISUALSTYLE
  5
14C
102
{ACAD_REACTORS
330
146
102
}
102
{ACAD_XDICTIONARY
360
173
102
}
330
146
100
AcDbVisualStyle
  2
Wireframe
 70
     5
177
     2
291
     0
 71
     0
176
     1
 72
     2
176
     1
 73
     0
176
     1
 90
        0
176
     1
 40
0.6
176
     1
 41
30.0
176
     1
 62
     5
 63
     7
421
 16777215
176
     1
 74
     1
176
     1
 91
        4
176
     1
 64
     7
176
     1
 65
   257
176
     1
 75
     1
176
     1
175
     1
176
     1
 42
1.0
176
     1
 92
        0
176
     1
 66
   257
176
     1
 43
1.0
176
     1
 76
     1
176
     1
 77
     6
176
     1
 78
     2
176
     1
 67
     7
176
     1
 79
     3
176
     1
170
     0
176
     1
171
     0
176
     1
290
     0
176
     1
 93
        1
176
     1
 44
0.0
176
     1
173
     0
176
     1
  0
VISUALSTYLE
  5
15C
102
{ACAD_REACTORS
330
146
102
}
102
{ACAD_XDICTIONARY
360
193
102
}
330
146
100
AcDbVisualStyle
  2
X-Ray
 70
    25
177
     2
291
     0
 71
     2
176
     1
 72
     2
176
     1
 73
     1
176
     1
 90
        1
176
     1
 40
0.5
176
     1
 41
30.0
176
     1
 62
     5
 63
     7
421
 16777215
176
     1
 74
     1
176
     1
 91
        0
176
     1
 64
     7
176
     1
 65
   257
176
     1
 75
     1
176
     1
175
     1
176
     1
 42
1.0
176
     1
 92
        8
176
     1
 66
     7
176
     1
 43
1.0
176
     1
 76
     1
176
     1
 77
     6
176
     1
 78
     2
176
     1
 67
     7
176
     1
 79
     3
176
     1
170
     0
176
     1
171
     0
176
     1
290
     0
176
     1
 93
       13
176
     1
 44
0.0
176
     1
173
     0
176
     1
  0
DICTIONARYVAR
  5
168
102
{ACAD_REACTORS
330
167
102
}
330
167
100
DictionaryVariables
280
     0
  1
1:1
  0
DICTIONARYVAR
  5
19D
102
{ACAD_REACTORS
330
167
102
}
330
167
100
DictionaryVariables
280
     0
  1
Standard
  0
DICTIONARYVAR
  5
19C
102
{ACAD_REACTORS
330
167
102
}
330
167
100
DictionaryVariables
280
     0
  1
Standard
  0
DICTIONARYVAR
  5
19E
102
{ACAD_REACTORS
330
167
102
}
330
167
100
DictionaryVariables
280
     0
  1
0
  0
DICTIONARY
  5
199
330
164
100
AcDbDictionary
280
     1
281
     1
  3
ACAD_ROUNDTRIP_2008_TABLESTYLE_CELLSTYLEMAP
360
19A
  0
DICTIONARY
  5
171
330
14B
100
AcDbDictionary
280
     1
281
     1
  3
ACAD_XREC_ROUNDTRIP
360
172
  0
DICTIONARY
  5
177
330
14E
100
AcDbDictionary
280
     1
281
     1
  3
ACAD_XREC_ROUNDTRIP
360
178
  0
DICTIONARY
  5
17F
330
152
100
AcDbDictionary
280
     1
281
     1
  3
ACAD_XREC_ROUNDTRIP
360
180
  0
DICTIONARY
  5
187
330
156
100
AcDbDictionary
280
     1
281
     1
  3
ACAD_XREC_ROUNDTRIP
360
188
  0
DICTIONARY
  5
17B
330
150
100
AcDbDictionary
280
     1
281
     1
  3
ACAD_XREC_ROUNDTRIP
360
17C
  0
DICTIONARY
  5
17D
330
151
100
AcDbDictionary
280
     1
281
     1
  3
ACAD_XREC_ROUNDTRIP
360
17E
  0
DICTIONARY
  5
18D
330
159
100
AcDbDictionary
280
     1
281
     1
  3
ACAD_XREC_ROUNDTRIP
360
18E
  0
DICTIONARY
  5
185
330
155
100
AcDbDictionary
280
     1
281
     1
  3
ACAD_XREC_ROUNDTRIP
360
186
  0
DICTIONARY
  5
169
330
147
100
AcDbDictionary
280
     1
281
     1
  3
ACAD_XREC_ROUNDTRIP
360
16A
  0
DICTIONARY
  5
16B
330
148
100
AcDbDictionary
280
     1
281
     1
  3
ACAD_XREC_ROUNDTRIP
360
16C
  0
DICTIONARY
  5
16D
330
149
100
AcDbDictionary
280
     1
281
     1
  3
ACAD_XREC_ROUNDTRIP
360
16E
  0
DICTIONARY
  5
16F
330
14A
100
AcDbDictionary
280
     1
281
     1
  3
ACAD_XREC_ROUNDTRIP
360
170
  0
DICTIONARY
  5
175
330
14D
100
AcDbDictionary
280
     1
281
     1
  3
ACAD_XREC_ROUNDTRIP
360
176
  0
DICTIONARY
  5
189
330
157
100
AcDbDictionary
280
     1
281
     1
  3
ACAD_XREC_ROUNDTRIP
360
18A
  0
DICTIONARY
  5
183
330
154
100
AcDbDictionary
280
     1
281
     1
  3
ACAD_XREC_ROUNDTRIP
360
184
  0
DICTIONARY
  5
18B
330
158
100
AcDbDictionary
280
     1
281
     1
  3
ACAD_XREC_ROUNDTRIP
360
18C
  0
DICTIONARY
  5
179
330
14F
100
AcDbDictionary
280
     1
281
     1
  3
ACAD_XREC_ROUNDTRIP
360
17A
  0
DICTIONARY
  5
197
330
15E
100
AcDbDictionary
280
     1
281
     1
  3
ACAD_XREC_ROUNDTRIP
360
198
  0
DICTIONARY
  5
195
330
15D
100
AcDbDictionary
280
     1
281
     1
  3
ACAD_XREC_ROUNDTRIP
360
196
  0
DICTIONARY
  5
18F
330
15A
100
AcDbDictionary
280
     1
281
     1
  3
ACAD_XREC_ROUNDTRIP
360
190
  0
DICTIONARY
  5
191
330
15B
100
AcDbDictionary
280
     1
281
     1
  3
ACAD_XREC_ROUNDTRIP
360
192
  0
DICTIONARY
  5
181
330
153
100
AcDbDictionary
280
     1
281
     1
  3
ACAD_XREC_ROUNDTRIP
360
182
  0
DICTIONARY
  5
173
330
14C
100
AcDbDictionary
280
     1
281
     1
  3
ACAD_XREC_ROUNDTRIP
360
174
  0
DICTIONARY
  5
193
330
15C
100
AcDbDictionary
280
     1
281
     1
  3
ACAD_XREC_ROUNDTRIP
360
194
  0
CELLSTYLEMAP
  5
19A
102
{ACAD_REACTORS
330
199
102
}
330
199
100
AcDbCellStyleMap
 90
        3
300
CELLSTYLE
  1
TABLEFORMAT_BEGIN
 90
        5
170
     1
 91
        0
 92
    32768
 62
   257
 93
        1
300
CONTENTFORMAT
  1
CONTENTFORMAT_BEGIN
 90
        0
 91
        0
 92
        4
 93
        0
300

 40
0.0
140
1.0
 94
        5
 62
     0
340
17
144
0.25
309
CONTENTFORMAT_END
171
     1
301
MARGIN
  1
CELLMARGIN_BEGIN
 40
0.06
 40
0.06
 40
0.06
 40
0.06
 40
0.06
 40
0.06
309
CELLMARGIN_END
 94
        6
 95
        1
302
GRIDFORMAT
  1
GRIDFORMAT_BEGIN
 90
        0
 91
        1
 62
     0
 92
       -2
340
11
 93
        0
 40
0.045
309
GRIDFORMAT_END
 95
        2
302
GRIDFORMAT
  1
GRIDFORMAT_BEGIN
 90
        0
 91
        1
 62
     0
 92
       -2
340
11
 93
        0
 40
0.045
309
GRIDFORMAT_END
 95
        4
302
GRIDFORMAT
  1
GRIDFORMAT_BEGIN
 90
        0
 91
        1
 62
     0
 92
       -2
340
11
 93
        0
 40
0.045
309
GRIDFORMAT_END
 95
        8
302
GRIDFORMAT
  1
GRIDFORMAT_BEGIN
 90
        0
 91
        1
 62
     0
 92
       -2
340
11
 93
        0
 40
0.045
309
GRIDFORMAT_END
 95
       16
302
GRIDFORMAT
  1
GRIDFORMAT_BEGIN
 90
        0
 91
        1
 62
     0
 92
       -2
340
11
 93
        0
 40
0.045
309
GRIDFORMAT_END
 95
       32
302
GRIDFORMAT
  1
GRIDFORMAT_BEGIN
 90
        0
 91
        1
 62
     0
 92
       -2
340
11
 93
        0
 40
0.045
309
GRIDFORMAT_END
309
TABLEFORMAT_END
  1
CELLSTYLE_BEGIN
 90
        1
 91
        1
300
_TITLE
309
CELLSTYLE_END
300
CELLSTYLE
  1
TABLEFORMAT_BEGIN
 90
        5
170
     1
 91
        0
 92
        0
 62
   257
 93
        1
300
CONTENTFORMAT
  1
CONTENTFORMAT_BEGIN
 90
        0
 91
        0
 92
        4
 93
        0
300

 40
0.0
140
1.0
 94
        5
 62
     0
340
17
144
0.18
309
CONTENTFORMAT_END
171
     1
301
MARGIN
  1
CELLMARGIN_BEGIN
 40
0.06
 40
0.06
 40
0.06
 40
0.06
 40
0.06
 40
0.06
309
CELLMARGIN_END
 94
        6
 95
        1
302
GRIDFORMAT
  1
GRIDFORMAT_BEGIN
 90
        0
 91
        1
 62
     0
 92
       -2
340
11
 93
        0
 40
0.045
309
GRIDFORMAT_END
 95
        2
302
GRIDFORMAT
  1
GRIDFORMAT_BEGIN
 90
        0
 91
        1
 62
     0
 92
       -2
340
11
 93
        0
 40
0.045
309
GRIDFORMAT_END
 95
        4
302
GRIDFORMAT
  1
GRIDFORMAT_BEGIN
 90
        0
 91
        1
 62
     0
 92
       -2
340
11
 93
        0
 40
0.045
309
GRIDFORMAT_END
 95
        8
302
GRIDFORMAT
  1
GRIDFORMAT_BEGIN
 90
        0
 91
        1
 62
     0
 92
       -2
340
11
 93
        0
 40
0.045
309
GRIDFORMAT_END
 95
       16
302
GRIDFORMAT
  1
GRIDFORMAT_BEGIN
 90
        0
 91
        1
 62
     0
 92
       -2
340
11
 93
        0
 40
0.045
309
GRIDFORMAT_END
 95
       32
302
GRIDFORMAT
  1
GRIDFORMAT_BEGIN
 90
        0
 91
        1
 62
     0
 92
       -2
340
11
 93
        0
 40
0.045
309
GRIDFORMAT_END
309
TABLEFORMAT_END
  1
CELLSTYLE_BEGIN
 90
        2
 91
        1
300
_HEADER
309
CELLSTYLE_END
300
CELLSTYLE
  1
TABLEFORMAT_BEGIN
 90
        5
170
     1
 91
        0
 92
        0
 62
   257
 93
        1
300
CONTENTFORMAT
  1
CONTENTFORMAT_BEGIN
 90
        0
 91
        0
 92
        4
 93
        0
300

 40
0.0
140
1.0
 94
        2
 62
     0
340
17
144
0.18
309
CONTENTFORMAT_END
171
     1
301
MARGIN
  1
CELLMARGIN_BEGIN
 40
0.06
 40
0.06
 40
0.06
 40
0.06
 40
0.06
 40
0.06
309
CELLMARGIN_END
 94
        6
 95
        1
302
GRIDFORMAT
  1
GRIDFORMAT_BEGIN
 90
        0
 91
        1
 62
     0
 92
       -2
340
11
 93
        0
 40
0.045
309
GRIDFORMAT_END
 95
        2
302
GRIDFORMAT
  1
GRIDFORMAT_BEGIN
 90
        0
 91
        1
 62
     0
 92
       -2
340
11
 93
        0
 40
0.045
309
GRIDFORMAT_END
 95
        4
302
GRIDFORMAT
  1
GRIDFORMAT_BEGIN
 90
        0
 91
        1
 62
     0
 92
       -2
340
11
 93
        0
 40
0.045
309
GRIDFORMAT_END
 95
        8
302
GRIDFORMAT
  1
GRIDFORMAT_BEGIN
 90
        0
 91
        1
 62
     0
 92
       -2
340
11
 93
        0
 40
0.045
309
GRIDFORMAT_END
 95
       16
302
GRIDFORMAT
  1
GRIDFORMAT_BEGIN
 90
        0
 91
        1
 62
     0
 92
       -2
340
11
 93
        0
 40
0.045
309
GRIDFORMAT_END
 95
       32
302
GRIDFORMAT
  1
GRIDFORMAT_BEGIN
 90
        0
 91
        1
 62
     0
 92
       -2
340
11
 93
        0
 40
0.045
309
GRIDFORMAT_END
309
TABLEFORMAT_END
  1
CELLSTYLE_BEGIN
 90
        3
 91
        2
300
_DATA
309
CELLSTYLE_END
  0
XRECORD
  5
172
102
{ACAD_REACTORS
330
171
102
}
330
171
100
AcDbXrecord
280
     1
102
RTVSPost2010Prop28
280
     1
102
RTVSPost2010PropOp28
 70
     1
102
RTVSPost2010Prop29
280
     1
102
RTVSPost2010PropOp29
 70
     1
102
RTVSPost2010Prop30
280
     0
102
RTVSPost2010PropOp30
 70
     1
102
RTVSPost2010Prop31
280
     0
102
RTVSPost2010PropOp31
 70
     1
102
RTVSPost2010Prop32
280
     0
102
RTVSPost2010PropOp32
 70
     1
102
RTVSPost2010Prop33
280
     0
102
RTVSPost2010PropOp33
 70
     1
102
RTVSPost2010Prop34
280
     0
102
RTVSPost2010PropOp34
 70
     1
102
RTVSPost2010Prop35
280
     0
102
RTVSPost2010PropOp35
 70
     1
102
RTVSPost2010Prop36
280
     0
102
RTVSPost2010PropOp36
 70
     1
102
RTVSPost2010Prop37
 90
       50
102
RTVSPost2010PropOp37
 70
     1
102
RTVSPost2010Prop38
140
0.0
102
RTVSPost2010PropOp38
 70
     1
102
RTVSPost2010Prop39
140
1.0
102
RTVSPost2010PropOp39
 70
     1
102
RTVSPost2010Prop40
 90
        0
102
RTVSPost2010PropOp40
 70
     1
102
RTVSPost2010Prop41ColorIndex
 90
       18
102
RTVSPost2010Prop41ColorRGB
 90
        0
102
RTVSPost2010PropOp41
 70
     1
102
RTVSPost2010Prop42
 90
       50
102
RTVSPost2010PropOp42
 70
     1
102
RTVSPost2010Prop43
 90
        3
102
RTVSPost2010PropOp43
 70
     1
102
RTVSPost2010Prop44ColorIndex
 90
        5
102
RTVSPost2010Prop44ColorRGB
 90
      255
102
RTVSPost2010PropOp44
 70
     1
102
RTVSPost2010Prop45
280
     0
102
RTVSPost2010PropOp45
 70
     1
102
RTVSPost2010Prop46
 90
       50
102
RTVSPost2010PropOp46
 70
     1
102
RTVSPost2010Prop47
 90
       50
102
RTVSPost2010PropOp47
 70
     1
102
RTVSPost2010Prop48
 90
       50
102
RTVSPost2010PropOp48
 70
     1
102
RTVSPost2010Prop49
280
     0
102
RTVSPost2010PropOp49
 70
     1
102
RTVSPost2010Prop50
 90
       50
102
RTVSPost2010PropOp50
 70
     1
102
RTVSPost2010Prop51ColorIndex
 90
      256
102
RTVSPost2010Prop51ColorRGB
 90
-16777216
102
RTVSPost2010PropOp51
 70
     0
102
RTVSPost2010Prop52
140
1.0
102
RTVSPost2010PropOp52
 70
     0
102
RTVSPost2010Prop53
 90
        2
102
RTVSPost2010PropOp53
 70
     1
102
RTVSPost2010Prop54
  1
strokes_ogs.tif
102
RTVSPost2010PropOp54
 70
     1
102
RTVSPost2010Prop55
280
     0
102
RTVSPost2010PropOp55
 70
     1
102
RTVSPost2010Prop56
140
1.0
102
RTVSPost2010PropOp56
 70
     1
102
RTVSPost2010Prop57
140
1.0
102
RTVSPost2010PropOp57
 70
     1
  0
XRECORD
  5
178
102
{ACAD_REACTORS
330
177
102
}
330
177
100
AcDbXrecord
280
     1
102
RTVSPost2010Prop28
280
     0
102
RTVSPost2010PropOp28
 70
     1
102
RTVSPost2010Prop29
280
     1
102
RTVSPost2010PropOp29
 70
     1
102
RTVSPost2010Prop30
280
     1
102
RTVSPost2010PropOp30
 70
     1
102
RTVSPost2010Prop31
280
     0
102
RTVSPost2010PropOp31
 70
     1
102
RTVSPost2010Prop32
280
     0
102
RTVSPost2010PropOp32
 70
     1
102
RTVSPost2010Prop33
280
     0
102
RTVSPost2010PropOp33
 70
     1
102
RTVSPost2010Prop34
280
     0
102
RTVSPost2010PropOp34
 70
     1
102
RTVSPost2010Prop35
280
     0
102
RTVSPost2010PropOp35
 70
     1
102
RTVSPost2010Prop36
280
     0
102
RTVSPost2010PropOp36
 70
     1
102
RTVSPost2010Prop37
 90
       50
102
RTVSPost2010PropOp37
 70
     1
102
RTVSPost2010Prop38
140
0.0
102
RTVSPost2010PropOp38
 70
     1
102
RTVSPost2010Prop39
140
1.0
102
RTVSPost2010PropOp39
 70
     1
102
RTVSPost2010Prop40
 90
        0
102
RTVSPost2010PropOp40
 70
     1
102
RTVSPost2010Prop41ColorIndex
 90
       18
102
RTVSPost2010Prop41ColorRGB
 90
        0
102
RTVSPost2010PropOp41
 70
     1
102
RTVSPost2010Prop42
 90
       50
102
RTVSPost2010PropOp42
 70
     1
102
RTVSPost2010Prop43
 90
        3
102
RTVSPost2010PropOp43
 70
     1
102
RTVSPost2010Prop44ColorIndex
 90
        5
102
RTVSPost2010Prop44ColorRGB
 90
      255
102
RTVSPost2010PropOp44
 70
     1
102
RTVSPost2010Prop45
280
     0
102
RTVSPost2010PropOp45
 70
     1
102
RTVSPost2010Prop46
 90
       50
102
RTVSPost2010PropOp46
 70
     1
102
RTVSPost2010Prop47
 90
       50
102
RTVSPost2010PropOp47
 70
     1
102
RTVSPost2010Prop48
 90
       50
102
RTVSPost2010PropOp48
 70
     1
102
RTVSPost2010Prop49
280
     0
102
RTVSPost2010PropOp49
 70
     1
102
RTVSPost2010Prop50
 90
       50
102
RTVSPost2010PropOp50
 70
     1
102
RTVSPost2010Prop51ColorIndex
 90
      256
102
RTVSPost2010Prop51ColorRGB
 90
-16777216
102
RTVSPost2010PropOp51
 70
     0
102
RTVSPost2010Prop52
140
1.0
102
RTVSPost2010PropOp52
 70
     0
102
RTVSPost2010Prop53
 90
        2
102
RTVSPost2010PropOp53
 70
     1
102
RTVSPost2010Prop54
  1
strokes_ogs.tif
102
RTVSPost2010PropOp54
 70
     1
102
RTVSPost2010Prop55
280
     0
102
RTVSPost2010PropOp55
 70
     1
102
RTVSPost2010Prop56
140
1.0
102
RTVSPost2010PropOp56
 70
     1
102
RTVSPost2010Prop57
140
1.0
102
RTVSPost2010PropOp57
 70
     1
  0
XRECORD
  5
180
102
{ACAD_REACTORS
330
17F
102
}
330
17F
100
AcDbXrecord
280
     1
102
RTVSPost2010Prop28
280
     0
102
RTVSPost2010PropOp28
 70
     1
102
RTVSPost2010Prop29
280
     1
102
RTVSPost2010PropOp29
 70
     1
102
RTVSPost2010Prop30
280
     1
102
RTVSPost2010PropOp30
 70
     1
102
RTVSPost2010Prop31
280
     0
102
RTVSPost2010PropOp31
 70
     1
102
RTVSPost2010Prop32
280
     0
102
RTVSPost2010PropOp32
 70
     1
102
RTVSPost2010Prop33
280
     0
102
RTVSPost2010PropOp33
 70
     1
102
RTVSPost2010Prop34
280
     0
102
RTVSPost2010PropOp34
 70
     1
102
RTVSPost2010Prop35
280
     0
102
RTVSPost2010PropOp35
 70
     1
102
RTVSPost2010Prop36
280
     0
102
RTVSPost2010PropOp36
 70
     1
102
RTVSPost2010Prop37
 90
       50
102
RTVSPost2010PropOp37
 70
     1
102
RTVSPost2010Prop38
140
0.0
102
RTVSPost2010PropOp38
 70
     1
102
RTVSPost2010Prop39
140
1.0
102
RTVSPost2010PropOp39
 70
     1
102
RTVSPost2010Prop40
 90
        0
102
RTVSPost2010PropOp40
 70
     1
102
RTVSPost2010Prop41ColorIndex
 90
       18
102
RTVSPost2010Prop41ColorRGB
 90
        0
102
RTVSPost2010PropOp41
 70
     1
102
RTVSPost2010Prop42
 90
       50
102
RTVSPost2010PropOp42
 70
     1
102
RTVSPost2010Prop43
 90
        3
102
RTVSPost2010PropOp43
 70
     1
102
RTVSPost2010Prop44ColorIndex
 90
        5
102
RTVSPost2010Prop44ColorRGB
 90
      255
102
RTVSPost2010PropOp44
 70
     1
102
RTVSPost2010Prop45
280
     0
102
RTVSPost2010PropOp45
 70
     1
102
RTVSPost2010Prop46
 90
       50
102
RTVSPost2010PropOp46
 70
     1
102
RTVSPost2010Prop47
 90
       50
102
RTVSPost2010PropOp47
 70
     1
102
RTVSPost2010Prop48
 90
       50
102
RTVSPost2010PropOp48
 70
     1
102
RTVSPost2010Prop49
280
     0
102
RTVSPost2010PropOp49
 70
     1
102
RTVSPost2010Prop50
 90
       50
102
RTVSPost2010PropOp50
 70
     1
102
RTVSPost2010Prop51ColorIndex
 90
      256
102
RTVSPost2010Prop51ColorRGB
 90
-16777216
102
RTVSPost2010PropOp51
 70
     0
102
RTVSPost2010Prop52
140
1.0
102
RTVSPost2010PropOp52
 70
     0
102
RTVSPost2010Prop53
 90
        2
102
RTVSPost2010PropOp53
 70
     1
102
RTVSPost2010Prop54
  1
strokes_ogs.tif
102
RTVSPost2010PropOp54
 70
     1
102
RTVSPost2010Prop55
280
     0
102
RTVSPost2010PropOp55
 70
     1
102
RTVSPost2010Prop56
140
1.0
102
RTVSPost2010PropOp56
 70
     1
102
RTVSPost2010Prop57
140
1.0
102
RTVSPost2010PropOp57
 70
     1
  0
XRECORD
  5
188
102
{ACAD_REACTORS
330
187
102
}
330
187
100
AcDbXrecord
280
     1
102
RTVSPost2010Prop28
280
     0
102
RTVSPost2010PropOp28
 70
     1
102
RTVSPost2010Prop29
280
     1
102
RTVSPost2010PropOp29
 70
     1
102
RTVSPost2010Prop30
280
     1
102
RTVSPost2010PropOp30
 70
     1
102
RTVSPost2010Prop31
280
     0
102
RTVSPost2010PropOp31
 70
     1
102
RTVSPost2010Prop32
280
     0
102
RTVSPost2010PropOp32
 70
     1
102
RTVSPost2010Prop33
280
     0
102
RTVSPost2010PropOp33
 70
     1
102
RTVSPost2010Prop34
280
     0
102
RTVSPost2010PropOp34
 70
     1
102
RTVSPost2010Prop35
280
     0
102
RTVSPost2010PropOp35
 70
     1
102
RTVSPost2010Prop36
280
     0
102
RTVSPost2010PropOp36
 70
     1
102
RTVSPost2010Prop37
 90
       50
102
RTVSPost2010PropOp37
 70
     1
102
RTVSPost2010Prop38
140
0.0
102
RTVSPost2010PropOp38
 70
     1
102
RTVSPost2010Prop39
140
1.0
102
RTVSPost2010PropOp39
 70
     1
102
RTVSPost2010Prop40
 90
        0
102
RTVSPost2010PropOp40
 70
     1
102
RTVSPost2010Prop41ColorIndex
 90
       18
102
RTVSPost2010Prop41ColorRGB
 90
        0
102
RTVSPost2010PropOp41
 70
     1
102
RTVSPost2010Prop42
 90
       50
102
RTVSPost2010PropOp42
 70
     1
102
RTVSPost2010Prop43
 90
        3
102
RTVSPost2010PropOp43
 70
     1
102
RTVSPost2010Prop44ColorIndex
 90
        5
102
RTVSPost2010Prop44ColorRGB
 90
      255
102
RTVSPost2010PropOp44
 70
     1
102
RTVSPost2010Prop45
280
     0
102
RTVSPost2010PropOp45
 70
     1
102
RTVSPost2010Prop46
 90
       50
102
RTVSPost2010PropOp46
 70
     1
102
RTVSPost2010Prop47
 90
       50
102
RTVSPost2010PropOp47
 70
     1
102
RTVSPost2010Prop48
 90
       50
102
RTVSPost2010PropOp48
 70
     1
102
RTVSPost2010Prop49
280
     0
102
RTVSPost2010PropOp49
 70
     1
102
RTVSPost2010Prop50
 90
       50
102
RTVSPost2010PropOp50
 70
     1
102
RTVSPost2010Prop51ColorIndex
 90
      256
102
RTVSPost2010Prop51ColorRGB
 90
-16777216
102
RTVSPost2010PropOp51
 70
     0
102
RTVSPost2010Prop52
140
1.0
102
RTVSPost2010PropOp52
 70
     0
102
RTVSPost2010Prop53
 90
        2
102
RTVSPost2010PropOp53
 70
     1
102
RTVSPost2010Prop54
  1
strokes_ogs.tif
102
RTVSPost2010PropOp54
 70
     1
102
RTVSPost2010Prop55
280
     0
102
RTVSPost2010PropOp55
 70
     1
102
RTVSPost2010Prop56
140
1.0
102
RTVSPost2010PropOp56
 70
     1
102
RTVSPost2010Prop57
140
1.0
102
RTVSPost2010PropOp57
 70
     1
  0
XRECORD
  5
17C
102
{ACAD_REACTORS
330
17B
102
}
330
17B
100
AcDbXrecord
280
     1
102
RTVSPost2010Prop28
280
     0
102
RTVSPost2010PropOp28
 70
     1
102
RTVSPost2010Prop29
280
     1
102
RTVSPost2010PropOp29
 70
     1
102
RTVSPost2010Prop30
280
     1
102
RTVSPost2010PropOp30
 70
     1
102
RTVSPost2010Prop31
280
     0
102
RTVSPost2010PropOp31
 70
     1
102
RTVSPost2010Prop32
280
     0
102
RTVSPost2010PropOp32
 70
     1
102
RTVSPost2010Prop33
280
     0
102
RTVSPost2010PropOp33
 70
     1
102
RTVSPost2010Prop34
280
     0
102
RTVSPost2010PropOp34
 70
     1
102
RTVSPost2010Prop35
280
     0
102
RTVSPost2010PropOp35
 70
     1
102
RTVSPost2010Prop36
280
     0
102
RTVSPost2010PropOp36
 70
     1
102
RTVSPost2010Prop37
 90
       50
102
RTVSPost2010PropOp37
 70
     1
102
RTVSPost2010Prop38
140
0.0
102
RTVSPost2010PropOp38
 70
     1
102
RTVSPost2010Prop39
140
1.0
102
RTVSPost2010PropOp39
 70
     1
102
RTVSPost2010Prop40
 90
        0
102
RTVSPost2010PropOp40
 70
     1
102
RTVSPost2010Prop41ColorIndex
 90
       18
102
RTVSPost2010Prop41ColorRGB
 90
        0
102
RTVSPost2010PropOp41
 70
     1
102
RTVSPost2010Prop42
 90
       50
102
RTVSPost2010PropOp42
 70
     1
102
RTVSPost2010Prop43
 90
        3
102
RTVSPost2010PropOp43
 70
     1
102
RTVSPost2010Prop44ColorIndex
 90
        5
102
RTVSPost2010Prop44ColorRGB
 90
      255
102
RTVSPost2010PropOp44
 70
     1
102
RTVSPost2010Prop45
280
     0
102
RTVSPost2010PropOp45
 70
     1
102
RTVSPost2010Prop46
 90
       50
102
RTVSPost2010PropOp46
 70
     1
102
RTVSPost2010Prop47
 90
       50
102
RTVSPost2010PropOp47
 70
     1
102
RTVSPost2010Prop48
 90
       50
102
RTVSPost2010PropOp48
 70
     1
102
RTVSPost2010Prop49
280
     0
102
RTVSPost2010PropOp49
 70
     1
102
RTVSPost2010Prop50
 90
       50
102
RTVSPost2010PropOp50
 70
     1
102
RTVSPost2010Prop51ColorIndex
 90
      256
102
RTVSPost2010Prop51ColorRGB
 90
-16777216
102
RTVSPost2010PropOp51
 70
     0
102
RTVSPost2010Prop52
140
1.0
102
RTVSPost2010PropOp52
 70
     0
102
RTVSPost2010Prop53
 90
        2
102
RTVSPost2010PropOp53
 70
     1
102
RTVSPost2010Prop54
  1
strokes_ogs.tif
102
RTVSPost2010PropOp54
 70
     1
102
RTVSPost2010Prop55
280
     0
102
RTVSPost2010PropOp55
 70
     1
102
RTVSPost2010Prop56
140
1.0
102
RTVSPost2010PropOp56
 70
     1
102
RTVSPost2010Prop57
140
1.0
102
RTVSPost2010PropOp57
 70
     1
  0
XRECORD
  5
17E
102
{ACAD_REACTORS
330
17D
102
}
330
17D
100
AcDbXrecord
280
     1
102
RTVSPost2010Prop28
280
     0
102
RTVSPost2010PropOp28
 70
     1
102
RTVSPost2010Prop29
280
     1
102
RTVSPost2010PropOp29
 70
     1
102
RTVSPost2010Prop30
280
     1
102
RTVSPost2010PropOp30
 70
     1
102
RTVSPost2010Prop31
280
     0
102
RTVSPost2010PropOp31
 70
     1
102
RTVSPost2010Prop32
280
     0
102
RTVSPost2010PropOp32
 70
     1
102
RTVSPost2010Prop33
280
     0
102
RTVSPost2010PropOp33
 70
     1
102
RTVSPost2010Prop34
280
     0
102
RTVSPost2010PropOp34
 70
     1
102
RTVSPost2010Prop35
280
     0
102
RTVSPost2010PropOp35
 70
     1
102
RTVSPost2010Prop36
280
     0
102
RTVSPost2010PropOp36
 70
     1
102
RTVSPost2010Prop37
 90
       50
102
RTVSPost2010PropOp37
 70
     1
102
RTVSPost2010Prop38
140
0.0
102
RTVSPost2010PropOp38
 70
     1
102
RTVSPost2010Prop39
140
1.0
102
RTVSPost2010PropOp39
 70
     1
102
RTVSPost2010Prop40
 90
        0
102
RTVSPost2010PropOp40
 70
     1
102
RTVSPost2010Prop41ColorIndex
 90
       18
102
RTVSPost2010Prop41ColorRGB
 90
        0
102
RTVSPost2010PropOp41
 70
     1
102
RTVSPost2010Prop42
 90
       50
102
RTVSPost2010PropOp42
 70
     1
102
RTVSPost2010Prop43
 90
        3
102
RTVSPost2010PropOp43
 70
     1
102
RTVSPost2010Prop44ColorIndex
 90
        5
102
RTVSPost2010Prop44ColorRGB
 90
      255
102
RTVSPost2010PropOp44
 70
     1
102
RTVSPost2010Prop45
280
     0
102
RTVSPost2010PropOp45
 70
     1
102
RTVSPost2010Prop46
 90
       50
102
RTVSPost2010PropOp46
 70
     1
102
RTVSPost2010Prop47
 90
       50
102
RTVSPost2010PropOp47
 70
     1
102
RTVSPost2010Prop48
 90
       50
102
RTVSPost2010PropOp48
 70
     1
102
RTVSPost2010Prop49
280
     0
102
RTVSPost2010PropOp49
 70
     1
102
RTVSPost2010Prop50
 90
       50
102
RTVSPost2010PropOp50
 70
     1
102
RTVSPost2010Prop51ColorIndex
 90
      256
102
RTVSPost2010Prop51ColorRGB
 90
-16777216
102
RTVSPost2010PropOp51
 70
     0
102
RTVSPost2010Prop52
140
1.0
102
RTVSPost2010PropOp52
 70
     0
102
RTVSPost2010Prop53
 90
        2
102
RTVSPost2010PropOp53
 70
     1
102
RTVSPost2010Prop54
  1
strokes_ogs.tif
102
RTVSPost2010PropOp54
 70
     1
102
RTVSPost2010Prop55
280
     0
102
RTVSPost2010PropOp55
 70
     1
102
RTVSPost2010Prop56
140
1.0
102
RTVSPost2010PropOp56
 70
     1
102
RTVSPost2010Prop57
140
1.0
102
RTVSPost2010PropOp57
 70
     1
  0
XRECORD
  5
18E
102
{ACAD_REACTORS
330
18D
102
}
330
18D
100
AcDbXrecord
280
     1
102
RTVSPost2010Prop28
280
     0
102
RTVSPost2010PropOp28
 70
     0
102
RTVSPost2010Prop29
280
     1
102
RTVSPost2010PropOp29
 70
     0
102
RTVSPost2010Prop30
280
     1
102
RTVSPost2010PropOp30
 70
     0
102
RTVSPost2010Prop31
280
     0
102
RTVSPost2010PropOp31
 70
     0
102
RTVSPost2010Prop32
280
     0
102
RTVSPost2010PropOp32
 70
     0
102
RTVSPost2010Prop33
280
     0
102
RTVSPost2010PropOp33
 70
     0
102
RTVSPost2010Prop34
280
     0
102
RTVSPost2010PropOp34
 70
     0
102
RTVSPost2010Prop35
280
     0
102
RTVSPost2010PropOp35
 70
     0
102
RTVSPost2010Prop36
280
     0
102
RTVSPost2010PropOp36
 70
     0
102
RTVSPost2010Prop37
 90
       50
102
RTVSPost2010PropOp37
 70
     0
102
RTVSPost2010Prop38
140
0.0
102
RTVSPost2010PropOp38
 70
     0
102
RTVSPost2010Prop39
140
1.0
102
RTVSPost2010PropOp39
 70
     0
102
RTVSPost2010Prop40
 90
        0
102
RTVSPost2010PropOp40
 70
     0
102
RTVSPost2010Prop41ColorIndex
 90
       18
102
RTVSPost2010Prop41ColorRGB
 90
        0
102
RTVSPost2010PropOp41
 70
     0
102
RTVSPost2010Prop42
 90
       50
102
RTVSPost2010PropOp42
 70
     0
102
RTVSPost2010Prop43
 90
        3
102
RTVSPost2010PropOp43
 70
     0
102
RTVSPost2010Prop44ColorIndex
 90
        5
102
RTVSPost2010Prop44ColorRGB
 90
      255
102
RTVSPost2010PropOp44
 70
     0
102
RTVSPost2010Prop45
280
     0
102
RTVSPost2010PropOp45
 70
     0
102
RTVSPost2010Prop46
 90
       50
102
RTVSPost2010PropOp46
 70
     0
102
RTVSPost2010Prop47
 90
       50
102
RTVSPost2010PropOp47
 70
     0
102
RTVSPost2010Prop48
 90
       50
102
RTVSPost2010PropOp48
 70
     0
102
RTVSPost2010Prop49
280
     0
102
RTVSPost2010PropOp49
 70
     0
102
RTVSPost2010Prop50
 90
       50
102
RTVSPost2010PropOp50
 70
     0
102
RTVSPost2010Prop51ColorIndex
 90
      256
102
RTVSPost2010Prop51ColorRGB
 90
-16777216
102
RTVSPost2010PropOp51
 70
     0
102
RTVSPost2010Prop52
140
1.0
102
RTVSPost2010PropOp52
 70
     0
102
RTVSPost2010Prop53
 90
        2
102
RTVSPost2010PropOp53
 70
     0
102
RTVSPost2010Prop54
  1
strokes_ogs.tif
102
RTVSPost2010PropOp54
 70
     0
102
RTVSPost2010Prop55
280
     0
102
RTVSPost2010PropOp55
 70
     0
102
RTVSPost2010Prop56
140
1.0
102
RTVSPost2010PropOp56
 70
     0
102
RTVSPost2010Prop57
140
1.0
102
RTVSPost2010PropOp57
 70
     0
  0
XRECORD
  5
186
102
{ACAD_REACTORS
330
185
102
}
330
185
100
AcDbXrecord
280
     1
102
RTVSPost2010Prop28
280
     0
102
RTVSPost2010PropOp28
 70
     1
102
RTVSPost2010Prop29
280
     1
102
RTVSPost2010PropOp29
 70
     1
102
RTVSPost2010Prop30
280
     1
102
RTVSPost2010PropOp30
 70
     1
102
RTVSPost2010Prop31
280
     0
102
RTVSPost2010PropOp31
 70
     1
102
RTVSPost2010Prop32
280
     0
102
RTVSPost2010PropOp32
 70
     1
102
RTVSPost2010Prop33
280
     0
102
RTVSPost2010PropOp33
 70
     1
102
RTVSPost2010Prop34
280
     0
102
RTVSPost2010PropOp34
 70
     1
102
RTVSPost2010Prop35
280
     0
102
RTVSPost2010PropOp35
 70
     1
102
RTVSPost2010Prop36
280
     0
102
RTVSPost2010PropOp36
 70
     1
102
RTVSPost2010Prop37
 90
       50
102
RTVSPost2010PropOp37
 70
     1
102
RTVSPost2010Prop38
140
0.0
102
RTVSPost2010PropOp38
 70
     1
102
RTVSPost2010Prop39
140
1.0
102
RTVSPost2010PropOp39
 70
     1
102
RTVSPost2010Prop40
 90
        0
102
RTVSPost2010PropOp40
 70
     1
102
RTVSPost2010Prop41ColorIndex
 90
       18
102
RTVSPost2010Prop41ColorRGB
 90
        0
102
RTVSPost2010PropOp41
 70
     1
102
RTVSPost2010Prop42
 90
       50
102
RTVSPost2010PropOp42
 70
     1
102
RTVSPost2010Prop43
 90
        3
102
RTVSPost2010PropOp43
 70
     1
102
RTVSPost2010Prop44ColorIndex
 90
        5
102
RTVSPost2010Prop44ColorRGB
 90
      255
102
RTVSPost2010PropOp44
 70
     1
102
RTVSPost2010Prop45
280
     0
102
RTVSPost2010PropOp45
 70
     1
102
RTVSPost2010Prop46
 90
       50
102
RTVSPost2010PropOp46
 70
     1
102
RTVSPost2010Prop47
 90
       50
102
RTVSPost2010PropOp47
 70
     1
102
RTVSPost2010Prop48
 90
       50
102
RTVSPost2010PropOp48
 70
     1
102
RTVSPost2010Prop49
280
     0
102
RTVSPost2010PropOp49
 70
     1
102
RTVSPost2010Prop50
 90
       50
102
RTVSPost2010PropOp50
 70
     1
102
RTVSPost2010Prop51ColorIndex
 90
      256
102
RTVSPost2010Prop51ColorRGB
 90
-16777216
102
RTVSPost2010PropOp51
 70
     0
102
RTVSPost2010Prop52
140
1.0
102
RTVSPost2010PropOp52
 70
     0
102
RTVSPost2010Prop53
 90
        2
102
RTVSPost2010PropOp53
 70
     1
102
RTVSPost2010Prop54
  1
strokes_ogs.tif
102
RTVSPost2010PropOp54
 70
     1
102
RTVSPost2010Prop55
280
     0
102
RTVSPost2010PropOp55
 70
     1
102
RTVSPost2010Prop56
140
1.0
102
RTVSPost2010PropOp56
 70
     1
102
RTVSPost2010Prop57
140
1.0
102
RTVSPost2010PropOp57
 70
     1
  0
XRECORD
  5
16A
102
{ACAD_REACTORS
330
169
102
}
330
169
100
AcDbXrecord
280
     1
102
RTVSPost2010Prop28
280
     0
102
RTVSPost2010PropOp28
 70
     1
102
RTVSPost2010Prop29
280
     1
102
RTVSPost2010PropOp29
 70
     1
102
RTVSPost2010Prop30
280
     1
102
RTVSPost2010PropOp30
 70
     1
102
RTVSPost2010Prop31
280
     0
102
RTVSPost2010PropOp31
 70
     1
102
RTVSPost2010Prop32
280
     0
102
RTVSPost2010PropOp32
 70
     1
102
RTVSPost2010Prop33
280
     0
102
RTVSPost2010PropOp33
 70
     1
102
RTVSPost2010Prop34
280
     0
102
RTVSPost2010PropOp34
 70
     1
102
RTVSPost2010Prop35
280
     0
102
RTVSPost2010PropOp35
 70
     1
102
RTVSPost2010Prop36
280
     0
102
RTVSPost2010PropOp36
 70
     1
102
RTVSPost2010Prop37
 90
       50
102
RTVSPost2010PropOp37
 70
     1
102
RTVSPost2010Prop38
140
0.0
102
RTVSPost2010PropOp38
 70
     1
102
RTVSPost2010Prop39
140
1.0
102
RTVSPost2010PropOp39
 70
     1
102
RTVSPost2010Prop40
 90
        0
102
RTVSPost2010PropOp40
 70
     1
102
RTVSPost2010Prop41ColorIndex
 90
       18
102
RTVSPost2010Prop41ColorRGB
 90
        0
102
RTVSPost2010PropOp41
 70
     1
102
RTVSPost2010Prop42
 90
       50
102
RTVSPost2010PropOp42
 70
     1
102
RTVSPost2010Prop43
 90
        3
102
RTVSPost2010PropOp43
 70
     1
102
RTVSPost2010Prop44ColorIndex
 90
        5
102
RTVSPost2010Prop44ColorRGB
 90
      255
102
RTVSPost2010PropOp44
 70
     1
102
RTVSPost2010Prop45
280
     0
102
RTVSPost2010PropOp45
 70
     1
102
RTVSPost2010Prop46
 90
       50
102
RTVSPost2010PropOp46
 70
     1
102
RTVSPost2010Prop47
 90
       50
102
RTVSPost2010PropOp47
 70
     1
102
RTVSPost2010Prop48
 90
       50
102
RTVSPost2010PropOp48
 70
     1
102
RTVSPost2010Prop49
280
     0
102
RTVSPost2010PropOp49
 70
     1
102
RTVSPost2010Prop50
 90
       50
102
RTVSPost2010PropOp50
 70
     1
102
RTVSPost2010Prop51ColorIndex
 90
      256
102
RTVSPost2010Prop51ColorRGB
 90
-16777216
102
RTVSPost2010PropOp51
 70
     0
102
RTVSPost2010Prop52
140
1.0
102
RTVSPost2010PropOp52
 70
     0
102
RTVSPost2010Prop53
 90
        2
102
RTVSPost2010PropOp53
 70
     1
102
RTVSPost2010Prop54
  1
strokes_ogs.tif
102
RTVSPost2010PropOp54
 70
     1
102
RTVSPost2010Prop55
280
     0
102
RTVSPost2010PropOp55
 70
     1
102
RTVSPost2010Prop56
140
1.0
102
RTVSPost2010PropOp56
 70
     1
102
RTVSPost2010Prop57
140
1.0
102
RTVSPost2010PropOp57
 70
     1
  0
XRECORD
  5
16C
102
{ACAD_REACTORS
330
16B
102
}
330
16B
100
AcDbXrecord
280
     1
102
RTVSPost2010Prop28
280
     0
102
RTVSPost2010PropOp28
 70
     1
102
RTVSPost2010Prop29
280
     1
102
RTVSPost2010PropOp29
 70
     1
102
RTVSPost2010Prop30
280
     1
102
RTVSPost2010PropOp30
 70
     1
102
RTVSPost2010Prop31
280
     0
102
RTVSPost2010PropOp31
 70
     1
102
RTVSPost2010Prop32
280
     0
102
RTVSPost2010PropOp32
 70
     1
102
RTVSPost2010Prop33
280
     0
102
RTVSPost2010PropOp33
 70
     1
102
RTVSPost2010Prop34
280
     0
102
RTVSPost2010PropOp34
 70
     1
102
RTVSPost2010Prop35
280
     0
102
RTVSPost2010PropOp35
 70
     1
102
RTVSPost2010Prop36
280
     0
102
RTVSPost2010PropOp36
 70
     1
102
RTVSPost2010Prop37
 90
       50
102
RTVSPost2010PropOp37
 70
     1
102
RTVSPost2010Prop38
140
0.0
102
RTVSPost2010PropOp38
 70
     1
102
RTVSPost2010Prop39
140
1.0
102
RTVSPost2010PropOp39
 70
     1
102
RTVSPost2010Prop40
 90
        0
102
RTVSPost2010PropOp40
 70
     1
102
RTVSPost2010Prop41ColorIndex
 90
       18
102
RTVSPost2010Prop41ColorRGB
 90
        0
102
RTVSPost2010PropOp41
 70
     1
102
RTVSPost2010Prop42
 90
       50
102
RTVSPost2010PropOp42
 70
     1
102
RTVSPost2010Prop43
 90
        3
102
RTVSPost2010PropOp43
 70
     1
102
RTVSPost2010Prop44ColorIndex
 90
        5
102
RTVSPost2010Prop44ColorRGB
 90
      255
102
RTVSPost2010PropOp44
 70
     1
102
RTVSPost2010Prop45
280
     0
102
RTVSPost2010PropOp45
 70
     1
102
RTVSPost2010Prop46
 90
       50
102
RTVSPost2010PropOp46
 70
     1
102
RTVSPost2010Prop47
 90
       50
102
RTVSPost2010PropOp47
 70
     1
102
RTVSPost2010Prop48
 90
       50
102
RTVSPost2010PropOp48
 70
     1
102
RTVSPost2010Prop49
280
     0
102
RTVSPost2010PropOp49
 70
     1
102
RTVSPost2010Prop50
 90
       50
102
RTVSPost2010PropOp50
 70
     1
102
RTVSPost2010Prop51ColorIndex
 90
      256
102
RTVSPost2010Prop51ColorRGB
 90
-16777216
102
RTVSPost2010PropOp51
 70
     0
102
RTVSPost2010Prop52
140
1.0
102
RTVSPost2010PropOp52
 70
     0
102
RTVSPost2010Prop53
 90
        2
102
RTVSPost2010PropOp53
 70
     1
102
RTVSPost2010Prop54
  1
strokes_ogs.tif
102
RTVSPost2010PropOp54
 70
     1
102
RTVSPost2010Prop55
280
     0
102
RTVSPost2010PropOp55
 70
     1
102
RTVSPost2010Prop56
140
1.0
102
RTVSPost2010PropOp56
 70
     1
102
RTVSPost2010Prop57
140
1.0
102
RTVSPost2010PropOp57
 70
     1
  0
XRECORD
  5
16E
102
{ACAD_REACTORS
330
16D
102
}
330
16D
100
AcDbXrecord
280
     1
102
RTVSPost2010Prop28
280
     0
102
RTVSPost2010PropOp28
 70
     1
102
RTVSPost2010Prop29
280
     1
102
RTVSPost2010PropOp29
 70
     1
102
RTVSPost2010Prop30
280
     1
102
RTVSPost2010PropOp30
 70
     1
102
RTVSPost2010Prop31
280
     0
102
RTVSPost2010PropOp31
 70
     1
102
RTVSPost2010Prop32
280
     0
102
RTVSPost2010PropOp32
 70
     1
102
RTVSPost2010Prop33
280
     0
102
RTVSPost2010PropOp33
 70
     1
102
RTVSPost2010Prop34
280
     0
102
RTVSPost2010PropOp34
 70
     1
102
RTVSPost2010Prop35
280
     0
102
RTVSPost2010PropOp35
 70
     1
102
RTVSPost2010Prop36
280
     0
102
RTVSPost2010PropOp36
 70
     1
102
RTVSPost2010Prop37
 90
       50
102
RTVSPost2010PropOp37
 70
     1
102
RTVSPost2010Prop38
140
0.0
102
RTVSPost2010PropOp38
 70
     1
102
RTVSPost2010Prop39
140
1.0
102
RTVSPost2010PropOp39
 70
     1
102
RTVSPost2010Prop40
 90
        0
102
RTVSPost2010PropOp40
 70
     1
102
RTVSPost2010Prop41ColorIndex
 90
       18
102
RTVSPost2010Prop41ColorRGB
 90
        0
102
RTVSPost2010PropOp41
 70
     1
102
RTVSPost2010Prop42
 90
       50
102
RTVSPost2010PropOp42
 70
     1
102
RTVSPost2010Prop43
 90
        3
102
RTVSPost2010PropOp43
 70
     1
102
RTVSPost2010Prop44ColorIndex
 90
        5
102
RTVSPost2010Prop44ColorRGB
 90
      255
102
RTVSPost2010PropOp44
 70
     1
102
RTVSPost2010Prop45
280
     0
102
RTVSPost2010PropOp45
 70
     1
102
RTVSPost2010Prop46
 90
       50
102
RTVSPost2010PropOp46
 70
     1
102
RTVSPost2010Prop47
 90
       50
102
RTVSPost2010PropOp47
 70
     1
102
RTVSPost2010Prop48
 90
       50
102
RTVSPost2010PropOp48
 70
     1
102
RTVSPost2010Prop49
280
     0
102
RTVSPost2010PropOp49
 70
     1
102
RTVSPost2010Prop50
 90
       50
102
RTVSPost2010PropOp50
 70
     1
102
RTVSPost2010Prop51ColorIndex
 90
      256
102
RTVSPost2010Prop51ColorRGB
 90
-16777216
102
RTVSPost2010PropOp51
 70
     0
102
RTVSPost2010Prop52
140
1.0
102
RTVSPost2010PropOp52
 70
     0
102
RTVSPost2010Prop53
 90
        2
102
RTVSPost2010PropOp53
 70
     1
102
RTVSPost2010Prop54
  1
strokes_ogs.tif
102
RTVSPost2010PropOp54
 70
     1
102
RTVSPost2010Prop55
280
     0
102
RTVSPost2010PropOp55
 70
     1
102
RTVSPost2010Prop56
140
1.0
102
RTVSPost2010PropOp56
 70
     1
102
RTVSPost2010Prop57
140
1.0
102
RTVSPost2010PropOp57
 70
     1
  0
XRECORD
  5
170
102
{ACAD_REACTORS
330
16F
102
}
330
16F
100
AcDbXrecord
280
     1
102
RTVSPost2010Prop28
280
     0
102
RTVSPost2010PropOp28
 70
     1
102
RTVSPost2010Prop29
280
     1
102
RTVSPost2010PropOp29
 70
     1
102
RTVSPost2010Prop30
280
     1
102
RTVSPost2010PropOp30
 70
     1
102
RTVSPost2010Prop31
280
     0
102
RTVSPost2010PropOp31
 70
     1
102
RTVSPost2010Prop32
280
     0
102
RTVSPost2010PropOp32
 70
     1
102
RTVSPost2010Prop33
280
     0
102
RTVSPost2010PropOp33
 70
     1
102
RTVSPost2010Prop34
280
     0
102
RTVSPost2010PropOp34
 70
     1
102
RTVSPost2010Prop35
280
     0
102
RTVSPost2010PropOp35
 70
     1
102
RTVSPost2010Prop36
280
     0
102
RTVSPost2010PropOp36
 70
     1
102
RTVSPost2010Prop37
 90
       50
102
RTVSPost2010PropOp37
 70
     1
102
RTVSPost2010Prop38
140
0.0
102
RTVSPost2010PropOp38
 70
     1
102
RTVSPost2010Prop39
140
1.0
102
RTVSPost2010PropOp39
 70
     1
102
RTVSPost2010Prop40
 90
        0
102
RTVSPost2010PropOp40
 70
     1
102
RTVSPost2010Prop41ColorIndex
 90
       18
102
RTVSPost2010Prop41ColorRGB
 90
        0
102
RTVSPost2010PropOp41
 70
     1
102
RTVSPost2010Prop42
 90
       50
102
RTVSPost2010PropOp42
 70
     1
102
RTVSPost2010Prop43
 90
        3
102
RTVSPost2010PropOp43
 70
     1
102
RTVSPost2010Prop44ColorIndex
 90
        5
102
RTVSPost2010Prop44ColorRGB
 90
      255
102
RTVSPost2010PropOp44
 70
     1
102
RTVSPost2010Prop45
280
     0
102
RTVSPost2010PropOp45
 70
     1
102
RTVSPost2010Prop46
 90
       50
102
RTVSPost2010PropOp46
 70
     1
102
RTVSPost2010Prop47
 90
       50
102
RTVSPost2010PropOp47
 70
     1
102
RTVSPost2010Prop48
 90
       50
102
RTVSPost2010PropOp48
 70
     1
102
RTVSPost2010Prop49
280
     0
102
RTVSPost2010PropOp49
 70
     1
102
RTVSPost2010Prop50
 90
       50
102
RTVSPost2010PropOp50
 70
     1
102
RTVSPost2010Prop51ColorIndex
 90
      256
102
RTVSPost2010Prop51ColorRGB
 90
-16777216
102
RTVSPost2010PropOp51
 70
     0
102
RTVSPost2010Prop52
140
1.0
102
RTVSPost2010PropOp52
 70
     0
102
RTVSPost2010Prop53
 90
        2
102
RTVSPost2010PropOp53
 70
     1
102
RTVSPost2010Prop54
  1
strokes_ogs.tif
102
RTVSPost2010PropOp54
 70
     1
102
RTVSPost2010Prop55
280
     0
102
RTVSPost2010PropOp55
 70
     1
102
RTVSPost2010Prop56
140
1.0
102
RTVSPost2010PropOp56
 70
     1
102
RTVSPost2010Prop57
140
1.0
102
RTVSPost2010PropOp57
 70
     1
  0
XRECORD
  5
176
102
{ACAD_REACTORS
330
175
102
}
330
175
100
AcDbXrecord
280
     1
102
RTVSPost2010Prop28
280
     0
102
RTVSPost2010PropOp28
 70
     1
102
RTVSPost2010Prop29
280
     1
102
RTVSPost2010PropOp29
 70
     1
102
RTVSPost2010Prop30
280
     1
102
RTVSPost2010PropOp30
 70
     1
102
RTVSPost2010Prop31
280
     0
102
RTVSPost2010PropOp31
 70
     1
102
RTVSPost2010Prop32
280
     0
102
RTVSPost2010PropOp32
 70
     1
102
RTVSPost2010Prop33
280
     0
102
RTVSPost2010PropOp33
 70
     1
102
RTVSPost2010Prop34
280
     0
102
RTVSPost2010PropOp34
 70
     1
102
RTVSPost2010Prop35
280
     0
102
RTVSPost2010PropOp35
 70
     1
102
RTVSPost2010Prop36
280
     0
102
RTVSPost2010PropOp36
 70
     1
102
RTVSPost2010Prop37
 90
       50
102
RTVSPost2010PropOp37
 70
     1
102
RTVSPost2010Prop38
140
0.0
102
RTVSPost2010PropOp38
 70
     1
102
RTVSPost2010Prop39
140
1.0
102
RTVSPost2010PropOp39
 70
     1
102
RTVSPost2010Prop40
 90
        0
102
RTVSPost2010PropOp40
 70
     1
102
RTVSPost2010Prop41ColorIndex
 90
       18
102
RTVSPost2010Prop41ColorRGB
 90
        0
102
RTVSPost2010PropOp41
 70
     1
102
RTVSPost2010Prop42
 90
       50
102
RTVSPost2010PropOp42
 70
     1
102
RTVSPost2010Prop43
 90
        3
102
RTVSPost2010PropOp43
 70
     1
102
RTVSPost2010Prop44ColorIndex
 90
        5
102
RTVSPost2010Prop44ColorRGB
 90
      255
102
RTVSPost2010PropOp44
 70
     1
102
RTVSPost2010Prop45
280
     0
102
RTVSPost2010PropOp45
 70
     1
102
RTVSPost2010Prop46
 90
       50
102
RTVSPost2010PropOp46
 70
     1
102
RTVSPost2010Prop47
 90
       50
102
RTVSPost2010PropOp47
 70
     1
102
RTVSPost2010Prop48
 90
       50
102
RTVSPost2010PropOp48
 70
     1
102
RTVSPost2010Prop49
280
     0
102
RTVSPost2010PropOp49
 70
     1
102
RTVSPost2010Prop50
 90
       50
102
RTVSPost2010PropOp50
 70
     1
102
RTVSPost2010Prop51ColorIndex
 90
      256
102
RTVSPost2010Prop51ColorRGB
 90
-16777216
102
RTVSPost2010PropOp51
 70
     0
102
RTVSPost2010Prop52
140
1.0
102
RTVSPost2010PropOp52
 70
     0
102
RTVSPost2010Prop53
 90
        2
102
RTVSPost2010PropOp53
 70
     1
102
RTVSPost2010Prop54
  1
strokes_ogs.tif
102
RTVSPost2010PropOp54
 70
     1
102
RTVSPost2010Prop55
280
     0
102
RTVSPost2010PropOp55
 70
     1
102
RTVSPost2010Prop56
140
1.0
102
RTVSPost2010PropOp56
 70
     1
102
RTVSPost2010Prop57
140
1.0
102
RTVSPost2010PropOp57
 70
     1
  0
XRECORD
  5
18A
102
{ACAD_REACTORS
330
189
102
}
330
189
100
AcDbXrecord
280
     1
102
RTVSPost2010Prop28
280
     0
102
RTVSPost2010PropOp28
 70
     0
102
RTVSPost2010Prop29
280
     1
102
RTVSPost2010PropOp29
 70
     0
102
RTVSPost2010Prop30
280
     1
102
RTVSPost2010PropOp30
 70
     0
102
RTVSPost2010Prop31
280
     0
102
RTVSPost2010PropOp31
 70
     0
102
RTVSPost2010Prop32
280
     0
102
RTVSPost2010PropOp32
 70
     0
102
RTVSPost2010Prop33
280
     0
102
RTVSPost2010PropOp33
 70
     0
102
RTVSPost2010Prop34
280
     0
102
RTVSPost2010PropOp34
 70
     0
102
RTVSPost2010Prop35
280
     0
102
RTVSPost2010PropOp35
 70
     0
102
RTVSPost2010Prop36
280
     0
102
RTVSPost2010PropOp36
 70
     0
102
RTVSPost2010Prop37
 90
       50
102
RTVSPost2010PropOp37
 70
     0
102
RTVSPost2010Prop38
140
0.0
102
RTVSPost2010PropOp38
 70
     0
102
RTVSPost2010Prop39
140
1.0
102
RTVSPost2010PropOp39
 70
     0
102
RTVSPost2010Prop40
 90
        0
102
RTVSPost2010PropOp40
 70
     0
102
RTVSPost2010Prop41ColorIndex
 90
       18
102
RTVSPost2010Prop41ColorRGB
 90
        0
102
RTVSPost2010PropOp41
 70
     0
102
RTVSPost2010Prop42
 90
       50
102
RTVSPost2010PropOp42
 70
     0
102
RTVSPost2010Prop43
 90
        3
102
RTVSPost2010PropOp43
 70
     0
102
RTVSPost2010Prop44ColorIndex
 90
        5
102
RTVSPost2010Prop44ColorRGB
 90
      255
102
RTVSPost2010PropOp44
 70
     0
102
RTVSPost2010Prop45
280
     0
102
RTVSPost2010PropOp45
 70
     0
102
RTVSPost2010Prop46
 90
       50
102
RTVSPost2010PropOp46
 70
     0
102
RTVSPost2010Prop47
 90
       50
102
RTVSPost2010PropOp47
 70
     0
102
RTVSPost2010Prop48
 90
       50
102
RTVSPost2010PropOp48
 70
     0
102
RTVSPost2010Prop49
280
     0
102
RTVSPost2010PropOp49
 70
     0
102
RTVSPost2010Prop50
 90
       50
102
RTVSPost2010PropOp50
 70
     0
102
RTVSPost2010Prop51ColorIndex
 90
      256
102
RTVSPost2010Prop51ColorRGB
 90
-16777216
102
RTVSPost2010PropOp51
 70
     0
102
RTVSPost2010Prop52
140
1.0
102
RTVSPost2010PropOp52
 70
     0
102
RTVSPost2010Prop53
 90
        2
102
RTVSPost2010PropOp53
 70
     0
102
RTVSPost2010Prop54
  1
strokes_ogs.tif
102
RTVSPost2010PropOp54
 70
     0
102
RTVSPost2010Prop55
280
     0
102
RTVSPost2010PropOp55
 70
     0
102
RTVSPost2010Prop56
140
1.0
102
RTVSPost2010PropOp56
 70
     0
102
RTVSPost2010Prop57
140
1.0
102
RTVSPost2010PropOp57
 70
     0
  0
XRECORD
  5
184
102
{ACAD_REACTORS
330
183
102
}
330
183
100
AcDbXrecord
280
     1
102
RTVSPost2010Prop28
280
     0
102
RTVSPost2010PropOp28
 70
     1
102
RTVSPost2010Prop29
280
     1
102
RTVSPost2010PropOp29
 70
     1
102
RTVSPost2010Prop30
280
     1
102
RTVSPost2010PropOp30
 70
     1
102
RTVSPost2010Prop31
280
     0
102
RTVSPost2010PropOp31
 70
     1
102
RTVSPost2010Prop32
280
     0
102
RTVSPost2010PropOp32
 70
     1
102
RTVSPost2010Prop33
280
     0
102
RTVSPost2010PropOp33
 70
     1
102
RTVSPost2010Prop34
280
     0
102
RTVSPost2010PropOp34
 70
     1
102
RTVSPost2010Prop35
280
     0
102
RTVSPost2010PropOp35
 70
     1
102
RTVSPost2010Prop36
280
     0
102
RTVSPost2010PropOp36
 70
     1
102
RTVSPost2010Prop37
 90
       50
102
RTVSPost2010PropOp37
 70
     1
102
RTVSPost2010Prop38
140
0.0
102
RTVSPost2010PropOp38
 70
     1
102
RTVSPost2010Prop39
140
1.0
102
RTVSPost2010PropOp39
 70
     1
102
RTVSPost2010Prop40
 90
        0
102
RTVSPost2010PropOp40
 70
     1
102
RTVSPost2010Prop41ColorIndex
 90
       18
102
RTVSPost2010Prop41ColorRGB
 90
        0
102
RTVSPost2010PropOp41
 70
     1
102
RTVSPost2010Prop42
 90
       50
102
RTVSPost2010PropOp42
 70
     1
102
RTVSPost2010Prop43
 90
        3
102
RTVSPost2010PropOp43
 70
     1
102
RTVSPost2010Prop44ColorIndex
 90
        5
102
RTVSPost2010Prop44ColorRGB
 90
      255
102
RTVSPost2010PropOp44
 70
     1
102
RTVSPost2010Prop45
280
     0
102
RTVSPost2010PropOp45
 70
     1
102
RTVSPost2010Prop46
 90
       50
102
RTVSPost2010PropOp46
 70
     1
102
RTVSPost2010Prop47
 90
       50
102
RTVSPost2010PropOp47
 70
     1
102
RTVSPost2010Prop48
 90
       50
102
RTVSPost2010PropOp48
 70
     1
102
RTVSPost2010Prop49
280
     0
102
RTVSPost2010PropOp49
 70
     1
102
RTVSPost2010Prop50
 90
       50
102
RTVSPost2010PropOp50
 70
     1
102
RTVSPost2010Prop51ColorIndex
 90
      256
102
RTVSPost2010Prop51ColorRGB
 90
-16777216
102
RTVSPost2010PropOp51
 70
     0
102
RTVSPost2010Prop52
140
1.0
102
RTVSPost2010PropOp52
 70
     0
102
RTVSPost2010Prop53
 90
        2
102
RTVSPost2010PropOp53
 70
     1
102
RTVSPost2010Prop54
  1
strokes_ogs.tif
102
RTVSPost2010PropOp54
 70
     1
102
RTVSPost2010Prop55
280
     0
102
RTVSPost2010PropOp55
 70
     1
102
RTVSPost2010Prop56
140
1.0
102
RTVSPost2010PropOp56
 70
     1
102
RTVSPost2010Prop57
140
1.0
102
RTVSPost2010PropOp57
 70
     1
  0
XRECORD
  5
18C
102
{ACAD_REACTORS
330
18B
102
}
330
18B
100
AcDbXrecord
280
     1
102
RTVSPost2010Prop28
280
     0
102
RTVSPost2010PropOp28
 70
     0
102
RTVSPost2010Prop29
280
     1
102
RTVSPost2010PropOp29
 70
     0
102
RTVSPost2010Prop30
280
     1
102
RTVSPost2010PropOp30
 70
     0
102
RTVSPost2010Prop31
280
     0
102
RTVSPost2010PropOp31
 70
     0
102
RTVSPost2010Prop32
280
     0
102
RTVSPost2010PropOp32
 70
     0
102
RTVSPost2010Prop33
280
     0
102
RTVSPost2010PropOp33
 70
     0
102
RTVSPost2010Prop34
280
     0
102
RTVSPost2010PropOp34
 70
     0
102
RTVSPost2010Prop35
280
     0
102
RTVSPost2010PropOp35
 70
     0
102
RTVSPost2010Prop36
280
     0
102
RTVSPost2010PropOp36
 70
     0
102
RTVSPost2010Prop37
 90
       50
102
RTVSPost2010PropOp37
 70
     0
102
RTVSPost2010Prop38
140
0.0
102
RTVSPost2010PropOp38
 70
     0
102
RTVSPost2010Prop39
140
1.0
102
RTVSPost2010PropOp39
 70
     0
102
RTVSPost2010Prop40
 90
        0
102
RTVSPost2010PropOp40
 70
     0
102
RTVSPost2010Prop41ColorIndex
 90
       18
102
RTVSPost2010Prop41ColorRGB
 90
        0
102
RTVSPost2010PropOp41
 70
     0
102
RTVSPost2010Prop42
 90
       50
102
RTVSPost2010PropOp42
 70
     0
102
RTVSPost2010Prop43
 90
        3
102
RTVSPost2010PropOp43
 70
     0
102
RTVSPost2010Prop44ColorIndex
 90
        5
102
RTVSPost2010Prop44ColorRGB
 90
      255
102
RTVSPost2010PropOp44
 70
     0
102
RTVSPost2010Prop45
280
     0
102
RTVSPost2010PropOp45
 70
     0
102
RTVSPost2010Prop46
 90
       50
102
RTVSPost2010PropOp46
 70
     0
102
RTVSPost2010Prop47
 90
       50
102
RTVSPost2010PropOp47
 70
     0
102
RTVSPost2010Prop48
 90
       50
102
RTVSPost2010PropOp48
 70
     0
102
RTVSPost2010Prop49
280
     0
102
RTVSPost2010PropOp49
 70
     0
102
RTVSPost2010Prop50
 90
       50
102
RTVSPost2010PropOp50
 70
     0
102
RTVSPost2010Prop51ColorIndex
 90
      256
102
RTVSPost2010Prop51ColorRGB
 90
-16777216
102
RTVSPost2010PropOp51
 70
     0
102
RTVSPost2010Prop52
140
1.0
102
RTVSPost2010PropOp52
 70
     0
102
RTVSPost2010Prop53
 90
        2
102
RTVSPost2010PropOp53
 70
     0
102
RTVSPost2010Prop54
  1
strokes_ogs.tif
102
RTVSPost2010PropOp54
 70
     0
102
RTVSPost2010Prop55
280
     0
102
RTVSPost2010PropOp55
 70
     0
102
RTVSPost2010Prop56
140
1.0
102
RTVSPost2010PropOp56
 70
     0
102
RTVSPost2010Prop57
140
1.0
102
RTVSPost2010PropOp57
 70
     0
  0
XRECORD
  5
17A
102
{ACAD_REACTORS
330
179
102
}
330
179
100
AcDbXrecord
280
     1
102
RTVSPost2010Prop28
280
     0
102
RTVSPost2010PropOp28
 70
     1
102
RTVSPost2010Prop29
280
     1
102
RTVSPost2010PropOp29
 70
     1
102
RTVSPost2010Prop30
280
     1
102
RTVSPost2010PropOp30
 70
     1
102
RTVSPost2010Prop31
280
     0
102
RTVSPost2010PropOp31
 70
     1
102
RTVSPost2010Prop32
280
     0
102
RTVSPost2010PropOp32
 70
     1
102
RTVSPost2010Prop33
280
     0
102
RTVSPost2010PropOp33
 70
     1
102
RTVSPost2010Prop34
280
     0
102
RTVSPost2010PropOp34
 70
     1
102
RTVSPost2010Prop35
280
     0
102
RTVSPost2010PropOp35
 70
     1
102
RTVSPost2010Prop36
280
     0
102
RTVSPost2010PropOp36
 70
     1
102
RTVSPost2010Prop37
 90
       50
102
RTVSPost2010PropOp37
 70
     1
102
RTVSPost2010Prop38
140
0.0
102
RTVSPost2010PropOp38
 70
     1
102
RTVSPost2010Prop39
140
1.0
102
RTVSPost2010PropOp39
 70
     1
102
RTVSPost2010Prop40
 90
        0
102
RTVSPost2010PropOp40
 70
     1
102
RTVSPost2010Prop41ColorIndex
 90
       18
102
RTVSPost2010Prop41ColorRGB
 90
        0
102
RTVSPost2010PropOp41
 70
     1
102
RTVSPost2010Prop42
 90
       50
102
RTVSPost2010PropOp42
 70
     1
102
RTVSPost2010Prop43
 90
        3
102
RTVSPost2010PropOp43
 70
     1
102
RTVSPost2010Prop44ColorIndex
 90
        5
102
RTVSPost2010Prop44ColorRGB
 90
      255
102
RTVSPost2010PropOp44
 70
     1
102
RTVSPost2010Prop45
280
     0
102
RTVSPost2010PropOp45
 70
     1
102
RTVSPost2010Prop46
 90
       50
102
RTVSPost2010PropOp46
 70
     1
102
RTVSPost2010Prop47
 90
       50
102
RTVSPost2010PropOp47
 70
     1
102
RTVSPost2010Prop48
 90
       50
102
RTVSPost2010PropOp48
 70
     1
102
RTVSPost2010Prop49
280
     0
102
RTVSPost2010PropOp49
 70
     1
102
RTVSPost2010Prop50
 90
       50
102
RTVSPost2010PropOp50
 70
     1
102
RTVSPost2010Prop51ColorIndex
 90
      256
102
RTVSPost2010Prop51ColorRGB
 90
-16777216
102
RTVSPost2010PropOp51
 70
     0
102
RTVSPost2010Prop52
140
1.0
102
RTVSPost2010PropOp52
 70
     0
102
RTVSPost2010Prop53
 90
        2
102
RTVSPost2010PropOp53
 70
     1
102
RTVSPost2010Prop54
  1
strokes_ogs.tif
102
RTVSPost2010PropOp54
 70
     1
102
RTVSPost2010Prop55
280
     0
102
RTVSPost2010PropOp55
 70
     1
102
RTVSPost2010Prop56
140
1.0
102
RTVSPost2010PropOp56
 70
     1
102
RTVSPost2010Prop57
140
1.0
102
RTVSPost2010PropOp57
 70
     1
  0
XRECORD
  5
198
102
{ACAD_REACTORS
330
197
102
}
330
197
100
AcDbXrecord
280
     1
102
RTVSPost2010Prop28
280
     0
102
RTVSPost2010PropOp28
 70
     1
102
RTVSPost2010Prop29
280
     1
102
RTVSPost2010PropOp29
 70
     1
102
RTVSPost2010Prop30
280
     1
102
RTVSPost2010PropOp30
 70
     1
102
RTVSPost2010Prop31
280
     0
102
RTVSPost2010PropOp31
 70
     1
102
RTVSPost2010Prop32
280
     0
102
RTVSPost2010PropOp32
 70
     1
102
RTVSPost2010Prop33
280
     0
102
RTVSPost2010PropOp33
 70
     1
102
RTVSPost2010Prop34
280
     0
102
RTVSPost2010PropOp34
 70
     1
102
RTVSPost2010Prop35
280
     0
102
RTVSPost2010PropOp35
 70
     1
102
RTVSPost2010Prop36
280
     0
102
RTVSPost2010PropOp36
 70
     1
102
RTVSPost2010Prop37
 90
       50
102
RTVSPost2010PropOp37
 70
     1
102
RTVSPost2010Prop38
140
0.0
102
RTVSPost2010PropOp38
 70
     1
102
RTVSPost2010Prop39
140
1.0
102
RTVSPost2010PropOp39
 70
     1
102
RTVSPost2010Prop40
 90
        0
102
RTVSPost2010PropOp40
 70
     1
102
RTVSPost2010Prop41ColorIndex
 90
       18
102
RTVSPost2010Prop41ColorRGB
 90
        0
102
RTVSPost2010PropOp41
 70
     1
102
RTVSPost2010Prop42
 90
       50
102
RTVSPost2010PropOp42
 70
     1
102
RTVSPost2010Prop43
 90
        3
102
RTVSPost2010PropOp43
 70
     1
102
RTVSPost2010Prop44ColorIndex
 90
        5
102
RTVSPost2010Prop44ColorRGB
 90
      255
102
RTVSPost2010PropOp44
 70
     1
102
RTVSPost2010Prop45
280
     0
102
RTVSPost2010PropOp45
 70
     1
102
RTVSPost2010Prop46
 90
       50
102
RTVSPost2010PropOp46
 70
     1
102
RTVSPost2010Prop47
 90
       50
102
RTVSPost2010PropOp47
 70
     1
102
RTVSPost2010Prop48
 90
       50
102
RTVSPost2010PropOp48
 70
     1
102
RTVSPost2010Prop49
280
     0
102
RTVSPost2010PropOp49
 70
     1
102
RTVSPost2010Prop50
 90
       50
102
RTVSPost2010PropOp50
 70
     1
102
RTVSPost2010Prop51ColorIndex
 90
      256
102
RTVSPost2010Prop51ColorRGB
 90
-16777216
102
RTVSPost2010PropOp51
 70
     0
102
RTVSPost2010Prop52
140
1.0
102
RTVSPost2010PropOp52
 70
     0
102
RTVSPost2010Prop53
 90
        2
102
RTVSPost2010PropOp53
 70
     1
102
RTVSPost2010Prop54
  1
strokes_ogs.tif
102
RTVSPost2010PropOp54
 70
     1
102
RTVSPost2010Prop55
280
     0
102
RTVSPost2010PropOp55
 70
     1
102
RTVSPost2010Prop56
140
1.0
102
RTVSPost2010PropOp56
 70
     1
102
RTVSPost2010Prop57
140
1.0
102
RTVSPost2010PropOp57
 70
     1
  0
XRECORD
  5
196
102
{ACAD_REACTORS
330
195
102
}
330
195
100
AcDbXrecord
280
     1
102
RTVSPost2010Prop28
280
     0
102
RTVSPost2010PropOp28
 70
     1
102
RTVSPost2010Prop29
280
     1
102
RTVSPost2010PropOp29
 70
     1
102
RTVSPost2010Prop30
280
     1
102
RTVSPost2010PropOp30
 70
     1
102
RTVSPost2010Prop31
280
     0
102
RTVSPost2010PropOp31
 70
     1
102
RTVSPost2010Prop32
280
     0
102
RTVSPost2010PropOp32
 70
     1
102
RTVSPost2010Prop33
280
     0
102
RTVSPost2010PropOp33
 70
     1
102
RTVSPost2010Prop34
280
     0
102
RTVSPost2010PropOp34
 70
     1
102
RTVSPost2010Prop35
280
     0
102
RTVSPost2010PropOp35
 70
     1
102
RTVSPost2010Prop36
280
     0
102
RTVSPost2010PropOp36
 70
     1
102
RTVSPost2010Prop37
 90
       50
102
RTVSPost2010PropOp37
 70
     1
102
RTVSPost2010Prop38
140
0.0
102
RTVSPost2010PropOp38
 70
     1
102
RTVSPost2010Prop39
140
1.0
102
RTVSPost2010PropOp39
 70
     1
102
RTVSPost2010Prop40
 90
        0
102
RTVSPost2010PropOp40
 70
     1
102
RTVSPost2010Prop41ColorIndex
 90
       18
102
RTVSPost2010Prop41ColorRGB
 90
        0
102
RTVSPost2010PropOp41
 70
     1
102
RTVSPost2010Prop42
 90
       50
102
RTVSPost2010PropOp42
 70
     1
102
RTVSPost2010Prop43
 90
        3
102
RTVSPost2010PropOp43
 70
     1
102
RTVSPost2010Prop44ColorIndex
 90
        5
102
RTVSPost2010Prop44ColorRGB
 90
      255
102
RTVSPost2010PropOp44
 70
     1
102
RTVSPost2010Prop45
280
     0
102
RTVSPost2010PropOp45
 70
     1
102
RTVSPost2010Prop46
 90
       50
102
RTVSPost2010PropOp46
 70
     1
102
RTVSPost2010Prop47
 90
       50
102
RTVSPost2010PropOp47
 70
     1
102
RTVSPost2010Prop48
 90
       50
102
RTVSPost2010PropOp48
 70
     1
102
RTVSPost2010Prop49
280
     0
102
RTVSPost2010PropOp49
 70
     1
102
RTVSPost2010Prop50
 90
       50
102
RTVSPost2010PropOp50
 70
     1
102
RTVSPost2010Prop51ColorIndex
 90
      256
102
RTVSPost2010Prop51ColorRGB
 90
-16777216
102
RTVSPost2010PropOp51
 70
     0
102
RTVSPost2010Prop52
140
1.0
102
RTVSPost2010PropOp52
 70
     0
102
RTVSPost2010Prop53
 90
        2
102
RTVSPost2010PropOp53
 70
     1
102
RTVSPost2010Prop54
  1
strokes_ogs.tif
102
RTVSPost2010PropOp54
 70
     1
102
RTVSPost2010Prop55
280
     0
102
RTVSPost2010PropOp55
 70
     1
102
RTVSPost2010Prop56
140
1.0
102
RTVSPost2010PropOp56
 70
     1
102
RTVSPost2010Prop57
140
1.0
102
RTVSPost2010PropOp57
 70
     1
  0
XRECORD
  5
190
102
{ACAD_REACTORS
330
18F
102
}
330
18F
100
AcDbXrecord
280
     1
102
RTVSPost2010Prop28
280
     0
102
RTVSPost2010PropOp28
 70
     1
102
RTVSPost2010Prop29
280
     1
102
RTVSPost2010PropOp29
 70
     1
102
RTVSPost2010Prop30
280
     1
102
RTVSPost2010PropOp30
 70
     1
102
RTVSPost2010Prop31
280
     0
102
RTVSPost2010PropOp31
 70
     1
102
RTVSPost2010Prop32
280
     0
102
RTVSPost2010PropOp32
 70
     1
102
RTVSPost2010Prop33
280
     0
102
RTVSPost2010PropOp33
 70
     1
102
RTVSPost2010Prop34
280
     0
102
RTVSPost2010PropOp34
 70
     1
102
RTVSPost2010Prop35
280
     0
102
RTVSPost2010PropOp35
 70
     1
102
RTVSPost2010Prop36
280
     0
102
RTVSPost2010PropOp36
 70
     1
102
RTVSPost2010Prop37
 90
       50
102
RTVSPost2010PropOp37
 70
     1
102
RTVSPost2010Prop38
140
0.0
102
RTVSPost2010PropOp38
 70
     1
102
RTVSPost2010Prop39
140
1.0
102
RTVSPost2010PropOp39
 70
     1
102
RTVSPost2010Prop40
 90
        0
102
RTVSPost2010PropOp40
 70
     1
102
RTVSPost2010Prop41ColorIndex
 90
       18
102
RTVSPost2010Prop41ColorRGB
 90
        0
102
RTVSPost2010PropOp41
 70
     1
102
RTVSPost2010Prop42
 90
       50
102
RTVSPost2010PropOp42
 70
     1
102
RTVSPost2010Prop43
 90
        3
102
RTVSPost2010PropOp43
 70
     1
102
RTVSPost2010Prop44ColorIndex
 90
        5
102
RTVSPost2010Prop44ColorRGB
 90
      255
102
RTVSPost2010PropOp44
 70
     1
102
RTVSPost2010Prop45
280
     0
102
RTVSPost2010PropOp45
 70
     1
102
RTVSPost2010Prop46
 90
       50
102
RTVSPost2010PropOp46
 70
     1
102
RTVSPost2010Prop47
 90
       50
102
RTVSPost2010PropOp47
 70
     1
102
RTVSPost2010Prop48
 90
       50
102
RTVSPost2010PropOp48
 70
     1
102
RTVSPost2010Prop49
280
     0
102
RTVSPost2010PropOp49
 70
     1
102
RTVSPost2010Prop50
 90
       50
102
RTVSPost2010PropOp50
 70
     1
102
RTVSPost2010Prop51ColorIndex
 90
      256
102
RTVSPost2010Prop51ColorRGB
 90
-16777216
102
RTVSPost2010PropOp51
 70
     0
102
RTVSPost2010Prop52
140
1.0
102
RTVSPost2010PropOp52
 70
     0
102
RTVSPost2010Prop53
 90
        2
102
RTVSPost2010PropOp53
 70
     1
102
RTVSPost2010Prop54
  1
strokes_ogs.tif
102
RTVSPost2010PropOp54
 70
     1
102
RTVSPost2010Prop55
280
     0
102
RTVSPost2010PropOp55
 70
     1
102
RTVSPost2010Prop56
140
1.0
102
RTVSPost2010PropOp56
 70
     1
102
RTVSPost2010Prop57
140
1.0
102
RTVSPost2010PropOp57
 70
     1
  0
XRECORD
  5
192
102
{ACAD_REACTORS
330
191
102
}
330
191
100
AcDbXrecord
280
     1
102
RTVSPost2010Prop28
280
     0
102
RTVSPost2010PropOp28
 70
     1
102
RTVSPost2010Prop29
280
     1
102
RTVSPost2010PropOp29
 70
     1
102
RTVSPost2010Prop30
280
     1
102
RTVSPost2010PropOp30
 70
     1
102
RTVSPost2010Prop31
280
     0
102
RTVSPost2010PropOp31
 70
     1
102
RTVSPost2010Prop32
280
     0
102
RTVSPost2010PropOp32
 70
     1
102
RTVSPost2010Prop33
280
     0
102
RTVSPost2010PropOp33
 70
     1
102
RTVSPost2010Prop34
280
     0
102
RTVSPost2010PropOp34
 70
     1
102
RTVSPost2010Prop35
280
     0
102
RTVSPost2010PropOp35
 70
     1
102
RTVSPost2010Prop36
280
     0
102
RTVSPost2010PropOp36
 70
     1
102
RTVSPost2010Prop37
 90
       50
102
RTVSPost2010PropOp37
 70
     1
102
RTVSPost2010Prop38
140
0.0
102
RTVSPost2010PropOp38
 70
     1
102
RTVSPost2010Prop39
140
1.0
102
RTVSPost2010PropOp39
 70
     1
102
RTVSPost2010Prop40
 90
        0
102
RTVSPost2010PropOp40
 70
     1
102
RTVSPost2010Prop41ColorIndex
 90
       18
102
RTVSPost2010Prop41ColorRGB
 90
        0
102
RTVSPost2010PropOp41
 70
     1
102
RTVSPost2010Prop42
 90
       50
102
RTVSPost2010PropOp42
 70
     1
102
RTVSPost2010Prop43
 90
        3
102
RTVSPost2010PropOp43
 70
     1
102
RTVSPost2010Prop44ColorIndex
 90
        5
102
RTVSPost2010Prop44ColorRGB
 90
      255
102
RTVSPost2010PropOp44
 70
     1
102
RTVSPost2010Prop45
280
     0
102
RTVSPost2010PropOp45
 70
     1
102
RTVSPost2010Prop46
 90
       50
102
RTVSPost2010PropOp46
 70
     1
102
RTVSPost2010Prop47
 90
       50
102
RTVSPost2010PropOp47
 70
     1
102
RTVSPost2010Prop48
 90
       50
102
RTVSPost2010PropOp48
 70
     1
102
RTVSPost2010Prop49
280
     0
102
RTVSPost2010PropOp49
 70
     1
102
RTVSPost2010Prop50
 90
       50
102
RTVSPost2010PropOp50
 70
     1
102
RTVSPost2010Prop51ColorIndex
 90
      256
102
RTVSPost2010Prop51ColorRGB
 90
-16777216
102
RTVSPost2010PropOp51
 70
     0
102
RTVSPost2010Prop52
140
1.0
102
RTVSPost2010PropOp52
 70
     0
102
RTVSPost2010Prop53
 90
        2
102
RTVSPost2010PropOp53
 70
     1
102
RTVSPost2010Prop54
  1
strokes_ogs.tif
102
RTVSPost2010PropOp54
 70
     1
102
RTVSPost2010Prop55
280
     0
102
RTVSPost2010PropOp55
 70
     1
102
RTVSPost2010Prop56
140
1.0
102
RTVSPost2010PropOp56
 70
     1
102
RTVSPost2010Prop57
140
1.0
102
RTVSPost2010PropOp57
 70
     1
  0
XRECORD
  5
182
102
{ACAD_REACTORS
330
181
102
}
330
181
100
AcDbXrecord
280
     1
102
RTVSPost2010Prop28
280
     0
102
RTVSPost2010PropOp28
 70
     1
102
RTVSPost2010Prop29
280
     1
102
RTVSPost2010PropOp29
 70
     1
102
RTVSPost2010Prop30
280
     1
102
RTVSPost2010PropOp30
 70
     1
102
RTVSPost2010Prop31
280
     0
102
RTVSPost2010PropOp31
 70
     1
102
RTVSPost2010Prop32
280
     0
102
RTVSPost2010PropOp32
 70
     1
102
RTVSPost2010Prop33
280
     0
102
RTVSPost2010PropOp33
 70
     1
102
RTVSPost2010Prop34
280
     0
102
RTVSPost2010PropOp34
 70
     1
102
RTVSPost2010Prop35
280
     0
102
RTVSPost2010PropOp35
 70
     1
102
RTVSPost2010Prop36
280
     0
102
RTVSPost2010PropOp36
 70
     1
102
RTVSPost2010Prop37
 90
       50
102
RTVSPost2010PropOp37
 70
     1
102
RTVSPost2010Prop38
140
0.0
102
RTVSPost2010PropOp38
 70
     1
102
RTVSPost2010Prop39
140
1.0
102
RTVSPost2010PropOp39
 70
     1
102
RTVSPost2010Prop40
 90
        0
102
RTVSPost2010PropOp40
 70
     1
102
RTVSPost2010Prop41ColorIndex
 90
       18
102
RTVSPost2010Prop41ColorRGB
 90
        0
102
RTVSPost2010PropOp41
 70
     1
102
RTVSPost2010Prop42
 90
       50
102
RTVSPost2010PropOp42
 70
     1
102
RTVSPost2010Prop43
 90
        3
102
RTVSPost2010PropOp43
 70
     1
102
RTVSPost2010Prop44ColorIndex
 90
        5
102
RTVSPost2010Prop44ColorRGB
 90
      255
102
RTVSPost2010PropOp44
 70
     1
102
RTVSPost2010Prop45
280
     0
102
RTVSPost2010PropOp45
 70
     1
102
RTVSPost2010Prop46
 90
       50
102
RTVSPost2010PropOp46
 70
     1
102
RTVSPost2010Prop47
 90
       50
102
RTVSPost2010PropOp47
 70
     1
102
RTVSPost2010Prop48
 90
       50
102
RTVSPost2010PropOp48
 70
     1
102
RTVSPost2010Prop49
280
     0
102
RTVSPost2010PropOp49
 70
     1
102
RTVSPost2010Prop50
 90
       50
102
RTVSPost2010PropOp50
 70
     1
102
RTVSPost2010Prop51ColorIndex
 90
      256
102
RTVSPost2010Prop51ColorRGB
 90
-16777216
102
RTVSPost2010PropOp51
 70
     0
102
RTVSPost2010Prop52
140
1.0
102
RTVSPost2010PropOp52
 70
     0
102
RTVSPost2010Prop53
 90
        2
102
RTVSPost2010PropOp53
 70
     1
102
RTVSPost2010Prop54
  1
strokes_ogs.tif
102
RTVSPost2010PropOp54
 70
     1
102
RTVSPost2010Prop55
280
     0
102
RTVSPost2010PropOp55
 70
     1
102
RTVSPost2010Prop56
140
1.0
102
RTVSPost2010PropOp56
 70
     1
102
RTVSPost2010Prop57
140
1.0
102
RTVSPost2010PropOp57
 70
     1
  0
XRECORD
  5
174
102
{ACAD_REACTORS
330
173
102
}
330
173
100
AcDbXrecord
280
     1
102
RTVSPost2010Prop28
280
     0
102
RTVSPost2010PropOp28
 70
     1
102
RTVSPost2010Prop29
280
     1
102
RTVSPost2010PropOp29
 70
     1
102
RTVSPost2010Prop30
280
     1
102
RTVSPost2010PropOp30
 70
     1
102
RTVSPost2010Prop31
280
     0
102
RTVSPost2010PropOp31
 70
     1
102
RTVSPost2010Prop32
280
     0
102
RTVSPost2010PropOp32
 70
     1
102
RTVSPost2010Prop33
280
     0
102
RTVSPost2010PropOp33
 70
     1
102
RTVSPost2010Prop34
280
     0
102
RTVSPost2010PropOp34
 70
     1
102
RTVSPost2010Prop35
280
     0
102
RTVSPost2010PropOp35
 70
     1
102
RTVSPost2010Prop36
280
     0
102
RTVSPost2010PropOp36
 70
     1
102
RTVSPost2010Prop37
 90
       50
102
RTVSPost2010PropOp37
 70
     1
102
RTVSPost2010Prop38
140
0.0
102
RTVSPost2010PropOp38
 70
     1
102
RTVSPost2010Prop39
140
1.0
102
RTVSPost2010PropOp39
 70
     1
102
RTVSPost2010Prop40
 90
        0
102
RTVSPost2010PropOp40
 70
     1
102
RTVSPost2010Prop41ColorIndex
 90
       18
102
RTVSPost2010Prop41ColorRGB
 90
        0
102
RTVSPost2010PropOp41
 70
     1
102
RTVSPost2010Prop42
 90
       50
102
RTVSPost2010PropOp42
 70
     1
102
RTVSPost2010Prop43
 90
        3
102
RTVSPost2010PropOp43
 70
     1
102
RTVSPost2010Prop44ColorIndex
 90
        5
102
RTVSPost2010Prop44ColorRGB
 90
      255
102
RTVSPost2010PropOp44
 70
     1
102
RTVSPost2010Prop45
280
     0
102
RTVSPost2010PropOp45
 70
     1
102
RTVSPost2010Prop46
 90
       50
102
RTVSPost2010PropOp46
 70
     1
102
RTVSPost2010Prop47
 90
       50
102
RTVSPost2010PropOp47
 70
     1
102
RTVSPost2010Prop48
 90
       50
102
RTVSPost2010PropOp48
 70
     1
102
RTVSPost2010Prop49
280
     0
102
RTVSPost2010PropOp49
 70
     1
102
RTVSPost2010Prop50
 90
       50
102
RTVSPost2010PropOp50
 70
     1
102
RTVSPost2010Prop51ColorIndex
 90
      256
102
RTVSPost2010Prop51ColorRGB
 90
-16777216
102
RTVSPost2010PropOp51
 70
     0
102
RTVSPost2010Prop52
140
1.0
102
RTVSPost2010PropOp52
 70
     0
102
RTVSPost2010Prop53
 90
        2
102
RTVSPost2010PropOp53
 70
     1
102
RTVSPost2010Prop54
  1
strokes_ogs.tif
102
RTVSPost2010PropOp54
 70
     1
102
RTVSPost2010Prop55
280
     0
102
RTVSPost2010PropOp55
 70
     1
102
RTVSPost2010Prop56
140
1.0
102
RTVSPost2010PropOp56
 70
     1
102
RTVSPost2010Prop57
140
1.0
102
RTVSPost2010PropOp57
 70
     1
  0
XRECORD
  5
194
102
{ACAD_REACTORS
330
193
102
}
330
193
100
AcDbXrecord
280
     1
102
RTVSPost2010Prop28
280
     0
102
RTVSPost2010PropOp28
 70
     1
102
RTVSPost2010Prop29
280
     1
102
RTVSPost2010PropOp29
 70
     1
102
RTVSPost2010Prop30
280
     1
102
RTVSPost2010PropOp30
 70
     1
102
RTVSPost2010Prop31
280
     0
102
RTVSPost2010PropOp31
 70
     1
102
RTVSPost2010Prop32
280
     0
102
RTVSPost2010PropOp32
 70
     1
102
RTVSPost2010Prop33
280
     0
102
RTVSPost2010PropOp33
 70
     1
102
RTVSPost2010Prop34
280
     0
102
RTVSPost2010PropOp34
 70
     1
102
RTVSPost2010Prop35
280
     0
102
RTVSPost2010PropOp35
 70
     1
102
RTVSPost2010Prop36
280
     0
102
RTVSPost2010PropOp36
 70
     1
102
RTVSPost2010Prop37
 90
       50
102
RTVSPost2010PropOp37
 70
     1
102
RTVSPost2010Prop38
140
0.0
102
RTVSPost2010PropOp38
 70
     1
102
RTVSPost2010Prop39
140
1.0
102
RTVSPost2010PropOp39
 70
     1
102
RTVSPost2010Prop40
 90
        0
102
RTVSPost2010PropOp40
 70
     1
102
RTVSPost2010Prop41ColorIndex
 90
       18
102
RTVSPost2010Prop41ColorRGB
 90
        0
102
RTVSPost2010PropOp41
 70
     1
102
RTVSPost2010Prop42
 90
       50
102
RTVSPost2010PropOp42
 70
     1
102
RTVSPost2010Prop43
 90
        3
102
RTVSPost2010PropOp43
 70
     1
102
RTVSPost2010Prop44ColorIndex
 90
        5
102
RTVSPost2010Prop44ColorRGB
 90
      255
102
RTVSPost2010PropOp44
 70
     1
102
RTVSPost2010Prop45
280
     0
102
RTVSPost2010PropOp45
 70
     1
102
RTVSPost2010Prop46
 90
       50
102
RTVSPost2010PropOp46
 70
     1
102
RTVSPost2010Prop47
 90
       50
102
RTVSPost2010PropOp47
 70
     1
102
RTVSPost2010Prop48
 90
       50
102
RTVSPost2010PropOp48
 70
     1
102
RTVSPost2010Prop49
280
     0
102
RTVSPost2010PropOp49
 70
     1
102
RTVSPost2010Prop50
 90
       50
102
RTVSPost2010PropOp50
 70
     1
102
RTVSPost2010Prop51ColorIndex
 90
      256
102
RTVSPost2010Prop51ColorRGB
 90
-16777216
102
RTVSPost2010PropOp51
 70
     0
102
RTVSPost2010Prop52
140
1.0
102
RTVSPost2010PropOp52
 70
     0
102
RTVSPost2010Prop53
 90
        2
102
RTVSPost2010PropOp53
 70
     1
102
RTVSPost2010Prop54
  1
strokes_ogs.tif
102
RTVSPost2010PropOp54
 70
     1
102
RTVSPost2010Prop55
280
     0
102
RTVSPost2010PropOp55
 70
     1
102
RTVSPost2010Prop56
140
1.0
102
RTVSPost2010PropOp56
 70
     1
102
RTVSPost2010Prop57
140
1.0
102
RTVSPost2010PropOp57
 70
     1
  0
ENDSEC
  0
EOF
