  0
SECTION
  2
HEADER
  9
$ACADVER
  1
AC1024
  9
$ACADMAINTVER
 70
     6
  9
$DWGCODEPAGE
  3
ANSI_932
  9
$INSBASE
 10
0.0
 20
0.0
 30
0.0
  9
$EXTMIN
 10
-677.162629
 20
-856.68087
 30
1.000000000000000E+20
  9
$EXTMAX
 10
898.152585
 20
1153.050722
 30
-1.000000000000000E+20
  9
$LIMMIN
 10
-677.162629
 20
-856.68087
  9
$LIMMAX
 10
898.152585
 20
1153.050722
  9
$ORTHOMODE
 70
     0
  9
$REGENMODE
 70
     1
  9
$FILLMODE
 70
     1
  9
$QTEXTMODE
 70
     0
  9
$MIRRTEXT
 70
     1
  9
$LTSCALE
 40
1.0
  9
$ATTMODE
 70
     1
  9
$TEXTSIZE
 40
0.0
  9
$TRACEWID
 40
0.05
  9
$TEXTSTYLE
  7
Standard
  9
$CLAYER
  8
0
  9
$CELTYPE
  6
Continuous
  9
$CECOLOR
 62
   256
  9
$CELTSCALE
 40
1.0
  9
$DISPSILH
 70
     0
  9
$DIMSCALE
 40
1.0
  9
$DIMASZ
 40
0.18
  9
$DIMEXO
 40
0.0625
  9
$DIMDLI
 40
0.38
  9
$DIMRND
 40
0.0
  9
$DIMDLE
 40
0.0
  9
$DIMEXE
 40
0.18
  9
$DIMTP
 40
0.0
  9
$DIMTM
 40
0.0
  9
$DIMTXT
 40
0.18
  9
$DIMCEN
 40
0.09
  9
$DIMTSZ
 40
0.0
  9
$DIMTOL
 70
     0
  9
$DIMLIM
 70
     0
  9
$DIMTIH
 70
     1
  9
$DIMTOH
 70
     1
  9
$DIMSE1
 70
     0
  9
$DIMSE2
 70
     0
  9
$DIMTAD
 70
     0
  9
$DIMZIN
 70
     0
  9
$DIMBLK
  1

  9
$DIMASO
 70
     1
  9
$DIMSHO
 70
     1
  9
$DIMPOST
  1

  9
$DIMAPOST
  1

  9
$DIMALT
 70
     0
  9
$DIMALTD
 70
     2
  9
$DIMALTF
 40
25.4
  9
$DIMLFAC
 40
1.0
  9
$DIMTOFL
 70
     0
  9
$DIMTVP
 40
0.0
  9
$DIMTIX
 70
     0
  9
$DIMSOXD
 70
     0
  9
$DIMSAH
 70
     0
  9
$DIMBLK1
  1

  9
$DIMBLK2
  1

  9
$DIMSTYLE
  2
Standard
  9
$DIMCLRD
 70
     0
  9
$DIMCLRE
 70
     0
  9
$DIMCLRT
 70
     0
  9
$DIMTFAC
 40
1.0
  9
$DIMGAP
 40
0.09
  9
$DIMJUST
 70
     0
  9
$DIMSD1
 70
     0
  9
$DIMSD2
 70
     0
  9
$DIMTOLJ
 70
     1
  9
$DIMTZIN
 70
     0
  9
$DIMALTZ
 70
     0
  9
$DIMALTTZ
 70
     0
  9
$DIMUPT
 70
     0
  9
$DIMDEC
 70
     4
  9
$DIMTDEC
 70
     4
  9
$DIMALTU
 70
     2
  9
$DIMALTTD
 70
     2
  9
$DIMTXSTY
  7
Standard
  9
$DIMAUNIT
 70
     0
  9
$DIMADEC
 70
     0
  9
$DIMALTRND
 40
0.0
  9
$DIMAZIN
 70
     0
  9
$DIMDSEP
 70
     0
  9
$DIMATFIT
 70
     3
  9
$DIMFRAC
 70
     0
  9
$DIMLDRBLK
  1

  9
$DIMLUNIT
 70
     2
  9
$DIMLWD
 70
     0
  9
$DIMLWE
 70
     0
  9
$DIMTMOVE
 70
     0
  9
$DIMFXL
 40
1.0
  9
$DIMFXLON
 70
     0
  9
$DIMJOGANG
 40
0.7853981633974483
  9
$DIMTFILL
 70
     0
  9
$DIMTFILLCLR
 70
     0
  9
$DIMARCSYM
 70
     0
  9
$DIMLTYPE
  6

  9
$DIMLTEX1
  6

  9
$DIMLTEX2
  6

  9
$DIMTXTDIRECTION
 70
     0
  9
$LUNITS
 70
     2
  9
$LUPREC
 70
     4
  9
$SKETCHINC
 40
0.1
  9
$FILLETRAD
 40
0.0
  9
$AUNITS
 70
     0
  9
$AUPREC
 70
     0
  9
$MENU
  1
acad
  9
$ELEVATION
 40
0.0
  9
$PELEVATION
 40
0.0
  9
$THICKNESS
 40
0.0
  9
$LIMCHECK
 70
     0
  9
$CHAMFERA
 40
0.0
  9
$CHAMFERB
 40
0.0
  9
$CHAMFERC
 40
0.0
  9
$CHAMFERD
 40
0.0
  9
$SKPOLY
 70
     0
  9
$TDCREATE
 40
2447893.041666667
  9
$TDUCREATE
 40
0.0
  9
$TDUPDATE
 40
2457234.640814387
  9
$TDUUPDATE
 40
2457234.59914772
  9
$TDINDWG
 40
0.0
  9
$TDUSRTIMER
 40
0.0
  9
$USRTIMER
 70
     1
  9
$ANGBASE
 50
0.0
  9
$ANGDIR
 70
     0
  9
$PDMODE
 70
     0
  9
$PDSIZE
 40
0.0
  9
$PLINEWID
 40
0.0
  9
$SPLFRAME
 70
     0
  9
$SPLINETYPE
 70
     6
  9
$SPLINESEGS
 70
     8
  9
$HANDSEED
  5
1F9
  9
$SURFTAB1
 70
     6
  9
$SURFTAB2
 70
     6
  9
$SURFTYPE
 70
     6
  9
$SURFU
 70
     6
  9
$SURFV
 70
     6
  9
$UCSBASE
  2

  9
$UCSNAME
  2

  9
$UCSORG
 10
0.0
 20
0.0
 30
0.0
  9
$UCSXDIR
 10
1.0
 20
0.0
 30
0.0
  9
$UCSYDIR
 10
0.0
 20
1.0
 30
0.0
  9
$UCSORTHOREF
  2

  9
$UCSORTHOVIEW
 70
     0
  9
$UCSORGTOP
 10
0.0
 20
0.0
 30
0.0
  9
$UCSORGBOTTOM
 10
0.0
 20
0.0
 30
0.0
  9
$UCSORGLEFT
 10
0.0
 20
0.0
 30
0.0
  9
$UCSORGRIGHT
 10
0.0
 20
0.0
 30
0.0
  9
$UCSORGFRONT
 10
0.0
 20
0.0
 30
0.0
  9
$UCSORGBACK
 10
0.0
 20
0.0
 30
0.0
  9
$PUCSBASE
  2

  9
$PUCSNAME
  2

  9
$PUCSORG
 10
0.0
 20
0.0
 30
0.0
  9
$PUCSXDIR
 10
1.0
 20
0.0
 30
0.0
  9
$PUCSYDIR
 10
0.0
 20
1.0
 30
0.0
  9
$PUCSORTHOREF
  2

  9
$PUCSORTHOVIEW
 70
     0
  9
$PUCSORGTOP
 10
0.0
 20
0.0
 30
0.0
  9
$PUCSORGBOTTOM
 10
0.0
 20
0.0
 30
0.0
  9
$PUCSORGLEFT
 10
0.0
 20
0.0
 30
0.0
  9
$PUCSORGRIGHT
 10
0.0
 20
0.0
 30
0.0
  9
$PUCSORGFRONT
 10
0.0
 20
0.0
 30
0.0
  9
$PUCSORGBACK
 10
0.0
 20
0.0
 30
0.0
  9
$USERI1
 70
     0
  9
$USERI2
 70
     0
  9
$USERI3
 70
     0
  9
$USERI4
 70
     0
  9
$USERI5
 70
     0
  9
$USERR1
 40
0.0
  9
$USERR2
 40
0.0
  9
$USERR3
 40
0.0
  9
$USERR4
 40
0.0
  9
$USERR5
 40
0.0
  9
$WORLDVIEW
 70
     1
  9
$SHADEDGE
 70
     3
  9
$SHADEDIF
 70
    70
  9
$TILEMODE
 70
     1
  9
$MAXACTVP
 70
    16
  9
$PINSBASE
 10
0.0
 20
0.0
 30
0.0
  9
$PLIMCHECK
 70
     0
  9
$PEXTMIN
 10
1.000000000000000E+20
 20
1.000000000000000E+20
 30
1.000000000000000E+20
  9
$PEXTMAX
 10
-1.000000000000000E+20
 20
-1.000000000000000E+20
 30
-1.000000000000000E+20
  9
$PLIMMIN
 10
0.0
 20
0.0
  9
$PLIMMAX
 10
12.0
 20
9.0
  9
$UNITMODE
 70
     0
  9
$VISRETAIN
 70
     0
  9
$PLINEGEN
 70
     1
  9
$PSLTSCALE
 70
     0
  9
$TREEDEPTH
 70
  3020
  9
$CMLSTYLE
  2
Standard
  9
$CMLJUST
 70
     0
  9
$CMLSCALE
 40
1.0
  9
$PROXYGRAPHICS
 70
     0
  9
$MEASUREMENT
 70
     0
  9
$CELWEIGHT
370
     0
  9
$ENDCAPS
280
     0
  9
$JOINSTYLE
280
     0
  9
$LWDISPLAY
290
     0
  9
$INSUNITS
 70
     0
  9
$HYPERLINKBASE
  1

  9
$STYLESHEET
  1

  9
$XEDIT
290
     1
  9
$CEPSNTYPE
380
     0
  9
$PSTYLEMODE
290
     1
  9
$FINGERPRINTGUID
  2

  9
$VERSIONGUID
  2

  9
$EXTNAMES
290
     1
  9
$PSVPSCALE
 40
0.0
  9
$OLESTARTUP
290
     0
  9
$SORTENTS
280
   127
  9
$INDEXCTL
280
     0
  9
$HIDETEXT
280
     1
  9
$XCLIPFRAME
280
     2
  9
$HALOGAP
280
     0
  9
$OBSCOLOR
 70
   257
  9
$OBSLTYPE
280
     0
  9
$INTERSECTIONDISPLAY
280
     0
  9
$INTERSECTIONCOLOR
 70
   257
  9
$DIMASSOC
280
     2
  9
$PROJECTNAME
  1

  9
$CAMERADISPLAY
290
     0
  9
$LENSLENGTH
 40
50.0
  9
$CAMERAHEIGHT
 40
0.0
  9
$STEPSPERSEC
 40
2.0
  9
$STEPSIZE
 40
6.0
  9
$3DDWFPREC
 40
2.0
  9
$PSOLWIDTH
 40
0.25
  9
$PSOLHEIGHT
 40
4.0
  9
$LOFTANG1
 40
1.570796326794897
  9
$LOFTANG2
 40
1.570796326794897
  9
$LOFTMAG1
 40
0.0
  9
$LOFTMAG2
 40
0.0
  9
$LOFTPARAM
 70
     7
  9
$LOFTNORMALS
280
     1
  9
$LATITUDE
 40
37.795
  9
$LONGITUDE
 40
-122.394
  9
$NORTHDIRECTION
 40
0.0
  9
$TIMEZONE
 70
 -8000
  9
$LIGHTGLYPHDISPLAY
280
     1
  9
$TILEMODELIGHTSYNCH
280
     1
  9
$SOLIDHIST
280
     0
  9
$SHOWHIST
280
     1
  9
$DWFFRAME
280
     2
  9
$DGNFRAME
280
     2
  9
$REALWORLDSCALE
290
     1
  9
$INTERFERECOLOR
 62
   256
  9
$CSHADOW
280
     0
  9
$SHADOWPLANELOCATION
 40
0.0
  0
ENDSEC
  0
SECTION
  2
CLASSES
  0
CLASS
  1
LWPOLYLINE
  2
AcDbPolyline
  3
ObjectDBX Classes
 90
        0
 91
        1
280
     0
281
     1
  0
CLASS
  1
IMAGE
  2
AcDbRasterImage
  3
ISM
 90
      127
 91
        5
280
     0
281
     1
  0
CLASS
  1
OLE2FRAME
  2
AcDbOle2Frame
  3
ObjectDBX Classes
 90
        0
 91
        1
280
     0
281
     1
  0
CLASS
  1
HATCH
  2
AcDbHatch
  3
ObjectDBX Classes
 90
        0
 91
        1
280
     0
281
     1
  0
CLASS
  1
DICTIONARYVAR
  2
AcDbDictionaryVar
  3
ObjectDBX Classes
 90
        0
 91
        4
280
     0
281
     0
  0
CLASS
  1
RASTERVARIABLES
  2
AcDbRasterVariables
  3
ISM
 90
        0
 91
        4
280
     0
281
     0
  0
CLASS
  1
IMAGEDEF
  2
AcDbRasterImageDef
  3
ISM
 90
        0
 91
        4
280
     0
281
     0
  0
CLASS
  1
IMAGEDEF_REACTOR
  2
AcDbRasterImageDefReactor
  3
ISM
 90
        1
 91
        4
280
     0
281
     0
  0
CLASS
  1
IDBUFFER
  2
AcDbIdBuffer
  3
ObjectDBX Classes
 90
        0
 91
        4
280
     0
281
     0
  0
CLASS
  1
SPATIAL_FILTER
  2
AcDbSpatialFilter
  3
ObjectDBX Classes
 90
        0
 91
        4
280
     0
281
     0
  0
CLASS
  1
XRECORD
  2
AcDbXrecord
  3
ObjectDBX Classes
 90
        0
 91
        1
280
     0
281
     0
  0
CLASS
  1
SORTENTSTABLE
  2
AcDbSortentsTable
  3
ObjectDBX Classes
 90
        0
 91
        4
280
     0
281
     0
  0
CLASS
  1
LAYER_INDEX
  2
AcDbLayerIndex
  3
ObjectDBX Classes
 90
        0
 91
        4
280
     0
281
     0
  0
CLASS
  1
SPATIAL_INDEX
  2
AcDbSpatialIndex
  3
AutoCAD 2000
 90
        0
 91
        4
280
     0
281
     0
  0
CLASS
  1
OBJECT_PTR
  2
CAseDLPNTableRecord
  3
ASE-LPNTableRecord
 90
        1
 91
        4
280
     0
281
     0
  0
CLASS
  1
LAYOUT
  2
AcDbLayout
  3
ObjectDBX Classes
 90
        0
 91
        1
280
     0
281
     0
  0
CLASS
  1
PLOTSETTINGS
  2
AcDbPlotSettings
  3
ObjectDBX Classes
 90
        0
 91
        4
280
     0
281
     0
  0
CLASS
  1
ACDBDICTIONARYWDFLT
  2
AcDbDictionaryWithDefault
  3
ObjectDBX Classes
 90
        0
 91
        4
280
     0
281
     0
  0
CLASS
  1
ACDBPLACEHOLDER
  2
AcDbPlaceHolder
  3
ObjectDBX Classes
 90
        0
 91
        1
280
     0
281
     0
  0
CLASS
  1
VBA_PROJECT
  2
AcDbVbaProject
  3
ObjectDBX Classes
 90
        0
 91
        1
280
     0
281
     0
  0
CLASS
  1
WIPEOUT
  2
AcDbWipeout
  3
WipeOut|AutoCAD Express Tool|expresstools@autodesk.com
 90
      127
 91
        4
280
     0
281
     1
  0
CLASS
  1
WIPEOUTVARIABLES
  2
AcDbWipeoutVariables
  3
WipeOut|AutoCAD Express Tool|expresstools@autodesk.com
 90
        0
 91
        4
280
     0
281
     0
  0
CLASS
  1
RTEXT
  2
RText
  3
RText|AutoCAD Express Tool|expresstools@autodesk.com
 90
        0
 91
        4
280
     0
281
     1
  0
CLASS
  1
ARCALIGNEDTEXT
  2
AcDbArcAlignedText
  3
ATEXT|AutoCAD Express Tool|expresstools@autodesk.com
 90
        0
 91
        4
280
     0
281
     1
  0
CLASS
  1
SCALE
  2
AcDbScale
  3
ObjectDBX Classes
 90
     1153
 91
        4
280
     0
281
     0
  0
CLASS
  1
VISUALSTYLE
  2
AcDbVisualStyle
  3
ObjectDBX Classes
 90
     4095
 91
        4
280
     0
281
     0
  0
CLASS
  1
MATERIAL
  2
AcDbMaterial
  3
ObjectDBX Classes
 90
     1153
 91
        4
280
     0
281
     0
  0
CLASS
  1
TABLESTYLE
  2
AcDbTableStyle
  3
ObjectDBX Classes
 90
     4095
 91
        4
280
     0
281
     0
  0
CLASS
  1
MLEADERSTYLE
  2
AcDbMLeaderStyle
  3
ACDB_MLEADERSTYLE_CLASS
 90
     4095
 91
        4
280
     0
281
     0
  0
CLASS
  1
CELLSTYLEMAP
  2
AcDbCellStyleMap
  3
ObjectDBX Classes
 90
     1152
 91
        4
280
     0
281
     0
  0
ENDSEC
  0
SECTION
  2
TABLES
  0
TABLE
  2
VPORT
  5
7
330
0
100
AcDbSymbolTable
 70
     1
  0
VPORT
  5
15
330
7
100
AcDbSymbolTableRecord
100
AcDbViewportTableRecord
  2
*ACTIVE
 70
     0
 10
0.0
 20
0.0
 11
1.0
 21
1.0
 12
6.591288
 22
4.579184
 13
0.0
 23
0.0
 14
1.0
 24
1.0
 15
0.0
 25
0.0
 16
0.0
 26
0.0
 36
1.0
 17
0.0
 27
0.0
 37
0.0
 40
9.158369
 41
0.688564
 42
50.0
 43
0.0
 44
0.0
 50
0.0
 51
0.0
 71
     0
 72
   100
 73
     1
 74
     1
 75
     0
 76
     0
 77
     0
 78
     0
281
     0
 65
     0
110
0.0
120
0.0
130
0.0
111
1.0
121
0.0
131
0.0
112
0.0
122
1.0
132
0.0
 79
     0
146
0.0
348
1A3
 60
     3
 61
     5
292
     1
282
     1
141
0.0
142
0.0
 63
   256
  0
ENDTAB
  0
TABLE
  2
LTYPE
  5
4
330
0
100
AcDbSymbolTable
 70
     4
  0
LTYPE
  5
11
330
4
100
AcDbSymbolTableRecord
100
AcDbLinetypeTableRecord
  2
ByBlock
 70
     0
  3

 72
    65
 73
     0
 40
0.0
  0
LTYPE
  5
12
330
4
100
AcDbSymbolTableRecord
100
AcDbLinetypeTableRecord
  2
ByLayer
 70
     0
  3

 72
    65
 73
     0
 40
0.0
  0
LTYPE
  5
13
330
4
100
AcDbSymbolTableRecord
100
AcDbLinetypeTableRecord
  2
Continuous
 70
     0
  3
Solid line
 72
    65
 73
     0
 40
0.0
  0
LTYPE
  5
37
330
4
100
AcDbSymbolTableRecord
100
AcDbLinetypeTableRecord
  2
AI9-LType1
 70
     0
  3
Illustrator Dash Style No.1
 72
    65
 73
     4
 40
7.055556
 49
2.116667
 74
     0
 49
-1.411111
 74
     0
 49
2.116667
 74
     0
 49
-1.411111
 74
     0
  0
LTYPE
  5
43
330
4
100
AcDbSymbolTableRecord
100
AcDbLinetypeTableRecord
  2
AI9-LType2
 70
     0
  3
Illustrator Dash Style No.2
 72
    65
 73
     2
 40
2.116667
 49
1.411111
 74
     0
 49
-0.705556
 74
     0
  0
LTYPE
  5
55
330
4
100
AcDbSymbolTableRecord
100
AcDbLinetypeTableRecord
  2
AI9-LType3
 70
     0
  3
Illustrator Dash Style No.3
 72
    65
 73
     4
 40
3.175
 49
1.411111
 74
     0
 49
-0.705556
 74
     0
 49
0.352778
 74
     0
 49
-0.705556
 74
     0
  0
ENDTAB
  0
TABLE
  2
LAYER
  5
2
330
0
100
AcDbSymbolTable
 70
     2
  0
LAYER
  5
14
330
2
100
AcDbSymbolTableRecord
100
AcDbLayerTableRecord
  2
0
 70
     0
 62
     7
  6
Continuous
370
    -3
390
1D
347
1BA
  0
LAYER
  5
28
330
2
100
AcDbSymbolTableRecord
100
AcDbLayerTableRecord
  2
LAYER_1
 70
     0
 62
   160
  6
Continuous
370
    -3
390
1D
347
1BA
  0
ENDTAB
  0
TABLE
  2
STYLE
  5
3
330
0
100
AcDbSymbolTable
 70
     5
  0
STYLE
  5
17
330
3
100
AcDbSymbolTableRecord
100
AcDbTextStyleTableRecord
  2
Standard
 70
     0
 40
0.0
 41
1.0
 50
0.0
 71
     0
 42
0.0
  3
txt
  4

  0
STYLE
  5
24
330
3
100
AcDbSymbolTableRecord
100
AcDbTextStyleTableRecord
  2
STD
 70
     0
 40
0.0
 41
1.0
 50
0.0
 71
     0
 42
0.0
  3
txt
  4

  0
STYLE
  5
25
330
3
100
AcDbSymbolTableRecord
100
AcDbTextStyleTableRecord
  2
TATESTD
 70
     4
 40
0.0
 41
1.0
 50
0.0
 71
     0
 42
0.0
  3
txt
  4

  0
STYLE
  5
26
330
3
100
AcDbSymbolTableRecord
100
AcDbTextStyleTableRecord
  2
KANJISTD
 70
     0
 40
0.0
 41
1.0
 50
0.0
 71
     0
 42
0.0
  3
txt
  4
extfont
  0
STYLE
  5
27
330
3
100
AcDbSymbolTableRecord
100
AcDbTextStyleTableRecord
  2
KANJITATE
 70
     4
 40
0.0
 41
1.0
 50
0.0
 71
     0
 42
0.0
  3
txt
  4
extfont
  0
ENDTAB
  0
TABLE
  2
VIEW
  5
5
330
0
100
AcDbSymbolTable
 70
     0
  0
ENDTAB
  0
TABLE
  2
UCS
  5
6
330
0
100
AcDbSymbolTable
 70
     0
  0
ENDTAB
  0
TABLE
  2
APPID
  5
8
330
0
100
AcDbSymbolTable
 70
     1
  0
APPID
  5
16
330
8
100
AcDbSymbolTableRecord
100
AcDbRegAppTableRecord
  2
ACAD
 70
     0
  0
ENDTAB
  0
TABLE
  2
DIMSTYLE
  5
9
330
0
100
AcDbSymbolTable
 70
     1
100
AcDbDimStyleTable
  0
DIMSTYLE
105
18
330
9
100
AcDbSymbolTableRecord
100
AcDbDimStyleTableRecord
  2
Standard
 70
     0
178
     0
340
17
  0
ENDTAB
  0
TABLE
  2
BLOCK_RECORD
  5
1
330
0
100
AcDbSymbolTable
 70
    33
  0
BLOCK_RECORD
  5
A
330
1
100
AcDbSymbolTableRecord
100
AcDbBlockTableRecord
  2
*MODEL_SPACE
340
20
 70
     0
280
     1
281
     0
  0
BLOCK_RECORD
  5
B
330
1
100
AcDbSymbolTableRecord
100
AcDbBlockTableRecord
  2
*PAPER_SPACE
340
21
 70
     0
280
     1
281
     0
  0
BLOCK_RECORD
  5
59
330
1
100
AcDbSymbolTableRecord
100
AcDbBlockTableRecord
  2
AI9-BLK1
340
0
102
{BLKREFS
331
5A
102
}
 70
     0
280
     1
281
     0
  0
BLOCK_RECORD
  5
5E
330
1
100
AcDbSymbolTableRecord
100
AcDbBlockTableRecord
  2
AI9-BLK2
340
0
102
{BLKREFS
331
5F
102
}
 70
     0
280
     1
281
     0
  0
BLOCK_RECORD
  5
63
330
1
100
AcDbSymbolTableRecord
100
AcDbBlockTableRecord
  2
AI9-BLK3
340
0
102
{BLKREFS
331
64
102
}
 70
     0
280
     1
281
     0
  0
BLOCK_RECORD
  5
66
330
1
100
AcDbSymbolTableRecord
100
AcDbBlockTableRecord
  2
AI9-BLK4
340
0
102
{BLKREFS
331
67
102
}
 70
     0
280
     1
281
     0
  0
BLOCK_RECORD
  5
6B
330
1
100
AcDbSymbolTableRecord
100
AcDbBlockTableRecord
  2
AI9-BLK5
340
0
102
{BLKREFS
331
6C
102
}
 70
     0
280
     1
281
     0
  0
BLOCK_RECORD
  5
70
330
1
100
AcDbSymbolTableRecord
100
AcDbBlockTableRecord
  2
AI9-BLK6
340
0
102
{BLKREFS
331
71
102
}
 70
     0
280
     1
281
     0
  0
BLOCK_RECORD
  5
75
330
1
100
AcDbSymbolTableRecord
100
AcDbBlockTableRecord
  2
AI9-BLK7
340
0
102
{BLKREFS
331
76
102
}
 70
     0
280
     1
281
     0
  0
BLOCK_RECORD
  5
7B
330
1
100
AcDbSymbolTableRecord
100
AcDbBlockTableRecord
  2
AI9-BLK8
340
0
102
{BLKREFS
331
7C
102
}
 70
     0
280
     1
281
     0
  0
BLOCK_RECORD
  5
80
330
1
100
AcDbSymbolTableRecord
100
AcDbBlockTableRecord
  2
AI9-BLK9
340
0
102
{BLKREFS
331
81
102
}
 70
     0
280
     1
281
     0
  0
BLOCK_RECORD
  5
83
330
1
100
AcDbSymbolTableRecord
100
AcDbBlockTableRecord
  2
AI9-BLK10
340
0
102
{BLKREFS
331
84
102
}
 70
     0
280
     1
281
     0
  0
BLOCK_RECORD
  5
88
330
1
100
AcDbSymbolTableRecord
100
AcDbBlockTableRecord
  2
AI9-BLK11
340
0
102
{BLKREFS
331
89
102
}
 70
     0
280
     1
281
     0
  0
BLOCK_RECORD
  5
8D
330
1
100
AcDbSymbolTableRecord
100
AcDbBlockTableRecord
  2
AI9-BLK12
340
0
102
{BLKREFS
331
8E
102
}
 70
     0
280
     1
281
     0
  0
BLOCK_RECORD
  5
92
330
1
100
AcDbSymbolTableRecord
100
AcDbBlockTableRecord
  2
AI9-BLK13
340
0
102
{BLKREFS
331
93
102
}
 70
     0
280
     1
281
     0
  0
BLOCK_RECORD
  5
97
330
1
100
AcDbSymbolTableRecord
100
AcDbBlockTableRecord
  2
AI9-BLK14
340
0
102
{BLKREFS
331
98
102
}
 70
     0
280
     1
281
     0
  0
BLOCK_RECORD
  5
9C
330
1
100
AcDbSymbolTableRecord
100
AcDbBlockTableRecord
  2
AI9-BLK15
340
0
102
{BLKREFS
331
9D
102
}
 70
     0
280
     1
281
     0
  0
BLOCK_RECORD
  5
A1
330
1
100
AcDbSymbolTableRecord
100
AcDbBlockTableRecord
  2
AI9-BLK16
340
0
102
{BLKREFS
331
A2
102
}
 70
     0
280
     1
281
     0
  0
BLOCK_RECORD
  5
A6
330
1
100
AcDbSymbolTableRecord
100
AcDbBlockTableRecord
  2
AI9-BLK17
340
0
102
{BLKREFS
331
A7
102
}
 70
     0
280
     1
281
     0
  0
BLOCK_RECORD
  5
D9
330
1
100
AcDbSymbolTableRecord
100
AcDbBlockTableRecord
  2
AI9-BLK18
340
0
102
{BLKREFS
331
DA
102
}
 70
     0
280
     1
281
     0
  0
BLOCK_RECORD
  5
DD
330
1
100
AcDbSymbolTableRecord
100
AcDbBlockTableRecord
  2
AI9-BLK19
340
0
102
{BLKREFS
331
DE
102
}
 70
     0
280
     1
281
     0
  0
BLOCK_RECORD
  5
E0
330
1
100
AcDbSymbolTableRecord
100
AcDbBlockTableRecord
  2
AI9-BLK20
340
0
102
{BLKREFS
331
E1
102
}
 70
     0
280
     1
281
     0
  0
BLOCK_RECORD
  5
E3
330
1
100
AcDbSymbolTableRecord
100
AcDbBlockTableRecord
  2
AI9-BLK21
340
0
102
{BLKREFS
331
E4
102
}
 70
     0
280
     1
281
     0
  0
BLOCK_RECORD
  5
E6
330
1
100
AcDbSymbolTableRecord
100
AcDbBlockTableRecord
  2
AI9-BLK22
340
0
102
{BLKREFS
331
E7
102
}
 70
     0
280
     1
281
     0
  0
BLOCK_RECORD
  5
E9
330
1
100
AcDbSymbolTableRecord
100
AcDbBlockTableRecord
  2
AI9-BLK23
340
0
102
{BLKREFS
331
EA
102
}
 70
     0
280
     1
281
     0
  0
BLOCK_RECORD
  5
F4
330
1
100
AcDbSymbolTableRecord
100
AcDbBlockTableRecord
  2
AI9-BLK24
340
0
102
{BLKREFS
331
F5
102
}
 70
     0
280
     1
281
     0
  0
BLOCK_RECORD
  5
F7
330
1
100
AcDbSymbolTableRecord
100
AcDbBlockTableRecord
  2
AI9-BLK25
340
0
102
{BLKREFS
331
F8
102
}
 70
     0
280
     1
281
     0
  0
BLOCK_RECORD
  5
FA
330
1
100
AcDbSymbolTableRecord
100
AcDbBlockTableRecord
  2
AI9-BLK26
340
0
102
{BLKREFS
331
FB
102
}
 70
     0
280
     1
281
     0
  0
BLOCK_RECORD
  5
FD
330
1
100
AcDbSymbolTableRecord
100
AcDbBlockTableRecord
  2
AI9-BLK27
340
0
102
{BLKREFS
331
FE
102
}
 70
     0
280
     1
281
     0
  0
BLOCK_RECORD
  5
100
330
1
100
AcDbSymbolTableRecord
100
AcDbBlockTableRecord
  2
AI9-BLK28
340
0
102
{BLKREFS
331
101
102
}
 70
     0
280
     1
281
     0
  0
BLOCK_RECORD
  5
10B
330
1
100
AcDbSymbolTableRecord
100
AcDbBlockTableRecord
  2
AI9-BLK29
340
0
102
{BLKREFS
331
10C
102
}
 70
     0
280
     1
281
     0
  0
BLOCK_RECORD
  5
10E
330
1
100
AcDbSymbolTableRecord
100
AcDbBlockTableRecord
  2
AI9-BLK30
340
0
102
{BLKREFS
331
10F
102
}
 70
     0
280
     1
281
     0
  0
BLOCK_RECORD
  5
111
330
1
100
AcDbSymbolTableRecord
100
AcDbBlockTableRecord
  2
AI9-BLK31
340
0
102
{BLKREFS
331
112
102
}
 70
     0
280
     1
281
     0
  0
BLOCK_RECORD
  5
114
330
1
100
AcDbSymbolTableRecord
100
AcDbBlockTableRecord
  2
AI9-BLK32
340
0
102
{BLKREFS
331
115
102
}
 70
     0
280
     1
281
     0
  0
BLOCK_RECORD
  5
117
330
1
100
AcDbSymbolTableRecord
100
AcDbBlockTableRecord
  2
AI9-BLK33
340
0
102
{BLKREFS
331
118
102
}
 70
     0
280
     1
281
     0
  0
ENDTAB
  0
ENDSEC
  0
SECTION
  2
BLOCKS
  0
BLOCK
  5
D
330
A
100
AcDbEntity
  8
0
100
AcDbBlockBegin
  2
*MODEL_SPACE
 70
     0
 10
0.0
 20
0.0
 30
0.0
  3
*MODEL_SPACE
  1

  0
ENDBLK
  5
E
330
A
100
AcDbEntity
  8
0
100
AcDbBlockEnd
  0
BLOCK
  5
F
330
B
100
AcDbEntity
 67
     1
  8
0
100
AcDbBlockBegin
  2
*PAPER_SPACE
 70
     0
 10
0.0
 20
0.0
 30
0.0
  3
*PAPER_SPACE
  1

  0
ENDBLK
  5
10
330
B
100
AcDbEntity
 67
     1
  8
0
100
AcDbBlockEnd
  0
BLOCK
  5
5B
330
59
100
AcDbEntity
  8
LAYER_1
 62
     7
100
AcDbBlockBegin
  2
AI9-BLK1
 70
     0
 10
0.0
 20
0.0
 30
0.0
  3
AI9-BLK1
  1

  0
HATCH
  5
5C
330
59
100
AcDbEntity
  8
LAYER_1
 62
     7
100
AcDbHatch
 10
0.0
 20
0.0
 30
0.0
210
0.0
220
0.0
230
1.0
  2
SOLID
 70
     1
 71
     0
 91
        1
 92
        1
 93
        1
 72
     4
 94
        3
 73
     0
 74
     0
 95
       14
 96
       10
 40
0.0
 40
0.0
 40
0.0
 40
0.0
 40
1.0
 40
1.0
 40
1.0
 40
2.0
 40
2.0
 40
2.0
 40
3.0
 40
3.0
 40
3.0
 40
3.0
 10
0.6452663845486111
 20
-0.3298678927951388
 10
0.6452663845486111
 20
-0.3298678927951388
 10
0.6549126519097221
 20
0.0173977322048611
 10
-0.6452663845486111
 20
-0.00465087890625
 10
0.6518120659722222
 20
0.0173977322048611
 10
0.6325195312499999
 20
0.3298678927951388
 10
0.6325195312499999
 20
0.3298678927951388
 10
0.6325195312499999
 20
0.3298678927951388
 10
0.6452663845486111
 20
-0.3298678927951388
 10
0.6452663845486111
 20
-0.3298678927951388
 97
        0
 97
        0
 75
     0
 76
     1
 98
        1
 10
0.0
 20
0.0
  0
ENDBLK
  5
5D
330
59
100
AcDbEntity
  8
LAYER_1
100
AcDbBlockEnd
  0
BLOCK
  5
60
330
5E
100
AcDbEntity
  8
LAYER_1
 62
     7
100
AcDbBlockBegin
  2
AI9-BLK2
 70
     0
 10
0.0
 20
0.0
 30
0.0
  3
AI9-BLK2
  1

  0
HATCH
  5
61
330
5E
100
AcDbEntity
  8
LAYER_1
 62
     7
100
AcDbHatch
 10
0.0
 20
0.0
 30
0.0
210
0.0
220
0.0
230
1.0
  2
SOLID
 70
     1
 71
     0
 91
        1
 92
        1
 93
        1
 72
     4
 94
        3
 73
     0
 74
     0
 95
       14
 96
       10
 40
0.0
 40
0.0
 40
0.0
 40
0.0
 40
1.0
 40
1.0
 40
1.0
 40
2.0
 40
2.0
 40
2.0
 40
3.0
 40
3.0
 40
3.0
 40
3.0
 10
0.6452663845486111
 20
-0.3329684787326389
 10
0.6452663845486111
 20
-0.3329684787326389
 10
0.6580132378472222
 20
0.0177422417534722
 10
-0.6452663845486111
 20
-0.00775146484375
 10
0.6549126519097221
 20
0.0177422417534722
 10
0.6325195312499999
 20
0.3329684787326389
 10
0.6325195312499999
 20
0.3329684787326389
 10
0.6325195312499999
 20
0.3329684787326389
 10
0.6452663845486111
 20
-0.3329684787326389
 10
0.6452663845486111
 20
-0.3329684787326389
 97
        0
 97
        0
 75
     0
 76
     1
 98
        1
 10
0.0
 20
0.0
  0
ENDBLK
  5
62
330
5E
100
AcDbEntity
  8
LAYER_1
100
AcDbBlockEnd
  0
BLOCK
  5
65
330
63
100
AcDbEntity
  8
LAYER_1
 62
     7
100
AcDbBlockBegin
  2
AI9-BLK3
 70
     0
 10
0.0
 20
0.0
 30
0.0
  3
AI9-BLK3
  1

  0
INSERT
  5
76
330
63
100
AcDbEntity
  8
LAYER_1
 62
     7
100
AcDbBlockReference
  2
AI9-BLK7
 10
-0.316949
 20
3.084738
 30
0.0
  0
INSERT
  5
71
330
63
100
AcDbEntity
  8
LAYER_1
 62
     7
100
AcDbBlockReference
  2
AI9-BLK6
 10
-0.242018
 20
0.675583
 30
0.0
  0
INSERT
  5
6C
330
63
100
AcDbEntity
  8
LAYER_1
 62
     7
100
AcDbBlockReference
  2
AI9-BLK5
 10
-0.025494
 20
-1.827451
 30
0.0
  0
INSERT
  5
67
330
63
100
AcDbEntity
  8
LAYER_1
 62
     7
100
AcDbBlockReference
  2
AI9-BLK4
 10
0.164331
 20
-3.098863
 30
0.0
  0
ENDBLK
  5
7A
330
63
100
AcDbEntity
  8
LAYER_1
100
AcDbBlockEnd
  0
BLOCK
  5
68
330
66
100
AcDbEntity
  8
LAYER_1
 62
     7
100
AcDbBlockBegin
  2
AI9-BLK4
 70
     0
 10
0.0
 20
0.0
 30
0.0
  3
AI9-BLK4
  1

  0
HATCH
  5
69
330
66
100
AcDbEntity
  8
LAYER_1
 62
     7
100
AcDbHatch
 10
0.0
 20
0.0
 30
0.0
210
0.0
220
0.0
230
1.0
  2
SOLID
 70
     1
 71
     0
 91
        1
 92
        1
 93
        1
 72
     4
 94
        3
 73
     0
 74
     0
 95
       14
 96
       10
 40
0.0
 40
0.0
 40
0.0
 40
0.0
 40
1.0
 40
1.0
 40
1.0
 40
2.0
 40
2.0
 40
2.0
 40
3.0
 40
3.0
 40
3.0
 40
3.0
 10
0.6612860785590278
 20
-0.3265950520833333
 10
0.6612860785590278
 20
-0.3265950520833333
 10
0.6261461046006944
 20
0.0141248914930556
 10
-0.6612860785590278
 20
-0.1770779079861111
 10
0.6227010091145833
 20
0.0206705729166667
 10
0.5558661566840277
 20
0.3265950520833333
 10
0.5558661566840277
 20
0.3265950520833333
 10
0.5558661566840277
 20
0.3265950520833333
 10
0.6612860785590278
 20
-0.3265950520833333
 10
0.6612860785590278
 20
-0.3265950520833333
 97
        0
 97
        0
 75
     0
 76
     1
 98
        1
 10
0.0
 20
0.0
  0
ENDBLK
  5
6A
330
66
100
AcDbEntity
  8
LAYER_1
100
AcDbBlockEnd
  0
BLOCK
  5
6D
330
6B
100
AcDbEntity
  8
LAYER_1
 62
     7
100
AcDbBlockBegin
  2
AI9-BLK5
 70
     0
 10
0.0
 20
0.0
 30
0.0
  3
AI9-BLK5
  1

  0
HATCH
  5
6E
330
6B
100
AcDbEntity
  8
LAYER_1
 62
     7
100
AcDbHatch
 10
0.0
 20
0.0
 30
0.0
210
0.0
220
0.0
230
1.0
  2
SOLID
 70
     1
 71
     0
 91
        1
 92
        1
 93
        1
 72
     4
 94
        3
 73
     0
 74
     0
 95
       14
 96
       10
 40
0.0
 40
0.0
 40
0.0
 40
0.0
 40
1.0
 40
1.0
 40
1.0
 40
2.0
 40
2.0
 40
2.0
 40
3.0
 40
3.0
 40
3.0
 40
3.0
 10
0.6564629448784721
 20
-0.3298678927951388
 10
0.6564629448784721
 20
-0.3298678927951388
 10
0.6437160915798611
 20
0.0173977322048611
 10
-0.6564629448784721
 20
-0.0973239474826389
 10
0.640615505642361
 20
0.0173977322048611
 10
0.5961737738715277
 20
0.3298678927951388
 10
0.5961737738715277
 20
0.3298678927951388
 10
0.5961737738715277
 20
0.3298678927951388
 10
0.6564629448784721
 20
-0.3298678927951388
 10
0.6564629448784721
 20
-0.3298678927951388
 97
        0
 97
        0
 75
     0
 76
     1
 98
        1
 10
0.0
 20
0.0
  0
ENDBLK
  5
6F
330
6B
100
AcDbEntity
  8
LAYER_1
100
AcDbBlockEnd
  0
BLOCK
  5
72
330
70
100
AcDbEntity
  8
LAYER_1
 62
     7
100
AcDbBlockBegin
  2
AI9-BLK6
 70
     0
 10
0.0
 20
0.0
 30
0.0
  3
AI9-BLK6
  1

  0
HATCH
  5
73
330
70
100
AcDbEntity
  8
LAYER_1
 62
     7
100
AcDbHatch
 10
0.0
 20
0.0
 30
0.0
210
0.0
220
0.0
230
1.0
  2
SOLID
 70
     1
 71
     0
 91
        1
 92
        1
 93
        1
 72
     4
 94
        3
 73
     0
 74
     0
 95
       14
 96
       10
 40
0.0
 40
0.0
 40
0.0
 40
0.0
 40
1.0
 40
1.0
 40
1.0
 40
2.0
 40
2.0
 40
2.0
 40
3.0
 40
3.0
 40
3.0
 40
3.0
 10
0.6500895182291666
 20
-0.3314181857638889
 10
0.6500895182291666
 20
-0.3314181857638889
 10
0.6531901041666666
 20
0.0127468532986111
 10
-0.6500895182291666
 20
-0.0475423177083333
 10
0.6469889322916667
 20
0.0127468532986111
 10
0.6180501302083333
 20
0.3314181857638889
 10
0.6180501302083333
 20
0.3314181857638889
 10
0.6180501302083333
 20
0.3314181857638889
 10
0.6500895182291666
 20
-0.3314181857638889
 10
0.6500895182291666
 20
-0.3314181857638889
 97
        0
 97
        0
 75
     0
 76
     1
 98
        1
 10
0.0
 20
0.0
  0
ENDBLK
  5
74
330
70
100
AcDbEntity
  8
LAYER_1
100
AcDbBlockEnd
  0
BLOCK
  5
77
330
75
100
AcDbEntity
  8
LAYER_1
 62
     7
100
AcDbBlockBegin
  2
AI9-BLK7
 70
     0
 10
0.0
 20
0.0
 30
0.0
  3
AI9-BLK7
  1

  0
HATCH
  5
78
330
75
100
AcDbEntity
  8
LAYER_1
 62
     7
100
AcDbHatch
 10
0.0
 20
0.0
 30
0.0
210
0.0
220
0.0
230
1.0
  2
SOLID
 70
     1
 71
     0
 91
        1
 92
        1
 93
        1
 72
     4
 94
        3
 73
     0
 74
     0
 95
       14
 96
       10
 40
0.0
 40
0.0
 40
0.0
 40
0.0
 40
1.0
 40
1.0
 40
1.0
 40
2.0
 40
2.0
 40
2.0
 40
3.0
 40
3.0
 40
3.0
 40
3.0
 10
0.6454386393229166
 20
-0.3314181857638889
 10
0.6454386393229166
 20
-0.3314181857638889
 10
0.6581854926215277
 20
0.0189480251736111
 10
-0.6454386393229166
 20
-0.0065456814236111
 10
0.6581854926215277
 20
0.0189480251736111
 10
0.6292466905381944
 20
0.3314181857638889
 10
0.6292466905381944
 20
0.3314181857638889
 10
0.6292466905381944
 20
0.3314181857638889
 10
0.6454386393229166
 20
-0.3314181857638889
 10
0.6454386393229166
 20
-0.3314181857638889
 97
        0
 97
        0
 75
     0
 76
     1
 98
        1
 10
0.0
 20
0.0
  0
ENDBLK
  5
79
330
75
100
AcDbEntity
  8
LAYER_1
100
AcDbBlockEnd
  0
BLOCK
  5
7D
330
7B
100
AcDbEntity
  8
LAYER_1
 62
     7
100
AcDbBlockBegin
  2
AI9-BLK8
 70
     0
 10
0.0
 20
0.0
 30
0.0
  3
AI9-BLK8
  1

  0
HATCH
  5
7E
330
7B
100
AcDbEntity
  8
LAYER_1
 62
     7
100
AcDbHatch
 10
0.0
 20
0.0
 30
0.0
210
0.0
220
0.0
230
1.0
  2
SOLID
 70
     1
 71
     0
 91
        1
 92
        1
 93
        1
 72
     4
 94
        3
 73
     0
 74
     0
 95
       14
 96
       10
 40
0.0
 40
0.0
 40
0.0
 40
0.0
 40
1.0
 40
1.0
 40
1.0
 40
2.0
 40
2.0
 40
2.0
 40
3.0
 40
3.0
 40
3.0
 40
3.0
 10
-0.6580132378472222
 20
-0.2263427734375
 10
-0.6580132378472222
 20
-0.2263427734375
 10
-0.5753309461805555
 20
0.0830268012152778
 10
0.6580132378472222
 20
-0.3503662109375
 10
-0.5722303602430555
 20
0.0795817057291667
 10
-0.4575086805555555
 20
0.3503662109375
 10
-0.4575086805555555
 20
0.3503662109375
 10
-0.4575086805555555
 20
0.3503662109375
 10
-0.6580132378472222
 20
-0.2263427734375
 10
-0.6580132378472222
 20
-0.2263427734375
 97
        0
 97
        0
 75
     0
 76
     1
 98
        1
 10
0.0
 20
0.0
  0
ENDBLK
  5
7F
330
7B
100
AcDbEntity
  8
LAYER_1
100
AcDbBlockEnd
  0
BLOCK
  5
82
330
80
100
AcDbEntity
  8
LAYER_1
 62
     7
100
AcDbBlockBegin
  2
AI9-BLK9
 70
     0
 10
0.0
 20
0.0
 30
0.0
  3
AI9-BLK9
  1

  0
INSERT
  5
A7
330
80
100
AcDbEntity
  8
LAYER_1
 62
     7
100
AcDbBlockReference
  2
AI9-BLK17
 10
2.173338
 20
6.326918
 30
0.0
  0
INSERT
  5
A2
330
80
100
AcDbEntity
  8
LAYER_1
 62
     7
100
AcDbBlockReference
  2
AI9-BLK16
 10
1.652268
 20
4.48672
 30
0.0
  0
INSERT
  5
9D
330
80
100
AcDbEntity
  8
LAYER_1
 62
     7
100
AcDbBlockReference
  2
AI9-BLK15
 10
1.121723
 20
2.649451
 30
0.0
  0
INSERT
  5
98
330
80
100
AcDbEntity
  8
LAYER_1
 62
     7
100
AcDbBlockReference
  2
AI9-BLK14
 10
0.576709
 20
0.814076
 30
0.0
  0
INSERT
  5
93
330
80
100
AcDbEntity
  8
LAYER_1
 62
     7
100
AcDbBlockReference
  2
AI9-BLK13
 10
0.082855
 20
-0.763433
 30
0.0
  0
INSERT
  5
8E
330
80
100
AcDbEntity
  8
LAYER_1
 62
     7
100
AcDbBlockReference
  2
AI9-BLK12
 10
-0.997527
 20
-3.522955
 30
0.0
  0
INSERT
  5
89
330
80
100
AcDbEntity
  8
LAYER_1
 62
     7
100
AcDbBlockReference
  2
AI9-BLK11
 10
-1.473812
 20
-5.020882
 30
0.0
  0
INSERT
  5
84
330
80
100
AcDbEntity
  8
LAYER_1
 62
     7
100
AcDbBlockReference
  2
AI9-BLK10
 10
-1.951819
 20
-6.429237
 30
0.0
  0
ENDBLK
  5
AB
330
80
100
AcDbEntity
  8
LAYER_1
100
AcDbBlockEnd
  0
BLOCK
  5
85
330
83
100
AcDbEntity
  8
LAYER_1
 62
     7
100
AcDbBlockBegin
  2
AI9-BLK10
 70
     0
 10
0.0
 20
0.0
 30
0.0
  3
AI9-BLK10
  1

  0
HATCH
  5
86
330
83
100
AcDbEntity
  8
LAYER_1
 62
     7
100
AcDbHatch
 10
0.0
 20
0.0
 30
0.0
210
0.0
220
0.0
230
1.0
  2
SOLID
 70
     1
 71
     0
 91
        1
 92
        1
 93
        1
 72
     4
 94
        3
 73
     0
 74
     0
 95
       14
 96
       10
 40
0.0
 40
0.0
 40
0.0
 40
0.0
 40
1.0
 40
1.0
 40
1.0
 40
2.0
 40
2.0
 40
2.0
 40
3.0
 40
3.0
 40
3.0
 40
3.0
 10
-0.6597357855902777
 20
-0.229443359375
 10
-0.6597357855902777
 20
-0.229443359375
 10
-0.5674072265625
 20
0.0857828776041667
 10
0.6597357855902777
 20
-0.3503662109375
 10
-0.5674072265625
 20
0.0795817057291667
 10
-0.452685546875
 20
0.3503662109375
 10
-0.452685546875
 20
0.3503662109375
 10
-0.452685546875
 20
0.3503662109375
 10
-0.6597357855902777
 20
-0.229443359375
 10
-0.6597357855902777
 20
-0.229443359375
 97
        0
 97
        0
 75
     0
 76
     1
 98
        1
 10
0.0
 20
0.0
  0
ENDBLK
  5
87
330
83
100
AcDbEntity
  8
LAYER_1
100
AcDbBlockEnd
  0
BLOCK
  5
8A
330
88
100
AcDbEntity
  8
LAYER_1
 62
     7
100
AcDbBlockBegin
  2
AI9-BLK11
 70
     0
 10
0.0
 20
0.0
 30
0.0
  3
AI9-BLK11
  1

  0
HATCH
  5
8B
330
88
100
AcDbEntity
  8
LAYER_1
 62
     7
100
AcDbHatch
 10
0.0
 20
0.0
 30
0.0
210
0.0
220
0.0
230
1.0
  2
SOLID
 70
     1
 71
     0
 91
        1
 92
        1
 93
        1
 72
     4
 94
        3
 73
     0
 74
     0
 95
       14
 96
       10
 40
0.0
 40
0.0
 40
0.0
 40
0.0
 40
1.0
 40
1.0
 40
1.0
 40
2.0
 40
2.0
 40
2.0
 40
3.0
 40
3.0
 40
3.0
 40
3.0
 10
-0.6564629448784721
 20
-0.2263427734375
 10
-0.6564629448784721
 20
-0.2263427734375
 10
-0.5703355577256944
 20
0.0861273871527778
 10
0.6564629448784721
 20
-0.3538113064236111
 10
-0.5703355577256944
 20
0.0861273871527778
 10
-0.4556138780381944
 20
0.3538113064236111
 10
-0.4556138780381944
 20
0.3538113064236111
 10
-0.4556138780381944
 20
0.3538113064236111
 10
-0.6564629448784721
 20
-0.2263427734375
 10
-0.6564629448784721
 20
-0.2263427734375
 97
        0
 97
        0
 75
     0
 76
     1
 98
        1
 10
0.0
 20
0.0
  0
ENDBLK
  5
8C
330
88
100
AcDbEntity
  8
LAYER_1
100
AcDbBlockEnd
  0
BLOCK
  5
8F
330
8D
100
AcDbEntity
  8
LAYER_1
 62
     7
100
AcDbBlockBegin
  2
AI9-BLK12
 70
     0
 10
0.0
 20
0.0
 30
0.0
  3
AI9-BLK12
  1

  0
HATCH
  5
90
330
8D
100
AcDbEntity
  8
LAYER_1
 62
     7
100
AcDbHatch
 10
0.0
 20
0.0
 30
0.0
210
0.0
220
0.0
230
1.0
  2
SOLID
 70
     1
 71
     0
 91
        1
 92
        1
 93
        1
 72
     4
 94
        3
 73
     0
 74
     0
 95
       14
 96
       10
 40
0.0
 40
0.0
 40
0.0
 40
0.0
 40
1.0
 40
1.0
 40
1.0
 40
2.0
 40
2.0
 40
2.0
 40
3.0
 40
3.0
 40
3.0
 40
3.0
 10
-0.6580132378472222
 20
-0.2263427734375
 10
-0.6580132378472222
 20
-0.2263427734375
 10
-0.5656846788194444
 20
0.0830268012152778
 10
0.6580132378472222
 20
-0.3503662109375
 10
-0.5656846788194444
 20
0.0830268012152778
 10
-0.4509629991319444
 20
0.3503662109375
 10
-0.4509629991319444
 20
0.3503662109375
 10
-0.4509629991319444
 20
0.3503662109375
 10
-0.6580132378472222
 20
-0.2263427734375
 10
-0.6580132378472222
 20
-0.2263427734375
 97
        0
 97
        0
 75
     0
 76
     1
 98
        1
 10
0.0
 20
0.0
  0
ENDBLK
  5
91
330
8D
100
AcDbEntity
  8
LAYER_1
100
AcDbBlockEnd
  0
BLOCK
  5
94
330
92
100
AcDbEntity
  8
LAYER_1
 62
     7
100
AcDbBlockBegin
  2
AI9-BLK13
 70
     0
 10
0.0
 20
0.0
 30
0.0
  3
AI9-BLK13
  1

  0
HATCH
  5
95
330
92
100
AcDbEntity
  8
LAYER_1
 62
     7
100
AcDbHatch
 10
0.0
 20
0.0
 30
0.0
210
0.0
220
0.0
230
1.0
  2
SOLID
 70
     1
 71
     0
 91
        1
 92
        1
 93
        1
 72
     4
 94
        3
 73
     0
 74
     0
 95
       14
 96
       10
 40
0.0
 40
0.0
 40
0.0
 40
0.0
 40
1.0
 40
1.0
 40
1.0
 40
2.0
 40
2.0
 40
2.0
 40
3.0
 40
3.0
 40
3.0
 40
3.0
 10
-0.6580132378472222
 20
-0.2197970920138889
 10
-0.6580132378472222
 20
-0.2197970920138889
 10
-0.5687852647569444
 20
0.0892279730902778
 10
0.6580132378472222
 20
-0.3538113064236111
 10
-0.5656846788194444
 20
0.0861273871527778
 10
-0.4509629991319444
 20
0.3538113064236111
 10
-0.4509629991319444
 20
0.3538113064236111
 10
-0.4509629991319444
 20
0.3538113064236111
 10
-0.6580132378472222
 20
-0.2197970920138889
 10
-0.6580132378472222
 20
-0.2197970920138889
 97
        0
 97
        0
 75
     0
 76
     1
 98
        1
 10
0.0
 20
0.0
  0
ENDBLK
  5
96
330
92
100
AcDbEntity
  8
LAYER_1
100
AcDbBlockEnd
  0
BLOCK
  5
99
330
97
100
AcDbEntity
  8
LAYER_1
 62
     7
100
AcDbBlockBegin
  2
AI9-BLK14
 70
     0
 10
0.0
 20
0.0
 30
0.0
  3
AI9-BLK14
  1

  0
HATCH
  5
9A
330
97
100
AcDbEntity
  8
LAYER_1
 62
     7
100
AcDbHatch
 10
0.0
 20
0.0
 30
0.0
210
0.0
220
0.0
230
1.0
  2
SOLID
 70
     1
 71
     0
 91
        1
 92
        1
 93
        1
 72
     4
 94
        3
 73
     0
 74
     0
 95
       14
 96
       10
 40
0.0
 40
0.0
 40
0.0
 40
0.0
 40
1.0
 40
1.0
 40
1.0
 40
2.0
 40
2.0
 40
2.0
 40
3.0
 40
3.0
 40
3.0
 40
3.0
 10
-0.6612860785590278
 20
-0.2611382378472222
 10
-0.6612860785590278
 20
-0.2611382378472222
 10
-0.587905544704861
 20
0.0447862413194444
 10
0.6612860785590278
 20
-0.3252170138888889
 10
-0.584804958767361
 20
0.0447862413194444
 10
-0.4828301323784722
 20
0.3252170138888889
 10
-0.4828301323784722
 20
0.3252170138888889
 10
-0.4828301323784722
 20
0.3252170138888889
 10
-0.6612860785590278
 20
-0.2611382378472222
 10
-0.6612860785590278
 20
-0.2611382378472222
 97
        0
 97
        0
 75
     0
 76
     1
 98
        1
 10
0.0
 20
0.0
  0
ENDBLK
  5
9B
330
97
100
AcDbEntity
  8
LAYER_1
100
AcDbBlockEnd
  0
BLOCK
  5
9E
330
9C
100
AcDbEntity
  8
LAYER_1
 62
     7
100
AcDbBlockBegin
  2
AI9-BLK15
 70
     0
 10
0.0
 20
0.0
 30
0.0
  3
AI9-BLK15
  1

  0
HATCH
  5
9F
330
9C
100
AcDbEntity
  8
LAYER_1
 62
     7
100
AcDbHatch
 10
0.0
 20
0.0
 30
0.0
210
0.0
220
0.0
230
1.0
  2
SOLID
 70
     1
 71
     0
 91
        1
 92
        1
 93
        1
 72
     4
 94
        3
 73
     0
 74
     0
 95
       14
 96
       10
 40
0.0
 40
0.0
 40
0.0
 40
0.0
 40
1.0
 40
1.0
 40
1.0
 40
2.0
 40
2.0
 40
2.0
 40
3.0
 40
3.0
 40
3.0
 40
3.0
 10
-0.6612860785590278
 20
-0.2675116644965278
 10
-0.6612860785590278
 20
-0.2675116644965278
 10
-0.5913506401909722
 20
0.0446139865451389
 10
0.6612860785590278
 20
-0.3184990776909722
 10
-0.587905544704861
 20
0.0446139865451389
 10
-0.4924763997395833
 20
0.3184990776909722
 10
-0.4924763997395833
 20
0.3184990776909722
 10
-0.4924763997395833
 20
0.3184990776909722
 10
-0.6612860785590278
 20
-0.2675116644965278
 10
-0.6612860785590278
 20
-0.2675116644965278
 97
        0
 97
        0
 75
     0
 76
     1
 98
        1
 10
0.0
 20
0.0
  0
ENDBLK
  5
A0
330
9C
100
AcDbEntity
  8
LAYER_1
100
AcDbBlockEnd
  0
BLOCK
  5
A3
330
A1
100
AcDbEntity
  8
LAYER_1
 62
     7
100
AcDbBlockBegin
  2
AI9-BLK16
 70
     0
 10
0.0
 20
0.0
 30
0.0
  3
AI9-BLK16
  1

  0
HATCH
  5
A4
330
A1
100
AcDbEntity
  8
LAYER_1
 62
     7
100
AcDbHatch
 10
0.0
 20
0.0
 30
0.0
210
0.0
220
0.0
230
1.0
  2
SOLID
 70
     1
 71
     0
 91
        1
 92
        1
 93
        1
 72
     4
 94
        3
 73
     0
 74
     0
 95
       14
 96
       10
 40
0.0
 40
0.0
 40
0.0
 40
0.0
 40
1.0
 40
1.0
 40
1.0
 40
2.0
 40
2.0
 40
2.0
 40
3.0
 40
3.0
 40
3.0
 40
3.0
 10
-0.6595635308159722
 20
-0.2757798936631944
 10
-0.6630086263020832
 20
-0.2757798936631944
 10
-0.5927286783854167
 20
0.0397908528645833
 10
0.6595635308159722
 20
-0.3140204535590278
 10
-0.5927286783854167
 20
0.0397908528645833
 10
-0.4938544379340277
 20
0.3140204535590278
 10
-0.4938544379340277
 20
0.3140204535590278
 10
-0.4938544379340277
 20
0.3140204535590278
 10
-0.6595635308159722
 20
-0.2757798936631944
 10
-0.6595635308159722
 20
-0.2757798936631944
 97
        0
 97
        0
 75
     0
 76
     1
 98
        1
 10
0.0
 20
0.0
  0
ENDBLK
  5
A5
330
A1
100
AcDbEntity
  8
LAYER_1
100
AcDbBlockEnd
  0
BLOCK
  5
A8
330
A6
100
AcDbEntity
  8
LAYER_1
 62
     7
100
AcDbBlockBegin
  2
AI9-BLK17
 70
     0
 10
0.0
 20
0.0
 30
0.0
  3
AI9-BLK17
  1

  0
HATCH
  5
A9
330
A6
100
AcDbEntity
  8
LAYER_1
 62
     7
100
AcDbHatch
 10
0.0
 20
0.0
 30
0.0
210
0.0
220
0.0
230
1.0
  2
SOLID
 70
     1
 71
     0
 91
        1
 92
        1
 93
        1
 72
     4
 94
        3
 73
     0
 74
     0
 95
       14
 96
       10
 40
0.0
 40
0.0
 40
0.0
 40
0.0
 40
1.0
 40
1.0
 40
1.0
 40
2.0
 40
2.0
 40
2.0
 40
3.0
 40
3.0
 40
3.0
 40
3.0
 10
-0.6611138237847222
 20
-0.2804307725694444
 10
-0.6611138237847222
 20
-0.2804307725694444
 10
-0.5942789713541666
 20
0.0382405598958333
 10
0.6611138237847222
 20
-0.3121256510416666
 10
-0.5911783854166666
 20
0.0382405598958333
 10
-0.4923041449652778
 20
0.3121256510416666
 10
-0.4923041449652778
 20
0.3121256510416666
 10
-0.4923041449652778
 20
0.3121256510416666
 10
-0.6611138237847222
 20
-0.2804307725694444
 10
-0.6611138237847222
 20
-0.2804307725694444
 97
        0
 97
        0
 75
     0
 76
     1
 98
        1
 10
0.0
 20
0.0
  0
ENDBLK
  5
AA
330
A6
100
AcDbEntity
  8
LAYER_1
100
AcDbBlockEnd
  0
BLOCK
  5
DB
330
D9
100
AcDbEntity
  8
LAYER_1
 62
     7
100
AcDbBlockBegin
  2
AI9-BLK18
 70
     0
 10
0.0
 20
0.0
 30
0.0
  3
AI9-BLK18
  1

  0
ENDBLK
  5
DC
330
D9
100
AcDbEntity
  8
LAYER_1
100
AcDbBlockEnd
  0
BLOCK
  5
DF
330
DD
100
AcDbEntity
  8
LAYER_1
 62
     7
100
AcDbBlockBegin
  2
AI9-BLK19
 70
     0
 10
0.0
 20
0.0
 30
0.0
  3
AI9-BLK19
  1

  0
INSERT
  5
E1
330
DD
100
AcDbEntity
  8
LAYER_1
 62
     7
100
AcDbBlockReference
  2
AI9-BLK20
 10
0.0
 20
0.0
 30
0.0
  0
ENDBLK
  5
F3
330
DD
100
AcDbEntity
  8
LAYER_1
100
AcDbBlockEnd
  0
BLOCK
  5
E2
330
E0
100
AcDbEntity
  8
LAYER_1
 62
     7
100
AcDbBlockBegin
  2
AI9-BLK20
 70
     0
 10
0.0
 20
0.0
 30
0.0
  3
AI9-BLK20
  1

  0
INSERT
  5
E4
330
E0
100
AcDbEntity
  8
LAYER_1
 62
     7
100
AcDbBlockReference
  2
AI9-BLK21
 10
0.0
 20
0.0
 30
0.0
  0
ENDBLK
  5
F2
330
E0
100
AcDbEntity
  8
LAYER_1
100
AcDbBlockEnd
  0
BLOCK
  5
E5
330
E3
100
AcDbEntity
  8
LAYER_1
 62
     7
100
AcDbBlockBegin
  2
AI9-BLK21
 70
     0
 10
0.0
 20
0.0
 30
0.0
  3
AI9-BLK21
  1

  0
INSERT
  5
E7
330
E3
100
AcDbEntity
  8
LAYER_1
 62
     7
100
AcDbBlockReference
  2
AI9-BLK22
 10
0.0
 20
0.0
 30
0.0
  0
ENDBLK
  5
F1
330
E3
100
AcDbEntity
  8
LAYER_1
100
AcDbBlockEnd
  0
BLOCK
  5
E8
330
E6
100
AcDbEntity
  8
LAYER_1
 62
     7
100
AcDbBlockBegin
  2
AI9-BLK22
 70
     0
 10
0.0
 20
0.0
 30
0.0
  3
AI9-BLK22
  1

  0
INSERT
  5
EA
330
E6
100
AcDbEntity
  8
LAYER_1
 62
     7
100
AcDbBlockReference
  2
AI9-BLK23
 10
0.0
 20
0.0
 30
0.0
  0
ENDBLK
  5
F0
330
E6
100
AcDbEntity
  8
LAYER_1
100
AcDbBlockEnd
  0
BLOCK
  5
EB
330
E9
100
AcDbEntity
  8
LAYER_1
 62
     7
100
AcDbBlockBegin
  2
AI9-BLK23
 70
     0
 10
0.0
 20
0.0
 30
0.0
  3
AI9-BLK23
  1

  0
CIRCLE
  5
EE
330
E9
100
AcDbEntity
  8
LAYER_1
 62
     7
100
AcDbCircle
 10
0.000172
 20
-0.000345
 30
0.0
 40
1.000111
  0
LINE
  5
ED
330
E9
100
AcDbEntity
  8
LAYER_1
 62
     7
100
AcDbLine
 10
-0.000172
 20
1.999878
 30
0.0
 11
-0.000172
 21
-1.999878
 31
0.0
  0
LINE
  5
EC
330
E9
100
AcDbEntity
  8
LAYER_1
 62
     7
100
AcDbLine
 10
-2.00005
 20
-0.000345
 30
0.0
 11
2.00005
 21
-0.000345
 31
0.0
  0
ENDBLK
  5
EF
330
E9
100
AcDbEntity
  8
LAYER_1
100
AcDbBlockEnd
  0
BLOCK
  5
F6
330
F4
100
AcDbEntity
  8
LAYER_1
 62
     7
100
AcDbBlockBegin
  2
AI9-BLK24
 70
     0
 10
0.0
 20
0.0
 30
0.0
  3
AI9-BLK24
  1

  0
INSERT
  5
F8
330
F4
100
AcDbEntity
  8
LAYER_1
 62
     7
100
AcDbBlockReference
  2
AI9-BLK25
 10
0.0
 20
0.0
 30
0.0
  0
ENDBLK
  5
10A
330
F4
100
AcDbEntity
  8
LAYER_1
100
AcDbBlockEnd
  0
BLOCK
  5
F9
330
F7
100
AcDbEntity
  8
LAYER_1
 62
     7
100
AcDbBlockBegin
  2
AI9-BLK25
 70
     0
 10
0.0
 20
0.0
 30
0.0
  3
AI9-BLK25
  1

  0
INSERT
  5
FB
330
F7
100
AcDbEntity
  8
LAYER_1
 62
     7
100
AcDbBlockReference
  2
AI9-BLK26
 10
0.0
 20
0.0
 30
0.0
  0
ENDBLK
  5
109
330
F7
100
AcDbEntity
  8
LAYER_1
100
AcDbBlockEnd
  0
BLOCK
  5
FC
330
FA
100
AcDbEntity
  8
LAYER_1
 62
     7
100
AcDbBlockBegin
  2
AI9-BLK26
 70
     0
 10
0.0
 20
0.0
 30
0.0
  3
AI9-BLK26
  1

  0
INSERT
  5
FE
330
FA
100
AcDbEntity
  8
LAYER_1
 62
     7
100
AcDbBlockReference
  2
AI9-BLK27
 10
0.0
 20
0.0
 30
0.0
  0
ENDBLK
  5
108
330
FA
100
AcDbEntity
  8
LAYER_1
100
AcDbBlockEnd
  0
BLOCK
  5
FF
330
FD
100
AcDbEntity
  8
LAYER_1
 62
     7
100
AcDbBlockBegin
  2
AI9-BLK27
 70
     0
 10
0.0
 20
0.0
 30
0.0
  3
AI9-BLK27
  1

  0
INSERT
  5
101
330
FD
100
AcDbEntity
  8
LAYER_1
 62
     7
100
AcDbBlockReference
  2
AI9-BLK28
 10
0.0
 20
0.0
 30
0.0
  0
ENDBLK
  5
107
330
FD
100
AcDbEntity
  8
LAYER_1
100
AcDbBlockEnd
  0
BLOCK
  5
102
330
100
100
AcDbEntity
  8
LAYER_1
 62
     7
100
AcDbBlockBegin
  2
AI9-BLK28
 70
     0
 10
0.0
 20
0.0
 30
0.0
  3
AI9-BLK28
  1

  0
CIRCLE
  5
105
330
100
100
AcDbEntity
  8
LAYER_1
 62
     7
100
AcDbCircle
 10
0.000172
 20
-0.000345
 30
0.0
 40
1.000111
  0
LINE
  5
104
330
100
100
AcDbEntity
  8
LAYER_1
 62
     7
100
AcDbLine
 10
-0.000172
 20
1.999878
 30
0.0
 11
-0.000172
 21
-1.999878
 31
0.0
  0
LINE
  5
103
330
100
100
AcDbEntity
  8
LAYER_1
 62
     7
100
AcDbLine
 10
-2.00005
 20
-0.000345
 30
0.0
 11
2.00005
 21
-0.000345
 31
0.0
  0
ENDBLK
  5
106
330
100
100
AcDbEntity
  8
LAYER_1
100
AcDbBlockEnd
  0
BLOCK
  5
10D
330
10B
100
AcDbEntity
  8
LAYER_1
 62
     7
100
AcDbBlockBegin
  2
AI9-BLK29
 70
     0
 10
0.0
 20
0.0
 30
0.0
  3
AI9-BLK29
  1

  0
INSERT
  5
10F
330
10B
100
AcDbEntity
  8
LAYER_1
 62
     7
100
AcDbBlockReference
  2
AI9-BLK30
 10
0.0
 20
0.0
 30
0.0
  0
ENDBLK
  5
121
330
10B
100
AcDbEntity
  8
LAYER_1
100
AcDbBlockEnd
  0
BLOCK
  5
110
330
10E
100
AcDbEntity
  8
LAYER_1
 62
     7
100
AcDbBlockBegin
  2
AI9-BLK30
 70
     0
 10
0.0
 20
0.0
 30
0.0
  3
AI9-BLK30
  1

  0
INSERT
  5
112
330
10E
100
AcDbEntity
  8
LAYER_1
 62
     7
100
AcDbBlockReference
  2
AI9-BLK31
 10
0.0
 20
0.0
 30
0.0
  0
ENDBLK
  5
120
330
10E
100
AcDbEntity
  8
LAYER_1
100
AcDbBlockEnd
  0
BLOCK
  5
113
330
111
100
AcDbEntity
  8
LAYER_1
 62
     7
100
AcDbBlockBegin
  2
AI9-BLK31
 70
     0
 10
0.0
 20
0.0
 30
0.0
  3
AI9-BLK31
  1

  0
INSERT
  5
115
330
111
100
AcDbEntity
  8
LAYER_1
 62
     7
100
AcDbBlockReference
  2
AI9-BLK32
 10
0.0
 20
0.0
 30
0.0
  0
ENDBLK
  5
11F
330
111
100
AcDbEntity
  8
LAYER_1
100
AcDbBlockEnd
  0
BLOCK
  5
116
330
114
100
AcDbEntity
  8
LAYER_1
 62
     7
100
AcDbBlockBegin
  2
AI9-BLK32
 70
     0
 10
0.0
 20
0.0
 30
0.0
  3
AI9-BLK32
  1

  0
INSERT
  5
118
330
114
100
AcDbEntity
  8
LAYER_1
 62
     7
100
AcDbBlockReference
  2
AI9-BLK33
 10
0.0
 20
0.0
 30
0.0
  0
ENDBLK
  5
11E
330
114
100
AcDbEntity
  8
LAYER_1
100
AcDbBlockEnd
  0
BLOCK
  5
119
330
117
100
AcDbEntity
  8
LAYER_1
 62
     7
100
AcDbBlockBegin
  2
AI9-BLK33
 70
     0
 10
0.0
 20
0.0
 30
0.0
  3
AI9-BLK33
  1

  0
CIRCLE
  5
11C
330
117
100
AcDbEntity
  8
LAYER_1
 62
     7
100
AcDbCircle
 10
0.000172
 20
-0.000345
 30
0.0
 40
1.000111
  0
LINE
  5
11B
330
117
100
AcDbEntity
  8
LAYER_1
 62
     7
100
AcDbLine
 10
-0.000172
 20
1.999878
 30
0.0
 11
-0.000172
 21
-1.999878
 31
0.0
  0
LINE
  5
11A
330
117
100
AcDbEntity
  8
LAYER_1
 62
     7
100
AcDbLine
 10
-2.00005
 20
-0.000345
 30
0.0
 11
2.00005
 21
-0.000345
 31
0.0
  0
ENDBLK
  5
11D
330
117
100
AcDbEntity
  8
LAYER_1
100
AcDbBlockEnd
  0
ENDSEC
  0
SECTION
  2
ENTITIES
  0
LINE
  5
17B
330
A
100
AcDbEntity
  8
LAYER_1
 62
   230
100
AcDbLine
 10
-548.856421
 20
1090.272125
 30
0.0
 11
-548.856421
 21
-832.796023
 31
0.0
  0
LINE
  5
17A
330
A
100
AcDbEntity
  8
LAYER_1
 62
   230
100
AcDbLine
 10
-392.305425
 20
1090.272125
 30
0.0
 11
-392.305425
 21
-832.796023
 31
0.0
  0
LINE
  5
179
330
A
100
AcDbEntity
  8
LAYER_1
 62
   230
100
AcDbLine
 10
-235.75753
 20
1090.272125
 30
0.0
 11
-235.75753
 21
-832.796023
 31
0.0
  0
LINE
  5
178
330
A
100
AcDbEntity
  8
LAYER_1
 62
   230
100
AcDbLine
 10
-79.20619
 20
1090.272125
 30
0.0
 11
-79.20619
 21
-832.796023
 31
0.0
  0
LINE
  5
177
330
A
100
AcDbEntity
  8
LAYER_1
 62
   230
100
AcDbLine
 10
77.344805
 20
1090.272125
 30
0.0
 11
77.344805
 21
-832.796023
 31
0.0
  0
LINE
  5
176
330
A
100
AcDbEntity
  8
LAYER_1
 62
   230
100
AcDbLine
 10
233.899246
 20
1090.272125
 30
0.0
 11
233.899246
 21
-832.796023
 31
0.0
  0
LINE
  5
175
330
A
100
AcDbEntity
  8
LAYER_1
 62
   230
100
AcDbLine
 10
390.450241
 20
1090.272125
 30
0.0
 11
390.450241
 21
-832.796023
 31
0.0
  0
LINE
  5
174
330
A
100
AcDbEntity
  8
LAYER_1
 62
   230
100
AcDbLine
 10
547.001581
 20
1090.272125
 30
0.0
 11
547.001581
 21
-832.796023
 31
0.0
  0
LINE
  5
173
330
A
100
AcDbEntity
  8
LAYER_1
 62
   230
100
AcDbLine
 10
703.552577
 20
1090.272125
 30
0.0
 11
703.552577
 21
-832.796023
 31
0.0
  0
LINE
  5
172
330
A
100
AcDbEntity
  8
LAYER_1
 62
   230
100
AcDbLine
 10
860.103573
 20
1090.272125
 30
0.0
 11
860.103573
 21
-832.796023
 31
0.0
  0
LINE
  5
171
330
A
100
AcDbEntity
  8
LAYER_1
 62
   230
100
AcDbLine
 10
-595.826164
 20
-833.05096
 30
0.0
 11
898.152585
 21
-833.057161
 31
0.0
  0
LINE
  5
170
330
A
100
AcDbEntity
  8
LAYER_1
 62
   230
100
AcDbLine
 10
-595.826164
 20
-676.503065
 30
0.0
 11
898.152585
 21
-676.503065
 31
0.0
  0
LINE
  5
16F
330
A
100
AcDbEntity
  8
LAYER_1
 62
   230
100
AcDbLine
 10
-595.826164
 20
-519.948625
 30
0.0
 11
898.152585
 21
-519.948625
 31
0.0
  0
LINE
  5
16E
330
A
100
AcDbEntity
  8
LAYER_1
 62
   230
100
AcDbLine
 10
-595.826164
 20
-363.397285
 30
0.0
 11
898.152585
 21
-363.40073
 31
0.0
  0
LINE
  5
16D
330
A
100
AcDbEntity
  8
LAYER_1
 62
   230
100
AcDbLine
 10
-595.826164
 20
-206.846289
 30
0.0
 11
898.152585
 21
-206.84939
 31
0.0
  0
LINE
  5
16C
330
A
100
AcDbEntity
  8
LAYER_1
 62
   230
100
AcDbLine
 10
-595.826164
 20
-50.291848
 30
0.0
 11
898.152585
 21
-50.298394
 31
0.0
  0
LINE
  5
16B
330
A
100
AcDbEntity
  8
LAYER_1
 62
   230
100
AcDbLine
 10
-595.826164
 20
106.256047
 30
0.0
 11
898.152585
 21
106.249501
 31
0.0
  0
LINE
  5
16A
330
A
100
AcDbEntity
  8
LAYER_1
 62
   230
100
AcDbLine
 10
-595.826164
 20
262.810487
 30
0.0
 11
898.152585
 21
262.803942
 31
0.0
  0
LINE
  5
169
330
A
100
AcDbEntity
  8
LAYER_1
 62
   230
100
AcDbLine
 10
-595.826164
 20
419.358382
 30
0.0
 11
898.152585
 21
419.358382
 31
0.0
  0
LINE
  5
168
330
A
100
AcDbEntity
  8
LAYER_1
 62
   230
100
AcDbLine
 10
-595.826164
 20
575.912478
 30
0.0
 11
898.152585
 21
575.906277
 31
0.0
  0
LINE
  5
167
330
A
100
AcDbEntity
  8
LAYER_1
 62
   230
100
AcDbLine
 10
-595.826164
 20
732.463818
 30
0.0
 11
898.152585
 21
732.463818
 31
0.0
  0
LINE
  5
166
330
A
100
AcDbEntity
  8
LAYER_1
 62
   230
100
AcDbLine
 10
-595.826164
 20
889.018259
 30
0.0
 11
898.152585
 21
889.011713
 31
0.0
  0
LINE
  5
165
330
A
100
AcDbEntity
  8
LAYER_1
 62
   230
100
AcDbLine
 10
-595.826164
 20
1045.566154
 30
0.0
 11
898.152585
 21
1045.563053
 31
0.0
  0
MTEXT
  5
164
330
A
100
AcDbEntity
  8
LAYER_1
 62
     7
100
AcDbMText
 10
-677.162629
 20
-815.510105
 30
0.0
 40
30.816531
 41
0.0
 46
0.0
 71
     1
 72
     2
  1
\W1.00;\fMyriad Roman|b0|i0;200
  7
STD
 73
     1
 44
1.0
  0
MTEXT
  5
163
330
A
100
AcDbEntity
  8
LAYER_1
 62
     7
100
AcDbMText
 10
-677.162629
 20
-658.92397
 30
0.0
 40
30.816531
 41
0.0
 46
0.0
 71
     1
 72
     2
  1
\W1.00;\fMyriad Roman|b0|i0;210
  7
STD
 73
     1
 44
1.0
  0
MTEXT
  5
162
330
A
100
AcDbEntity
  8
LAYER_1
 62
     7
100
AcDbMText
 10
-677.162629
 20
-502.33749
 30
0.0
 40
30.816531
 41
0.0
 46
0.0
 71
     1
 72
     2
  1
\W1.00;\fMyriad Roman|b0|i0;220
  7
STD
 73
     1
 44
1.0
  0
MTEXT
  5
161
330
A
100
AcDbEntity
  8
LAYER_1
 62
     7
100
AcDbMText
 10
-677.162629
 20
-345.748254
 30
0.0
 40
30.816531
 41
0.0
 46
0.0
 71
     1
 72
     2
  1
\W1.00;\fMyriad Roman|b0|i0;230
  7
STD
 73
     1
 44
1.0
  0
MTEXT
  5
160
330
A
100
AcDbEntity
  8
LAYER_1
 62
     7
100
AcDbMText
 10
-677.162629
 20
-189.165219
 30
0.0
 40
30.816531
 41
0.0
 46
0.0
 71
     1
 72
     2
  1
\W1.00;\fMyriad Roman|b0|i0;240
  7
STD
 73
     1
 44
1.0
  0
MTEXT
  5
15F
330
A
100
AcDbEntity
  8
LAYER_1
 62
     7
100
AcDbMText
 10
-677.162629
 20
-32.575638
 30
0.0
 40
30.816531
 41
0.0
 46
0.0
 71
     1
 72
     2
  1
\W1.00;\fMyriad Roman|b0|i0;250
  7
STD
 73
     1
 44
1.0
  0
MTEXT
  5
15E
330
A
100
AcDbEntity
  8
LAYER_1
 62
     7
100
AcDbMText
 10
-677.162629
 20
124.010498
 30
0.0
 40
30.816531
 41
0.0
 46
0.0
 71
     1
 72
     2
  1
\W1.00;\fMyriad Roman|b0|i0;260
  7
STD
 73
     1
 44
1.0
  0
MTEXT
  5
15D
330
A
100
AcDbEntity
  8
LAYER_1
 62
     7
100
AcDbMText
 10
-677.162629
 20
280.599734
 30
0.0
 40
30.816531
 41
0.0
 46
0.0
 71
     1
 72
     2
  1
\W1.00;\fMyriad Roman|b0|i0;270
  7
STD
 73
     1
 44
1.0
  0
MTEXT
  5
15C
330
A
100
AcDbEntity
  8
LAYER_1
 62
     7
100
AcDbMText
 10
-677.162629
 20
437.186214
 30
0.0
 40
30.816531
 41
0.0
 46
0.0
 71
     1
 72
     2
  1
\W1.00;\fMyriad Roman|b0|i0;280
  7
STD
 73
     1
 44
1.0
  0
MTEXT
  5
15B
330
A
100
AcDbEntity
  8
LAYER_1
 62
     7
100
AcDbMText
 10
-677.162629
 20
593.772349
 30
0.0
 40
30.816531
 41
0.0
 46
0.0
 71
     1
 72
     2
  1
\W1.00;\fMyriad Roman|b0|i0;290
  7
STD
 73
     1
 44
1.0
  0
MTEXT
  5
15A
330
A
100
AcDbEntity
  8
LAYER_1
 62
     7
100
AcDbMText
 10
-677.162629
 20
750.352284
 30
0.0
 40
30.816531
 41
0.0
 46
0.0
 71
     1
 72
     2
  1
\W1.00;\fMyriad Roman|b0|i0;300
  7
STD
 73
     1
 44
1.0
  0
MTEXT
  5
159
330
A
100
AcDbEntity
  8
LAYER_1
 62
     7
100
AcDbMText
 10
-677.162629
 20
906.94152
 30
0.0
 40
30.816531
 41
0.0
 46
0.0
 71
     1
 72
     2
  1
\W1.00;\fMyriad Roman|b0|i0;310
  7
STD
 73
     1
 44
1.0
  0
MTEXT
  5
158
330
A
100
AcDbEntity
  8
LAYER_1
 62
     7
100
AcDbMText
 10
-677.162629
 20
1063.530756
 30
0.0
 40
30.816531
 41
0.0
 46
0.0
 71
     1
 72
     2
  1
\W1.00;\fMyriad Roman|b0|i0;320
  7
STD
 73
     1
 44
1.0
  0
MTEXT
  5
157
330
A
100
AcDbEntity
  8
LAYER_1
 62
     7
100
AcDbMText
 10
-581.331613
 20
1149.449715
 30
0.0
 40
30.816531
 41
0.0
 46
0.0
 71
     1
 72
     2
  1
\W1.00;\fMyriad Roman|b0|i0;730
  7
STD
 73
     1
 44
1.0
  0
MTEXT
  5
156
330
A
100
AcDbEntity
  8
LAYER_1
 62
     7
100
AcDbMText
 10
-425.078619
 20
1149.449715
 30
0.0
 40
30.816531
 41
0.0
 46
0.0
 71
     1
 72
     2
  1
\W1.00;\fMyriad Roman|b0|i0;740
  7
STD
 73
     1
 44
1.0
  0
MTEXT
  5
155
330
A
100
AcDbEntity
  8
LAYER_1
 62
     7
100
AcDbMText
 10
-268.828725
 20
1149.449715
 30
0.0
 40
30.816531
 41
0.0
 46
0.0
 71
     1
 72
     2
  1
\W1.00;\fMyriad Roman|b0|i0;750
  7
STD
 73
     1
 44
1.0
  0
MTEXT
  5
154
330
A
100
AcDbEntity
  8
LAYER_1
 62
     7
100
AcDbMText
 10
-112.575385
 20
1149.449715
 30
0.0
 40
30.816531
 41
0.0
 46
0.0
 71
     1
 72
     2
  1
\W1.00;\fMyriad Roman|b0|i0;760
  7
STD
 73
     1
 44
1.0
  0
MTEXT
  5
153
330
A
100
AcDbEntity
  8
LAYER_1
 62
     7
100
AcDbMText
 10
43.674509
 20
1149.446614
 30
0.0
 40
30.816531
 41
0.0
 46
0.0
 71
     1
 72
     2
  1
\W1.00;\fMyriad Roman|b0|i0;770
  7
STD
 73
     1
 44
1.0
  0
MTEXT
  5
152
330
A
100
AcDbEntity
  8
LAYER_1
 62
     7
100
AcDbMText
 10
199.929226
 20
1149.446614
 30
0.0
 40
30.816531
 41
0.0
 46
0.0
 71
     1
 72
     2
  1
\W1.00;\fMyriad Roman|b0|i0;780
  7
STD
 73
     1
 44
1.0
  0
MTEXT
  5
151
330
A
100
AcDbEntity
  8
LAYER_1
 62
     7
100
AcDbMText
 10
356.180843
 20
1149.446614
 30
0.0
 40
30.816531
 41
0.0
 46
0.0
 71
     1
 72
     2
  1
\W1.00;\fMyriad Roman|b0|i0;790
  7
STD
 73
     1
 44
1.0
  0
MTEXT
  5
150
330
A
100
AcDbEntity
  8
LAYER_1
 62
     7
100
AcDbMText
 10
512.43556
 20
1149.446614
 30
0.0
 40
30.816531
 41
0.0
 46
0.0
 71
     1
 72
     2
  1
\W1.00;\fMyriad Roman|b0|i0;800
  7
STD
 73
     1
 44
1.0
  0
MTEXT
  5
14F
330
A
100
AcDbEntity
  8
LAYER_1
 62
     7
100
AcDbMText
 10
668.687177
 20
1149.446614
 30
0.0
 40
30.816531
 41
0.0
 46
0.0
 71
     1
 72
     2
  1
\W1.00;\fMyriad Roman|b0|i0;810
  7
STD
 73
     1
 44
1.0
  0
MTEXT
  5
14E
330
A
100
AcDbEntity
  8
LAYER_1
 62
     7
100
AcDbMText
 10
824.942239
 20
1149.446614
 30
0.0
 40
30.816531
 41
0.0
 46
0.0
 71
     1
 72
     2
  1
\W1.00;\fMyriad Roman|b0|i0;820
  7
STD
 73
     1
 44
1.0
  0
HATCH
  5
14D
330
A
100
AcDbEntity
  8
LAYER_1
 62
   252
100
AcDbHatch
 10
0.0
 20
0.0
 30
0.0
210
0.0
220
0.0
230
1.0
  2
SOLID
 70
     1
 71
     0
 91
        1
 92
        1
 93
        1
 72
     4
 94
        3
 73
     0
 74
     0
 95
       56
 96
       52
 40
0.0
 40
0.0
 40
0.0
 40
0.0
 40
1.0
 40
1.0
 40
1.0
 40
2.0
 40
2.0
 40
2.0
 40
3.0
 40
3.0
 40
3.0
 40
4.0
 40
4.0
 40
4.0
 40
5.0
 40
5.0
 40
5.0
 40
6.0
 40
6.0
 40
6.0
 40
7.0
 40
7.0
 40
7.0
 40
8.0
 40
8.0
 40
8.0
 40
9.0
 40
9.0
 40
9.0
 40
10.0
 40
10.0
 40
10.0
 40
11.0
 40
11.0
 40
11.0
 40
12.0
 40
12.0
 40
12.0
 40
13.0
 40
13.0
 40
13.0
 40
14.0
 40
14.0
 40
14.0
 40
15.0
 40
15.0
 40
15.0
 40
16.0
 40
16.0
 40
16.0
 40
17.0
 40
17.0
 40
17.0
 40
17.0
 10
262.8501057942708
 20
518.9288764105902
 10
262.5121419270833
 20
518.6356987847222
 10
262.193470594618
 20
518.4765353732638
 10
261.840003797743
 20
518.2594943576388
 10
261.5688747829861
 20
518.0941297743055
 10
261.1354817708333
 20
517.8674424913194
 10
260.922230360243
 20
517.6414442274305
 10
260.6321533203125
 20
517.3258734809027
 10
260.6032145182292
 20
516.8001519097222
 10
260.581165907118
 20
516.379505750868
 10
260.9125840928819
 20
516.4049994574652
 10
261.1609754774306
 20
516.2103515624999
 10
261.4861924913194
 20
516.1945041232639
 10
261.9481797960069
 20
516.1724555121527
 10
262.305091688368
 20
516.1311143663194
 10
262.7736246744792
 20
516.0225938585069
 10
263.2545600043402
 20
515.9140733506944
 10
263.6369656032986
 20
515.75146484375
 10
264.140638563368
 20
515.6846299913194
 10
264.5037516276041
 20
515.6305419921874
 10
264.8544623480902
 20
515.5764539930555
 10
265.1986273871527
 20
515.4682779947916
 10
265.7656901041667
 20
515.2960232204861
 10
266.317249891493
 20
515.0217936197917
 10
266.893958875868
 20
514.9708062065972
 10
267.5344021267361
 20
514.9136176215277
 10
268.1813910590278
 20
514.8943250868055
 10
268.8218343098958
 20
514.7544542100694
 10
269.7747477213541
 20
514.5567057291667
 10
270.6349880642361
 20
514.1870469835069
 10
271.600648328993
 20
514.1074652777777
 10
271.6578369140625
 20
514.8753770616319
 10
271.3743055555555
 20
515.5316677517361
 10
271.1703559027778
 20
516.2392903645833
 10
271.0618353949653
 20
516.6216959635416
 10
271.0683810763888
 20
516.6788845486111
 10
270.7814046223958
 20
516.8924804687499
 10
270.0041910807291
 20
517.4757351345486
 10
268.7963406032986
 20
517.1508626302083
 10
268.1304036458333
 20
517.985609266493
 10
267.7827935112847
 20
518.4159016927083
 10
267.6394775390625
 20
519.0084581163194
 10
267.4134792751736
 20
519.5024848090277
 10
267.1709445529514
 20
520.0251057942708
 10
266.8078314887152
 20
520.509486219618
 10
266.5814887152778
 20
521.0510552300346
 10
266.0747151692708
 20
522.2558051215277
 10
264.5199435763889
 20
521.8479058159721
 10
263.9718288845486
 20
520.904638671875
 10
263.5894232855903
 20
520.2418023003472
 10
263.452308485243
 20
519.4707899305555
 10
262.8501057942708
 20
518.9288764105902
 97
        0
 97
        0
 75
     0
 76
     1
 98
        1
 10
0.0
 20
0.0
  0
HATCH
  5
14C
330
A
100
AcDbEntity
  8
LAYER_1
 62
   252
100
AcDbHatch
 10
0.0
 20
0.0
 30
0.0
210
0.0
220
0.0
230
1.0
  2
SOLID
 70
     1
 71
     0
 91
        1
 92
        1
 93
        1
 72
     4
 94
        3
 73
     0
 74
     0
 95
       53
 96
       49
 40
0.0
 40
0.0
 40
0.0
 40
0.0
 40
1.0
 40
1.0
 40
1.0
 40
2.0
 40
2.0
 40
2.0
 40
3.0
 40
3.0
 40
3.0
 40
4.0
 40
4.0
 40
4.0
 40
5.0
 40
5.0
 40
5.0
 40
6.0
 40
6.0
 40
6.0
 40
7.0
 40
7.0
 40
7.0
 40
8.0
 40
8.0
 40
8.0
 40
9.0
 40
9.0
 40
9.0
 40
10.0
 40
10.0
 40
10.0
 40
11.0
 40
11.0
 40
11.0
 40
12.0
 40
12.0
 40
12.0
 40
13.0
 40
13.0
 40
13.0
 40
14.0
 40
14.0
 40
14.0
 40
15.0
 40
15.0
 40
15.0
 40
16.0
 40
16.0
 40
16.0
 40
16.0
 10
280.5868353949652
 20
548.6796875
 10
280.2716091579861
 20
548.6032063802082
 10
279.3090494791666
 20
548.2972819010416
 10
279.3345431857639
 20
547.8253038194443
 10
279.350390625
 20
547.5514187282986
 10
280.0897081163194
 20
546.9330240885416
 10
280.2778103298611
 20
546.7166720920138
 10
280.7621907552083
 20
546.1813042534721
 10
281.3867865668403
 20
545.7286187065972
 10
282.0368760850694
 20
545.4226942274305
 10
283.2319797092014
 20
544.8459852430555
 10
284.573499891493
 20
544.3326660156249
 10
285.8671332465278
 20
543.9058186848957
 10
286.2815782335069
 20
543.7783501519096
 10
286.9285671657986
 20
543.6126410590277
 10
287.2468939887153
 20
543.3260091145833
 10
287.4763373480902
 20
543.1220594618055
 10
287.6103515625
 20
542.831982421875
 10
287.8780354817708
 20
542.6311333550346
 10
288.6204535590277
 20
542.0706163194444
 10
290.1183810763889
 20
541.748499891493
 10
290.9817220052083
 20
542.1849934895832
 10
291.7561794704861
 20
542.5832465277778
 10
291.7082926432291
 20
544.0332872178819
 10
291.7592800564236
 20
544.7536566840278
 10
291.7944200303819
 20
545.2952256944444
 10
291.9794216579861
 20
545.8688340928819
 10
291.9346354166667
 20
546.4231499565972
 10
291.8932942708333
 20
546.9585177951388
 10
291.6097629123263
 20
547.0160508897569
 10
291.1922173394097
 20
547.1307725694444
 10
290.6950900607638
 20
547.2775336371527
 10
290.3030381944444
 20
547.6310004340278
 10
289.8059109157986
 20
547.7874077690972
 10
289.33427734375
 20
547.9338243272568
 10
288.827503797743
 20
547.9658637152777
 10
288.356214735243
 20
548.1122802734375
 10
287.8718343098958
 20
548.2652425130208
 10
287.4222493489583
 20
548.4275065104166
 10
286.9189208984375
 20
548.520179578993
 10
286.1255154079861
 20
548.6603949652778
 10
285.3190185546875
 20
548.7816623263889
 10
284.5032199435764
 20
548.6796875
 10
283.885169813368
 20
548.6032063802082
 10
283.4390299479167
 20
548.5074327256943
 10
282.8368272569444
 20
548.6156087239583
 10
282.1357503255208
 20
548.7430772569444
 10
281.2944580078125
 20
548.8581434461805
 10
280.5868353949652
 20
548.6796875
 97
        0
 97
        0
 75
     0
 76
     1
 98
        1
 10
0.0
 20
0.0
  0
HATCH
  5
14B
330
A
100
AcDbEntity
  8
LAYER_1
 62
   252
100
AcDbHatch
 10
0.0
 20
0.0
 30
0.0
210
0.0
220
0.0
230
1.0
  2
SOLID
 70
     1
 71
     0
 91
        1
 92
        1
 93
        1
 72
     4
 94
        3
 73
     0
 74
     0
 95
       53
 96
       49
 40
0.0
 40
0.0
 40
0.0
 40
0.0
 40
1.0
 40
1.0
 40
1.0
 40
2.0
 40
2.0
 40
2.0
 40
3.0
 40
3.0
 40
3.0
 40
4.0
 40
4.0
 40
4.0
 40
5.0
 40
5.0
 40
5.0
 40
6.0
 40
6.0
 40
6.0
 40
7.0
 40
7.0
 40
7.0
 40
8.0
 40
8.0
 40
8.0
 40
9.0
 40
9.0
 40
9.0
 40
10.0
 40
10.0
 40
10.0
 40
11.0
 40
11.0
 40
11.0
 40
12.0
 40
12.0
 40
12.0
 40
13.0
 40
13.0
 40
13.0
 40
14.0
 40
14.0
 40
14.0
 40
15.0
 40
15.0
 40
15.0
 40
16.0
 40
16.0
 40
16.0
 40
16.0
 10
262.352978515625
 20
551.9363362630207
 10
262.2224093967014
 20
551.8471082899305
 10
262.0119140625
 20
551.5508300781249
 10
261.8813449435764
 20
551.439208984375
 10
261.5020399305556
 20
551.1077907986111
 10
261.1385823567708
 20
550.6774983723958
 10
260.7882161458333
 20
550.3047390407986
 10
260.0137586805556
 20
549.4889404296874
 10
259.8067084418403
 20
548.3799641927083
 10
259.3447211371528
 20
547.3919108072917
 10
259.1056315104166
 20
546.8758355034722
 10
258.8985812717013
 20
546.6780870225693
 10
259.2331000434028
 20
546.2098985460069
 10
259.5293782552083
 20
545.7892523871527
 10
259.9341769748264
 20
545.4006456163194
 10
260.2783420138888
 20
544.9955023871528
 10
260.7723687065972
 20
544.4156928168402
 10
261.2471028645833
 20
544.3743516710069
 10
261.9929660373264
 20
544.5145670572916
 10
262.5472819010416
 20
544.6130967881944
 10
263.105042860243
 20
544.779150390625
 10
263.6338650173611
 20
544.9831000434027
 10
264.4434624565972
 20
545.2952256944444
 10
264.8896023220486
 20
545.7988986545139
 10
265.0711588541666
 20
546.684632703993
 10
265.1379937065972
 20
547.0349989149305
 10
265.287855360243
 20
547.3505696614583
 10
265.4184244791666
 20
547.6854329427083
 10
265.5903347439236
 20
548.1057345920138
 10
265.6158284505208
 20
548.0867865668403
 10
265.91865234375
 20
548.3193305121528
 10
266.3806396484375
 20
548.6665961371527
 10
266.5177544487847
 20
549.0620930989583
 10
266.8016303168403
 20
549.5623209635417
 10
266.9353000217014
 20
549.8014105902778
 10
267.017982313368
 20
549.9478271484375
 10
267.0310736762153
 20
550.2282579210068
 10
267.0434760199652
 20
550.5021430121527
 10
266.9638943142361
 20
550.8018663194443
 10
266.8557183159722
 20
551.0506022135417
 10
266.5783881293402
 20
551.6431586371527
 10
266.2276774088542
 20
551.6176649305555
 10
265.6158284505208
 20
551.6941460503472
 10
264.9819308810764
 20
551.7768283420138
 10
264.4017768012152
 20
551.9938693576388
 10
263.7551323784722
 20
551.9966254340277
 10
263.4268147786458
 20
552.0000705295139
 10
262.6079155815972
 20
552.1082465277777
 10
262.352978515625
 20
551.9363362630207
 97
        0
 97
        0
 75
     0
 76
     1
 98
        1
 10
0.0
 20
0.0
  0
HATCH
  5
14A
330
A
100
AcDbEntity
  8
LAYER_1
 62
   252
100
AcDbHatch
 10
0.0
 20
0.0
 30
0.0
210
0.0
220
0.0
230
1.0
  2
SOLID
 70
     1
 71
     0
 91
        1
 92
        1
 93
        1
 72
     4
 94
        3
 73
     0
 74
     0
 95
       47
 96
       43
 40
0.0
 40
0.0
 40
0.0
 40
0.0
 40
1.0
 40
1.0
 40
1.0
 40
2.0
 40
2.0
 40
2.0
 40
3.0
 40
3.0
 40
3.0
 40
4.0
 40
4.0
 40
4.0
 40
5.0
 40
5.0
 40
5.0
 40
6.0
 40
6.0
 40
6.0
 40
7.0
 40
7.0
 40
7.0
 40
8.0
 40
8.0
 40
8.0
 40
9.0
 40
9.0
 40
9.0
 40
10.0
 40
10.0
 40
10.0
 40
11.0
 40
11.0
 40
11.0
 40
12.0
 40
12.0
 40
12.0
 40
13.0
 40
13.0
 40
13.0
 40
14.0
 40
14.0
 40
14.0
 40
14.0
 10
181.3095187717014
 20
521.9877766927083
 10
181.4245849609375
 20
521.59296875
 10
181.5424072265625
 20
521.0954969618055
 10
181.7653049045139
 20
520.745130750868
 10
181.8896728515625
 20
520.5442816840277
 10
182.0839762369791
 20
520.3789171006944
 10
182.233837890625
 20
520.2035617404514
 10
182.4601806640625
 20
519.9358778211805
 10
182.5142686631944
 20
519.5693196614583
 10
182.756458875868
 20
519.3240288628472
 10
182.9507622612847
 20
519.1297254774305
 10
183.3107747395833
 20
518.9767632378472
 10
183.5498643663194
 20
518.8269015842013
 10
183.9164225260417
 20
518.5974582248264
 10
184.0183973524305
 20
518.4699896918403
 10
184.2540418836805
 20
518.1478732638889
 10
184.4614366319444
 20
517.8646864149305
 10
184.987158203125
 20
517.1443169487846
 10
185.3757649739583
 20
517.1536187065972
 10
185.8666910807291
 20
517.1667100694444
 10
185.4363986545139
 20
517.8391927083333
 10
185.3440700954861
 20
518.0493435329861
 10
185.0953342013889
 20
518.6229519314236
 10
185.1845621744791
 20
519.1138780381943
 10
185.2992838541666
 20
519.7284830729167
 10
185.391956922743
 20
520.2356011284721
 10
185.7009819878472
 20
520.6114610460069
 10
185.850843641493
 20
521.0830946180555
 10
186.0451470269097
 20
521.7011447482638
 10
185.8315511067708
 20
522.5296902126736
 10
185.7581705729166
 20
523.1542860243055
 10
185.6658420138889
 20
523.9252983940971
 10
185.5511203342014
 20
524.7094021267361
 10
185.1656141493055
 20
525.3977322048611
 10
184.6588406032986
 20
526.3186062282986
 10
182.868079969618
 20
527.398988172743
 10
181.8228379991319
 20
526.7234049479166
 10
181.2237358940972
 20
526.3409993489582
 10
181.1758490668403
 20
525.4232259114583
 10
181.0931667751736
 20
524.7920844184027
 10
180.9656982421875
 20
523.8426161024305
 10
181.0421793619792
 20
522.9027940538194
 10
181.3095187717014
 20
521.9877766927083
 97
        0
 97
        0
 75
     0
 76
     1
 98
        1
 10
0.0
 20
0.0
  0
HATCH
  5
149
330
A
100
AcDbEntity
  8
LAYER_1
 62
   252
100
AcDbHatch
 10
0.0
 20
0.0
 30
0.0
210
0.0
220
0.0
230
1.0
  2
SOLID
 70
     1
 71
     0
 91
        1
 92
        1
 93
        1
 72
     4
 94
        3
 73
     0
 74
     0
 95
       89
 96
       85
 40
0.0
 40
0.0
 40
0.0
 40
0.0
 40
1.0
 40
1.0
 40
1.0
 40
2.0
 40
2.0
 40
2.0
 40
3.0
 40
3.0
 40
3.0
 40
4.0
 40
4.0
 40
4.0
 40
5.0
 40
5.0
 40
5.0
 40
6.0
 40
6.0
 40
6.0
 40
7.0
 40
7.0
 40
7.0
 40
8.0
 40
8.0
 40
8.0
 40
9.0
 40
9.0
 40
9.0
 40
10.0
 40
10.0
 40
10.0
 40
11.0
 40
11.0
 40
11.0
 40
12.0
 40
12.0
 40
12.0
 40
13.0
 40
13.0
 40
13.0
 40
14.0
 40
14.0
 40
14.0
 40
15.0
 40
15.0
 40
15.0
 40
16.0
 40
16.0
 40
16.0
 40
17.0
 40
17.0
 40
17.0
 40
18.0
 40
18.0
 40
18.0
 40
19.0
 40
19.0
 40
19.0
 40
20.0
 40
20.0
 40
20.0
 40
21.0
 40
21.0
 40
21.0
 40
22.0
 40
22.0
 40
22.0
 40
23.0
 40
23.0
 40
23.0
 40
24.0
 40
24.0
 40
24.0
 40
25.0
 40
25.0
 40
25.0
 40
26.0
 40
26.0
 40
26.0
 40
27.0
 40
27.0
 40
27.0
 40
28.0
 40
28.0
 40
28.0
 40
28.0
 10
81.97191297743055
 20
530.5984483506944
 10
81.56091308593749
 20
530.9553602430555
 10
81.18470865885416
 20
531.347412109375
 10
80.71962076822916
 20
531.471435546875
 10
79.89107530381943
 20
531.694677734375
 10
79.02428927951388
 20
531.6626383463541
 10
78.64808485243054
 20
530.9519151475694
 10
78.16714952256943
 20
530.0503336588541
 10
78.80759277343749
 20
528.3357096354166
 10
79.32711317274305
 20
527.5963921440972
 10
79.77290852864583
 20
526.9655951605903
 10
80.24798719618055
 20
526.5387478298611
 10
80.47088487413194
 20
525.7704915364583
 10
80.65898708767361
 20
525.1173014322916
 10
80.59835340711805
 20
524.2443142361111
 10
80.60179850260415
 20
523.5749321831597
 10
80.62074652777777
 20
520.1363823784721
 10
77.42128634982639
 20
520.0571451822916
 10
74.71585286458333
 20
520.4233588324653
 10
72.02626681857639
 20
520.7961181640625
 10
69.050048828125
 20
521.0954969618055
 10
66.43039822048611
 20
520.1363823784721
 10
64.78605414496528
 20
519.5376247829861
 10
64.76710611979166
 20
517.5904568142361
 10
64.920068359375
 20
516.0546332465277
 10
65.17190483940972
 20
513.6072374131944
 10
67.20175509982639
 20
512.5619954427083
 10
69.47379557291666
 20
512.8424262152778
 10
70.93658311631944
 20
513.0208821614583
 10
72.26535644531249
 20
514.1360595703125
 10
73.86181369357638
 20
513.9066162109375
 10
74.81782769097221
 20
513.7726019965278
 10
75.80243598090277
 20
512.4724229600694
 10
76.20723470052083
 20
511.6442220052083
 10
76.59274088541666
 20
510.8570176866319
 10
76.66302083333332
 20
509.9106499565972
 10
76.96550021701388
 20
509.0948513454861
 10
77.47881944444444
 20
507.7054443359374
 10
78.51441514756944
 20
507.2303656684027
 10
79.8590359157986
 20
506.8706976996527
 10
80.58870713975693
 20
506.6760498046875
 10
81.90163302951387
 20
506.3701253255208
 10
82.57721625434027
 20
506.79697265625
 10
82.94067382812499
 20
507.0298611111111
 10
83.17321777343749
 20
507.6479112413194
 10
83.61315646701388
 20
507.9348876953125
 10
84.54677734375
 20
508.5339898003472
 10
85.58891872829861
 20
508.7317382812499
 10
86.68514811197916
 20
508.8082194010416
 10
87.37657877604165
 20
508.8592068142361
 10
88.112451171875
 20
508.8461154513889
 10
88.72774522569443
 20
508.6008246527777
 10
89.11325141059027
 20
508.4447618272569
 10
89.31720106336805
 20
508.0971516927083
 10
89.70270724826388
 20
508.3810275607639
 10
90.19673394097221
 20
508.7506863064236
 10
90.27321506076387
 20
510.4329264322916
 10
90.31455620659722
 20
510.984486219618
 10
90.36864420572915
 20
511.790638563368
 10
90.48026529947916
 20
512.9664496527778
 10
90.12335340711805
 20
513.7281602647569
 10
89.69306098090277
 20
514.6331868489583
 10
88.93169487847221
 20
514.5884006076388
 10
88.09350314670138
 20
514.9232638888889
 10
87.3159450954861
 20
515.232288953993
 10
85.49934624565971
 20
515.9044270833333
 10
84.99601779513888
 20
516.6247965494791
 10
84.27254774305555
 20
517.6669379340277
 10
84.96087782118055
 20
520.050599500868
 10
85.16172688802082
 20
521.1719780815972
 10
85.34638400607638
 20
522.2013726128472
 10
85.51863878038193
 20
523.2817545572916
 10
85.5982204861111
 20
524.3238959418402
 10
85.66850043402776
 20
525.2034288194444
 10
85.2509548611111
 20
526.0509223090278
 10
84.65185275607638
 20
526.7488986545138
 10
84.36522081163194
 20
527.0741156684028
 10
83.9731689453125
 20
527.0038357204861
 10
83.68963758680555
 20
527.2270779079861
 10
83.35477430555555
 20
527.4944173177083
 10
83.43780110677082
 20
527.6859646267361
 10
83.33892686631944
 20
528.1317599826389
 10
83.14462348090277
 20
529.068825954861
 10
82.69848361545138
 20
529.9611056857639
 10
81.97191297743055
 20
530.5984483506944
 97
        0
 97
        0
 75
     0
 76
     1
 98
        1
 10
0.0
 20
0.0
  0
HATCH
  5
148
330
A
100
AcDbEntity
  8
LAYER_1
 62
   252
100
AcDbHatch
 10
0.0
 20
0.0
 30
0.0
210
0.0
220
0.0
230
1.0
  2
SOLID
 70
     1
 71
     0
 91
        1
 92
        1
 93
        1
 72
     4
 94
        3
 73
     0
 74
     0
 95
       38
 96
       34
 40
0.0
 40
0.0
 40
0.0
 40
0.0
 40
1.0
 40
1.0
 40
1.0
 40
2.0
 40
2.0
 40
2.0
 40
3.0
 40
3.0
 40
3.0
 40
4.0
 40
4.0
 40
4.0
 40
5.0
 40
5.0
 40
5.0
 40
6.0
 40
6.0
 40
6.0
 40
7.0
 40
7.0
 40
7.0
 40
8.0
 40
8.0
 40
8.0
 40
9.0
 40
9.0
 40
9.0
 40
10.0
 40
10.0
 40
10.0
 40
11.0
 40
11.0
 40
11.0
 40
11.0
 10
201.4939887152778
 20
517.0103027343749
 10
201.40166015625
 20
516.6471896701388
 10
201.4240532769097
 20
516.2454915364583
 10
201.2517985026041
 20
515.9140733506944
 10
201.05439453125
 20
515.5382134331596
 10
200.8662923177083
 20
515.0889729817708
 10
201.012708875868
 20
514.655579969618
 10
201.1274305555555
 20
514.3210611979166
 10
201.5291286892361
 20
514.496072048611
 10
201.8223063151042
 20
514.5629069010416
 10
201.9942165798611
 20
514.6076931423611
 10
202.1282307942708
 20
514.6648817274305
 10
202.277747938368
 20
514.7479085286458
 10
202.5678249782986
 20
514.9136176215277
 10
202.8579020182291
 20
514.8753770616319
 10
203.1989664713541
 20
514.9453125
 10
203.466650390625
 20
515.002845594618
 10
203.9479302300347
 20
515.184402126736
 10
204.1356879340278
 20
515.3628580729167
 10
204.2662570529514
 20
515.4841254340278
 10
204.3651312934028
 20
515.7294162326389
 10
204.4416124131944
 20
515.8854790581597
 10
204.6393608940972
 20
516.2775309244792
 10
205.0152208116319
 20
516.5834554036458
 10
205.1202962239583
 20
517.0168484157986
 10
205.4644612630208
 20
518.386962890625
 10
204.107093641493
 20
518.502029079861
 10
203.1128390842014
 20
518.5464708116319
 10
202.7876220703125
 20
518.5592176649305
 10
202.4913438585069
 20
518.3745605468749
 10
202.2333062065972
 20
518.1799126519097
 10
201.8891411675347
 20
517.921875
 10
201.5928629557291
 20
517.4057996961805
 10
201.4939887152778
 20
517.0103027343749
 97
        0
 97
        0
 75
     0
 76
     1
 98
        1
 10
0.0
 20
0.0
  0
HATCH
  5
147
330
A
100
AcDbEntity
  8
LAYER_1
 62
   252
100
AcDbHatch
 10
0.0
 20
0.0
 30
0.0
210
0.0
220
0.0
230
1.0
  2
SOLID
 70
     1
 71
     0
 91
        1
 92
        1
 93
        1
 72
     4
 94
        3
 73
     0
 74
     0
 95
       65
 96
       61
 40
0.0
 40
0.0
 40
0.0
 40
0.0
 40
1.0
 40
1.0
 40
1.0
 40
2.0
 40
2.0
 40
2.0
 40
3.0
 40
3.0
 40
3.0
 40
4.0
 40
4.0
 40
4.0
 40
5.0
 40
5.0
 40
5.0
 40
6.0
 40
6.0
 40
6.0
 40
7.0
 40
7.0
 40
7.0
 40
8.0
 40
8.0
 40
8.0
 40
9.0
 40
9.0
 40
9.0
 40
10.0
 40
10.0
 40
10.0
 40
11.0
 40
11.0
 40
11.0
 40
12.0
 40
12.0
 40
12.0
 40
13.0
 40
13.0
 40
13.0
 40
14.0
 40
14.0
 40
14.0
 40
15.0
 40
15.0
 40
15.0
 40
16.0
 40
16.0
 40
16.0
 40
17.0
 40
17.0
 40
17.0
 40
18.0
 40
18.0
 40
18.0
 40
19.0
 40
19.0
 40
19.0
 40
20.0
 40
20.0
 40
20.0
 40
20.0
 10
269.6886203342013
 20
517.4057996961805
 10
269.6886203342013
 20
517.4057996961805
 10
291.287646484375
 20
514.8498833550346
 10
291.287646484375
 20
514.8498833550346
 10
291.287646484375
 20
514.8498833550346
 10
295.6725640190972
 20
515.3663031684027
 10
296.6096299913194
 20
517.1922037760417
 10
297.5463514539931
 20
519.021204969618
 10
298.0179850260416
 20
519.751220703125
 10
297.7565022786458
 20
522.1472846137152
 10
297.4984646267361
 20
524.5502387152777
 10
297.1832383897569
 20
526.6341769748263
 10
296.5042100694444
 20
527.5199110243055
 10
295.8255262586806
 20
528.4059895833333
 10
294.6783094618056
 20
529.1391059027777
 10
293.7415879991319
 20
529.5084201388888
 10
292.8014214409722
 20
529.8718777126736
 10
291.5491292317708
 20
530.1333604600694
 10
291.2366590711806
 20
530.1843478732638
 10
290.9214328342014
 20
530.2353352864583
 10
290.7140380859375
 20
530.2353352864583
 10
290.7140380859375
 20
530.2353352864583
 10
290.7140380859375
 20
530.2353352864583
 10
291.4950412326389
 20
531.1276150173611
 10
291.8646999782986
 20
531.1786024305555
 10
292.2247124565972
 20
531.2261447482639
 10
294.5222466362847
 20
530.6525363498264
 10
295.9815890842013
 20
530.0758273654513
 10
297.4443766276041
 20
529.5084201388888
 10
298.7507568359375
 20
528.4059895833333
 10
298.9612521701388
 20
528.0428765190971
 10
299.1683024088541
 20
527.6794189453125
 10
300.9401150173611
 20
524.757288953993
 10
301.2556857638888
 20
524.2887559678819
 10
301.564710828993
 20
523.8171223958333
 10
302.5558648003472
 20
522.2013726128472
 10
302.9730658637152
 20
522.0453097873263
 10
303.3906114366319
 20
521.8858018663194
 10
303.9163330078125
 20
521.7838270399305
 10
304.1778157552083
 20
521.8858018663194
 10
304.435853407118
 20
521.9943223741319
 10
305.7391330295139
 20
521.7838270399305
 10
305.7391330295139
 20
521.7838270399305
 10
305.7391330295139
 20
521.7838270399305
 10
306.2107666015625
 20
521.726638454861
 10
306.2107666015625
 20
521.726638454861
 10
306.2107666015625
 20
521.726638454861
 10
303.2345486111111
 20
507.2276095920138
 10
303.2345486111111
 20
507.2276095920138
 10
303.2345486111111
 20
507.2276095920138
 10
289.6178087022569
 20
510.0412190755208
 10
289.6178087022569
 20
510.0412190755208
 10
289.6178087022569
 20
510.0412190755208
 10
275.8453504774305
 20
512.9123616536458
 10
275.8453504774305
 20
512.9123616536458
 10
275.8453504774305
 20
512.9123616536458
 10
269.1150119357638
 20
514.5312120225694
 10
269.1150119357638
 20
514.5312120225694
 10
269.1150119357638
 20
514.5312120225694
 10
269.6886203342013
 20
517.4057996961805
 10
269.6886203342013
 20
517.4057996961805
 97
        0
 97
        0
 75
     0
 76
     1
 98
        1
 10
0.0
 20
0.0
  0
HATCH
  5
146
330
A
100
AcDbEntity
  8
LAYER_1
 62
   252
100
AcDbHatch
 10
0.0
 20
0.0
 30
0.0
210
0.0
220
0.0
230
1.0
  2
SOLID
 70
     1
 71
     0
 91
        1
 92
        1
 93
        1
 72
     4
 94
        3
 73
     0
 74
     0
 95
       23
 96
       19
 40
0.0
 40
0.0
 40
0.0
 40
0.0
 40
1.0
 40
1.0
 40
1.0
 40
2.0
 40
2.0
 40
2.0
 40
3.0
 40
3.0
 40
3.0
 40
4.0
 40
4.0
 40
4.0
 40
5.0
 40
5.0
 40
5.0
 40
6.0
 40
6.0
 40
6.0
 40
6.0
 10
270.1061659071181
 20
530.3910536024305
 10
270.1061659071181
 20
529.2982693142361
 10
270.2622287326388
 20
527.5708984375
 10
271.2533827039931
 20
527.8389268663194
 10
272.2441921657986
 20
528.0966200086805
 10
273.0282958984375
 20
529.1391059027777
 10
273.1302707248263
 20
529.7633572048611
 10
273.2353461371528
 20
530.3910536024305
 10
273.0792833116319
 20
531.9048285590277
 10
272.6107503255208
 20
532.4274495442708
 10
272.1391167534722
 20
532.9500705295138
 10
271.7215711805555
 20
533.0520453559027
 10
271.3043701171875
 20
532.848095703125
 10
270.8868245442708
 20
532.634499782986
 10
270.4182915581597
 20
531.8538411458333
 10
270.3132161458333
 20
531.4335394965277
 10
270.2112413194444
 20
531.0190945095486
 10
270.1061659071181
 20
530.3910536024305
 10
270.1061659071181
 20
530.3910536024305
 97
        0
 97
        0
 75
     0
 76
     1
 98
        1
 10
0.0
 20
0.0
  0
POLYLINE
  5
140
330
A
100
AcDbEntity
  8
LAYER_1
 62
     7
100
AcDb2dPolyline
 66
     1
 10
0.0
 20
0.0
 30
0.0
 70
     1
  0
VERTEX
  5
141
330
140
100
AcDbEntity
  8
LAYER_1
 62
     7
100
AcDbVertex
100
AcDb2dVertex
 10
78.995695
 20
514.939111
 30
0.0
  0
VERTEX
  5
142
330
140
100
AcDbEntity
  8
LAYER_1
 62
     7
100
AcDbVertex
100
AcDb2dVertex
 10
73.320245
 20
514.939111
 30
0.0
  0
VERTEX
  5
143
330
140
100
AcDbEntity
  8
LAYER_1
 62
     7
100
AcDbVertex
100
AcDb2dVertex
 10
73.320245
 20
517.880534
 30
0.0
  0
VERTEX
  5
144
330
140
100
AcDbEntity
  8
LAYER_1
 62
     7
100
AcDbVertex
100
AcDb2dVertex
 10
78.995695
 20
517.880534
 30
0.0
  0
SEQEND
  5
145
330
140
100
AcDbEntity
  8
LAYER_1
 62
     7
  0
POLYLINE
  5
13A
330
A
100
AcDbEntity
  8
LAYER_1
 62
     7
100
AcDb2dPolyline
 66
     1
 10
0.0
 20
0.0
 30
0.0
 70
     1
  0
VERTEX
  5
13B
330
13A
100
AcDbEntity
  8
LAYER_1
 62
     7
100
AcDbVertex
100
AcDb2dVertex
 10
184.317776
 20
522.11869
 30
0.0
  0
VERTEX
  5
13C
330
13A
100
AcDbEntity
  8
LAYER_1
 62
     7
100
AcDbVertex
100
AcDb2dVertex
 10
181.555154
 20
522.11869
 30
0.0
  0
VERTEX
  5
13D
330
13A
100
AcDbEntity
  8
LAYER_1
 62
     7
100
AcDbVertex
100
AcDb2dVertex
 10
181.555154
 20
524.505452
 30
0.0
  0
VERTEX
  5
13E
330
13A
100
AcDbEntity
  8
LAYER_1
 62
     7
100
AcDbVertex
100
AcDb2dVertex
 10
184.317776
 20
524.505452
 30
0.0
  0
SEQEND
  5
13F
330
13A
100
AcDbEntity
  8
LAYER_1
 62
     7
  0
POLYLINE
  5
134
330
A
100
AcDbEntity
  8
LAYER_1
 62
     7
100
AcDb2dPolyline
 66
     1
 10
0.0
 20
0.0
 30
0.0
 70
     1
  0
VERTEX
  5
135
330
134
100
AcDbEntity
  8
LAYER_1
 62
     7
100
AcDbVertex
100
AcDb2dVertex
 10
204.56598
 20
515.417291
 30
0.0
  0
VERTEX
  5
136
330
134
100
AcDbEntity
  8
LAYER_1
 62
     7
100
AcDbVertex
100
AcDb2dVertex
 10
202.112383
 20
515.417291
 30
0.0
  0
VERTEX
  5
137
330
134
100
AcDbEntity
  8
LAYER_1
 62
     7
100
AcDbVertex
100
AcDb2dVertex
 10
202.112383
 20
517.867442
 30
0.0
  0
VERTEX
  5
138
330
134
100
AcDbEntity
  8
LAYER_1
 62
     7
100
AcDbVertex
100
AcDb2dVertex
 10
204.56598
 20
517.867442
 30
0.0
  0
SEQEND
  5
139
330
134
100
AcDbEntity
  8
LAYER_1
 62
     7
  0
POLYLINE
  5
12E
330
A
100
AcDbEntity
  8
LAYER_1
 62
     7
100
AcDb2dPolyline
 66
     1
 10
0.0
 20
0.0
 30
0.0
 70
     1
  0
VERTEX
  5
12F
330
12E
100
AcDbEntity
  8
LAYER_1
 62
     7
100
AcDbVertex
100
AcDb2dVertex
 10
290.590015
 20
511.471967
 30
0.0
  0
VERTEX
  5
130
330
12E
100
AcDbEntity
  8
LAYER_1
 62
     7
100
AcDbVertex
100
AcDb2dVertex
 10
285.236336
 20
511.471967
 30
0.0
  0
VERTEX
  5
131
330
12E
100
AcDbEntity
  8
LAYER_1
 62
     7
100
AcDbVertex
100
AcDb2dVertex
 10
285.236336
 20
514.008591
 30
0.0
  0
VERTEX
  5
132
330
12E
100
AcDbEntity
  8
LAYER_1
 62
     7
100
AcDbVertex
100
AcDb2dVertex
 10
290.590015
 20
514.008591
 30
0.0
  0
SEQEND
  5
133
330
12E
100
AcDbEntity
  8
LAYER_1
 62
     7
  0
POLYLINE
  5
128
330
A
100
AcDbEntity
  8
LAYER_1
 62
     7
100
AcDb2dPolyline
 66
     1
 10
0.0
 20
0.0
 30
0.0
 70
     1
  0
VERTEX
  5
129
330
128
100
AcDbEntity
  8
LAYER_1
 62
     7
100
AcDbVertex
100
AcDb2dVertex
 10
288.05029
 20
545.588403
 30
0.0
  0
VERTEX
  5
12A
330
128
100
AcDbEntity
  8
LAYER_1
 62
     7
100
AcDbVertex
100
AcDb2dVertex
 10
283.738409
 20
545.588403
 30
0.0
  0
VERTEX
  5
12B
330
128
100
AcDbEntity
  8
LAYER_1
 62
     7
100
AcDbVertex
100
AcDb2dVertex
 10
283.738409
 20
547.991357
 30
0.0
  0
VERTEX
  5
12C
330
128
100
AcDbEntity
  8
LAYER_1
 62
     7
100
AcDbVertex
100
AcDb2dVertex
 10
288.05029
 20
547.991357
 30
0.0
  0
SEQEND
  5
12D
330
128
100
AcDbEntity
  8
LAYER_1
 62
     7
  0
POLYLINE
  5
122
330
A
100
AcDbEntity
  8
LAYER_1
 62
     7
100
AcDb2dPolyline
 66
     1
 10
0.0
 20
0.0
 30
0.0
 70
     1
  0
VERTEX
  5
123
330
122
100
AcDbEntity
  8
LAYER_1
 62
     7
100
AcDbVertex
100
AcDb2dVertex
 10
264.988132
 20
547.099078
 30
0.0
  0
VERTEX
  5
124
330
122
100
AcDbEntity
  8
LAYER_1
 62
     7
100
AcDbVertex
100
AcDb2dVertex
 10
260.765823
 20
547.099078
 30
0.0
  0
VERTEX
  5
125
330
122
100
AcDbEntity
  8
LAYER_1
 62
     7
100
AcDbVertex
100
AcDb2dVertex
 10
260.765823
 20
549.673942
 30
0.0
  0
VERTEX
  5
126
330
122
100
AcDbEntity
  8
LAYER_1
 62
     7
100
AcDbVertex
100
AcDb2dVertex
 10
264.988132
 20
549.673942
 30
0.0
  0
SEQEND
  5
127
330
122
100
AcDbEntity
  8
LAYER_1
 62
     7
  0
INSERT
  5
10C
330
A
100
AcDbEntity
  8
LAYER_1
 62
     7
100
AcDbBlockReference
  2
AI9-BLK29
 10
29.803177
 20
544.928668
 30
0.0
  0
INSERT
  5
F5
330
A
100
AcDbEntity
  8
LAYER_1
 62
     7
100
AcDbBlockReference
  2
AI9-BLK24
 10
233.896318
 20
560.275879
 30
0.0
  0
INSERT
  5
DE
330
A
100
AcDbEntity
  8
LAYER_1
 62
     7
100
AcDbBlockReference
  2
AI9-BLK19
 10
233.914921
 20
575.935216
 30
0.0
  0
INSERT
  5
DA
330
A
100
AcDbEntity
  8
LAYER_1
 62
     7
100
AcDbBlockReference
  2
AI9-BLK18
 10
30.347846
 20
544.626188
 30
0.0
  0
MTEXT
  5
D8
330
A
100
AcDbEntity
  8
LAYER_1
 62
     7
100
AcDbMText
 10
238.325505
 20
560.447464
 30
0.0
 40
1.232675
 41
0.0
 46
0.0
 71
     1
 72
     2
  1
\W1.00;\fHelvetica|b0|i0;780/289
  7
STD
 73
     1
 44
1.0
  0
MTEXT
  5
D7
330
A
100
AcDbEntity
  8
LAYER_1
 62
     7
100
AcDbMText
 10
238.838479
 20
576.546396
 30
0.0
 40
1.232675
 41
0.0
 46
0.0
 71
     1
 72
     2
  1
\W1.00;\fHelvetica|b0|i0;780/290
  7
STD
 73
     1
 44
1.0
  0
MTEXT
  5
D6
330
A
100
AcDbEntity
  8
LAYER_1
 62
     7
100
AcDbMText
 10
31.766192
 20
545.661114
 30
0.0
 40
1.232675
 41
0.0
 46
0.0
 71
     1
 72
     2
  1
\W1.00;\fHelvetica|b0|i0;767/288
  7
STD
 73
     1
 44
1.0
  0
MTEXT
  5
D5
330
A
100
AcDbEntity
  8
LAYER_1
 62
     7
100
AcDbMText
 10
73.686458
 20
517.312244
 30
0.0
 40
1.643461
 41
0.0
 46
0.0
 71
     1
 72
     2
  1
\W1.00;\fHelvetica|b1|i0;1123
  7
STD
 73
     1
 44
1.0
  0
MTEXT
  5
D4
330
A
100
AcDbEntity
  8
LAYER_1
 62
     7
100
AcDbMText
 10
169.037744
 20
560.02316
 30
0.0
 40
1.643461
 41
0.0
 46
0.0
 71
     1
 72
     2
  1
\W1.00;\fHelvetica|b1|i0;1118
  7
STD
 73
     1
 44
1.0
  0
MTEXT
  5
D3
330
A
100
AcDbEntity
  8
LAYER_1
 62
     7
100
AcDbMText
 10
129.832213
 20
485.286292
 30
0.0
 40
1.643461
 41
0.0
 46
0.0
 71
     1
 72
     2
  1
\W1.00;\fHelvetica|b1|i0;993
  7
STD
 73
     1
 44
1.0
  0
MTEXT
  5
D2
330
A
100
AcDbEntity
  8
LAYER_1
 62
     7
100
AcDbMText
 10
181.959953
 20
524.358153
 30
0.0
 40
1.643461
 41
0.0
 46
0.0
 71
     1
 72
     2
  1
\W1.00;\fHelvetica|b1|i0;78
  7
STD
 73
     1
 44
1.0
  0
MTEXT
  5
D1
330
A
100
AcDbEntity
  8
LAYER_1
 62
     7
100
AcDbMText
 10
189.381377
 20
539.125211
 30
0.0
 40
1.643461
 41
0.0
 46
0.0
 71
     1
 72
     2
  1
\W1.00;\fHelvetica|b1|i0;89
  7
STD
 73
     1
 44
1.0
  0
MTEXT
  5
D0
330
A
100
AcDbEntity
  8
LAYER_1
 62
     7
100
AcDbMText
 10
208.523706
 20
538.484423
 30
0.0
 40
1.643461
 41
0.0
 46
0.0
 71
     1
 72
     2
  1
\W1.00;\fHelvetica|b1|i0;819
  7
STD
 73
     1
 44
1.0
  0
MTEXT
  5
CF
330
A
100
AcDbEntity
  8
LAYER_1
 62
     7
100
AcDbMText
 10
202.08689
 20
517.423865
 30
0.0
 40
1.643461
 41
0.0
 46
0.0
 71
     1
 72
     2
  1
\W1.00;\fHelvetica|b1|i0;78
  7
STD
 73
     1
 44
1.0
  0
MTEXT
  5
CE
330
A
100
AcDbEntity
  8
LAYER_1
 62
     7
100
AcDbMText
 10
169.327821
 20
490.694058
 30
0.0
 40
1.643461
 41
0.0
 46
0.0
 71
     1
 72
     2
  1
\W1.00;\fHelvetica|b1|i0;77
  7
STD
 73
     1
 44
1.0
  0
MTEXT
  5
CD
330
A
100
AcDbEntity
  8
LAYER_1
 62
     7
100
AcDbMText
 10
191.962788
 20
501.309086
 30
0.0
 40
1.643461
 41
0.0
 46
0.0
 71
     1
 72
     2
  1
\W1.00;\fHelvetica|b1|i0;81
  7
STD
 73
     1
 44
1.0
  0
MTEXT
  5
CC
330
A
100
AcDbEntity
  8
LAYER_1
 62
     7
100
AcDbMText
 10
244.568018
 20
463.530858
 30
0.0
 40
1.643461
 41
0.0
 46
0.0
 71
     1
 72
     2
  1
\W1.00;\fHelvetica|b1|i0;992
  7
STD
 73
     1
 44
1.0
  0
MTEXT
  5
CB
330
A
100
AcDbEntity
  8
LAYER_1
 62
     7
100
AcDbMText
 10
249.717746
 20
521.44567
 30
0.0
 40
1.643461
 41
0.0
 46
0.0
 71
     1
 72
     2
  1
\W1.00;\fHelvetica|b1|i0;402
  7
STD
 73
     1
 44
1.0
  0
MTEXT
  5
CA
330
A
100
AcDbEntity
  8
LAYER_1
 62
     7
100
AcDbMText
 10
255.651234
 20
477.580991
 30
0.0
 40
1.643461
 41
0.0
 46
0.0
 71
     1
 72
     2
  1
\W1.00;\fHelvetica|b1|i0;924 (not in phase)
  7
STD
 73
     1
 44
1.0
  0
MTEXT
  5
C9
330
A
100
AcDbEntity
  8
LAYER_1
 62
     7
100
AcDbMText
 10
284.022285
 20
547.703498
 30
0.0
 40
1.643461
 41
0.0
 46
0.0
 71
     1
 72
     2
  1
\W1.00;\fHelvetica|b1|i0;372
  7
STD
 73
     1
 44
1.0
  0
MTEXT
  5
C8
330
A
100
AcDbEntity
  8
LAYER_1
 62
     7
100
AcDbMText
 10
258.054188
 20
538.245333
 30
0.0
 40
1.643461
 41
0.0
 46
0.0
 71
     1
 72
     2
  1
\W1.00;\fHelvetica|b1|i0;1139
  7
STD
 73
     1
 44
1.0
  0
MTEXT
  5
C7
330
A
100
AcDbEntity
  8
LAYER_1
 62
     7
100
AcDbMText
 10
252.365991
 20
548.939943
 30
0.0
 40
1.643461
 41
0.0
 46
0.0
 71
     1
 72
     2
  1
\W1.00;\fHelvetica|b1|i0;402
  7
STD
 73
     1
 44
1.0
  0
MTEXT
  5
C6
330
A
100
AcDbEntity
  8
LAYER_1
 62
     7
100
AcDbMText
 10
261.030406
 20
549.236566
 30
0.0
 40
1.643461
 41
0.0
 46
0.0
 71
     1
 72
     2
  1
\W1.00;\fHelvetica|b1|i0;372
  7
STD
 73
     1
 44
1.0
  0
MTEXT
  5
C5
330
A
100
AcDbEntity
  8
LAYER_1
 62
     7
100
AcDbMText
 10
241.305168
 20
548.681905
 30
0.0
 40
1.643461
 41
0.0
 46
0.0
 71
     1
 72
     2
  1
\W1.00;\fHelvetica|b1|i0;1140
  7
STD
 73
     1
 44
1.0
  0
MTEXT
  5
C4
330
A
100
AcDbEntity
  8
LAYER_1
 62
     7
100
AcDbMText
 10
13.793129
 20
532.563682
 30
0.0
 40
1.643461
 41
0.0
 46
0.0
 71
     1
 72
     2
  1
\W1.00;\fHelvetica|b1|i0;625
  7
STD
 73
     1
 44
1.0
  0
MTEXT
  5
C3
330
A
100
AcDbEntity
  8
LAYER_1
 62
     7
100
AcDbMText
 10
36.488729
 20
506.369243
 30
0.0
 40
1.643461
 41
0.0
 46
0.0
 71
     1
 72
     2
  1
\W1.00;\fHelvetica|b1|i0;993
  7
STD
 73
     1
 44
1.0
  0
MTEXT
  5
C2
330
A
100
AcDbEntity
  8
LAYER_1
 62
     7
100
AcDbMText
 10
-12.031307
 20
523.172351
 30
0.0
 40
1.643461
 41
0.0
 46
0.0
 71
     1
 72
     2
  1
\W1.00;\fHelvetica|b1|i0;1202
  7
STD
 73
     1
 44
1.0
  0
MTEXT
  5
C1
330
A
100
AcDbEntity
  8
LAYER_1
 62
     7
100
AcDbMText
 10
309.078809
 20
518.105994
 30
0.0
 40
1.643461
 41
0.0
 46
0.0
 71
     1
 72
     2
  1
\W1.00;\fHelvetica|b1|i0;12
  7
STD
 73
     1
 44
1.0
  0
MTEXT
  5
C0
330
A
100
AcDbEntity
  8
LAYER_1
 62
     7
100
AcDbMText
 10
286.109323
 20
513.603254
 30
0.0
 40
1.643461
 41
0.0
 46
0.0
 71
     1
 72
     2
  1
\W1.00;\fHelvetica|b1|i0;372
  7
STD
 73
     1
 44
1.0
  0
MTEXT
  5
BF
330
A
100
AcDbEntity
  8
LAYER_1
 62
     7
100
AcDbMText
 10
32.30156
 20
530.358476
 30
0.0
 40
1.643461
 41
0.0
 46
0.0
 71
     1
 72
     2
  1
\W1.00;\fHelvetica|b0|i0;TRENCH I
  7
STD
 73
     1
 44
1.0
  0
MTEXT
  5
BE
330
A
100
AcDbEntity
  8
LAYER_1
 62
     7
100
AcDbMText
 10
-22.980854
 20
538.478222
 30
0.0
 40
1.643461
 41
0.0
 46
0.0
 71
     1
 72
     2
  1
\W1.00;\fHelvetica|b0|i0;TRENCH I
  7
STD
 73
     1
 44
1.0
  0
MTEXT
  5
BD
330
A
100
AcDbEntity
  8
LAYER_1
 62
     7
100
AcDbMText
 10
260.342076
 20
560.940933
 30
0.0
 40
1.643461
 41
0.0
 46
0.0
 71
     1
 72
     2
  1
\W1.00;\fHelvetica|b0|i0;TRENCH IA INTO NATURAL
  7
STD
 73
     1
 44
1.0
  0
MTEXT
  5
BC
330
A
100
AcDbEntity
  8
LAYER_1
 62
     7
100
AcDbMText
 10
224.814185
 20
534.44057
 30
0.0
 40
1.643461
 41
0.0
 46
0.0
 71
     1
 72
     2
  1
\W1.00;\fHelvetica|b0|i0;NATURAL
  7
STD
 73
     1
 44
1.0
  0
MTEXT
  5
BB
330
A
100
AcDbEntity
  8
LAYER_1
 62
     7
100
AcDbMText
 10
208.801036
 20
548.981629
 30
0.0
 40
1.643461
 41
0.0
 46
0.0
 71
     1
 72
     2
  1
\W1.00;\fHelvetica|b0|i0;WALL
  7
STD
 73
     1
 44
1.0
  0
MTEXT
  5
BA
330
A
100
AcDbEntity
  8
LAYER_1
 62
     7
100
AcDbMText
 10
234.756386
 20
515.658598
 30
0.0
 40
1.643461
 41
0.0
 46
0.0
 71
     1
 72
     2
  1
\W1.00;\fHelvetica|b0|i0;TRENCH INTO NATURAL
  7
STD
 73
     1
 44
1.0
  0
MTEXT
  5
B9
330
A
100
AcDbEntity
  8
LAYER_1
 62
     7
100
AcDbMText
 10
238.089516
 20
490.08841
 30
0.0
 40
1.643461
 41
0.0
 46
0.0
 71
     1
 72
     2
  1
\W1.00;\fHelvetica|b0|i0;TRENCH INTO NATURAL
  7
STD
 73
     1
 44
1.0
  0
MTEXT
  5
B8
330
A
100
AcDbEntity
  8
LAYER_1
 62
     7
100
AcDbMText
 10
237.512807
 20
506.636927
 30
0.0
 40
1.643461
 41
0.0
 46
0.0
 71
     1
 72
     2
  1
\W1.00;\fHelvetica|b0|i0;TOP NATURAL
  7
STD
 73
     1
 44
1.0
  0
MTEXT
  5
B7
330
A
100
AcDbEntity
  8
LAYER_1
 62
     7
100
AcDbMText
 10
252.056622
 20
529.118069
 30
0.0
 40
1.643461
 41
0.0
 46
0.0
 71
     1
 72
     2
  1
\W1.00;\fHelvetica|b0|i0;WHITE CLAY
  7
STD
 73
     1
 44
1.0
  0
MTEXT
  5
B6
330
A
100
AcDbEntity
  8
LAYER_1
 62
     7
100
AcDbMText
 10
252.056622
 20
531.856059
 30
0.0
 40
1.643461
 41
0.0
 46
0.0
 71
     1
 72
     2
  1
\W1.00;\fHelvetica|b0|i0;BURNT
  7
STD
 73
     1
 44
1.0
  0
LINE
  5
B5
330
A
100
AcDbEntity
  8
LAYER_1
 62
     7
100
AcDbLine
 10
267.155097
 20
528.374295
 30
0.0
 11
271.387052
 21
530.031386
 31
0.0
  0
LINE
  5
B4
330
A
100
AcDbEntity
  8
LAYER_1
 62
     7
100
AcDbLine
 10
261.999167
 20
526.347201
 30
0.0
 11
265.128347
 21
519.910384
 31
0.0
  0
MTEXT
  5
B3
330
A
100
AcDbEntity
  8
LAYER_1
 62
     7
100
AcDbMText
 10
315.748513
 20
524.67648
 30
0.0
 40
1.643461
 41
0.0
 46
0.0
 71
     1
 72
     2
  1
\W1.00;\fHelvetica|b0|i0;WALL
  7
STD
 73
     1
 44
1.0
  0
MTEXT
  5
B2
330
A
100
AcDbEntity
  8
LAYER_1
 62
     7
100
AcDbMText
 10
200.700583
 20
503.532723
 30
0.0
 40
1.643461
 41
0.0
 46
0.0
 71
     1
 72
     2
  1
\W1.00;\fHelvetica|b0|i0;WELL
  7
STD
 73
     1
 44
1.0
  0
MTEXT
  5
B1
330
A
100
AcDbEntity
  8
LAYER_1
 62
     7
100
AcDbMText
 10
200.700583
 20
506.270713
 30
0.0
 40
1.643461
 41
0.0
 46
0.0
 71
     1
 72
     2
  1
\W1.00;\fHelvetica|b0|i0;STAIR
  7
STD
 73
     1
 44
1.0
  0
MTEXT
  5
B0
330
A
100
AcDbEntity
  8
LAYER_1
 62
     7
100
AcDbMText
 10
196.280526
 20
494.122962
 30
0.0
 40
1.643461
 41
0.0
 46
0.0
 71
     1
 72
     2
  1
\W1.00;\fHelvetica|b0|i0;LIMESTONE
  7
STD
 73
     1
 44
1.0
  0
MTEXT
  5
AF
330
A
100
AcDbEntity
  8
LAYER_1
 62
     7
100
AcDbMText
 10
187.813859
 20
534.619026
 30
0.0
 40
1.643461
 41
0.0
 46
0.0
 71
     1
 72
     2
  1
\W1.00;\fHelvetica|b0|i0;COBBLES
  7
STD
 73
     1
 44
1.0
  0
MTEXT
  5
AE
330
A
100
AcDbEntity
  8
LAYER_1
 62
     7
100
AcDbMText
 10
106.08517
 20
526.703574
 30
0.0
 40
1.643461
 41
0.0
 46
0.0
 71
     1
 72
     2
  1
\W1.00;\fHelvetica|b0|i0;NATURAL
  7
STD
 73
     1
 44
1.0
  0
MTEXT
  5
AD
330
A
100
AcDbEntity
  8
LAYER_1
 62
     7
100
AcDbMText
 10
131.119645
 20
522.286962
 30
0.0
 40
1.643461
 41
0.0
 46
0.0
 71
     1
 72
     2
  1
\W1.00;\fHelvetica|b0|i0;TRENCH I
  7
STD
 73
     1
 44
1.0
  0
MTEXT
  5
AC
330
A
100
AcDbEntity
  8
LAYER_1
 62
     7
100
AcDbMText
 10
92.831887
 20
493.383644
 30
0.0
 40
1.643461
 41
0.0
 46
0.0
 71
     1
 72
     2
  1
\W1.00;\fHelvetica|b0|i0;WALL
  7
STD
 73
     1
 44
1.0
  0
INSERT
  5
81
330
A
100
AcDbEntity
  8
LAYER_1
 62
     7
100
AcDbBlockReference
  2
AI9-BLK9
 10
217.524535
 20
518.102053
 30
0.0
  0
INSERT
  5
7C
330
A
100
AcDbEntity
  8
LAYER_1
 62
     7
100
AcDbBlockReference
  2
AI9-BLK8
 10
217.017933
 20
515.869632
 30
0.0
  0
INSERT
  5
64
330
A
100
AcDbEntity
  8
LAYER_1
 62
     7
100
AcDbBlockReference
  2
AI9-BLK3
 10
211.541437
 20
481.179587
 30
0.0
  0
INSERT
  5
5F
330
A
100
AcDbEntity
  8
LAYER_1
 62
     7
100
AcDbBlockReference
  2
AI9-BLK2
 10
211.256356
 20
483.054925
 30
0.0
  0
INSERT
  5
5A
330
A
100
AcDbEntity
  8
LAYER_1
 62
     7
100
AcDbBlockReference
  2
AI9-BLK1
 10
211.396571
 20
480.594782
 30
0.0
  0
SPLINE
  5
58
330
A
100
AcDbEntity
  8
LAYER_1
  6
AI9-LType3
 62
     7
100
AcDbSpline
210
0.0
220
0.0
230
1.0
 70
     8
 71
     3
 72
    14
 73
    10
 74
     0
 42
0.000000001
 43
0.00000001
 40
0.0
 40
0.0
 40
0.0
 40
0.0
 40
1.0
 40
1.0
 40
1.0
 40
2.0
 40
2.0
 40
2.0
 40
3.0
 40
3.0
 40
3.0
 40
3.0
 10
300.6662299262152
 20
477.5660264756944
 30
0.0
 10
300.6662299262152
 20
477.5660264756944
 30
0.0
 10
279.5577853732639
 20
479.4236219618055
 30
0.0
 10
277.9961235894097
 20
479.5224962022569
 30
0.0
 10
276.4313612196181
 20
479.6179253472222
 30
0.0
 10
241.5470133463541
 20
482.3522976345486
 30
0.0
 10
241.5470133463541
 20
482.3522976345486
 30
0.0
 10
239.2015923394097
 20
482.5497016059027
 30
0.0
 10
211.8409884982639
 20
484.697718641493
 30
0.0
 10
211.8409884982639
 20
484.697718641493
 30
0.0
  0
LINE
  5
57
330
A
100
AcDbEntity
  8
LAYER_1
  6
AI9-LType3
 62
     7
100
AcDbLine
 10
-44.484451
 20
527.679419
 30
0.0
 11
5.447385
 21
526.019227
 31
0.0
  0
SPLINE
  5
56
330
A
100
AcDbEntity
  8
LAYER_1
  6
AI9-LType3
 62
     7
100
AcDbSpline
210
0.0
220
0.0
230
1.0
 70
     8
 71
     3
 72
    53
 73
    49
 74
     0
 42
0.000000001
 43
0.00000001
 40
0.0
 40
0.0
 40
0.0
 40
0.0
 40
1.0
 40
1.0
 40
1.0
 40
2.0
 40
2.0
 40
2.0
 40
3.0
 40
3.0
 40
3.0
 40
4.0
 40
4.0
 40
4.0
 40
5.0
 40
5.0
 40
5.0
 40
6.0
 40
6.0
 40
6.0
 40
7.0
 40
7.0
 40
7.0
 40
8.0
 40
8.0
 40
8.0
 40
9.0
 40
9.0
 40
9.0
 40
10.0
 40
10.0
 40
10.0
 40
11.0
 40
11.0
 40
11.0
 40
12.0
 40
12.0
 40
12.0
 40
13.0
 40
13.0
 40
13.0
 40
14.0
 40
14.0
 40
14.0
 40
15.0
 40
15.0
 40
15.0
 40
16.0
 40
16.0
 40
16.0
 40
16.0
 10
-40.57771267361111
 20
549.37421875
 30
0.0
 10
-40.57771267361111
 20
549.37421875
 30
0.0
 10
5.740562608506944
 20
549.37421875
 30
0.0
 10
8.47459038628472
 20
549.37421875
 30
0.0
 10
9.959771050347221
 20
549.37421875
 30
0.0
 10
18.312060546875
 20
549.144775390625
 30
0.0
 10
26.77252604166667
 20
548.9346245659722
 30
0.0
 10
26.77252604166667
 20
548.9346245659722
 30
0.0
 10
27.33338758680555
 20
548.979066297743
 30
0.0
 10
27.33338758680555
 20
548.979066297743
 30
0.0
 10
27.33338758680555
 20
548.979066297743
 30
0.0
 10
32.67431911892361
 20
550.5021430121527
 30
0.0
 10
32.67431911892361
 20
550.5021430121527
 30
0.0
 10
37.61355251736111
 20
551.1363850911458
 30
0.0
 10
49.98730197482639
 20
553.0136176215277
 30
0.0
 10
52.46983778211805
 20
553.3956787109374
 30
0.0
 10
55.00956217447916
 20
553.7811848958332
 30
0.0
 10
59.89780815972222
 20
554.4664143880208
 30
0.0
 10
67.42155219184028
 20
554.663818359375
 30
0.0
 10
74.94219563802082
 20
554.8553656684028
 30
0.0
 10
84.42240939670138
 20
555.4448215060763
 30
0.0
 10
88.72430013020832
 20
556.0311767578124
 30
0.0
 10
93.01998969184027
 20
556.6175320095485
 30
0.0
 10
112.9526231553819
 20
558.3796983506944
 30
0.0
 10
115.6931966145833
 20
558.5709011501735
 30
0.0
 10
118.4241238064236
 20
558.7683051215278
 30
0.0
 10
128.3921630859375
 20
559.3546603732639
 30
0.0
 10
132.8852566189236
 20
559.5489637586805
 30
0.0
 10
137.3848958333333
 20
559.7436116536458
 30
0.0
 10
156.5365261501736
 20
561.0117513020833
 30
0.0
 10
159.8603542751736
 20
561.4072482638888
 30
0.0
 10
163.1807373046875
 20
561.7958550347222
 30
0.0
 10
201.4877875434028
 20
562.9685655381944
 30
0.0
 10
205.9808810763889
 20
563.0670952690972
 30
0.0
 10
210.473974609375
 20
563.1663140190972
 30
0.0
 10
234.412220594618
 20
563.5549207899305
 30
0.0
 10
234.412220594618
 20
563.5549207899305
 30
0.0
 10
239.007288953993
 20
563.841552734375
 30
0.0
 10
265.5872341579861
 20
565.5048448350694
 30
0.0
 10
269.3954427083333
 20
565.6068196614583
 30
0.0
 10
273.2067518446181
 20
565.7025933159722
 30
0.0
 10
289.8155571831597
 20
565.7025933159722
 30
0.0
 10
291.6765977647569
 20
565.9988715277777
 30
0.0
 10
293.5310926649306
 20
566.2889485677083
 30
0.0
 10
306.3320339626736
 20
566.6810004340277
 30
0.0
 10
308.4797064887152
 20
566.8753038194444
 30
0.0
 10
310.6339246961805
 20
567.0730523003472
 30
0.0
 10
314.9296142578125
 20
567.0730523003472
 30
0.0
 10
314.9296142578125
 20
567.0730523003472
 30
0.0
  0
SPLINE
  5
54
330
A
100
AcDbEntity
  8
LAYER_1
 62
     7
100
AcDbSpline
210
0.0
220
0.0
230
1.0
 70
     8
 71
     3
 72
    23
 73
    19
 74
     0
 42
0.000000001
 43
0.00000001
 40
0.0
 40
0.0
 40
0.0
 40
0.0
 40
1.0
 40
1.0
 40
1.0
 40
2.0
 40
2.0
 40
2.0
 40
3.0
 40
3.0
 40
3.0
 40
4.0
 40
4.0
 40
4.0
 40
5.0
 40
5.0
 40
5.0
 40
6.0
 40
6.0
 40
6.0
 40
6.0
 10
309.1649359809027
 20
532.6758409288194
 30
0.0
 10
309.1649359809027
 20
532.6758409288194
 30
0.0
 10
306.5232367621527
 20
523.0075249565972
 30
0.0
 10
306.2331597222222
 20
521.5385362413194
 30
0.0
 10
305.9399820963541
 20
520.0695475260417
 30
0.0
 10
304.8661458333333
 20
514.2094401041667
 30
0.0
 10
304.3786648220486
 20
512.6446777343749
 30
0.0
 10
303.8877387152777
 20
511.0768147786458
 30
0.0
 10
302.8139024522569
 20
505.4141113281249
 30
0.0
 10
302.7150282118055
 20
504.047097439236
 30
0.0
 10
302.6195990668402
 20
502.6766384548611
 30
0.0
 10
301.8354953342014
 20
498.6744710286458
 30
0.0
 10
301.3511149088541
 20
496.8165310329861
 30
0.0
 10
300.8574327256944
 20
494.958935546875
 30
0.0
 10
299.5889485677083
 20
487.339417860243
 30
0.0
 10
299.1972412109375
 20
486.0678331163194
 30
0.0
 10
298.805189344618
 20
484.7965928819444
 30
0.0
 10
297.5367051866319
 20
477.9546332465277
 30
0.0
 10
297.5367051866319
 20
477.9546332465277
 30
0.0
  0
SPLINE
  5
53
330
A
100
AcDbEntity
  8
LAYER_1
 62
     7
100
AcDbSpline
210
0.0
220
0.0
230
1.0
 70
     8
 71
     3
 72
    32
 73
    28
 74
     0
 42
0.000000001
 43
0.00000001
 40
0.0
 40
0.0
 40
0.0
 40
0.0
 40
1.0
 40
1.0
 40
1.0
 40
2.0
 40
2.0
 40
2.0
 40
3.0
 40
3.0
 40
3.0
 40
4.0
 40
4.0
 40
4.0
 40
5.0
 40
5.0
 40
5.0
 40
6.0
 40
6.0
 40
6.0
 40
7.0
 40
7.0
 40
7.0
 40
8.0
 40
8.0
 40
8.0
 40
9.0
 40
9.0
 40
9.0
 40
9.0
 10
314.5410074869791
 20
566.8753038194444
 30
0.0
 10
314.5410074869791
 20
566.8753038194444
 30
0.0
 10
312.6830674913194
 20
554.7595920138889
 30
0.0
 10
312.3898898654514
 20
553.2937038845486
 30
0.0
 10
312.0967122395833
 20
551.8312608506944
 30
0.0
 10
309.5569878472222
 20
534.4383517795138
 30
0.0
 10
309.2638102213542
 20
532.9693630642361
 30
0.0
 10
308.9706325954861
 20
531.5031304253472
 30
0.0
 10
307.9922254774305
 20
522.9055501302083
 30
0.0
 10
307.6990478515625
 20
521.3442328559028
 30
0.0
 10
307.4089708116319
 20
519.7767144097222
 30
0.0
 10
304.9650200737847
 20
503.5596164279514
 30
0.0
 10
304.4740939670139
 20
501.0133463541666
 30
0.0
 10
303.9866129557291
 20
498.4770670572916
 30
0.0
 10
300.8605333116319
 20
480.108851453993
 30
0.0
 10
300.4684814453125
 20
477.6614556206597
 30
0.0
 10
300.076429578993
 20
475.2237060546875
 30
0.0
 10
299.5889485677083
 20
469.0669759114583
 30
0.0
 10
299.2957709418403
 20
467.5022135416666
 30
0.0
 10
299.0025933159722
 20
465.9346950954861
 30
0.0
 10
298.2188340928819
 20
461.3458279079861
 30
0.0
 10
298.2188340928819
 20
461.3458279079861
 30
0.0
 10
298.2188340928819
 20
461.3458279079861
 30
0.0
 10
256.792249891493
 20
469.0669759114583
 30
0.0
 10
256.792249891493
 20
469.0669759114583
 30
0.0
 10
256.792249891493
 20
469.0669759114583
 30
0.0
 10
212.5262179904514
 20
477.0754448784722
 30
0.0
 10
212.5262179904514
 20
477.0754448784722
 30
0.0
  0
POLYLINE
  5
4E
330
A
100
AcDbEntity
  8
LAYER_1
 62
     7
100
AcDb2dPolyline
 66
     1
 10
0.0
 20
0.0
 30
0.0
  0
VERTEX
  5
4F
330
4E
100
AcDbEntity
  8
LAYER_1
 62
     7
100
AcDbVertex
100
AcDb2dVertex
 10
211.745559
 20
459.293585
 30
0.0
  0
VERTEX
  5
50
330
4E
100
AcDbEntity
  8
LAYER_1
 62
     7
100
AcDbVertex
100
AcDb2dVertex
 10
254.542258
 20
452.161892
 30
0.0
  0
VERTEX
  5
51
330
4E
100
AcDbEntity
  8
LAYER_1
 62
     7
100
AcDbVertex
100
AcDb2dVertex
 10
308.186529
 20
443.16916
 30
0.0
  0
SEQEND
  5
52
330
4E
100
AcDbEntity
  8
LAYER_1
 62
     7
  0
LINE
  5
4D
330
A
100
AcDbEntity
  8
LAYER_1
 62
     7
100
AcDbLine
 10
214.381057
 20
501.701676
 30
0.0
 11
300.567356
 21
493.884755
 31
0.0
  0
LINE
  5
4C
330
A
100
AcDbEntity
  8
LAYER_1
 62
     7
100
AcDbLine
 10
301.835495
 20
499.257726
 30
0.0
 11
217.019312
 21
517.33862
 31
0.0
  0
LINE
  5
4B
330
A
100
AcDbEntity
  8
LAYER_1
 62
     7
100
AcDbLine
 10
219.364733
 20
525.346745
 30
0.0
 11
303.10708
 21
507.176622
 31
0.0
  0
SPLINE
  5
4A
330
A
100
AcDbEntity
  8
LAYER_1
 62
     7
100
AcDbSpline
210
0.0
220
0.0
230
1.0
 70
     8
 71
     3
 72
    29
 73
    25
 74
     0
 42
0.000000001
 43
0.00000001
 40
0.0
 40
0.0
 40
0.0
 40
0.0
 40
1.0
 40
1.0
 40
1.0
 40
2.0
 40
2.0
 40
2.0
 40
3.0
 40
3.0
 40
3.0
 40
4.0
 40
4.0
 40
4.0
 40
5.0
 40
5.0
 40
5.0
 40
6.0
 40
6.0
 40
6.0
 40
7.0
 40
7.0
 40
7.0
 40
8.0
 40
8.0
 40
8.0
 40
8.0
 10
227.2805284288194
 20
563.3571723090278
 30
0.0
 10
227.2805284288194
 20
563.3571723090278
 30
0.0
 10
226.3052218967014
 20
559.6416368272569
 30
0.0
 10
225.6203369140625
 20
557.0092393663194
 30
0.0
 10
224.935107421875
 20
554.3675401475693
 30
0.0
 10
223.6669677734375
 20
548.4054578993055
 30
0.0
 10
223.1760416666666
 20
547.0415445963541
 30
0.0
 10
222.6885606553819
 20
545.6745307074652
 30
0.0
 10
221.1268988715278
 20
536.582923719618
 30
0.0
 10
221.1268988715278
 20
535.6076171875
 30
0.0
 10
221.1268988715278
 20
534.6264539930555
 30
0.0
 10
220.1488362630208
 20
530.5250678168402
 30
0.0
 10
219.951087782118
 20
529.4512315538194
 30
0.0
 10
219.7567843967014
 20
528.3804958767361
 30
0.0
 10
219.2662027994791
 20
525.2509711371528
 30
0.0
 10
219.2662027994791
 20
525.2509711371528
 30
0.0
 10
219.2662027994791
 20
525.2509711371528
 30
0.0
 10
215.8500461154514
 20
524.6646158854167
 30
0.0
 10
214.3810574001736
 20
524.7603895399305
 30
0.0
 10
212.9182698567708
 20
524.8561631944444
 30
0.0
 10
209.4001383463541
 20
523.781982421875
 30
0.0
 10
208.6160346137153
 20
523.8839572482639
 30
0.0
 10
207.8353759765625
 20
523.9762858072917
 30
0.0
 10
202.6570529513889
 20
524.7603895399305
 30
0.0
 10
202.6570529513889
 20
524.7603895399305
 30
0.0
  0
SPLINE
  5
49
330
A
100
AcDbEntity
  8
LAYER_1
 62
     7
100
AcDbSpline
210
0.0
220
0.0
230
1.0
 70
     8
 71
     3
 72
    23
 73
    19
 74
     0
 42
0.000000001
 43
0.00000001
 40
0.0
 40
0.0
 40
0.0
 40
0.0
 40
1.0
 40
1.0
 40
1.0
 40
2.0
 40
2.0
 40
2.0
 40
3.0
 40
3.0
 40
3.0
 40
4.0
 40
4.0
 40
4.0
 40
5.0
 40
5.0
 40
5.0
 40
6.0
 40
6.0
 40
6.0
 40
6.0
 10
32.34290093315972
 20
494.3725802951388
 30
0.0
 10
32.34290093315972
 20
494.3725802951388
 30
0.0
 10
57.65126139322916
 20
489.292787000868
 30
0.0
 10
64.97760145399305
 20
488.0212022569444
 30
0.0
 10
72.30669759114582
 20
486.7530626085069
 30
0.0
 10
89.600732421875
 20
482.3522976345486
 30
0.0
 10
93.41204155815971
 20
481.9633463541666
 30
0.0
 10
97.22335069444443
 20
481.5716389973958
 30
0.0
 10
126.0498426649305
 20
476.1955674913194
 30
0.0
 10
132.2065728081597
 20
474.9274278428819
 30
0.0
 10
138.3598578559028
 20
473.6592881944444
 30
0.0
 10
157.8081108940972
 20
469.4590277777777
 30
0.0
 10
161.3231418185764
 20
468.8664713541666
 30
0.0
 10
164.8409288194444
 20
468.2863172743055
 30
0.0
 10
178.2282253689236
 20
465.7434922960069
 30
0.0
 10
180.8637234157986
 20
465.1540364583333
 30
0.0
 10
183.5019775390625
 20
464.5738823784722
 30
0.0
 10
188.782275390625
 20
463.5923746744791
 30
0.0
 10
188.782275390625
 20
463.5923746744791
 30
0.0
  0
SPLINE
  5
48
330
A
100
AcDbEntity
  8
LAYER_1
 62
     7
100
AcDbSpline
210
0.0
220
0.0
230
1.0
 70
     8
 71
     3
 72
    23
 73
    19
 74
     0
 42
0.000000001
 43
0.00000001
 40
0.0
 40
0.0
 40
0.0
 40
0.0
 40
1.0
 40
1.0
 40
1.0
 40
2.0
 40
2.0
 40
2.0
 40
3.0
 40
3.0
 40
3.0
 40
4.0
 40
4.0
 40
4.0
 40
5.0
 40
5.0
 40
5.0
 40
6.0
 40
6.0
 40
6.0
 40
6.0
 10
8.47459038628472
 20
549.37421875
 30
0.0
 10
8.47459038628472
 20
549.37421875
 30
0.0
 10
7.008702256944444
 20
533.5426269531249
 30
0.0
 10
6.61699490017361
 20
532.8608425564236
 30
0.0
 10
6.224943033854166
 20
532.175613064236
 30
0.0
 10
6.129169379340278
 20
528.1637993706597
 30
0.0
 10
5.740562608506944
 20
527.0930636935764
 30
0.0
 10
5.348510742187499
 20
526.0192274305555
 30
0.0
 10
3.978396267361111
 20
514.0020453559027
 30
0.0
 10
3.978396267361111
 20
514.0020453559027
 30
0.0
 10
3.978396267361111
 20
514.0020453559027
 30
0.0
 10
-23.08902994791666
 20
520.2545491536458
 30
0.0
 10
-24.159765625
 20
520.5477267795138
 30
0.0
 10
-25.23704698350694
 20
520.8405598958333
 30
0.0
 10
-45.16968044704861
 20
525.4328721788194
 30
0.0
 10
-45.16968044704861
 20
525.4328721788194
 30
0.0
 10
-45.16968044704861
 20
525.4328721788194
 30
0.0
 10
-40.57771267361111
 20
549.37421875
 30
0.0
 10
-40.57771267361111
 20
549.37421875
 30
0.0
  0
SPLINE
  5
47
330
A
100
AcDbEntity
  8
LAYER_1
 62
     7
100
AcDbSpline
210
0.0
220
0.0
230
1.0
 70
     8
 71
     3
 72
    32
 73
    28
 74
     0
 42
0.000000001
 43
0.00000001
 40
0.0
 40
0.0
 40
0.0
 40
0.0
 40
1.0
 40
1.0
 40
1.0
 40
2.0
 40
2.0
 40
2.0
 40
3.0
 40
3.0
 40
3.0
 40
4.0
 40
4.0
 40
4.0
 40
5.0
 40
5.0
 40
5.0
 40
6.0
 40
6.0
 40
6.0
 40
7.0
 40
7.0
 40
7.0
 40
8.0
 40
8.0
 40
8.0
 40
9.0
 40
9.0
 40
9.0
 40
9.0
 10
27.33338758680555
 20
548.979066297743
 30
0.0
 10
27.33338758680555
 20
548.979066297743
 30
0.0
 10
23.81525607638889
 20
521.5261338975694
 30
0.0
 10
23.61785210503472
 20
519.1772677951388
 30
0.0
 10
23.42320421006944
 20
516.8318467881944
 30
0.0
 10
22.95501573350694
 20
512.9953884548611
 30
0.0
 10
22.95501573350694
 20
512.9953884548611
 30
0.0
 10
22.95501573350694
 20
512.9953884548611
 30
0.0
 10
23.04734429253472
 20
512.9698947482639
 30
0.0
 10
23.22269965277778
 20
512.9189073350694
 30
0.0
 10
23.22269965277778
 20
512.9189073350694
 30
0.0
 10
32.24402669270833
 20
511.3761935763889
 30
0.0
 10
32.24402669270833
 20
511.3761935763889
 30
0.0
 10
32.24402669270833
 20
511.3761935763889
 30
0.0
 10
44.75179036458333
 20
509.5220431857638
 30
0.0
 10
47.48891872829861
 20
508.9322428385416
 30
0.0
 10
50.22329101562499
 20
508.3458875868055
 30
0.0
 10
70.93968370225694
 20
505.0286051432291
 30
0.0
 10
78.46032714843749
 20
503.6584906684027
 30
0.0
 10
85.98372667100693
 20
502.2880316840277
 30
0.0
 10
103.7717881944444
 20
499.2577256944444
 30
0.0
 10
107.3853488498264
 20
498.5790418836805
 30
0.0
 10
110.9992540147569
 20
497.8907118055555
 30
0.0
 10
144.12763671875
 20
490.0703450520833
 30
0.0
 10
148.0312744140625
 20
489.3882161458333
 30
0.0
 10
151.9414577907986
 20
488.7033311631944
 30
0.0
 10
190.1496337890625
 20
479.5224962022569
 30
0.0
 10
190.1496337890625
 20
479.5224962022569
 30
0.0
  0
SPLINE
  5
46
330
A
100
AcDbEntity
  8
LAYER_1
  6
AI9-LType2
 62
     7
100
AcDbSpline
210
0.0
220
0.0
230
1.0
 70
    11
 71
     3
 72
    17
 73
    13
 74
     0
 42
0.000000001
 43
0.00000001
 40
0.0
 40
0.0
 40
0.0
 40
0.0
 40
1.0
 40
1.0
 40
1.0
 40
2.0
 40
2.0
 40
2.0
 40
3.0
 40
3.0
 40
3.0
 40
4.0
 40
4.0
 40
4.0
 40
4.0
 10
190.3439371744792
 20
479.5224962022569
 30
0.0
 10
190.3439371744792
 20
479.5224962022569
 30
0.0
 10
188.6837456597222
 20
463.4935004340277
 30
0.0
 10
188.6837456597222
 20
463.4935004340277
 30
0.0
 10
188.6837456597222
 20
463.4935004340277
 30
0.0
 10
211.7455593532986
 20
459.389013671875
 30
0.0
 10
211.7455593532986
 20
459.389013671875
 30
0.0
 10
211.7455593532986
 20
459.389013671875
 30
0.0
 10
212.9182698567708
 20
476.6864935980902
 30
0.0
 10
212.4304443359375
 20
477.0754448784722
 30
0.0
 10
212.4304443359375
 20
477.0754448784722
 30
0.0
 10
190.3439371744792
 20
479.5224962022569
 30
0.0
 10
190.3439371744792
 20
479.5224962022569
 30
0.0
  0
LINE
  5
45
330
A
100
AcDbEntity
  8
LAYER_1
  6
AI9-LType2
 62
     7
100
AcDbLine
 10
159.175125
 20
539.807878
 30
0.0
 11
205.295652
 21
543.424539
 31
0.0
  0
LINE
  5
44
330
A
100
AcDbEntity
  8
LAYER_1
  6
AI9-LType2
 62
     7
100
AcDbLine
 10
256.693376
 20
522.124891
 30
0.0
 11
255.421791
 21
517.628697
 31
0.0
  0
SPLINE
  5
42
330
A
100
AcDbEntity
  8
LAYER_1
  6
AI9-LType1
 62
     7
100
AcDbSpline
210
0.0
220
0.0
230
1.0
 70
     8
 71
     3
 72
    20
 73
    16
 74
     0
 42
0.000000001
 43
0.00000001
 40
0.0
 40
0.0
 40
0.0
 40
0.0
 40
1.0
 40
1.0
 40
1.0
 40
2.0
 40
2.0
 40
2.0
 40
3.0
 40
3.0
 40
3.0
 40
4.0
 40
4.0
 40
4.0
 40
5.0
 40
5.0
 40
5.0
 40
5.0
 10
161.0296196831597
 20
561.5026774088541
 30
0.0
 10
161.0296196831597
 20
561.5026774088541
 30
0.0
 10
163.3784857855903
 20
557.5001654730902
 30
0.0
 10
165.6250325520833
 20
557.1050130208333
 30
0.0
 10
167.8715793185764
 20
556.71640625
 30
0.0
 10
172.4222059461805
 20
556.0311767578124
 30
0.0
 10
174.0569037543403
 20
556.2254801432291
 30
0.0
 10
175.6885009765625
 20
556.4228841145833
 30
0.0
 10
176.8067789713542
 20
557.6913682725694
 30
0.0
 10
177.3710856119791
 20
558.2811686197916
 30
0.0
 10
177.938148328993
 20
558.8640787760417
 30
0.0
 10
178.620277235243
 20
560.4253960503472
 30
0.0
 10
179.5952392578125
 20
560.8174479166667
 30
0.0
 10
180.573646375868
 20
561.2094997829861
 30
0.0
 10
181.9406602647569
 20
562.3822102864583
 30
0.0
 10
181.9406602647569
 20
562.3822102864583
 30
0.0
  0
SPLINE
  5
41
330
A
100
AcDbEntity
  8
LAYER_1
  6
AI9-LType1
 62
     7
100
AcDbSpline
210
0.0
220
0.0
230
1.0
 70
     8
 71
     3
 72
    35
 73
    31
 74
     0
 42
0.000000001
 43
0.00000001
 40
0.0
 40
0.0
 40
0.0
 40
0.0
 40
1.0
 40
1.0
 40
1.0
 40
2.0
 40
2.0
 40
2.0
 40
3.0
 40
3.0
 40
3.0
 40
4.0
 40
4.0
 40
4.0
 40
5.0
 40
5.0
 40
5.0
 40
6.0
 40
6.0
 40
6.0
 40
7.0
 40
7.0
 40
7.0
 40
8.0
 40
8.0
 40
8.0
 40
9.0
 40
9.0
 40
9.0
 40
10.0
 40
10.0
 40
10.0
 40
10.0
 10
51.78460828993055
 20
553.1948296440971
 30
0.0
 10
52.8618896484375
 20
552.5130452473958
 30
0.0
 10
65.46508246527777
 20
539.8140787760416
 30
0.0
 10
68.10678168402777
 20
538.3450900607638
 30
0.0
 10
70.74193522135415
 20
536.8761013454861
 30
0.0
 10
74.84642198350694
 20
534.4383517795138
 30
0.0
 10
78.85203450520832
 20
534.9258327907986
 30
0.0
 10
82.86109212239583
 20
535.4102132161457
 30
0.0
 10
87.94054090711805
 20
540.3019042968749
 30
0.0
 10
89.70270724826388
 20
540.7893853081597
 30
0.0
 10
91.45867241753471
 20
541.2803114149305
 30
0.0
 10
95.56315917968749
 20
544.1097683376736
 30
0.0
 10
96.73586968315972
 20
544.6006944444443
 30
0.0
 10
97.90823567708333
 20
545.0881754557291
 30
0.0
 10
99.76307508680554
 20
547.7267740885416
 30
0.0
 10
101.8153184678819
 20
548.5074327256943
 30
0.0
 10
103.8706624348958
 20
549.2880913628471
 30
0.0
 10
106.6046902126736
 20
549.3869656032986
 30
0.0
 10
109.6353407118055
 20
550.0687499999999
 30
0.0
 10
112.6625461154514
 20
550.757080078125
 30
0.0
 10
112.9526231553819
 20
552.4141710069443
 30
0.0
 10
112.2704942491319
 20
552.9050971137152
 30
0.0
 10
111.5887098524305
 20
553.3956787109374
 30
0.0
 10
110.4159993489583
 20
553.3956787109374
 30
0.0
 10
107.2868191189236
 20
553.9754882812499
 30
0.0
 10
104.1638400607639
 20
554.561843532986
 30
0.0
 10
101.1300889756944
 20
554.8553656684028
 30
0.0
 10
100.9388861762153
 20
555.345947265625
 30
0.0
 10
100.7411376953125
 20
555.8365288628472
 30
0.0
 10
100.7411376953125
 20
557.2069878472222
 30
0.0
 10
100.7411376953125
 20
557.2069878472222
 30
0.0
  0
SPLINE
  5
40
330
A
100
AcDbEntity
  8
LAYER_1
  6
AI9-LType1
 62
     7
100
AcDbSpline
210
0.0
220
0.0
230
1.0
 70
     8
 71
     3
 72
    14
 73
    10
 74
     0
 42
0.000000001
 43
0.00000001
 40
0.0
 40
0.0
 40
0.0
 40
0.0
 40
1.0
 40
1.0
 40
1.0
 40
2.0
 40
2.0
 40
2.0
 40
3.0
 40
3.0
 40
3.0
 40
3.0
 10
185.0698404947917
 20
532.0894856770833
 30
0.0
 10
185.0698404947917
 20
532.0894856770833
 30
0.0
 10
182.233837890625
 20
528.3804958767361
 30
0.0
 10
181.6474826388889
 20
526.9146077473957
 30
0.0
 10
181.0611273871528
 20
525.445619032118
 30
0.0
 10
180.4778727213541
 20
522.6127170138889
 30
0.0
 10
181.9406602647569
 20
520.6593478732639
 30
0.0
 10
183.4065483940972
 20
518.7025336371528
 30
0.0
 10
185.1656141493055
 20
517.137771267361
 30
0.0
 10
185.1656141493055
 20
517.137771267361
 30
0.0
  0
LINE
  5
3F
330
A
100
AcDbEntity
  8
LAYER_1
  6
AI9-LType1
 62
     7
100
AcDbLine
 10
248.583276
 20
540.496208
 30
0.0
 11
244.673093
 21
521.930588
 31
0.0
  0
POLYLINE
  5
3A
330
A
100
AcDbEntity
  8
LAYER_1
  6
AI9-LType1
 62
     7
100
AcDb2dPolyline
 66
     1
 10
0.0
 20
0.0
 30
0.0
  0
VERTEX
  5
3B
330
3A
100
AcDbEntity
  8
LAYER_1
  6
AI9-LType1
 62
     7
100
AcDbVertex
100
AcDb2dVertex
 10
270.568153
 20
550.559676
 30
0.0
  0
VERTEX
  5
3C
330
3A
100
AcDbEntity
  8
LAYER_1
  6
AI9-LType1
 62
     7
100
AcDbVertex
100
AcDb2dVertex
 10
285.322464
 20
548.896039
 30
0.0
  0
VERTEX
  5
3D
330
3A
100
AcDbEntity
  8
LAYER_1
  6
AI9-LType1
 62
     7
100
AcDbVertex
100
AcDb2dVertex
 10
286.788007
 20
548.603206
 30
0.0
  0
SEQEND
  5
3E
330
3A
100
AcDbEntity
  8
LAYER_1
  6
AI9-LType1
 62
     7
  0
SPLINE
  5
39
330
A
100
AcDbEntity
  8
LAYER_1
  6
AI9-LType1
 62
     7
100
AcDbSpline
210
0.0
220
0.0
230
1.0
 70
     8
 71
     3
 72
    11
 73
     7
 74
     0
 42
0.000000001
 43
0.00000001
 40
0.0
 40
0.0
 40
0.0
 40
0.0
 40
1.0
 40
1.0
 40
1.0
 40
2.0
 40
2.0
 40
2.0
 40
2.0
 10
265.5872341579861
 20
542.3507025824653
 30
0.0
 10
265.5872341579861
 20
542.3507025824653
 30
0.0
 10
282.9801432291666
 20
539.4192708333333
 30
0.0
 10
285.5198676215277
 20
539.4192708333333
 30
0.0
 10
288.0595920138888
 20
539.4192708333333
 30
0.0
 10
292.7473334418402
 20
540.5919813368055
 30
0.0
 10
292.7473334418402
 20
540.5919813368055
 30
0.0
  0
SPLINE
  5
38
330
A
100
AcDbEntity
  8
LAYER_1
  6
AI9-LType1
 62
     7
100
AcDbSpline
210
0.0
220
0.0
230
1.0
 70
     8
 71
     3
 72
    11
 73
     7
 74
     0
 42
0.000000001
 43
0.00000001
 40
0.0
 40
0.0
 40
0.0
 40
0.0
 40
1.0
 40
1.0
 40
1.0
 40
2.0
 40
2.0
 40
2.0
 40
2.0
 10
281.0267740885416
 20
527.6921657986111
 30
0.0
 10
279.9494927300347
 20
526.9146077473957
 30
0.0
 10
276.7248833550347
 20
523.5876790364583
 30
0.0
 10
276.1385281032986
 20
522.3191948784722
 30
0.0
 10
275.5521728515625
 20
521.0510552300346
 30
0.0
 10
275.1632215711805
 20
516.5579616970485
 30
0.0
 10
275.1632215711805
 20
516.5579616970485
 30
0.0
  0
SPLINE
  5
36
330
A
100
AcDbEntity
  8
LAYER_1
 62
     7
100
AcDbSpline
210
0.0
220
0.0
230
1.0
 70
    11
 71
     3
 72
    32
 73
    28
 74
     0
 42
0.000000001
 43
0.00000001
 40
0.0
 40
0.0
 40
0.0
 40
0.0
 40
1.0
 40
1.0
 40
1.0
 40
2.0
 40
2.0
 40
2.0
 40
3.0
 40
3.0
 40
3.0
 40
4.0
 40
4.0
 40
4.0
 40
5.0
 40
5.0
 40
5.0
 40
6.0
 40
6.0
 40
6.0
 40
7.0
 40
7.0
 40
7.0
 40
8.0
 40
8.0
 40
8.0
 40
9.0
 40
9.0
 40
9.0
 40
9.0
 10
286.3994004991319
 20
548.6032063802082
 30
0.0
 10
284.8346381293402
 20
548.6986355251736
 30
0.0
 10
281.3168511284722
 20
548.8006103515625
 30
0.0
 10
280.6347222222222
 20
548.6032063802082
 30
0.0
 10
279.9494927300347
 20
548.4054578993055
 30
0.0
 10
278.5793782552083
 20
548.2111545138888
 30
0.0
 10
280.144140625
 20
546.7452663845486
 30
0.0
 10
281.708558485243
 20
545.2824788411458
 30
0.0
 10
283.661927625868
 20
544.501820203993
 30
0.0
 10
285.5198676215277
 20
543.8165907118055
 30
0.0
 10
287.3743625217014
 20
543.1317057291666
 30
0.0
 10
289.2292019314236
 20
541.5700439453125
 30
0.0
 10
290.1087348090277
 20
541.1783365885416
 30
0.0
 10
290.9913682725694
 20
540.7893853081597
 30
0.0
 10
293.3367892795139
 20
540.1076009114582
 30
0.0
 10
294.9969807942708
 20
540.888259548611
 30
0.0
 10
296.6571723090278
 20
541.6689181857638
 30
0.0
 10
298.0276312934027
 20
541.5700439453125
 30
0.0
 10
297.6355794270833
 20
543.1317057291666
 30
0.0
 10
297.2435275607639
 20
544.6961235894097
 30
0.0
 10
296.7560465494792
 20
545.0881754557291
 30
0.0
 10
295.876513671875
 20
545.3813530815971
 30
0.0
 10
294.9969807942708
 20
545.6714301215277
 30
0.0
 10
290.309583875868
 20
547.5259250217014
 30
0.0
 10
289.3311767578125
 20
547.9176323784721
 30
0.0
 10
288.3527696397569
 20
548.3096842447916
 30
0.0
 10
286.3994004991319
 20
548.6032063802082
 30
0.0
 10
286.3994004991319
 20
548.6032063802082
 30
0.0
  0
SPLINE
  5
35
330
A
100
AcDbEntity
  8
LAYER_1
 62
     7
100
AcDbSpline
210
0.0
220
0.0
230
1.0
 70
     8
 71
     3
 72
    26
 73
    22
 74
     0
 42
0.000000001
 43
0.00000001
 40
0.0
 40
0.0
 40
0.0
 40
0.0
 40
1.0
 40
1.0
 40
1.0
 40
2.0
 40
2.0
 40
2.0
 40
3.0
 40
3.0
 40
3.0
 40
4.0
 40
4.0
 40
4.0
 40
5.0
 40
5.0
 40
5.0
 40
6.0
 40
6.0
 40
6.0
 40
7.0
 40
7.0
 40
7.0
 40
7.0
 10
266.2883110894097
 20
552.0923990885416
 30
0.0
 10
266.2883110894097
 20
552.0923990885416
 30
0.0
 10
267.0500217013889
 20
551.3434353298611
 30
0.0
 10
267.7352511935763
 20
551.2414605034721
 30
0.0
 10
268.4201361762152
 20
551.1460313585069
 30
0.0
 10
270.4692789713541
 20
550.4577012803819
 30
0.0
 10
270.4692789713541
 20
550.4577012803819
 30
0.0
 10
270.4692789713541
 20
550.4577012803819
 30
0.0
 10
265.8804117838541
 20
548.5074327256943
 30
0.0
 10
265.5872341579861
 20
547.7267740885416
 30
0.0
 10
265.2909559461805
 20
546.9461154513889
 30
0.0
 10
264.3159939236111
 20
544.794997829861
 30
0.0
 10
264.9023491753472
 20
543.9123643663194
 30
0.0
 10
265.4883599175347
 20
543.0324869791666
 30
0.0
 10
265.6830078125
 20
542.4461317274305
 30
0.0
 10
265.6830078125
 20
542.4461317274305
 30
0.0
 10
265.6830078125
 20
542.4461317274305
 30
0.0
 10
261.4796468098958
 20
544.3071723090277
 30
0.0
 10
260.8932915581597
 20
544.501820203993
 30
0.0
 10
260.3103814019097
 20
544.6961235894097
 30
0.0
 10
259.0387966579861
 20
546.5571641710069
 30
0.0
 10
259.0387966579861
 20
546.5571641710069
 30
0.0
  0
SPLINE
  5
34
330
A
100
AcDbEntity
  8
LAYER_1
 62
     7
100
AcDbSpline
210
0.0
220
0.0
230
1.0
 70
     8
 71
     3
 72
    20
 73
    16
 74
     0
 42
0.000000001
 43
0.00000001
 40
0.0
 40
0.0
 40
0.0
 40
0.0
 40
1.0
 40
1.0
 40
1.0
 40
2.0
 40
2.0
 40
2.0
 40
3.0
 40
3.0
 40
3.0
 40
4.0
 40
4.0
 40
4.0
 40
5.0
 40
5.0
 40
5.0
 40
5.0
 10
248.3889729817708
 20
540.0056260850694
 30
0.0
 10
249.9502902560764
 20
540.888259548611
 30
0.0
 10
251.9036593967014
 20
542.0575249565971
 30
0.0
 10
252.6877631293403
 20
542.4461317274305
 30
0.0
 10
253.468421766493
 20
542.8381835937499
 30
0.0
 10
258.5478705512152
 20
544.501820203993
 30
0.0
 10
258.5478705512152
 20
544.501820203993
 30
0.0
 10
258.5478705512152
 20
544.501820203993
 30
0.0
 10
258.745619032118
 20
546.2577853732638
 30
0.0
 10
259.2331000434028
 20
547.1369737413194
 30
0.0
 10
259.7240261501736
 20
548.0168511284721
 30
0.0
 10
260.3103814019097
 20
549.6801432291666
 30
0.0
 10
260.6001139322917
 20
550.0687499999999
 30
0.0
 10
260.8932915581597
 20
550.4577012803819
 30
0.0
 10
262.3622802734375
 20
551.961829969618
 30
0.0
 10
262.3622802734375
 20
551.961829969618
 30
0.0
  0
SPLINE
  5
33
330
A
100
AcDbEntity
  8
LAYER_1
 62
     7
100
AcDbSpline
210
0.0
220
0.0
230
1.0
 70
     8
 71
     3
 72
    17
 73
    13
 74
     0
 42
0.000000001
 43
0.00000001
 40
0.0
 40
0.0
 40
0.0
 40
0.0
 40
1.0
 40
1.0
 40
1.0
 40
2.0
 40
2.0
 40
2.0
 40
3.0
 40
3.0
 40
3.0
 40
4.0
 40
4.0
 40
4.0
 40
4.0
 10
240.836634657118
 20
551.2638536241319
 30
0.0
 10
239.8582275390625
 20
550.5786241319444
 30
0.0
 10
237.6371744791666
 20
547.7233289930555
 30
0.0
 10
237.8345784505208
 20
547.1369737413194
 30
0.0
 10
238.0292263454861
 20
546.5571641710069
 30
0.0
 10
238.2235297309028
 20
544.501820203993
 30
0.0
 10
241.5470133463541
 20
544.1097683376736
 30
0.0
 10
244.8677408854167
 20
543.7180609809027
 30
0.0
 10
247.2162624782986
 20
543.5234130859375
 30
0.0
 10
247.8026177300347
 20
543.7180609809027
 30
0.0
 10
248.3889729817708
 20
543.9123643663194
 30
0.0
 10
249.5582383897569
 20
544.0143391927082
 30
0.0
 10
249.5582383897569
 20
544.0143391927082
 30
0.0
  0
SPLINE
  5
32
330
A
100
AcDbEntity
  8
LAYER_1
 62
     7
100
AcDbSpline
210
0.0
220
0.0
230
1.0
 70
     8
 71
     3
 72
    11
 73
     7
 74
     0
 42
0.000000001
 43
0.00000001
 40
0.0
 40
0.0
 40
0.0
 40
0.0
 40
1.0
 40
1.0
 40
1.0
 40
2.0
 40
2.0
 40
2.0
 40
2.0
 10
251.6139268663194
 20
551.439208984375
 30
0.0
 10
251.0275716145833
 20
550.3622721354166
 30
0.0
 10
249.9502902560764
 20
546.1620117187499
 30
0.0
 10
249.7559868706597
 20
545.0881754557291
 30
0.0
 10
249.5582383897569
 20
544.0143391927082
 30
0.0
 10
248.4844021267361
 20
540.2953586154514
 30
0.0
 10
248.4844021267361
 20
540.2953586154514
 30
0.0
  0
SPLINE
  5
31
330
A
100
AcDbEntity
  8
LAYER_1
 62
     7
100
AcDbSpline
210
0.0
220
0.0
230
1.0
 70
     8
 71
     3
 72
    14
 73
    10
 74
     0
 42
0.000000001
 43
0.00000001
 40
0.0
 40
0.0
 40
0.0
 40
0.0
 40
1.0
 40
1.0
 40
1.0
 40
2.0
 40
2.0
 40
2.0
 40
3.0
 40
3.0
 40
3.0
 40
3.0
 10
243.6981309678819
 20
519.875244140625
 30
0.0
 10
243.6981309678819
 20
519.875244140625
 30
0.0
 10
244.4787896050347
 20
522.1248914930555
 30
0.0
 10
245.8458034939236
 20
522.3191948784722
 30
0.0
 10
247.2162624782986
 20
522.5138427734374
 30
0.0
 10
254.5422580295139
 20
522.2237657335069
 30
0.0
 10
256.3013237847222
 20
522.1248914930555
 30
0.0
 10
258.063490125868
 20
522.0263617621528
 30
0.0
 10
264.4114230685764
 20
521.4400065104167
 30
0.0
 10
264.4114230685764
 20
521.4400065104167
 30
0.0
  0
SPLINE
  5
30
330
A
100
AcDbEntity
  8
LAYER_1
 62
     7
100
AcDbSpline
210
0.0
220
0.0
230
1.0
 70
     8
 71
     3
 72
    38
 73
    34
 74
     0
 42
0.000000001
 43
0.00000001
 40
0.0
 40
0.0
 40
0.0
 40
0.0
 40
1.0
 40
1.0
 40
1.0
 40
2.0
 40
2.0
 40
2.0
 40
3.0
 40
3.0
 40
3.0
 40
4.0
 40
4.0
 40
4.0
 40
5.0
 40
5.0
 40
5.0
 40
6.0
 40
6.0
 40
6.0
 40
7.0
 40
7.0
 40
7.0
 40
8.0
 40
8.0
 40
8.0
 40
9.0
 40
9.0
 40
9.0
 40
10.0
 40
10.0
 40
10.0
 40
11.0
 40
11.0
 40
11.0
 40
11.0
 10
260.5046847873264
 20
516.5579616970485
 30
0.0
 10
260.5046847873264
 20
516.5579616970485
 30
0.0
 10
260.405810546875
 20
518.9957112630208
 30
0.0
 10
264.3159939236111
 20
518.215052625868
 30
0.0
 10
268.2227322048611
 20
517.4340494791667
 30
0.0
 10
276.6260091145833
 20
516.6502902560763
 30
0.0
 10
279.8509629991319
 20
516.3605577256944
 30
0.0
 10
283.0755723741319
 20
516.0670355902778
 30
0.0
 10
290.4019124348958
 20
514.5026177300347
 30
0.0
 10
292.7473334418402
 20
514.9900987413193
 30
0.0
 10
295.0958550347222
 20
515.4806803385417
 30
0.0
 10
296.7560465494792
 20
516.9469129774305
 30
0.0
 10
297.1480984157986
 20
517.8261013454861
 30
0.0
 10
297.5367051866319
 20
518.7025336371528
 30
0.0
 10
297.8267822265625
 20
520.7578776041667
 30
0.0
 10
297.8267822265625
 20
521.8320583767361
 30
0.0
 10
297.8267822265625
 20
522.9055501302083
 30
0.0
 10
297.0492241753472
 20
526.6214301215277
 30
0.0
 10
296.6571723090278
 20
527.4020887586805
 30
0.0
 10
296.2654649522569
 20
528.1827473958333
 30
0.0
 10
294.4106255425347
 20
529.4512315538194
 30
0.0
 10
293.4322184244791
 20
529.7444091796874
 30
0.0
 10
292.4572564019097
 20
530.0375868055555
 30
0.0
 10
291.7720269097222
 20
530.3338650173611
 30
0.0
 10
290.1087348090277
 20
530.0375868055555
 30
0.0
 10
288.4516438802083
 20
529.7444091796874
 30
0.0
 10
287.4732367621527
 20
529.2534830729167
 30
0.0
 10
286.4982747395833
 20
528.8648763020833
 30
0.0
 10
285.5198676215277
 20
528.47626953125
 30
0.0
 10
283.1713460286458
 20
527.9884440104166
 30
0.0
 10
282.4892171223958
 20
527.9884440104166
 30
0.0
 10
281.8043321397569
 20
527.9884440104166
 30
0.0
 10
280.72705078125
 20
527.794140625
 30
0.0
 10
280.72705078125
 20
527.794140625
 30
0.0
  0
SPLINE
  5
2F
330
A
100
AcDbEntity
  8
LAYER_1
 62
     7
100
AcDbSpline
210
0.0
220
0.0
230
1.0
 70
     8
 71
     3
 72
    26
 73
    22
 74
     0
 42
0.000000001
 43
0.00000001
 40
0.0
 40
0.0
 40
0.0
 40
0.0
 40
1.0
 40
1.0
 40
1.0
 40
2.0
 40
2.0
 40
2.0
 40
3.0
 40
3.0
 40
3.0
 40
4.0
 40
4.0
 40
4.0
 40
5.0
 40
5.0
 40
5.0
 40
6.0
 40
6.0
 40
6.0
 40
7.0
 40
7.0
 40
7.0
 40
7.0
 10
306.3320339626736
 20
521.6308648003471
 30
0.0
 10
305.353626844618
 20
522.0263617621528
 30
0.0
 10
304.8661458333333
 20
522.1248914930555
 30
0.0
 10
304.2766899956597
 20
521.9305881076389
 30
0.0
 10
303.6934353298611
 20
521.7328396267361
 30
0.0
 10
302.6195990668402
 20
521.9305881076389
 30
0.0
 10
301.8354953342014
 20
523.3964762369791
 30
0.0
 10
301.0548366970486
 20
524.8561631944444
 30
0.0
 10
298.9037190755208
 20
528.47626953125
 30
0.0
 10
297.7344536675347
 20
529.1580539279513
 30
0.0
 10
296.558642578125
 20
529.8398383246528
 30
0.0
 10
295.7810845269097
 20
530.0375868055555
 30
0.0
 10
295.0958550347222
 20
530.3338650173611
 30
0.0
 10
294.4106255425347
 20
530.6239420572916
 30
0.0
 10
292.9478379991319
 20
531.3060709635416
 30
0.0
 10
292.262953016493
 20
531.2102973090277
 30
0.0
 10
291.5777235243056
 20
531.1145236545138
 30
0.0
 10
290.7939643012152
 20
530.5250678168402
 30
0.0
 10
290.7939643012152
 20
530.5250678168402
 30
0.0
 10
290.7939643012152
 20
530.5250678168402
 30
0.0
 10
290.59931640625
 20
530.1333604600694
 30
0.0
 10
290.59931640625
 20
530.1333604600694
 30
0.0
  0
SPLINE
  5
2E
330
A
100
AcDbEntity
  8
LAYER_1
 62
     7
100
AcDbSpline
210
0.0
220
0.0
230
1.0
 70
     8
 71
     3
 72
    20
 73
    16
 74
     0
 42
0.000000001
 43
0.00000001
 40
0.0
 40
0.0
 40
0.0
 40
0.0
 40
1.0
 40
1.0
 40
1.0
 40
2.0
 40
2.0
 40
2.0
 40
3.0
 40
3.0
 40
3.0
 40
4.0
 40
4.0
 40
4.0
 40
5.0
 40
5.0
 40
5.0
 40
5.0
 10
262.0660020616319
 20
518.4124565972222
 30
0.0
 10
262.9486355251736
 20
518.8014078776041
 30
0.0
 10
263.1432834201389
 20
519.3877631293402
 30
0.0
 10
263.5349907769097
 20
520.1715223524305
 30
0.0
 10
263.9239420572916
 20
520.9521809895833
 30
0.0
 10
264.1182454427083
 20
521.4400065104167
 30
0.0
 10
264.7046006944444
 20
521.6308648003471
 30
0.0
 10
265.2909559461805
 20
521.8320583767361
 30
0.0
 10
266.0588677300347
 20
521.9178412543403
 30
0.0
 10
266.4636664496527
 20
521.4400065104167
 30
0.0
 10
267.0500217013889
 20
520.7578776041667
 30
0.0
 10
267.5409478081597
 20
519.2888888888889
 30
0.0
 10
267.7352511935763
 20
518.7025336371528
 30
0.0
 10
267.929554578993
 20
518.1196234809028
 30
0.0
 10
268.8121880425347
 20
517.526722547743
 30
0.0
 10
268.8121880425347
 20
517.526722547743
 30
0.0
  0
SPLINE
  5
2D
330
A
100
AcDbEntity
  8
LAYER_1
 62
     7
100
AcDbSpline
210
0.0
220
0.0
230
1.0
 70
    11
 71
     3
 72
    74
 73
    70
 74
     0
 42
0.000000001
 43
0.00000001
 40
0.0
 40
0.0
 40
0.0
 40
0.0
 40
1.0
 40
1.0
 40
1.0
 40
2.0
 40
2.0
 40
2.0
 40
3.0
 40
3.0
 40
3.0
 40
4.0
 40
4.0
 40
4.0
 40
5.0
 40
5.0
 40
5.0
 40
6.0
 40
6.0
 40
6.0
 40
7.0
 40
7.0
 40
7.0
 40
8.0
 40
8.0
 40
8.0
 40
9.0
 40
9.0
 40
9.0
 40
10.0
 40
10.0
 40
10.0
 40
11.0
 40
11.0
 40
11.0
 40
12.0
 40
12.0
 40
12.0
 40
13.0
 40
13.0
 40
13.0
 40
14.0
 40
14.0
 40
14.0
 40
15.0
 40
15.0
 40
15.0
 40
16.0
 40
16.0
 40
16.0
 40
17.0
 40
17.0
 40
17.0
 40
18.0
 40
18.0
 40
18.0
 40
19.0
 40
19.0
 40
19.0
 40
20.0
 40
20.0
 40
20.0
 40
21.0
 40
21.0
 40
21.0
 40
22.0
 40
22.0
 40
22.0
 40
23.0
 40
23.0
 40
23.0
 40
23.0
 10
213.6989284939236
 20
498.4770670572916
 30
0.0
 10
214.2852837456597
 20
501.4084988064236
 30
0.0
 10
215.4548936631944
 20
506.3925184461805
 30
0.0
 10
215.3591200086805
 20
507.8584065755208
 30
0.0
 10
215.2602457682291
 20
509.3242947048611
 30
0.0
 10
215.751171875
 20
510.4970052083333
 30
0.0
 10
214.5784613715278
 20
510.8890570746527
 30
0.0
 10
213.4057508680555
 20
511.2807644314236
 30
0.0
 10
210.767152235243
 20
511.962548828125
 30
0.0
 10
210.1807969835069
 20
512.4534749348958
 30
0.0
 10
209.5944417317708
 20
512.937855360243
 30
0.0
 10
208.2274278428819
 20
513.231032986111
 30
0.0
 10
207.3478949652778
 20
512.1571967230902
 30
0.0
 10
206.4683620876736
 20
511.0768147786458
 30
0.0
 10
205.8820068359375
 20
509.7163465711805
 30
0.0
 10
207.2490207248264
 20
509.2285210503472
 30
0.0
 10
208.6160346137153
 20
508.737939453125
 30
0.0
 10
210.473974609375
 20
508.4447618272569
 30
0.0
 10
210.8629258897569
 20
507.953835720486
 30
0.0
 10
211.2546332465278
 20
507.4632541232638
 30
0.0
 10
212.2330403645833
 20
507.4632541232638
 30
0.0
 10
211.6466851128472
 20
505.4110107421874
 30
0.0
 10
211.0603298611111
 20
503.364968532986
 30
0.0
 10
209.2058349609375
 20
498.2855197482638
 30
0.0
 10
208.4217312282986
 20
497.3043565538194
 30
0.0
 10
207.6379720052083
 20
496.3290500217013
 30
0.0
 10
205.1013481987847
 20
496.0324273003472
 30
0.0
 10
202.3638753255208
 20
496.0324273003472
 30
0.0
 10
199.6267469618055
 20
496.0324273003472
 30
0.0
 10
198.1608588324653
 20
496.9154052734374
 30
0.0
 10
197.6730333116319
 20
497.5971896701388
 30
0.0
 10
197.1855523003472
 20
498.2855197482638
 30
0.0
 10
196.988148328993
 20
499.2577256944444
 30
0.0
 10
197.4787299262153
 20
501.0133463541666
 30
0.0
 10
197.9631103515625
 20
502.7786132812499
 30
0.0
 10
198.7472140842014
 20
504.047097439236
 30
0.0
 10
198.941517469618
 20
504.9266303168403
 30
0.0
 10
199.1389214409722
 20
505.8027180989583
 30
0.0
 10
201.2900390625
 20
509.5220431857638
 30
0.0
 10
198.8491889105903
 20
509.3242947048611
 30
0.0
 10
196.4017930772569
 20
509.1265462239583
 30
0.0
 10
193.8620686848958
 20
507.5652289496527
 30
0.0
 10
192.4916097005208
 20
507.3674804687499
 30
0.0
 10
191.1276963975694
 20
507.1766221788194
 30
0.0
 10
190.3439371744792
 20
507.2720513237847
 30
0.0
 10
189.6587076822917
 20
504.1428710937499
 30
0.0
 10
188.9769232855903
 20
501.0133463541666
 30
0.0
 10
188.8811496310764
 20
494.4680094401041
 30
0.0
 10
189.1743272569444
 20
493.7889811197916
 30
0.0
 10
189.464404296875
 20
493.1040961371527
 30
0.0
 10
189.6587076822917
 20
491.7336371527778
 30
0.0
 10
193.9605984157986
 20
491.4408040364583
 30
0.0
 10
198.2628336588541
 20
491.1472819010416
 30
0.0
 10
200.9937608506944
 20
490.5609266493055
 30
0.0
 10
202.265345594618
 20
490.5609266493055
 30
0.0
 10
203.536585828993
 20
490.5609266493055
 30
0.0
 10
204.3206895616319
 20
490.5609266493055
 30
0.0
 10
205.19677734375
 20
488.7033311631944
 30
0.0
 10
206.0763102213541
 20
486.8519368489583
 30
0.0
 10
206.7615397135417
 20
485.5772515190972
 30
0.0
 10
208.6160346137153
 20
485.2840738932291
 30
0.0
 10
210.473974609375
 20
484.9908962673611
 30
0.0
 10
211.7455593532986
 20
483.9167154947916
 30
0.0
 10
211.9398627387152
 20
486.1667073567708
 30
0.0
 10
212.1341661241319
 20
488.4132541232639
 30
0.0
 10
212.1341661241319
 20
493.2952989366319
 30
0.0
 10
212.5262179904514
 20
494.1810329861111
 30
0.0
 10
212.9182698567708
 20
495.0609103732638
 30
0.0
 10
213.6989284939236
 20
498.4770670572916
 30
0.0
 10
213.6989284939236
 20
498.4770670572916
 30
0.0
  0
SPLINE
  5
2C
330
A
100
AcDbEntity
  8
LAYER_1
 62
     7
100
AcDbSpline
210
0.0
220
0.0
230
1.0
 70
     8
 71
     3
 72
    41
 73
    37
 74
     0
 42
0.000000001
 43
0.00000001
 40
0.0
 40
0.0
 40
0.0
 40
0.0
 40
1.0
 40
1.0
 40
1.0
 40
2.0
 40
2.0
 40
2.0
 40
3.0
 40
3.0
 40
3.0
 40
4.0
 40
4.0
 40
4.0
 40
5.0
 40
5.0
 40
5.0
 40
6.0
 40
6.0
 40
6.0
 40
7.0
 40
7.0
 40
7.0
 40
8.0
 40
8.0
 40
8.0
 40
9.0
 40
9.0
 40
9.0
 40
10.0
 40
10.0
 40
10.0
 40
11.0
 40
11.0
 40
11.0
 40
12.0
 40
12.0
 40
12.0
 40
12.0
 10
159.0762505425347
 20
539.9064073350694
 30
0.0
 10
159.0762505425347
 20
539.9064073350694
 30
0.0
 10
158.2955919053819
 20
535.9011393229166
 30
0.0
 10
163.9613959418403
 20
535.3147840711805
 30
0.0
 10
169.6306450737847
 20
534.7284288194444
 30
0.0
 10
178.9134548611111
 20
533.9505262586805
 30
0.0
 10
180.8637234157986
 20
533.4599446614583
 30
0.0
 10
182.8201931423611
 20
532.9693630642361
 30
0.0
 10
186.5357286241319
 20
531.994056532118
 30
0.0
 10
187.51103515625
 20
530.4261935763889
 30
0.0
 10
188.4890977647569
 20
528.8648763020833
 30
0.0
 10
189.8564561631944
 20
525.3467447916667
 30
0.0
 10
189.1743272569444
 20
524.6646158854167
 30
0.0
 10
188.4890977647569
 20
523.9762858072917
 30
0.0
 10
184.5792588975694
 20
520.5604736328124
 30
0.0
 10
185.1656141493055
 20
518.7025336371528
 30
0.0
 10
185.7519694010417
 20
516.8449381510417
 30
0.0
 10
185.6561957465278
 20
515.6784288194444
 30
0.0
 10
187.9985161675347
 20
515.5764539930555
 30
0.0
 10
190.3439371744792
 20
515.4806803385417
 30
0.0
 10
190.3439371744792
 20
515.5764539930555
 30
0.0
 10
192.8836615668403
 20
518.1196234809028
 30
0.0
 10
195.4264865451389
 20
520.6593478732639
 30
0.0
 10
197.2844265407986
 20
521.146484375
 30
0.0
 10
199.1389214409722
 20
521.0510552300346
 30
0.0
 10
200.9937608506944
 20
520.9521809895833
 30
0.0
 10
202.265345594618
 20
522.5138427734374
 30
0.0
 10
202.4627495659722
 20
524.9581380208333
 30
0.0
 10
202.6570529513889
 20
527.4020887586805
 30
0.0
 10
205.7831325954861
 20
544.8935275607638
 30
0.0
 10
205.9808810763889
 20
545.6745307074652
 30
0.0
 10
206.1751844618055
 20
546.455189344618
 30
0.0
 10
206.3694878472222
 20
548.8960394965277
 30
0.0
 10
207.0516167534722
 20
551.3434353298611
 30
0.0
 10
207.7399468315972
 20
553.7811848958332
 30
0.0
 10
209.0080864800347
 20
562.9685655381944
 30
0.0
 10
209.0080864800347
 20
562.9685655381944
 30
0.0
  0
LINE
  5
2B
330
A
100
AcDbEntity
  8
LAYER_1
 62
     7
100
AcDbLine
 10
224.151348
 20
550.849409
 30
0.0
 11
312.38989
 21
553.586882
 31
0.0
  0
SPLINE
  5
2A
330
A
100
AcDbEntity
  8
LAYER_1
 62
     7
100
AcDbSpline
210
0.0
220
0.0
230
1.0
 70
     8
 71
     3
 72
    62
 73
    58
 74
     0
 42
0.000000001
 43
0.00000001
 40
0.0
 40
0.0
 40
0.0
 40
0.0
 40
1.0
 40
1.0
 40
1.0
 40
2.0
 40
2.0
 40
2.0
 40
3.0
 40
3.0
 40
3.0
 40
4.0
 40
4.0
 40
4.0
 40
5.0
 40
5.0
 40
5.0
 40
6.0
 40
6.0
 40
6.0
 40
7.0
 40
7.0
 40
7.0
 40
8.0
 40
8.0
 40
8.0
 40
9.0
 40
9.0
 40
9.0
 40
10.0
 40
10.0
 40
10.0
 40
11.0
 40
11.0
 40
11.0
 40
12.0
 40
12.0
 40
12.0
 40
13.0
 40
13.0
 40
13.0
 40
14.0
 40
14.0
 40
14.0
 40
15.0
 40
15.0
 40
15.0
 40
16.0
 40
16.0
 40
16.0
 40
17.0
 40
17.0
 40
17.0
 40
18.0
 40
18.0
 40
18.0
 40
19.0
 40
19.0
 40
19.0
 40
19.0
 10
200.8852403428819
 20
514.3844509548611
 30
0.0
 10
200.8852403428819
 20
514.3844509548611
 30
0.0
 10
201.2517985026041
 20
517.7882052951388
 30
0.0
 10
202.3576741536458
 20
518.2532931857638
 30
0.0
 10
203.4635498046875
 20
518.7087348090278
 30
0.0
 10
205.3945258246528
 20
519.07529296875
 30
0.0
 10
206.5004014756944
 20
518.0686360677083
 30
0.0
 10
207.60283203125
 20
517.0516438802083
 30
0.0
 10
207.4212754991319
 20
515.302224392361
 30
0.0
 10
207.5105034722222
 20
514.6621256510416
 30
0.0
 10
207.60283203125
 20
514.01513671875
 30
0.0
 10
207.7399468315972
 20
512.6446777343749
 30
0.0
 10
207.7399468315972
 20
512.6446777343749
 30
0.0
 10
207.7399468315972
 20
512.6446777343749
 30
0.0
 10
206.6626654730903
 20
515.6784288194444
 30
0.0
 10
203.243408203125
 20
515.0889729817708
 30
0.0
 10
199.8241509331597
 20
514.5026177300347
 30
0.0
 10
199.0403917100694
 20
511.860574001736
 30
0.0
 10
198.4571370442708
 20
511.2807644314236
 30
0.0
 10
197.8707817925347
 20
510.6878634982638
 30
0.0
 10
196.8923746744792
 20
510.0091796875
 30
0.0
 10
195.7165635850694
 20
510.7898383246527
 30
0.0
 10
194.5438530815972
 20
511.5708414713541
 30
0.0
 10
192.6893581814236
 20
514.5026177300347
 30
0.0
 10
191.710951063368
 20
514.6014919704861
 30
0.0
 10
190.7359890407986
 20
514.6969211154513
 30
0.0
 10
188.2947943793403
 20
514.6014919704861
 30
0.0
 10
185.7519694010417
 20
513.7216145833332
 30
0.0
 10
183.2122450086805
 20
512.8424262152778
 30
0.0
 10
180.573646375868
 20
511.1787896050347
 30
0.0
 10
179.7929877387153
 20
510.8890570746527
 30
0.0
 10
179.0088840060764
 20
510.5924343532986
 30
0.0
 10
177.3486924913194
 20
510.2007269965277
 30
0.0
 10
178.8145806206597
 20
508.2473578559027
 30
0.0
 10
180.28046875
 20
506.2905436197916
 30
0.0
 10
184.5792588975694
 20
499.8468370225694
 30
0.0
 10
185.0698404947917
 20
498.9676486545138
 30
0.0
 10
185.557666015625
 20
498.0850151909722
 30
0.0
 10
187.2178575303819
 20
492.616615125868
 30
0.0
 10
185.1656141493055
 20
491.8356119791666
 30
0.0
 10
183.1164713541667
 20
491.0518527560764
 30
0.0
 10
177.7979329427083
 20
491.4408040364583
 30
0.0
 10
174.0569037543403
 20
493.9770833333333
 30
0.0
 10
170.3124294704861
 20
496.5202528211805
 30
0.0
 10
169.5317708333333
 20
499.0661783854166
 30
0.0
 10
168.9454155815972
 20
500.4269911024305
 30
0.0
 10
168.3559597439236
 20
501.7974500868055
 30
0.0
 10
167.772705078125
 20
502.9701605902777
 30
0.0
 10
166.5011203342014
 20
502.2880316840277
 30
0.0
 10
165.2329806857639
 20
501.6031467013888
 30
0.0
 10
164.8409288194444
 20
498.7733452690971
 30
0.0
 10
164.2545735677083
 20
497.6929633246527
 30
0.0
 10
163.6682183159722
 20
496.6222276475694
 30
0.0
 10
161.5205457899305
 20
494.7611870659722
 30
0.0
 10
159.5671766493055
 20
494.276806640625
 30
0.0
 10
157.6103624131944
 20
493.7889811197916
 30
0.0
 10
155.3638156467014
 20
487.9226725260416
 30
0.0
 10
155.3638156467014
 20
487.9226725260416
 30
0.0
  0
SPLINE
  5
29
330
A
100
AcDbEntity
  8
LAYER_1
 62
     7
100
AcDbSpline
210
0.0
220
0.0
230
1.0
 70
    11
 71
     3
 72
    23
 73
    19
 74
     0
 42
0.000000001
 43
0.00000001
 40
0.0
 40
0.0
 40
0.0
 40
0.0
 40
1.0
 40
1.0
 40
1.0
 40
2.0
 40
2.0
 40
2.0
 40
3.0
 40
3.0
 40
3.0
 40
4.0
 40
4.0
 40
4.0
 40
5.0
 40
5.0
 40
5.0
 40
6.0
 40
6.0
 40
6.0
 40
6.0
 10
270.1061659071181
 20
530.3435112847221
 30
0.0
 10
270.1061659071181
 20
529.2410807291666
 30
0.0
 10
270.2622287326388
 20
527.5199110243055
 30
0.0
 10
271.2533827039931
 20
527.787939453125
 30
0.0
 10
272.2441921657986
 20
528.0428765190971
 30
0.0
 10
273.0282958984375
 20
529.0908745659722
 30
0.0
 10
273.1302707248263
 20
529.7123697916667
 30
0.0
 10
273.2353461371528
 20
530.3435112847221
 30
0.0
 10
273.0792833116319
 20
531.8538411458333
 30
0.0
 10
272.6107503255208
 20
532.3764621310763
 30
0.0
 10
272.1391167534722
 20
532.8959825303818
 30
0.0
 10
271.7215711805555
 20
532.9979573567708
 30
0.0
 10
271.3043701171875
 20
532.7971082899305
 30
0.0
 10
270.8868245442708
 20
532.5804117838542
 30
0.0
 10
270.4182915581597
 20
531.7997531467014
 30
0.0
 10
270.3132161458333
 20
531.3825520833333
 30
0.0
 10
270.2112413194444
 20
530.9681070963542
 30
0.0
 10
270.1061659071181
 20
530.3435112847221
 30
0.0
 10
270.1061659071181
 20
530.3435112847221
 30
0.0
  0
ENDSEC
  0
SECTION
  2
OBJECTS
  0
DICTIONARY
  5
19
330
0
100
AcDbDictionary
281
     1
  3
ACAD_DETAILVIEWSTYLE
350
1F7
  3
ACAD_GROUP
350
1A
  3
ACAD_LAYOUT
350
1E
  3
ACAD_MATERIAL
350
1B7
  3
ACAD_MLEADERSTYLE
350
1BD
  3
ACAD_MLINESTYLE
350
1B
  3
ACAD_PLOTSETTINGS
350
22
  3
ACAD_PLOTSTYLENAME
350
1F
  3
ACAD_SCALELIST
350
17C
  3
ACAD_SECTIONVIEWSTYLE
350
1F8
  3
ACAD_TABLESTYLE
350
1BB
  3
ACAD_VISUALSTYLE
350
19E
  3
ACAD_WIPEOUT_VARS
350
23
  3
ACDB_RECOMPOSE_DATA
350
1F3
  3
AcDbVariableDictionary
350
1BF
  0
DICTIONARY
  5
1F7
102
{ACAD_REACTORS
330
19
102
}
330
19
100
AcDbDictionary
281
     1
  0
DICTIONARY
  5
1A
102
{ACAD_REACTORS
330
19
102
}
330
19
100
AcDbDictionary
281
     1
  0
DICTIONARY
  5
1E
102
{ACAD_REACTORS
330
19
102
}
330
19
100
AcDbDictionary
281
     1
  3
Layout1
350
21
  3
Model
350
20
  0
DICTIONARY
  5
1B7
102
{ACAD_REACTORS
330
19
102
}
330
19
100
AcDbDictionary
281
     1
  3
ByBlock
350
1B9
  3
ByLayer
350
1B8
  3
Global
350
1BA
  0
DICTIONARY
  5
1BD
102
{ACAD_REACTORS
330
19
102
}
330
19
100
AcDbDictionary
281
     1
  3
Standard
350
1BE
  0
DICTIONARY
  5
1B
102
{ACAD_REACTORS
330
19
102
}
330
19
100
AcDbDictionary
281
     1
  3
Standard
350
1C
  0
DICTIONARY
  5
22
102
{ACAD_REACTORS
330
19
102
}
330
19
100
AcDbDictionary
281
     1
  0
ACDBDICTIONARYWDFLT
  5
1F
102
{ACAD_REACTORS
330
19
102
}
330
19
100
AcDbDictionary
281
     1
  3
Normal
350
1D
100
AcDbDictionaryWithDefault
340
1D
  0
DICTIONARY
  5
17C
102
{ACAD_REACTORS
330
19
102
}
330
19
100
AcDbDictionary
281
     1
  3
A0
350
17D
  3
A1
350
17E
  3
A2
350
17F
  3
A3
350
180
  3
A4
350
181
  3
A5
350
182
  3
A6
350
183
  3
A7
350
184
  3
A8
350
185
  3
A9
350
186
  3
B0
350
187
  3
B1
350
188
  3
B2
350
189
  3
B3
350
18A
  3
B4
350
18B
  3
B5
350
18C
  3
B6
350
18D
  3
B7
350
18E
  3
B8
350
18F
  3
B9
350
190
  3
C0
350
191
  3
C1
350
192
  3
C2
350
193
  3
C3
350
194
  3
C4
350
195
  3
C5
350
196
  3
C6
350
197
  3
C7
350
198
  3
C8
350
199
  3
C9
350
19A
  3
D0
350
19B
  3
D1
350
19C
  3
D2
350
19D
  0
DICTIONARY
  5
1F8
102
{ACAD_REACTORS
330
19
102
}
330
19
100
AcDbDictionary
281
     1
  0
DICTIONARY
  5
1BB
102
{ACAD_REACTORS
330
19
102
}
330
19
100
AcDbDictionary
281
     1
  3
Standard
350
1BC
  0
DICTIONARY
  5
19E
102
{ACAD_REACTORS
330
19
102
}
330
19
100
AcDbDictionary
281
     1
  3
2dWireframe
350
1A3
  3
Basic
350
1A6
  3
Brighten
350
1AA
  3
ColorChange
350
1AE
  3
Conceptual
350
1A8
  3
Dim
350
1A9
  3
EdgeColorOff
350
1B1
  3
Facepattern
350
1AD
  3
Flat
350
19F
  3
FlatWithEdges
350
1A0
  3
Gouraud
350
1A1
  3
GouraudWithEdges
350
1A2
  3
Hidden
350
1A5
  3
JitterOff
350
1AF
  3
Linepattern
350
1AC
  3
OverhangOff
350
1B0
  3
Realistic
350
1A7
  3
Shaded
350
1B6
  3
Shaded with edges
350
1B5
  3
Shades of Gray
350
1B2
  3
Sketchy
350
1B3
  3
Thicken
350
1AB
  3
Wireframe
350
1A4
  3
X-Ray
350
1B4
  0
WIPEOUTVARIABLES
  5
23
330
19
100
AcDbWipeoutVariables
 70
     1
  0
XRECORD
  5
1F3
102
{ACAD_REACTORS
330
19
102
}
330
19
100
AcDbXrecord
280
     1
 90
        1
330
1BC
  0
DICTIONARY
  5
1BF
102
{ACAD_REACTORS
330
19
102
}
330
19
100
AcDbDictionary
281
     1
  3
CANNOSCALE
350
1C0
  3
CMLEADERSTYLE
350
1F5
  3
CTABLESTYLE
350
1F4
  3
MSLTSCALE
350
1F6
  0
LAYOUT
  5
21
102
{ACAD_REACTORS
330
1E
102
}
330
1E
100
AcDbPlotSettings
  1

  2

  4

  6

 40
0.0
 41
0.0
 42
0.0
 43
0.0
 44
0.0
 45
0.0
 46
0.0
 47
0.0
 48
0.0
 49
0.0
140
0.0
141
0.0
142
1.0
143
1.0
 70
     0
 72
     0
 73
     0
 74
     0
  7

 75
     0
 76
     0
 77
     2
 78
   300
147
1.0
148
0.0
149
0.0
100
AcDbLayout
  1
Layout1
 70
     0
 71
     0
 10
0.0
 20
0.0
 11
0.0
 21
0.0
 12
0.0
 22
0.0
 32
0.0
 14
0.0
 24
0.0
 34
0.0
 15
0.0
 25
0.0
 35
0.0
146
0.0
 13
0.0
 23
0.0
 33
0.0
 16
0.0
 26
0.0
 36
0.0
 17
0.0
 27
0.0
 37
0.0
 76
     0
330
B
  0
LAYOUT
  5
20
102
{ACAD_REACTORS
330
1E
102
}
330
1E
100
AcDbPlotSettings
  1

  2

  4

  6

 40
0.0
 41
0.0
 42
0.0
 43
0.0
 44
0.0
 45
0.0
 46
0.0
 47
0.0
 48
0.0
 49
0.0
140
0.0
141
0.0
142
1.0
143
1.0
 70
  1024
 72
     0
 73
     0
 74
     0
  7

 75
     0
 76
     0
 77
     2
 78
   300
147
1.0
148
0.0
149
0.0
100
AcDbLayout
  1
Model
 70
     0
 71
     1
 10
0.0
 20
0.0
 11
0.0
 21
0.0
 12
0.0
 22
0.0
 32
0.0
 14
0.0
 24
0.0
 34
0.0
 15
0.0
 25
0.0
 35
0.0
146
0.0
 13
0.0
 23
0.0
 33
0.0
 16
0.0
 26
0.0
 36
0.0
 17
0.0
 27
0.0
 37
0.0
 76
     0
330
A
331
15
  0
MATERIAL
  5
1B9
102
{ACAD_REACTORS
330
1B7
102
}
330
1B7
100
AcDbMaterial
  1
ByBlock
 72
     1
 94
      127
  0
MATERIAL
  5
1B8
102
{ACAD_REACTORS
330
1B7
102
}
330
1B7
100
AcDbMaterial
  1
ByLayer
 72
     1
 94
      127
  0
MATERIAL
  5
1BA
102
{ACAD_REACTORS
330
1B7
102
}
330
1B7
100
AcDbMaterial
  1
Global
 72
     1
 94
      127
  0
MLEADERSTYLE
  5
1BE
102
{ACAD_REACTORS
330
1BD
102
}
330
1BD
100
AcDbMLeaderStyle
179
     2
170
     2
171
     1
172
     0
 90
        2
 40
0.0
 41
0.0
173
     1
 91
-1056964608
340
11
 92
       -2
290
     1
 42
0.09
291
     1
 43
0.36
  3
Standard
341
0
 44
0.18
300

342
17
174
     1
178
     6
175
     1
176
     0
 93
-1056964608
 45
0.18
292
     0
297
     0
 46
0.18
343
0
 94
-1056964608
 47
1.0
 49
1.0
140
1.0
293
     1
141
0.0
294
     1
177
     0
142
1.0
295
     0
296
     0
143
0.125
271
     0
272
     9
273
     9
  0
MLINESTYLE
  5
1C
102
{ACAD_REACTORS
330
1B
102
}
330
1B
100
AcDbMlineStyle
  2
Standard
 70
     0
  3

 62
     0
 51
90.0
 52
90.0
 71
     2
 49
0.5
 62
   256
  6
BYLAYER
 49
-0.5
 62
   256
  6
BYLAYER
  0
ACDBPLACEHOLDER
  5
1D
102
{ACAD_REACTORS
330
1F
102
}
330
1F
  0
SCALE
  5
17D
102
{ACAD_REACTORS
330
17C
102
}
330
17C
100
AcDbScale
 70
     0
300
1:1
140
1.0
141
1.0
290
     1
  0
SCALE
  5
17E
102
{ACAD_REACTORS
330
17C
102
}
330
17C
100
AcDbScale
 70
     0
300
1:2
140
1.0
141
2.0
290
     0
  0
SCALE
  5
17F
102
{ACAD_REACTORS
330
17C
102
}
330
17C
100
AcDbScale
 70
     0
300
1:4
140
1.0
141
4.0
290
     0
  0
SCALE
  5
180
102
{ACAD_REACTORS
330
17C
102
}
330
17C
100
AcDbScale
 70
     0
300
1:5
140
1.0
141
5.0
290
     0
  0
SCALE
  5
181
102
{ACAD_REACTORS
330
17C
102
}
330
17C
100
AcDbScale
 70
     0
300
1:8
140
1.0
141
8.0
290
     0
  0
SCALE
  5
182
102
{ACAD_REACTORS
330
17C
102
}
330
17C
100
AcDbScale
 70
     0
300
1:10
140
1.0
141
10.0
290
     0
  0
SCALE
  5
183
102
{ACAD_REACTORS
330
17C
102
}
330
17C
100
AcDbScale
 70
     0
300
1:16
140
1.0
141
16.0
290
     0
  0
SCALE
  5
184
102
{ACAD_REACTORS
330
17C
102
}
330
17C
100
AcDbScale
 70
     0
300
1:20
140
1.0
141
20.0
290
     0
  0
SCALE
  5
185
102
{ACAD_REACTORS
330
17C
102
}
330
17C
100
AcDbScale
 70
     0
300
1:30
140
1.0
141
30.0
290
     0
  0
SCALE
  5
186
102
{ACAD_REACTORS
330
17C
102
}
330
17C
100
AcDbScale
 70
     0
300
1:40
140
1.0
141
40.0
290
     0
  0
SCALE
  5
187
102
{ACAD_REACTORS
330
17C
102
}
330
17C
100
AcDbScale
 70
     0
300
1:50
140
1.0
141
50.0
290
     0
  0
SCALE
  5
188
102
{ACAD_REACTORS
330
17C
102
}
330
17C
100
AcDbScale
 70
     0
300
1:100
140
1.0
141
100.0
290
     0
  0
SCALE
  5
189
102
{ACAD_REACTORS
330
17C
102
}
330
17C
100
AcDbScale
 70
     0
300
2:1
140
2.0
141
1.0
290
     0
  0
SCALE
  5
18A
102
{ACAD_REACTORS
330
17C
102
}
330
17C
100
AcDbScale
 70
     0
300
4:1
140
4.0
141
1.0
290
     0
  0
SCALE
  5
18B
102
{ACAD_REACTORS
330
17C
102
}
330
17C
100
AcDbScale
 70
     0
300
8:1
140
8.0
141
1.0
290
     0
  0
SCALE
  5
18C
102
{ACAD_REACTORS
330
17C
102
}
330
17C
100
AcDbScale
 70
     0
300
10:1
140
10.0
141
1.0
290
     0
  0
SCALE
  5
18D
102
{ACAD_REACTORS
330
17C
102
}
330
17C
100
AcDbScale
 70
     0
300
100:1
140
100.0
141
1.0
290
     0
  0
SCALE
  5
18E
102
{ACAD_REACTORS
330
17C
102
}
330
17C
100
AcDbScale
 70
     0
300
1/128" = 1'-0"
140
0.0078125
141
12.0
290
     0
  0
SCALE
  5
18F
102
{ACAD_REACTORS
330
17C
102
}
330
17C
100
AcDbScale
 70
     0
300
1/64" = 1'-0"
140
0.015625
141
12.0
290
     0
  0
SCALE
  5
190
102
{ACAD_REACTORS
330
17C
102
}
330
17C
100
AcDbScale
 70
     0
300
1/32" = 1'-0"
140
0.03125
141
12.0
290
     0
  0
SCALE
  5
191
102
{ACAD_REACTORS
330
17C
102
}
330
17C
100
AcDbScale
 70
     0
300
1/16" = 1'-0"
140
0.0625
141
12.0
290
     0
  0
SCALE
  5
192
102
{ACAD_REACTORS
330
17C
102
}
330
17C
100
AcDbScale
 70
     0
300
3/32" = 1'-0"
140
0.09375
141
12.0
290
     0
  0
SCALE
  5
193
102
{ACAD_REACTORS
330
17C
102
}
330
17C
100
AcDbScale
 70
     0
300
1/8" = 1'-0"
140
0.125
141
12.0
290
     0
  0
SCALE
  5
194
102
{ACAD_REACTORS
330
17C
102
}
330
17C
100
AcDbScale
 70
     0
300
3/16" = 1'-0"
140
0.1875
141
12.0
290
     0
  0
SCALE
  5
195
102
{ACAD_REACTORS
330
17C
102
}
330
17C
100
AcDbScale
 70
     0
300
1/4" = 1'-0"
140
0.25
141
12.0
290
     0
  0
SCALE
  5
196
102
{ACAD_REACTORS
330
17C
102
}
330
17C
100
AcDbScale
 70
     0
300
3/8" = 1'-0"
140
0.375
141
12.0
290
     0
  0
SCALE
  5
197
102
{ACAD_REACTORS
330
17C
102
}
330
17C
100
AcDbScale
 70
     0
300
1/2" = 1'-0"
140
0.5
141
12.0
290
     0
  0
SCALE
  5
198
102
{ACAD_REACTORS
330
17C
102
}
330
17C
100
AcDbScale
 70
     0
300
3/4" = 1'-0"
140
0.75
141
12.0
290
     0
  0
SCALE
  5
199
102
{ACAD_REACTORS
330
17C
102
}
330
17C
100
AcDbScale
 70
     0
300
1" = 1'-0"
140
1.0
141
12.0
290
     0
  0
SCALE
  5
19A
102
{ACAD_REACTORS
330
17C
102
}
330
17C
100
AcDbScale
 70
     0
300
1-1/2" = 1'-0"
140
1.5
141
12.0
290
     0
  0
SCALE
  5
19B
102
{ACAD_REACTORS
330
17C
102
}
330
17C
100
AcDbScale
 70
     0
300
3" = 1'-0"
140
3.0
141
12.0
290
     0
  0
SCALE
  5
19C
102
{ACAD_REACTORS
330
17C
102
}
330
17C
100
AcDbScale
 70
     0
300
6" = 1'-0"
140
6.0
141
12.0
290
     0
  0
SCALE
  5
19D
102
{ACAD_REACTORS
330
17C
102
}
330
17C
100
AcDbScale
 70
     0
300
1'-0" = 1'-0"
140
12.0
141
12.0
290
     0
  0
TABLESTYLE
  5
1BC
102
{ACAD_REACTORS
330
1BB
102
}
102
{ACAD_XDICTIONARY
360
1F1
102
}
330
1BB
100
AcDbTableStyle
  3
Standard
 70
     0
 71
     0
 40
0.06
 41
0.06
280
     0
281
     0
  7
Standard
140
0.18
170
     2
 62
     0
 63
   257
283
     0
 90
        4
 91
        0
  1

274
    -2
284
     1
 64
     0
275
    -2
285
     1
 65
     0
276
    -2
286
     1
 66
     0
277
    -2
287
     1
 67
     0
278
    -2
288
     1
 68
     0
279
    -2
289
     1
 69
     0
  7
Standard
140
0.25
170
     5
 62
     0
 63
   257
283
     0
 90
        4
 91
        0
  1

274
    -2
284
     1
 64
     0
275
    -2
285
     1
 65
     0
276
    -2
286
     1
 66
     0
277
    -2
287
     1
 67
     0
278
    -2
288
     1
 68
     0
279
    -2
289
     1
 69
     0
  7
Standard
140
0.18
170
     5
 62
     0
 63
   257
283
     0
 90
        4
 91
        0
  1

274
    -2
284
     1
 64
     0
275
    -2
285
     1
 65
     0
276
    -2
286
     1
 66
     0
277
    -2
287
     1
 67
     0
278
    -2
288
     1
 68
     0
279
    -2
289
     1
 69
     0
  0
VISUALSTYLE
  5
1A3
102
{ACAD_REACTORS
330
19E
102
}
102
{ACAD_XDICTIONARY
360
1C9
102
}
330
19E
100
AcDbVisualStyle
  2
2dWireframe
 70
     4
177
     2
291
     0
 71
     0
176
     1
 72
     2
176
     1
 73
     0
176
     1
 90
        0
176
     1
 40
0.6
176
     1
 41
30.0
176
     1
 62
     5
 63
     7
421
 16777215
176
     1
 74
     1
176
     1
 91
        4
176
     1
 64
     7
176
     1
 65
   257
176
     1
 75
     1
176
     1
175
     1
176
     1
 42
1.0
176
     1
 92
        0
176
     1
 66
   257
176
     1
 43
1.0
176
     1
 76
     1
176
     1
 77
     6
176
     1
 78
     2
176
     1
 67
     7
176
     1
 79
     5
176
     1
170
     0
176
     1
171
     0
176
     1
290
     0
176
     1
 93
        1
176
     1
 44
0.0
176
     1
173
     0
176
     1
  0
VISUALSTYLE
  5
1A6
102
{ACAD_REACTORS
330
19E
102
}
102
{ACAD_XDICTIONARY
360
1CF
102
}
330
19E
100
AcDbVisualStyle
  2
Basic
 70
     7
177
     2
291
     1
 71
     1
176
     1
 72
     0
176
     1
 73
     1
176
     1
 90
        0
176
     1
 40
0.6
176
     1
 41
30.0
176
     1
 62
     5
 63
     7
421
 16777215
176
     1
 74
     0
176
     1
 91
        4
176
     1
 64
     7
176
     1
 65
   257
176
     1
 75
     1
176
     1
175
     1
176
     1
 42
1.0
176
     1
 92
        8
176
     1
 66
     7
176
     1
 43
1.0
176
     1
 76
     1
176
     1
 77
     6
176
     1
 78
     2
176
     1
 67
     7
176
     1
 79
     5
176
     1
170
     0
176
     1
171
     0
176
     1
290
     0
176
     1
 93
        1
176
     1
 44
0.0
176
     1
173
     0
176
     1
  0
VISUALSTYLE
  5
1AA
102
{ACAD_REACTORS
330
19E
102
}
102
{ACAD_XDICTIONARY
360
1D7
102
}
330
19E
100
AcDbVisualStyle
  2
Brighten
 70
    12
177
     2
291
     1
 71
     2
176
     1
 72
     2
176
     1
 73
     0
176
     1
 90
        0
176
     1
 40
0.6
176
     1
 41
30.0
176
     1
 62
     5
 63
     7
421
 16777215
176
     1
 74
     1
176
     1
 91
        4
176
     1
 64
     7
176
     1
 65
   257
176
     1
 75
     1
176
     1
175
     1
176
     1
 42
1.0
176
     1
 92
        8
176
     1
 66
     7
176
     1
 43
1.0
176
     1
 76
     1
176
     1
 77
     6
176
     1
 78
     2
176
     1
 67
     7
176
     1
 79
     5
176
     1
170
     0
176
     1
171
     0
176
     1
290
     0
176
     1
 93
        1
176
     1
 44
50.0
176
     1
173
     0
176
     1
  0
VISUALSTYLE
  5
1AE
102
{ACAD_REACTORS
330
19E
102
}
102
{ACAD_XDICTIONARY
360
1DF
102
}
330
19E
100
AcDbVisualStyle
  2
ColorChange
 70
    16
177
     2
291
     1
 71
     2
176
     1
 72
     2
176
     1
 73
     3
176
     1
 90
        0
176
     1
 40
0.6
176
     1
 41
30.0
176
     1
 62
     5
 63
     8
421
  8421504
176
     1
 74
     1
176
     1
 91
        4
176
     1
 64
     7
176
     1
 65
   257
176
     1
 75
     1
176
     1
175
     1
176
     1
 42
1.0
176
     1
 92
        8
176
     1
 66
     8
424
  8421504
176
     1
 43
1.0
176
     1
 76
     1
176
     1
 77
     6
176
     1
 78
     2
176
     1
 67
     7
176
     1
 79
     5
176
     1
170
     0
176
     1
171
     0
176
     1
290
     0
176
     1
 93
        1
176
     1
 44
0.0
176
     1
173
     0
176
     1
  0
VISUALSTYLE
  5
1A8
102
{ACAD_REACTORS
330
19E
102
}
102
{ACAD_XDICTIONARY
360
1D3
102
}
330
19E
100
AcDbVisualStyle
  2
Conceptual
 70
     9
177
     2
291
     0
 71
     3
176
     1
 72
     2
176
     1
 73
     0
176
     1
 90
        0
176
     1
 40
0.6
176
     1
 41
30.0
176
     1
 62
     5
 63
     7
421
 16777215
176
     1
 74
     2
176
     1
 91
        2
176
     1
 64
     7
176
     1
 65
   257
176
     1
 75
     1
176
     1
175
     1
176
     1
 42
179.0
176
     1
 92
        8
176
     1
 66
     7
176
     1
 43
1.0
176
     1
 76
     1
176
     1
 77
     6
176
     1
 78
     2
176
     1
 67
     7
176
     1
 79
     3
176
     1
170
     0
176
     1
171
     0
176
     1
290
     0
176
     1
 93
        1
176
     1
 44
0.0
176
     1
173
     0
176
     1
  0
VISUALSTYLE
  5
1A9
102
{ACAD_REACTORS
330
19E
102
}
102
{ACAD_XDICTIONARY
360
1D5
102
}
330
19E
100
AcDbVisualStyle
  2
Dim
 70
    11
177
     2
291
     1
 71
     2
176
     1
 72
     2
176
     1
 73
     0
176
     1
 90
        0
176
     1
 40
0.6
176
     1
 41
30.0
176
     1
 62
     5
 63
     7
421
 16777215
176
     1
 74
     1
176
     1
 91
        4
176
     1
 64
     7
176
     1
 65
   257
176
     1
 75
     1
176
     1
175
     1
176
     1
 42
1.0
176
     1
 92
        8
176
     1
 66
     7
176
     1
 43
1.0
176
     1
 76
     1
176
     1
 77
     6
176
     1
 78
     2
176
     1
 67
     7
176
     1
 79
     5
176
     1
170
     0
176
     1
171
     0
176
     1
290
     0
176
     1
 93
        1
176
     1
 44
-50.0
176
     1
173
     0
176
     1
  0
VISUALSTYLE
  5
1B1
102
{ACAD_REACTORS
330
19E
102
}
102
{ACAD_XDICTIONARY
360
1E5
102
}
330
19E
100
AcDbVisualStyle
  2
EdgeColorOff
 70
    22
177
     2
291
     1
 71
     2
176
     0
 72
     2
176
     0
 73
     0
176
     0
 90
        0
176
     0
 40
0.6
176
     0
 41
30.0
176
     0
 62
     5
 63
     7
421
 16777215
176
     0
 74
     1
176
     0
 91
        4
176
     0
 64
     7
176
     0
 65
   257
176
     0
 75
     1
176
     0
175
     1
176
     0
 42
1.0
176
     0
 92
        8
176
     2
 66
     7
176
     0
 43
1.0
176
     0
 76
     1
176
     0
 77
     6
176
     0
 78
     2
176
     0
 67
     7
176
     0
 79
     5
176
     0
170
     0
176
     0
171
     0
176
     0
290
     0
176
     0
 93
        1
176
     0
 44
0.0
176
     0
173
     0
176
     0
  0
VISUALSTYLE
  5
1AD
102
{ACAD_REACTORS
330
19E
102
}
102
{ACAD_XDICTIONARY
360
1DD
102
}
330
19E
100
AcDbVisualStyle
  2
Facepattern
 70
    15
177
     2
291
     1
 71
     2
176
     1
 72
     2
176
     1
 73
     0
176
     1
 90
        0
176
     1
 40
0.6
176
     1
 41
30.0
176
     1
 62
     5
 63
     7
421
 16777215
176
     1
 74
     1
176
     1
 91
        4
176
     1
 64
     7
176
     1
 65
   257
176
     1
 75
     1
176
     1
175
     1
176
     1
 42
1.0
176
     1
 92
        8
176
     1
 66
     7
176
     1
 43
1.0
176
     1
 76
     1
176
     1
 77
     6
176
     1
 78
     2
176
     1
 67
     7
176
     1
 79
     5
176
     1
170
     0
176
     1
171
     0
176
     1
290
     0
176
     1
 93
        1
176
     1
 44
0.0
176
     1
173
     0
176
     1
  0
VISUALSTYLE
  5
19F
102
{ACAD_REACTORS
330
19E
102
}
102
{ACAD_XDICTIONARY
360
1C1
102
}
330
19E
100
AcDbVisualStyle
  2
Flat
 70
     0
177
     2
291
     1
 71
     2
176
     1
 72
     1
176
     1
 73
     1
176
     1
 90
        2
176
     1
 40
0.6
176
     1
 41
30.0
176
     1
 62
     5
 63
     7
421
 16777215
176
     1
 74
     0
176
     1
 91
        0
176
     1
 64
     7
176
     1
 65
   257
176
     1
 75
     1
176
     1
175
     1
176
     1
 42
1.0
176
     1
 92
        8
176
     1
 66
     7
176
     1
 43
1.0
176
     1
 76
     1
176
     1
 77
     6
176
     1
 78
     2
176
     1
 67
     7
176
     1
 79
     5
176
     1
170
     0
176
     1
171
     0
176
     1
290
     0
176
     1
 93
       13
176
     1
 44
0.0
176
     1
173
     0
176
     1
  0
VISUALSTYLE
  5
1A0
102
{ACAD_REACTORS
330
19E
102
}
102
{ACAD_XDICTIONARY
360
1C3
102
}
330
19E
100
AcDbVisualStyle
  2
FlatWithEdges
 70
     1
177
     2
291
     1
 71
     2
176
     1
 72
     1
176
     1
 73
     1
176
     1
 90
        2
176
     1
 40
0.6
176
     1
 41
30.0
176
     1
 62
     5
 63
     7
421
 16777215
176
     1
 74
     1
176
     1
 91
        0
176
     1
 64
     7
176
     1
 65
   257
176
     1
 75
     1
176
     1
175
     1
176
     1
 42
1.0
176
     1
 92
        0
176
     1
 66
   257
176
     1
 43
1.0
176
     1
 76
     1
176
     1
 77
     6
176
     1
 78
     2
176
     1
 67
     7
176
     1
 79
     5
176
     1
170
     0
176
     1
171
     0
176
     1
290
     0
176
     1
 93
       13
176
     1
 44
0.0
176
     1
173
     0
176
     1
  0
VISUALSTYLE
  5
1A1
102
{ACAD_REACTORS
330
19E
102
}
102
{ACAD_XDICTIONARY
360
1C5
102
}
330
19E
100
AcDbVisualStyle
  2
Gouraud
 70
     2
177
     2
291
     1
 71
     2
176
     1
 72
     2
176
     1
 73
     1
176
     1
 90
        2
176
     1
 40
0.6
176
     1
 41
30.0
176
     1
 62
     5
 63
     7
421
 16777215
176
     1
 74
     0
176
     1
 91
        0
176
     1
 64
     7
176
     1
 65
   257
176
     1
 75
     1
176
     1
175
     1
176
     1
 42
1.0
176
     1
 92
        0
176
     1
 66
     7
176
     1
 43
1.0
176
     1
 76
     1
176
     1
 77
     6
176
     1
 78
     2
176
     1
 67
     7
176
     1
 79
     5
176
     1
170
     0
176
     1
171
     0
176
     1
290
     0
176
     1
 93
       13
176
     1
 44
0.0
176
     1
173
     0
176
     1
  0
VISUALSTYLE
  5
1A2
102
{ACAD_REACTORS
330
19E
102
}
102
{ACAD_XDICTIONARY
360
1C7
102
}
330
19E
100
AcDbVisualStyle
  2
GouraudWithEdges
 70
     3
177
     2
291
     1
 71
     2
176
     1
 72
     2
176
     1
 73
     1
176
     1
 90
        2
176
     1
 40
0.6
176
     1
 41
30.0
176
     1
 62
     5
 63
     7
421
 16777215
176
     1
 74
     1
176
     1
 91
        0
176
     1
 64
     7
176
     1
 65
   257
176
     1
 75
     1
176
     1
175
     1
176
     1
 42
1.0
176
     1
 92
        0
176
     1
 66
   257
176
     1
 43
1.0
176
     1
 76
     1
176
     1
 77
     6
176
     1
 78
     2
176
     1
 67
     7
176
     1
 79
     5
176
     1
170
     0
176
     1
171
     0
176
     1
290
     0
176
     1
 93
       13
176
     1
 44
0.0
176
     1
173
     0
176
     1
  0
VISUALSTYLE
  5
1A5
102
{ACAD_REACTORS
330
19E
102
}
102
{ACAD_XDICTIONARY
360
1CD
102
}
330
19E
100
AcDbVisualStyle
  2
Hidden
 70
     6
177
     2
291
     0
 71
     1
176
     1
 72
     2
176
     1
 73
     2
176
     1
 90
        0
176
     1
 40
0.6
176
     1
 41
30.0
176
     1
 62
     5
 63
     7
421
 16777215
176
     1
 74
     2
176
     1
 91
        2
176
     1
 64
     7
176
     1
 65
   257
176
     1
 75
     2
176
     1
175
     1
176
     1
 42
40.0
176
     1
 92
        0
176
     1
 66
   257
176
     1
 43
1.0
176
     1
 76
     1
176
     1
 77
     6
176
     1
 78
     2
176
     1
 67
     7
176
     1
 79
     3
176
     1
170
     0
176
     1
171
     0
176
     1
290
     0
176
     1
 93
        1
176
     1
 44
0.0
176
     1
173
     0
176
     1
  0
VISUALSTYLE
  5
1AF
102
{ACAD_REACTORS
330
19E
102
}
102
{ACAD_XDICTIONARY
360
1E1
102
}
330
19E
100
AcDbVisualStyle
  2
JitterOff
 70
    20
177
     2
291
     1
 71
     2
176
     0
 72
     2
176
     0
 73
     0
176
     0
 90
        0
176
     0
 40
0.6
176
     0
 41
30.0
176
     0
 62
     5
 63
     7
421
 16777215
176
     0
 74
     1
176
     0
 91
        4
176
     0
 64
     7
176
     0
 65
   257
176
     0
 75
     1
176
     0
175
     1
176
     0
 42
1.0
176
     0
 92
       10
176
     2
 66
     7
176
     0
 43
1.0
176
     0
 76
     1
176
     0
 77
     6
176
     0
 78
     2
176
     0
 67
     7
176
     0
 79
     5
176
     0
170
     0
176
     0
171
     0
176
     0
290
     0
176
     0
 93
        1
176
     0
 44
0.0
176
     0
173
     0
176
     0
  0
VISUALSTYLE
  5
1AC
102
{ACAD_REACTORS
330
19E
102
}
102
{ACAD_XDICTIONARY
360
1DB
102
}
330
19E
100
AcDbVisualStyle
  2
Linepattern
 70
    14
177
     2
291
     1
 71
     2
176
     1
 72
     2
176
     1
 73
     0
176
     1
 90
        0
176
     1
 40
0.6
176
     1
 41
30.0
176
     1
 62
     5
 63
     7
421
 16777215
176
     1
 74
     1
176
     1
 91
        4
176
     1
 64
     7
176
     1
 65
   257
176
     1
 75
     7
176
     1
175
     7
176
     1
 42
1.0
176
     1
 92
        8
176
     1
 66
     7
176
     1
 43
1.0
176
     1
 76
     1
176
     1
 77
     6
176
     1
 78
     2
176
     1
 67
     7
176
     1
 79
     5
176
     1
170
     0
176
     1
171
     0
176
     1
290
     0
176
     1
 93
        1
176
     1
 44
0.0
176
     1
173
     0
176
     1
  0
VISUALSTYLE
  5
1B0
102
{ACAD_REACTORS
330
19E
102
}
102
{ACAD_XDICTIONARY
360
1E3
102
}
330
19E
100
AcDbVisualStyle
  2
OverhangOff
 70
    21
177
     2
291
     1
 71
     2
176
     0
 72
     2
176
     0
 73
     0
176
     0
 90
        0
176
     0
 40
0.6
176
     0
 41
30.0
176
     0
 62
     5
 63
     7
421
 16777215
176
     0
 74
     1
176
     0
 91
        4
176
     0
 64
     7
176
     0
 65
   257
176
     0
 75
     1
176
     0
175
     1
176
     0
 42
1.0
176
     0
 92
        9
176
     2
 66
     7
176
     0
 43
1.0
176
     0
 76
     1
176
     0
 77
     6
176
     0
 78
     2
176
     0
 67
     7
176
     0
 79
     5
176
     0
170
     0
176
     0
171
     0
176
     0
290
     0
176
     0
 93
        1
176
     0
 44
0.0
176
     0
173
     0
176
     0
  0
VISUALSTYLE
  5
1A7
102
{ACAD_REACTORS
330
19E
102
}
102
{ACAD_XDICTIONARY
360
1D1
102
}
330
19E
100
AcDbVisualStyle
  2
Realistic
 70
     8
177
     2
291
     0
 71
     2
176
     1
 72
     3
176
     1
 73
     0
176
     1
 90
        2
176
     1
 40
0.6
176
     1
 41
30.0
176
     1
 62
     5
 63
     7
421
 16777215
176
     1
 74
     0
176
     1
 91
        0
176
     1
 64
     7
176
     1
 65
   257
176
     1
 75
     1
176
     1
175
     1
176
     1
 42
1.0
176
     1
 92
        8
176
     1
 66
   257
176
     1
 43
1.0
176
     1
 76
     1
176
     1
 77
     6
176
     1
 78
     2
176
     1
 67
     7
176
     1
 79
     3
176
     1
170
     0
176
     1
171
     0
176
     1
290
     0
176
     1
 93
       13
176
     1
 44
0.0
176
     1
173
     0
176
     1
  0
VISUALSTYLE
  5
1B6
102
{ACAD_REACTORS
330
19E
102
}
102
{ACAD_XDICTIONARY
360
1EF
102
}
330
19E
100
AcDbVisualStyle
  2
Shaded
 70
    27
177
     2
291
     0
 71
     2
176
     1
 72
     2
176
     1
 73
     1
176
     1
 90
        2
176
     1
 40
0.6
176
     1
 41
30.0
176
     1
 62
     5
 63
     7
421
 16777215
176
     1
 74
     0
176
     1
 91
        4
176
     1
 64
     7
176
     1
 65
   257
176
     1
 75
     1
176
     1
175
     1
176
     1
 42
1.0
176
     1
 92
        8
176
     1
 66
   257
176
     1
 43
1.0
176
     1
 76
     1
176
     1
 77
     6
176
     1
 78
     2
176
     1
 67
     8
425
  7895160
176
     1
 79
     3
176
     1
170
     0
176
     1
171
     0
176
     1
290
     0
176
     1
 93
        5
176
     1
 44
0.0
176
     1
173
     0
176
     1
  0
VISUALSTYLE
  5
1B5
102
{ACAD_REACTORS
330
19E
102
}
102
{ACAD_XDICTIONARY
360
1ED
102
}
330
19E
100
AcDbVisualStyle
  2
Shaded with edges
 70
    26
177
     2
291
     0
 71
     2
176
     1
 72
     2
176
     1
 73
     1
176
     1
 90
        2
176
     1
 40
0.6
176
     1
 41
30.0
176
     1
 62
     5
 63
     7
421
 16777215
176
     1
 74
     1
176
     1
 91
       10
176
     1
 64
     7
176
     1
 65
   257
176
     1
 75
     2
176
     1
175
     1
176
     1
 42
1.0
176
     1
 92
        8
176
     1
 66
   257
176
     1
 43
1.0
176
     1
 76
     1
176
     1
 77
     6
176
     1
 78
     2
176
     1
 67
     7
176
     1
 79
     3
176
     1
170
     0
176
     1
171
     0
176
     1
290
     0
176
     1
 93
        5
176
     1
 44
0.0
176
     1
173
     0
176
     1
  0
VISUALSTYLE
  5
1B2
102
{ACAD_REACTORS
330
19E
102
}
102
{ACAD_XDICTIONARY
360
1E7
102
}
330
19E
100
AcDbVisualStyle
  2
Shades of Gray
 70
    23
177
     2
291
     0
 71
     2
176
     1
 72
     2
176
     1
 73
     3
176
     1
 90
        0
176
     1
 40
0.6
176
     1
 41
30.0
176
     1
 62
     5
 63
     7
421
 16777215
176
     1
 74
     2
176
     1
 91
        2
176
     1
 64
     7
176
     1
 65
     7
176
     1
 75
     1
176
     1
175
     1
176
     1
 42
40.0
176
     1
 92
        8
176
     1
 66
     7
176
     1
 43
1.0
176
     1
 76
     1
176
     1
 77
     6
176
     1
 78
     2
176
     1
 67
     7
176
     1
 79
     3
176
     1
170
     0
176
     1
171
     0
176
     1
290
     0
176
     1
 93
        1
176
     1
 44
0.0
176
     1
173
     0
176
     1
  0
VISUALSTYLE
  5
1B3
102
{ACAD_REACTORS
330
19E
102
}
102
{ACAD_XDICTIONARY
360
1E9
102
}
330
19E
100
AcDbVisualStyle
  2
Sketchy
 70
    24
177
     2
291
     0
 71
     1
176
     1
 72
     2
176
     1
 73
     2
176
     1
 90
        0
176
     1
 40
0.6
176
     1
 41
30.0
176
     1
 62
     5
 63
     7
421
 16777215
176
     1
 74
     2
176
     1
 91
        2
176
     1
 64
     7
176
     1
 65
     7
176
     1
 75
     1
176
     1
175
     1
176
     1
 42
40.0
176
     1
 92
       11
176
     1
 66
     7
176
     1
 43
1.0
176
     1
 76
     1
176
     1
 77
     6
176
     1
 78
     2
176
     1
 67
     7
176
     1
 79
     6
176
     1
170
     0
176
     1
171
     0
176
     1
290
     0
176
     1
 93
        1
176
     1
 44
0.0
176
     1
173
     0
176
     1
  0
VISUALSTYLE
  5
1AB
102
{ACAD_REACTORS
330
19E
102
}
102
{ACAD_XDICTIONARY
360
1D9
102
}
330
19E
100
AcDbVisualStyle
  2
Thicken
 70
    13
177
     2
291
     1
 71
     2
176
     1
 72
     2
176
     1
 73
     0
176
     1
 90
        0
176
     1
 40
0.6
176
     1
 41
30.0
176
     1
 62
     5
 63
     7
421
 16777215
176
     1
 74
     1
176
     1
 91
        4
176
     1
 64
     7
176
     1
 65
   257
176
     1
 75
     1
176
     1
175
     1
176
     1
 42
1.0
176
     1
 92
       12
176
     1
 66
     7
176
     1
 43
1.0
176
     1
 76
     1
176
     1
 77
     6
176
     1
 78
     2
176
     1
 67
     7
176
     1
 79
     5
176
     1
170
     0
176
     1
171
     0
176
     1
290
     0
176
     1
 93
        1
176
     1
 44
0.0
176
     1
173
     0
176
     1
  0
VISUALSTYLE
  5
1A4
102
{ACAD_REACTORS
330
19E
102
}
102
{ACAD_XDICTIONARY
360
1CB
102
}
330
19E
100
AcDbVisualStyle
  2
Wireframe
 70
     5
177
     2
291
     0
 71
     0
176
     1
 72
     2
176
     1
 73
     0
176
     1
 90
        0
176
     1
 40
0.6
176
     1
 41
30.0
176
     1
 62
     5
 63
     7
421
 16777215
176
     1
 74
     1
176
     1
 91
        4
176
     1
 64
     7
176
     1
 65
   257
176
     1
 75
     1
176
     1
175
     1
176
     1
 42
1.0
176
     1
 92
        0
176
     1
 66
   257
176
     1
 43
1.0
176
     1
 76
     1
176
     1
 77
     6
176
     1
 78
     2
176
     1
 67
     7
176
     1
 79
     3
176
     1
170
     0
176
     1
171
     0
176
     1
290
     0
176
     1
 93
        1
176
     1
 44
0.0
176
     1
173
     0
176
     1
  0
VISUALSTYLE
  5
1B4
102
{ACAD_REACTORS
330
19E
102
}
102
{ACAD_XDICTIONARY
360
1EB
102
}
330
19E
100
AcDbVisualStyle
  2
X-Ray
 70
    25
177
     2
291
     0
 71
     2
176
     1
 72
     2
176
     1
 73
     1
176
     1
 90
        1
176
     1
 40
0.5
176
     1
 41
30.0
176
     1
 62
     5
 63
     7
421
 16777215
176
     1
 74
     1
176
     1
 91
        0
176
     1
 64
     7
176
     1
 65
   257
176
     1
 75
     1
176
     1
175
     1
176
     1
 42
1.0
176
     1
 92
        8
176
     1
 66
     7
176
     1
 43
1.0
176
     1
 76
     1
176
     1
 77
     6
176
     1
 78
     2
176
     1
 67
     7
176
     1
 79
     3
176
     1
170
     0
176
     1
171
     0
176
     1
290
     0
176
     1
 93
       13
176
     1
 44
0.0
176
     1
173
     0
176
     1
  0
DICTIONARYVAR
  5
1C0
102
{ACAD_REACTORS
330
1BF
102
}
330
1BF
100
DictionaryVariables
280
     0
  1
1:1
  0
DICTIONARYVAR
  5
1F5
102
{ACAD_REACTORS
330
1BF
102
}
330
1BF
100
DictionaryVariables
280
     0
  1
Standard
  0
DICTIONARYVAR
  5
1F4
102
{ACAD_REACTORS
330
1BF
102
}
330
1BF
100
DictionaryVariables
280
     0
  1
Standard
  0
DICTIONARYVAR
  5
1F6
102
{ACAD_REACTORS
330
1BF
102
}
330
1BF
100
DictionaryVariables
280
     0
  1
0
  0
DICTIONARY
  5
1F1
330
1BC
100
AcDbDictionary
280
     1
281
     1
  3
ACAD_ROUNDTRIP_2008_TABLESTYLE_CELLSTYLEMAP
360
1F2
  0
DICTIONARY
  5
1C9
330
1A3
100
AcDbDictionary
280
     1
281
     1
  3
ACAD_XREC_ROUNDTRIP
360
1CA
  0
DICTIONARY
  5
1CF
330
1A6
100
AcDbDictionary
280
     1
281
     1
  3
ACAD_XREC_ROUNDTRIP
360
1D0
  0
DICTIONARY
  5
1D7
330
1AA
100
AcDbDictionary
280
     1
281
     1
  3
ACAD_XREC_ROUNDTRIP
360
1D8
  0
DICTIONARY
  5
1DF
330
1AE
100
AcDbDictionary
280
     1
281
     1
  3
ACAD_XREC_ROUNDTRIP
360
1E0
  0
DICTIONARY
  5
1D3
330
1A8
100
AcDbDictionary
280
     1
281
     1
  3
ACAD_XREC_ROUNDTRIP
360
1D4
  0
DICTIONARY
  5
1D5
330
1A9
100
AcDbDictionary
280
     1
281
     1
  3
ACAD_XREC_ROUNDTRIP
360
1D6
  0
DICTIONARY
  5
1E5
330
1B1
100
AcDbDictionary
280
     1
281
     1
  3
ACAD_XREC_ROUNDTRIP
360
1E6
  0
DICTIONARY
  5
1DD
330
1AD
100
AcDbDictionary
280
     1
281
     1
  3
ACAD_XREC_ROUNDTRIP
360
1DE
  0
DICTIONARY
  5
1C1
330
19F
100
AcDbDictionary
280
     1
281
     1
  3
ACAD_XREC_ROUNDTRIP
360
1C2
  0
DICTIONARY
  5
1C3
330
1A0
100
AcDbDictionary
280
     1
281
     1
  3
ACAD_XREC_ROUNDTRIP
360
1C4
  0
DICTIONARY
  5
1C5
330
1A1
100
AcDbDictionary
280
     1
281
     1
  3
ACAD_XREC_ROUNDTRIP
360
1C6
  0
DICTIONARY
  5
1C7
330
1A2
100
AcDbDictionary
280
     1
281
     1
  3
ACAD_XREC_ROUNDTRIP
360
1C8
  0
DICTIONARY
  5
1CD
330
1A5
100
AcDbDictionary
280
     1
281
     1
  3
ACAD_XREC_ROUNDTRIP
360
1CE
  0
DICTIONARY
  5
1E1
330
1AF
100
AcDbDictionary
280
     1
281
     1
  3
ACAD_XREC_ROUNDTRIP
360
1E2
  0
DICTIONARY
  5
1DB
330
1AC
100
AcDbDictionary
280
     1
281
     1
  3
ACAD_XREC_ROUNDTRIP
360
1DC
  0
DICTIONARY
  5
1E3
330
1B0
100
AcDbDictionary
280
     1
281
     1
  3
ACAD_XREC_ROUNDTRIP
360
1E4
  0
DICTIONARY
  5
1D1
330
1A7
100
AcDbDictionary
280
     1
281
     1
  3
ACAD_XREC_ROUNDTRIP
360
1D2
  0
DICTIONARY
  5
1EF
330
1B6
100
AcDbDictionary
280
     1
281
     1
  3
ACAD_XREC_ROUNDTRIP
360
1F0
  0
DICTIONARY
  5
1ED
330
1B5
100
AcDbDictionary
280
     1
281
     1
  3
ACAD_XREC_ROUNDTRIP
360
1EE
  0
DICTIONARY
  5
1E7
330
1B2
100
AcDbDictionary
280
     1
281
     1
  3
ACAD_XREC_ROUNDTRIP
360
1E8
  0
DICTIONARY
  5
1E9
330
1B3
100
AcDbDictionary
280
     1
281
     1
  3
ACAD_XREC_ROUNDTRIP
360
1EA
  0
DICTIONARY
  5
1D9
330
1AB
100
AcDbDictionary
280
     1
281
     1
  3
ACAD_XREC_ROUNDTRIP
360
1DA
  0
DICTIONARY
  5
1CB
330
1A4
100
AcDbDictionary
280
     1
281
     1
  3
ACAD_XREC_ROUNDTRIP
360
1CC
  0
DICTIONARY
  5
1EB
330
1B4
100
AcDbDictionary
280
     1
281
     1
  3
ACAD_XREC_ROUNDTRIP
360
1EC
  0
CELLSTYLEMAP
  5
1F2
102
{ACAD_REACTORS
330
1F1
102
}
330
1F1
100
AcDbCellStyleMap
 90
        3
300
CELLSTYLE
  1
TABLEFORMAT_BEGIN
 90
        5
170
     1
 91
        0
 92
    32768
 62
   257
 93
        1
300
CONTENTFORMAT
  1
CONTENTFORMAT_BEGIN
 90
        0
 91
        0
 92
        4
 93
        0
300

 40
0.0
140
1.0
 94
        5
 62
     0
340
17
144
0.25
309
CONTENTFORMAT_END
171
     1
301
MARGIN
  1
CELLMARGIN_BEGIN
 40
0.06
 40
0.06
 40
0.06
 40
0.06
 40
0.06
 40
0.06
309
CELLMARGIN_END
 94
        6
 95
        1
302
GRIDFORMAT
  1
GRIDFORMAT_BEGIN
 90
        0
 91
        1
 62
     0
 92
       -2
340
11
 93
        0
 40
0.045
309
GRIDFORMAT_END
 95
        2
302
GRIDFORMAT
  1
GRIDFORMAT_BEGIN
 90
        0
 91
        1
 62
     0
 92
       -2
340
11
 93
        0
 40
0.045
309
GRIDFORMAT_END
 95
        4
302
GRIDFORMAT
  1
GRIDFORMAT_BEGIN
 90
        0
 91
        1
 62
     0
 92
       -2
340
11
 93
        0
 40
0.045
309
GRIDFORMAT_END
 95
        8
302
GRIDFORMAT
  1
GRIDFORMAT_BEGIN
 90
        0
 91
        1
 62
     0
 92
       -2
340
11
 93
        0
 40
0.045
309
GRIDFORMAT_END
 95
       16
302
GRIDFORMAT
  1
GRIDFORMAT_BEGIN
 90
        0
 91
        1
 62
     0
 92
       -2
340
11
 93
        0
 40
0.045
309
GRIDFORMAT_END
 95
       32
302
GRIDFORMAT
  1
GRIDFORMAT_BEGIN
 90
        0
 91
        1
 62
     0
 92
       -2
340
11
 93
        0
 40
0.045
309
GRIDFORMAT_END
309
TABLEFORMAT_END
  1
CELLSTYLE_BEGIN
 90
        1
 91
        1
300
_TITLE
309
CELLSTYLE_END
300
CELLSTYLE
  1
TABLEFORMAT_BEGIN
 90
        5
170
     1
 91
        0
 92
        0
 62
   257
 93
        1
300
CONTENTFORMAT
  1
CONTENTFORMAT_BEGIN
 90
        0
 91
        0
 92
        4
 93
        0
300

 40
0.0
140
1.0
 94
        5
 62
     0
340
17
144
0.18
309
CONTENTFORMAT_END
171
     1
301
MARGIN
  1
CELLMARGIN_BEGIN
 40
0.06
 40
0.06
 40
0.06
 40
0.06
 40
0.06
 40
0.06
309
CELLMARGIN_END
 94
        6
 95
        1
302
GRIDFORMAT
  1
GRIDFORMAT_BEGIN
 90
        0
 91
        1
 62
     0
 92
       -2
340
11
 93
        0
 40
0.045
309
GRIDFORMAT_END
 95
        2
302
GRIDFORMAT
  1
GRIDFORMAT_BEGIN
 90
        0
 91
        1
 62
     0
 92
       -2
340
11
 93
        0
 40
0.045
309
GRIDFORMAT_END
 95
        4
302
GRIDFORMAT
  1
GRIDFORMAT_BEGIN
 90
        0
 91
        1
 62
     0
 92
       -2
340
11
 93
        0
 40
0.045
309
GRIDFORMAT_END
 95
        8
302
GRIDFORMAT
  1
GRIDFORMAT_BEGIN
 90
        0
 91
        1
 62
     0
 92
       -2
340
11
 93
        0
 40
0.045
309
GRIDFORMAT_END
 95
       16
302
GRIDFORMAT
  1
GRIDFORMAT_BEGIN
 90
        0
 91
        1
 62
     0
 92
       -2
340
11
 93
        0
 40
0.045
309
GRIDFORMAT_END
 95
       32
302
GRIDFORMAT
  1
GRIDFORMAT_BEGIN
 90
        0
 91
        1
 62
     0
 92
       -2
340
11
 93
        0
 40
0.045
309
GRIDFORMAT_END
309
TABLEFORMAT_END
  1
CELLSTYLE_BEGIN
 90
        2
 91
        1
300
_HEADER
309
CELLSTYLE_END
300
CELLSTYLE
  1
TABLEFORMAT_BEGIN
 90
        5
170
     1
 91
        0
 92
        0
 62
   257
 93
        1
300
CONTENTFORMAT
  1
CONTENTFORMAT_BEGIN
 90
        0
 91
        0
 92
        4
 93
        0
300

 40
0.0
140
1.0
 94
        2
 62
     0
340
17
144
0.18
309
CONTENTFORMAT_END
171
     1
301
MARGIN
  1
CELLMARGIN_BEGIN
 40
0.06
 40
0.06
 40
0.06
 40
0.06
 40
0.06
 40
0.06
309
CELLMARGIN_END
 94
        6
 95
        1
302
GRIDFORMAT
  1
GRIDFORMAT_BEGIN
 90
        0
 91
        1
 62
     0
 92
       -2
340
11
 93
        0
 40
0.045
309
GRIDFORMAT_END
 95
        2
302
GRIDFORMAT
  1
GRIDFORMAT_BEGIN
 90
        0
 91
        1
 62
     0
 92
       -2
340
11
 93
        0
 40
0.045
309
GRIDFORMAT_END
 95
        4
302
GRIDFORMAT
  1
GRIDFORMAT_BEGIN
 90
        0
 91
        1
 62
     0
 92
       -2
340
11
 93
        0
 40
0.045
309
GRIDFORMAT_END
 95
        8
302
GRIDFORMAT
  1
GRIDFORMAT_BEGIN
 90
        0
 91
        1
 62
     0
 92
       -2
340
11
 93
        0
 40
0.045
309
GRIDFORMAT_END
 95
       16
302
GRIDFORMAT
  1
GRIDFORMAT_BEGIN
 90
        0
 91
        1
 62
     0
 92
       -2
340
11
 93
        0
 40
0.045
309
GRIDFORMAT_END
 95
       32
302
GRIDFORMAT
  1
GRIDFORMAT_BEGIN
 90
        0
 91
        1
 62
     0
 92
       -2
340
11
 93
        0
 40
0.045
309
GRIDFORMAT_END
309
TABLEFORMAT_END
  1
CELLSTYLE_BEGIN
 90
        3
 91
        2
300
_DATA
309
CELLSTYLE_END
  0
XRECORD
  5
1CA
102
{ACAD_REACTORS
330
1C9
102
}
330
1C9
100
AcDbXrecord
280
     1
102
RTVSPost2010Prop28
280
     1
102
RTVSPost2010PropOp28
 70
     1
102
RTVSPost2010Prop29
280
     1
102
RTVSPost2010PropOp29
 70
     1
102
RTVSPost2010Prop30
280
     0
102
RTVSPost2010PropOp30
 70
     1
102
RTVSPost2010Prop31
280
     0
102
RTVSPost2010PropOp31
 70
     1
102
RTVSPost2010Prop32
280
     0
102
RTVSPost2010PropOp32
 70
     1
102
RTVSPost2010Prop33
280
     0
102
RTVSPost2010PropOp33
 70
     1
102
RTVSPost2010Prop34
280
     0
102
RTVSPost2010PropOp34
 70
     1
102
RTVSPost2010Prop35
280
     0
102
RTVSPost2010PropOp35
 70
     1
102
RTVSPost2010Prop36
280
     0
102
RTVSPost2010PropOp36
 70
     1
102
RTVSPost2010Prop37
 90
       50
102
RTVSPost2010PropOp37
 70
     1
102
RTVSPost2010Prop38
140
0.0
102
RTVSPost2010PropOp38
 70
     1
102
RTVSPost2010Prop39
140
1.0
102
RTVSPost2010PropOp39
 70
     1
102
RTVSPost2010Prop40
 90
        0
102
RTVSPost2010PropOp40
 70
     1
102
RTVSPost2010Prop41ColorIndex
 90
       18
102
RTVSPost2010Prop41ColorRGB
 90
        0
102
RTVSPost2010PropOp41
 70
     1
102
RTVSPost2010Prop42
 90
       50
102
RTVSPost2010PropOp42
 70
     1
102
RTVSPost2010Prop43
 90
        3
102
RTVSPost2010PropOp43
 70
     1
102
RTVSPost2010Prop44ColorIndex
 90
        5
102
RTVSPost2010Prop44ColorRGB
 90
      255
102
RTVSPost2010PropOp44
 70
     1
102
RTVSPost2010Prop45
280
     0
102
RTVSPost2010PropOp45
 70
     1
102
RTVSPost2010Prop46
 90
       50
102
RTVSPost2010PropOp46
 70
     1
102
RTVSPost2010Prop47
 90
       50
102
RTVSPost2010PropOp47
 70
     1
102
RTVSPost2010Prop48
 90
       50
102
RTVSPost2010PropOp48
 70
     1
102
RTVSPost2010Prop49
280
     0
102
RTVSPost2010PropOp49
 70
     1
102
RTVSPost2010Prop50
 90
       50
102
RTVSPost2010PropOp50
 70
     1
102
RTVSPost2010Prop51ColorIndex
 90
      256
102
RTVSPost2010Prop51ColorRGB
 90
-16777216
102
RTVSPost2010PropOp51
 70
     0
102
RTVSPost2010Prop52
140
1.0
102
RTVSPost2010PropOp52
 70
     0
102
RTVSPost2010Prop53
 90
        2
102
RTVSPost2010PropOp53
 70
     1
102
RTVSPost2010Prop54
  1
strokes_ogs.tif
102
RTVSPost2010PropOp54
 70
     1
102
RTVSPost2010Prop55
280
     0
102
RTVSPost2010PropOp55
 70
     1
102
RTVSPost2010Prop56
140
1.0
102
RTVSPost2010PropOp56
 70
     1
102
RTVSPost2010Prop57
140
1.0
102
RTVSPost2010PropOp57
 70
     1
  0
XRECORD
  5
1D0
102
{ACAD_REACTORS
330
1CF
102
}
330
1CF
100
AcDbXrecord
280
     1
102
RTVSPost2010Prop28
280
     0
102
RTVSPost2010PropOp28
 70
     1
102
RTVSPost2010Prop29
280
     1
102
RTVSPost2010PropOp29
 70
     1
102
RTVSPost2010Prop30
280
     1
102
RTVSPost2010PropOp30
 70
     1
102
RTVSPost2010Prop31
280
     0
102
RTVSPost2010PropOp31
 70
     1
102
RTVSPost2010Prop32
280
     0
102
RTVSPost2010PropOp32
 70
     1
102
RTVSPost2010Prop33
280
     0
102
RTVSPost2010PropOp33
 70
     1
102
RTVSPost2010Prop34
280
     0
102
RTVSPost2010PropOp34
 70
     1
102
RTVSPost2010Prop35
280
     0
102
RTVSPost2010PropOp35
 70
     1
102
RTVSPost2010Prop36
280
     0
102
RTVSPost2010PropOp36
 70
     1
102
RTVSPost2010Prop37
 90
       50
102
RTVSPost2010PropOp37
 70
     1
102
RTVSPost2010Prop38
140
0.0
102
RTVSPost2010PropOp38
 70
     1
102
RTVSPost2010Prop39
140
1.0
102
RTVSPost2010PropOp39
 70
     1
102
RTVSPost2010Prop40
 90
        0
102
RTVSPost2010PropOp40
 70
     1
102
RTVSPost2010Prop41ColorIndex
 90
       18
102
RTVSPost2010Prop41ColorRGB
 90
        0
102
RTVSPost2010PropOp41
 70
     1
102
RTVSPost2010Prop42
 90
       50
102
RTVSPost2010PropOp42
 70
     1
102
RTVSPost2010Prop43
 90
        3
102
RTVSPost2010PropOp43
 70
     1
102
RTVSPost2010Prop44ColorIndex
 90
        5
102
RTVSPost2010Prop44ColorRGB
 90
      255
102
RTVSPost2010PropOp44
 70
     1
102
RTVSPost2010Prop45
280
     0
102
RTVSPost2010PropOp45
 70
     1
102
RTVSPost2010Prop46
 90
       50
102
RTVSPost2010PropOp46
 70
     1
102
RTVSPost2010Prop47
 90
       50
102
RTVSPost2010PropOp47
 70
     1
102
RTVSPost2010Prop48
 90
       50
102
RTVSPost2010PropOp48
 70
     1
102
RTVSPost2010Prop49
280
     0
102
RTVSPost2010PropOp49
 70
     1
102
RTVSPost2010Prop50
 90
       50
102
RTVSPost2010PropOp50
 70
     1
102
RTVSPost2010Prop51ColorIndex
 90
      256
102
RTVSPost2010Prop51ColorRGB
 90
-16777216
102
RTVSPost2010PropOp51
 70
     0
102
RTVSPost2010Prop52
140
1.0
102
RTVSPost2010PropOp52
 70
     0
102
RTVSPost2010Prop53
 90
        2
102
RTVSPost2010PropOp53
 70
     1
102
RTVSPost2010Prop54
  1
strokes_ogs.tif
102
RTVSPost2010PropOp54
 70
     1
102
RTVSPost2010Prop55
280
     0
102
RTVSPost2010PropOp55
 70
     1
102
RTVSPost2010Prop56
140
1.0
102
RTVSPost2010PropOp56
 70
     1
102
RTVSPost2010Prop57
140
1.0
102
RTVSPost2010PropOp57
 70
     1
  0
XRECORD
  5
1D8
102
{ACAD_REACTORS
330
1D7
102
}
330
1D7
100
AcDbXrecord
280
     1
102
RTVSPost2010Prop28
280
     0
102
RTVSPost2010PropOp28
 70
     1
102
RTVSPost2010Prop29
280
     1
102
RTVSPost2010PropOp29
 70
     1
102
RTVSPost2010Prop30
280
     1
102
RTVSPost2010PropOp30
 70
     1
102
RTVSPost2010Prop31
280
     0
102
RTVSPost2010PropOp31
 70
     1
102
RTVSPost2010Prop32
280
     0
102
RTVSPost2010PropOp32
 70
     1
102
RTVSPost2010Prop33
280
     0
102
RTVSPost2010PropOp33
 70
     1
102
RTVSPost2010Prop34
280
     0
102
RTVSPost2010PropOp34
 70
     1
102
RTVSPost2010Prop35
280
     0
102
RTVSPost2010PropOp35
 70
     1
102
RTVSPost2010Prop36
280
     0
102
RTVSPost2010PropOp36
 70
     1
102
RTVSPost2010Prop37
 90
       50
102
RTVSPost2010PropOp37
 70
     1
102
RTVSPost2010Prop38
140
0.0
102
RTVSPost2010PropOp38
 70
     1
102
RTVSPost2010Prop39
140
1.0
102
RTVSPost2010PropOp39
 70
     1
102
RTVSPost2010Prop40
 90
        0
102
RTVSPost2010PropOp40
 70
     1
102
RTVSPost2010Prop41ColorIndex
 90
       18
102
RTVSPost2010Prop41ColorRGB
 90
        0
102
RTVSPost2010PropOp41
 70
     1
102
RTVSPost2010Prop42
 90
       50
102
RTVSPost2010PropOp42
 70
     1
102
RTVSPost2010Prop43
 90
        3
102
RTVSPost2010PropOp43
 70
     1
102
RTVSPost2010Prop44ColorIndex
 90
        5
102
RTVSPost2010Prop44ColorRGB
 90
      255
102
RTVSPost2010PropOp44
 70
     1
102
RTVSPost2010Prop45
280
     0
102
RTVSPost2010PropOp45
 70
     1
102
RTVSPost2010Prop46
 90
       50
102
RTVSPost2010PropOp46
 70
     1
102
RTVSPost2010Prop47
 90
       50
102
RTVSPost2010PropOp47
 70
     1
102
RTVSPost2010Prop48
 90
       50
102
RTVSPost2010PropOp48
 70
     1
102
RTVSPost2010Prop49
280
     0
102
RTVSPost2010PropOp49
 70
     1
102
RTVSPost2010Prop50
 90
       50
102
RTVSPost2010PropOp50
 70
     1
102
RTVSPost2010Prop51ColorIndex
 90
      256
102
RTVSPost2010Prop51ColorRGB
 90
-16777216
102
RTVSPost2010PropOp51
 70
     0
102
RTVSPost2010Prop52
140
1.0
102
RTVSPost2010PropOp52
 70
     0
102
RTVSPost2010Prop53
 90
        2
102
RTVSPost2010PropOp53
 70
     1
102
RTVSPost2010Prop54
  1
strokes_ogs.tif
102
RTVSPost2010PropOp54
 70
     1
102
RTVSPost2010Prop55
280
     0
102
RTVSPost2010PropOp55
 70
     1
102
RTVSPost2010Prop56
140
1.0
102
RTVSPost2010PropOp56
 70
     1
102
RTVSPost2010Prop57
140
1.0
102
RTVSPost2010PropOp57
 70
     1
  0
XRECORD
  5
1E0
102
{ACAD_REACTORS
330
1DF
102
}
330
1DF
100
AcDbXrecord
280
     1
102
RTVSPost2010Prop28
280
     0
102
RTVSPost2010PropOp28
 70
     1
102
RTVSPost2010Prop29
280
     1
102
RTVSPost2010PropOp29
 70
     1
102
RTVSPost2010Prop30
280
     1
102
RTVSPost2010PropOp30
 70
     1
102
RTVSPost2010Prop31
280
     0
102
RTVSPost2010PropOp31
 70
     1
102
RTVSPost2010Prop32
280
     0
102
RTVSPost2010PropOp32
 70
     1
102
RTVSPost2010Prop33
280
     0
102
RTVSPost2010PropOp33
 70
     1
102
RTVSPost2010Prop34
280
     0
102
RTVSPost2010PropOp34
 70
     1
102
RTVSPost2010Prop35
280
     0
102
RTVSPost2010PropOp35
 70
     1
102
RTVSPost2010Prop36
280
     0
102
RTVSPost2010PropOp36
 70
     1
102
RTVSPost2010Prop37
 90
       50
102
RTVSPost2010PropOp37
 70
     1
102
RTVSPost2010Prop38
140
0.0
102
RTVSPost2010PropOp38
 70
     1
102
RTVSPost2010Prop39
140
1.0
102
RTVSPost2010PropOp39
 70
     1
102
RTVSPost2010Prop40
 90
        0
102
RTVSPost2010PropOp40
 70
     1
102
RTVSPost2010Prop41ColorIndex
 90
       18
102
RTVSPost2010Prop41ColorRGB
 90
        0
102
RTVSPost2010PropOp41
 70
     1
102
RTVSPost2010Prop42
 90
       50
102
RTVSPost2010PropOp42
 70
     1
102
RTVSPost2010Prop43
 90
        3
102
RTVSPost2010PropOp43
 70
     1
102
RTVSPost2010Prop44ColorIndex
 90
        5
102
RTVSPost2010Prop44ColorRGB
 90
      255
102
RTVSPost2010PropOp44
 70
     1
102
RTVSPost2010Prop45
280
     0
102
RTVSPost2010PropOp45
 70
     1
102
RTVSPost2010Prop46
 90
       50
102
RTVSPost2010PropOp46
 70
     1
102
RTVSPost2010Prop47
 90
       50
102
RTVSPost2010PropOp47
 70
     1
102
RTVSPost2010Prop48
 90
       50
102
RTVSPost2010PropOp48
 70
     1
102
RTVSPost2010Prop49
280
     0
102
RTVSPost2010PropOp49
 70
     1
102
RTVSPost2010Prop50
 90
       50
102
RTVSPost2010PropOp50
 70
     1
102
RTVSPost2010Prop51ColorIndex
 90
      256
102
RTVSPost2010Prop51ColorRGB
 90
-16777216
102
RTVSPost2010PropOp51
 70
     0
102
RTVSPost2010Prop52
140
1.0
102
RTVSPost2010PropOp52
 70
     0
102
RTVSPost2010Prop53
 90
        2
102
RTVSPost2010PropOp53
 70
     1
102
RTVSPost2010Prop54
  1
strokes_ogs.tif
102
RTVSPost2010PropOp54
 70
     1
102
RTVSPost2010Prop55
280
     0
102
RTVSPost2010PropOp55
 70
     1
102
RTVSPost2010Prop56
140
1.0
102
RTVSPost2010PropOp56
 70
     1
102
RTVSPost2010Prop57
140
1.0
102
RTVSPost2010PropOp57
 70
     1
  0
XRECORD
  5
1D4
102
{ACAD_REACTORS
330
1D3
102
}
330
1D3
100
AcDbXrecord
280
     1
102
RTVSPost2010Prop28
280
     0
102
RTVSPost2010PropOp28
 70
     1
102
RTVSPost2010Prop29
280
     1
102
RTVSPost2010PropOp29
 70
     1
102
RTVSPost2010Prop30
280
     1
102
RTVSPost2010PropOp30
 70
     1
102
RTVSPost2010Prop31
280
     0
102
RTVSPost2010PropOp31
 70
     1
102
RTVSPost2010Prop32
280
     0
102
RTVSPost2010PropOp32
 70
     1
102
RTVSPost2010Prop33
280
     0
102
RTVSPost2010PropOp33
 70
     1
102
RTVSPost2010Prop34
280
     0
102
RTVSPost2010PropOp34
 70
     1
102
RTVSPost2010Prop35
280
     0
102
RTVSPost2010PropOp35
 70
     1
102
RTVSPost2010Prop36
280
     0
102
RTVSPost2010PropOp36
 70
     1
102
RTVSPost2010Prop37
 90
       50
102
RTVSPost2010PropOp37
 70
     1
102
RTVSPost2010Prop38
140
0.0
102
RTVSPost2010PropOp38
 70
     1
102
RTVSPost2010Prop39
140
1.0
102
RTVSPost2010PropOp39
 70
     1
102
RTVSPost2010Prop40
 90
        0
102
RTVSPost2010PropOp40
 70
     1
102
RTVSPost2010Prop41ColorIndex
 90
       18
102
RTVSPost2010Prop41ColorRGB
 90
        0
102
RTVSPost2010PropOp41
 70
     1
102
RTVSPost2010Prop42
 90
       50
102
RTVSPost2010PropOp42
 70
     1
102
RTVSPost2010Prop43
 90
        3
102
RTVSPost2010PropOp43
 70
     1
102
RTVSPost2010Prop44ColorIndex
 90
        5
102
RTVSPost2010Prop44ColorRGB
 90
      255
102
RTVSPost2010PropOp44
 70
     1
102
RTVSPost2010Prop45
280
     0
102
RTVSPost2010PropOp45
 70
     1
102
RTVSPost2010Prop46
 90
       50
102
RTVSPost2010PropOp46
 70
     1
102
RTVSPost2010Prop47
 90
       50
102
RTVSPost2010PropOp47
 70
     1
102
RTVSPost2010Prop48
 90
       50
102
RTVSPost2010PropOp48
 70
     1
102
RTVSPost2010Prop49
280
     0
102
RTVSPost2010PropOp49
 70
     1
102
RTVSPost2010Prop50
 90
       50
102
RTVSPost2010PropOp50
 70
     1
102
RTVSPost2010Prop51ColorIndex
 90
      256
102
RTVSPost2010Prop51ColorRGB
 90
-16777216
102
RTVSPost2010PropOp51
 70
     0
102
RTVSPost2010Prop52
140
1.0
102
RTVSPost2010PropOp52
 70
     0
102
RTVSPost2010Prop53
 90
        2
102
RTVSPost2010PropOp53
 70
     1
102
RTVSPost2010Prop54
  1
strokes_ogs.tif
102
RTVSPost2010PropOp54
 70
     1
102
RTVSPost2010Prop55
280
     0
102
RTVSPost2010PropOp55
 70
     1
102
RTVSPost2010Prop56
140
1.0
102
RTVSPost2010PropOp56
 70
     1
102
RTVSPost2010Prop57
140
1.0
102
RTVSPost2010PropOp57
 70
     1
  0
XRECORD
  5
1D6
102
{ACAD_REACTORS
330
1D5
102
}
330
1D5
100
AcDbXrecord
280
     1
102
RTVSPost2010Prop28
280
     0
102
RTVSPost2010PropOp28
 70
     1
102
RTVSPost2010Prop29
280
     1
102
RTVSPost2010PropOp29
 70
     1
102
RTVSPost2010Prop30
280
     1
102
RTVSPost2010PropOp30
 70
     1
102
RTVSPost2010Prop31
280
     0
102
RTVSPost2010PropOp31
 70
     1
102
RTVSPost2010Prop32
280
     0
102
RTVSPost2010PropOp32
 70
     1
102
RTVSPost2010Prop33
280
     0
102
RTVSPost2010PropOp33
 70
     1
102
RTVSPost2010Prop34
280
     0
102
RTVSPost2010PropOp34
 70
     1
102
RTVSPost2010Prop35
280
     0
102
RTVSPost2010PropOp35
 70
     1
102
RTVSPost2010Prop36
280
     0
102
RTVSPost2010PropOp36
 70
     1
102
RTVSPost2010Prop37
 90
       50
102
RTVSPost2010PropOp37
 70
     1
102
RTVSPost2010Prop38
140
0.0
102
RTVSPost2010PropOp38
 70
     1
102
RTVSPost2010Prop39
140
1.0
102
RTVSPost2010PropOp39
 70
     1
102
RTVSPost2010Prop40
 90
        0
102
RTVSPost2010PropOp40
 70
     1
102
RTVSPost2010Prop41ColorIndex
 90
       18
102
RTVSPost2010Prop41ColorRGB
 90
        0
102
RTVSPost2010PropOp41
 70
     1
102
RTVSPost2010Prop42
 90
       50
102
RTVSPost2010PropOp42
 70
     1
102
RTVSPost2010Prop43
 90
        3
102
RTVSPost2010PropOp43
 70
     1
102
RTVSPost2010Prop44ColorIndex
 90
        5
102
RTVSPost2010Prop44ColorRGB
 90
      255
102
RTVSPost2010PropOp44
 70
     1
102
RTVSPost2010Prop45
280
     0
102
RTVSPost2010PropOp45
 70
     1
102
RTVSPost2010Prop46
 90
       50
102
RTVSPost2010PropOp46
 70
     1
102
RTVSPost2010Prop47
 90
       50
102
RTVSPost2010PropOp47
 70
     1
102
RTVSPost2010Prop48
 90
       50
102
RTVSPost2010PropOp48
 70
     1
102
RTVSPost2010Prop49
280
     0
102
RTVSPost2010PropOp49
 70
     1
102
RTVSPost2010Prop50
 90
       50
102
RTVSPost2010PropOp50
 70
     1
102
RTVSPost2010Prop51ColorIndex
 90
      256
102
RTVSPost2010Prop51ColorRGB
 90
-16777216
102
RTVSPost2010PropOp51
 70
     0
102
RTVSPost2010Prop52
140
1.0
102
RTVSPost2010PropOp52
 70
     0
102
RTVSPost2010Prop53
 90
        2
102
RTVSPost2010PropOp53
 70
     1
102
RTVSPost2010Prop54
  1
strokes_ogs.tif
102
RTVSPost2010PropOp54
 70
     1
102
RTVSPost2010Prop55
280
     0
102
RTVSPost2010PropOp55
 70
     1
102
RTVSPost2010Prop56
140
1.0
102
RTVSPost2010PropOp56
 70
     1
102
RTVSPost2010Prop57
140
1.0
102
RTVSPost2010PropOp57
 70
     1
  0
XRECORD
  5
1E6
102
{ACAD_REACTORS
330
1E5
102
}
330
1E5
100
AcDbXrecord
280
     1
102
RTVSPost2010Prop28
280
     0
102
RTVSPost2010PropOp28
 70
     0
102
RTVSPost2010Prop29
280
     1
102
RTVSPost2010PropOp29
 70
     0
102
RTVSPost2010Prop30
280
     1
102
RTVSPost2010PropOp30
 70
     0
102
RTVSPost2010Prop31
280
     0
102
RTVSPost2010PropOp31
 70
     0
102
RTVSPost2010Prop32
280
     0
102
RTVSPost2010PropOp32
 70
     0
102
RTVSPost2010Prop33
280
     0
102
RTVSPost2010PropOp33
 70
     0
102
RTVSPost2010Prop34
280
     0
102
RTVSPost2010PropOp34
 70
     0
102
RTVSPost2010Prop35
280
     0
102
RTVSPost2010PropOp35
 70
     0
102
RTVSPost2010Prop36
280
     0
102
RTVSPost2010PropOp36
 70
     0
102
RTVSPost2010Prop37
 90
       50
102
RTVSPost2010PropOp37
 70
     0
102
RTVSPost2010Prop38
140
0.0
102
RTVSPost2010PropOp38
 70
     0
102
RTVSPost2010Prop39
140
1.0
102
RTVSPost2010PropOp39
 70
     0
102
RTVSPost2010Prop40
 90
        0
102
RTVSPost2010PropOp40
 70
     0
102
RTVSPost2010Prop41ColorIndex
 90
       18
102
RTVSPost2010Prop41ColorRGB
 90
        0
102
RTVSPost2010PropOp41
 70
     0
102
RTVSPost2010Prop42
 90
       50
102
RTVSPost2010PropOp42
 70
     0
102
RTVSPost2010Prop43
 90
        3
102
RTVSPost2010PropOp43
 70
     0
102
RTVSPost2010Prop44ColorIndex
 90
        5
102
RTVSPost2010Prop44ColorRGB
 90
      255
102
RTVSPost2010PropOp44
 70
     0
102
RTVSPost2010Prop45
280
     0
102
RTVSPost2010PropOp45
 70
     0
102
RTVSPost2010Prop46
 90
       50
102
RTVSPost2010PropOp46
 70
     0
102
RTVSPost2010Prop47
 90
       50
102
RTVSPost2010PropOp47
 70
     0
102
RTVSPost2010Prop48
 90
       50
102
RTVSPost2010PropOp48
 70
     0
102
RTVSPost2010Prop49
280
     0
102
RTVSPost2010PropOp49
 70
     0
102
RTVSPost2010Prop50
 90
       50
102
RTVSPost2010PropOp50
 70
     0
102
RTVSPost2010Prop51ColorIndex
 90
      256
102
RTVSPost2010Prop51ColorRGB
 90
-16777216
102
RTVSPost2010PropOp51
 70
     0
102
RTVSPost2010Prop52
140
1.0
102
RTVSPost2010PropOp52
 70
     0
102
RTVSPost2010Prop53
 90
        2
102
RTVSPost2010PropOp53
 70
     0
102
RTVSPost2010Prop54
  1
strokes_ogs.tif
102
RTVSPost2010PropOp54
 70
     0
102
RTVSPost2010Prop55
280
     0
102
RTVSPost2010PropOp55
 70
     0
102
RTVSPost2010Prop56
140
1.0
102
RTVSPost2010PropOp56
 70
     0
102
RTVSPost2010Prop57
140
1.0
102
RTVSPost2010PropOp57
 70
     0
  0
XRECORD
  5
1DE
102
{ACAD_REACTORS
330
1DD
102
}
330
1DD
100
AcDbXrecord
280
     1
102
RTVSPost2010Prop28
280
     0
102
RTVSPost2010PropOp28
 70
     1
102
RTVSPost2010Prop29
280
     1
102
RTVSPost2010PropOp29
 70
     1
102
RTVSPost2010Prop30
280
     1
102
RTVSPost2010PropOp30
 70
     1
102
RTVSPost2010Prop31
280
     0
102
RTVSPost2010PropOp31
 70
     1
102
RTVSPost2010Prop32
280
     0
102
RTVSPost2010PropOp32
 70
     1
102
RTVSPost2010Prop33
280
     0
102
RTVSPost2010PropOp33
 70
     1
102
RTVSPost2010Prop34
280
     0
102
RTVSPost2010PropOp34
 70
     1
102
RTVSPost2010Prop35
280
     0
102
RTVSPost2010PropOp35
 70
     1
102
RTVSPost2010Prop36
280
     0
102
RTVSPost2010PropOp36
 70
     1
102
RTVSPost2010Prop37
 90
       50
102
RTVSPost2010PropOp37
 70
     1
102
RTVSPost2010Prop38
140
0.0
102
RTVSPost2010PropOp38
 70
     1
102
RTVSPost2010Prop39
140
1.0
102
RTVSPost2010PropOp39
 70
     1
102
RTVSPost2010Prop40
 90
        0
102
RTVSPost2010PropOp40
 70
     1
102
RTVSPost2010Prop41ColorIndex
 90
       18
102
RTVSPost2010Prop41ColorRGB
 90
        0
102
RTVSPost2010PropOp41
 70
     1
102
RTVSPost2010Prop42
 90
       50
102
RTVSPost2010PropOp42
 70
     1
102
RTVSPost2010Prop43
 90
        3
102
RTVSPost2010PropOp43
 70
     1
102
RTVSPost2010Prop44ColorIndex
 90
        5
102
RTVSPost2010Prop44ColorRGB
 90
      255
102
RTVSPost2010PropOp44
 70
     1
102
RTVSPost2010Prop45
280
     0
102
RTVSPost2010PropOp45
 70
     1
102
RTVSPost2010Prop46
 90
       50
102
RTVSPost2010PropOp46
 70
     1
102
RTVSPost2010Prop47
 90
       50
102
RTVSPost2010PropOp47
 70
     1
102
RTVSPost2010Prop48
 90
       50
102
RTVSPost2010PropOp48
 70
     1
102
RTVSPost2010Prop49
280
     0
102
RTVSPost2010PropOp49
 70
     1
102
RTVSPost2010Prop50
 90
       50
102
RTVSPost2010PropOp50
 70
     1
102
RTVSPost2010Prop51ColorIndex
 90
      256
102
RTVSPost2010Prop51ColorRGB
 90
-16777216
102
RTVSPost2010PropOp51
 70
     0
102
RTVSPost2010Prop52
140
1.0
102
RTVSPost2010PropOp52
 70
     0
102
RTVSPost2010Prop53
 90
        2
102
RTVSPost2010PropOp53
 70
     1
102
RTVSPost2010Prop54
  1
strokes_ogs.tif
102
RTVSPost2010PropOp54
 70
     1
102
RTVSPost2010Prop55
280
     0
102
RTVSPost2010PropOp55
 70
     1
102
RTVSPost2010Prop56
140
1.0
102
RTVSPost2010PropOp56
 70
     1
102
RTVSPost2010Prop57
140
1.0
102
RTVSPost2010PropOp57
 70
     1
  0
XRECORD
  5
1C2
102
{ACAD_REACTORS
330
1C1
102
}
330
1C1
100
AcDbXrecord
280
     1
102
RTVSPost2010Prop28
280
     0
102
RTVSPost2010PropOp28
 70
     1
102
RTVSPost2010Prop29
280
     1
102
RTVSPost2010PropOp29
 70
     1
102
RTVSPost2010Prop30
280
     1
102
RTVSPost2010PropOp30
 70
     1
102
RTVSPost2010Prop31
280
     0
102
RTVSPost2010PropOp31
 70
     1
102
RTVSPost2010Prop32
280
     0
102
RTVSPost2010PropOp32
 70
     1
102
RTVSPost2010Prop33
280
     0
102
RTVSPost2010PropOp33
 70
     1
102
RTVSPost2010Prop34
280
     0
102
RTVSPost2010PropOp34
 70
     1
102
RTVSPost2010Prop35
280
     0
102
RTVSPost2010PropOp35
 70
     1
102
RTVSPost2010Prop36
280
     0
102
RTVSPost2010PropOp36
 70
     1
102
RTVSPost2010Prop37
 90
       50
102
RTVSPost2010PropOp37
 70
     1
102
RTVSPost2010Prop38
140
0.0
102
RTVSPost2010PropOp38
 70
     1
102
RTVSPost2010Prop39
140
1.0
102
RTVSPost2010PropOp39
 70
     1
102
RTVSPost2010Prop40
 90
        0
102
RTVSPost2010PropOp40
 70
     1
102
RTVSPost2010Prop41ColorIndex
 90
       18
102
RTVSPost2010Prop41ColorRGB
 90
        0
102
RTVSPost2010PropOp41
 70
     1
102
RTVSPost2010Prop42
 90
       50
102
RTVSPost2010PropOp42
 70
     1
102
RTVSPost2010Prop43
 90
        3
102
RTVSPost2010PropOp43
 70
     1
102
RTVSPost2010Prop44ColorIndex
 90
        5
102
RTVSPost2010Prop44ColorRGB
 90
      255
102
RTVSPost2010PropOp44
 70
     1
102
RTVSPost2010Prop45
280
     0
102
RTVSPost2010PropOp45
 70
     1
102
RTVSPost2010Prop46
 90
       50
102
RTVSPost2010PropOp46
 70
     1
102
RTVSPost2010Prop47
 90
       50
102
RTVSPost2010PropOp47
 70
     1
102
RTVSPost2010Prop48
 90
       50
102
RTVSPost2010PropOp48
 70
     1
102
RTVSPost2010Prop49
280
     0
102
RTVSPost2010PropOp49
 70
     1
102
RTVSPost2010Prop50
 90
       50
102
RTVSPost2010PropOp50
 70
     1
102
RTVSPost2010Prop51ColorIndex
 90
      256
102
RTVSPost2010Prop51ColorRGB
 90
-16777216
102
RTVSPost2010PropOp51
 70
     0
102
RTVSPost2010Prop52
140
1.0
102
RTVSPost2010PropOp52
 70
     0
102
RTVSPost2010Prop53
 90
        2
102
RTVSPost2010PropOp53
 70
     1
102
RTVSPost2010Prop54
  1
strokes_ogs.tif
102
RTVSPost2010PropOp54
 70
     1
102
RTVSPost2010Prop55
280
     0
102
RTVSPost2010PropOp55
 70
     1
102
RTVSPost2010Prop56
140
1.0
102
RTVSPost2010PropOp56
 70
     1
102
RTVSPost2010Prop57
140
1.0
102
RTVSPost2010PropOp57
 70
     1
  0
XRECORD
  5
1C4
102
{ACAD_REACTORS
330
1C3
102
}
330
1C3
100
AcDbXrecord
280
     1
102
RTVSPost2010Prop28
280
     0
102
RTVSPost2010PropOp28
 70
     1
102
RTVSPost2010Prop29
280
     1
102
RTVSPost2010PropOp29
 70
     1
102
RTVSPost2010Prop30
280
     1
102
RTVSPost2010PropOp30
 70
     1
102
RTVSPost2010Prop31
280
     0
102
RTVSPost2010PropOp31
 70
     1
102
RTVSPost2010Prop32
280
     0
102
RTVSPost2010PropOp32
 70
     1
102
RTVSPost2010Prop33
280
     0
102
RTVSPost2010PropOp33
 70
     1
102
RTVSPost2010Prop34
280
     0
102
RTVSPost2010PropOp34
 70
     1
102
RTVSPost2010Prop35
280
     0
102
RTVSPost2010PropOp35
 70
     1
102
RTVSPost2010Prop36
280
     0
102
RTVSPost2010PropOp36
 70
     1
102
RTVSPost2010Prop37
 90
       50
102
RTVSPost2010PropOp37
 70
     1
102
RTVSPost2010Prop38
140
0.0
102
RTVSPost2010PropOp38
 70
     1
102
RTVSPost2010Prop39
140
1.0
102
RTVSPost2010PropOp39
 70
     1
102
RTVSPost2010Prop40
 90
        0
102
RTVSPost2010PropOp40
 70
     1
102
RTVSPost2010Prop41ColorIndex
 90
       18
102
RTVSPost2010Prop41ColorRGB
 90
        0
102
RTVSPost2010PropOp41
 70
     1
102
RTVSPost2010Prop42
 90
       50
102
RTVSPost2010PropOp42
 70
     1
102
RTVSPost2010Prop43
 90
        3
102
RTVSPost2010PropOp43
 70
     1
102
RTVSPost2010Prop44ColorIndex
 90
        5
102
RTVSPost2010Prop44ColorRGB
 90
      255
102
RTVSPost2010PropOp44
 70
     1
102
RTVSPost2010Prop45
280
     0
102
RTVSPost2010PropOp45
 70
     1
102
RTVSPost2010Prop46
 90
       50
102
RTVSPost2010PropOp46
 70
     1
102
RTVSPost2010Prop47
 90
       50
102
RTVSPost2010PropOp47
 70
     1
102
RTVSPost2010Prop48
 90
       50
102
RTVSPost2010PropOp48
 70
     1
102
RTVSPost2010Prop49
280
     0
102
RTVSPost2010PropOp49
 70
     1
102
RTVSPost2010Prop50
 90
       50
102
RTVSPost2010PropOp50
 70
     1
102
RTVSPost2010Prop51ColorIndex
 90
      256
102
RTVSPost2010Prop51ColorRGB
 90
-16777216
102
RTVSPost2010PropOp51
 70
     0
102
RTVSPost2010Prop52
140
1.0
102
RTVSPost2010PropOp52
 70
     0
102
RTVSPost2010Prop53
 90
        2
102
RTVSPost2010PropOp53
 70
     1
102
RTVSPost2010Prop54
  1
strokes_ogs.tif
102
RTVSPost2010PropOp54
 70
     1
102
RTVSPost2010Prop55
280
     0
102
RTVSPost2010PropOp55
 70
     1
102
RTVSPost2010Prop56
140
1.0
102
RTVSPost2010PropOp56
 70
     1
102
RTVSPost2010Prop57
140
1.0
102
RTVSPost2010PropOp57
 70
     1
  0
XRECORD
  5
1C6
102
{ACAD_REACTORS
330
1C5
102
}
330
1C5
100
AcDbXrecord
280
     1
102
RTVSPost2010Prop28
280
     0
102
RTVSPost2010PropOp28
 70
     1
102
RTVSPost2010Prop29
280
     1
102
RTVSPost2010PropOp29
 70
     1
102
RTVSPost2010Prop30
280
     1
102
RTVSPost2010PropOp30
 70
     1
102
RTVSPost2010Prop31
280
     0
102
RTVSPost2010PropOp31
 70
     1
102
RTVSPost2010Prop32
280
     0
102
RTVSPost2010PropOp32
 70
     1
102
RTVSPost2010Prop33
280
     0
102
RTVSPost2010PropOp33
 70
     1
102
RTVSPost2010Prop34
280
     0
102
RTVSPost2010PropOp34
 70
     1
102
RTVSPost2010Prop35
280
     0
102
RTVSPost2010PropOp35
 70
     1
102
RTVSPost2010Prop36
280
     0
102
RTVSPost2010PropOp36
 70
     1
102
RTVSPost2010Prop37
 90
       50
102
RTVSPost2010PropOp37
 70
     1
102
RTVSPost2010Prop38
140
0.0
102
RTVSPost2010PropOp38
 70
     1
102
RTVSPost2010Prop39
140
1.0
102
RTVSPost2010PropOp39
 70
     1
102
RTVSPost2010Prop40
 90
        0
102
RTVSPost2010PropOp40
 70
     1
102
RTVSPost2010Prop41ColorIndex
 90
       18
102
RTVSPost2010Prop41ColorRGB
 90
        0
102
RTVSPost2010PropOp41
 70
     1
102
RTVSPost2010Prop42
 90
       50
102
RTVSPost2010PropOp42
 70
     1
102
RTVSPost2010Prop43
 90
        3
102
RTVSPost2010PropOp43
 70
     1
102
RTVSPost2010Prop44ColorIndex
 90
        5
102
RTVSPost2010Prop44ColorRGB
 90
      255
102
RTVSPost2010PropOp44
 70
     1
102
RTVSPost2010Prop45
280
     0
102
RTVSPost2010PropOp45
 70
     1
102
RTVSPost2010Prop46
 90
       50
102
RTVSPost2010PropOp46
 70
     1
102
RTVSPost2010Prop47
 90
       50
102
RTVSPost2010PropOp47
 70
     1
102
RTVSPost2010Prop48
 90
       50
102
RTVSPost2010PropOp48
 70
     1
102
RTVSPost2010Prop49
280
     0
102
RTVSPost2010PropOp49
 70
     1
102
RTVSPost2010Prop50
 90
       50
102
RTVSPost2010PropOp50
 70
     1
102
RTVSPost2010Prop51ColorIndex
 90
      256
102
RTVSPost2010Prop51ColorRGB
 90
-16777216
102
RTVSPost2010PropOp51
 70
     0
102
RTVSPost2010Prop52
140
1.0
102
RTVSPost2010PropOp52
 70
     0
102
RTVSPost2010Prop53
 90
        2
102
RTVSPost2010PropOp53
 70
     1
102
RTVSPost2010Prop54
  1
strokes_ogs.tif
102
RTVSPost2010PropOp54
 70
     1
102
RTVSPost2010Prop55
280
     0
102
RTVSPost2010PropOp55
 70
     1
102
RTVSPost2010Prop56
140
1.0
102
RTVSPost2010PropOp56
 70
     1
102
RTVSPost2010Prop57
140
1.0
102
RTVSPost2010PropOp57
 70
     1
  0
XRECORD
  5
1C8
102
{ACAD_REACTORS
330
1C7
102
}
330
1C7
100
AcDbXrecord
280
     1
102
RTVSPost2010Prop28
280
     0
102
RTVSPost2010PropOp28
 70
     1
102
RTVSPost2010Prop29
280
     1
102
RTVSPost2010PropOp29
 70
     1
102
RTVSPost2010Prop30
280
     1
102
RTVSPost2010PropOp30
 70
     1
102
RTVSPost2010Prop31
280
     0
102
RTVSPost2010PropOp31
 70
     1
102
RTVSPost2010Prop32
280
     0
102
RTVSPost2010PropOp32
 70
     1
102
RTVSPost2010Prop33
280
     0
102
RTVSPost2010PropOp33
 70
     1
102
RTVSPost2010Prop34
280
     0
102
RTVSPost2010PropOp34
 70
     1
102
RTVSPost2010Prop35
280
     0
102
RTVSPost2010PropOp35
 70
     1
102
RTVSPost2010Prop36
280
     0
102
RTVSPost2010PropOp36
 70
     1
102
RTVSPost2010Prop37
 90
       50
102
RTVSPost2010PropOp37
 70
     1
102
RTVSPost2010Prop38
140
0.0
102
RTVSPost2010PropOp38
 70
     1
102
RTVSPost2010Prop39
140
1.0
102
RTVSPost2010PropOp39
 70
     1
102
RTVSPost2010Prop40
 90
        0
102
RTVSPost2010PropOp40
 70
     1
102
RTVSPost2010Prop41ColorIndex
 90
       18
102
RTVSPost2010Prop41ColorRGB
 90
        0
102
RTVSPost2010PropOp41
 70
     1
102
RTVSPost2010Prop42
 90
       50
102
RTVSPost2010PropOp42
 70
     1
102
RTVSPost2010Prop43
 90
        3
102
RTVSPost2010PropOp43
 70
     1
102
RTVSPost2010Prop44ColorIndex
 90
        5
102
RTVSPost2010Prop44ColorRGB
 90
      255
102
RTVSPost2010PropOp44
 70
     1
102
RTVSPost2010Prop45
280
     0
102
RTVSPost2010PropOp45
 70
     1
102
RTVSPost2010Prop46
 90
       50
102
RTVSPost2010PropOp46
 70
     1
102
RTVSPost2010Prop47
 90
       50
102
RTVSPost2010PropOp47
 70
     1
102
RTVSPost2010Prop48
 90
       50
102
RTVSPost2010PropOp48
 70
     1
102
RTVSPost2010Prop49
280
     0
102
RTVSPost2010PropOp49
 70
     1
102
RTVSPost2010Prop50
 90
       50
102
RTVSPost2010PropOp50
 70
     1
102
RTVSPost2010Prop51ColorIndex
 90
      256
102
RTVSPost2010Prop51ColorRGB
 90
-16777216
102
RTVSPost2010PropOp51
 70
     0
102
RTVSPost2010Prop52
140
1.0
102
RTVSPost2010PropOp52
 70
     0
102
RTVSPost2010Prop53
 90
        2
102
RTVSPost2010PropOp53
 70
     1
102
RTVSPost2010Prop54
  1
strokes_ogs.tif
102
RTVSPost2010PropOp54
 70
     1
102
RTVSPost2010Prop55
280
     0
102
RTVSPost2010PropOp55
 70
     1
102
RTVSPost2010Prop56
140
1.0
102
RTVSPost2010PropOp56
 70
     1
102
RTVSPost2010Prop57
140
1.0
102
RTVSPost2010PropOp57
 70
     1
  0
XRECORD
  5
1CE
102
{ACAD_REACTORS
330
1CD
102
}
330
1CD
100
AcDbXrecord
280
     1
102
RTVSPost2010Prop28
280
     0
102
RTVSPost2010PropOp28
 70
     1
102
RTVSPost2010Prop29
280
     1
102
RTVSPost2010PropOp29
 70
     1
102
RTVSPost2010Prop30
280
     1
102
RTVSPost2010PropOp30
 70
     1
102
RTVSPost2010Prop31
280
     0
102
RTVSPost2010PropOp31
 70
     1
102
RTVSPost2010Prop32
280
     0
102
RTVSPost2010PropOp32
 70
     1
102
RTVSPost2010Prop33
280
     0
102
RTVSPost2010PropOp33
 70
     1
102
RTVSPost2010Prop34
280
     0
102
RTVSPost2010PropOp34
 70
     1
102
RTVSPost2010Prop35
280
     0
102
RTVSPost2010PropOp35
 70
     1
102
RTVSPost2010Prop36
280
     0
102
RTVSPost2010PropOp36
 70
     1
102
RTVSPost2010Prop37
 90
       50
102
RTVSPost2010PropOp37
 70
     1
102
RTVSPost2010Prop38
140
0.0
102
RTVSPost2010PropOp38
 70
     1
102
RTVSPost2010Prop39
140
1.0
102
RTVSPost2010PropOp39
 70
     1
102
RTVSPost2010Prop40
 90
        0
102
RTVSPost2010PropOp40
 70
     1
102
RTVSPost2010Prop41ColorIndex
 90
       18
102
RTVSPost2010Prop41ColorRGB
 90
        0
102
RTVSPost2010PropOp41
 70
     1
102
RTVSPost2010Prop42
 90
       50
102
RTVSPost2010PropOp42
 70
     1
102
RTVSPost2010Prop43
 90
        3
102
RTVSPost2010PropOp43
 70
     1
102
RTVSPost2010Prop44ColorIndex
 90
        5
102
RTVSPost2010Prop44ColorRGB
 90
      255
102
RTVSPost2010PropOp44
 70
     1
102
RTVSPost2010Prop45
280
     0
102
RTVSPost2010PropOp45
 70
     1
102
RTVSPost2010Prop46
 90
       50
102
RTVSPost2010PropOp46
 70
     1
102
RTVSPost2010Prop47
 90
       50
102
RTVSPost2010PropOp47
 70
     1
102
RTVSPost2010Prop48
 90
       50
102
RTVSPost2010PropOp48
 70
     1
102
RTVSPost2010Prop49
280
     0
102
RTVSPost2010PropOp49
 70
     1
102
RTVSPost2010Prop50
 90
       50
102
RTVSPost2010PropOp50
 70
     1
102
RTVSPost2010Prop51ColorIndex
 90
      256
102
RTVSPost2010Prop51ColorRGB
 90
-16777216
102
RTVSPost2010PropOp51
 70
     0
102
RTVSPost2010Prop52
140
1.0
102
RTVSPost2010PropOp52
 70
     0
102
RTVSPost2010Prop53
 90
        2
102
RTVSPost2010PropOp53
 70
     1
102
RTVSPost2010Prop54
  1
strokes_ogs.tif
102
RTVSPost2010PropOp54
 70
     1
102
RTVSPost2010Prop55
280
     0
102
RTVSPost2010PropOp55
 70
     1
102
RTVSPost2010Prop56
140
1.0
102
RTVSPost2010PropOp56
 70
     1
102
RTVSPost2010Prop57
140
1.0
102
RTVSPost2010PropOp57
 70
     1
  0
XRECORD
  5
1E2
102
{ACAD_REACTORS
330
1E1
102
}
330
1E1
100
AcDbXrecord
280
     1
102
RTVSPost2010Prop28
280
     0
102
RTVSPost2010PropOp28
 70
     0
102
RTVSPost2010Prop29
280
     1
102
RTVSPost2010PropOp29
 70
     0
102
RTVSPost2010Prop30
280
     1
102
RTVSPost2010PropOp30
 70
     0
102
RTVSPost2010Prop31
280
     0
102
RTVSPost2010PropOp31
 70
     0
102
RTVSPost2010Prop32
280
     0
102
RTVSPost2010PropOp32
 70
     0
102
RTVSPost2010Prop33
280
     0
102
RTVSPost2010PropOp33
 70
     0
102
RTVSPost2010Prop34
280
     0
102
RTVSPost2010PropOp34
 70
     0
102
RTVSPost2010Prop35
280
     0
102
RTVSPost2010PropOp35
 70
     0
102
RTVSPost2010Prop36
280
     0
102
RTVSPost2010PropOp36
 70
     0
102
RTVSPost2010Prop37
 90
       50
102
RTVSPost2010PropOp37
 70
     0
102
RTVSPost2010Prop38
140
0.0
102
RTVSPost2010PropOp38
 70
     0
102
RTVSPost2010Prop39
140
1.0
102
RTVSPost2010PropOp39
 70
     0
102
RTVSPost2010Prop40
 90
        0
102
RTVSPost2010PropOp40
 70
     0
102
RTVSPost2010Prop41ColorIndex
 90
       18
102
RTVSPost2010Prop41ColorRGB
 90
        0
102
RTVSPost2010PropOp41
 70
     0
102
RTVSPost2010Prop42
 90
       50
102
RTVSPost2010PropOp42
 70
     0
102
RTVSPost2010Prop43
 90
        3
102
RTVSPost2010PropOp43
 70
     0
102
RTVSPost2010Prop44ColorIndex
 90
        5
102
RTVSPost2010Prop44ColorRGB
 90
      255
102
RTVSPost2010PropOp44
 70
     0
102
RTVSPost2010Prop45
280
     0
102
RTVSPost2010PropOp45
 70
     0
102
RTVSPost2010Prop46
 90
       50
102
RTVSPost2010PropOp46
 70
     0
102
RTVSPost2010Prop47
 90
       50
102
RTVSPost2010PropOp47
 70
     0
102
RTVSPost2010Prop48
 90
       50
102
RTVSPost2010PropOp48
 70
     0
102
RTVSPost2010Prop49
280
     0
102
RTVSPost2010PropOp49
 70
     0
102
RTVSPost2010Prop50
 90
       50
102
RTVSPost2010PropOp50
 70
     0
102
RTVSPost2010Prop51ColorIndex
 90
      256
102
RTVSPost2010Prop51ColorRGB
 90
-16777216
102
RTVSPost2010PropOp51
 70
     0
102
RTVSPost2010Prop52
140
1.0
102
RTVSPost2010PropOp52
 70
     0
102
RTVSPost2010Prop53
 90
        2
102
RTVSPost2010PropOp53
 70
     0
102
RTVSPost2010Prop54
  1
strokes_ogs.tif
102
RTVSPost2010PropOp54
 70
     0
102
RTVSPost2010Prop55
280
     0
102
RTVSPost2010PropOp55
 70
     0
102
RTVSPost2010Prop56
140
1.0
102
RTVSPost2010PropOp56
 70
     0
102
RTVSPost2010Prop57
140
1.0
102
RTVSPost2010PropOp57
 70
     0
  0
XRECORD
  5
1DC
102
{ACAD_REACTORS
330
1DB
102
}
330
1DB
100
AcDbXrecord
280
     1
102
RTVSPost2010Prop28
280
     0
102
RTVSPost2010PropOp28
 70
     1
102
RTVSPost2010Prop29
280
     1
102
RTVSPost2010PropOp29
 70
     1
102
RTVSPost2010Prop30
280
     1
102
RTVSPost2010PropOp30
 70
     1
102
RTVSPost2010Prop31
280
     0
102
RTVSPost2010PropOp31
 70
     1
102
RTVSPost2010Prop32
280
     0
102
RTVSPost2010PropOp32
 70
     1
102
RTVSPost2010Prop33
280
     0
102
RTVSPost2010PropOp33
 70
     1
102
RTVSPost2010Prop34
280
     0
102
RTVSPost2010PropOp34
 70
     1
102
RTVSPost2010Prop35
280
     0
102
RTVSPost2010PropOp35
 70
     1
102
RTVSPost2010Prop36
280
     0
102
RTVSPost2010PropOp36
 70
     1
102
RTVSPost2010Prop37
 90
       50
102
RTVSPost2010PropOp37
 70
     1
102
RTVSPost2010Prop38
140
0.0
102
RTVSPost2010PropOp38
 70
     1
102
RTVSPost2010Prop39
140
1.0
102
RTVSPost2010PropOp39
 70
     1
102
RTVSPost2010Prop40
 90
        0
102
RTVSPost2010PropOp40
 70
     1
102
RTVSPost2010Prop41ColorIndex
 90
       18
102
RTVSPost2010Prop41ColorRGB
 90
        0
102
RTVSPost2010PropOp41
 70
     1
102
RTVSPost2010Prop42
 90
       50
102
RTVSPost2010PropOp42
 70
     1
102
RTVSPost2010Prop43
 90
        3
102
RTVSPost2010PropOp43
 70
     1
102
RTVSPost2010Prop44ColorIndex
 90
        5
102
RTVSPost2010Prop44ColorRGB
 90
      255
102
RTVSPost2010PropOp44
 70
     1
102
RTVSPost2010Prop45
280
     0
102
RTVSPost2010PropOp45
 70
     1
102
RTVSPost2010Prop46
 90
       50
102
RTVSPost2010PropOp46
 70
     1
102
RTVSPost2010Prop47
 90
       50
102
RTVSPost2010PropOp47
 70
     1
102
RTVSPost2010Prop48
 90
       50
102
RTVSPost2010PropOp48
 70
     1
102
RTVSPost2010Prop49
280
     0
102
RTVSPost2010PropOp49
 70
     1
102
RTVSPost2010Prop50
 90
       50
102
RTVSPost2010PropOp50
 70
     1
102
RTVSPost2010Prop51ColorIndex
 90
      256
102
RTVSPost2010Prop51ColorRGB
 90
-16777216
102
RTVSPost2010PropOp51
 70
     0
102
RTVSPost2010Prop52
140
1.0
102
RTVSPost2010PropOp52
 70
     0
102
RTVSPost2010Prop53
 90
        2
102
RTVSPost2010PropOp53
 70
     1
102
RTVSPost2010Prop54
  1
strokes_ogs.tif
102
RTVSPost2010PropOp54
 70
     1
102
RTVSPost2010Prop55
280
     0
102
RTVSPost2010PropOp55
 70
     1
102
RTVSPost2010Prop56
140
1.0
102
RTVSPost2010PropOp56
 70
     1
102
RTVSPost2010Prop57
140
1.0
102
RTVSPost2010PropOp57
 70
     1
  0
XRECORD
  5
1E4
102
{ACAD_REACTORS
330
1E3
102
}
330
1E3
100
AcDbXrecord
280
     1
102
RTVSPost2010Prop28
280
     0
102
RTVSPost2010PropOp28
 70
     0
102
RTVSPost2010Prop29
280
     1
102
RTVSPost2010PropOp29
 70
     0
102
RTVSPost2010Prop30
280
     1
102
RTVSPost2010PropOp30
 70
     0
102
RTVSPost2010Prop31
280
     0
102
RTVSPost2010PropOp31
 70
     0
102
RTVSPost2010Prop32
280
     0
102
RTVSPost2010PropOp32
 70
     0
102
RTVSPost2010Prop33
280
     0
102
RTVSPost2010PropOp33
 70
     0
102
RTVSPost2010Prop34
280
     0
102
RTVSPost2010PropOp34
 70
     0
102
RTVSPost2010Prop35
280
     0
102
RTVSPost2010PropOp35
 70
     0
102
RTVSPost2010Prop36
280
     0
102
RTVSPost2010PropOp36
 70
     0
102
RTVSPost2010Prop37
 90
       50
102
RTVSPost2010PropOp37
 70
     0
102
RTVSPost2010Prop38
140
0.0
102
RTVSPost2010PropOp38
 70
     0
102
RTVSPost2010Prop39
140
1.0
102
RTVSPost2010PropOp39
 70
     0
102
RTVSPost2010Prop40
 90
        0
102
RTVSPost2010PropOp40
 70
     0
102
RTVSPost2010Prop41ColorIndex
 90
       18
102
RTVSPost2010Prop41ColorRGB
 90
        0
102
RTVSPost2010PropOp41
 70
     0
102
RTVSPost2010Prop42
 90
       50
102
RTVSPost2010PropOp42
 70
     0
102
RTVSPost2010Prop43
 90
        3
102
RTVSPost2010PropOp43
 70
     0
102
RTVSPost2010Prop44ColorIndex
 90
        5
102
RTVSPost2010Prop44ColorRGB
 90
      255
102
RTVSPost2010PropOp44
 70
     0
102
RTVSPost2010Prop45
280
     0
102
RTVSPost2010PropOp45
 70
     0
102
RTVSPost2010Prop46
 90
       50
102
RTVSPost2010PropOp46
 70
     0
102
RTVSPost2010Prop47
 90
       50
102
RTVSPost2010PropOp47
 70
     0
102
RTVSPost2010Prop48
 90
       50
102
RTVSPost2010PropOp48
 70
     0
102
RTVSPost2010Prop49
280
     0
102
RTVSPost2010PropOp49
 70
     0
102
RTVSPost2010Prop50
 90
       50
102
RTVSPost2010PropOp50
 70
     0
102
RTVSPost2010Prop51ColorIndex
 90
      256
102
RTVSPost2010Prop51ColorRGB
 90
-16777216
102
RTVSPost2010PropOp51
 70
     0
102
RTVSPost2010Prop52
140
1.0
102
RTVSPost2010PropOp52
 70
     0
102
RTVSPost2010Prop53
 90
        2
102
RTVSPost2010PropOp53
 70
     0
102
RTVSPost2010Prop54
  1
strokes_ogs.tif
102
RTVSPost2010PropOp54
 70
     0
102
RTVSPost2010Prop55
280
     0
102
RTVSPost2010PropOp55
 70
     0
102
RTVSPost2010Prop56
140
1.0
102
RTVSPost2010PropOp56
 70
     0
102
RTVSPost2010Prop57
140
1.0
102
RTVSPost2010PropOp57
 70
     0
  0
XRECORD
  5
1D2
102
{ACAD_REACTORS
330
1D1
102
}
330
1D1
100
AcDbXrecord
280
     1
102
RTVSPost2010Prop28
280
     0
102
RTVSPost2010PropOp28
 70
     1
102
RTVSPost2010Prop29
280
     1
102
RTVSPost2010PropOp29
 70
     1
102
RTVSPost2010Prop30
280
     1
102
RTVSPost2010PropOp30
 70
     1
102
RTVSPost2010Prop31
280
     0
102
RTVSPost2010PropOp31
 70
     1
102
RTVSPost2010Prop32
280
     0
102
RTVSPost2010PropOp32
 70
     1
102
RTVSPost2010Prop33
280
     0
102
RTVSPost2010PropOp33
 70
     1
102
RTVSPost2010Prop34
280
     0
102
RTVSPost2010PropOp34
 70
     1
102
RTVSPost2010Prop35
280
     0
102
RTVSPost2010PropOp35
 70
     1
102
RTVSPost2010Prop36
280
     0
102
RTVSPost2010PropOp36
 70
     1
102
RTVSPost2010Prop37
 90
       50
102
RTVSPost2010PropOp37
 70
     1
102
RTVSPost2010Prop38
140
0.0
102
RTVSPost2010PropOp38
 70
     1
102
RTVSPost2010Prop39
140
1.0
102
RTVSPost2010PropOp39
 70
     1
102
RTVSPost2010Prop40
 90
        0
102
RTVSPost2010PropOp40
 70
     1
102
RTVSPost2010Prop41ColorIndex
 90
       18
102
RTVSPost2010Prop41ColorRGB
 90
        0
102
RTVSPost2010PropOp41
 70
     1
102
RTVSPost2010Prop42
 90
       50
102
RTVSPost2010PropOp42
 70
     1
102
RTVSPost2010Prop43
 90
        3
102
RTVSPost2010PropOp43
 70
     1
102
RTVSPost2010Prop44ColorIndex
 90
        5
102
RTVSPost2010Prop44ColorRGB
 90
      255
102
RTVSPost2010PropOp44
 70
     1
102
RTVSPost2010Prop45
280
     0
102
RTVSPost2010PropOp45
 70
     1
102
RTVSPost2010Prop46
 90
       50
102
RTVSPost2010PropOp46
 70
     1
102
RTVSPost2010Prop47
 90
       50
102
RTVSPost2010PropOp47
 70
     1
102
RTVSPost2010Prop48
 90
       50
102
RTVSPost2010PropOp48
 70
     1
102
RTVSPost2010Prop49
280
     0
102
RTVSPost2010PropOp49
 70
     1
102
RTVSPost2010Prop50
 90
       50
102
RTVSPost2010PropOp50
 70
     1
102
RTVSPost2010Prop51ColorIndex
 90
      256
102
RTVSPost2010Prop51ColorRGB
 90
-16777216
102
RTVSPost2010PropOp51
 70
     0
102
RTVSPost2010Prop52
140
1.0
102
RTVSPost2010PropOp52
 70
     0
102
RTVSPost2010Prop53
 90
        2
102
RTVSPost2010PropOp53
 70
     1
102
RTVSPost2010Prop54
  1
strokes_ogs.tif
102
RTVSPost2010PropOp54
 70
     1
102
RTVSPost2010Prop55
280
     0
102
RTVSPost2010PropOp55
 70
     1
102
RTVSPost2010Prop56
140
1.0
102
RTVSPost2010PropOp56
 70
     1
102
RTVSPost2010Prop57
140
1.0
102
RTVSPost2010PropOp57
 70
     1
  0
XRECORD
  5
1F0
102
{ACAD_REACTORS
330
1EF
102
}
330
1EF
100
AcDbXrecord
280
     1
102
RTVSPost2010Prop28
280
     0
102
RTVSPost2010PropOp28
 70
     1
102
RTVSPost2010Prop29
280
     1
102
RTVSPost2010PropOp29
 70
     1
102
RTVSPost2010Prop30
280
     1
102
RTVSPost2010PropOp30
 70
     1
102
RTVSPost2010Prop31
280
     0
102
RTVSPost2010PropOp31
 70
     1
102
RTVSPost2010Prop32
280
     0
102
RTVSPost2010PropOp32
 70
     1
102
RTVSPost2010Prop33
280
     0
102
RTVSPost2010PropOp33
 70
     1
102
RTVSPost2010Prop34
280
     0
102
RTVSPost2010PropOp34
 70
     1
102
RTVSPost2010Prop35
280
     0
102
RTVSPost2010PropOp35
 70
     1
102
RTVSPost2010Prop36
280
     0
102
RTVSPost2010PropOp36
 70
     1
102
RTVSPost2010Prop37
 90
       50
102
RTVSPost2010PropOp37
 70
     1
102
RTVSPost2010Prop38
140
0.0
102
RTVSPost2010PropOp38
 70
     1
102
RTVSPost2010Prop39
140
1.0
102
RTVSPost2010PropOp39
 70
     1
102
RTVSPost2010Prop40
 90
        0
102
RTVSPost2010PropOp40
 70
     1
102
RTVSPost2010Prop41ColorIndex
 90
       18
102
RTVSPost2010Prop41ColorRGB
 90
        0
102
RTVSPost2010PropOp41
 70
     1
102
RTVSPost2010Prop42
 90
       50
102
RTVSPost2010PropOp42
 70
     1
102
RTVSPost2010Prop43
 90
        3
102
RTVSPost2010PropOp43
 70
     1
102
RTVSPost2010Prop44ColorIndex
 90
        5
102
RTVSPost2010Prop44ColorRGB
 90
      255
102
RTVSPost2010PropOp44
 70
     1
102
RTVSPost2010Prop45
280
     0
102
RTVSPost2010PropOp45
 70
     1
102
RTVSPost2010Prop46
 90
       50
102
RTVSPost2010PropOp46
 70
     1
102
RTVSPost2010Prop47
 90
       50
102
RTVSPost2010PropOp47
 70
     1
102
RTVSPost2010Prop48
 90
       50
102
RTVSPost2010PropOp48
 70
     1
102
RTVSPost2010Prop49
280
     0
102
RTVSPost2010PropOp49
 70
     1
102
RTVSPost2010Prop50
 90
       50
102
RTVSPost2010PropOp50
 70
     1
102
RTVSPost2010Prop51ColorIndex
 90
      256
102
RTVSPost2010Prop51ColorRGB
 90
-16777216
102
RTVSPost2010PropOp51
 70
     0
102
RTVSPost2010Prop52
140
1.0
102
RTVSPost2010PropOp52
 70
     0
102
RTVSPost2010Prop53
 90
        2
102
RTVSPost2010PropOp53
 70
     1
102
RTVSPost2010Prop54
  1
strokes_ogs.tif
102
RTVSPost2010PropOp54
 70
     1
102
RTVSPost2010Prop55
280
     0
102
RTVSPost2010PropOp55
 70
     1
102
RTVSPost2010Prop56
140
1.0
102
RTVSPost2010PropOp56
 70
     1
102
RTVSPost2010Prop57
140
1.0
102
RTVSPost2010PropOp57
 70
     1
  0
XRECORD
  5
1EE
102
{ACAD_REACTORS
330
1ED
102
}
330
1ED
100
AcDbXrecord
280
     1
102
RTVSPost2010Prop28
280
     0
102
RTVSPost2010PropOp28
 70
     1
102
RTVSPost2010Prop29
280
     1
102
RTVSPost2010PropOp29
 70
     1
102
RTVSPost2010Prop30
280
     1
102
RTVSPost2010PropOp30
 70
     1
102
RTVSPost2010Prop31
280
     0
102
RTVSPost2010PropOp31
 70
     1
102
RTVSPost2010Prop32
280
     0
102
RTVSPost2010PropOp32
 70
     1
102
RTVSPost2010Prop33
280
     0
102
RTVSPost2010PropOp33
 70
     1
102
RTVSPost2010Prop34
280
     0
102
RTVSPost2010PropOp34
 70
     1
102
RTVSPost2010Prop35
280
     0
102
RTVSPost2010PropOp35
 70
     1
102
RTVSPost2010Prop36
280
     0
102
RTVSPost2010PropOp36
 70
     1
102
RTVSPost2010Prop37
 90
       50
102
RTVSPost2010PropOp37
 70
     1
102
RTVSPost2010Prop38
140
0.0
102
RTVSPost2010PropOp38
 70
     1
102
RTVSPost2010Prop39
140
1.0
102
RTVSPost2010PropOp39
 70
     1
102
RTVSPost2010Prop40
 90
        0
102
RTVSPost2010PropOp40
 70
     1
102
RTVSPost2010Prop41ColorIndex
 90
       18
102
RTVSPost2010Prop41ColorRGB
 90
        0
102
RTVSPost2010PropOp41
 70
     1
102
RTVSPost2010Prop42
 90
       50
102
RTVSPost2010PropOp42
 70
     1
102
RTVSPost2010Prop43
 90
        3
102
RTVSPost2010PropOp43
 70
     1
102
RTVSPost2010Prop44ColorIndex
 90
        5
102
RTVSPost2010Prop44ColorRGB
 90
      255
102
RTVSPost2010PropOp44
 70
     1
102
RTVSPost2010Prop45
280
     0
102
RTVSPost2010PropOp45
 70
     1
102
RTVSPost2010Prop46
 90
       50
102
RTVSPost2010PropOp46
 70
     1
102
RTVSPost2010Prop47
 90
       50
102
RTVSPost2010PropOp47
 70
     1
102
RTVSPost2010Prop48
 90
       50
102
RTVSPost2010PropOp48
 70
     1
102
RTVSPost2010Prop49
280
     0
102
RTVSPost2010PropOp49
 70
     1
102
RTVSPost2010Prop50
 90
       50
102
RTVSPost2010PropOp50
 70
     1
102
RTVSPost2010Prop51ColorIndex
 90
      256
102
RTVSPost2010Prop51ColorRGB
 90
-16777216
102
RTVSPost2010PropOp51
 70
     0
102
RTVSPost2010Prop52
140
1.0
102
RTVSPost2010PropOp52
 70
     0
102
RTVSPost2010Prop53
 90
        2
102
RTVSPost2010PropOp53
 70
     1
102
RTVSPost2010Prop54
  1
strokes_ogs.tif
102
RTVSPost2010PropOp54
 70
     1
102
RTVSPost2010Prop55
280
     0
102
RTVSPost2010PropOp55
 70
     1
102
RTVSPost2010Prop56
140
1.0
102
RTVSPost2010PropOp56
 70
     1
102
RTVSPost2010Prop57
140
1.0
102
RTVSPost2010PropOp57
 70
     1
  0
XRECORD
  5
1E8
102
{ACAD_REACTORS
330
1E7
102
}
330
1E7
100
AcDbXrecord
280
     1
102
RTVSPost2010Prop28
280
     0
102
RTVSPost2010PropOp28
 70
     1
102
RTVSPost2010Prop29
280
     1
102
RTVSPost2010PropOp29
 70
     1
102
RTVSPost2010Prop30
280
     1
102
RTVSPost2010PropOp30
 70
     1
102
RTVSPost2010Prop31
280
     0
102
RTVSPost2010PropOp31
 70
     1
102
RTVSPost2010Prop32
280
     0
102
RTVSPost2010PropOp32
 70
     1
102
RTVSPost2010Prop33
280
     0
102
RTVSPost2010PropOp33
 70
     1
102
RTVSPost2010Prop34
280
     0
102
RTVSPost2010PropOp34
 70
     1
102
RTVSPost2010Prop35
280
     0
102
RTVSPost2010PropOp35
 70
     1
102
RTVSPost2010Prop36
280
     0
102
RTVSPost2010PropOp36
 70
     1
102
RTVSPost2010Prop37
 90
       50
102
RTVSPost2010PropOp37
 70
     1
102
RTVSPost2010Prop38
140
0.0
102
RTVSPost2010PropOp38
 70
     1
102
RTVSPost2010Prop39
140
1.0
102
RTVSPost2010PropOp39
 70
     1
102
RTVSPost2010Prop40
 90
        0
102
RTVSPost2010PropOp40
 70
     1
102
RTVSPost2010Prop41ColorIndex
 90
       18
102
RTVSPost2010Prop41ColorRGB
 90
        0
102
RTVSPost2010PropOp41
 70
     1
102
RTVSPost2010Prop42
 90
       50
102
RTVSPost2010PropOp42
 70
     1
102
RTVSPost2010Prop43
 90
        3
102
RTVSPost2010PropOp43
 70
     1
102
RTVSPost2010Prop44ColorIndex
 90
        5
102
RTVSPost2010Prop44ColorRGB
 90
      255
102
RTVSPost2010PropOp44
 70
     1
102
RTVSPost2010Prop45
280
     0
102
RTVSPost2010PropOp45
 70
     1
102
RTVSPost2010Prop46
 90
       50
102
RTVSPost2010PropOp46
 70
     1
102
RTVSPost2010Prop47
 90
       50
102
RTVSPost2010PropOp47
 70
     1
102
RTVSPost2010Prop48
 90
       50
102
RTVSPost2010PropOp48
 70
     1
102
RTVSPost2010Prop49
280
     0
102
RTVSPost2010PropOp49
 70
     1
102
RTVSPost2010Prop50
 90
       50
102
RTVSPost2010PropOp50
 70
     1
102
RTVSPost2010Prop51ColorIndex
 90
      256
102
RTVSPost2010Prop51ColorRGB
 90
-16777216
102
RTVSPost2010PropOp51
 70
     0
102
RTVSPost2010Prop52
140
1.0
102
RTVSPost2010PropOp52
 70
     0
102
RTVSPost2010Prop53
 90
        2
102
RTVSPost2010PropOp53
 70
     1
102
RTVSPost2010Prop54
  1
strokes_ogs.tif
102
RTVSPost2010PropOp54
 70
     1
102
RTVSPost2010Prop55
280
     0
102
RTVSPost2010PropOp55
 70
     1
102
RTVSPost2010Prop56
140
1.0
102
RTVSPost2010PropOp56
 70
     1
102
RTVSPost2010Prop57
140
1.0
102
RTVSPost2010PropOp57
 70
     1
  0
XRECORD
  5
1EA
102
{ACAD_REACTORS
330
1E9
102
}
330
1E9
100
AcDbXrecord
280
     1
102
RTVSPost2010Prop28
280
     0
102
RTVSPost2010PropOp28
 70
     1
102
RTVSPost2010Prop29
280
     1
102
RTVSPost2010PropOp29
 70
     1
102
RTVSPost2010Prop30
280
     1
102
RTVSPost2010PropOp30
 70
     1
102
RTVSPost2010Prop31
280
     0
102
RTVSPost2010PropOp31
 70
     1
102
RTVSPost2010Prop32
280
     0
102
RTVSPost2010PropOp32
 70
     1
102
RTVSPost2010Prop33
280
     0
102
RTVSPost2010PropOp33
 70
     1
102
RTVSPost2010Prop34
280
     0
102
RTVSPost2010PropOp34
 70
     1
102
RTVSPost2010Prop35
280
     0
102
RTVSPost2010PropOp35
 70
     1
102
RTVSPost2010Prop36
280
     0
102
RTVSPost2010PropOp36
 70
     1
102
RTVSPost2010Prop37
 90
       50
102
RTVSPost2010PropOp37
 70
     1
102
RTVSPost2010Prop38
140
0.0
102
RTVSPost2010PropOp38
 70
     1
102
RTVSPost2010Prop39
140
1.0
102
RTVSPost2010PropOp39
 70
     1
102
RTVSPost2010Prop40
 90
        0
102
RTVSPost2010PropOp40
 70
     1
102
RTVSPost2010Prop41ColorIndex
 90
       18
102
RTVSPost2010Prop41ColorRGB
 90
        0
102
RTVSPost2010PropOp41
 70
     1
102
RTVSPost2010Prop42
 90
       50
102
RTVSPost2010PropOp42
 70
     1
102
RTVSPost2010Prop43
 90
        3
102
RTVSPost2010PropOp43
 70
     1
102
RTVSPost2010Prop44ColorIndex
 90
        5
102
RTVSPost2010Prop44ColorRGB
 90
      255
102
RTVSPost2010PropOp44
 70
     1
102
RTVSPost2010Prop45
280
     0
102
RTVSPost2010PropOp45
 70
     1
102
RTVSPost2010Prop46
 90
       50
102
RTVSPost2010PropOp46
 70
     1
102
RTVSPost2010Prop47
 90
       50
102
RTVSPost2010PropOp47
 70
     1
102
RTVSPost2010Prop48
 90
       50
102
RTVSPost2010PropOp48
 70
     1
102
RTVSPost2010Prop49
280
     0
102
RTVSPost2010PropOp49
 70
     1
102
RTVSPost2010Prop50
 90
       50
102
RTVSPost2010PropOp50
 70
     1
102
RTVSPost2010Prop51ColorIndex
 90
      256
102
RTVSPost2010Prop51ColorRGB
 90
-16777216
102
RTVSPost2010PropOp51
 70
     0
102
RTVSPost2010Prop52
140
1.0
102
RTVSPost2010PropOp52
 70
     0
102
RTVSPost2010Prop53
 90
        2
102
RTVSPost2010PropOp53
 70
     1
102
RTVSPost2010Prop54
  1
strokes_ogs.tif
102
RTVSPost2010PropOp54
 70
     1
102
RTVSPost2010Prop55
280
     0
102
RTVSPost2010PropOp55
 70
     1
102
RTVSPost2010Prop56
140
1.0
102
RTVSPost2010PropOp56
 70
     1
102
RTVSPost2010Prop57
140
1.0
102
RTVSPost2010PropOp57
 70
     1
  0
XRECORD
  5
1DA
102
{ACAD_REACTORS
330
1D9
102
}
330
1D9
100
AcDbXrecord
280
     1
102
RTVSPost2010Prop28
280
     0
102
RTVSPost2010PropOp28
 70
     1
102
RTVSPost2010Prop29
280
     1
102
RTVSPost2010PropOp29
 70
     1
102
RTVSPost2010Prop30
280
     1
102
RTVSPost2010PropOp30
 70
     1
102
RTVSPost2010Prop31
280
     0
102
RTVSPost2010PropOp31
 70
     1
102
RTVSPost2010Prop32
280
     0
102
RTVSPost2010PropOp32
 70
     1
102
RTVSPost2010Prop33
280
     0
102
RTVSPost2010PropOp33
 70
     1
102
RTVSPost2010Prop34
280
     0
102
RTVSPost2010PropOp34
 70
     1
102
RTVSPost2010Prop35
280
     0
102
RTVSPost2010PropOp35
 70
     1
102
RTVSPost2010Prop36
280
     0
102
RTVSPost2010PropOp36
 70
     1
102
RTVSPost2010Prop37
 90
       50
102
RTVSPost2010PropOp37
 70
     1
102
RTVSPost2010Prop38
140
0.0
102
RTVSPost2010PropOp38
 70
     1
102
RTVSPost2010Prop39
140
1.0
102
RTVSPost2010PropOp39
 70
     1
102
RTVSPost2010Prop40
 90
        0
102
RTVSPost2010PropOp40
 70
     1
102
RTVSPost2010Prop41ColorIndex
 90
       18
102
RTVSPost2010Prop41ColorRGB
 90
        0
102
RTVSPost2010PropOp41
 70
     1
102
RTVSPost2010Prop42
 90
       50
102
RTVSPost2010PropOp42
 70
     1
102
RTVSPost2010Prop43
 90
        3
102
RTVSPost2010PropOp43
 70
     1
102
RTVSPost2010Prop44ColorIndex
 90
        5
102
RTVSPost2010Prop44ColorRGB
 90
      255
102
RTVSPost2010PropOp44
 70
     1
102
RTVSPost2010Prop45
280
     0
102
RTVSPost2010PropOp45
 70
     1
102
RTVSPost2010Prop46
 90
       50
102
RTVSPost2010PropOp46
 70
     1
102
RTVSPost2010Prop47
 90
       50
102
RTVSPost2010PropOp47
 70
     1
102
RTVSPost2010Prop48
 90
       50
102
RTVSPost2010PropOp48
 70
     1
102
RTVSPost2010Prop49
280
     0
102
RTVSPost2010PropOp49
 70
     1
102
RTVSPost2010Prop50
 90
       50
102
RTVSPost2010PropOp50
 70
     1
102
RTVSPost2010Prop51ColorIndex
 90
      256
102
RTVSPost2010Prop51ColorRGB
 90
-16777216
102
RTVSPost2010PropOp51
 70
     0
102
RTVSPost2010Prop52
140
1.0
102
RTVSPost2010PropOp52
 70
     0
102
RTVSPost2010Prop53
 90
        2
102
RTVSPost2010PropOp53
 70
     1
102
RTVSPost2010Prop54
  1
strokes_ogs.tif
102
RTVSPost2010PropOp54
 70
     1
102
RTVSPost2010Prop55
280
     0
102
RTVSPost2010PropOp55
 70
     1
102
RTVSPost2010Prop56
140
1.0
102
RTVSPost2010PropOp56
 70
     1
102
RTVSPost2010Prop57
140
1.0
102
RTVSPost2010PropOp57
 70
     1
  0
XRECORD
  5
1CC
102
{ACAD_REACTORS
330
1CB
102
}
330
1CB
100
AcDbXrecord
280
     1
102
RTVSPost2010Prop28
280
     0
102
RTVSPost2010PropOp28
 70
     1
102
RTVSPost2010Prop29
280
     1
102
RTVSPost2010PropOp29
 70
     1
102
RTVSPost2010Prop30
280
     1
102
RTVSPost2010PropOp30
 70
     1
102
RTVSPost2010Prop31
280
     0
102
RTVSPost2010PropOp31
 70
     1
102
RTVSPost2010Prop32
280
     0
102
RTVSPost2010PropOp32
 70
     1
102
RTVSPost2010Prop33
280
     0
102
RTVSPost2010PropOp33
 70
     1
102
RTVSPost2010Prop34
280
     0
102
RTVSPost2010PropOp34
 70
     1
102
RTVSPost2010Prop35
280
     0
102
RTVSPost2010PropOp35
 70
     1
102
RTVSPost2010Prop36
280
     0
102
RTVSPost2010PropOp36
 70
     1
102
RTVSPost2010Prop37
 90
       50
102
RTVSPost2010PropOp37
 70
     1
102
RTVSPost2010Prop38
140
0.0
102
RTVSPost2010PropOp38
 70
     1
102
RTVSPost2010Prop39
140
1.0
102
RTVSPost2010PropOp39
 70
     1
102
RTVSPost2010Prop40
 90
        0
102
RTVSPost2010PropOp40
 70
     1
102
RTVSPost2010Prop41ColorIndex
 90
       18
102
RTVSPost2010Prop41ColorRGB
 90
        0
102
RTVSPost2010PropOp41
 70
     1
102
RTVSPost2010Prop42
 90
       50
102
RTVSPost2010PropOp42
 70
     1
102
RTVSPost2010Prop43
 90
        3
102
RTVSPost2010PropOp43
 70
     1
102
RTVSPost2010Prop44ColorIndex
 90
        5
102
RTVSPost2010Prop44ColorRGB
 90
      255
102
RTVSPost2010PropOp44
 70
     1
102
RTVSPost2010Prop45
280
     0
102
RTVSPost2010PropOp45
 70
     1
102
RTVSPost2010Prop46
 90
       50
102
RTVSPost2010PropOp46
 70
     1
102
RTVSPost2010Prop47
 90
       50
102
RTVSPost2010PropOp47
 70
     1
102
RTVSPost2010Prop48
 90
       50
102
RTVSPost2010PropOp48
 70
     1
102
RTVSPost2010Prop49
280
     0
102
RTVSPost2010PropOp49
 70
     1
102
RTVSPost2010Prop50
 90
       50
102
RTVSPost2010PropOp50
 70
     1
102
RTVSPost2010Prop51ColorIndex
 90
      256
102
RTVSPost2010Prop51ColorRGB
 90
-16777216
102
RTVSPost2010PropOp51
 70
     0
102
RTVSPost2010Prop52
140
1.0
102
RTVSPost2010PropOp52
 70
     0
102
RTVSPost2010Prop53
 90
        2
102
RTVSPost2010PropOp53
 70
     1
102
RTVSPost2010Prop54
  1
strokes_ogs.tif
102
RTVSPost2010PropOp54
 70
     1
102
RTVSPost2010Prop55
280
     0
102
RTVSPost2010PropOp55
 70
     1
102
RTVSPost2010Prop56
140
1.0
102
RTVSPost2010PropOp56
 70
     1
102
RTVSPost2010Prop57
140
1.0
102
RTVSPost2010PropOp57
 70
     1
  0
XRECORD
  5
1EC
102
{ACAD_REACTORS
330
1EB
102
}
330
1EB
100
AcDbXrecord
280
     1
102
RTVSPost2010Prop28
280
     0
102
RTVSPost2010PropOp28
 70
     1
102
RTVSPost2010Prop29
280
     1
102
RTVSPost2010PropOp29
 70
     1
102
RTVSPost2010Prop30
280
     1
102
RTVSPost2010PropOp30
 70
     1
102
RTVSPost2010Prop31
280
     0
102
RTVSPost2010PropOp31
 70
     1
102
RTVSPost2010Prop32
280
     0
102
RTVSPost2010PropOp32
 70
     1
102
RTVSPost2010Prop33
280
     0
102
RTVSPost2010PropOp33
 70
     1
102
RTVSPost2010Prop34
280
     0
102
RTVSPost2010PropOp34
 70
     1
102
RTVSPost2010Prop35
280
     0
102
RTVSPost2010PropOp35
 70
     1
102
RTVSPost2010Prop36
280
     0
102
RTVSPost2010PropOp36
 70
     1
102
RTVSPost2010Prop37
 90
       50
102
RTVSPost2010PropOp37
 70
     1
102
RTVSPost2010Prop38
140
0.0
102
RTVSPost2010PropOp38
 70
     1
102
RTVSPost2010Prop39
140
1.0
102
RTVSPost2010PropOp39
 70
     1
102
RTVSPost2010Prop40
 90
        0
102
RTVSPost2010PropOp40
 70
     1
102
RTVSPost2010Prop41ColorIndex
 90
       18
102
RTVSPost2010Prop41ColorRGB
 90
        0
102
RTVSPost2010PropOp41
 70
     1
102
RTVSPost2010Prop42
 90
       50
102
RTVSPost2010PropOp42
 70
     1
102
RTVSPost2010Prop43
 90
        3
102
RTVSPost2010PropOp43
 70
     1
102
RTVSPost2010Prop44ColorIndex
 90
        5
102
RTVSPost2010Prop44ColorRGB
 90
      255
102
RTVSPost2010PropOp44
 70
     1
102
RTVSPost2010Prop45
280
     0
102
RTVSPost2010PropOp45
 70
     1
102
RTVSPost2010Prop46
 90
       50
102
RTVSPost2010PropOp46
 70
     1
102
RTVSPost2010Prop47
 90
       50
102
RTVSPost2010PropOp47
 70
     1
102
RTVSPost2010Prop48
 90
       50
102
RTVSPost2010PropOp48
 70
     1
102
RTVSPost2010Prop49
280
     0
102
RTVSPost2010PropOp49
 70
     1
102
RTVSPost2010Prop50
 90
       50
102
RTVSPost2010PropOp50
 70
     1
102
RTVSPost2010Prop51ColorIndex
 90
      256
102
RTVSPost2010Prop51ColorRGB
 90
-16777216
102
RTVSPost2010PropOp51
 70
     0
102
RTVSPost2010Prop52
140
1.0
102
RTVSPost2010PropOp52
 70
     0
102
RTVSPost2010Prop53
 90
        2
102
RTVSPost2010PropOp53
 70
     1
102
RTVSPost2010Prop54
  1
strokes_ogs.tif
102
RTVSPost2010PropOp54
 70
     1
102
RTVSPost2010Prop55
280
     0
102
RTVSPost2010PropOp55
 70
     1
102
RTVSPost2010Prop56
140
1.0
102
RTVSPost2010PropOp56
 70
     1
102
RTVSPost2010Prop57
140
1.0
102
RTVSPost2010PropOp57
 70
     1
  0
ENDSEC
  0
EOF
