  0
SECTION
  2
HEADER
  9
$ACADVER
  1
AC1024
  9
$ACADMAINTVER
 70
     6
  9
$DWGCODEPAGE
  3
ANSI_932
  9
$INSBASE
 10
0.0
 20
0.0
 30
0.0
  9
$EXTMIN
 10
-677.162629
 20
-856.68087
 30
1.000000000000000E+20
  9
$EXTMAX
 10
898.152585
 20
1153.050722
 30
-1.000000000000000E+20
  9
$LIMMIN
 10
-677.162629
 20
-856.68087
  9
$LIMMAX
 10
898.152585
 20
1153.050722
  9
$ORTHOMODE
 70
     0
  9
$REGENMODE
 70
     1
  9
$FILLMODE
 70
     1
  9
$QTEXTMODE
 70
     0
  9
$MIRRTEXT
 70
     1
  9
$LTSCALE
 40
1.0
  9
$ATTMODE
 70
     1
  9
$TEXTSIZE
 40
0.0
  9
$TRACEWID
 40
0.05
  9
$TEXTSTYLE
  7
Standard
  9
$CLAYER
  8
0
  9
$CELTYPE
  6
Continuous
  9
$CECOLOR
 62
   256
  9
$CELTSCALE
 40
1.0
  9
$DISPSILH
 70
     0
  9
$DIMSCALE
 40
1.0
  9
$DIMASZ
 40
0.18
  9
$DIMEXO
 40
0.0625
  9
$DIMDLI
 40
0.38
  9
$DIMRND
 40
0.0
  9
$DIMDLE
 40
0.0
  9
$DIMEXE
 40
0.18
  9
$DIMTP
 40
0.0
  9
$DIMTM
 40
0.0
  9
$DIMTXT
 40
0.18
  9
$DIMCEN
 40
0.09
  9
$DIMTSZ
 40
0.0
  9
$DIMTOL
 70
     0
  9
$DIMLIM
 70
     0
  9
$DIMTIH
 70
     1
  9
$DIMTOH
 70
     1
  9
$DIMSE1
 70
     0
  9
$DIMSE2
 70
     0
  9
$DIMTAD
 70
     0
  9
$DIMZIN
 70
     0
  9
$DIMBLK
  1

  9
$DIMASO
 70
     1
  9
$DIMSHO
 70
     1
  9
$DIMPOST
  1

  9
$DIMAPOST
  1

  9
$DIMALT
 70
     0
  9
$DIMALTD
 70
     2
  9
$DIMALTF
 40
25.4
  9
$DIMLFAC
 40
1.0
  9
$DIMTOFL
 70
     0
  9
$DIMTVP
 40
0.0
  9
$DIMTIX
 70
     0
  9
$DIMSOXD
 70
     0
  9
$DIMSAH
 70
     0
  9
$DIMBLK1
  1

  9
$DIMBLK2
  1

  9
$DIMSTYLE
  2
Standard
  9
$DIMCLRD
 70
     0
  9
$DIMCLRE
 70
     0
  9
$DIMCLRT
 70
     0
  9
$DIMTFAC
 40
1.0
  9
$DIMGAP
 40
0.09
  9
$DIMJUST
 70
     0
  9
$DIMSD1
 70
     0
  9
$DIMSD2
 70
     0
  9
$DIMTOLJ
 70
     1
  9
$DIMTZIN
 70
     0
  9
$DIMALTZ
 70
     0
  9
$DIMALTTZ
 70
     0
  9
$DIMUPT
 70
     0
  9
$DIMDEC
 70
     4
  9
$DIMTDEC
 70
     4
  9
$DIMALTU
 70
     2
  9
$DIMALTTD
 70
     2
  9
$DIMTXSTY
  7
Standard
  9
$DIMAUNIT
 70
     0
  9
$DIMADEC
 70
     0
  9
$DIMALTRND
 40
0.0
  9
$DIMAZIN
 70
     0
  9
$DIMDSEP
 70
     0
  9
$DIMATFIT
 70
     3
  9
$DIMFRAC
 70
     0
  9
$DIMLDRBLK
  1

  9
$DIMLUNIT
 70
     2
  9
$DIMLWD
 70
     0
  9
$DIMLWE
 70
     0
  9
$DIMTMOVE
 70
     0
  9
$DIMFXL
 40
1.0
  9
$DIMFXLON
 70
     0
  9
$DIMJOGANG
 40
0.7853981633974483
  9
$DIMTFILL
 70
     0
  9
$DIMTFILLCLR
 70
     0
  9
$DIMARCSYM
 70
     0
  9
$DIMLTYPE
  6

  9
$DIMLTEX1
  6

  9
$DIMLTEX2
  6

  9
$DIMTXTDIRECTION
 70
     0
  9
$LUNITS
 70
     2
  9
$LUPREC
 70
     4
  9
$SKETCHINC
 40
0.1
  9
$FILLETRAD
 40
0.0
  9
$AUNITS
 70
     0
  9
$AUPREC
 70
     0
  9
$MENU
  1
acad
  9
$ELEVATION
 40
0.0
  9
$PELEVATION
 40
0.0
  9
$THICKNESS
 40
0.0
  9
$LIMCHECK
 70
     0
  9
$CHAMFERA
 40
0.0
  9
$CHAMFERB
 40
0.0
  9
$CHAMFERC
 40
0.0
  9
$CHAMFERD
 40
0.0
  9
$SKPOLY
 70
     0
  9
$TDCREATE
 40
2447893.041666667
  9
$TDUCREATE
 40
0.0
  9
$TDUPDATE
 40
2457234.640816065
  9
$TDUUPDATE
 40
2457234.599149398
  9
$TDINDWG
 40
0.0
  9
$TDUSRTIMER
 40
0.0
  9
$USRTIMER
 70
     1
  9
$ANGBASE
 50
0.0
  9
$ANGDIR
 70
     0
  9
$PDMODE
 70
     0
  9
$PDSIZE
 40
0.0
  9
$PLINEWID
 40
0.0
  9
$SPLFRAME
 70
     0
  9
$SPLINETYPE
 70
     6
  9
$SPLINESEGS
 70
     8
  9
$HANDSEED
  5
3AC
  9
$SURFTAB1
 70
     6
  9
$SURFTAB2
 70
     6
  9
$SURFTYPE
 70
     6
  9
$SURFU
 70
     6
  9
$SURFV
 70
     6
  9
$UCSBASE
  2

  9
$UCSNAME
  2

  9
$UCSORG
 10
0.0
 20
0.0
 30
0.0
  9
$UCSXDIR
 10
1.0
 20
0.0
 30
0.0
  9
$UCSYDIR
 10
0.0
 20
1.0
 30
0.0
  9
$UCSORTHOREF
  2

  9
$UCSORTHOVIEW
 70
     0
  9
$UCSORGTOP
 10
0.0
 20
0.0
 30
0.0
  9
$UCSORGBOTTOM
 10
0.0
 20
0.0
 30
0.0
  9
$UCSORGLEFT
 10
0.0
 20
0.0
 30
0.0
  9
$UCSORGRIGHT
 10
0.0
 20
0.0
 30
0.0
  9
$UCSORGFRONT
 10
0.0
 20
0.0
 30
0.0
  9
$UCSORGBACK
 10
0.0
 20
0.0
 30
0.0
  9
$PUCSBASE
  2

  9
$PUCSNAME
  2

  9
$PUCSORG
 10
0.0
 20
0.0
 30
0.0
  9
$PUCSXDIR
 10
1.0
 20
0.0
 30
0.0
  9
$PUCSYDIR
 10
0.0
 20
1.0
 30
0.0
  9
$PUCSORTHOREF
  2

  9
$PUCSORTHOVIEW
 70
     0
  9
$PUCSORGTOP
 10
0.0
 20
0.0
 30
0.0
  9
$PUCSORGBOTTOM
 10
0.0
 20
0.0
 30
0.0
  9
$PUCSORGLEFT
 10
0.0
 20
0.0
 30
0.0
  9
$PUCSORGRIGHT
 10
0.0
 20
0.0
 30
0.0
  9
$PUCSORGFRONT
 10
0.0
 20
0.0
 30
0.0
  9
$PUCSORGBACK
 10
0.0
 20
0.0
 30
0.0
  9
$USERI1
 70
     0
  9
$USERI2
 70
     0
  9
$USERI3
 70
     0
  9
$USERI4
 70
     0
  9
$USERI5
 70
     0
  9
$USERR1
 40
0.0
  9
$USERR2
 40
0.0
  9
$USERR3
 40
0.0
  9
$USERR4
 40
0.0
  9
$USERR5
 40
0.0
  9
$WORLDVIEW
 70
     1
  9
$SHADEDGE
 70
     3
  9
$SHADEDIF
 70
    70
  9
$TILEMODE
 70
     1
  9
$MAXACTVP
 70
    16
  9
$PINSBASE
 10
0.0
 20
0.0
 30
0.0
  9
$PLIMCHECK
 70
     0
  9
$PEXTMIN
 10
1.000000000000000E+20
 20
1.000000000000000E+20
 30
1.000000000000000E+20
  9
$PEXTMAX
 10
-1.000000000000000E+20
 20
-1.000000000000000E+20
 30
-1.000000000000000E+20
  9
$PLIMMIN
 10
0.0
 20
0.0
  9
$PLIMMAX
 10
12.0
 20
9.0
  9
$UNITMODE
 70
     0
  9
$VISRETAIN
 70
     0
  9
$PLINEGEN
 70
     1
  9
$PSLTSCALE
 70
     0
  9
$TREEDEPTH
 70
  3020
  9
$CMLSTYLE
  2
Standard
  9
$CMLJUST
 70
     0
  9
$CMLSCALE
 40
1.0
  9
$PROXYGRAPHICS
 70
     0
  9
$MEASUREMENT
 70
     0
  9
$CELWEIGHT
370
     0
  9
$ENDCAPS
280
     0
  9
$JOINSTYLE
280
     0
  9
$LWDISPLAY
290
     0
  9
$INSUNITS
 70
     0
  9
$HYPERLINKBASE
  1

  9
$STYLESHEET
  1

  9
$XEDIT
290
     1
  9
$CEPSNTYPE
380
     0
  9
$PSTYLEMODE
290
     1
  9
$FINGERPRINTGUID
  2

  9
$VERSIONGUID
  2

  9
$EXTNAMES
290
     1
  9
$PSVPSCALE
 40
0.0
  9
$OLESTARTUP
290
     0
  9
$SORTENTS
280
   127
  9
$INDEXCTL
280
     0
  9
$HIDETEXT
280
     1
  9
$XCLIPFRAME
280
     2
  9
$HALOGAP
280
     0
  9
$OBSCOLOR
 70
   257
  9
$OBSLTYPE
280
     0
  9
$INTERSECTIONDISPLAY
280
     0
  9
$INTERSECTIONCOLOR
 70
   257
  9
$DIMASSOC
280
     2
  9
$PROJECTNAME
  1

  9
$CAMERADISPLAY
290
     0
  9
$LENSLENGTH
 40
50.0
  9
$CAMERAHEIGHT
 40
0.0
  9
$STEPSPERSEC
 40
2.0
  9
$STEPSIZE
 40
6.0
  9
$3DDWFPREC
 40
2.0
  9
$PSOLWIDTH
 40
0.25
  9
$PSOLHEIGHT
 40
4.0
  9
$LOFTANG1
 40
1.570796326794897
  9
$LOFTANG2
 40
1.570796326794897
  9
$LOFTMAG1
 40
0.0
  9
$LOFTMAG2
 40
0.0
  9
$LOFTPARAM
 70
     7
  9
$LOFTNORMALS
280
     1
  9
$LATITUDE
 40
37.795
  9
$LONGITUDE
 40
-122.394
  9
$NORTHDIRECTION
 40
0.0
  9
$TIMEZONE
 70
 -8000
  9
$LIGHTGLYPHDISPLAY
280
     1
  9
$TILEMODELIGHTSYNCH
280
     1
  9
$SOLIDHIST
280
     0
  9
$SHOWHIST
280
     1
  9
$DWFFRAME
280
     2
  9
$DGNFRAME
280
     2
  9
$REALWORLDSCALE
290
     1
  9
$INTERFERECOLOR
 62
   256
  9
$CSHADOW
280
     0
  9
$SHADOWPLANELOCATION
 40
0.0
  0
ENDSEC
  0
SECTION
  2
CLASSES
  0
CLASS
  1
LWPOLYLINE
  2
AcDbPolyline
  3
ObjectDBX Classes
 90
        0
 91
        1
280
     0
281
     1
  0
CLASS
  1
IMAGE
  2
AcDbRasterImage
  3
ISM
 90
      127
 91
        5
280
     0
281
     1
  0
CLASS
  1
OLE2FRAME
  2
AcDbOle2Frame
  3
ObjectDBX Classes
 90
        0
 91
        1
280
     0
281
     1
  0
CLASS
  1
HATCH
  2
AcDbHatch
  3
ObjectDBX Classes
 90
        0
 91
        1
280
     0
281
     1
  0
CLASS
  1
DICTIONARYVAR
  2
AcDbDictionaryVar
  3
ObjectDBX Classes
 90
        0
 91
        4
280
     0
281
     0
  0
CLASS
  1
RASTERVARIABLES
  2
AcDbRasterVariables
  3
ISM
 90
        0
 91
        4
280
     0
281
     0
  0
CLASS
  1
IMAGEDEF
  2
AcDbRasterImageDef
  3
ISM
 90
        0
 91
        4
280
     0
281
     0
  0
CLASS
  1
IMAGEDEF_REACTOR
  2
AcDbRasterImageDefReactor
  3
ISM
 90
        1
 91
        4
280
     0
281
     0
  0
CLASS
  1
IDBUFFER
  2
AcDbIdBuffer
  3
ObjectDBX Classes
 90
        0
 91
        4
280
     0
281
     0
  0
CLASS
  1
SPATIAL_FILTER
  2
AcDbSpatialFilter
  3
ObjectDBX Classes
 90
        0
 91
        4
280
     0
281
     0
  0
CLASS
  1
XRECORD
  2
AcDbXrecord
  3
ObjectDBX Classes
 90
        0
 91
        1
280
     0
281
     0
  0
CLASS
  1
SORTENTSTABLE
  2
AcDbSortentsTable
  3
ObjectDBX Classes
 90
        0
 91
        4
280
     0
281
     0
  0
CLASS
  1
LAYER_INDEX
  2
AcDbLayerIndex
  3
ObjectDBX Classes
 90
        0
 91
        4
280
     0
281
     0
  0
CLASS
  1
SPATIAL_INDEX
  2
AcDbSpatialIndex
  3
AutoCAD 2000
 90
        0
 91
        4
280
     0
281
     0
  0
CLASS
  1
OBJECT_PTR
  2
CAseDLPNTableRecord
  3
ASE-LPNTableRecord
 90
        1
 91
        4
280
     0
281
     0
  0
CLASS
  1
LAYOUT
  2
AcDbLayout
  3
ObjectDBX Classes
 90
        0
 91
        1
280
     0
281
     0
  0
CLASS
  1
PLOTSETTINGS
  2
AcDbPlotSettings
  3
ObjectDBX Classes
 90
        0
 91
        4
280
     0
281
     0
  0
CLASS
  1
ACDBDICTIONARYWDFLT
  2
AcDbDictionaryWithDefault
  3
ObjectDBX Classes
 90
        0
 91
        4
280
     0
281
     0
  0
CLASS
  1
ACDBPLACEHOLDER
  2
AcDbPlaceHolder
  3
ObjectDBX Classes
 90
        0
 91
        1
280
     0
281
     0
  0
CLASS
  1
VBA_PROJECT
  2
AcDbVbaProject
  3
ObjectDBX Classes
 90
        0
 91
        1
280
     0
281
     0
  0
CLASS
  1
WIPEOUT
  2
AcDbWipeout
  3
WipeOut|AutoCAD Express Tool|expresstools@autodesk.com
 90
      127
 91
        4
280
     0
281
     1
  0
CLASS
  1
WIPEOUTVARIABLES
  2
AcDbWipeoutVariables
  3
WipeOut|AutoCAD Express Tool|expresstools@autodesk.com
 90
        0
 91
        4
280
     0
281
     0
  0
CLASS
  1
RTEXT
  2
RText
  3
RText|AutoCAD Express Tool|expresstools@autodesk.com
 90
        0
 91
        4
280
     0
281
     1
  0
CLASS
  1
ARCALIGNEDTEXT
  2
AcDbArcAlignedText
  3
ATEXT|AutoCAD Express Tool|expresstools@autodesk.com
 90
        0
 91
        4
280
     0
281
     1
  0
CLASS
  1
SCALE
  2
AcDbScale
  3
ObjectDBX Classes
 90
     1153
 91
        4
280
     0
281
     0
  0
CLASS
  1
VISUALSTYLE
  2
AcDbVisualStyle
  3
ObjectDBX Classes
 90
     4095
 91
        4
280
     0
281
     0
  0
CLASS
  1
MATERIAL
  2
AcDbMaterial
  3
ObjectDBX Classes
 90
     1153
 91
        4
280
     0
281
     0
  0
CLASS
  1
TABLESTYLE
  2
AcDbTableStyle
  3
ObjectDBX Classes
 90
     4095
 91
        4
280
     0
281
     0
  0
CLASS
  1
MLEADERSTYLE
  2
AcDbMLeaderStyle
  3
ACDB_MLEADERSTYLE_CLASS
 90
     4095
 91
        4
280
     0
281
     0
  0
CLASS
  1
CELLSTYLEMAP
  2
AcDbCellStyleMap
  3
ObjectDBX Classes
 90
     1152
 91
        4
280
     0
281
     0
  0
ENDSEC
  0
SECTION
  2
TABLES
  0
TABLE
  2
VPORT
  5
7
330
0
100
AcDbSymbolTable
 70
     1
  0
VPORT
  5
15
330
7
100
AcDbSymbolTableRecord
100
AcDbViewportTableRecord
  2
*ACTIVE
 70
     0
 10
0.0
 20
0.0
 11
1.0
 21
1.0
 12
6.591288
 22
4.579184
 13
0.0
 23
0.0
 14
1.0
 24
1.0
 15
0.0
 25
0.0
 16
0.0
 26
0.0
 36
1.0
 17
0.0
 27
0.0
 37
0.0
 40
9.158369
 41
0.688564
 42
50.0
 43
0.0
 44
0.0
 50
0.0
 51
0.0
 71
     0
 72
   100
 73
     1
 74
     1
 75
     0
 76
     0
 77
     0
 78
     0
281
     0
 65
     0
110
0.0
120
0.0
130
0.0
111
1.0
121
0.0
131
0.0
112
0.0
122
1.0
132
0.0
 79
     0
146
0.0
348
356
 60
     3
 61
     5
292
     1
282
     1
141
0.0
142
0.0
 63
   256
  0
ENDTAB
  0
TABLE
  2
LTYPE
  5
4
330
0
100
AcDbSymbolTable
 70
     5
  0
LTYPE
  5
11
330
4
100
AcDbSymbolTableRecord
100
AcDbLinetypeTableRecord
  2
ByBlock
 70
     0
  3

 72
    65
 73
     0
 40
0.0
  0
LTYPE
  5
12
330
4
100
AcDbSymbolTableRecord
100
AcDbLinetypeTableRecord
  2
ByLayer
 70
     0
  3

 72
    65
 73
     0
 40
0.0
  0
LTYPE
  5
13
330
4
100
AcDbSymbolTableRecord
100
AcDbLinetypeTableRecord
  2
Continuous
 70
     0
  3
Solid line
 72
    65
 73
     0
 40
0.0
  0
LTYPE
  5
2B
330
4
100
AcDbSymbolTableRecord
100
AcDbLinetypeTableRecord
  2
AI9-LType1
 70
     0
  3
Illustrator Dash Style No.1
 72
    65
 73
     4
 40
4.586111
 49
2.116667
 74
     0
 49
-1.058333
 74
     0
 49
0.352778
 74
     0
 49
-1.058333
 74
     0
  0
LTYPE
  5
37
330
4
100
AcDbSymbolTableRecord
100
AcDbLinetypeTableRecord
  2
AI9-LType2
 70
     0
  3
Illustrator Dash Style No.2
 72
    65
 73
     4
 40
3.175
 49
1.411111
 74
     0
 49
-0.705556
 74
     0
 49
0.352778
 74
     0
 49
-0.705556
 74
     0
  0
LTYPE
  5
3E
330
4
100
AcDbSymbolTableRecord
100
AcDbLinetypeTableRecord
  2
AI9-LType3
 70
     0
  3
Illustrator Dash Style No.3
 72
    65
 73
     4
 40
5.644444
 49
1.411111
 74
     0
 49
-1.411111
 74
     0
 49
1.411111
 74
     0
 49
-1.411111
 74
     0
  0
LTYPE
  5
83
330
4
100
AcDbSymbolTableRecord
100
AcDbLinetypeTableRecord
  2
AI9-LType4
 70
     0
  3
Illustrator Dash Style No.4
 72
    65
 73
     4
 40
7.055556
 49
2.116667
 74
     0
 49
-1.411111
 74
     0
 49
2.116667
 74
     0
 49
-1.411111
 74
     0
  0
ENDTAB
  0
TABLE
  2
LAYER
  5
2
330
0
100
AcDbSymbolTable
 70
     2
  0
LAYER
  5
14
330
2
100
AcDbSymbolTableRecord
100
AcDbLayerTableRecord
  2
0
 70
     0
 62
     7
  6
Continuous
370
    -3
390
1D
347
36D
  0
LAYER
  5
28
330
2
100
AcDbSymbolTableRecord
100
AcDbLayerTableRecord
  2
LAYER_1
 70
     0
 62
   160
  6
Continuous
370
    -3
390
1D
347
36D
  0
ENDTAB
  0
TABLE
  2
STYLE
  5
3
330
0
100
AcDbSymbolTable
 70
     5
  0
STYLE
  5
17
330
3
100
AcDbSymbolTableRecord
100
AcDbTextStyleTableRecord
  2
Standard
 70
     0
 40
0.0
 41
1.0
 50
0.0
 71
     0
 42
0.0
  3
txt
  4

  0
STYLE
  5
24
330
3
100
AcDbSymbolTableRecord
100
AcDbTextStyleTableRecord
  2
STD
 70
     0
 40
0.0
 41
1.0
 50
0.0
 71
     0
 42
0.0
  3
txt
  4

  0
STYLE
  5
25
330
3
100
AcDbSymbolTableRecord
100
AcDbTextStyleTableRecord
  2
TATESTD
 70
     4
 40
0.0
 41
1.0
 50
0.0
 71
     0
 42
0.0
  3
txt
  4

  0
STYLE
  5
26
330
3
100
AcDbSymbolTableRecord
100
AcDbTextStyleTableRecord
  2
KANJISTD
 70
     0
 40
0.0
 41
1.0
 50
0.0
 71
     0
 42
0.0
  3
txt
  4
extfont
  0
STYLE
  5
27
330
3
100
AcDbSymbolTableRecord
100
AcDbTextStyleTableRecord
  2
KANJITATE
 70
     4
 40
0.0
 41
1.0
 50
0.0
 71
     0
 42
0.0
  3
txt
  4
extfont
  0
ENDTAB
  0
TABLE
  2
VIEW
  5
5
330
0
100
AcDbSymbolTable
 70
     0
  0
ENDTAB
  0
TABLE
  2
UCS
  5
6
330
0
100
AcDbSymbolTable
 70
     0
  0
ENDTAB
  0
TABLE
  2
APPID
  5
8
330
0
100
AcDbSymbolTable
 70
     1
  0
APPID
  5
16
330
8
100
AcDbSymbolTableRecord
100
AcDbRegAppTableRecord
  2
ACAD
 70
     0
  0
ENDTAB
  0
TABLE
  2
DIMSTYLE
  5
9
330
0
100
AcDbSymbolTable
 70
     1
100
AcDbDimStyleTable
  0
DIMSTYLE
105
18
330
9
100
AcDbSymbolTableRecord
100
AcDbDimStyleTableRecord
  2
Standard
 70
     0
178
     0
340
17
  0
ENDTAB
  0
TABLE
  2
BLOCK_RECORD
  5
1
330
0
100
AcDbSymbolTable
 70
   135
  0
BLOCK_RECORD
  5
A
330
1
100
AcDbSymbolTableRecord
100
AcDbBlockTableRecord
  2
*MODEL_SPACE
340
20
 70
     0
280
     1
281
     0
  0
BLOCK_RECORD
  5
B
330
1
100
AcDbSymbolTableRecord
100
AcDbBlockTableRecord
  2
*PAPER_SPACE
340
21
 70
     0
280
     1
281
     0
  0
BLOCK_RECORD
  5
46
330
1
100
AcDbSymbolTableRecord
100
AcDbBlockTableRecord
  2
AI9-BLK1
340
0
102
{BLKREFS
331
47
102
}
 70
     0
280
     1
281
     0
  0
BLOCK_RECORD
  5
49
330
1
100
AcDbSymbolTableRecord
100
AcDbBlockTableRecord
  2
AI9-BLK2
340
0
102
{BLKREFS
331
4A
102
}
 70
     0
280
     1
281
     0
  0
BLOCK_RECORD
  5
4C
330
1
100
AcDbSymbolTableRecord
100
AcDbBlockTableRecord
  2
AI9-BLK3
340
0
102
{BLKREFS
331
4D
102
}
 70
     0
280
     1
281
     0
  0
BLOCK_RECORD
  5
4F
330
1
100
AcDbSymbolTableRecord
100
AcDbBlockTableRecord
  2
AI9-BLK4
340
0
102
{BLKREFS
331
50
102
}
 70
     0
280
     1
281
     0
  0
BLOCK_RECORD
  5
52
330
1
100
AcDbSymbolTableRecord
100
AcDbBlockTableRecord
  2
AI9-BLK5
340
0
102
{BLKREFS
331
53
102
}
 70
     0
280
     1
281
     0
  0
BLOCK_RECORD
  5
5D
330
1
100
AcDbSymbolTableRecord
100
AcDbBlockTableRecord
  2
AI9-BLK6
340
0
102
{BLKREFS
331
5E
102
}
 70
     0
280
     1
281
     0
  0
BLOCK_RECORD
  5
60
330
1
100
AcDbSymbolTableRecord
100
AcDbBlockTableRecord
  2
AI9-BLK7
340
0
102
{BLKREFS
331
61
102
}
 70
     0
280
     1
281
     0
  0
BLOCK_RECORD
  5
63
330
1
100
AcDbSymbolTableRecord
100
AcDbBlockTableRecord
  2
AI9-BLK8
340
0
102
{BLKREFS
331
64
102
}
 70
     0
280
     1
281
     0
  0
BLOCK_RECORD
  5
66
330
1
100
AcDbSymbolTableRecord
100
AcDbBlockTableRecord
  2
AI9-BLK9
340
0
102
{BLKREFS
331
67
102
}
 70
     0
280
     1
281
     0
  0
BLOCK_RECORD
  5
69
330
1
100
AcDbSymbolTableRecord
100
AcDbBlockTableRecord
  2
AI9-BLK10
340
0
102
{BLKREFS
331
6A
102
}
 70
     0
280
     1
281
     0
  0
BLOCK_RECORD
  5
8F
330
1
100
AcDbSymbolTableRecord
100
AcDbBlockTableRecord
  2
AI9-BLK11
340
0
102
{BLKREFS
331
90
102
}
 70
     0
280
     1
281
     0
  0
BLOCK_RECORD
  5
96
330
1
100
AcDbSymbolTableRecord
100
AcDbBlockTableRecord
  2
AI9-BLK12
340
0
102
{BLKREFS
331
97
102
}
 70
     0
280
     1
281
     0
  0
BLOCK_RECORD
  5
99
330
1
100
AcDbSymbolTableRecord
100
AcDbBlockTableRecord
  2
AI9-BLK13
340
0
102
{BLKREFS
331
9A
102
}
 70
     0
280
     1
281
     0
  0
BLOCK_RECORD
  5
9E
330
1
100
AcDbSymbolTableRecord
100
AcDbBlockTableRecord
  2
AI9-BLK14
340
0
102
{BLKREFS
331
9F
102
}
 70
     0
280
     1
281
     0
  0
BLOCK_RECORD
  5
A3
330
1
100
AcDbSymbolTableRecord
100
AcDbBlockTableRecord
  2
AI9-BLK15
340
0
102
{BLKREFS
331
A4
102
}
 70
     0
280
     1
281
     0
  0
BLOCK_RECORD
  5
A8
330
1
100
AcDbSymbolTableRecord
100
AcDbBlockTableRecord
  2
AI9-BLK16
340
0
102
{BLKREFS
331
A9
102
}
 70
     0
280
     1
281
     0
  0
BLOCK_RECORD
  5
AD
330
1
100
AcDbSymbolTableRecord
100
AcDbBlockTableRecord
  2
AI9-BLK17
340
0
102
{BLKREFS
331
AE
102
}
 70
     0
280
     1
281
     0
  0
BLOCK_RECORD
  5
B2
330
1
100
AcDbSymbolTableRecord
100
AcDbBlockTableRecord
  2
AI9-BLK18
340
0
102
{BLKREFS
331
B3
102
}
 70
     0
280
     1
281
     0
  0
BLOCK_RECORD
  5
B7
330
1
100
AcDbSymbolTableRecord
100
AcDbBlockTableRecord
  2
AI9-BLK19
340
0
102
{BLKREFS
331
B8
102
}
 70
     0
280
     1
281
     0
  0
BLOCK_RECORD
  5
BC
330
1
100
AcDbSymbolTableRecord
100
AcDbBlockTableRecord
  2
AI9-BLK20
340
0
102
{BLKREFS
331
BD
102
}
 70
     0
280
     1
281
     0
  0
BLOCK_RECORD
  5
C1
330
1
100
AcDbSymbolTableRecord
100
AcDbBlockTableRecord
  2
AI9-BLK21
340
0
102
{BLKREFS
331
C2
102
}
 70
     0
280
     1
281
     0
  0
BLOCK_RECORD
  5
C6
330
1
100
AcDbSymbolTableRecord
100
AcDbBlockTableRecord
  2
AI9-BLK22
340
0
102
{BLKREFS
331
C7
102
}
 70
     0
280
     1
281
     0
  0
BLOCK_RECORD
  5
CB
330
1
100
AcDbSymbolTableRecord
100
AcDbBlockTableRecord
  2
AI9-BLK23
340
0
102
{BLKREFS
331
CC
102
}
 70
     0
280
     1
281
     0
  0
BLOCK_RECORD
  5
D0
330
1
100
AcDbSymbolTableRecord
100
AcDbBlockTableRecord
  2
AI9-BLK24
340
0
102
{BLKREFS
331
D1
102
}
 70
     0
280
     1
281
     0
  0
BLOCK_RECORD
  5
D6
330
1
100
AcDbSymbolTableRecord
100
AcDbBlockTableRecord
  2
AI9-BLK25
340
0
102
{BLKREFS
331
D7
102
}
 70
     0
280
     1
281
     0
  0
BLOCK_RECORD
  5
D9
330
1
100
AcDbSymbolTableRecord
100
AcDbBlockTableRecord
  2
AI9-BLK26
340
0
102
{BLKREFS
331
DA
102
}
 70
     0
280
     1
281
     0
  0
BLOCK_RECORD
  5
DE
330
1
100
AcDbSymbolTableRecord
100
AcDbBlockTableRecord
  2
AI9-BLK27
340
0
102
{BLKREFS
331
DF
102
}
 70
     0
280
     1
281
     0
  0
BLOCK_RECORD
  5
E3
330
1
100
AcDbSymbolTableRecord
100
AcDbBlockTableRecord
  2
AI9-BLK28
340
0
102
{BLKREFS
331
E4
102
}
 70
     0
280
     1
281
     0
  0
BLOCK_RECORD
  5
E8
330
1
100
AcDbSymbolTableRecord
100
AcDbBlockTableRecord
  2
AI9-BLK29
340
0
102
{BLKREFS
331
E9
102
}
 70
     0
280
     1
281
     0
  0
BLOCK_RECORD
  5
ED
330
1
100
AcDbSymbolTableRecord
100
AcDbBlockTableRecord
  2
AI9-BLK30
340
0
102
{BLKREFS
331
EE
102
}
 70
     0
280
     1
281
     0
  0
BLOCK_RECORD
  5
F2
330
1
100
AcDbSymbolTableRecord
100
AcDbBlockTableRecord
  2
AI9-BLK31
340
0
102
{BLKREFS
331
F3
102
}
 70
     0
280
     1
281
     0
  0
BLOCK_RECORD
  5
F7
330
1
100
AcDbSymbolTableRecord
100
AcDbBlockTableRecord
  2
AI9-BLK32
340
0
102
{BLKREFS
331
F8
102
}
 70
     0
280
     1
281
     0
  0
BLOCK_RECORD
  5
FC
330
1
100
AcDbSymbolTableRecord
100
AcDbBlockTableRecord
  2
AI9-BLK33
340
0
102
{BLKREFS
331
FD
102
}
 70
     0
280
     1
281
     0
  0
BLOCK_RECORD
  5
101
330
1
100
AcDbSymbolTableRecord
100
AcDbBlockTableRecord
  2
AI9-BLK34
340
0
102
{BLKREFS
331
102
102
}
 70
     0
280
     1
281
     0
  0
BLOCK_RECORD
  5
106
330
1
100
AcDbSymbolTableRecord
100
AcDbBlockTableRecord
  2
AI9-BLK35
340
0
102
{BLKREFS
331
107
102
}
 70
     0
280
     1
281
     0
  0
BLOCK_RECORD
  5
10B
330
1
100
AcDbSymbolTableRecord
100
AcDbBlockTableRecord
  2
AI9-BLK36
340
0
102
{BLKREFS
331
10C
102
}
 70
     0
280
     1
281
     0
  0
BLOCK_RECORD
  5
110
330
1
100
AcDbSymbolTableRecord
100
AcDbBlockTableRecord
  2
AI9-BLK37
340
0
102
{BLKREFS
331
111
102
}
 70
     0
280
     1
281
     0
  0
BLOCK_RECORD
  5
115
330
1
100
AcDbSymbolTableRecord
100
AcDbBlockTableRecord
  2
AI9-BLK38
340
0
102
{BLKREFS
331
116
102
}
 70
     0
280
     1
281
     0
  0
BLOCK_RECORD
  5
11A
330
1
100
AcDbSymbolTableRecord
100
AcDbBlockTableRecord
  2
AI9-BLK39
340
0
102
{BLKREFS
331
11B
102
}
 70
     0
280
     1
281
     0
  0
BLOCK_RECORD
  5
11F
330
1
100
AcDbSymbolTableRecord
100
AcDbBlockTableRecord
  2
AI9-BLK40
340
0
102
{BLKREFS
331
120
102
}
 70
     0
280
     1
281
     0
  0
BLOCK_RECORD
  5
125
330
1
100
AcDbSymbolTableRecord
100
AcDbBlockTableRecord
  2
AI9-BLK41
340
0
102
{BLKREFS
331
126
102
}
 70
     0
280
     1
281
     0
  0
BLOCK_RECORD
  5
128
330
1
100
AcDbSymbolTableRecord
100
AcDbBlockTableRecord
  2
AI9-BLK42
340
0
102
{BLKREFS
331
129
102
}
 70
     0
280
     1
281
     0
  0
BLOCK_RECORD
  5
12D
330
1
100
AcDbSymbolTableRecord
100
AcDbBlockTableRecord
  2
AI9-BLK43
340
0
102
{BLKREFS
331
12E
102
}
 70
     0
280
     1
281
     0
  0
BLOCK_RECORD
  5
133
330
1
100
AcDbSymbolTableRecord
100
AcDbBlockTableRecord
  2
AI9-BLK44
340
0
102
{BLKREFS
331
134
102
}
 70
     0
280
     1
281
     0
  0
BLOCK_RECORD
  5
136
330
1
100
AcDbSymbolTableRecord
100
AcDbBlockTableRecord
  2
AI9-BLK45
340
0
102
{BLKREFS
331
137
102
}
 70
     0
280
     1
281
     0
  0
BLOCK_RECORD
  5
13B
330
1
100
AcDbSymbolTableRecord
100
AcDbBlockTableRecord
  2
AI9-BLK46
340
0
102
{BLKREFS
331
13C
102
}
 70
     0
280
     1
281
     0
  0
BLOCK_RECORD
  5
141
330
1
100
AcDbSymbolTableRecord
100
AcDbBlockTableRecord
  2
AI9-BLK47
340
0
102
{BLKREFS
331
142
102
}
 70
     0
280
     1
281
     0
  0
BLOCK_RECORD
  5
144
330
1
100
AcDbSymbolTableRecord
100
AcDbBlockTableRecord
  2
AI9-BLK48
340
0
102
{BLKREFS
331
145
102
}
 70
     0
280
     1
281
     0
  0
BLOCK_RECORD
  5
149
330
1
100
AcDbSymbolTableRecord
100
AcDbBlockTableRecord
  2
AI9-BLK49
340
0
102
{BLKREFS
331
14A
102
}
 70
     0
280
     1
281
     0
  0
BLOCK_RECORD
  5
14E
330
1
100
AcDbSymbolTableRecord
100
AcDbBlockTableRecord
  2
AI9-BLK50
340
0
102
{BLKREFS
331
14F
102
}
 70
     0
280
     1
281
     0
  0
BLOCK_RECORD
  5
153
330
1
100
AcDbSymbolTableRecord
100
AcDbBlockTableRecord
  2
AI9-BLK51
340
0
102
{BLKREFS
331
154
102
}
 70
     0
280
     1
281
     0
  0
BLOCK_RECORD
  5
158
330
1
100
AcDbSymbolTableRecord
100
AcDbBlockTableRecord
  2
AI9-BLK52
340
0
102
{BLKREFS
331
159
102
}
 70
     0
280
     1
281
     0
  0
BLOCK_RECORD
  5
15E
330
1
100
AcDbSymbolTableRecord
100
AcDbBlockTableRecord
  2
AI9-BLK53
340
0
102
{BLKREFS
331
15F
102
}
 70
     0
280
     1
281
     0
  0
BLOCK_RECORD
  5
161
330
1
100
AcDbSymbolTableRecord
100
AcDbBlockTableRecord
  2
AI9-BLK54
340
0
102
{BLKREFS
331
162
102
}
 70
     0
280
     1
281
     0
  0
BLOCK_RECORD
  5
166
330
1
100
AcDbSymbolTableRecord
100
AcDbBlockTableRecord
  2
AI9-BLK55
340
0
102
{BLKREFS
331
167
102
}
 70
     0
280
     1
281
     0
  0
BLOCK_RECORD
  5
16B
330
1
100
AcDbSymbolTableRecord
100
AcDbBlockTableRecord
  2
AI9-BLK56
340
0
102
{BLKREFS
331
16C
102
}
 70
     0
280
     1
281
     0
  0
BLOCK_RECORD
  5
170
330
1
100
AcDbSymbolTableRecord
100
AcDbBlockTableRecord
  2
AI9-BLK57
340
0
102
{BLKREFS
331
171
102
}
 70
     0
280
     1
281
     0
  0
BLOCK_RECORD
  5
175
330
1
100
AcDbSymbolTableRecord
100
AcDbBlockTableRecord
  2
AI9-BLK58
340
0
102
{BLKREFS
331
176
102
}
 70
     0
280
     1
281
     0
  0
BLOCK_RECORD
  5
17A
330
1
100
AcDbSymbolTableRecord
100
AcDbBlockTableRecord
  2
AI9-BLK59
340
0
102
{BLKREFS
331
17B
102
}
 70
     0
280
     1
281
     0
  0
BLOCK_RECORD
  5
180
330
1
100
AcDbSymbolTableRecord
100
AcDbBlockTableRecord
  2
AI9-BLK60
340
0
102
{BLKREFS
331
181
102
}
 70
     0
280
     1
281
     0
  0
BLOCK_RECORD
  5
183
330
1
100
AcDbSymbolTableRecord
100
AcDbBlockTableRecord
  2
AI9-BLK61
340
0
102
{BLKREFS
331
184
102
}
 70
     0
280
     1
281
     0
  0
BLOCK_RECORD
  5
188
330
1
100
AcDbSymbolTableRecord
100
AcDbBlockTableRecord
  2
AI9-BLK62
340
0
102
{BLKREFS
331
189
102
}
 70
     0
280
     1
281
     0
  0
BLOCK_RECORD
  5
18D
330
1
100
AcDbSymbolTableRecord
100
AcDbBlockTableRecord
  2
AI9-BLK63
340
0
102
{BLKREFS
331
18E
102
}
 70
     0
280
     1
281
     0
  0
BLOCK_RECORD
  5
192
330
1
100
AcDbSymbolTableRecord
100
AcDbBlockTableRecord
  2
AI9-BLK64
340
0
102
{BLKREFS
331
193
102
}
 70
     0
280
     1
281
     0
  0
BLOCK_RECORD
  5
197
330
1
100
AcDbSymbolTableRecord
100
AcDbBlockTableRecord
  2
AI9-BLK65
340
0
102
{BLKREFS
331
198
102
}
 70
     0
280
     1
281
     0
  0
BLOCK_RECORD
  5
19C
330
1
100
AcDbSymbolTableRecord
100
AcDbBlockTableRecord
  2
AI9-BLK66
340
0
102
{BLKREFS
331
19D
102
}
 70
     0
280
     1
281
     0
  0
BLOCK_RECORD
  5
1A1
330
1
100
AcDbSymbolTableRecord
100
AcDbBlockTableRecord
  2
AI9-BLK67
340
0
102
{BLKREFS
331
1A2
102
}
 70
     0
280
     1
281
     0
  0
BLOCK_RECORD
  5
1A6
330
1
100
AcDbSymbolTableRecord
100
AcDbBlockTableRecord
  2
AI9-BLK68
340
0
102
{BLKREFS
331
1A7
102
}
 70
     0
280
     1
281
     0
  0
BLOCK_RECORD
  5
1AB
330
1
100
AcDbSymbolTableRecord
100
AcDbBlockTableRecord
  2
AI9-BLK69
340
0
102
{BLKREFS
331
1AC
102
}
 70
     0
280
     1
281
     0
  0
BLOCK_RECORD
  5
1B0
330
1
100
AcDbSymbolTableRecord
100
AcDbBlockTableRecord
  2
AI9-BLK70
340
0
102
{BLKREFS
331
1B1
102
}
 70
     0
280
     1
281
     0
  0
BLOCK_RECORD
  5
1B5
330
1
100
AcDbSymbolTableRecord
100
AcDbBlockTableRecord
  2
AI9-BLK71
340
0
102
{BLKREFS
331
1B6
102
}
 70
     0
280
     1
281
     0
  0
BLOCK_RECORD
  5
1BB
330
1
100
AcDbSymbolTableRecord
100
AcDbBlockTableRecord
  2
AI9-BLK72
340
0
102
{BLKREFS
331
1BC
102
}
 70
     0
280
     1
281
     0
  0
BLOCK_RECORD
  5
1BE
330
1
100
AcDbSymbolTableRecord
100
AcDbBlockTableRecord
  2
AI9-BLK73
340
0
102
{BLKREFS
331
1BF
102
}
 70
     0
280
     1
281
     0
  0
BLOCK_RECORD
  5
1C3
330
1
100
AcDbSymbolTableRecord
100
AcDbBlockTableRecord
  2
AI9-BLK74
340
0
102
{BLKREFS
331
1C4
102
}
 70
     0
280
     1
281
     0
  0
BLOCK_RECORD
  5
1C8
330
1
100
AcDbSymbolTableRecord
100
AcDbBlockTableRecord
  2
AI9-BLK75
340
0
102
{BLKREFS
331
1C9
102
}
 70
     0
280
     1
281
     0
  0
BLOCK_RECORD
  5
1CD
330
1
100
AcDbSymbolTableRecord
100
AcDbBlockTableRecord
  2
AI9-BLK76
340
0
102
{BLKREFS
331
1CE
102
}
 70
     0
280
     1
281
     0
  0
BLOCK_RECORD
  5
1D2
330
1
100
AcDbSymbolTableRecord
100
AcDbBlockTableRecord
  2
AI9-BLK77
340
0
102
{BLKREFS
331
1D3
102
}
 70
     0
280
     1
281
     0
  0
BLOCK_RECORD
  5
1D7
330
1
100
AcDbSymbolTableRecord
100
AcDbBlockTableRecord
  2
AI9-BLK78
340
0
102
{BLKREFS
331
1D8
102
}
 70
     0
280
     1
281
     0
  0
BLOCK_RECORD
  5
1DC
330
1
100
AcDbSymbolTableRecord
100
AcDbBlockTableRecord
  2
AI9-BLK79
340
0
102
{BLKREFS
331
1DD
102
}
 70
     0
280
     1
281
     0
  0
BLOCK_RECORD
  5
1E2
330
1
100
AcDbSymbolTableRecord
100
AcDbBlockTableRecord
  2
AI9-BLK80
340
0
102
{BLKREFS
331
1E3
102
}
 70
     0
280
     1
281
     0
  0
BLOCK_RECORD
  5
1E5
330
1
100
AcDbSymbolTableRecord
100
AcDbBlockTableRecord
  2
AI9-BLK81
340
0
102
{BLKREFS
331
1E6
102
}
 70
     0
280
     1
281
     0
  0
BLOCK_RECORD
  5
1EA
330
1
100
AcDbSymbolTableRecord
100
AcDbBlockTableRecord
  2
AI9-BLK82
340
0
102
{BLKREFS
331
1EB
102
}
 70
     0
280
     1
281
     0
  0
BLOCK_RECORD
  5
1EF
330
1
100
AcDbSymbolTableRecord
100
AcDbBlockTableRecord
  2
AI9-BLK83
340
0
102
{BLKREFS
331
1F0
102
}
 70
     0
280
     1
281
     0
  0
BLOCK_RECORD
  5
1F4
330
1
100
AcDbSymbolTableRecord
100
AcDbBlockTableRecord
  2
AI9-BLK84
340
0
102
{BLKREFS
331
1F5
102
}
 70
     0
280
     1
281
     0
  0
BLOCK_RECORD
  5
1F9
330
1
100
AcDbSymbolTableRecord
100
AcDbBlockTableRecord
  2
AI9-BLK85
340
0
102
{BLKREFS
331
1FA
102
}
 70
     0
280
     1
281
     0
  0
BLOCK_RECORD
  5
1FE
330
1
100
AcDbSymbolTableRecord
100
AcDbBlockTableRecord
  2
AI9-BLK86
340
0
102
{BLKREFS
331
1FF
102
}
 70
     0
280
     1
281
     0
  0
BLOCK_RECORD
  5
203
330
1
100
AcDbSymbolTableRecord
100
AcDbBlockTableRecord
  2
AI9-BLK87
340
0
102
{BLKREFS
331
204
102
}
 70
     0
280
     1
281
     0
  0
BLOCK_RECORD
  5
208
330
1
100
AcDbSymbolTableRecord
100
AcDbBlockTableRecord
  2
AI9-BLK88
340
0
102
{BLKREFS
331
209
102
}
 70
     0
280
     1
281
     0
  0
BLOCK_RECORD
  5
20D
330
1
100
AcDbSymbolTableRecord
100
AcDbBlockTableRecord
  2
AI9-BLK89
340
0
102
{BLKREFS
331
20E
102
}
 70
     0
280
     1
281
     0
  0
BLOCK_RECORD
  5
212
330
1
100
AcDbSymbolTableRecord
100
AcDbBlockTableRecord
  2
AI9-BLK90
340
0
102
{BLKREFS
331
213
102
}
 70
     0
280
     1
281
     0
  0
BLOCK_RECORD
  5
217
330
1
100
AcDbSymbolTableRecord
100
AcDbBlockTableRecord
  2
AI9-BLK91
340
0
102
{BLKREFS
331
218
102
}
 70
     0
280
     1
281
     0
  0
BLOCK_RECORD
  5
21C
330
1
100
AcDbSymbolTableRecord
100
AcDbBlockTableRecord
  2
AI9-BLK92
340
0
102
{BLKREFS
331
21D
102
}
 70
     0
280
     1
281
     0
  0
BLOCK_RECORD
  5
221
330
1
100
AcDbSymbolTableRecord
100
AcDbBlockTableRecord
  2
AI9-BLK93
340
0
102
{BLKREFS
331
222
102
}
 70
     0
280
     1
281
     0
  0
BLOCK_RECORD
  5
226
330
1
100
AcDbSymbolTableRecord
100
AcDbBlockTableRecord
  2
AI9-BLK94
340
0
102
{BLKREFS
331
227
102
}
 70
     0
280
     1
281
     0
  0
BLOCK_RECORD
  5
22B
330
1
100
AcDbSymbolTableRecord
100
AcDbBlockTableRecord
  2
AI9-BLK95
340
0
102
{BLKREFS
331
22C
102
}
 70
     0
280
     1
281
     0
  0
BLOCK_RECORD
  5
231
330
1
100
AcDbSymbolTableRecord
100
AcDbBlockTableRecord
  2
AI9-BLK96
340
0
102
{BLKREFS
331
232
102
}
 70
     0
280
     1
281
     0
  0
BLOCK_RECORD
  5
234
330
1
100
AcDbSymbolTableRecord
100
AcDbBlockTableRecord
  2
AI9-BLK97
340
0
102
{BLKREFS
331
235
102
}
 70
     0
280
     1
281
     0
  0
BLOCK_RECORD
  5
239
330
1
100
AcDbSymbolTableRecord
100
AcDbBlockTableRecord
  2
AI9-BLK98
340
0
102
{BLKREFS
331
23A
102
}
 70
     0
280
     1
281
     0
  0
BLOCK_RECORD
  5
23E
330
1
100
AcDbSymbolTableRecord
100
AcDbBlockTableRecord
  2
AI9-BLK99
340
0
102
{BLKREFS
331
23F
102
}
 70
     0
280
     1
281
     0
  0
BLOCK_RECORD
  5
243
330
1
100
AcDbSymbolTableRecord
100
AcDbBlockTableRecord
  2
AI9-BLK100
340
0
102
{BLKREFS
331
244
102
}
 70
     0
280
     1
281
     0
  0
BLOCK_RECORD
  5
248
330
1
100
AcDbSymbolTableRecord
100
AcDbBlockTableRecord
  2
AI9-BLK101
340
0
102
{BLKREFS
331
249
102
}
 70
     0
280
     1
281
     0
  0
BLOCK_RECORD
  5
24D
330
1
100
AcDbSymbolTableRecord
100
AcDbBlockTableRecord
  2
AI9-BLK102
340
0
102
{BLKREFS
331
24E
102
}
 70
     0
280
     1
281
     0
  0
BLOCK_RECORD
  5
252
330
1
100
AcDbSymbolTableRecord
100
AcDbBlockTableRecord
  2
AI9-BLK103
340
0
102
{BLKREFS
331
253
102
}
 70
     0
280
     1
281
     0
  0
BLOCK_RECORD
  5
257
330
1
100
AcDbSymbolTableRecord
100
AcDbBlockTableRecord
  2
AI9-BLK104
340
0
102
{BLKREFS
331
258
102
}
 70
     0
280
     1
281
     0
  0
BLOCK_RECORD
  5
25C
330
1
100
AcDbSymbolTableRecord
100
AcDbBlockTableRecord
  2
AI9-BLK105
340
0
102
{BLKREFS
331
25D
102
}
 70
     0
280
     1
281
     0
  0
BLOCK_RECORD
  5
261
330
1
100
AcDbSymbolTableRecord
100
AcDbBlockTableRecord
  2
AI9-BLK106
340
0
102
{BLKREFS
331
262
102
}
 70
     0
280
     1
281
     0
  0
BLOCK_RECORD
  5
266
330
1
100
AcDbSymbolTableRecord
100
AcDbBlockTableRecord
  2
AI9-BLK107
340
0
102
{BLKREFS
331
267
102
}
 70
     0
280
     1
281
     0
  0
BLOCK_RECORD
  5
26B
330
1
100
AcDbSymbolTableRecord
100
AcDbBlockTableRecord
  2
AI9-BLK108
340
0
102
{BLKREFS
331
26C
102
}
 70
     0
280
     1
281
     0
  0
BLOCK_RECORD
  5
271
330
1
100
AcDbSymbolTableRecord
100
AcDbBlockTableRecord
  2
AI9-BLK109
340
0
102
{BLKREFS
331
272
102
}
 70
     0
280
     1
281
     0
  0
BLOCK_RECORD
  5
274
330
1
100
AcDbSymbolTableRecord
100
AcDbBlockTableRecord
  2
AI9-BLK110
340
0
102
{BLKREFS
331
275
102
}
 70
     0
280
     1
281
     0
  0
BLOCK_RECORD
  5
279
330
1
100
AcDbSymbolTableRecord
100
AcDbBlockTableRecord
  2
AI9-BLK111
340
0
102
{BLKREFS
331
27A
102
}
 70
     0
280
     1
281
     0
  0
BLOCK_RECORD
  5
27E
330
1
100
AcDbSymbolTableRecord
100
AcDbBlockTableRecord
  2
AI9-BLK112
340
0
102
{BLKREFS
331
27F
102
}
 70
     0
280
     1
281
     0
  0
BLOCK_RECORD
  5
283
330
1
100
AcDbSymbolTableRecord
100
AcDbBlockTableRecord
  2
AI9-BLK113
340
0
102
{BLKREFS
331
284
102
}
 70
     0
280
     1
281
     0
  0
BLOCK_RECORD
  5
288
330
1
100
AcDbSymbolTableRecord
100
AcDbBlockTableRecord
  2
AI9-BLK114
340
0
102
{BLKREFS
331
289
102
}
 70
     0
280
     1
281
     0
  0
BLOCK_RECORD
  5
28D
330
1
100
AcDbSymbolTableRecord
100
AcDbBlockTableRecord
  2
AI9-BLK115
340
0
102
{BLKREFS
331
28E
102
}
 70
     0
280
     1
281
     0
  0
BLOCK_RECORD
  5
292
330
1
100
AcDbSymbolTableRecord
100
AcDbBlockTableRecord
  2
AI9-BLK116
340
0
102
{BLKREFS
331
293
102
}
 70
     0
280
     1
281
     0
  0
BLOCK_RECORD
  5
298
330
1
100
AcDbSymbolTableRecord
100
AcDbBlockTableRecord
  2
AI9-BLK117
340
0
102
{BLKREFS
331
299
102
}
 70
     0
280
     1
281
     0
  0
BLOCK_RECORD
  5
29B
330
1
100
AcDbSymbolTableRecord
100
AcDbBlockTableRecord
  2
AI9-BLK118
340
0
102
{BLKREFS
331
29C
102
}
 70
     0
280
     1
281
     0
  0
BLOCK_RECORD
  5
2A0
330
1
100
AcDbSymbolTableRecord
100
AcDbBlockTableRecord
  2
AI9-BLK119
340
0
102
{BLKREFS
331
2A1
102
}
 70
     0
280
     1
281
     0
  0
BLOCK_RECORD
  5
2A5
330
1
100
AcDbSymbolTableRecord
100
AcDbBlockTableRecord
  2
AI9-BLK120
340
0
102
{BLKREFS
331
2A6
102
}
 70
     0
280
     1
281
     0
  0
BLOCK_RECORD
  5
2AA
330
1
100
AcDbSymbolTableRecord
100
AcDbBlockTableRecord
  2
AI9-BLK121
340
0
102
{BLKREFS
331
2AB
102
}
 70
     0
280
     1
281
     0
  0
BLOCK_RECORD
  5
2AF
330
1
100
AcDbSymbolTableRecord
100
AcDbBlockTableRecord
  2
AI9-BLK122
340
0
102
{BLKREFS
331
2B0
102
}
 70
     0
280
     1
281
     0
  0
BLOCK_RECORD
  5
2B4
330
1
100
AcDbSymbolTableRecord
100
AcDbBlockTableRecord
  2
AI9-BLK123
340
0
102
{BLKREFS
331
2B5
102
}
 70
     0
280
     1
281
     0
  0
BLOCK_RECORD
  5
2B9
330
1
100
AcDbSymbolTableRecord
100
AcDbBlockTableRecord
  2
AI9-BLK124
340
0
102
{BLKREFS
331
2BA
102
}
 70
     0
280
     1
281
     0
  0
BLOCK_RECORD
  5
2BE
330
1
100
AcDbSymbolTableRecord
100
AcDbBlockTableRecord
  2
AI9-BLK125
340
0
102
{BLKREFS
331
2BF
102
}
 70
     0
280
     1
281
     0
  0
BLOCK_RECORD
  5
2C3
330
1
100
AcDbSymbolTableRecord
100
AcDbBlockTableRecord
  2
AI9-BLK126
340
0
102
{BLKREFS
331
2C4
102
}
 70
     0
280
     1
281
     0
  0
BLOCK_RECORD
  5
2D2
330
1
100
AcDbSymbolTableRecord
100
AcDbBlockTableRecord
  2
AI9-BLK127
340
0
102
{BLKREFS
331
2D3
102
}
 70
     0
280
     1
281
     0
  0
BLOCK_RECORD
  5
2D5
330
1
100
AcDbSymbolTableRecord
100
AcDbBlockTableRecord
  2
AI9-BLK128
340
0
102
{BLKREFS
331
2D6
102
}
 70
     0
280
     1
281
     0
  0
BLOCK_RECORD
  5
2D8
330
1
100
AcDbSymbolTableRecord
100
AcDbBlockTableRecord
  2
AI9-BLK129
340
0
102
{BLKREFS
331
2D9
102
}
 70
     0
280
     1
281
     0
  0
BLOCK_RECORD
  5
2DB
330
1
100
AcDbSymbolTableRecord
100
AcDbBlockTableRecord
  2
AI9-BLK130
340
0
102
{BLKREFS
331
2DC
102
}
 70
     0
280
     1
281
     0
  0
BLOCK_RECORD
  5
2DE
330
1
100
AcDbSymbolTableRecord
100
AcDbBlockTableRecord
  2
AI9-BLK131
340
0
102
{BLKREFS
331
2DF
102
}
 70
     0
280
     1
281
     0
  0
BLOCK_RECORD
  5
2E5
330
1
100
AcDbSymbolTableRecord
100
AcDbBlockTableRecord
  2
AI9-BLK132
340
0
102
{BLKREFS
331
2E6
102
}
 70
     0
280
     1
281
     0
  0
BLOCK_RECORD
  5
2E8
330
1
100
AcDbSymbolTableRecord
100
AcDbBlockTableRecord
  2
AI9-BLK133
340
0
102
{BLKREFS
331
2E9
102
}
 70
     0
280
     1
281
     0
  0
BLOCK_RECORD
  5
2EB
330
1
100
AcDbSymbolTableRecord
100
AcDbBlockTableRecord
  2
AI9-BLK134
340
0
102
{BLKREFS
331
2EC
102
}
 70
     0
280
     1
281
     0
  0
BLOCK_RECORD
  5
2EE
330
1
100
AcDbSymbolTableRecord
100
AcDbBlockTableRecord
  2
AI9-BLK135
340
0
102
{BLKREFS
331
2EF
102
}
 70
     0
280
     1
281
     0
  0
ENDTAB
  0
ENDSEC
  0
SECTION
  2
BLOCKS
  0
BLOCK
  5
D
330
A
100
AcDbEntity
  8
0
100
AcDbBlockBegin
  2
*MODEL_SPACE
 70
     0
 10
0.0
 20
0.0
 30
0.0
  3
*MODEL_SPACE
  1

  0
ENDBLK
  5
E
330
A
100
AcDbEntity
  8
0
100
AcDbBlockEnd
  0
BLOCK
  5
F
330
B
100
AcDbEntity
 67
     1
  8
0
100
AcDbBlockBegin
  2
*PAPER_SPACE
 70
     0
 10
0.0
 20
0.0
 30
0.0
  3
*PAPER_SPACE
  1

  0
ENDBLK
  5
10
330
B
100
AcDbEntity
 67
     1
  8
0
100
AcDbBlockEnd
  0
BLOCK
  5
48
330
46
100
AcDbEntity
  8
LAYER_1
  6
AI9-LType3
 62
     7
100
AcDbBlockBegin
  2
AI9-BLK1
 70
     0
 10
0.0
 20
0.0
 30
0.0
  3
AI9-BLK1
  1

  0
INSERT
  5
4A
330
46
100
AcDbEntity
  8
LAYER_1
  6
AI9-LType3
 62
     7
100
AcDbBlockReference
  2
AI9-BLK2
 10
0.0
 20
0.0
 30
0.0
  0
ENDBLK
  5
5C
330
46
100
AcDbEntity
  8
LAYER_1
100
AcDbBlockEnd
  0
BLOCK
  5
4B
330
49
100
AcDbEntity
  8
LAYER_1
  6
AI9-LType3
 62
     7
100
AcDbBlockBegin
  2
AI9-BLK2
 70
     0
 10
0.0
 20
0.0
 30
0.0
  3
AI9-BLK2
  1

  0
INSERT
  5
4D
330
49
100
AcDbEntity
  8
LAYER_1
  6
AI9-LType3
 62
     7
100
AcDbBlockReference
  2
AI9-BLK3
 10
0.0
 20
0.0
 30
0.0
  0
ENDBLK
  5
5B
330
49
100
AcDbEntity
  8
LAYER_1
100
AcDbBlockEnd
  0
BLOCK
  5
4E
330
4C
100
AcDbEntity
  8
LAYER_1
  6
AI9-LType3
 62
     7
100
AcDbBlockBegin
  2
AI9-BLK3
 70
     0
 10
0.0
 20
0.0
 30
0.0
  3
AI9-BLK3
  1

  0
INSERT
  5
50
330
4C
100
AcDbEntity
  8
LAYER_1
  6
AI9-LType3
 62
     7
100
AcDbBlockReference
  2
AI9-BLK4
 10
0.0
 20
0.0
 30
0.0
  0
ENDBLK
  5
5A
330
4C
100
AcDbEntity
  8
LAYER_1
100
AcDbBlockEnd
  0
BLOCK
  5
51
330
4F
100
AcDbEntity
  8
LAYER_1
  6
AI9-LType3
 62
     7
100
AcDbBlockBegin
  2
AI9-BLK4
 70
     0
 10
0.0
 20
0.0
 30
0.0
  3
AI9-BLK4
  1

  0
INSERT
  5
53
330
4F
100
AcDbEntity
  8
LAYER_1
  6
AI9-LType3
 62
     7
100
AcDbBlockReference
  2
AI9-BLK5
 10
0.0
 20
0.0
 30
0.0
  0
ENDBLK
  5
59
330
4F
100
AcDbEntity
  8
LAYER_1
100
AcDbBlockEnd
  0
BLOCK
  5
54
330
52
100
AcDbEntity
  8
LAYER_1
  6
AI9-LType3
 62
     7
100
AcDbBlockBegin
  2
AI9-BLK5
 70
     0
 10
0.0
 20
0.0
 30
0.0
  3
AI9-BLK5
  1

  0
CIRCLE
  5
57
330
52
100
AcDbEntity
  8
LAYER_1
 62
     7
100
AcDbCircle
 10
0.000172
 20
-0.000345
 30
0.0
 40
1.000111
  0
LINE
  5
56
330
52
100
AcDbEntity
  8
LAYER_1
 62
     7
100
AcDbLine
 10
-0.000172
 20
1.999878
 30
0.0
 11
-0.000172
 21
-1.999878
 31
0.0
  0
LINE
  5
55
330
52
100
AcDbEntity
  8
LAYER_1
 62
     7
100
AcDbLine
 10
-2.00005
 20
-0.000345
 30
0.0
 11
2.00005
 21
-0.000345
 31
0.0
  0
ENDBLK
  5
58
330
52
100
AcDbEntity
  8
LAYER_1
100
AcDbBlockEnd
  0
BLOCK
  5
5F
330
5D
100
AcDbEntity
  8
LAYER_1
 62
     7
100
AcDbBlockBegin
  2
AI9-BLK6
 70
     0
 10
0.0
 20
0.0
 30
0.0
  3
AI9-BLK6
  1

  0
INSERT
  5
61
330
5D
100
AcDbEntity
  8
LAYER_1
 62
     7
100
AcDbBlockReference
  2
AI9-BLK7
 10
0.0
 20
0.0
 30
0.0
  0
ENDBLK
  5
73
330
5D
100
AcDbEntity
  8
LAYER_1
100
AcDbBlockEnd
  0
BLOCK
  5
62
330
60
100
AcDbEntity
  8
LAYER_1
 62
     7
100
AcDbBlockBegin
  2
AI9-BLK7
 70
     0
 10
0.0
 20
0.0
 30
0.0
  3
AI9-BLK7
  1

  0
INSERT
  5
64
330
60
100
AcDbEntity
  8
LAYER_1
 62
     7
100
AcDbBlockReference
  2
AI9-BLK8
 10
0.0
 20
0.0
 30
0.0
  0
ENDBLK
  5
72
330
60
100
AcDbEntity
  8
LAYER_1
100
AcDbBlockEnd
  0
BLOCK
  5
65
330
63
100
AcDbEntity
  8
LAYER_1
 62
     7
100
AcDbBlockBegin
  2
AI9-BLK8
 70
     0
 10
0.0
 20
0.0
 30
0.0
  3
AI9-BLK8
  1

  0
INSERT
  5
67
330
63
100
AcDbEntity
  8
LAYER_1
 62
     7
100
AcDbBlockReference
  2
AI9-BLK9
 10
0.0
 20
0.0
 30
0.0
  0
ENDBLK
  5
71
330
63
100
AcDbEntity
  8
LAYER_1
100
AcDbBlockEnd
  0
BLOCK
  5
68
330
66
100
AcDbEntity
  8
LAYER_1
 62
     7
100
AcDbBlockBegin
  2
AI9-BLK9
 70
     0
 10
0.0
 20
0.0
 30
0.0
  3
AI9-BLK9
  1

  0
INSERT
  5
6A
330
66
100
AcDbEntity
  8
LAYER_1
 62
     7
100
AcDbBlockReference
  2
AI9-BLK10
 10
0.0
 20
0.0
 30
0.0
  0
ENDBLK
  5
70
330
66
100
AcDbEntity
  8
LAYER_1
100
AcDbBlockEnd
  0
BLOCK
  5
6B
330
69
100
AcDbEntity
  8
LAYER_1
 62
     7
100
AcDbBlockBegin
  2
AI9-BLK10
 70
     0
 10
0.0
 20
0.0
 30
0.0
  3
AI9-BLK10
  1

  0
CIRCLE
  5
6E
330
69
100
AcDbEntity
  8
LAYER_1
 62
     7
100
AcDbCircle
 10
0.000172
 20
-0.000345
 30
0.0
 40
1.000111
  0
LINE
  5
6D
330
69
100
AcDbEntity
  8
LAYER_1
 62
     7
100
AcDbLine
 10
-0.000172
 20
1.999878
 30
0.0
 11
-0.000172
 21
-1.999878
 31
0.0
  0
LINE
  5
6C
330
69
100
AcDbEntity
  8
LAYER_1
 62
     7
100
AcDbLine
 10
-2.00005
 20
-0.000345
 30
0.0
 11
2.00005
 21
-0.000345
 31
0.0
  0
ENDBLK
  5
6F
330
69
100
AcDbEntity
  8
LAYER_1
100
AcDbBlockEnd
  0
BLOCK
  5
91
330
8F
100
AcDbEntity
  8
LAYER_1
 62
     7
100
AcDbBlockBegin
  2
AI9-BLK11
 70
     0
 10
0.0
 20
0.0
 30
0.0
  3
AI9-BLK11
  1

  0
LINE
  5
94
330
8F
100
AcDbEntity
  8
LAYER_1
 62
     7
100
AcDbLine
 10
-4.725982
 20
0.573781
 30
0.0
 11
4.416612
 21
-1.63487
 31
0.0
  0
HATCH
  5
93
330
8F
100
AcDbEntity
  8
LAYER_1
 62
     7
100
AcDbHatch
 10
0.0
 20
0.0
 30
0.0
210
0.0
220
0.0
230
1.0
  2
SOLID
 70
     1
 71
     0
 91
        1
 92
        3
 72
     0
 73
     1
 93
        3
 10
-4.760777452256944
 20
0.5544881184895832
 10
-4.222309027777778
 20
1.736844889322916
 10
-4.282942708333333
 20
0.4428670247395833
 97
        0
 75
     0
 76
     1
 98
        1
 10
0.0
 20
0.0
  0
HATCH
  5
92
330
8F
100
AcDbEntity
  8
LAYER_1
 62
     7
100
AcDbHatch
 10
0.0
 20
0.0
 30
0.0
210
0.0
220
0.0
230
1.0
  2
SOLID
 70
     1
 71
     0
 91
        1
 92
        3
 72
     0
 73
     1
 93
        3
 10
4.222309027777778
 20
-1.615577528211805
 10
4.760777452256944
 20
-0.4301201714409722
 10
4.700143771701389
 20
-1.736844889322916
 97
        0
 75
     0
 76
     1
 98
        1
 10
0.0
 20
0.0
  0
ENDBLK
  5
95
330
8F
100
AcDbEntity
  8
LAYER_1
100
AcDbBlockEnd
  0
BLOCK
  5
98
330
96
100
AcDbEntity
  8
LAYER_1
 62
     7
100
AcDbBlockBegin
  2
AI9-BLK12
 70
     0
 10
0.0
 20
0.0
 30
0.0
  3
AI9-BLK12
  1

  0
INSERT
  5
D1
330
96
100
AcDbEntity
  8
LAYER_1
 62
     7
100
AcDbBlockReference
  2
AI9-BLK24
 10
-0.455614
 20
6.529489
 30
0.0
  0
INSERT
  5
CC
330
96
100
AcDbEntity
  8
LAYER_1
 62
     7
100
AcDbBlockReference
  2
AI9-BLK23
 10
-2.036224
 20
4.045403
 30
0.0
  0
INSERT
  5
C7
330
96
100
AcDbEntity
  8
LAYER_1
 62
     7
100
AcDbBlockReference
  2
AI9-BLK22
 10
-3.699516
 20
1.58216
 30
0.0
  0
INSERT
  5
C2
330
96
100
AcDbEntity
  8
LAYER_1
 62
     7
100
AcDbBlockReference
  2
AI9-BLK21
 10
-5.214841
 20
-0.839914
 30
0.0
  0
INSERT
  5
BD
330
96
100
AcDbEntity
  8
LAYER_1
 62
     7
100
AcDbBlockReference
  2
AI9-BLK20
 10
-5.963805
 20
-2.872865
 30
0.0
  0
INSERT
  5
B8
330
96
100
AcDbEntity
  8
LAYER_1
 62
     7
100
AcDbBlockReference
  2
AI9-BLK19
 10
-5.350233
 20
-5.011064
 30
0.0
  0
INSERT
  5
B3
330
96
100
AcDbEntity
  8
LAYER_1
 62
     7
100
AcDbBlockReference
  2
AI9-BLK18
 10
-3.602536
 20
-5.860452
 30
0.0
  0
INSERT
  5
AE
330
96
100
AcDbEntity
  8
LAYER_1
 62
     7
100
AcDbBlockReference
  2
AI9-BLK17
 10
-1.035596
 20
-6.011692
 30
0.0
  0
INSERT
  5
A9
330
96
100
AcDbEntity
  8
LAYER_1
 62
     7
100
AcDbBlockReference
  2
AI9-BLK16
 10
1.101053
 20
-4.998489
 30
0.0
  0
INSERT
  5
A4
330
96
100
AcDbEntity
  8
LAYER_1
 62
     7
100
AcDbBlockReference
  2
AI9-BLK15
 10
2.793283
 20
-3.102308
 30
0.0
  0
INSERT
  5
9F
330
96
100
AcDbEntity
  8
LAYER_1
 62
     7
100
AcDbBlockReference
  2
AI9-BLK14
 10
4.493266
 20
-0.780831
 30
0.0
  0
INSERT
  5
9A
330
96
100
AcDbEntity
  8
LAYER_1
 62
     7
100
AcDbBlockReference
  2
AI9-BLK13
 10
6.127964
 20
1.625224
 30
0.0
  0
ENDBLK
  5
D5
330
96
100
AcDbEntity
  8
LAYER_1
100
AcDbBlockEnd
  0
BLOCK
  5
9B
330
99
100
AcDbEntity
  8
LAYER_1
 62
     7
100
AcDbBlockBegin
  2
AI9-BLK13
 70
     0
 10
0.0
 20
0.0
 30
0.0
  3
AI9-BLK13
  1

  0
HATCH
  5
9C
330
99
100
AcDbEntity
  8
LAYER_1
 62
     7
100
AcDbHatch
 10
0.0
 20
0.0
 30
0.0
210
0.0
220
0.0
230
1.0
  2
SOLID
 70
     1
 71
     0
 91
        1
 92
        1
 93
        1
 72
     4
 94
        3
 73
     0
 74
     0
 95
       14
 96
       10
 40
0.0
 40
0.0
 40
0.0
 40
0.0
 40
1.0
 40
1.0
 40
1.0
 40
2.0
 40
2.0
 40
2.0
 40
3.0
 40
3.0
 40
3.0
 40
3.0
 10
1.115349663628472
 20
-0.5084960937499999
 10
1.115349663628472
 20
-0.5084960937499999
 10
1.058161078559028
 20
-0.6676595052083333
 10
-1.115349663628472
 20
0.7727349175347221
 10
1.054715983072916
 20
-0.6676595052083333
 10
0.9434393988715277
 20
-0.7727349175347221
 10
0.9434393988715277
 20
-0.7727349175347221
 10
0.9434393988715277
 20
-0.7727349175347221
 10
1.115349663628472
 20
-0.5084960937499999
 10
1.115349663628472
 20
-0.5084960937499999
 97
        0
 97
        0
 75
     0
 76
     1
 98
        1
 10
0.0
 20
0.0
  0
ENDBLK
  5
9D
330
99
100
AcDbEntity
  8
LAYER_1
100
AcDbBlockEnd
  0
BLOCK
  5
A0
330
9E
100
AcDbEntity
  8
LAYER_1
 62
     7
100
AcDbBlockBegin
  2
AI9-BLK14
 70
     0
 10
0.0
 20
0.0
 30
0.0
  3
AI9-BLK14
  1

  0
HATCH
  5
A1
330
9E
100
AcDbEntity
  8
LAYER_1
 62
     7
100
AcDbHatch
 10
0.0
 20
0.0
 30
0.0
210
0.0
220
0.0
230
1.0
  2
SOLID
 70
     1
 71
     0
 91
        1
 92
        1
 93
        1
 72
     4
 94
        3
 73
     0
 74
     0
 95
       14
 96
       10
 40
0.0
 40
0.0
 40
0.0
 40
0.0
 40
1.0
 40
1.0
 40
1.0
 40
2.0
 40
2.0
 40
2.0
 40
3.0
 40
3.0
 40
3.0
 40
3.0
 10
1.099502224392361
 20
-0.5401909722222221
 10
1.099502224392361
 20
-0.5401909722222221
 10
1.035767957899306
 20
-0.6993543836805555
 10
-1.099502224392361
 20
0.7982286241319444
 10
1.032667371961805
 20
-0.6931532118055554
 10
0.9145005967881944
 20
-0.7982286241319444
 10
0.9145005967881944
 20
-0.7982286241319444
 10
0.9145005967881944
 20
-0.7982286241319444
 10
1.099502224392361
 20
-0.5401909722222221
 10
1.099502224392361
 20
-0.5401909722222221
 97
        0
 97
        0
 75
     0
 76
     1
 98
        1
 10
0.0
 20
0.0
  0
ENDBLK
  5
A2
330
9E
100
AcDbEntity
  8
LAYER_1
100
AcDbBlockEnd
  0
BLOCK
  5
A5
330
A3
100
AcDbEntity
  8
LAYER_1
 62
     7
100
AcDbBlockBegin
  2
AI9-BLK15
 70
     0
 10
0.0
 20
0.0
 30
0.0
  3
AI9-BLK15
  1

  0
HATCH
  5
A6
330
A3
100
AcDbEntity
  8
LAYER_1
 62
     7
100
AcDbHatch
 10
0.0
 20
0.0
 30
0.0
210
0.0
220
0.0
230
1.0
  2
SOLID
 70
     1
 71
     0
 91
        1
 92
        1
 93
        1
 72
     4
 94
        3
 73
     0
 74
     0
 95
       14
 96
       10
 40
0.0
 40
0.0
 40
0.0
 40
0.0
 40
1.0
 40
1.0
 40
1.0
 40
2.0
 40
2.0
 40
2.0
 40
3.0
 40
3.0
 40
3.0
 40
3.0
 10
1.065912543402778
 20
-0.5958292643229166
 10
1.065912543402778
 20
-0.5958292643229166
 10
0.995632595486111
 20
-0.755337185329861
 10
-1.065912543402778
 20
0.8445651584201388
 10
0.992532009548611
 20
-0.7487915039062499
 10
0.871609157986111
 20
-0.8445651584201388
 10
0.871609157986111
 20
-0.8445651584201388
 10
0.871609157986111
 20
-0.8445651584201388
 10
1.065912543402778
 20
-0.5958292643229166
 10
1.065912543402778
 20
-0.5958292643229166
 97
        0
 97
        0
 75
     0
 76
     1
 98
        1
 10
0.0
 20
0.0
  0
ENDBLK
  5
A7
330
A3
100
AcDbEntity
  8
LAYER_1
100
AcDbBlockEnd
  0
BLOCK
  5
AA
330
A8
100
AcDbEntity
  8
LAYER_1
 62
     7
100
AcDbBlockBegin
  2
AI9-BLK16
 70
     0
 10
0.0
 20
0.0
 30
0.0
  3
AI9-BLK16
  1

  0
HATCH
  5
AB
330
A8
100
AcDbEntity
  8
LAYER_1
 62
     7
100
AcDbHatch
 10
0.0
 20
0.0
 30
0.0
210
0.0
220
0.0
230
1.0
  2
SOLID
 70
     1
 71
     0
 91
        1
 92
        1
 93
        1
 72
     4
 94
        3
 73
     0
 74
     0
 95
       14
 96
       10
 40
0.0
 40
0.0
 40
0.0
 40
0.0
 40
1.0
 40
1.0
 40
1.0
 40
2.0
 40
2.0
 40
2.0
 40
3.0
 40
3.0
 40
3.0
 40
3.0
 10
0.8109754774305555
 20
-0.9048543294270832
 10
0.8175211588541665
 20
-0.9048543294270832
 10
0.6707600911458332
 20
-1.054715983072916
 10
-0.8109754774305555
 20
1.08985595703125
 10
0.7248480902777777
 20
-1.016475423177083
 10
0.5529378255208333
 20
-1.08985595703125
 10
0.5529378255208333
 20
-1.08985595703125
 10
0.5529378255208333
 20
-1.08985595703125
 10
0.8109754774305555
 20
-0.9048543294270832
 10
0.8109754774305555
 20
-0.9048543294270832
 97
        0
 97
        0
 75
     0
 76
     1
 98
        1
 10
0.0
 20
0.0
  0
ENDBLK
  5
AC
330
A8
100
AcDbEntity
  8
LAYER_1
100
AcDbBlockEnd
  0
BLOCK
  5
AF
330
AD
100
AcDbEntity
  8
LAYER_1
 62
     7
100
AcDbBlockBegin
  2
AI9-BLK17
 70
     0
 10
0.0
 20
0.0
 30
0.0
  3
AI9-BLK17
  1

  0
HATCH
  5
B0
330
AD
100
AcDbEntity
  8
LAYER_1
 62
     7
100
AcDbHatch
 10
0.0
 20
0.0
 30
0.0
210
0.0
220
0.0
230
1.0
  2
SOLID
 70
     1
 71
     0
 91
        1
 92
        1
 93
        1
 72
     4
 94
        3
 73
     0
 74
     0
 95
       14
 96
       10
 40
0.0
 40
0.0
 40
0.0
 40
0.0
 40
1.0
 40
1.0
 40
1.0
 40
2.0
 40
2.0
 40
2.0
 40
3.0
 40
3.0
 40
3.0
 40
3.0
 10
0.3376193576388888
 20
-1.217324490017361
 10
0.3376193576388888
 20
-1.217324490017361
 10
0.1626085069444444
 20
-1.287259928385416
 10
-0.3376193576388888
 20
1.268311903211806
 10
0.1943033854166666
 20
-1.274513075086805
 10
0.0192925347222222
 20
-1.274513075086805
 10
0.0223931206597222
 20
-1.268311903211806
 10
0.0223931206597222
 20
-1.268311903211806
 10
0.3376193576388888
 20
-1.217324490017361
 10
0.3376193576388888
 20
-1.217324490017361
 97
        0
 97
        0
 75
     0
 76
     1
 98
        1
 10
0.0
 20
0.0
  0
ENDBLK
  5
B1
330
AD
100
AcDbEntity
  8
LAYER_1
100
AcDbBlockEnd
  0
BLOCK
  5
B4
330
B2
100
AcDbEntity
  8
LAYER_1
 62
     7
100
AcDbBlockBegin
  2
AI9-BLK18
 70
     0
 10
0.0
 20
0.0
 30
0.0
  3
AI9-BLK18
  1

  0
HATCH
  5
B5
330
B2
100
AcDbEntity
  8
LAYER_1
 62
     7
100
AcDbHatch
 10
0.0
 20
0.0
 30
0.0
210
0.0
220
0.0
230
1.0
  2
SOLID
 70
     1
 71
     0
 91
        1
 92
        1
 93
        1
 72
     4
 94
        3
 73
     0
 74
     0
 95
       14
 96
       10
 40
0.0
 40
0.0
 40
0.0
 40
0.0
 40
1.0
 40
1.0
 40
1.0
 40
2.0
 40
2.0
 40
2.0
 40
3.0
 40
3.0
 40
3.0
 40
3.0
 10
-0.0175699869791667
 20
-1.276235622829861
 10
-0.0175699869791667
 20
-1.276235622829861
 10
-0.1925808376736111
 20
-1.282436794704861
 10
0.3265950520833333
 20
1.276235622829861
 10
-0.1829345703125
 20
-1.279336208767361
 10
-0.3265950520833333
 20
-1.215601942274305
 10
-0.3265950520833333
 20
-1.215601942274305
 10
-0.3265950520833333
 20
-1.215601942274305
 10
-0.0175699869791667
 20
-1.276235622829861
 10
-0.0175699869791667
 20
-1.276235622829861
 97
        0
 97
        0
 75
     0
 76
     1
 98
        1
 10
0.0
 20
0.0
  0
ENDBLK
  5
B6
330
B2
100
AcDbEntity
  8
LAYER_1
100
AcDbBlockEnd
  0
BLOCK
  5
B9
330
B7
100
AcDbEntity
  8
LAYER_1
 62
     7
100
AcDbBlockBegin
  2
AI9-BLK19
 70
     0
 10
0.0
 20
0.0
 30
0.0
  3
AI9-BLK19
  1

  0
HATCH
  5
BA
330
B7
100
AcDbEntity
  8
LAYER_1
 62
     7
100
AcDbHatch
 10
0.0
 20
0.0
 30
0.0
210
0.0
220
0.0
230
1.0
  2
SOLID
 70
     1
 71
     0
 91
        1
 92
        1
 93
        1
 72
     4
 94
        3
 73
     0
 74
     0
 95
       14
 96
       10
 40
0.0
 40
0.0
 40
0.0
 40
0.0
 40
1.0
 40
1.0
 40
1.0
 40
2.0
 40
2.0
 40
2.0
 40
3.0
 40
3.0
 40
3.0
 40
3.0
 10
-0.8605848524305555
 20
-0.8540391710069444
 10
-0.8571397569444443
 20
-0.8605848524305555
 10
-1.010101996527778
 20
-0.7362169053819444
 10
1.057988823784722
 20
0.8540391710069444
 10
-0.9753065321180555
 20
-0.7648111979166666
 10
-1.061089409722222
 20
-0.6118489583333333
 10
-1.057988823784722
 20
-0.6118489583333333
 10
-1.057988823784722
 20
-0.6118489583333333
 10
-0.8605848524305555
 20
-0.8540391710069444
 10
-0.8605848524305555
 20
-0.8540391710069444
 97
        0
 97
        0
 75
     0
 76
     1
 98
        1
 10
0.0
 20
0.0
  0
ENDBLK
  5
BB
330
B7
100
AcDbEntity
  8
LAYER_1
100
AcDbBlockEnd
  0
BLOCK
  5
BE
330
BC
100
AcDbEntity
  8
LAYER_1
 62
     7
100
AcDbBlockBegin
  2
AI9-BLK20
 70
     0
 10
0.0
 20
0.0
 30
0.0
  3
AI9-BLK20
  1

  0
HATCH
  5
BF
330
BC
100
AcDbEntity
  8
LAYER_1
 62
     7
100
AcDbHatch
 10
0.0
 20
0.0
 30
0.0
210
0.0
220
0.0
230
1.0
  2
SOLID
 70
     1
 71
     0
 91
        1
 92
        1
 93
        1
 72
     4
 94
        3
 73
     0
 74
     0
 95
       14
 96
       10
 40
0.0
 40
0.0
 40
0.0
 40
0.0
 40
1.0
 40
1.0
 40
1.0
 40
2.0
 40
2.0
 40
2.0
 40
3.0
 40
3.0
 40
3.0
 40
3.0
 10
-1.234722222222222
 20
-0.2709567599826389
 10
-1.234722222222222
 20
-0.2709567599826389
 10
-1.295355902777778
 20
-0.1179945203993055
 10
1.279508463541666
 20
0.2709567599826389
 10
-1.292255316840278
 20
-0.1083482530381944
 10
-1.279508463541666
 20
0.0415134006076389
 10
-1.279508463541666
 20
0.0415134006076389
 10
-1.279508463541666
 20
0.0415134006076389
 10
-1.234722222222222
 20
-0.2709567599826389
 10
-1.234722222222222
 20
-0.2709567599826389
 97
        0
 97
        0
 75
     0
 76
     1
 98
        1
 10
0.0
 20
0.0
  0
ENDBLK
  5
C0
330
BC
100
AcDbEntity
  8
LAYER_1
100
AcDbBlockEnd
  0
BLOCK
  5
C3
330
C1
100
AcDbEntity
  8
LAYER_1
 62
     7
100
AcDbBlockBegin
  2
AI9-BLK21
 70
     0
 10
0.0
 20
0.0
 30
0.0
  3
AI9-BLK21
  1

  0
HATCH
  5
C4
330
C1
100
AcDbEntity
  8
LAYER_1
 62
     7
100
AcDbHatch
 10
0.0
 20
0.0
 30
0.0
210
0.0
220
0.0
230
1.0
  2
SOLID
 70
     1
 71
     0
 91
        1
 92
        1
 93
        1
 72
     4
 94
        3
 73
     0
 74
     0
 95
       14
 96
       10
 40
0.0
 40
0.0
 40
0.0
 40
0.0
 40
1.0
 40
1.0
 40
1.0
 40
2.0
 40
2.0
 40
2.0
 40
3.0
 40
3.0
 40
3.0
 40
3.0
 10
-1.155140516493055
 20
0.4335652669270833
 10
-1.155140516493055
 20
0.4335652669270833
 10
-1.104153103298611
 20
0.5961737738715277
 10
1.155140516493055
 20
-0.7074503580729166
 10
-1.101052517361111
 20
0.5896280924479166
 10
-0.9990776909722221
 20
0.7074503580729166
 10
-0.9990776909722221
 20
0.7074503580729166
 10
-0.9990776909722221
 20
0.7074503580729166
 10
-1.155140516493055
 20
0.4335652669270833
 10
-1.155140516493055
 20
0.4335652669270833
 97
        0
 97
        0
 75
     0
 76
     1
 98
        1
 10
0.0
 20
0.0
  0
ENDBLK
  5
C5
330
C1
100
AcDbEntity
  8
LAYER_1
100
AcDbBlockEnd
  0
BLOCK
  5
C8
330
C6
100
AcDbEntity
  8
LAYER_1
 62
     7
100
AcDbBlockBegin
  2
AI9-BLK22
 70
     0
 10
0.0
 20
0.0
 30
0.0
  3
AI9-BLK22
  1

  0
HATCH
  5
C9
330
C6
100
AcDbEntity
  8
LAYER_1
 62
     7
100
AcDbHatch
 10
0.0
 20
0.0
 30
0.0
210
0.0
220
0.0
230
1.0
  2
SOLID
 70
     1
 71
     0
 91
        1
 92
        1
 93
        1
 72
     4
 94
        3
 73
     0
 74
     0
 95
       14
 96
       10
 40
0.0
 40
0.0
 40
0.0
 40
0.0
 40
1.0
 40
1.0
 40
1.0
 40
2.0
 40
2.0
 40
2.0
 40
3.0
 40
3.0
 40
3.0
 40
3.0
 10
-1.115349663628472
 20
0.5098741319444444
 10
-1.115349663628472
 20
0.5098741319444444
 10
-1.054715983072916
 20
0.6724826388888888
 10
1.115349663628472
 20
-0.7744574652777777
 10
-1.051615397135417
 20
0.6659369574652777
 10
-0.9368937174479166
 20
0.7744574652777777
 10
-0.9368937174479166
 20
0.7744574652777777
 10
-0.9368937174479166
 20
0.7744574652777777
 10
-1.115349663628472
 20
0.5098741319444444
 10
-1.115349663628472
 20
0.5098741319444444
 97
        0
 97
        0
 75
     0
 76
     1
 98
        1
 10
0.0
 20
0.0
  0
ENDBLK
  5
CA
330
C6
100
AcDbEntity
  8
LAYER_1
100
AcDbBlockEnd
  0
BLOCK
  5
CD
330
CB
100
AcDbEntity
  8
LAYER_1
 62
     7
100
AcDbBlockBegin
  2
AI9-BLK23
 70
     0
 10
0.0
 20
0.0
 30
0.0
  3
AI9-BLK23
  1

  0
HATCH
  5
CE
330
CB
100
AcDbEntity
  8
LAYER_1
 62
     7
100
AcDbHatch
 10
0.0
 20
0.0
 30
0.0
210
0.0
220
0.0
230
1.0
  2
SOLID
 70
     1
 71
     0
 91
        1
 92
        1
 93
        1
 72
     4
 94
        3
 73
     0
 74
     0
 95
       14
 96
       10
 40
0.0
 40
0.0
 40
0.0
 40
0.0
 40
1.0
 40
1.0
 40
1.0
 40
2.0
 40
2.0
 40
2.0
 40
3.0
 40
3.0
 40
3.0
 40
3.0
 10
-1.128096516927083
 20
0.4843804253472222
 10
-1.128096516927083
 20
0.4843804253472222
 10
-1.070563422309028
 20
0.6435438368055555
 10
1.128096516927083
 20
-0.7520643446180555
 10
-1.064362250434028
 20
0.6435438368055555
 10
-0.9592868381076388
 20
0.7520643446180555
 10
-0.9592868381076388
 20
0.7520643446180555
 10
-0.9592868381076388
 20
0.7520643446180555
 10
-1.128096516927083
 20
0.4843804253472222
 10
-1.128096516927083
 20
0.4843804253472222
 97
        0
 97
        0
 75
     0
 76
     1
 98
        1
 10
0.0
 20
0.0
  0
ENDBLK
  5
CF
330
CB
100
AcDbEntity
  8
LAYER_1
100
AcDbBlockEnd
  0
BLOCK
  5
D2
330
D0
100
AcDbEntity
  8
LAYER_1
 62
     7
100
AcDbBlockBegin
  2
AI9-BLK24
 70
     0
 10
0.0
 20
0.0
 30
0.0
  3
AI9-BLK24
  1

  0
HATCH
  5
D3
330
D0
100
AcDbEntity
  8
LAYER_1
 62
     7
100
AcDbHatch
 10
0.0
 20
0.0
 30
0.0
210
0.0
220
0.0
230
1.0
  2
SOLID
 70
     1
 71
     0
 91
        1
 92
        1
 93
        1
 72
     4
 94
        3
 73
     0
 74
     0
 95
       14
 96
       10
 40
0.0
 40
0.0
 40
0.0
 40
0.0
 40
1.0
 40
1.0
 40
1.0
 40
2.0
 40
2.0
 40
2.0
 40
3.0
 40
3.0
 40
3.0
 40
3.0
 10
-1.128096516927083
 20
0.4859307183159722
 10
-1.128096516927083
 20
0.4859307183159722
 10
-1.070563422309028
 20
0.6450941297743055
 10
1.128096516927083
 20
-0.7505140516493055
 10
-1.064362250434028
 20
0.6419935438368055
 10
-0.9558417426215277
 20
0.7505140516493055
 10
-0.9558417426215277
 20
0.7505140516493055
 10
-0.9558417426215277
 20
0.7505140516493055
 10
-1.128096516927083
 20
0.4859307183159722
 10
-1.128096516927083
 20
0.4859307183159722
 97
        0
 97
        0
 75
     0
 76
     1
 98
        1
 10
0.0
 20
0.0
  0
ENDBLK
  5
D4
330
D0
100
AcDbEntity
  8
LAYER_1
100
AcDbBlockEnd
  0
BLOCK
  5
D8
330
D6
100
AcDbEntity
  8
LAYER_1
 62
     7
100
AcDbBlockBegin
  2
AI9-BLK25
 70
     0
 10
0.0
 20
0.0
 30
0.0
  3
AI9-BLK25
  1

  0
INSERT
  5
120
330
D6
100
AcDbEntity
  8
LAYER_1
 62
     7
100
AcDbBlockReference
  2
AI9-BLK40
 10
-3.033579
 20
-9.89931
 30
0.0
  0
INSERT
  5
11B
330
D6
100
AcDbEntity
  8
LAYER_1
 62
     7
100
AcDbBlockReference
  2
AI9-BLK39
 10
0.697976
 20
-5.45083
 30
0.0
  0
INSERT
  5
116
330
D6
100
AcDbEntity
  8
LAYER_1
 62
     7
100
AcDbBlockReference
  2
AI9-BLK38
 10
2.592607
 20
-3.142099
 30
0.0
  0
INSERT
  5
111
330
D6
100
AcDbEntity
  8
LAYER_1
 62
     7
100
AcDbBlockReference
  2
AI9-BLK37
 10
4.310159
 20
-0.868336
 30
0.0
  0
INSERT
  5
10C
330
D6
100
AcDbEntity
  8
LAYER_1
 62
     7
100
AcDbBlockReference
  2
AI9-BLK36
 10
5.772774
 20
1.577509
 30
0.0
  0
INSERT
  5
107
330
D6
100
AcDbEntity
  8
LAYER_1
 62
     7
100
AcDbBlockReference
  2
AI9-BLK35
 10
7.115845
 20
4.182518
 30
0.0
  0
INSERT
  5
102
330
D6
100
AcDbEntity
  8
LAYER_1
 62
     7
100
AcDbBlockReference
  2
AI9-BLK34
 10
7.858435
 20
6.331913
 30
0.0
  0
INSERT
  5
FD
330
D6
100
AcDbEntity
  8
LAYER_1
 62
     7
100
AcDbBlockReference
  2
AI9-BLK33
 10
6.951858
 20
8.685258
 30
0.0
  0
INSERT
  5
F8
330
D6
100
AcDbEntity
  8
LAYER_1
 62
     7
100
AcDbBlockReference
  2
AI9-BLK32
 10
2.909555
 20
9.351195
 30
0.0
  0
INSERT
  5
F3
330
D6
100
AcDbEntity
  8
LAYER_1
 62
     7
100
AcDbBlockReference
  2
AI9-BLK31
 10
0.913123
 20
8.074959
 30
0.0
  0
INSERT
  5
EE
330
D6
100
AcDbEntity
  8
LAYER_1
 62
     7
100
AcDbBlockReference
  2
AI9-BLK30
 10
-0.989259
 20
6.175678
 30
0.0
  0
INSERT
  5
E9
330
D6
100
AcDbEntity
  8
LAYER_1
 62
     7
100
AcDbBlockReference
  2
AI9-BLK29
 10
-2.730927
 20
3.825606
 30
0.0
  0
INSERT
  5
E4
330
D6
100
AcDbEntity
  8
LAYER_1
 62
     7
100
AcDbBlockReference
  2
AI9-BLK28
 10
-4.50584
 20
1.427648
 30
0.0
  0
INSERT
  5
DF
330
D6
100
AcDbEntity
  8
LAYER_1
 62
     7
100
AcDbBlockReference
  2
AI9-BLK27
 10
-6.279203
 20
-0.970483
 30
0.0
  0
INSERT
  5
DA
330
D6
100
AcDbEntity
  8
LAYER_1
 62
     7
100
AcDbBlockReference
  2
AI9-BLK26
 10
-8.051016
 20
-3.36672
 30
0.0
  0
ENDBLK
  5
124
330
D6
100
AcDbEntity
  8
LAYER_1
100
AcDbBlockEnd
  0
BLOCK
  5
DB
330
D9
100
AcDbEntity
  8
LAYER_1
 62
     7
100
AcDbBlockBegin
  2
AI9-BLK26
 70
     0
 10
0.0
 20
0.0
 30
0.0
  3
AI9-BLK26
  1

  0
HATCH
  5
DC
330
D9
100
AcDbEntity
  8
LAYER_1
 62
     7
100
AcDbHatch
 10
0.0
 20
0.0
 30
0.0
210
0.0
220
0.0
230
1.0
  2
SOLID
 70
     1
 71
     0
 91
        1
 92
        1
 93
        1
 72
     4
 94
        3
 73
     0
 74
     0
 95
       14
 96
       10
 40
0.0
 40
0.0
 40
0.0
 40
0.0
 40
1.0
 40
1.0
 40
1.0
 40
2.0
 40
2.0
 40
2.0
 40
3.0
 40
3.0
 40
3.0
 40
3.0
 10
-1.080381944444444
 20
0.5639621310763888
 10
-1.080381944444444
 20
0.5639621310763888
 10
-1.016647677951389
 20
0.7203694661458333
 10
1.080381944444444
 20
-0.821999782986111
 10
-1.013202582465278
 20
0.7203694661458333
 10
-0.8922797309027777
 20
0.821999782986111
 10
-0.8922797309027777
 20
0.821999782986111
 10
-0.8922797309027777
 20
0.821999782986111
 10
-1.080381944444444
 20
0.5639621310763888
 10
-1.080381944444444
 20
0.5639621310763888
 97
        0
 97
        0
 75
     0
 76
     1
 98
        1
 10
0.0
 20
0.0
  0
ENDBLK
  5
DD
330
D9
100
AcDbEntity
  8
LAYER_1
100
AcDbBlockEnd
  0
BLOCK
  5
E0
330
DE
100
AcDbEntity
  8
LAYER_1
 62
     7
100
AcDbBlockBegin
  2
AI9-BLK27
 70
     0
 10
0.0
 20
0.0
 30
0.0
  3
AI9-BLK27
  1

  0
HATCH
  5
E1
330
DE
100
AcDbEntity
  8
LAYER_1
 62
     7
100
AcDbHatch
 10
0.0
 20
0.0
 30
0.0
210
0.0
220
0.0
230
1.0
  2
SOLID
 70
     1
 71
     0
 91
        1
 92
        1
 93
        1
 72
     4
 94
        3
 73
     0
 74
     0
 95
       14
 96
       10
 40
0.0
 40
0.0
 40
0.0
 40
0.0
 40
1.0
 40
1.0
 40
1.0
 40
2.0
 40
2.0
 40
2.0
 40
3.0
 40
3.0
 40
3.0
 40
3.0
 10
-1.083482530381944
 20
0.5672349717881944
 10
-1.083482530381944
 20
0.5672349717881944
 10
-1.013547092013889
 20
0.7267428927951388
 10
1.083482530381944
 20
-0.8221720377604166
 10
-1.010101996527778
 20
0.7267428927951388
 10
-0.8922797309027777
 20
0.8221720377604166
 10
-0.8922797309027777
 20
0.8221720377604166
 10
-0.8922797309027777
 20
0.8221720377604166
 10
-1.083482530381944
 20
0.5672349717881944
 10
-1.083482530381944
 20
0.5672349717881944
 97
        0
 97
        0
 75
     0
 76
     1
 98
        1
 10
0.0
 20
0.0
  0
ENDBLK
  5
E2
330
DE
100
AcDbEntity
  8
LAYER_1
100
AcDbBlockEnd
  0
BLOCK
  5
E5
330
E3
100
AcDbEntity
  8
LAYER_1
 62
     7
100
AcDbBlockBegin
  2
AI9-BLK28
 70
     0
 10
0.0
 20
0.0
 30
0.0
  3
AI9-BLK28
  1

  0
HATCH
  5
E6
330
E3
100
AcDbEntity
  8
LAYER_1
 62
     7
100
AcDbHatch
 10
0.0
 20
0.0
 30
0.0
210
0.0
220
0.0
230
1.0
  2
SOLID
 70
     1
 71
     0
 91
        1
 92
        1
 93
        1
 72
     4
 94
        3
 73
     0
 74
     0
 95
       14
 96
       10
 40
0.0
 40
0.0
 40
0.0
 40
0.0
 40
1.0
 40
1.0
 40
1.0
 40
2.0
 40
2.0
 40
2.0
 40
3.0
 40
3.0
 40
3.0
 40
3.0
 10
-1.081932237413194
 20
0.5720581054687499
 10
-1.081932237413194
 20
0.5720581054687499
 10
-1.011652289496528
 20
0.7250203450520832
 10
1.081932237413194
 20
-0.8238945855034722
 10
-1.008551703559028
 20
0.7250203450520832
 10
-0.8938300238715277
 20
0.8238945855034722
 10
-0.8938300238715277
 20
0.8238945855034722
 10
-0.8938300238715277
 20
0.8238945855034722
 10
-1.081932237413194
 20
0.5720581054687499
 10
-1.081932237413194
 20
0.5720581054687499
 97
        0
 97
        0
 75
     0
 76
     1
 98
        1
 10
0.0
 20
0.0
  0
ENDBLK
  5
E7
330
E3
100
AcDbEntity
  8
LAYER_1
100
AcDbBlockEnd
  0
BLOCK
  5
EA
330
E8
100
AcDbEntity
  8
LAYER_1
 62
     7
100
AcDbBlockBegin
  2
AI9-BLK29
 70
     0
 10
0.0
 20
0.0
 30
0.0
  3
AI9-BLK29
  1

  0
HATCH
  5
EB
330
E8
100
AcDbEntity
  8
LAYER_1
 62
     7
100
AcDbHatch
 10
0.0
 20
0.0
 30
0.0
210
0.0
220
0.0
230
1.0
  2
SOLID
 70
     1
 71
     0
 91
        1
 92
        1
 93
        1
 72
     4
 94
        3
 73
     0
 74
     0
 95
       14
 96
       10
 40
0.0
 40
0.0
 40
0.0
 40
0.0
 40
1.0
 40
1.0
 40
1.0
 40
2.0
 40
2.0
 40
2.0
 40
3.0
 40
3.0
 40
3.0
 40
3.0
 10
-1.081932237413194
 20
0.5705078124999999
 10
-1.081932237413194
 20
0.5705078124999999
 10
-1.014752875434028
 20
0.7296712239583333
 10
1.081932237413194
 20
-0.8254448784722221
 10
-1.011652289496528
 20
0.7234700520833333
 10
-0.8938300238715277
 20
0.8254448784722221
 10
-0.8938300238715277
 20
0.8254448784722221
 10
-0.8938300238715277
 20
0.8254448784722221
 10
-1.081932237413194
 20
0.5705078124999999
 10
-1.081932237413194
 20
0.5705078124999999
 97
        0
 97
        0
 75
     0
 76
     1
 98
        1
 10
0.0
 20
0.0
  0
ENDBLK
  5
EC
330
E8
100
AcDbEntity
  8
LAYER_1
100
AcDbBlockEnd
  0
BLOCK
  5
EF
330
ED
100
AcDbEntity
  8
LAYER_1
 62
     7
100
AcDbBlockBegin
  2
AI9-BLK30
 70
     0
 10
0.0
 20
0.0
 30
0.0
  3
AI9-BLK30
  1

  0
HATCH
  5
F0
330
ED
100
AcDbEntity
  8
LAYER_1
 62
     7
100
AcDbHatch
 10
0.0
 20
0.0
 30
0.0
210
0.0
220
0.0
230
1.0
  2
SOLID
 70
     1
 71
     0
 91
        1
 92
        1
 93
        1
 72
     4
 94
        3
 73
     0
 74
     0
 95
       14
 96
       10
 40
0.0
 40
0.0
 40
0.0
 40
0.0
 40
1.0
 40
1.0
 40
1.0
 40
2.0
 40
2.0
 40
2.0
 40
3.0
 40
3.0
 40
3.0
 40
3.0
 10
-1.048342556423611
 20
0.6168443467881944
 10
-1.048342556423611
 20
0.6168443467881944
 10
-0.9718614366319444
 20
0.7760077582465277
 10
1.048342556423611
 20
-0.8652357313368054
 10
-0.9784071180555555
 20
0.7698065863715277
 10
-0.8509385850694444
 20
0.8717814127604165
 10
-0.8509385850694444
 20
0.8652357313368054
 10
-0.8509385850694444
 20
0.8652357313368054
 10
-1.048342556423611
 20
0.6168443467881944
 10
-1.048342556423611
 20
0.6168443467881944
 97
        0
 97
        0
 75
     0
 76
     1
 98
        1
 10
0.0
 20
0.0
  0
ENDBLK
  5
F1
330
ED
100
AcDbEntity
  8
LAYER_1
100
AcDbBlockEnd
  0
BLOCK
  5
F4
330
F2
100
AcDbEntity
  8
LAYER_1
 62
     7
100
AcDbBlockBegin
  2
AI9-BLK31
 70
     0
 10
0.0
 20
0.0
 30
0.0
  3
AI9-BLK31
  1

  0
HATCH
  5
F5
330
F2
100
AcDbEntity
  8
LAYER_1
 62
     7
100
AcDbHatch
 10
0.0
 20
0.0
 30
0.0
210
0.0
220
0.0
230
1.0
  2
SOLID
 70
     1
 71
     0
 91
        1
 92
        1
 93
        1
 72
     4
 94
        3
 73
     0
 74
     0
 95
       14
 96
       10
 40
0.0
 40
0.0
 40
0.0
 40
0.0
 40
1.0
 40
1.0
 40
1.0
 40
2.0
 40
2.0
 40
2.0
 40
3.0
 40
3.0
 40
3.0
 40
3.0
 10
-0.8698866102430555
 20
0.8459431966145833
 10
-0.8698866102430555
 20
0.8459431966145833
 10
-0.7586100260416666
 20
0.9861585828993055
 10
0.8698866102430555
 20
-1.049892849392361
 10
-0.7648111979166666
 20
0.9734117296006943
 10
-0.6214952256944444
 20
1.049892849392361
 10
-0.6214952256944444
 20
1.049892849392361
 10
-0.6214952256944444
 20
1.049892849392361
 10
-0.8698866102430555
 20
0.8459431966145833
 10
-0.8698866102430555
 20
0.8459431966145833
 97
        0
 97
        0
 75
     0
 76
     1
 98
        1
 10
0.0
 20
0.0
  0
ENDBLK
  5
F6
330
F2
100
AcDbEntity
  8
LAYER_1
100
AcDbBlockEnd
  0
BLOCK
  5
F9
330
F7
100
AcDbEntity
  8
LAYER_1
 62
     7
100
AcDbBlockBegin
  2
AI9-BLK32
 70
     0
 10
0.0
 20
0.0
 30
0.0
  3
AI9-BLK32
  1

  0
HATCH
  5
FA
330
F7
100
AcDbEntity
  8
LAYER_1
 62
     7
100
AcDbHatch
 10
0.0
 20
0.0
 30
0.0
210
0.0
220
0.0
230
1.0
  2
SOLID
 70
     1
 71
     0
 91
        1
 92
        1
 93
        1
 72
     4
 94
        3
 73
     0
 74
     0
 95
       14
 96
       10
 40
0.0
 40
0.0
 40
0.0
 40
0.0
 40
1.0
 40
1.0
 40
1.0
 40
2.0
 40
2.0
 40
2.0
 40
3.0
 40
3.0
 40
3.0
 40
3.0
 10
-0.3713812934027778
 20
1.188557942708333
 10
-0.3713812934027778
 20
1.195103624131944
 10
-0.2056722005208333
 20
1.284331597222222
 10
0.3713812934027778
 20
-1.2619384765625
 10
-0.2342664930555555
 20
1.268484157986111
 10
-0.06201171875
 20
1.2619384765625
 10
-0.0654568142361111
 20
1.2619384765625
 10
-0.167431640625
 20
1.239545355902778
 10
-0.2725070529513889
 20
1.233344184027778
 10
-0.3713812934027778
 20
1.188557942708333
 97
        0
 97
        0
 75
     0
 76
     1
 98
        1
 10
0.0
 20
0.0
  0
ENDBLK
  5
FB
330
F7
100
AcDbEntity
  8
LAYER_1
100
AcDbBlockEnd
  0
BLOCK
  5
FE
330
FC
100
AcDbEntity
  8
LAYER_1
 62
     7
100
AcDbBlockBegin
  2
AI9-BLK33
 70
     0
 10
0.0
 20
0.0
 30
0.0
  3
AI9-BLK33
  1

  0
HATCH
  5
FF
330
FC
100
AcDbEntity
  8
LAYER_1
 62
     7
100
AcDbHatch
 10
0.0
 20
0.0
 30
0.0
210
0.0
220
0.0
230
1.0
  2
SOLID
 70
     1
 71
     0
 91
        1
 92
        1
 93
        1
 72
     4
 94
        3
 73
     0
 74
     0
 95
       14
 96
       10
 40
0.0
 40
0.0
 40
0.0
 40
0.0
 40
1.0
 40
1.0
 40
1.0
 40
2.0
 40
2.0
 40
2.0
 40
3.0
 40
3.0
 40
3.0
 40
3.0
 10
0.990981716579861
 20
0.7072781032986111
 10
0.990981716579861
 20
0.7072781032986111
 10
1.115349663628472
 20
0.5736083984375
 10
-1.153590223524305
 20
-0.7072781032986111
 10
1.105703396267361
 20
0.592556423611111
 10
1.153590223524305
 20
0.4268473307291666
 10
1.153590223524305
 20
0.4268473307291666
 10
1.153590223524305
 20
0.4268473307291666
 10
0.990981716579861
 20
0.7072781032986111
 10
0.990981716579861
 20
0.7072781032986111
 97
        0
 97
        0
 75
     0
 76
     1
 98
        1
 10
0.0
 20
0.0
  0
ENDBLK
  5
100
330
FC
100
AcDbEntity
  8
LAYER_1
100
AcDbBlockEnd
  0
BLOCK
  5
103
330
101
100
AcDbEntity
  8
LAYER_1
 62
     7
100
AcDbBlockBegin
  2
AI9-BLK34
 70
     0
 10
0.0
 20
0.0
 30
0.0
  3
AI9-BLK34
  1

  0
HATCH
  5
104
330
101
100
AcDbEntity
  8
LAYER_1
 62
     7
100
AcDbHatch
 10
0.0
 20
0.0
 30
0.0
210
0.0
220
0.0
230
1.0
  2
SOLID
 70
     1
 71
     0
 91
        1
 92
        1
 93
        1
 72
     4
 94
        3
 73
     0
 74
     0
 95
       14
 96
       10
 40
0.0
 40
0.0
 40
0.0
 40
0.0
 40
1.0
 40
1.0
 40
1.0
 40
2.0
 40
2.0
 40
2.0
 40
3.0
 40
3.0
 40
3.0
 40
3.0
 10
1.218874782986111
 20
0.3138481987847222
 10
1.218874782986111
 20
0.3138481987847222
 10
1.295355902777778
 20
0.1419379340277778
 10
-1.272962782118055
 20
-0.3138481987847222
 10
1.288810221354167
 20
0.167431640625
 10
1.272962782118055
 20
0.0017225477430556
 10
1.272962782118055
 20
0.0017225477430556
 10
1.272962782118055
 20
0.0017225477430556
 10
1.218874782986111
 20
0.3138481987847222
 10
1.218874782986111
 20
0.3138481987847222
 97
        0
 97
        0
 75
     0
 76
     1
 98
        1
 10
0.0
 20
0.0
  0
ENDBLK
  5
105
330
101
100
AcDbEntity
  8
LAYER_1
100
AcDbBlockEnd
  0
BLOCK
  5
108
330
106
100
AcDbEntity
  8
LAYER_1
 62
     7
100
AcDbBlockBegin
  2
AI9-BLK35
 70
     0
 10
0.0
 20
0.0
 30
0.0
  3
AI9-BLK35
  1

  0
HATCH
  5
109
330
106
100
AcDbEntity
  8
LAYER_1
 62
     7
100
AcDbHatch
 10
0.0
 20
0.0
 30
0.0
210
0.0
220
0.0
230
1.0
  2
SOLID
 70
     1
 71
     0
 91
        1
 92
        1
 93
        1
 72
     4
 94
        3
 73
     0
 74
     0
 95
       14
 96
       10
 40
0.0
 40
0.0
 40
0.0
 40
0.0
 40
1.0
 40
1.0
 40
1.0
 40
2.0
 40
2.0
 40
2.0
 40
3.0
 40
3.0
 40
3.0
 40
3.0
 10
1.190108235677083
 20
-0.347265625
 10
1.190108235677083
 20
-0.347265625
 10
1.152212185329861
 20
-0.5129747178819444
 10
-1.190108235677083
 20
0.6342420789930555
 10
1.14876708984375
 20
-0.5067735460069444
 10
1.050237358940972
 20
-0.6342420789930555
 10
1.050237358940972
 20
-0.6342420789930555
 10
1.050237358940972
 20
-0.6342420789930555
 10
1.190108235677083
 20
-0.347265625
 10
1.190108235677083
 20
-0.347265625
 97
        0
 97
        0
 75
     0
 76
     1
 98
        1
 10
0.0
 20
0.0
  0
ENDBLK
  5
10A
330
106
100
AcDbEntity
  8
LAYER_1
100
AcDbBlockEnd
  0
BLOCK
  5
10D
330
10B
100
AcDbEntity
  8
LAYER_1
 62
     7
100
AcDbBlockBegin
  2
AI9-BLK36
 70
     0
 10
0.0
 20
0.0
 30
0.0
  3
AI9-BLK36
  1

  0
HATCH
  5
10E
330
10B
100
AcDbEntity
  8
LAYER_1
 62
     7
100
AcDbHatch
 10
0.0
 20
0.0
 30
0.0
210
0.0
220
0.0
230
1.0
  2
SOLID
 70
     1
 71
     0
 91
        1
 92
        1
 93
        1
 72
     4
 94
        3
 73
     0
 74
     0
 95
       14
 96
       10
 40
0.0
 40
0.0
 40
0.0
 40
0.0
 40
1.0
 40
1.0
 40
1.0
 40
2.0
 40
2.0
 40
2.0
 40
3.0
 40
3.0
 40
3.0
 40
3.0
 10
1.169609917534722
 20
-0.3936021592881944
 10
1.169609917534722
 20
-0.3936021592881944
 10
1.124823676215278
 20
-0.5593112521701389
 10
-1.169609917534722
 20
0.6740329318576388
 10
1.121723090277778
 20
-0.5593112521701389
 10
1.016647677951389
 20
-0.6740329318576388
 10
1.016647677951389
 20
-0.6740329318576388
 10
1.016647677951389
 20
-0.6740329318576388
 10
1.169609917534722
 20
-0.3936021592881944
 10
1.169609917534722
 20
-0.3936021592881944
 97
        0
 97
        0
 75
     0
 76
     1
 98
        1
 10
0.0
 20
0.0
  0
ENDBLK
  5
10F
330
10B
100
AcDbEntity
  8
LAYER_1
100
AcDbBlockEnd
  0
BLOCK
  5
112
330
110
100
AcDbEntity
  8
LAYER_1
 62
     7
100
AcDbBlockBegin
  2
AI9-BLK37
 70
     0
 10
0.0
 20
0.0
 30
0.0
  3
AI9-BLK37
  1

  0
HATCH
  5
113
330
110
100
AcDbEntity
  8
LAYER_1
 62
     7
100
AcDbHatch
 10
0.0
 20
0.0
 30
0.0
210
0.0
220
0.0
230
1.0
  2
SOLID
 70
     1
 71
     0
 91
        1
 92
        1
 93
        1
 72
     4
 94
        3
 73
     0
 74
     0
 95
       14
 96
       10
 40
0.0
 40
0.0
 40
0.0
 40
0.0
 40
1.0
 40
1.0
 40
1.0
 40
2.0
 40
2.0
 40
2.0
 40
3.0
 40
3.0
 40
3.0
 40
3.0
 10
1.115349663628472
 20
-0.5098741319444444
 10
1.115349663628472
 20
-0.5098741319444444
 10
1.051615397135417
 20
-0.6755832248263888
 10
-1.115349663628472
 20
0.7775580512152777
 10
1.048170301649305
 20
-0.6693820529513889
 10
0.9334486219618054
 20
-0.7775580512152777
 10
0.9334486219618054
 20
-0.7775580512152777
 10
0.9334486219618054
 20
-0.7775580512152777
 10
1.115349663628472
 20
-0.5098741319444444
 10
1.115349663628472
 20
-0.5098741319444444
 97
        0
 97
        0
 75
     0
 76
     1
 98
        1
 10
0.0
 20
0.0
  0
ENDBLK
  5
114
330
110
100
AcDbEntity
  8
LAYER_1
100
AcDbBlockEnd
  0
BLOCK
  5
117
330
115
100
AcDbEntity
  8
LAYER_1
 62
     7
100
AcDbBlockBegin
  2
AI9-BLK38
 70
     0
 10
0.0
 20
0.0
 30
0.0
  3
AI9-BLK38
  1

  0
HATCH
  5
118
330
115
100
AcDbEntity
  8
LAYER_1
 62
     7
100
AcDbHatch
 10
0.0
 20
0.0
 30
0.0
210
0.0
220
0.0
230
1.0
  2
SOLID
 70
     1
 71
     0
 91
        1
 92
        1
 93
        1
 72
     4
 94
        3
 73
     0
 74
     0
 95
       14
 96
       10
 40
0.0
 40
0.0
 40
0.0
 40
0.0
 40
1.0
 40
1.0
 40
1.0
 40
2.0
 40
2.0
 40
2.0
 40
3.0
 40
3.0
 40
3.0
 40
3.0
 10
1.045241970486111
 20
-0.6259738498263888
 10
1.045241970486111
 20
-0.6259738498263888
 10
0.9687608506944444
 20
-0.7823811848958333
 10
-1.045241970486111
 20
0.874709743923611
 10
0.9653157552083332
 20
-0.7789360894097221
 10
0.8412923177083332
 20
-0.874709743923611
 10
0.8412923177083332
 20
-0.874709743923611
 10
0.8412923177083332
 20
-0.874709743923611
 10
1.045241970486111
 20
-0.6259738498263888
 10
1.045241970486111
 20
-0.6259738498263888
 97
        0
 97
        0
 75
     0
 76
     1
 98
        1
 10
0.0
 20
0.0
  0
ENDBLK
  5
119
330
115
100
AcDbEntity
  8
LAYER_1
100
AcDbBlockEnd
  0
BLOCK
  5
11C
330
11A
100
AcDbEntity
  8
LAYER_1
 62
     7
100
AcDbBlockBegin
  2
AI9-BLK39
 70
     0
 10
0.0
 20
0.0
 30
0.0
  3
AI9-BLK39
  1

  0
HATCH
  5
11D
330
11A
100
AcDbEntity
  8
LAYER_1
 62
     7
100
AcDbHatch
 10
0.0
 20
0.0
 30
0.0
210
0.0
220
0.0
230
1.0
  2
SOLID
 70
     1
 71
     0
 91
        1
 92
        1
 93
        1
 72
     4
 94
        3
 73
     0
 74
     0
 95
       14
 96
       10
 40
0.0
 40
0.0
 40
0.0
 40
0.0
 40
1.0
 40
1.0
 40
1.0
 40
2.0
 40
2.0
 40
2.0
 40
3.0
 40
3.0
 40
3.0
 40
3.0
 10
1.046792263454861
 20
-0.6244235568576388
 10
1.046792263454861
 20
-0.6244235568576388
 10
0.9734117296006943
 20
-0.7839314778645833
 10
-1.046792263454861
 20
0.873159450954861
 10
0.9703111436631944
 20
-0.7742852105034721
 10
0.8459431966145833
 20
-0.873159450954861
 10
0.8459431966145833
 20
-0.873159450954861
 10
0.8459431966145833
 20
-0.873159450954861
 10
1.046792263454861
 20
-0.6244235568576388
 10
1.046792263454861
 20
-0.6244235568576388
 97
        0
 97
        0
 75
     0
 76
     1
 98
        1
 10
0.0
 20
0.0
  0
ENDBLK
  5
11E
330
11A
100
AcDbEntity
  8
LAYER_1
100
AcDbBlockEnd
  0
BLOCK
  5
121
330
11F
100
AcDbEntity
  8
LAYER_1
 62
     7
100
AcDbBlockBegin
  2
AI9-BLK40
 70
     0
 10
0.0
 20
0.0
 30
0.0
  3
AI9-BLK40
  1

  0
HATCH
  5
122
330
11F
100
AcDbEntity
  8
LAYER_1
 62
     7
100
AcDbHatch
 10
0.0
 20
0.0
 30
0.0
210
0.0
220
0.0
230
1.0
  2
SOLID
 70
     1
 71
     0
 91
        1
 92
        1
 93
        1
 72
     4
 94
        3
 73
     0
 74
     0
 95
       14
 96
       10
 40
0.0
 40
0.0
 40
0.0
 40
0.0
 40
1.0
 40
1.0
 40
1.0
 40
2.0
 40
2.0
 40
2.0
 40
3.0
 40
3.0
 40
3.0
 40
3.0
 10
1.065912543402778
 20
-0.7138237847222222
 10
1.065912543402778
 20
-0.7138237847222222
 10
1.097951931423611
 20
-0.7393174913194444
 10
-1.065912543402778
 20
0.7138237847222222
 10
1.0945068359375
 20
-0.7393174913194444
 10
1.065912543402778
 20
-0.7138237847222222
 10
1.065912543402778
 20
-0.7138237847222222
 10
1.065912543402778
 20
-0.7138237847222222
 10
1.065912543402778
 20
-0.7138237847222222
 10
1.065912543402778
 20
-0.7138237847222222
 97
        0
 97
        0
 75
     0
 76
     1
 98
        1
 10
0.0
 20
0.0
  0
ENDBLK
  5
123
330
11F
100
AcDbEntity
  8
LAYER_1
100
AcDbBlockEnd
  0
BLOCK
  5
127
330
125
100
AcDbEntity
  8
LAYER_1
 62
     7
100
AcDbBlockBegin
  2
AI9-BLK41
 70
     0
 10
0.0
 20
0.0
 30
0.0
  3
AI9-BLK41
  1

  0
INSERT
  5
12E
330
125
100
AcDbEntity
  8
LAYER_1
 62
     7
100
AcDbBlockReference
  2
AI9-BLK43
 10
2.464966
 20
-1.5279
 30
0.0
  0
INSERT
  5
129
330
125
100
AcDbEntity
  8
LAYER_1
 62
     7
100
AcDbBlockReference
  2
AI9-BLK42
 10
-1.948546
 20
1.258666
 30
0.0
  0
ENDBLK
  5
132
330
125
100
AcDbEntity
  8
LAYER_1
100
AcDbBlockEnd
  0
BLOCK
  5
12A
330
128
100
AcDbEntity
  8
LAYER_1
 62
     7
100
AcDbBlockBegin
  2
AI9-BLK42
 70
     0
 10
0.0
 20
0.0
 30
0.0
  3
AI9-BLK42
  1

  0
HATCH
  5
12B
330
128
100
AcDbEntity
  8
LAYER_1
 62
     7
100
AcDbHatch
 10
0.0
 20
0.0
 30
0.0
210
0.0
220
0.0
230
1.0
  2
SOLID
 70
     1
 71
     0
 91
        1
 92
        1
 93
        1
 72
     4
 94
        3
 73
     0
 74
     0
 95
       14
 96
       10
 40
0.0
 40
0.0
 40
0.0
 40
0.0
 40
1.0
 40
1.0
 40
1.0
 40
2.0
 40
2.0
 40
2.0
 40
3.0
 40
3.0
 40
3.0
 40
3.0
 10
1.392335340711806
 20
2.203483072916666
 10
1.392335340711806
 20
2.203483072916666
 10
1.510502115885417
 20
2.021926540798611
 10
-1.739945475260416
 20
-2.203483072916666
 10
1.577336968315972
 20
1.951991102430555
 10
1.739945475260416
 20
1.89755859375
 10
1.739945475260416
 20
1.89755859375
 10
1.739945475260416
 20
1.89755859375
 10
1.392335340711806
 20
2.203483072916666
 10
1.392335340711806
 20
2.203483072916666
 97
        0
 97
        0
 75
     0
 76
     1
 98
        1
 10
0.0
 20
0.0
  0
ENDBLK
  5
12C
330
128
100
AcDbEntity
  8
LAYER_1
100
AcDbBlockEnd
  0
BLOCK
  5
12F
330
12D
100
AcDbEntity
  8
LAYER_1
 62
     7
100
AcDbBlockBegin
  2
AI9-BLK43
 70
     0
 10
0.0
 20
0.0
 30
0.0
  3
AI9-BLK43
  1

  0
HATCH
  5
130
330
12D
100
AcDbEntity
  8
LAYER_1
 62
     7
100
AcDbHatch
 10
0.0
 20
0.0
 30
0.0
210
0.0
220
0.0
230
1.0
  2
SOLID
 70
     1
 71
     0
 91
        1
 92
        1
 93
        1
 72
     4
 94
        3
 73
     0
 74
     0
 95
       14
 96
       10
 40
0.0
 40
0.0
 40
0.0
 40
0.0
 40
1.0
 40
1.0
 40
1.0
 40
2.0
 40
2.0
 40
2.0
 40
3.0
 40
3.0
 40
3.0
 40
3.0
 10
0.8221720377604166
 20
1.934248860677083
 10
0.8221720377604166
 20
1.934248860677083
 10
0.9813354492187499
 20
1.768539767795139
 10
-1.223525661892361
 20
-1.934248860677083
 10
1.006829155815972
 20
1.723753526475694
 10
1.223525661892361
 20
1.653818088107639
 10
1.223525661892361
 20
1.653818088107639
 10
1.223525661892361
 20
1.653818088107639
 10
0.8221720377604166
 20
1.934248860677083
 10
0.8221720377604166
 20
1.934248860677083
 97
        0
 97
        0
 75
     0
 76
     1
 98
        1
 10
0.0
 20
0.0
  0
ENDBLK
  5
131
330
12D
100
AcDbEntity
  8
LAYER_1
100
AcDbBlockEnd
  0
BLOCK
  5
135
330
133
100
AcDbEntity
  8
LAYER_1
 62
     7
100
AcDbBlockBegin
  2
AI9-BLK44
 70
     0
 10
0.0
 20
0.0
 30
0.0
  3
AI9-BLK44
  1

  0
INSERT
  5
13C
330
133
100
AcDbEntity
  8
LAYER_1
 62
     7
100
AcDbBlockReference
  2
AI9-BLK46
 10
2.228977
 20
-1.285882
 30
0.0
  0
INSERT
  5
137
330
133
100
AcDbEntity
  8
LAYER_1
 62
     7
100
AcDbBlockReference
  2
AI9-BLK45
 10
-2.227426
 20
1.282781
 30
0.0
  0
ENDBLK
  5
140
330
133
100
AcDbEntity
  8
LAYER_1
100
AcDbBlockEnd
  0
BLOCK
  5
138
330
136
100
AcDbEntity
  8
LAYER_1
 62
     7
100
AcDbBlockBegin
  2
AI9-BLK45
 70
     0
 10
0.0
 20
0.0
 30
0.0
  3
AI9-BLK45
  1

  0
HATCH
  5
139
330
136
100
AcDbEntity
  8
LAYER_1
 62
     7
100
AcDbHatch
 10
0.0
 20
0.0
 30
0.0
210
0.0
220
0.0
230
1.0
  2
SOLID
 70
     1
 71
     0
 91
        1
 92
        1
 93
        1
 72
     4
 94
        3
 73
     0
 74
     0
 95
       14
 96
       10
 40
0.0
 40
0.0
 40
0.0
 40
0.0
 40
1.0
 40
1.0
 40
1.0
 40
2.0
 40
2.0
 40
2.0
 40
3.0
 40
3.0
 40
3.0
 40
3.0
 10
-0.8571397569444443
 20
-1.050065104166667
 10
-0.8571397569444443
 20
-1.050065104166667
 10
-0.6628363715277777
 20
-1.215774197048611
 10
0.8571397569444443
 20
1.295355902777778
 10
-0.6597357855902777
 20
-1.209573025173611
 10
-0.4461398654513888
 20
-1.295355902777778
 10
-0.4461398654513888
 20
-1.295355902777778
 10
-0.4461398654513888
 20
-1.295355902777778
 10
-0.8571397569444443
 20
-1.050065104166667
 10
-0.8571397569444443
 20
-1.050065104166667
 97
        0
 97
        0
 75
     0
 76
     1
 98
        1
 10
0.0
 20
0.0
  0
ENDBLK
  5
13A
330
136
100
AcDbEntity
  8
LAYER_1
100
AcDbBlockEnd
  0
BLOCK
  5
13D
330
13B
100
AcDbEntity
  8
LAYER_1
 62
     7
100
AcDbBlockBegin
  2
AI9-BLK46
 70
     0
 10
0.0
 20
0.0
 30
0.0
  3
AI9-BLK46
  1

  0
HATCH
  5
13E
330
13B
100
AcDbEntity
  8
LAYER_1
 62
     7
100
AcDbHatch
 10
0.0
 20
0.0
 30
0.0
210
0.0
220
0.0
230
1.0
  2
SOLID
 70
     1
 71
     0
 91
        1
 92
        1
 93
        1
 72
     4
 94
        3
 73
     0
 74
     0
 95
       14
 96
       10
 40
0.0
 40
0.0
 40
0.0
 40
0.0
 40
1.0
 40
1.0
 40
1.0
 40
2.0
 40
2.0
 40
2.0
 40
3.0
 40
3.0
 40
3.0
 40
3.0
 10
-0.8555894639756944
 20
-1.043519422743056
 10
-0.8555894639756944
 20
-1.043519422743056
 10
-0.6578409830729166
 20
-1.215774197048611
 10
0.8555894639756944
 20
1.292255316840278
 10
-0.6547403971354167
 20
-1.2123291015625
 10
-0.4380438910590278
 20
-1.292255316840278
 10
-0.4380438910590278
 20
-1.292255316840278
 10
-0.4380438910590278
 20
-1.292255316840278
 10
-0.8555894639756944
 20
-1.043519422743056
 10
-0.8555894639756944
 20
-1.043519422743056
 97
        0
 97
        0
 75
     0
 76
     1
 98
        1
 10
0.0
 20
0.0
  0
ENDBLK
  5
13F
330
13B
100
AcDbEntity
  8
LAYER_1
100
AcDbBlockEnd
  0
BLOCK
  5
143
330
141
100
AcDbEntity
  8
LAYER_1
 62
     7
100
AcDbBlockBegin
  2
AI9-BLK47
 70
     0
 10
0.0
 20
0.0
 30
0.0
  3
AI9-BLK47
  1

  0
INSERT
  5
159
330
141
100
AcDbEntity
  8
LAYER_1
 62
     7
100
AcDbBlockReference
  2
AI9-BLK52
 10
-0.264239
 20
1.225248
 30
0.0
  0
INSERT
  5
154
330
141
100
AcDbEntity
  8
LAYER_1
 62
     7
100
AcDbBlockReference
  2
AI9-BLK51
 10
-1.373387
 20
0.339342
 30
0.0
  0
INSERT
  5
14F
330
141
100
AcDbEntity
  8
LAYER_1
 62
     7
100
AcDbBlockReference
  2
AI9-BLK50
 10
-0.439594
 20
-1.306552
 30
0.0
  0
INSERT
  5
14A
330
141
100
AcDbEntity
  8
LAYER_1
 62
     7
100
AcDbBlockReference
  2
AI9-BLK49
 10
1.402326
 20
-1.486559
 30
0.0
  0
INSERT
  5
145
330
141
100
AcDbEntity
  8
LAYER_1
 62
     7
100
AcDbBlockReference
  2
AI9-BLK48
 10
1.41335
 20
0.618222
 30
0.0
  0
ENDBLK
  5
15D
330
141
100
AcDbEntity
  8
LAYER_1
100
AcDbBlockEnd
  0
BLOCK
  5
146
330
144
100
AcDbEntity
  8
LAYER_1
 62
     7
100
AcDbBlockBegin
  2
AI9-BLK48
 70
     0
 10
0.0
 20
0.0
 30
0.0
  3
AI9-BLK48
  1

  0
HATCH
  5
147
330
144
100
AcDbEntity
  8
LAYER_1
 62
     7
100
AcDbHatch
 10
0.0
 20
0.0
 30
0.0
210
0.0
220
0.0
230
1.0
  2
SOLID
 70
     1
 71
     0
 91
        1
 92
        1
 93
        1
 72
     4
 94
        3
 73
     0
 74
     0
 95
       14
 96
       10
 40
0.0
 40
0.0
 40
0.0
 40
0.0
 40
1.0
 40
1.0
 40
1.0
 40
2.0
 40
2.0
 40
2.0
 40
3.0
 40
3.0
 40
3.0
 40
3.0
 10
0.4683607313368055
 20
0.4332207573784722
 10
0.4683607313368055
 20
0.4332207573784722
 10
0.50694580078125
 20
0.2675116644965278
 10
-0.5958292643229166
 20
-0.4332207573784722
 10
0.5324395073784721
 20
0.2516642252604167
 10
0.5958292643229166
 20
0.1338419596354167
 10
0.5958292643229166
 20
0.1338419596354167
 10
0.5958292643229166
 20
0.1338419596354167
 10
0.4683607313368055
 20
0.4332207573784722
 10
0.4683607313368055
 20
0.4332207573784722
 97
        0
 97
        0
 75
     0
 76
     1
 98
        1
 10
0.0
 20
0.0
  0
ENDBLK
  5
148
330
144
100
AcDbEntity
  8
LAYER_1
100
AcDbBlockEnd
  0
BLOCK
  5
14B
330
149
100
AcDbEntity
  8
LAYER_1
 62
     7
100
AcDbBlockBegin
  2
AI9-BLK49
 70
     0
 10
0.0
 20
0.0
 30
0.0
  3
AI9-BLK49
  1

  0
HATCH
  5
14C
330
149
100
AcDbEntity
  8
LAYER_1
 62
     7
100
AcDbHatch
 10
0.0
 20
0.0
 30
0.0
210
0.0
220
0.0
230
1.0
  2
SOLID
 70
     1
 71
     0
 91
        1
 92
        1
 93
        1
 72
     4
 94
        3
 73
     0
 74
     0
 95
       14
 96
       10
 40
0.0
 40
0.0
 40
0.0
 40
0.0
 40
1.0
 40
1.0
 40
1.0
 40
2.0
 40
2.0
 40
2.0
 40
3.0
 40
3.0
 40
3.0
 40
3.0
 10
0.4190958658854166
 20
-0.2787082248263889
 10
0.4190958658854166
 20
-0.2787082248263889
 10
0.2947279188368056
 20
-0.3393419053819444
 10
-0.4190958658854166
 20
0.4923041449652778
 10
0.2819810655381944
 20
-0.3934299045138889
 10
0.1831068250868055
 20
-0.4954047309027778
 10
0.1831068250868055
 20
-0.4923041449652778
 10
0.2595879448784722
 20
-0.4254692925347222
 10
0.35191650390625
 20
-0.3648356119791666
 10
0.4190958658854166
 20
-0.2787082248263889
 97
        0
 97
        0
 75
     0
 76
     1
 98
        1
 10
0.0
 20
0.0
  0
ENDBLK
  5
14D
330
149
100
AcDbEntity
  8
LAYER_1
100
AcDbBlockEnd
  0
BLOCK
  5
150
330
14E
100
AcDbEntity
  8
LAYER_1
 62
     7
100
AcDbBlockBegin
  2
AI9-BLK50
 70
     0
 10
0.0
 20
0.0
 30
0.0
  3
AI9-BLK50
  1

  0
HATCH
  5
151
330
14E
100
AcDbEntity
  8
LAYER_1
 62
     7
100
AcDbHatch
 10
0.0
 20
0.0
 30
0.0
210
0.0
220
0.0
230
1.0
  2
SOLID
 70
     1
 71
     0
 91
        1
 92
        1
 93
        1
 72
     4
 94
        3
 73
     0
 74
     0
 95
       14
 96
       10
 40
0.0
 40
0.0
 40
0.0
 40
0.0
 40
1.0
 40
1.0
 40
1.0
 40
2.0
 40
2.0
 40
2.0
 40
3.0
 40
3.0
 40
3.0
 40
3.0
 10
-0.0971516927083333
 20
-0.5672349717881944
 10
-0.0971516927083333
 20
-0.5672349717881944
 10
-0.2056722005208333
 20
-0.4525132921006944
 10
0.3872287326388889
 20
0.5672349717881944
 10
-0.2342664930555555
 20
-0.4397664388020833
 10
-0.3872287326388889
 20
-0.4270195855034722
 10
-0.3872287326388889
 20
-0.4270195855034722
 10
-0.3872287326388889
 20
-0.4270195855034722
 10
-0.0971516927083333
 20
-0.5672349717881944
 10
-0.0971516927083333
 20
-0.5672349717881944
 97
        0
 97
        0
 75
     0
 76
     1
 98
        1
 10
0.0
 20
0.0
  0
ENDBLK
  5
152
330
14E
100
AcDbEntity
  8
LAYER_1
100
AcDbBlockEnd
  0
BLOCK
  5
155
330
153
100
AcDbEntity
  8
LAYER_1
 62
     7
100
AcDbBlockBegin
  2
AI9-BLK51
 70
     0
 10
0.0
 20
0.0
 30
0.0
  3
AI9-BLK51
  1

  0
HATCH
  5
156
330
153
100
AcDbEntity
  8
LAYER_1
 62
     7
100
AcDbHatch
 10
0.0
 20
0.0
 30
0.0
210
0.0
220
0.0
230
1.0
  2
SOLID
 70
     1
 71
     0
 91
        1
 92
        1
 93
        1
 72
     4
 94
        3
 73
     0
 74
     0
 95
       14
 96
       10
 40
0.0
 40
0.0
 40
0.0
 40
0.0
 40
1.0
 40
1.0
 40
1.0
 40
2.0
 40
2.0
 40
2.0
 40
3.0
 40
3.0
 40
3.0
 40
3.0
 10
-0.6196004231770833
 20
-0.1353922526041667
 10
-0.6196004231770833
 20
-0.1353922526041667
 10
-0.6323472764756944
 20
0.0113688151041667
 10
0.6357923719618055
 20
-0.1832790798611111
 10
-0.6450941297743055
 20
0.0527099609375
 10
-0.6357923719618055
 20
0.1832790798611111
 10
-0.6357923719618055
 20
0.1832790798611111
 10
-0.6419935438368055
 20
0.0782036675347222
 10
-0.6419935438368055
 20
-0.0303168402777778
 10
-0.6196004231770833
 20
-0.1353922526041667
 97
        0
 97
        0
 75
     0
 76
     1
 98
        1
 10
0.0
 20
0.0
  0
ENDBLK
  5
157
330
153
100
AcDbEntity
  8
LAYER_1
100
AcDbBlockEnd
  0
BLOCK
  5
15A
330
158
100
AcDbEntity
  8
LAYER_1
 62
     7
100
AcDbBlockBegin
  2
AI9-BLK52
 70
     0
 10
0.0
 20
0.0
 30
0.0
  3
AI9-BLK52
  1

  0
HATCH
  5
15B
330
158
100
AcDbEntity
  8
LAYER_1
 62
     7
100
AcDbHatch
 10
0.0
 20
0.0
 30
0.0
210
0.0
220
0.0
230
1.0
  2
SOLID
 70
     1
 71
     0
 91
        1
 92
        1
 93
        1
 72
     4
 94
        3
 73
     0
 74
     0
 95
       14
 96
       10
 40
0.0
 40
0.0
 40
0.0
 40
0.0
 40
1.0
 40
1.0
 40
1.0
 40
2.0
 40
2.0
 40
2.0
 40
3.0
 40
3.0
 40
3.0
 40
3.0
 10
-0.2501139322916666
 20
0.6674872504340277
 10
-0.2535590277777778
 20
0.6674872504340277
 10
-0.1098985460069444
 20
0.6674872504340277
 10
0.2501139322916666
 20
-0.7536146375868055
 10
-0.0589111328125
 20
0.6802341037326388
 10
0.0589111328125
 20
0.7536146375868055
 10
0.055810546875
 20
0.7536146375868055
 10
0.055810546875
 20
0.7536146375868055
 10
-0.2501139322916666
 20
0.6674872504340277
 10
-0.2501139322916666
 20
0.6674872504340277
 97
        0
 97
        0
 75
     0
 76
     1
 98
        1
 10
0.0
 20
0.0
  0
ENDBLK
  5
15C
330
158
100
AcDbEntity
  8
LAYER_1
100
AcDbBlockEnd
  0
BLOCK
  5
160
330
15E
100
AcDbEntity
  8
LAYER_1
 62
     7
100
AcDbBlockBegin
  2
AI9-BLK53
 70
     0
 10
0.0
 20
0.0
 30
0.0
  3
AI9-BLK53
  1

  0
INSERT
  5
17B
330
15E
100
AcDbEntity
  8
LAYER_1
 62
     7
100
AcDbBlockReference
  2
AI9-BLK59
 10
1.878611
 20
0.796506
 30
0.0
  0
INSERT
  5
176
330
15E
100
AcDbEntity
  8
LAYER_1
 62
     7
100
AcDbBlockReference
  2
AI9-BLK58
 10
-0.019293
 20
1.43092
 30
0.0
  0
INSERT
  5
171
330
15E
100
AcDbEntity
  8
LAYER_1
 62
     7
100
AcDbBlockReference
  2
AI9-BLK57
 10
0.079582
 20
-1.381483
 30
0.0
  0
INSERT
  5
16C
330
15E
100
AcDbEntity
  8
LAYER_1
 62
     7
100
AcDbBlockReference
  2
AI9-BLK56
 10
-1.418174
 20
-0.959287
 30
0.0
  0
INSERT
  5
167
330
15E
100
AcDbEntity
  8
LAYER_1
 62
     7
100
AcDbBlockReference
  2
AI9-BLK55
 10
-1.499478
 20
0.461987
 30
0.0
  0
INSERT
  5
162
330
15E
100
AcDbEntity
  8
LAYER_1
 62
     7
100
AcDbBlockReference
  2
AI9-BLK54
 10
1.927875
 20
-0.956014
 30
0.0
  0
ENDBLK
  5
17F
330
15E
100
AcDbEntity
  8
LAYER_1
100
AcDbBlockEnd
  0
BLOCK
  5
163
330
161
100
AcDbEntity
  8
LAYER_1
 62
     7
100
AcDbBlockBegin
  2
AI9-BLK54
 70
     0
 10
0.0
 20
0.0
 30
0.0
  3
AI9-BLK54
  1

  0
HATCH
  5
164
330
161
100
AcDbEntity
  8
LAYER_1
 62
     7
100
AcDbHatch
 10
0.0
 20
0.0
 30
0.0
210
0.0
220
0.0
230
1.0
  2
SOLID
 70
     1
 71
     0
 91
        1
 92
        1
 93
        1
 72
     4
 94
        3
 73
     0
 74
     0
 95
       20
 96
       16
 40
0.0
 40
0.0
 40
0.0
 40
0.0
 40
1.0
 40
1.0
 40
1.0
 40
2.0
 40
2.0
 40
2.0
 40
3.0
 40
3.0
 40
3.0
 40
4.0
 40
4.0
 40
4.0
 40
5.0
 40
5.0
 40
5.0
 40
5.0
 10
0.396875
 20
-0.1848293728298611
 10
0.396875
 20
-0.1848293728298611
 10
0.396875
 20
-0.2771579318576389
 10
0.2087727864583333
 20
-0.1338419596354167
 10
0.1608859592013889
 20
-0.1021470811631944
 10
-0.4096218532986111
 20
0.4652601453993055
 10
-0.396875
 20
0.4525132921006944
 10
-0.6070258246527778
 20
0.7009046766493054
 10
0.0813042534722222
 20
-0.0956013997395833
 10
0.1164442274305556
 20
-0.2041219075520833
 10
0.2373670789930555
 20
-0.4080715603298611
 10
0.1767333984375
 20
-0.4525132921006944
 10
0.1767333984375
 20
-0.4525132921006944
 10
0.2532145182291666
 20
-0.3887790256076388
 10
0.3458875868055555
 20
-0.2771579318576389
 10
0.396875
 20
-0.1848293728298611
 97
        0
 97
        0
 75
     0
 76
     1
 98
        1
 10
0.0
 20
0.0
  0
ENDBLK
  5
165
330
161
100
AcDbEntity
  8
LAYER_1
100
AcDbBlockEnd
  0
BLOCK
  5
168
330
166
100
AcDbEntity
  8
LAYER_1
 62
     7
100
AcDbBlockBegin
  2
AI9-BLK55
 70
     0
 10
0.0
 20
0.0
 30
0.0
  3
AI9-BLK55
  1

  0
HATCH
  5
169
330
166
100
AcDbEntity
  8
LAYER_1
 62
     7
100
AcDbHatch
 10
0.0
 20
0.0
 30
0.0
210
0.0
220
0.0
230
1.0
  2
SOLID
 70
     1
 71
     0
 91
        1
 92
        1
 93
        1
 72
     4
 94
        3
 73
     0
 74
     0
 95
       14
 96
       10
 40
0.0
 40
0.0
 40
0.0
 40
0.0
 40
1.0
 40
1.0
 40
1.0
 40
2.0
 40
2.0
 40
2.0
 40
3.0
 40
3.0
 40
3.0
 40
3.0
 10
-0.8252726236979165
 20
0.0987019856770833
 10
-0.8314737955729166
 20
0.0987019856770833
 10
-0.6530178493923611
 20
0.3026516384548611
 10
0.8252726236979165
 20
-0.4876532660590278
 10
-0.6595635308159722
 20
0.28990478515625
 10
-0.5510430230034722
 20
0.4876532660590278
 10
-0.5510430230034722
 20
0.4876532660590278
 10
-0.5510430230034722
 20
0.4876532660590278
 10
-0.8252726236979165
 20
0.0987019856770833
 10
-0.8252726236979165
 20
0.0987019856770833
 97
        0
 97
        0
 75
     0
 76
     1
 98
        1
 10
0.0
 20
0.0
  0
ENDBLK
  5
16A
330
166
100
AcDbEntity
  8
LAYER_1
100
AcDbBlockEnd
  0
BLOCK
  5
16D
330
16B
100
AcDbEntity
  8
LAYER_1
 62
     7
100
AcDbBlockBegin
  2
AI9-BLK56
 70
     0
 10
0.0
 20
0.0
 30
0.0
  3
AI9-BLK56
  1

  0
HATCH
  5
16E
330
16B
100
AcDbEntity
  8
LAYER_1
 62
     7
100
AcDbHatch
 10
0.0
 20
0.0
 30
0.0
210
0.0
220
0.0
230
1.0
  2
SOLID
 70
     1
 71
     0
 91
        1
 92
        1
 93
        1
 72
     4
 94
        3
 73
     0
 74
     0
 95
       14
 96
       10
 40
0.0
 40
0.0
 40
0.0
 40
0.0
 40
1.0
 40
1.0
 40
1.0
 40
2.0
 40
2.0
 40
2.0
 40
3.0
 40
3.0
 40
3.0
 40
3.0
 10
-0.4573364257812499
 20
-0.5067735460069444
 10
-0.46043701171875
 20
-0.5129747178819444
 10
-0.5624118381076388
 20
-0.3855061848958333
 10
0.6454386393229166
 20
0.5067735460069444
 10
-0.5527655707465278
 20
-0.3982530381944444
 10
-0.6454386393229166
 20
-0.2804307725694444
 10
-0.6454386393229166
 20
-0.2804307725694444
 10
-0.6454386393229166
 20
-0.2804307725694444
 10
-0.4573364257812499
 20
-0.5067735460069444
 10
-0.4573364257812499
 20
-0.5067735460069444
 97
        0
 97
        0
 75
     0
 76
     1
 98
        1
 10
0.0
 20
0.0
  0
ENDBLK
  5
16F
330
16B
100
AcDbEntity
  8
LAYER_1
100
AcDbBlockEnd
  0
BLOCK
  5
172
330
170
100
AcDbEntity
  8
LAYER_1
 62
     7
100
AcDbBlockBegin
  2
AI9-BLK57
 70
     0
 10
0.0
 20
0.0
 30
0.0
  3
AI9-BLK57
  1

  0
HATCH
  5
173
330
170
100
AcDbEntity
  8
LAYER_1
 62
     7
100
AcDbHatch
 10
0.0
 20
0.0
 30
0.0
210
0.0
220
0.0
230
1.0
  2
SOLID
 70
     1
 71
     0
 91
        1
 92
        1
 93
        1
 72
     4
 94
        3
 73
     0
 74
     0
 95
       14
 96
       10
 40
0.0
 40
0.0
 40
0.0
 40
0.0
 40
1.0
 40
1.0
 40
1.0
 40
2.0
 40
2.0
 40
2.0
 40
3.0
 40
3.0
 40
3.0
 40
3.0
 10
0.0430636935763889
 20
-0.7377671983506944
 10
0.0461642795138889
 20
-0.7474134657118054
 10
-0.2659613715277778
 20
-1.078831651475694
 10
0.3138481987847222
 20
0.7377671983506944
 10
-0.2949001736111111
 20
-1.066084798177083
 10
-0.3138481987847222
 20
-0.69298095703125
 10
-0.3138481987847222
 20
-0.69298095703125
 10
-0.3138481987847222
 20
-0.69298095703125
 10
0.0430636935763889
 20
-0.7377671983506944
 10
0.0430636935763889
 20
-0.7377671983506944
 97
        0
 97
        0
 75
     0
 76
     1
 98
        1
 10
0.0
 20
0.0
  0
ENDBLK
  5
174
330
170
100
AcDbEntity
  8
LAYER_1
100
AcDbBlockEnd
  0
BLOCK
  5
177
330
175
100
AcDbEntity
  8
LAYER_1
 62
     7
100
AcDbBlockBegin
  2
AI9-BLK58
 70
     0
 10
0.0
 20
0.0
 30
0.0
  3
AI9-BLK58
  1

  0
HATCH
  5
178
330
175
100
AcDbEntity
  8
LAYER_1
 62
     7
100
AcDbHatch
 10
0.0
 20
0.0
 30
0.0
210
0.0
220
0.0
230
1.0
  2
SOLID
 70
     1
 71
     0
 91
        1
 92
        1
 93
        1
 72
     4
 94
        3
 73
     0
 74
     0
 95
       14
 96
       10
 40
0.0
 40
0.0
 40
0.0
 40
0.0
 40
1.0
 40
1.0
 40
1.0
 40
2.0
 40
2.0
 40
2.0
 40
3.0
 40
3.0
 40
3.0
 40
3.0
 10
-0.1481391059027778
 20
0.6883300781249999
 10
-0.1481391059027778
 20
0.6883300781249999
 10
-0.0430636935763889
 20
0.7613661024305555
 10
-0.0523654513888889
 20
-0.6883300781249999
 10
-0.0237711588541667
 20
0.7679117838541666
 10
0.1481391059027778
 20
0.6755832248263888
 10
0.1481391059027778
 20
0.6755832248263888
 10
0.049609375
 20
0.6817843967013888
 10
-0.0461642795138889
 20
0.701076931423611
 10
-0.1481391059027778
 20
0.6883300781249999
 97
        0
 97
        0
 75
     0
 76
     1
 98
        1
 10
0.0
 20
0.0
  0
ENDBLK
  5
179
330
175
100
AcDbEntity
  8
LAYER_1
100
AcDbBlockEnd
  0
BLOCK
  5
17C
330
17A
100
AcDbEntity
  8
LAYER_1
 62
     7
100
AcDbBlockBegin
  2
AI9-BLK59
 70
     0
 10
0.0
 20
0.0
 30
0.0
  3
AI9-BLK59
  1

  0
HATCH
  5
17D
330
17A
100
AcDbEntity
  8
LAYER_1
 62
     7
100
AcDbHatch
 10
0.0
 20
0.0
 30
0.0
210
0.0
220
0.0
230
1.0
  2
SOLID
 70
     1
 71
     0
 91
        1
 92
        1
 93
        1
 72
     4
 94
        3
 73
     0
 74
     0
 95
       14
 96
       10
 40
0.0
 40
0.0
 40
0.0
 40
0.0
 40
1.0
 40
1.0
 40
1.0
 40
2.0
 40
2.0
 40
2.0
 40
3.0
 40
3.0
 40
3.0
 40
3.0
 10
0.1688096788194444
 20
0.6564629448784721
 10
0.1657090928819444
 20
0.6630086263020832
 10
0.2769856770833333
 20
0.6182223849826388
 10
-0.4206461588541666
 20
-0.6564629448784721
 10
0.2931776258680555
 20
0.6089206271701388
 10
0.4206461588541666
 20
0.50694580078125
 10
0.4206461588541666
 20
0.50694580078125
 10
0.3345187717013889
 20
0.5610337999131944
 10
0.2580376519097222
 20
0.6182223849826388
 10
0.1688096788194444
 20
0.6564629448784721
 97
        0
 97
        0
 75
     0
 76
     1
 98
        1
 10
0.0
 20
0.0
  0
ENDBLK
  5
17E
330
17A
100
AcDbEntity
  8
LAYER_1
100
AcDbBlockEnd
  0
BLOCK
  5
182
330
180
100
AcDbEntity
  8
LAYER_1
 62
     7
100
AcDbBlockBegin
  2
AI9-BLK60
 70
     0
 10
0.0
 20
0.0
 30
0.0
  3
AI9-BLK60
  1

  0
INSERT
  5
1B6
330
180
100
AcDbEntity
  8
LAYER_1
 62
     7
100
AcDbBlockReference
  2
AI9-BLK71
 10
8.930721
 20
-0.336069
 30
0.0
  0
INSERT
  5
1B1
330
180
100
AcDbEntity
  8
LAYER_1
 62
     7
100
AcDbBlockReference
  2
AI9-BLK70
 10
7.146162
 20
0.697976
 30
0.0
  0
INSERT
  5
1AC
330
180
100
AcDbEntity
  8
LAYER_1
 62
     7
100
AcDbBlockReference
  2
AI9-BLK69
 10
4.115683
 20
2.224326
 30
0.0
  0
INSERT
  5
1A7
330
180
100
AcDbEntity
  8
LAYER_1
 62
     7
100
AcDbBlockReference
  2
AI9-BLK68
 10
-2.284787
 20
4.168221
 30
0.0
  0
INSERT
  5
1A2
330
180
100
AcDbEntity
  8
LAYER_1
 62
     7
100
AcDbBlockReference
  2
AI9-BLK67
 10
-0.406177
 20
2.111155
 30
0.0
  0
INSERT
  5
19D
330
180
100
AcDbEntity
  8
LAYER_1
 62
     7
100
AcDbBlockReference
  2
AI9-BLK66
 10
-6.403399
 20
4.862752
 30
0.0
  0
INSERT
  5
198
330
180
100
AcDbEntity
  8
LAYER_1
 62
     7
100
AcDbBlockReference
  2
AI9-BLK65
 10
-5.986026
 20
-0.568785
 30
0.0
  0
INSERT
  5
193
330
180
100
AcDbEntity
  8
LAYER_1
 62
     7
100
AcDbBlockReference
  2
AI9-BLK64
 10
-8.321973
 20
2.570041
 30
0.0
  0
INSERT
  5
18E
330
180
100
AcDbEntity
  8
LAYER_1
 62
     7
100
AcDbBlockReference
  2
AI9-BLK63
 10
-3.256649
 20
-2.209856
 30
0.0
  0
INSERT
  5
189
330
180
100
AcDbEntity
  8
LAYER_1
 62
     7
100
AcDbBlockReference
  2
AI9-BLK62
 10
0.385506
 20
-3.526055
 30
0.0
  0
INSERT
  5
184
330
180
100
AcDbEntity
  8
LAYER_1
 62
     7
100
AcDbBlockReference
  2
AI9-BLK61
 10
3.189814
 20
-5.042931
 30
0.0
  0
ENDBLK
  5
1BA
330
180
100
AcDbEntity
  8
LAYER_1
100
AcDbBlockEnd
  0
BLOCK
  5
185
330
183
100
AcDbEntity
  8
LAYER_1
 62
     7
100
AcDbBlockBegin
  2
AI9-BLK61
 70
     0
 10
0.0
 20
0.0
 30
0.0
  3
AI9-BLK61
  1

  0
HATCH
  5
186
330
183
100
AcDbEntity
  8
LAYER_1
 62
     7
100
AcDbHatch
 10
0.0
 20
0.0
 30
0.0
210
0.0
220
0.0
230
1.0
  2
SOLID
 70
     1
 71
     0
 91
        1
 92
        1
 93
        1
 72
     4
 94
        3
 73
     0
 74
     0
 95
       14
 96
       10
 40
0.0
 40
0.0
 40
0.0
 40
0.0
 40
1.0
 40
1.0
 40
1.0
 40
2.0
 40
2.0
 40
2.0
 40
3.0
 40
3.0
 40
3.0
 40
3.0
 10
0.0988742404513889
 20
-0.5257215711805555
 10
0.0988742404513889
 20
-0.5257215711805555
 10
-0.0985297309027778
 20
-0.4302924262152778
 10
0.3059244791666667
 20
0.5257215711805555
 10
-0.1274685329861111
 20
-0.4302924262152778
 10
-0.3059244791666667
 20
-0.3538113064236111
 10
-0.3059244791666667
 20
-0.3538113064236111
 10
-0.3059244791666667
 20
-0.3538113064236111
 10
0.0988742404513889
 20
-0.5257215711805555
 10
0.0988742404513889
 20
-0.5257215711805555
 97
        0
 97
        0
 75
     0
 76
     1
 98
        1
 10
0.0
 20
0.0
  0
ENDBLK
  5
187
330
183
100
AcDbEntity
  8
LAYER_1
100
AcDbBlockEnd
  0
BLOCK
  5
18A
330
188
100
AcDbEntity
  8
LAYER_1
 62
     7
100
AcDbBlockBegin
  2
AI9-BLK62
 70
     0
 10
0.0
 20
0.0
 30
0.0
  3
AI9-BLK62
  1

  0
HATCH
  5
18B
330
188
100
AcDbEntity
  8
LAYER_1
 62
     7
100
AcDbHatch
 10
0.0
 20
0.0
 30
0.0
210
0.0
220
0.0
230
1.0
  2
SOLID
 70
     1
 71
     0
 91
        1
 92
        1
 93
        1
 72
     4
 94
        3
 73
     0
 74
     0
 95
       14
 96
       10
 40
0.0
 40
0.0
 40
0.0
 40
0.0
 40
1.0
 40
1.0
 40
1.0
 40
2.0
 40
2.0
 40
2.0
 40
3.0
 40
3.0
 40
3.0
 40
3.0
 10
-0.1912027994791667
 20
-0.7806586371527777
 10
-0.1912027994791667
 20
-0.7806586371527777
 10
-0.3407199435763889
 20
-0.7200249565972222
 10
0.4971272786458333
 20
0.7806586371527777
 10
-0.3565673828124999
 20
-0.7200249565972222
 10
-0.4971272786458333
 20
-0.6659369574652777
 10
-0.4971272786458333
 20
-0.6659369574652777
 10
-0.4971272786458333
 20
-0.6659369574652777
 10
-0.1912027994791667
 20
-0.7806586371527777
 10
-0.1912027994791667
 20
-0.7806586371527777
 97
        0
 97
        0
 75
     0
 76
     1
 98
        1
 10
0.0
 20
0.0
  0
ENDBLK
  5
18C
330
188
100
AcDbEntity
  8
LAYER_1
100
AcDbBlockEnd
  0
BLOCK
  5
18F
330
18D
100
AcDbEntity
  8
LAYER_1
 62
     7
100
AcDbBlockBegin
  2
AI9-BLK63
 70
     0
 10
0.0
 20
0.0
 30
0.0
  3
AI9-BLK63
  1

  0
HATCH
  5
190
330
18D
100
AcDbEntity
  8
LAYER_1
 62
     7
100
AcDbHatch
 10
0.0
 20
0.0
 30
0.0
210
0.0
220
0.0
230
1.0
  2
SOLID
 70
     1
 71
     0
 91
        1
 92
        1
 93
        1
 72
     4
 94
        3
 73
     0
 74
     0
 95
       14
 96
       10
 40
0.0
 40
0.0
 40
0.0
 40
0.0
 40
1.0
 40
1.0
 40
1.0
 40
2.0
 40
2.0
 40
2.0
 40
3.0
 40
3.0
 40
3.0
 40
3.0
 10
-0.1371148003472222
 20
-0.7201972113715277
 10
-0.1371148003472222
 20
-0.7201972113715277
 10
-0.3028238932291666
 20
-0.6437160915798611
 10
0.4619873046874999
 20
0.7201972113715277
 10
-0.3186713324652777
 20
-0.6502617730034722
 10
-0.4619873046874999
 20
-0.5672349717881944
 10
-0.4619873046874999
 20
-0.5672349717881944
 10
-0.4619873046874999
 20
-0.5672349717881944
 10
-0.1371148003472222
 20
-0.7201972113715277
 10
-0.1371148003472222
 20
-0.7201972113715277
 97
        0
 97
        0
 75
     0
 76
     1
 98
        1
 10
0.0
 20
0.0
  0
ENDBLK
  5
191
330
18D
100
AcDbEntity
  8
LAYER_1
100
AcDbBlockEnd
  0
BLOCK
  5
194
330
192
100
AcDbEntity
  8
LAYER_1
 62
     7
100
AcDbBlockBegin
  2
AI9-BLK64
 70
     0
 10
0.0
 20
0.0
 30
0.0
  3
AI9-BLK64
  1

  0
HATCH
  5
195
330
192
100
AcDbEntity
  8
LAYER_1
 62
     7
100
AcDbHatch
 10
0.0
 20
0.0
 30
0.0
210
0.0
220
0.0
230
1.0
  2
SOLID
 70
     1
 71
     0
 91
        1
 92
        1
 93
        1
 72
     4
 94
        3
 73
     0
 74
     0
 95
       14
 96
       10
 40
0.0
 40
0.0
 40
0.0
 40
0.0
 40
1.0
 40
1.0
 40
1.0
 40
2.0
 40
2.0
 40
2.0
 40
3.0
 40
3.0
 40
3.0
 40
3.0
 10
-0.7186469184027777
 20
-0.3696587456597222
 10
-0.7186469184027777
 20
-0.3696587456597222
 10
-0.8237223307291666
 20
-0.1657090928819444
 10
0.9480902777777777
 20
0.3696587456597222
 10
-0.8330240885416665
 20
-0.1371148003472222
 10
-0.9480902777777777
 20
0.0764811197916667
 10
-0.9480902777777777
 20
0.0764811197916667
 10
-0.9480902777777777
 20
0.0764811197916667
 10
-0.7186469184027777
 20
-0.3696587456597222
 10
-0.7186469184027777
 20
-0.3696587456597222
 97
        0
 97
        0
 75
     0
 76
     1
 98
        1
 10
0.0
 20
0.0
  0
ENDBLK
  5
196
330
192
100
AcDbEntity
  8
LAYER_1
100
AcDbBlockEnd
  0
BLOCK
  5
199
330
197
100
AcDbEntity
  8
LAYER_1
 62
     7
100
AcDbBlockBegin
  2
AI9-BLK65
 70
     0
 10
0.0
 20
0.0
 30
0.0
  3
AI9-BLK65
  1

  0
HATCH
  5
19A
330
197
100
AcDbEntity
  8
LAYER_1
 62
     7
100
AcDbHatch
 10
0.0
 20
0.0
 30
0.0
210
0.0
220
0.0
230
1.0
  2
SOLID
 70
     1
 71
     0
 91
        1
 92
        1
 93
        1
 72
     4
 94
        3
 73
     0
 74
     0
 95
       14
 96
       10
 40
0.0
 40
0.0
 40
0.0
 40
0.0
 40
1.0
 40
1.0
 40
1.0
 40
2.0
 40
2.0
 40
2.0
 40
3.0
 40
3.0
 40
3.0
 40
3.0
 10
-0.4380438910590278
 20
-0.799951171875
 10
-0.4380438910590278
 20
-0.799951171875
 10
-0.6454386393229166
 20
-0.6276963975694444
 10
0.8428426106770832
 20
0.799951171875
 10
-0.6643866644965277
 20
-0.6149495442708333
 10
-0.8428426106770832
 20
-0.4971272786458333
 10
-0.8428426106770832
 20
-0.4971272786458333
 10
-0.8428426106770832
 20
-0.4971272786458333
 10
-0.4380438910590278
 20
-0.799951171875
 10
-0.4380438910590278
 20
-0.799951171875
 97
        0
 97
        0
 75
     0
 76
     1
 98
        1
 10
0.0
 20
0.0
  0
ENDBLK
  5
19B
330
197
100
AcDbEntity
  8
LAYER_1
100
AcDbBlockEnd
  0
BLOCK
  5
19E
330
19C
100
AcDbEntity
  8
LAYER_1
 62
     7
100
AcDbBlockBegin
  2
AI9-BLK66
 70
     0
 10
0.0
 20
0.0
 30
0.0
  3
AI9-BLK66
  1

  0
HATCH
  5
19F
330
19C
100
AcDbEntity
  8
LAYER_1
 62
     7
100
AcDbHatch
 10
0.0
 20
0.0
 30
0.0
210
0.0
220
0.0
230
1.0
  2
SOLID
 70
     1
 71
     0
 91
        1
 92
        1
 93
        1
 72
     4
 94
        3
 73
     0
 74
     0
 95
       14
 96
       10
 40
0.0
 40
0.0
 40
0.0
 40
0.0
 40
1.0
 40
1.0
 40
1.0
 40
2.0
 40
2.0
 40
2.0
 40
3.0
 40
3.0
 40
3.0
 40
3.0
 10
-0.2756076388888888
 20
0.639065212673611
 10
-0.2694064670138889
 20
0.6325195312499999
 10
-0.1133436414930556
 20
0.6580132378472222
 10
0.2756076388888888
 20
-0.7059000651041666
 10
-0.0782036675347222
 20
0.6645589192708333
 10
0.1960259331597222
 20
0.7059000651041666
 10
0.1960259331597222
 20
0.7059000651041666
 10
0.1960259331597222
 20
0.7059000651041666
 10
-0.2756076388888888
 20
0.639065212673611
 10
-0.2756076388888888
 20
0.639065212673611
 97
        0
 97
        0
 75
     0
 76
     1
 98
        1
 10
0.0
 20
0.0
  0
ENDBLK
  5
1A0
330
19C
100
AcDbEntity
  8
LAYER_1
100
AcDbBlockEnd
  0
BLOCK
  5
1A3
330
1A1
100
AcDbEntity
  8
LAYER_1
 62
     7
100
AcDbBlockBegin
  2
AI9-BLK67
 70
     0
 10
0.0
 20
0.0
 30
0.0
  3
AI9-BLK67
  1

  0
HATCH
  5
1A4
330
1A1
100
AcDbEntity
  8
LAYER_1
 62
     7
100
AcDbHatch
 10
0.0
 20
0.0
 30
0.0
210
0.0
220
0.0
230
1.0
  2
SOLID
 70
     1
 71
     0
 91
        1
 92
        1
 93
        1
 72
     4
 94
        3
 73
     0
 74
     0
 95
       14
 96
       10
 40
0.0
 40
0.0
 40
0.0
 40
0.0
 40
1.0
 40
1.0
 40
1.0
 40
2.0
 40
2.0
 40
2.0
 40
3.0
 40
3.0
 40
3.0
 40
3.0
 10
0.7344943576388888
 20
2.090483940972222
 10
0.7279486762152777
 20
2.090483940972222
 10
0.9384440104166666
 20
2.001255967881944
 10
-1.180634223090278
 20
-2.090483940972222
 10
0.9639377170138888
 20
1.988509114583333
 10
1.180634223090278
 20
1.927875434027778
 10
1.180634223090278
 20
1.927875434027778
 10
1.180634223090278
 20
1.927875434027778
 10
0.7344943576388888
 20
2.090483940972222
 10
0.7344943576388888
 20
2.090483940972222
 97
        0
 97
        0
 75
     0
 76
     1
 98
        1
 10
0.0
 20
0.0
  0
ENDBLK
  5
1A5
330
1A1
100
AcDbEntity
  8
LAYER_1
100
AcDbBlockEnd
  0
BLOCK
  5
1A8
330
1A6
100
AcDbEntity
  8
LAYER_1
 62
     7
100
AcDbBlockBegin
  2
AI9-BLK68
 70
     0
 10
0.0
 20
0.0
 30
0.0
  3
AI9-BLK68
  1

  0
HATCH
  5
1A9
330
1A6
100
AcDbEntity
  8
LAYER_1
 62
     7
100
AcDbHatch
 10
0.0
 20
0.0
 30
0.0
210
0.0
220
0.0
230
1.0
  2
SOLID
 70
     1
 71
     0
 91
        1
 92
        1
 93
        1
 72
     4
 94
        3
 73
     0
 74
     0
 95
       14
 96
       10
 40
0.0
 40
0.0
 40
0.0
 40
0.0
 40
1.0
 40
1.0
 40
1.0
 40
2.0
 40
2.0
 40
2.0
 40
3.0
 40
3.0
 40
3.0
 40
3.0
 10
0.0478868272569444
 20
0.8333685980902777
 10
-0.1050754123263889
 20
0.8936577690972222
 10
0.1977484809027778
 20
0.7789360894097221
 10
-0.4940266927083333
 20
-0.8333685980902777
 10
0.2104953342013889
 20
0.7727349175347221
 10
0.4940266927083333
 20
0.6707600911458332
 10
0.4940266927083333
 20
0.6707600911458332
 10
0.4940266927083333
 20
0.6707600911458332
 10
0.0478868272569444
 20
0.8333685980902777
 10
0.0478868272569444
 20
0.8333685980902777
 97
        0
 97
        0
 75
     0
 76
     1
 98
        1
 10
0.0
 20
0.0
  0
ENDBLK
  5
1AA
330
1A6
100
AcDbEntity
  8
LAYER_1
100
AcDbBlockEnd
  0
BLOCK
  5
1AD
330
1AB
100
AcDbEntity
  8
LAYER_1
 62
     7
100
AcDbBlockBegin
  2
AI9-BLK69
 70
     0
 10
0.0
 20
0.0
 30
0.0
  3
AI9-BLK69
  1

  0
HATCH
  5
1AE
330
1AB
100
AcDbEntity
  8
LAYER_1
 62
     7
100
AcDbHatch
 10
0.0
 20
0.0
 30
0.0
210
0.0
220
0.0
230
1.0
  2
SOLID
 70
     1
 71
     0
 91
        1
 92
        1
 93
        1
 72
     4
 94
        3
 73
     0
 74
     0
 95
       14
 96
       10
 40
0.0
 40
0.0
 40
0.0
 40
0.0
 40
1.0
 40
1.0
 40
1.0
 40
2.0
 40
2.0
 40
2.0
 40
3.0
 40
3.0
 40
3.0
 40
3.0
 10
-0.1865519205729166
 20
0.6419935438368055
 10
-0.1865519205729166
 20
0.6419935438368055
 10
0.0652845594618055
 20
0.56895751953125
 10
-0.4063490125868055
 20
-0.6419935438368055
 10
0.0652845594618055
 20
0.56895751953125
 10
0.4063490125868055
 20
0.3808553059895833
 10
0.4063490125868055
 20
0.3808553059895833
 10
0.4063490125868055
 20
0.3808553059895833
 10
-0.1865519205729166
 20
0.6419935438368055
 10
-0.1865519205729166
 20
0.6419935438368055
 97
        0
 97
        0
 75
     0
 76
     1
 98
        1
 10
0.0
 20
0.0
  0
ENDBLK
  5
1AF
330
1AB
100
AcDbEntity
  8
LAYER_1
100
AcDbBlockEnd
  0
BLOCK
  5
1B2
330
1B0
100
AcDbEntity
  8
LAYER_1
 62
     7
100
AcDbBlockBegin
  2
AI9-BLK70
 70
     0
 10
0.0
 20
0.0
 30
0.0
  3
AI9-BLK70
  1

  0
HATCH
  5
1B3
330
1B0
100
AcDbEntity
  8
LAYER_1
 62
     7
100
AcDbHatch
 10
0.0
 20
0.0
 30
0.0
210
0.0
220
0.0
230
1.0
  2
SOLID
 70
     1
 71
     0
 91
        1
 92
        1
 93
        1
 72
     4
 94
        3
 73
     0
 74
     0
 95
       14
 96
       10
 40
0.0
 40
0.0
 40
0.0
 40
0.0
 40
1.0
 40
1.0
 40
1.0
 40
2.0
 40
2.0
 40
2.0
 40
3.0
 40
3.0
 40
3.0
 40
3.0
 10
-0.0303168402777778
 20
0.6294189453125
 10
-0.0303168402777778
 20
0.6294189453125
 10
0.1639865451388889
 20
0.530544704861111
 10
-0.4316704644097222
 20
-0.6294189453125
 10
0.1639865451388889
 20
0.530544704861111
 10
0.4316704644097222
 20
0.3872287326388889
 10
0.4316704644097222
 20
0.3872287326388889
 10
0.4316704644097222
 20
0.3872287326388889
 10
-0.0303168402777778
 20
0.6294189453125
 10
-0.0303168402777778
 20
0.6294189453125
 97
        0
 97
        0
 75
     0
 76
     1
 98
        1
 10
0.0
 20
0.0
  0
ENDBLK
  5
1B4
330
1B0
100
AcDbEntity
  8
LAYER_1
100
AcDbBlockEnd
  0
BLOCK
  5
1B7
330
1B5
100
AcDbEntity
  8
LAYER_1
 62
     7
100
AcDbBlockBegin
  2
AI9-BLK71
 70
     0
 10
0.0
 20
0.0
 30
0.0
  3
AI9-BLK71
  1

  0
HATCH
  5
1B8
330
1B5
100
AcDbEntity
  8
LAYER_1
 62
     7
100
AcDbHatch
 10
0.0
 20
0.0
 30
0.0
210
0.0
220
0.0
230
1.0
  2
SOLID
 70
     1
 71
     0
 91
        1
 92
        1
 93
        1
 72
     4
 94
        3
 73
     0
 74
     0
 95
       14
 96
       10
 40
0.0
 40
0.0
 40
0.0
 40
0.0
 40
1.0
 40
1.0
 40
1.0
 40
2.0
 40
2.0
 40
2.0
 40
3.0
 40
3.0
 40
3.0
 40
3.0
 10
0.3138481987847222
 20
0.5544881184895832
 10
0.3138481987847222
 20
0.5544881184895832
 10
0.3362413194444444
 20
0.5606892903645833
 10
-0.3393419053819444
 20
-0.5544881184895832
 10
0.3331407335069444
 20
0.5606892903645833
 10
0.3393419053819444
 20
0.538296169704861
 10
0.3393419053819444
 20
0.538296169704861
 10
0.3393419053819444
 20
0.538296169704861
 10
0.3138481987847222
 20
0.5544881184895832
 10
0.3138481987847222
 20
0.5544881184895832
 97
        0
 97
        0
 75
     0
 76
     1
 98
        1
 10
0.0
 20
0.0
  0
ENDBLK
  5
1B9
330
1B5
100
AcDbEntity
  8
LAYER_1
100
AcDbBlockEnd
  0
BLOCK
  5
1BD
330
1BB
100
AcDbEntity
  8
LAYER_1
 62
     7
100
AcDbBlockBegin
  2
AI9-BLK72
 70
     0
 10
0.0
 20
0.0
 30
0.0
  3
AI9-BLK72
  1

  0
INSERT
  5
1DD
330
1BB
100
AcDbEntity
  8
LAYER_1
 62
     7
100
AcDbBlockReference
  2
AI9-BLK79
 10
-4.974373
 20
-1.773535
 30
0.0
  0
INSERT
  5
1D8
330
1BB
100
AcDbEntity
  8
LAYER_1
 62
     7
100
AcDbBlockReference
  2
AI9-BLK78
 10
-2.088761
 20
-3.327101
 30
0.0
  0
INSERT
  5
1D3
330
1BB
100
AcDbEntity
  8
LAYER_1
 62
     7
100
AcDbBlockReference
  2
AI9-BLK77
 10
1.413178
 20
-3.712435
 30
0.0
  0
INSERT
  5
1CE
330
1BB
100
AcDbEntity
  8
LAYER_1
 62
     7
100
AcDbBlockReference
  2
AI9-BLK76
 10
4.389568
 20
-3.395486
 30
0.0
  0
INSERT
  5
1C9
330
1BB
100
AcDbEntity
  8
LAYER_1
 62
     7
100
AcDbBlockReference
  2
AI9-BLK75
 10
4.763878
 20
-0.772735
 30
0.0
  0
INSERT
  5
1C4
330
1BB
100
AcDbEntity
  8
LAYER_1
 62
     7
100
AcDbBlockReference
  2
AI9-BLK74
 10
2.719903
 20
1.50878
 30
0.0
  0
INSERT
  5
1BF
330
1BB
100
AcDbEntity
  8
LAYER_1
 62
     7
100
AcDbBlockReference
  2
AI9-BLK73
 10
-0.403076
 20
3.792017
 30
0.0
  0
ENDBLK
  5
1E1
330
1BB
100
AcDbEntity
  8
LAYER_1
100
AcDbBlockEnd
  0
BLOCK
  5
1C0
330
1BE
100
AcDbEntity
  8
LAYER_1
 62
     7
100
AcDbBlockBegin
  2
AI9-BLK73
 70
     0
 10
0.0
 20
0.0
 30
0.0
  3
AI9-BLK73
  1

  0
HATCH
  5
1C1
330
1BE
100
AcDbEntity
  8
LAYER_1
 62
     7
100
AcDbHatch
 10
0.0
 20
0.0
 30
0.0
210
0.0
220
0.0
230
1.0
  2
SOLID
 70
     1
 71
     0
 91
        1
 92
        1
 93
        1
 72
     4
 94
        3
 73
     0
 74
     0
 95
       14
 96
       10
 40
0.0
 40
0.0
 40
0.0
 40
0.0
 40
1.0
 40
1.0
 40
1.0
 40
2.0
 40
2.0
 40
2.0
 40
3.0
 40
3.0
 40
3.0
 40
3.0
 10
0.1912027994791667
 20
0.5656846788194444
 10
0.1912027994791667
 20
0.5656846788194444
 10
0.3345187717013889
 20
0.4826578776041666
 10
-0.4430392795138888
 20
-0.5656846788194444
 10
0.3345187717013889
 20
0.4826578776041666
 10
0.4430392795138888
 20
0.3806830512152777
 10
0.4430392795138888
 20
0.3806830512152777
 10
0.4430392795138888
 20
0.3806830512152777
 10
0.1912027994791667
 20
0.5656846788194444
 10
0.1912027994791667
 20
0.5656846788194444
 97
        0
 97
        0
 75
     0
 76
     1
 98
        1
 10
0.0
 20
0.0
  0
ENDBLK
  5
1C2
330
1BE
100
AcDbEntity
  8
LAYER_1
100
AcDbBlockEnd
  0
BLOCK
  5
1C5
330
1C3
100
AcDbEntity
  8
LAYER_1
 62
     7
100
AcDbBlockBegin
  2
AI9-BLK74
 70
     0
 10
0.0
 20
0.0
 30
0.0
  3
AI9-BLK74
  1

  0
HATCH
  5
1C6
330
1C3
100
AcDbEntity
  8
LAYER_1
 62
     7
100
AcDbHatch
 10
0.0
 20
0.0
 30
0.0
210
0.0
220
0.0
230
1.0
  2
SOLID
 70
     1
 71
     0
 91
        1
 92
        1
 93
        1
 72
     4
 94
        3
 73
     0
 74
     0
 95
       14
 96
       10
 40
0.0
 40
0.0
 40
0.0
 40
0.0
 40
1.0
 40
1.0
 40
1.0
 40
2.0
 40
2.0
 40
2.0
 40
3.0
 40
3.0
 40
3.0
 40
3.0
 10
0.1815565321180555
 20
0.5703355577256944
 10
0.1815565321180555
 20
0.5703355577256944
 10
0.3217719184027778
 20
0.4907538519965277
 10
-0.4333930121527778
 20
-0.5703355577256944
 10
0.3217719184027778
 20
0.4845526801215278
 10
0.4333930121527778
 20
0.3887790256076388
 10
0.4333930121527778
 20
0.3887790256076388
 10
0.4333930121527778
 20
0.3887790256076388
 10
0.1815565321180555
 20
0.5703355577256944
 10
0.1815565321180555
 20
0.5703355577256944
 97
        0
 97
        0
 75
     0
 76
     1
 98
        1
 10
0.0
 20
0.0
  0
ENDBLK
  5
1C7
330
1C3
100
AcDbEntity
  8
LAYER_1
100
AcDbBlockEnd
  0
BLOCK
  5
1CA
330
1C8
100
AcDbEntity
  8
LAYER_1
 62
     7
100
AcDbBlockBegin
  2
AI9-BLK75
 70
     0
 10
0.0
 20
0.0
 30
0.0
  3
AI9-BLK75
  1

  0
HATCH
  5
1CB
330
1C8
100
AcDbEntity
  8
LAYER_1
 62
     7
100
AcDbHatch
 10
0.0
 20
0.0
 30
0.0
210
0.0
220
0.0
230
1.0
  2
SOLID
 70
     1
 71
     0
 91
        1
 92
        1
 93
        1
 72
     4
 94
        3
 73
     0
 74
     0
 95
       14
 96
       10
 40
0.0
 40
0.0
 40
0.0
 40
0.0
 40
1.0
 40
1.0
 40
1.0
 40
2.0
 40
2.0
 40
2.0
 40
3.0
 40
3.0
 40
3.0
 40
3.0
 10
0.6294189453125
 20
0.1529622395833333
 10
0.6294189453125
 20
0.1529622395833333
 10
0.6549126519097221
 20
-0.0065456814236111
 10
-0.642165798611111
 20
-0.0671793619791667
 10
0.6549126519097221
 20
-0.0065456814236111
 10
0.642165798611111
 20
-0.1529622395833333
 10
0.642165798611111
 20
-0.1529622395833333
 10
0.642165798611111
 20
-0.1529622395833333
 10
0.6294189453125
 20
0.1529622395833333
 10
0.6294189453125
 20
0.1529622395833333
 97
        0
 97
        0
 75
     0
 76
     1
 98
        1
 10
0.0
 20
0.0
  0
ENDBLK
  5
1CC
330
1C8
100
AcDbEntity
  8
LAYER_1
100
AcDbBlockEnd
  0
BLOCK
  5
1CF
330
1CD
100
AcDbEntity
  8
LAYER_1
 62
     7
100
AcDbBlockBegin
  2
AI9-BLK76
 70
     0
 10
0.0
 20
0.0
 30
0.0
  3
AI9-BLK76
  1

  0
HATCH
  5
1D0
330
1CD
100
AcDbEntity
  8
LAYER_1
 62
     7
100
AcDbHatch
 10
0.0
 20
0.0
 30
0.0
210
0.0
220
0.0
230
1.0
  2
SOLID
 70
     1
 71
     0
 91
        1
 92
        1
 93
        1
 72
     4
 94
        3
 73
     0
 74
     0
 95
       14
 96
       10
 40
0.0
 40
0.0
 40
0.0
 40
0.0
 40
1.0
 40
1.0
 40
1.0
 40
2.0
 40
2.0
 40
2.0
 40
3.0
 40
3.0
 40
3.0
 40
3.0
 10
0.1052476671006944
 20
-0.6276963975694444
 10
0.1052476671006944
 20
-0.6276963975694444
 10
0.1114488389756944
 20
-0.6469889322916667
 10
-0.1052476671006944
 20
0.6276963975694444
 10
0.1114488389756944
 20
-0.6469889322916667
 10
0.1052476671006944
 20
-0.6276963975694444
 10
0.1052476671006944
 20
-0.6276963975694444
 10
0.1052476671006944
 20
-0.6276963975694444
 10
0.1052476671006944
 20
-0.6276963975694444
 10
0.1052476671006944
 20
-0.6276963975694444
 97
        0
 97
        0
 75
     0
 76
     1
 98
        1
 10
0.0
 20
0.0
  0
ENDBLK
  5
1D1
330
1CD
100
AcDbEntity
  8
LAYER_1
100
AcDbBlockEnd
  0
BLOCK
  5
1D4
330
1D2
100
AcDbEntity
  8
LAYER_1
 62
     7
100
AcDbBlockBegin
  2
AI9-BLK77
 70
     0
 10
0.0
 20
0.0
 30
0.0
  3
AI9-BLK77
  1

  0
HATCH
  5
1D5
330
1D2
100
AcDbEntity
  8
LAYER_1
 62
     7
100
AcDbHatch
 10
0.0
 20
0.0
 30
0.0
210
0.0
220
0.0
230
1.0
  2
SOLID
 70
     1
 71
     0
 91
        1
 92
        1
 93
        1
 72
     4
 94
        3
 73
     0
 74
     0
 95
       14
 96
       10
 40
0.0
 40
0.0
 40
0.0
 40
0.0
 40
1.0
 40
1.0
 40
1.0
 40
2.0
 40
2.0
 40
2.0
 40
3.0
 40
3.0
 40
3.0
 40
3.0
 10
0.1433159722222222
 20
-0.6452663845486111
 10
0.1433159722222222
 20
-0.6452663845486111
 10
-0.0127468532986111
 20
-0.6518120659722222
 10
0.1212673611111111
 20
0.6452663845486111
 10
-0.0127468532986111
 20
-0.6452663845486111
 10
-0.1433159722222222
 20
-0.6166720920138888
 10
-0.1433159722222222
 20
-0.6166720920138888
 10
-0.1433159722222222
 20
-0.6166720920138888
 10
0.1433159722222222
 20
-0.6452663845486111
 10
0.1433159722222222
 20
-0.6452663845486111
 97
        0
 97
        0
 75
     0
 76
     1
 98
        1
 10
0.0
 20
0.0
  0
ENDBLK
  5
1D6
330
1D2
100
AcDbEntity
  8
LAYER_1
100
AcDbBlockEnd
  0
BLOCK
  5
1D9
330
1D7
100
AcDbEntity
  8
LAYER_1
 62
     7
100
AcDbBlockBegin
  2
AI9-BLK78
 70
     0
 10
0.0
 20
0.0
 30
0.0
  3
AI9-BLK78
  1

  0
HATCH
  5
1DA
330
1D7
100
AcDbEntity
  8
LAYER_1
 62
     7
100
AcDbHatch
 10
0.0
 20
0.0
 30
0.0
210
0.0
220
0.0
230
1.0
  2
SOLID
 70
     1
 71
     0
 91
        1
 92
        1
 93
        1
 72
     4
 94
        3
 73
     0
 74
     0
 95
       14
 96
       10
 40
0.0
 40
0.0
 40
0.0
 40
0.0
 40
1.0
 40
1.0
 40
1.0
 40
2.0
 40
2.0
 40
2.0
 40
3.0
 40
3.0
 40
3.0
 40
3.0
 10
0.0795817057291667
 20
-0.6388929578993054
 10
0.0795817057291667
 20
-0.6388929578993054
 10
-0.0861273871527778
 20
-0.6323472764756944
 10
0.2039496527777778
 20
0.6388929578993054
 10
-0.0637342664930556
 20
-0.6388929578993054
 10
-0.2039496527777778
 20
-0.58135986328125
 10
-0.2039496527777778
 20
-0.58135986328125
 10
-0.11162109375
 20
-0.6133992513020833
 10
-0.0192925347222222
 20
-0.6261461046006944
 10
0.0795817057291667
 20
-0.6388929578993054
 97
        0
 97
        0
 75
     0
 76
     1
 98
        1
 10
0.0
 20
0.0
  0
ENDBLK
  5
1DB
330
1D7
100
AcDbEntity
  8
LAYER_1
100
AcDbBlockEnd
  0
BLOCK
  5
1DE
330
1DC
100
AcDbEntity
  8
LAYER_1
 62
     7
100
AcDbBlockBegin
  2
AI9-BLK79
 70
     0
 10
0.0
 20
0.0
 30
0.0
  3
AI9-BLK79
  1

  0
HATCH
  5
1DF
330
1DC
100
AcDbEntity
  8
LAYER_1
 62
     7
100
AcDbHatch
 10
0.0
 20
0.0
 30
0.0
210
0.0
220
0.0
230
1.0
  2
SOLID
 70
     1
 71
     0
 91
        1
 92
        1
 93
        1
 72
     4
 94
        3
 73
     0
 74
     0
 95
       14
 96
       10
 40
0.0
 40
0.0
 40
0.0
 40
0.0
 40
1.0
 40
1.0
 40
1.0
 40
2.0
 40
2.0
 40
2.0
 40
3.0
 40
3.0
 40
3.0
 40
3.0
 10
-0.1991265190972222
 20
-0.5608615451388889
 10
-0.1991265190972222
 20
-0.5608615451388889
 10
-0.3362413194444444
 20
-0.4905815972222222
 10
0.4316704644097222
 20
0.5608615451388889
 10
-0.3296956380208333
 20
-0.4940266927083333
 10
-0.4316704644097222
 20
-0.3951524522569444
 10
-0.4316704644097222
 20
-0.3951524522569444
 10
-0.4316704644097222
 20
-0.3951524522569444
 10
-0.1991265190972222
 20
-0.5608615451388889
 10
-0.1991265190972222
 20
-0.5608615451388889
 97
        0
 97
        0
 75
     0
 76
     1
 98
        1
 10
0.0
 20
0.0
  0
ENDBLK
  5
1E0
330
1DC
100
AcDbEntity
  8
LAYER_1
100
AcDbBlockEnd
  0
BLOCK
  5
1E4
330
1E2
100
AcDbEntity
  8
LAYER_1
 62
     7
100
AcDbBlockBegin
  2
AI9-BLK80
 70
     0
 10
0.0
 20
0.0
 30
0.0
  3
AI9-BLK80
  1

  0
INSERT
  5
22C
330
1E2
100
AcDbEntity
  8
LAYER_1
 62
     7
100
AcDbBlockReference
  2
AI9-BLK95
 10
-2.485636
 20
5.128886
 30
0.0
  0
INSERT
  5
227
330
1E2
100
AcDbEntity
  8
LAYER_1
 62
     7
100
AcDbBlockReference
  2
AI9-BLK94
 10
-0.978407
 20
-4.633481
 30
0.0
  0
INSERT
  5
222
330
1E2
100
AcDbEntity
  8
LAYER_1
 62
     7
100
AcDbBlockReference
  2
AI9-BLK93
 10
0.167259
 20
-4.303613
 30
0.0
  0
INSERT
  5
21D
330
1E2
100
AcDbEntity
  8
LAYER_1
 62
     7
100
AcDbBlockReference
  2
AI9-BLK92
 10
0.66766
 20
-3.545176
 30
0.0
  0
INSERT
  5
218
330
1E2
100
AcDbEntity
  8
LAYER_1
 62
     7
100
AcDbBlockReference
  2
AI9-BLK91
 10
-1.846571
 20
-4.150651
 30
0.0
  0
INSERT
  5
213
330
1E2
100
AcDbEntity
  8
LAYER_1
 62
     7
100
AcDbBlockReference
  2
AI9-BLK90
 10
-2.727654
 20
-3.671094
 30
0.0
  0
INSERT
  5
20E
330
1E2
100
AcDbEntity
  8
LAYER_1
 62
     7
100
AcDbBlockReference
  2
AI9-BLK89
 10
-3.542075
 20
-3.011358
 30
0.0
  0
INSERT
  5
209
330
1E2
100
AcDbEntity
  8
LAYER_1
 62
     7
100
AcDbBlockReference
  2
AI9-BLK88
 10
-3.594613
 20
1.476912
 30
0.0
  0
INSERT
  5
204
330
1E2
100
AcDbEntity
  8
LAYER_1
 62
     7
100
AcDbBlockReference
  2
AI9-BLK87
 10
-3.291789
 20
2.711807
 30
0.0
  0
INSERT
  5
1FF
330
1E2
100
AcDbEntity
  8
LAYER_1
 62
     7
100
AcDbBlockReference
  2
AI9-BLK86
 10
-2.909383
 20
4.306714
 30
0.0
  0
INSERT
  5
1FA
330
1E2
100
AcDbEntity
  8
LAYER_1
 62
     7
100
AcDbBlockReference
  2
AI9-BLK85
 10
1.883261
 20
-1.435744
 30
0.0
  0
INSERT
  5
1F5
330
1E2
100
AcDbEntity
  8
LAYER_1
 62
     7
100
AcDbBlockReference
  2
AI9-BLK84
 10
1.437294
 20
-2.295984
 30
0.0
  0
INSERT
  5
1F0
330
1E2
100
AcDbEntity
  8
LAYER_1
 62
     7
100
AcDbBlockReference
  2
AI9-BLK83
 10
2.523877
 20
-0.154513
 30
0.0
  0
INSERT
  5
1EB
330
1E2
100
AcDbEntity
  8
LAYER_1
 62
     7
100
AcDbBlockReference
  2
AI9-BLK82
 10
3.408233
 20
2.281514
 30
0.0
  0
INSERT
  5
1E6
330
1E2
100
AcDbEntity
  8
LAYER_1
 62
     7
100
AcDbBlockReference
  2
AI9-BLK81
 10
3.028928
 20
0.917601
 30
0.0
  0
ENDBLK
  5
230
330
1E2
100
AcDbEntity
  8
LAYER_1
100
AcDbBlockEnd
  0
BLOCK
  5
1E7
330
1E5
100
AcDbEntity
  8
LAYER_1
 62
     7
100
AcDbBlockBegin
  2
AI9-BLK81
 70
     0
 10
0.0
 20
0.0
 30
0.0
  3
AI9-BLK81
  1

  0
HATCH
  5
1E8
330
1E5
100
AcDbEntity
  8
LAYER_1
 62
     7
100
AcDbHatch
 10
0.0
 20
0.0
 30
0.0
210
0.0
220
0.0
230
1.0
  2
SOLID
 70
     1
 71
     0
 91
        1
 92
        1
 93
        1
 72
     4
 94
        3
 73
     0
 74
     0
 95
       14
 96
       10
 40
0.0
 40
0.0
 40
0.0
 40
0.0
 40
1.0
 40
1.0
 40
1.0
 40
2.0
 40
2.0
 40
2.0
 40
3.0
 40
3.0
 40
3.0
 40
3.0
 10
0.6452663845486111
 20
0.11007080078125
 10
0.6452663845486111
 20
0.11007080078125
 10
0.6166720920138888
 20
-0.0876776801215278
 10
-0.6452663845486111
 20
0.2533867730034722
 10
0.6101264105902777
 20
-0.0876776801215278
 10
0.5498372395833333
 20
-0.2533867730034722
 10
0.5498372395833333
 20
-0.2533867730034722
 10
0.5498372395833333
 20
-0.2533867730034722
 10
0.6452663845486111
 20
0.11007080078125
 10
0.6452663845486111
 20
0.11007080078125
 97
        0
 97
        0
 75
     0
 76
     1
 98
        1
 10
0.0
 20
0.0
  0
ENDBLK
  5
1E9
330
1E5
100
AcDbEntity
  8
LAYER_1
100
AcDbBlockEnd
  0
BLOCK
  5
1EC
330
1EA
100
AcDbEntity
  8
LAYER_1
 62
     7
100
AcDbBlockBegin
  2
AI9-BLK82
 70
     0
 10
0.0
 20
0.0
 30
0.0
  3
AI9-BLK82
  1

  0
HATCH
  5
1ED
330
1EA
100
AcDbEntity
  8
LAYER_1
 62
     7
100
AcDbHatch
 10
0.0
 20
0.0
 30
0.0
210
0.0
220
0.0
230
1.0
  2
SOLID
 70
     1
 71
     0
 91
        1
 92
        1
 93
        1
 72
     4
 94
        3
 73
     0
 74
     0
 95
       14
 96
       10
 40
0.0
 40
0.0
 40
0.0
 40
0.0
 40
1.0
 40
1.0
 40
1.0
 40
2.0
 40
2.0
 40
2.0
 40
3.0
 40
3.0
 40
3.0
 40
3.0
 10
0.6452663845486111
 20
0.11007080078125
 10
0.6452663845486111
 20
0.11007080078125
 10
0.6132269965277777
 20
-0.0876776801215278
 10
-0.6452663845486111
 20
0.2564873589409722
 10
0.6101264105902777
 20
-0.0876776801215278
 10
0.5432915581597222
 20
-0.2564873589409722
 10
0.5432915581597222
 20
-0.2564873589409722
 10
0.5432915581597222
 20
-0.2564873589409722
 10
0.6452663845486111
 20
0.11007080078125
 10
0.6452663845486111
 20
0.11007080078125
 97
        0
 97
        0
 75
     0
 76
     1
 98
        1
 10
0.0
 20
0.0
  0
ENDBLK
  5
1EE
330
1EA
100
AcDbEntity
  8
LAYER_1
100
AcDbBlockEnd
  0
BLOCK
  5
1F1
330
1EF
100
AcDbEntity
  8
LAYER_1
 62
     7
100
AcDbBlockBegin
  2
AI9-BLK83
 70
     0
 10
0.0
 20
0.0
 30
0.0
  3
AI9-BLK83
  1

  0
HATCH
  5
1F2
330
1EF
100
AcDbEntity
  8
LAYER_1
 62
     7
100
AcDbHatch
 10
0.0
 20
0.0
 30
0.0
210
0.0
220
0.0
230
1.0
  2
SOLID
 70
     1
 71
     0
 91
        1
 92
        1
 93
        1
 72
     4
 94
        3
 73
     0
 74
     0
 95
       14
 96
       10
 40
0.0
 40
0.0
 40
0.0
 40
0.0
 40
1.0
 40
1.0
 40
1.0
 40
2.0
 40
2.0
 40
2.0
 40
3.0
 40
3.0
 40
3.0
 40
3.0
 10
0.6180501302083333
 20
-0.0828545464409722
 10
0.6180501302083333
 20
-0.0828545464409722
 10
0.5736083984375
 20
-0.2134236653645833
 10
-0.6180501302083333
 20
0.3153984917534722
 10
0.5705078124999999
 20
-0.2103230794270833
 10
0.5002278645833332
 20
-0.3153984917534722
 10
0.5002278645833332
 20
-0.3153984917534722
 10
0.5002278645833332
 20
-0.3153984917534722
 10
0.6180501302083333
 20
-0.0828545464409722
 10
0.6180501302083333
 20
-0.0828545464409722
 97
        0
 97
        0
 75
     0
 76
     1
 98
        1
 10
0.0
 20
0.0
  0
ENDBLK
  5
1F3
330
1EF
100
AcDbEntity
  8
LAYER_1
100
AcDbBlockEnd
  0
BLOCK
  5
1F6
330
1F4
100
AcDbEntity
  8
LAYER_1
 62
     7
100
AcDbBlockBegin
  2
AI9-BLK84
 70
     0
 10
0.0
 20
0.0
 30
0.0
  3
AI9-BLK84
  1

  0
HATCH
  5
1F7
330
1F4
100
AcDbEntity
  8
LAYER_1
 62
     7
100
AcDbHatch
 10
0.0
 20
0.0
 30
0.0
210
0.0
220
0.0
230
1.0
  2
SOLID
 70
     1
 71
     0
 91
        1
 92
        1
 93
        1
 72
     4
 94
        3
 73
     0
 74
     0
 95
       14
 96
       10
 40
0.0
 40
0.0
 40
0.0
 40
0.0
 40
1.0
 40
1.0
 40
1.0
 40
2.0
 40
2.0
 40
2.0
 40
3.0
 40
3.0
 40
3.0
 40
3.0
 10
0.6022026909722221
 20
-0.1179945203993055
 10
0.6022026909722221
 20
-0.1179945203993055
 10
0.5543158637152777
 20
-0.2516642252604167
 10
-0.6022026909722221
 20
0.3505384657118055
 10
0.5543158637152777
 20
-0.2454630533854167
 10
0.4809353298611111
 20
-0.3505384657118055
 10
0.4843804253472222
 20
-0.3505384657118055
 10
0.4843804253472222
 20
-0.3505384657118055
 10
0.6022026909722221
 20
-0.1179945203993055
 10
0.6022026909722221
 20
-0.1179945203993055
 97
        0
 97
        0
 75
     0
 76
     1
 98
        1
 10
0.0
 20
0.0
  0
ENDBLK
  5
1F8
330
1F4
100
AcDbEntity
  8
LAYER_1
100
AcDbBlockEnd
  0
BLOCK
  5
1FB
330
1F9
100
AcDbEntity
  8
LAYER_1
 62
     7
100
AcDbBlockBegin
  2
AI9-BLK85
 70
     0
 10
0.0
 20
0.0
 30
0.0
  3
AI9-BLK85
  1

  0
HATCH
  5
1FC
330
1F9
100
AcDbEntity
  8
LAYER_1
 62
     7
100
AcDbHatch
 10
0.0
 20
0.0
 30
0.0
210
0.0
220
0.0
230
1.0
  2
SOLID
 70
     1
 71
     0
 91
        1
 92
        1
 93
        1
 72
     4
 94
        3
 73
     0
 74
     0
 95
       14
 96
       10
 40
0.0
 40
0.0
 40
0.0
 40
0.0
 40
1.0
 40
1.0
 40
1.0
 40
2.0
 40
2.0
 40
2.0
 40
3.0
 40
3.0
 40
3.0
 40
3.0
 10
0.6023749457465277
 20
-0.1114488389756944
 10
0.6023749457465277
 20
-0.1114488389756944
 10
0.5579332139756944
 20
-0.2451185438368055
 10
-0.6023749457465277
 20
0.3505384657118055
 10
0.5579332139756944
 20
-0.2451185438368055
 10
0.4814520941840277
 20
-0.3505384657118055
 10
0.4814520941840277
 20
-0.3505384657118055
 10
0.4814520941840277
 20
-0.3505384657118055
 10
0.6023749457465277
 20
-0.1114488389756944
 10
0.6023749457465277
 20
-0.1114488389756944
 97
        0
 97
        0
 75
     0
 76
     1
 98
        1
 10
0.0
 20
0.0
  0
ENDBLK
  5
1FD
330
1F9
100
AcDbEntity
  8
LAYER_1
100
AcDbBlockEnd
  0
BLOCK
  5
200
330
1FE
100
AcDbEntity
  8
LAYER_1
 62
     7
100
AcDbBlockBegin
  2
AI9-BLK86
 70
     0
 10
0.0
 20
0.0
 30
0.0
  3
AI9-BLK86
  1

  0
HATCH
  5
201
330
1FE
100
AcDbEntity
  8
LAYER_1
 62
     7
100
AcDbHatch
 10
0.0
 20
0.0
 30
0.0
210
0.0
220
0.0
230
1.0
  2
SOLID
 70
     1
 71
     0
 91
        1
 92
        1
 93
        1
 72
     4
 94
        3
 73
     0
 74
     0
 95
       14
 96
       10
 40
0.0
 40
0.0
 40
0.0
 40
0.0
 40
1.0
 40
1.0
 40
1.0
 40
2.0
 40
2.0
 40
2.0
 40
3.0
 40
3.0
 40
3.0
 40
3.0
 10
-0.45888671875
 20
-0.1688096788194444
 10
-0.45888671875
 20
-0.1688096788194444
 10
-0.4461398654513888
 20
0.0096462673611111
 10
0.45888671875
 20
-0.0733805338541667
 10
-0.4557861328125
 20
0.0223931206597222
 10
-0.4268473307291666
 20
0.1688096788194444
 10
-0.4268473307291666
 20
0.1688096788194444
 10
-0.4268473307291666
 20
0.1688096788194444
 10
-0.45888671875
 20
-0.1688096788194444
 10
-0.45888671875
 20
-0.1688096788194444
 97
        0
 97
        0
 75
     0
 76
     1
 98
        1
 10
0.0
 20
0.0
  0
ENDBLK
  5
202
330
1FE
100
AcDbEntity
  8
LAYER_1
100
AcDbBlockEnd
  0
BLOCK
  5
205
330
203
100
AcDbEntity
  8
LAYER_1
 62
     7
100
AcDbBlockBegin
  2
AI9-BLK87
 70
     0
 10
0.0
 20
0.0
 30
0.0
  3
AI9-BLK87
  1

  0
HATCH
  5
206
330
203
100
AcDbEntity
  8
LAYER_1
 62
     7
100
AcDbHatch
 10
0.0
 20
0.0
 30
0.0
210
0.0
220
0.0
230
1.0
  2
SOLID
 70
     1
 71
     0
 91
        1
 92
        1
 93
        1
 72
     4
 94
        3
 73
     0
 74
     0
 95
       14
 96
       10
 40
0.0
 40
0.0
 40
0.0
 40
0.0
 40
1.0
 40
1.0
 40
1.0
 40
2.0
 40
2.0
 40
2.0
 40
3.0
 40
3.0
 40
3.0
 40
3.0
 10
-0.45888671875
 20
-0.1672593858506944
 10
-0.45888671875
 20
-0.1672593858506944
 10
-0.4430392795138888
 20
0.00465087890625
 10
0.45888671875
 20
-0.0718302408854167
 10
-0.4523410373263889
 20
0.0173977322048611
 10
-0.4237467447916666
 20
0.1672593858506944
 10
-0.4237467447916666
 20
0.1672593858506944
 10
-0.4237467447916666
 20
0.1672593858506944
 10
-0.45888671875
 20
-0.1672593858506944
 10
-0.45888671875
 20
-0.1672593858506944
 97
        0
 97
        0
 75
     0
 76
     1
 98
        1
 10
0.0
 20
0.0
  0
ENDBLK
  5
207
330
203
100
AcDbEntity
  8
LAYER_1
100
AcDbBlockEnd
  0
BLOCK
  5
20A
330
208
100
AcDbEntity
  8
LAYER_1
 62
     7
100
AcDbBlockBegin
  2
AI9-BLK88
 70
     0
 10
0.0
 20
0.0
 30
0.0
  3
AI9-BLK88
  1

  0
HATCH
  5
20B
330
208
100
AcDbEntity
  8
LAYER_1
 62
     7
100
AcDbHatch
 10
0.0
 20
0.0
 30
0.0
210
0.0
220
0.0
230
1.0
  2
SOLID
 70
     1
 71
     0
 91
        1
 92
        1
 93
        1
 72
     4
 94
        3
 73
     0
 74
     0
 95
       14
 96
       10
 40
0.0
 40
0.0
 40
0.0
 40
0.0
 40
1.0
 40
1.0
 40
1.0
 40
2.0
 40
2.0
 40
2.0
 40
3.0
 40
3.0
 40
3.0
 40
3.0
 10
-0.45888671875
 20
-0.1688096788194444
 10
-0.45888671875
 20
-0.1688096788194444
 10
-0.4461398654513888
 20
0.0065456814236111
 10
0.45888671875
 20
-0.0733805338541667
 10
-0.4554416232638889
 20
0.0223931206597222
 10
-0.4268473307291666
 20
0.1688096788194444
 10
-0.4268473307291666
 20
0.1688096788194444
 10
-0.4268473307291666
 20
0.1688096788194444
 10
-0.45888671875
 20
-0.1688096788194444
 10
-0.45888671875
 20
-0.1688096788194444
 97
        0
 97
        0
 75
     0
 76
     1
 98
        1
 10
0.0
 20
0.0
  0
ENDBLK
  5
20C
330
208
100
AcDbEntity
  8
LAYER_1
100
AcDbBlockEnd
  0
BLOCK
  5
20F
330
20D
100
AcDbEntity
  8
LAYER_1
 62
     7
100
AcDbBlockBegin
  2
AI9-BLK89
 70
     0
 10
0.0
 20
0.0
 30
0.0
  3
AI9-BLK89
  1

  0
HATCH
  5
210
330
20D
100
AcDbEntity
  8
LAYER_1
 62
     7
100
AcDbHatch
 10
0.0
 20
0.0
 30
0.0
210
0.0
220
0.0
230
1.0
  2
SOLID
 70
     1
 71
     0
 91
        1
 92
        1
 93
        1
 72
     4
 94
        3
 73
     0
 74
     0
 95
       14
 96
       10
 40
0.0
 40
0.0
 40
0.0
 40
0.0
 40
1.0
 40
1.0
 40
1.0
 40
2.0
 40
2.0
 40
2.0
 40
3.0
 40
3.0
 40
3.0
 40
3.0
 10
-0.2468410915798611
 20
-0.530544704861111
 10
-0.2468410915798611
 20
-0.530544704861111
 10
-0.3870564778645833
 20
-0.4285698784722222
 10
0.4955769856770833
 20
0.530544704861111
 10
-0.3870564778645833
 20
-0.4285698784722222
 10
-0.4955769856770833
 20
-0.3045464409722222
 10
-0.4955769856770833
 20
-0.3045464409722222
 10
-0.4955769856770833
 20
-0.3045464409722222
 10
-0.2468410915798611
 20
-0.530544704861111
 10
-0.2468410915798611
 20
-0.530544704861111
 97
        0
 97
        0
 75
     0
 76
     1
 98
        1
 10
0.0
 20
0.0
  0
ENDBLK
  5
211
330
20D
100
AcDbEntity
  8
LAYER_1
100
AcDbBlockEnd
  0
BLOCK
  5
214
330
212
100
AcDbEntity
  8
LAYER_1
 62
     7
100
AcDbBlockBegin
  2
AI9-BLK90
 70
     0
 10
0.0
 20
0.0
 30
0.0
  3
AI9-BLK90
  1

  0
HATCH
  5
215
330
212
100
AcDbEntity
  8
LAYER_1
 62
     7
100
AcDbHatch
 10
0.0
 20
0.0
 30
0.0
210
0.0
220
0.0
230
1.0
  2
SOLID
 70
     1
 71
     0
 91
        1
 92
        1
 93
        1
 72
     4
 94
        3
 73
     0
 74
     0
 95
       14
 96
       10
 40
0.0
 40
0.0
 40
0.0
 40
0.0
 40
1.0
 40
1.0
 40
1.0
 40
2.0
 40
2.0
 40
2.0
 40
3.0
 40
3.0
 40
3.0
 40
3.0
 10
0.0032728407118056
 20
-0.6294189453125
 10
0.0032728407118056
 20
-0.6294189453125
 10
-0.17208251953125
 20
-0.5784315321180555
 10
0.3122979058159722
 20
0.6294189453125
 10
-0.16588134765625
 20
-0.5784315321180555
 10
-0.3122979058159722
 20
-0.5019504123263888
 10
-0.3122979058159722
 20
-0.5019504123263888
 10
-0.3122979058159722
 20
-0.5019504123263888
 10
0.0032728407118056
 20
-0.6294189453125
 10
0.0032728407118056
 20
-0.6294189453125
 97
        0
 97
        0
 75
     0
 76
     1
 98
        1
 10
0.0
 20
0.0
  0
ENDBLK
  5
216
330
212
100
AcDbEntity
  8
LAYER_1
100
AcDbBlockEnd
  0
BLOCK
  5
219
330
217
100
AcDbEntity
  8
LAYER_1
 62
     7
100
AcDbBlockBegin
  2
AI9-BLK91
 70
     0
 10
0.0
 20
0.0
 30
0.0
  3
AI9-BLK91
  1

  0
HATCH
  5
21A
330
217
100
AcDbEntity
  8
LAYER_1
 62
     7
100
AcDbHatch
 10
0.0
 20
0.0
 30
0.0
210
0.0
220
0.0
230
1.0
  2
SOLID
 70
     1
 71
     0
 91
        1
 92
        1
 93
        1
 72
     4
 94
        3
 73
     0
 74
     0
 95
       14
 96
       10
 40
0.0
 40
0.0
 40
0.0
 40
0.0
 40
1.0
 40
1.0
 40
1.0
 40
2.0
 40
2.0
 40
2.0
 40
3.0
 40
3.0
 40
3.0
 40
3.0
 10
0.0013780381944444
 20
-0.6276963975694444
 10
0.0013780381944444
 20
-0.6276963975694444
 10
-0.1705322265625
 20
-0.580154079861111
 10
0.3107476128472222
 20
0.6276963975694444
 10
-0.1705322265625
 20
-0.580154079861111
 10
-0.3107476128472222
 20
-0.5002278645833332
 10
-0.3107476128472222
 20
-0.5002278645833332
 10
-0.3107476128472222
 20
-0.5002278645833332
 10
0.0013780381944444
 20
-0.6276963975694444
 10
0.0013780381944444
 20
-0.6276963975694444
 97
        0
 97
        0
 75
     0
 76
     1
 98
        1
 10
0.0
 20
0.0
  0
ENDBLK
  5
21B
330
217
100
AcDbEntity
  8
LAYER_1
100
AcDbBlockEnd
  0
BLOCK
  5
21E
330
21C
100
AcDbEntity
  8
LAYER_1
 62
     7
100
AcDbBlockBegin
  2
AI9-BLK92
 70
     0
 10
0.0
 20
0.0
 30
0.0
  3
AI9-BLK92
  1

  0
HATCH
  5
21F
330
21C
100
AcDbEntity
  8
LAYER_1
 62
     7
100
AcDbHatch
 10
0.0
 20
0.0
 30
0.0
210
0.0
220
0.0
230
1.0
  2
SOLID
 70
     1
 71
     0
 91
        1
 92
        1
 93
        1
 72
     4
 94
        3
 73
     0
 74
     0
 95
       14
 96
       10
 40
0.0
 40
0.0
 40
0.0
 40
0.0
 40
1.0
 40
1.0
 40
1.0
 40
2.0
 40
2.0
 40
2.0
 40
3.0
 40
3.0
 40
3.0
 40
3.0
 10
0.5846327039930554
 20
-0.1369425455729167
 10
0.5846327039930554
 20
-0.1369425455729167
 10
0.5050509982638889
 20
-0.28990478515625
 10
-0.5846327039930554
 20
0.4173733181423611
 10
0.5050509982638889
 20
-0.28990478515625
 10
0.3999755859375
 20
-0.4173733181423611
 10
0.3999755859375
 20
-0.4173733181423611
 10
0.3999755859375
 20
-0.4173733181423611
 10
0.5846327039930554
 20
-0.1369425455729167
 10
0.5846327039930554
 20
-0.1369425455729167
 97
        0
 97
        0
 75
     0
 76
     1
 98
        1
 10
0.0
 20
0.0
  0
ENDBLK
  5
220
330
21C
100
AcDbEntity
  8
LAYER_1
100
AcDbBlockEnd
  0
BLOCK
  5
223
330
221
100
AcDbEntity
  8
LAYER_1
 62
     7
100
AcDbBlockBegin
  2
AI9-BLK93
 70
     0
 10
0.0
 20
0.0
 30
0.0
  3
AI9-BLK93
  1

  0
HATCH
  5
224
330
221
100
AcDbEntity
  8
LAYER_1
 62
     7
100
AcDbHatch
 10
0.0
 20
0.0
 30
0.0
210
0.0
220
0.0
230
1.0
  2
SOLID
 70
     1
 71
     0
 91
        1
 92
        1
 93
        1
 72
     4
 94
        3
 73
     0
 74
     0
 95
       14
 96
       10
 40
0.0
 40
0.0
 40
0.0
 40
0.0
 40
1.0
 40
1.0
 40
1.0
 40
2.0
 40
2.0
 40
2.0
 40
3.0
 40
3.0
 40
3.0
 40
3.0
 10
0.3808553059895833
 20
-0.4399386935763889
 10
0.3839558919270833
 20
-0.4399386935763889
 10
0.23099365234375
 20
-0.5450141059027778
 10
-0.3808553059895833
 20
0.6022026909722221
 10
0.2406399197048611
 20
-0.5384684244791667
 10
0.0845770941840278
 20
-0.6022026909722221
 10
0.0845770941840278
 20
-0.6022026909722221
 10
0.0845770941840278
 20
-0.6022026909722221
 10
0.3808553059895833
 20
-0.4399386935763889
 10
0.3808553059895833
 20
-0.4399386935763889
 97
        0
 97
        0
 75
     0
 76
     1
 98
        1
 10
0.0
 20
0.0
  0
ENDBLK
  5
225
330
221
100
AcDbEntity
  8
LAYER_1
100
AcDbBlockEnd
  0
BLOCK
  5
228
330
226
100
AcDbEntity
  8
LAYER_1
 62
     7
100
AcDbBlockBegin
  2
AI9-BLK94
 70
     0
 10
0.0
 20
0.0
 30
0.0
  3
AI9-BLK94
  1

  0
HATCH
  5
229
330
226
100
AcDbEntity
  8
LAYER_1
 62
     7
100
AcDbHatch
 10
0.0
 20
0.0
 30
0.0
210
0.0
220
0.0
230
1.0
  2
SOLID
 70
     1
 71
     0
 91
        1
 92
        1
 93
        1
 72
     4
 94
        3
 73
     0
 74
     0
 95
       14
 96
       10
 40
0.0
 40
0.0
 40
0.0
 40
0.0
 40
1.0
 40
1.0
 40
1.0
 40
2.0
 40
2.0
 40
2.0
 40
3.0
 40
3.0
 40
3.0
 40
3.0
 10
0.1784559461805556
 20
-0.6771335177951389
 10
0.1784559461805556
 20
-0.6771335177951389
 10
-0.0254937065972222
 20
-0.6133992513020833
 10
0.1722547743055556
 20
0.6771335177951389
 10
-0.0220486111111111
 20
-0.6133992513020833
 10
-0.1784559461805556
 20
-0.5655124240451388
 10
-0.1784559461805556
 20
-0.5655124240451388
 10
-0.1784559461805556
 20
-0.5655124240451388
 10
0.1784559461805556
 20
-0.6771335177951389
 10
0.1784559461805556
 20
-0.6771335177951389
 97
        0
 97
        0
 75
     0
 76
     1
 98
        1
 10
0.0
 20
0.0
  0
ENDBLK
  5
22A
330
226
100
AcDbEntity
  8
LAYER_1
100
AcDbBlockEnd
  0
BLOCK
  5
22D
330
22B
100
AcDbEntity
  8
LAYER_1
 62
     7
100
AcDbBlockBegin
  2
AI9-BLK95
 70
     0
 10
0.0
 20
0.0
 30
0.0
  3
AI9-BLK95
  1

  0
HATCH
  5
22E
330
22B
100
AcDbEntity
  8
LAYER_1
 62
     7
100
AcDbHatch
 10
0.0
 20
0.0
 30
0.0
210
0.0
220
0.0
230
1.0
  2
SOLID
 70
     1
 71
     0
 91
        1
 92
        1
 93
        1
 72
     4
 94
        3
 73
     0
 74
     0
 95
       14
 96
       10
 40
0.0
 40
0.0
 40
0.0
 40
0.0
 40
1.0
 40
1.0
 40
1.0
 40
2.0
 40
2.0
 40
2.0
 40
3.0
 40
3.0
 40
3.0
 40
3.0
 10
-0.6149495442708333
 20
0.1817287868923611
 10
-0.6149495442708333
 20
0.1817287868923611
 10
-0.6373426649305555
 20
0.1879299587673611
 10
0.6149495442708333
 20
-0.1817287868923611
 10
-0.6342420789930555
 20
0.1879299587673611
 10
-0.6149495442708333
 20
0.1817287868923611
 10
-0.6149495442708333
 20
0.1817287868923611
 10
-0.6149495442708333
 20
0.1817287868923611
 10
-0.6149495442708333
 20
0.1817287868923611
 10
-0.6149495442708333
 20
0.1817287868923611
 97
        0
 97
        0
 75
     0
 76
     1
 98
        1
 10
0.0
 20
0.0
  0
ENDBLK
  5
22F
330
22B
100
AcDbEntity
  8
LAYER_1
100
AcDbBlockEnd
  0
BLOCK
  5
233
330
231
100
AcDbEntity
  8
LAYER_1
 62
     7
100
AcDbBlockBegin
  2
AI9-BLK96
 70
     0
 10
0.0
 20
0.0
 30
0.0
  3
AI9-BLK96
  1

  0
INSERT
  5
26C
330
231
100
AcDbEntity
  8
LAYER_1
 62
     7
100
AcDbBlockReference
  2
AI9-BLK108
 10
17.831125
 20
-7.330991
 30
0.0
  0
INSERT
  5
267
330
231
100
AcDbEntity
  8
LAYER_1
 62
     7
100
AcDbBlockReference
  2
AI9-BLK107
 10
10.568692
 20
-2.06344
 30
0.0
  0
INSERT
  5
262
330
231
100
AcDbEntity
  8
LAYER_1
 62
     7
100
AcDbBlockReference
  2
AI9-BLK106
 10
7.890302
 20
0.092501
 30
0.0
  0
INSERT
  5
25D
330
231
100
AcDbEntity
  8
LAYER_1
 62
     7
100
AcDbBlockReference
  2
AI9-BLK105
 10
3.594785
 20
2.211579
 30
0.0
  0
INSERT
  5
258
330
231
100
AcDbEntity
  8
LAYER_1
 62
     7
100
AcDbBlockReference
  2
AI9-BLK104
 10
-2.222603
 20
6.033912
 30
0.0
  0
INSERT
  5
253
330
231
100
AcDbEntity
  8
LAYER_1
 62
     7
100
AcDbBlockReference
  2
AI9-BLK103
 10
-11.181919
 20
10.938178
 30
0.0
  0
INSERT
  5
24E
330
231
100
AcDbEntity
  8
LAYER_1
 62
     7
100
AcDbBlockReference
  2
AI9-BLK102
 10
-14.376556
 20
12.367376
 30
0.0
  0
INSERT
  5
249
330
231
100
AcDbEntity
  8
LAYER_1
 62
     7
100
AcDbBlockReference
  2
AI9-BLK101
 10
-18.061947
 20
9.066113
 30
0.0
  0
INSERT
  5
244
330
231
100
AcDbEntity
  8
LAYER_1
 62
     7
100
AcDbBlockReference
  2
AI9-BLK100
 10
-7.560262
 20
0.506601
 30
0.0
  0
INSERT
  5
23F
330
231
100
AcDbEntity
  8
LAYER_1
 62
     7
100
AcDbBlockReference
  2
AI9-BLK99
 10
-0.288354
 20
-4.279842
 30
0.0
  0
INSERT
  5
23A
330
231
100
AcDbEntity
  8
LAYER_1
 62
     7
100
AcDbBlockReference
  2
AI9-BLK98
 10
6.032362
 20
-8.396903
 30
0.0
  0
INSERT
  5
235
330
231
100
AcDbEntity
  8
LAYER_1
 62
     7
100
AcDbBlockReference
  2
AI9-BLK97
 10
12.297441
 20
-12.675023
 30
0.0
  0
ENDBLK
  5
270
330
231
100
AcDbEntity
  8
LAYER_1
100
AcDbBlockEnd
  0
BLOCK
  5
236
330
234
100
AcDbEntity
  8
LAYER_1
 62
     7
100
AcDbBlockBegin
  2
AI9-BLK97
 70
     0
 10
0.0
 20
0.0
 30
0.0
  3
AI9-BLK97
  1

  0
HATCH
  5
237
330
234
100
AcDbEntity
  8
LAYER_1
 62
     7
100
AcDbHatch
 10
0.0
 20
0.0
 30
0.0
210
0.0
220
0.0
230
1.0
  2
SOLID
 70
     1
 71
     0
 91
        1
 92
        1
 93
        1
 72
     4
 94
        3
 73
     0
 74
     0
 95
       14
 96
       10
 40
0.0
 40
0.0
 40
0.0
 40
0.0
 40
1.0
 40
1.0
 40
1.0
 40
2.0
 40
2.0
 40
2.0
 40
3.0
 40
3.0
 40
3.0
 40
3.0
 10
-0.0733805338541667
 20
-0.7184746636284721
 10
-0.0733805338541667
 20
-0.7184746636284721
 10
-0.3538113064236111
 20
-0.5272718641493055
 10
0.5798095703124999
 20
0.7184746636284721
 10
-0.3538113064236111
 20
-0.5272718641493055
 10
-0.5798095703124999
 20
-0.3808553059895833
 10
-0.5798095703124999
 20
-0.3808553059895833
 10
-0.5798095703124999
 20
-0.3808553059895833
 10
-0.0733805338541667
 20
-0.7184746636284721
 10
-0.0733805338541667
 20
-0.7184746636284721
 97
        0
 97
        0
 75
     0
 76
     1
 98
        1
 10
0.0
 20
0.0
  0
ENDBLK
  5
238
330
234
100
AcDbEntity
  8
LAYER_1
100
AcDbBlockEnd
  0
BLOCK
  5
23B
330
239
100
AcDbEntity
  8
LAYER_1
 62
     7
100
AcDbBlockBegin
  2
AI9-BLK98
 70
     0
 10
0.0
 20
0.0
 30
0.0
  3
AI9-BLK98
  1

  0
HATCH
  5
23C
330
239
100
AcDbEntity
  8
LAYER_1
 62
     7
100
AcDbHatch
 10
0.0
 20
0.0
 30
0.0
210
0.0
220
0.0
230
1.0
  2
SOLID
 70
     1
 71
     0
 91
        1
 92
        1
 93
        1
 72
     4
 94
        3
 73
     0
 74
     0
 95
       14
 96
       10
 40
0.0
 40
0.0
 40
0.0
 40
0.0
 40
1.0
 40
1.0
 40
1.0
 40
2.0
 40
2.0
 40
2.0
 40
3.0
 40
3.0
 40
3.0
 40
3.0
 10
-0.0797539605034722
 20
-0.8094251844618054
 10
-0.0797539605034722
 20
-0.8094251844618054
 10
-0.3694864908854166
 20
-0.6213229709201389
 10
0.6054755316840277
 20
0.8094251844618054
 10
-0.3694864908854166
 20
-0.6375149197048611
 10
-0.6054755316840277
 20
-0.4590589735243055
 10
-0.6054755316840277
 20
-0.4590589735243055
 10
-0.6054755316840277
 20
-0.4590589735243055
 10
-0.0797539605034722
 20
-0.8094251844618054
 10
-0.0797539605034722
 20
-0.8094251844618054
 97
        0
 97
        0
 75
     0
 76
     1
 98
        1
 10
0.0
 20
0.0
  0
ENDBLK
  5
23D
330
239
100
AcDbEntity
  8
LAYER_1
100
AcDbBlockEnd
  0
BLOCK
  5
240
330
23E
100
AcDbEntity
  8
LAYER_1
 62
     7
100
AcDbBlockBegin
  2
AI9-BLK99
 70
     0
 10
0.0
 20
0.0
 30
0.0
  3
AI9-BLK99
  1

  0
HATCH
  5
241
330
23E
100
AcDbEntity
  8
LAYER_1
 62
     7
100
AcDbHatch
 10
0.0
 20
0.0
 30
0.0
210
0.0
220
0.0
230
1.0
  2
SOLID
 70
     1
 71
     0
 91
        1
 92
        1
 93
        1
 72
     4
 94
        3
 73
     0
 74
     0
 95
       14
 96
       10
 40
0.0
 40
0.0
 40
0.0
 40
0.0
 40
1.0
 40
1.0
 40
1.0
 40
2.0
 40
2.0
 40
2.0
 40
3.0
 40
3.0
 40
3.0
 40
3.0
 10
0.0080959743923611
 20
-0.6914306640625
 10
0.0080959743923611
 20
-0.6914306640625
 10
-0.3074747721354166
 20
-0.5353678385416666
 10
0.5241712782118055
 20
0.6914306640625
 10
-0.3136759440104167
 20
-0.5160753038194444
 10
-0.5241712782118055
 20
-0.3441650390625
 10
-0.5241712782118055
 20
-0.3441650390625
 10
-0.5241712782118055
 20
-0.3441650390625
 10
0.0080959743923611
 20
-0.6914306640625
 10
0.0080959743923611
 20
-0.6914306640625
 97
        0
 97
        0
 75
     0
 76
     1
 98
        1
 10
0.0
 20
0.0
  0
ENDBLK
  5
242
330
23E
100
AcDbEntity
  8
LAYER_1
100
AcDbBlockEnd
  0
BLOCK
  5
245
330
243
100
AcDbEntity
  8
LAYER_1
 62
     7
100
AcDbBlockBegin
  2
AI9-BLK100
 70
     0
 10
0.0
 20
0.0
 30
0.0
  3
AI9-BLK100
  1

  0
HATCH
  5
246
330
243
100
AcDbEntity
  8
LAYER_1
 62
     7
100
AcDbHatch
 10
0.0
 20
0.0
 30
0.0
210
0.0
220
0.0
230
1.0
  2
SOLID
 70
     1
 71
     0
 91
        1
 92
        1
 93
        1
 72
     4
 94
        3
 73
     0
 74
     0
 95
       14
 96
       10
 40
0.0
 40
0.0
 40
0.0
 40
0.0
 40
1.0
 40
1.0
 40
1.0
 40
2.0
 40
2.0
 40
2.0
 40
3.0
 40
3.0
 40
3.0
 40
3.0
 10
-0.0208428276909722
 20
-0.6788560655381943
 10
-0.0208428276909722
 20
-0.6788560655381943
 10
-0.34261474609375
 20
-0.4714613172743055
 10
0.5624118381076388
 20
0.6788560655381943
 10
-0.3522610134548611
 20
-0.4652601453993055
 10
-0.587905544704861
 20
-0.28680419921875
 10
-0.5624118381076388
 20
-0.3122979058159722
 10
-0.5624118381076388
 20
-0.3122979058159722
 10
-0.0208428276909722
 20
-0.6788560655381943
 10
-0.0208428276909722
 20
-0.6788560655381943
 97
        0
 97
        0
 75
     0
 76
     1
 98
        1
 10
0.0
 20
0.0
  0
ENDBLK
  5
247
330
243
100
AcDbEntity
  8
LAYER_1
100
AcDbBlockEnd
  0
BLOCK
  5
24A
330
248
100
AcDbEntity
  8
LAYER_1
 62
     7
100
AcDbBlockBegin
  2
AI9-BLK101
 70
     0
 10
0.0
 20
0.0
 30
0.0
  3
AI9-BLK101
  1

  0
HATCH
  5
24B
330
248
100
AcDbEntity
  8
LAYER_1
 62
     7
100
AcDbHatch
 10
0.0
 20
0.0
 30
0.0
210
0.0
220
0.0
230
1.0
  2
SOLID
 70
     1
 71
     0
 91
        1
 92
        1
 93
        1
 72
     4
 94
        3
 73
     0
 74
     0
 95
       14
 96
       10
 40
0.0
 40
0.0
 40
0.0
 40
0.0
 40
1.0
 40
1.0
 40
1.0
 40
2.0
 40
2.0
 40
2.0
 40
3.0
 40
3.0
 40
3.0
 40
3.0
 10
-0.2358167860243055
 20
-0.7520643446180555
 10
-0.2358167860243055
 20
-0.7520643446180555
 10
-0.5004001193576388
 20
-0.4971272786458333
 10
0.7425903320312499
 20
0.7520643446180555
 10
-0.5162475585937499
 20
-0.4843804253472222
 10
-0.7425903320312499
 20
-0.2676839192708333
 10
-0.7425903320312499
 20
-0.2676839192708333
 10
-0.7425903320312499
 20
-0.2676839192708333
 10
-0.2358167860243055
 20
-0.7520643446180555
 10
-0.2358167860243055
 20
-0.7520643446180555
 97
        0
 97
        0
 75
     0
 76
     1
 98
        1
 10
0.0
 20
0.0
  0
ENDBLK
  5
24C
330
248
100
AcDbEntity
  8
LAYER_1
100
AcDbBlockEnd
  0
BLOCK
  5
24F
330
24D
100
AcDbEntity
  8
LAYER_1
 62
     7
100
AcDbBlockBegin
  2
AI9-BLK102
 70
     0
 10
0.0
 20
0.0
 30
0.0
  3
AI9-BLK102
  1

  0
HATCH
  5
250
330
24D
100
AcDbEntity
  8
LAYER_1
 62
     7
100
AcDbHatch
 10
0.0
 20
0.0
 30
0.0
210
0.0
220
0.0
230
1.0
  2
SOLID
 70
     1
 71
     0
 91
        1
 92
        1
 93
        1
 72
     4
 94
        3
 73
     0
 74
     0
 95
       14
 96
       10
 40
0.0
 40
0.0
 40
0.0
 40
0.0
 40
1.0
 40
1.0
 40
1.0
 40
2.0
 40
2.0
 40
2.0
 40
3.0
 40
3.0
 40
3.0
 40
3.0
 10
-0.06201171875
 20
1.026121690538194
 10
-0.06201171875
 20
1.026121690538194
 10
0.3296956380208333
 20
0.8156263563368055
 10
-0.6931532118055554
 20
-1.026121690538194
 10
0.3169487847222222
 20
0.8094251844618054
 10
0.6931532118055554
 20
0.6116767035590277
 10
0.6931532118055554
 20
0.6116767035590277
 10
0.6931532118055554
 20
0.6116767035590277
 10
-0.06201171875
 20
1.026121690538194
 10
-0.06201171875
 20
1.026121690538194
 97
        0
 97
        0
 75
     0
 76
     1
 98
        1
 10
0.0
 20
0.0
  0
ENDBLK
  5
251
330
24D
100
AcDbEntity
  8
LAYER_1
100
AcDbBlockEnd
  0
BLOCK
  5
254
330
252
100
AcDbEntity
  8
LAYER_1
 62
     7
100
AcDbBlockBegin
  2
AI9-BLK103
 70
     0
 10
0.0
 20
0.0
 30
0.0
  3
AI9-BLK103
  1

  0
HATCH
  5
255
330
252
100
AcDbEntity
  8
LAYER_1
 62
     7
100
AcDbHatch
 10
0.0
 20
0.0
 30
0.0
210
0.0
220
0.0
230
1.0
  2
SOLID
 70
     1
 71
     0
 91
        1
 92
        1
 93
        1
 72
     4
 94
        3
 73
     0
 74
     0
 95
       14
 96
       10
 40
0.0
 40
0.0
 40
0.0
 40
0.0
 40
1.0
 40
1.0
 40
1.0
 40
2.0
 40
2.0
 40
2.0
 40
3.0
 40
3.0
 40
3.0
 40
3.0
 10
-0.0571885850694444
 20
0.4478624131944444
 10
-0.0571885850694444
 20
0.4478624131944444
 10
0.1467610677083333
 20
0.3265950520833333
 10
-0.347265625
 20
-0.4478624131944444
 10
0.1784559461805556
 20
0.2949001736111111
 10
0.347265625
 20
0.1863796657986111
 10
0.347265625
 20
0.1863796657986111
 10
0.347265625
 20
0.1863796657986111
 10
-0.0571885850694444
 20
0.4478624131944444
 10
-0.0571885850694444
 20
0.4478624131944444
 97
        0
 97
        0
 75
     0
 76
     1
 98
        1
 10
0.0
 20
0.0
  0
ENDBLK
  5
256
330
252
100
AcDbEntity
  8
LAYER_1
100
AcDbBlockEnd
  0
BLOCK
  5
259
330
257
100
AcDbEntity
  8
LAYER_1
 62
     7
100
AcDbBlockBegin
  2
AI9-BLK104
 70
     0
 10
0.0
 20
0.0
 30
0.0
  3
AI9-BLK104
  1

  0
HATCH
  5
25A
330
257
100
AcDbEntity
  8
LAYER_1
 62
     7
100
AcDbHatch
 10
0.0
 20
0.0
 30
0.0
210
0.0
220
0.0
230
1.0
  2
SOLID
 70
     1
 71
     0
 91
        1
 92
        1
 93
        1
 72
     4
 94
        3
 73
     0
 74
     0
 95
       14
 96
       10
 40
0.0
 40
0.0
 40
0.0
 40
0.0
 40
1.0
 40
1.0
 40
1.0
 40
2.0
 40
2.0
 40
2.0
 40
3.0
 40
3.0
 40
3.0
 40
3.0
 10
0.0237711588541667
 20
0.7663614908854166
 10
0.0237711588541667
 20
0.7663614908854166
 10
0.3617350260416666
 20
0.5782592773437499
 10
-0.7665337456597221
 20
-0.7663614908854166
 10
0.3903293185763889
 20
0.5720581054687499
 10
0.7665337456597221
 20
0.34261474609375
 10
0.7665337456597221
 20
0.34261474609375
 10
0.7665337456597221
 20
0.34261474609375
 10
0.0237711588541667
 20
0.7663614908854166
 10
0.0237711588541667
 20
0.7663614908854166
 97
        0
 97
        0
 75
     0
 76
     1
 98
        1
 10
0.0
 20
0.0
  0
ENDBLK
  5
25B
330
257
100
AcDbEntity
  8
LAYER_1
100
AcDbBlockEnd
  0
BLOCK
  5
25E
330
25C
100
AcDbEntity
  8
LAYER_1
 62
     7
100
AcDbBlockBegin
  2
AI9-BLK105
 70
     0
 10
0.0
 20
0.0
 30
0.0
  3
AI9-BLK105
  1

  0
HATCH
  5
25F
330
25C
100
AcDbEntity
  8
LAYER_1
 62
     7
100
AcDbHatch
 10
0.0
 20
0.0
 30
0.0
210
0.0
220
0.0
230
1.0
  2
SOLID
 70
     1
 71
     0
 91
        1
 92
        1
 93
        1
 72
     4
 94
        3
 73
     0
 74
     0
 95
       14
 96
       10
 40
0.0
 40
0.0
 40
0.0
 40
0.0
 40
1.0
 40
1.0
 40
1.0
 40
2.0
 40
2.0
 40
2.0
 40
3.0
 40
3.0
 40
3.0
 40
3.0
 10
0.3024793836805556
 20
0.8252726236979165
 10
0.3024793836805556
 20
0.8252726236979165
 10
0.5512152777777777
 20
0.6723103841145833
 10
-0.8922797309027777
 20
-0.8252726236979165
 10
0.5736083984375
 20
0.6692097981770833
 10
0.8922797309027777
 20
0.4428670247395833
 10
0.8922797309027777
 20
0.4428670247395833
 10
0.8922797309027777
 20
0.4428670247395833
 10
0.3024793836805556
 20
0.8252726236979165
 10
0.3024793836805556
 20
0.8252726236979165
 97
        0
 97
        0
 75
     0
 76
     1
 98
        1
 10
0.0
 20
0.0
  0
ENDBLK
  5
260
330
25C
100
AcDbEntity
  8
LAYER_1
100
AcDbBlockEnd
  0
BLOCK
  5
263
330
261
100
AcDbEntity
  8
LAYER_1
 62
     7
100
AcDbBlockBegin
  2
AI9-BLK106
 70
     0
 10
0.0
 20
0.0
 30
0.0
  3
AI9-BLK106
  1

  0
HATCH
  5
264
330
261
100
AcDbEntity
  8
LAYER_1
 62
     7
100
AcDbHatch
 10
0.0
 20
0.0
 30
0.0
210
0.0
220
0.0
230
1.0
  2
SOLID
 70
     1
 71
     0
 91
        1
 92
        1
 93
        1
 72
     4
 94
        3
 73
     0
 74
     0
 95
       14
 96
       10
 40
0.0
 40
0.0
 40
0.0
 40
0.0
 40
1.0
 40
1.0
 40
1.0
 40
2.0
 40
2.0
 40
2.0
 40
3.0
 40
3.0
 40
3.0
 40
3.0
 10
-0.1465888129340278
 20
0.4780069986979166
 10
-0.1465888129340278
 20
0.4780069986979166
 10
0.1083482530381944
 20
0.3250447591145833
 10
-0.3856784396701389
 20
-0.4780069986979166
 10
0.0925008138020833
 20
0.3312459309895833
 10
0.3856784396701389
 20
0.1272962782118055
 10
0.3856784396701389
 20
0.1272962782118055
 10
0.3856784396701389
 20
0.1272962782118055
 10
-0.1465888129340278
 20
0.4780069986979166
 10
-0.1465888129340278
 20
0.4780069986979166
 97
        0
 97
        0
 75
     0
 76
     1
 98
        1
 10
0.0
 20
0.0
  0
ENDBLK
  5
265
330
261
100
AcDbEntity
  8
LAYER_1
100
AcDbBlockEnd
  0
BLOCK
  5
268
330
266
100
AcDbEntity
  8
LAYER_1
 62
     7
100
AcDbBlockBegin
  2
AI9-BLK107
 70
     0
 10
0.0
 20
0.0
 30
0.0
  3
AI9-BLK107
  1

  0
HATCH
  5
269
330
266
100
AcDbEntity
  8
LAYER_1
 62
     7
100
AcDbHatch
 10
0.0
 20
0.0
 30
0.0
210
0.0
220
0.0
230
1.0
  2
SOLID
 70
     1
 71
     0
 91
        1
 92
        1
 93
        1
 72
     4
 94
        3
 73
     0
 74
     0
 95
       14
 96
       10
 40
0.0
 40
0.0
 40
0.0
 40
0.0
 40
1.0
 40
1.0
 40
1.0
 40
2.0
 40
2.0
 40
2.0
 40
3.0
 40
3.0
 40
3.0
 40
3.0
 10
0.0813042534722222
 20
0.7057278103298611
 10
0.0813042534722222
 20
0.7057278103298611
 10
0.3011013454861111
 20
0.5241712782118055
 10
-0.7059000651041666
 20
-0.7057278103298611
 10
0.3265950520833333
 20
0.5114244249131944
 10
0.7121012369791666
 20
0.2437405056423611
 10
0.7059000651041666
 20
0.2437405056423611
 10
0.7059000651041666
 20
0.2437405056423611
 10
0.0813042534722222
 20
0.7057278103298611
 10
0.0813042534722222
 20
0.7057278103298611
 97
        0
 97
        0
 75
     0
 76
     1
 98
        1
 10
0.0
 20
0.0
  0
ENDBLK
  5
26A
330
266
100
AcDbEntity
  8
LAYER_1
100
AcDbBlockEnd
  0
BLOCK
  5
26D
330
26B
100
AcDbEntity
  8
LAYER_1
 62
     7
100
AcDbBlockBegin
  2
AI9-BLK108
 70
     0
 10
0.0
 20
0.0
 30
0.0
  3
AI9-BLK108
  1

  0
HATCH
  5
26E
330
26B
100
AcDbEntity
  8
LAYER_1
 62
     7
100
AcDbHatch
 10
0.0
 20
0.0
 30
0.0
210
0.0
220
0.0
230
1.0
  2
SOLID
 70
     1
 71
     0
 91
        1
 92
        1
 93
        1
 72
     4
 94
        3
 73
     0
 74
     0
 95
       14
 96
       10
 40
0.0
 40
0.0
 40
0.0
 40
0.0
 40
1.0
 40
1.0
 40
1.0
 40
2.0
 40
2.0
 40
2.0
 40
3.0
 40
3.0
 40
3.0
 40
3.0
 10
0.34571533203125
 20
0.8397420247395833
 10
0.34571533203125
 20
0.8397420247395833
 10
0.6230455186631944
 20
0.5975518120659722
 10
-0.9734117296006943
 20
-0.8397420247395833
 10
0.6419935438368055
 20
0.584804958767361
 10
0.9734117296006943
 20
0.3233222113715277
 10
0.9734117296006943
 20
0.3233222113715277
 10
0.9734117296006943
 20
0.3233222113715277
 10
0.34571533203125
 20
0.8397420247395833
 10
0.34571533203125
 20
0.8397420247395833
 97
        0
 97
        0
 75
     0
 76
     1
 98
        1
 10
0.0
 20
0.0
  0
ENDBLK
  5
26F
330
26B
100
AcDbEntity
  8
LAYER_1
100
AcDbBlockEnd
  0
BLOCK
  5
273
330
271
100
AcDbEntity
  8
LAYER_1
 62
     7
100
AcDbBlockBegin
  2
AI9-BLK109
 70
     0
 10
0.0
 20
0.0
 30
0.0
  3
AI9-BLK109
  1

  0
INSERT
  5
293
330
271
100
AcDbEntity
  8
LAYER_1
 62
     7
100
AcDbBlockReference
  2
AI9-BLK116
 10
-9.69381
 20
0.501778
 30
0.0
  0
INSERT
  5
28E
330
271
100
AcDbEntity
  8
LAYER_1
 62
     7
100
AcDbBlockReference
  2
AI9-BLK115
 10
-4.075548
 20
-2.812231
 30
0.0
  0
INSERT
  5
289
330
271
100
AcDbEntity
  8
LAYER_1
 62
     7
100
AcDbBlockReference
  2
AI9-BLK114
 10
1.311548
 20
-5.584672
 30
0.0
  0
INSERT
  5
284
330
271
100
AcDbEntity
  8
LAYER_1
 62
     7
100
AcDbBlockReference
  2
AI9-BLK113
 10
9.67624
 20
-2.94125
 30
0.0
  0
INSERT
  5
27F
330
271
100
AcDbEntity
  8
LAYER_1
 62
     7
100
AcDbBlockReference
  2
AI9-BLK112
 10
6.562907
 20
-1.384584
 30
0.0
  0
INSERT
  5
27A
330
271
100
AcDbEntity
  8
LAYER_1
 62
     7
100
AcDbBlockReference
  2
AI9-BLK111
 10
-0.18638
 20
2.493388
 30
0.0
  0
INSERT
  5
275
330
271
100
AcDbEntity
  8
LAYER_1
 62
     7
100
AcDbBlockReference
  2
AI9-BLK110
 10
-5.372626
 20
5.998945
 30
0.0
  0
ENDBLK
  5
297
330
271
100
AcDbEntity
  8
LAYER_1
100
AcDbBlockEnd
  0
BLOCK
  5
276
330
274
100
AcDbEntity
  8
LAYER_1
 62
     7
100
AcDbBlockBegin
  2
AI9-BLK110
 70
     0
 10
0.0
 20
0.0
 30
0.0
  3
AI9-BLK110
  1

  0
HATCH
  5
277
330
274
100
AcDbEntity
  8
LAYER_1
 62
     7
100
AcDbHatch
 10
0.0
 20
0.0
 30
0.0
210
0.0
220
0.0
230
1.0
  2
SOLID
 70
     1
 71
     0
 91
        1
 92
        1
 93
        1
 72
     4
 94
        3
 73
     0
 74
     0
 95
       14
 96
       10
 40
0.0
 40
0.0
 40
0.0
 40
0.0
 40
1.0
 40
1.0
 40
1.0
 40
2.0
 40
2.0
 40
2.0
 40
3.0
 40
3.0
 40
3.0
 40
3.0
 10
0.3345187717013889
 20
0.7201972113715277
 10
0.3345187717013889
 20
0.7201972113715277
 10
0.5257215711805555
 20
0.5927286783854167
 10
-0.8030517578124999
 20
-0.7201972113715277
 10
0.5543158637152777
 20
0.5734361436631944
 10
0.8030517578124999
 20
0.4142727322048611
 10
0.8030517578124999
 20
0.4142727322048611
 10
0.8030517578124999
 20
0.4142727322048611
 10
0.3345187717013889
 20
0.7201972113715277
 10
0.3345187717013889
 20
0.7201972113715277
 97
        0
 97
        0
 75
     0
 76
     1
 98
        1
 10
0.0
 20
0.0
  0
ENDBLK
  5
278
330
274
100
AcDbEntity
  8
LAYER_1
100
AcDbBlockEnd
  0
BLOCK
  5
27B
330
279
100
AcDbEntity
  8
LAYER_1
 62
     7
100
AcDbBlockBegin
  2
AI9-BLK111
 70
     0
 10
0.0
 20
0.0
 30
0.0
  3
AI9-BLK111
  1

  0
HATCH
  5
27C
330
279
100
AcDbEntity
  8
LAYER_1
 62
     7
100
AcDbHatch
 10
0.0
 20
0.0
 30
0.0
210
0.0
220
0.0
230
1.0
  2
SOLID
 70
     1
 71
     0
 91
        1
 92
        1
 93
        1
 72
     4
 94
        3
 73
     0
 74
     0
 95
       14
 96
       10
 40
0.0
 40
0.0
 40
0.0
 40
0.0
 40
1.0
 40
1.0
 40
1.0
 40
2.0
 40
2.0
 40
2.0
 40
3.0
 40
3.0
 40
3.0
 40
3.0
 10
0.2501139322916666
 20
0.7265706380208332
 10
0.2501139322916666
 20
0.7265706380208332
 10
0.4637098524305555
 20
0.5736083984375
 10
-0.7186469184027777
 20
-0.7265706380208332
 10
0.4861029730902777
 20
0.5608615451388889
 10
0.7186469184027777
 20
0.3538113064236111
 10
0.7186469184027777
 20
0.3538113064236111
 10
0.7186469184027777
 20
0.3538113064236111
 10
0.2501139322916666
 20
0.7265706380208332
 10
0.2501139322916666
 20
0.7265706380208332
 97
        0
 97
        0
 75
     0
 76
     1
 98
        1
 10
0.0
 20
0.0
  0
ENDBLK
  5
27D
330
279
100
AcDbEntity
  8
LAYER_1
100
AcDbBlockEnd
  0
BLOCK
  5
280
330
27E
100
AcDbEntity
  8
LAYER_1
 62
     7
100
AcDbBlockBegin
  2
AI9-BLK112
 70
     0
 10
0.0
 20
0.0
 30
0.0
  3
AI9-BLK112
  1

  0
HATCH
  5
281
330
27E
100
AcDbEntity
  8
LAYER_1
 62
     7
100
AcDbHatch
 10
0.0
 20
0.0
 30
0.0
210
0.0
220
0.0
230
1.0
  2
SOLID
 70
     1
 71
     0
 91
        1
 92
        1
 93
        1
 72
     4
 94
        3
 73
     0
 74
     0
 95
       14
 96
       10
 40
0.0
 40
0.0
 40
0.0
 40
0.0
 40
1.0
 40
1.0
 40
1.0
 40
2.0
 40
2.0
 40
2.0
 40
3.0
 40
3.0
 40
3.0
 40
3.0
 10
0.0782036675347222
 20
0.6340698242187499
 10
0.0782036675347222
 20
0.6340698242187499
 10
0.3427870008680555
 20
0.51314697265625
 10
-0.6166720920138888
 20
-0.6340698242187499
 10
0.3586344401041666
 20
0.5004001193576388
 10
0.6166720920138888
 20
0.3408921983506944
 10
0.6166720920138888
 20
0.3408921983506944
 10
0.6166720920138888
 20
0.3408921983506944
 10
0.0782036675347222
 20
0.6340698242187499
 10
0.0782036675347222
 20
0.6340698242187499
 97
        0
 97
        0
 75
     0
 76
     1
 98
        1
 10
0.0
 20
0.0
  0
ENDBLK
  5
282
330
27E
100
AcDbEntity
  8
LAYER_1
100
AcDbBlockEnd
  0
BLOCK
  5
285
330
283
100
AcDbEntity
  8
LAYER_1
 62
     7
100
AcDbBlockBegin
  2
AI9-BLK113
 70
     0
 10
0.0
 20
0.0
 30
0.0
  3
AI9-BLK113
  1

  0
HATCH
  5
286
330
283
100
AcDbEntity
  8
LAYER_1
 62
     7
100
AcDbHatch
 10
0.0
 20
0.0
 30
0.0
210
0.0
220
0.0
230
1.0
  2
SOLID
 70
     1
 71
     0
 91
        1
 92
        1
 93
        1
 72
     4
 94
        3
 73
     0
 74
     0
 95
       14
 96
       10
 40
0.0
 40
0.0
 40
0.0
 40
0.0
 40
1.0
 40
1.0
 40
1.0
 40
2.0
 40
2.0
 40
2.0
 40
3.0
 40
3.0
 40
3.0
 40
3.0
 10
0.049609375
 20
0.6549126519097221
 10
0.049609375
 20
0.6549126519097221
 10
0.3362413194444444
 20
0.5274441189236111
 10
-0.6452663845486111
 20
-0.6549126519097221
 10
0.3682807074652778
 20
0.5208984375
 10
0.6452663845486111
 20
0.3806830512152777
 10
0.6452663845486111
 20
0.3806830512152777
 10
0.6452663845486111
 20
0.3806830512152777
 10
0.049609375
 20
0.6549126519097221
 10
0.049609375
 20
0.6549126519097221
 97
        0
 97
        0
 75
     0
 76
     1
 98
        1
 10
0.0
 20
0.0
  0
ENDBLK
  5
287
330
283
100
AcDbEntity
  8
LAYER_1
100
AcDbBlockEnd
  0
BLOCK
  5
28A
330
288
100
AcDbEntity
  8
LAYER_1
 62
     7
100
AcDbBlockBegin
  2
AI9-BLK114
 70
     0
 10
0.0
 20
0.0
 30
0.0
  3
AI9-BLK114
  1

  0
HATCH
  5
28B
330
288
100
AcDbEntity
  8
LAYER_1
 62
     7
100
AcDbHatch
 10
0.0
 20
0.0
 30
0.0
210
0.0
220
0.0
230
1.0
  2
SOLID
 70
     1
 71
     0
 91
        1
 92
        1
 93
        1
 72
     4
 94
        3
 73
     0
 74
     0
 95
       14
 96
       10
 40
0.0
 40
0.0
 40
0.0
 40
0.0
 40
1.0
 40
1.0
 40
1.0
 40
2.0
 40
2.0
 40
2.0
 40
3.0
 40
3.0
 40
3.0
 40
3.0
 10
0.0237711588541667
 20
-1.134469943576389
 10
0.0237711588541667
 20
-1.134469943576389
 10
-0.2311659071180555
 20
-0.9656602647569443
 10
0.4923041449652778
 20
1.134469943576389
 10
-0.2408121744791666
 20
-0.9656602647569443
 10
-0.4923041449652778
 20
-0.8316460503472222
 10
-0.4923041449652778
 20
-0.8316460503472222
 10
-0.4923041449652778
 20
-0.8316460503472222
 10
0.0237711588541667
 20
-1.134469943576389
 10
0.0237711588541667
 20
-1.134469943576389
 97
        0
 97
        0
 75
     0
 76
     1
 98
        1
 10
0.0
 20
0.0
  0
ENDBLK
  5
28C
330
288
100
AcDbEntity
  8
LAYER_1
100
AcDbBlockEnd
  0
BLOCK
  5
28F
330
28D
100
AcDbEntity
  8
LAYER_1
 62
     7
100
AcDbBlockBegin
  2
AI9-BLK115
 70
     0
 10
0.0
 20
0.0
 30
0.0
  3
AI9-BLK115
  1

  0
HATCH
  5
290
330
28D
100
AcDbEntity
  8
LAYER_1
 62
     7
100
AcDbHatch
 10
0.0
 20
0.0
 30
0.0
210
0.0
220
0.0
230
1.0
  2
SOLID
 70
     1
 71
     0
 91
        1
 92
        1
 93
        1
 72
     4
 94
        3
 73
     0
 74
     0
 95
       14
 96
       10
 40
0.0
 40
0.0
 40
0.0
 40
0.0
 40
1.0
 40
1.0
 40
1.0
 40
2.0
 40
2.0
 40
2.0
 40
3.0
 40
3.0
 40
3.0
 40
3.0
 10
0.1081759982638889
 20
-0.9210462782118055
 10
0.1081759982638889
 20
-0.9210462782118055
 10
-0.1977484809027778
 20
-0.7425903320312499
 10
0.4747341579861111
 20
0.9210462782118055
 10
-0.2073947482638889
 20
-0.7360446506076388
 10
-0.4747341579861111
 20
-0.5703355577256944
 10
-0.4747341579861111
 20
-0.5703355577256944
 10
-0.4747341579861111
 20
-0.5703355577256944
 10
0.1081759982638889
 20
-0.9210462782118055
 10
0.1081759982638889
 20
-0.9210462782118055
 97
        0
 97
        0
 75
     0
 76
     1
 98
        1
 10
0.0
 20
0.0
  0
ENDBLK
  5
291
330
28D
100
AcDbEntity
  8
LAYER_1
100
AcDbBlockEnd
  0
BLOCK
  5
294
330
292
100
AcDbEntity
  8
LAYER_1
 62
     7
100
AcDbBlockBegin
  2
AI9-BLK116
 70
     0
 10
0.0
 20
0.0
 30
0.0
  3
AI9-BLK116
  1

  0
HATCH
  5
295
330
292
100
AcDbEntity
  8
LAYER_1
 62
     7
100
AcDbHatch
 10
0.0
 20
0.0
 30
0.0
210
0.0
220
0.0
230
1.0
  2
SOLID
 70
     1
 71
     0
 91
        1
 92
        1
 93
        1
 72
     4
 94
        3
 73
     0
 74
     0
 95
       14
 96
       10
 40
0.0
 40
0.0
 40
0.0
 40
0.0
 40
1.0
 40
1.0
 40
1.0
 40
2.0
 40
2.0
 40
2.0
 40
3.0
 40
3.0
 40
3.0
 40
3.0
 10
0.0
 20
-0.7934054904513889
 10
0.0
 20
-0.7934054904513889
 10
-0.3217719184027778
 20
-0.5798095703124999
 10
0.6276963975694444
 20
0.7934054904513889
 10
-0.3569118923611111
 20
-0.5639621310763888
 10
-0.6276963975694444
 20
-0.4109998914930555
 10
-0.6276963975694444
 20
-0.4109998914930555
 10
-0.6276963975694444
 20
-0.4109998914930555
 10
0.0
 20
-0.7934054904513889
 10
0.0
 20
-0.7934054904513889
 97
        0
 97
        0
 75
     0
 76
     1
 98
        1
 10
0.0
 20
0.0
  0
ENDBLK
  5
296
330
292
100
AcDbEntity
  8
LAYER_1
100
AcDbBlockEnd
  0
BLOCK
  5
29A
330
298
100
AcDbEntity
  8
LAYER_1
 62
     7
100
AcDbBlockBegin
  2
AI9-BLK117
 70
     0
 10
0.0
 20
0.0
 30
0.0
  3
AI9-BLK117
  1

  0
INSERT
  5
2C4
330
298
100
AcDbEntity
  8
LAYER_1
 62
     7
100
AcDbBlockReference
  2
AI9-BLK126
 10
5.555905
 20
-4.787994
 30
0.0
  0
INSERT
  5
2BF
330
298
100
AcDbEntity
  8
LAYER_1
 62
     7
100
AcDbBlockReference
  2
AI9-BLK125
 10
5.098569
 20
1.161514
 30
0.0
  0
INSERT
  5
2BA
330
298
100
AcDbEntity
  8
LAYER_1
 62
     7
100
AcDbBlockReference
  2
AI9-BLK124
 10
1.005279
 20
6.145361
 30
0.0
  0
INSERT
  5
2B5
330
298
100
AcDbEntity
  8
LAYER_1
 62
     7
100
AcDbBlockReference
  2
AI9-BLK123
 10
0.374482
 20
6.900699
 30
0.0
  0
INSERT
  5
2B0
330
298
100
AcDbEntity
  8
LAYER_1
 62
     7
100
AcDbBlockReference
  2
AI9-BLK122
 10
-1.779736
 20
7.428143
 30
0.0
  0
INSERT
  5
2AB
330
298
100
AcDbEntity
  8
LAYER_1
 62
     7
100
AcDbBlockReference
  2
AI9-BLK121
 10
-5.444457
 20
3.016181
 30
0.0
  0
INSERT
  5
2A6
330
298
100
AcDbEntity
  8
LAYER_1
 62
     7
100
AcDbBlockReference
  2
AI9-BLK120
 10
-3.42253
 20
-3.390663
 30
0.0
  0
INSERT
  5
2A1
330
298
100
AcDbEntity
  8
LAYER_1
 62
     7
100
AcDbBlockReference
  2
AI9-BLK119
 10
-1.129647
 20
-6.473851
 30
0.0
  0
INSERT
  5
29C
330
298
100
AcDbEntity
  8
LAYER_1
 62
     7
100
AcDbBlockReference
  2
AI9-BLK118
 10
0.509874
 20
-7.579555
 30
0.0
  0
ENDBLK
  5
2C8
330
298
100
AcDbEntity
  8
LAYER_1
100
AcDbBlockEnd
  0
BLOCK
  5
29D
330
29B
100
AcDbEntity
  8
LAYER_1
 62
     7
100
AcDbBlockBegin
  2
AI9-BLK118
 70
     0
 10
0.0
 20
0.0
 30
0.0
  3
AI9-BLK118
  1

  0
HATCH
  5
29E
330
29B
100
AcDbEntity
  8
LAYER_1
 62
     7
100
AcDbHatch
 10
0.0
 20
0.0
 30
0.0
210
0.0
220
0.0
230
1.0
  2
SOLID
 70
     1
 71
     0
 91
        1
 92
        1
 93
        1
 72
     4
 94
        3
 73
     0
 74
     0
 95
       14
 96
       10
 40
0.0
 40
0.0
 40
0.0
 40
0.0
 40
1.0
 40
1.0
 40
1.0
 40
2.0
 40
2.0
 40
2.0
 40
3.0
 40
3.0
 40
3.0
 40
3.0
 10
0.00155029296875
 20
-0.63096923828125
 10
0.00155029296875
 20
-0.63096923828125
 10
-0.1641587999131944
 20
-0.5927286783854167
 10
0.2916273328993055
 20
0.63096923828125
 10
-0.1576131184895833
 20
-0.5927286783854167
 10
-0.2916273328993055
 20
-0.52244873046875
 10
-0.2916273328993055
 20
-0.52244873046875
 10
-0.2916273328993055
 20
-0.52244873046875
 10
0.00155029296875
 20
-0.63096923828125
 10
0.00155029296875
 20
-0.63096923828125
 97
        0
 97
        0
 75
     0
 76
     1
 98
        1
 10
0.0
 20
0.0
  0
ENDBLK
  5
29F
330
29B
100
AcDbEntity
  8
LAYER_1
100
AcDbBlockEnd
  0
BLOCK
  5
2A2
330
2A0
100
AcDbEntity
  8
LAYER_1
 62
     7
100
AcDbBlockBegin
  2
AI9-BLK119
 70
     0
 10
0.0
 20
0.0
 30
0.0
  3
AI9-BLK119
  1

  0
HATCH
  5
2A3
330
2A0
100
AcDbEntity
  8
LAYER_1
 62
     7
100
AcDbHatch
 10
0.0
 20
0.0
 30
0.0
210
0.0
220
0.0
230
1.0
  2
SOLID
 70
     1
 71
     0
 91
        1
 92
        1
 93
        1
 72
     4
 94
        3
 73
     0
 74
     0
 95
       14
 96
       10
 40
0.0
 40
0.0
 40
0.0
 40
0.0
 40
1.0
 40
1.0
 40
1.0
 40
2.0
 40
2.0
 40
2.0
 40
3.0
 40
3.0
 40
3.0
 40
3.0
 10
-0.3601847330729167
 20
-0.4619873046874999
 10
-0.3601847330729167
 20
-0.4619873046874999
 10
-0.4749064127604166
 20
-0.347265625
 10
0.5513875325520833
 20
0.4619873046874999
 10
-0.4749064127604166
 20
-0.347265625
 10
-0.5513875325520833
 20
-0.2197970920138889
 10
-0.5513875325520833
 20
-0.2197970920138889
 10
-0.5513875325520833
 20
-0.2197970920138889
 10
-0.3601847330729167
 20
-0.4619873046874999
 10
-0.3601847330729167
 20
-0.4619873046874999
 97
        0
 97
        0
 75
     0
 76
     1
 98
        1
 10
0.0
 20
0.0
  0
ENDBLK
  5
2A4
330
2A0
100
AcDbEntity
  8
LAYER_1
100
AcDbBlockEnd
  0
BLOCK
  5
2A7
330
2A5
100
AcDbEntity
  8
LAYER_1
 62
     7
100
AcDbBlockBegin
  2
AI9-BLK120
 70
     0
 10
0.0
 20
0.0
 30
0.0
  3
AI9-BLK120
  1

  0
HATCH
  5
2A8
330
2A5
100
AcDbEntity
  8
LAYER_1
 62
     7
100
AcDbHatch
 10
0.0
 20
0.0
 30
0.0
210
0.0
220
0.0
230
1.0
  2
SOLID
 70
     1
 71
     0
 91
        1
 92
        1
 93
        1
 72
     4
 94
        3
 73
     0
 74
     0
 95
       14
 96
       10
 40
0.0
 40
0.0
 40
0.0
 40
0.0
 40
1.0
 40
1.0
 40
1.0
 40
2.0
 40
2.0
 40
2.0
 40
3.0
 40
3.0
 40
3.0
 40
3.0
 10
-0.4096218532986111
 20
-0.4159952799479166
 10
-0.4096218532986111
 20
-0.4159952799479166
 10
-0.5177978515624999
 20
-0.2885267469618055
 10
0.5815321180555555
 20
0.4159952799479166
 10
-0.514697265625
 20
-0.2885267469618055
 10
-0.5815321180555555
 20
-0.1576131184895833
 10
-0.5815321180555555
 20
-0.1576131184895833
 10
-0.5815321180555555
 20
-0.1576131184895833
 10
-0.4096218532986111
 20
-0.4159952799479166
 10
-0.4096218532986111
 20
-0.4159952799479166
 97
        0
 97
        0
 75
     0
 76
     1
 98
        1
 10
0.0
 20
0.0
  0
ENDBLK
  5
2A9
330
2A5
100
AcDbEntity
  8
LAYER_1
100
AcDbBlockEnd
  0
BLOCK
  5
2AC
330
2AA
100
AcDbEntity
  8
LAYER_1
 62
     7
100
AcDbBlockBegin
  2
AI9-BLK121
 70
     0
 10
0.0
 20
0.0
 30
0.0
  3
AI9-BLK121
  1

  0
HATCH
  5
2AD
330
2AA
100
AcDbEntity
  8
LAYER_1
 62
     7
100
AcDbHatch
 10
0.0
 20
0.0
 30
0.0
210
0.0
220
0.0
230
1.0
  2
SOLID
 70
     1
 71
     0
 91
        1
 92
        1
 93
        1
 72
     4
 94
        3
 73
     0
 74
     0
 95
       14
 96
       10
 40
0.0
 40
0.0
 40
0.0
 40
0.0
 40
1.0
 40
1.0
 40
1.0
 40
2.0
 40
2.0
 40
2.0
 40
3.0
 40
3.0
 40
3.0
 40
3.0
 10
-0.6245958116319444
 20
-0.0415134006076389
 10
-0.6245958116319444
 20
-0.0415134006076389
 10
-0.5991021050347222
 20
0.1369425455729167
 10
0.6245958116319444
 20
-0.3153984917534722
 10
-0.6053032769097222
 20
0.1179945203993055
 10
-0.6087483723958332
 20
0.3153984917534722
 10
-0.6087483723958332
 20
0.3153984917534722
 10
-0.6597357855902777
 20
0.2261705186631944
 10
-0.6022026909722221
 20
0.06046142578125
 10
-0.6245958116319444
 20
-0.0415134006076389
 97
        0
 97
        0
 75
     0
 76
     1
 98
        1
 10
0.0
 20
0.0
  0
ENDBLK
  5
2AE
330
2AA
100
AcDbEntity
  8
LAYER_1
100
AcDbBlockEnd
  0
BLOCK
  5
2B1
330
2AF
100
AcDbEntity
  8
LAYER_1
 62
     7
100
AcDbBlockBegin
  2
AI9-BLK122
 70
     0
 10
0.0
 20
0.0
 30
0.0
  3
AI9-BLK122
  1

  0
HATCH
  5
2B2
330
2AF
100
AcDbEntity
  8
LAYER_1
 62
     7
100
AcDbHatch
 10
0.0
 20
0.0
 30
0.0
210
0.0
220
0.0
230
1.0
  2
SOLID
 70
     1
 71
     0
 91
        1
 92
        1
 93
        1
 72
     4
 94
        3
 73
     0
 74
     0
 95
       14
 96
       10
 40
0.0
 40
0.0
 40
0.0
 40
0.0
 40
1.0
 40
1.0
 40
1.0
 40
2.0
 40
2.0
 40
2.0
 40
3.0
 40
3.0
 40
3.0
 40
3.0
 10
-0.1562350802951389
 20
0.7823811848958333
 10
-0.1562350802951389
 20
0.7823811848958333
 10
-0.0001722547743056
 20
0.7789360894097221
 10
0.0253214518229167
 20
-0.7823811848958333
 10
-0.0063734266493056
 20
0.7727349175347221
 10
0.1562350802951389
 20
0.766189236111111
 10
0.1562350802951389
 20
0.766189236111111
 10
0.1562350802951389
 20
0.766189236111111
 10
-0.1562350802951389
 20
0.7823811848958333
 10
-0.1562350802951389
 20
0.7823811848958333
 97
        0
 97
        0
 75
     0
 76
     1
 98
        1
 10
0.0
 20
0.0
  0
ENDBLK
  5
2B3
330
2AF
100
AcDbEntity
  8
LAYER_1
100
AcDbBlockEnd
  0
BLOCK
  5
2B6
330
2B4
100
AcDbEntity
  8
LAYER_1
 62
     7
100
AcDbBlockBegin
  2
AI9-BLK123
 70
     0
 10
0.0
 20
0.0
 30
0.0
  3
AI9-BLK123
  1

  0
HATCH
  5
2B7
330
2B4
100
AcDbEntity
  8
LAYER_1
 62
     7
100
AcDbHatch
 10
0.0
 20
0.0
 30
0.0
210
0.0
220
0.0
230
1.0
  2
SOLID
 70
     1
 71
     0
 91
        1
 92
        1
 93
        1
 72
     4
 94
        3
 73
     0
 74
     0
 95
       14
 96
       10
 40
0.0
 40
0.0
 40
0.0
 40
0.0
 40
1.0
 40
1.0
 40
1.0
 40
2.0
 40
2.0
 40
2.0
 40
3.0
 40
3.0
 40
3.0
 40
3.0
 10
0.28370361328125
 20
0.5129747178819444
 10
0.28370361328125
 20
0.5129747178819444
 10
0.4204739040798611
 20
0.4013536241319444
 10
-0.5066012912326389
 20
-0.5129747178819444
 10
0.40462646484375
 20
0.4141004774305555
 10
0.5066012912326389
 20
0.2931776258680555
 10
0.5066012912326389
 20
0.2931776258680555
 10
0.5066012912326389
 20
0.2931776258680555
 10
0.28370361328125
 20
0.5129747178819444
 10
0.28370361328125
 20
0.5129747178819444
 97
        0
 97
        0
 75
     0
 76
     1
 98
        1
 10
0.0
 20
0.0
  0
ENDBLK
  5
2B8
330
2B4
100
AcDbEntity
  8
LAYER_1
100
AcDbBlockEnd
  0
BLOCK
  5
2BB
330
2B9
100
AcDbEntity
  8
LAYER_1
 62
     7
100
AcDbBlockBegin
  2
AI9-BLK124
 70
     0
 10
0.0
 20
0.0
 30
0.0
  3
AI9-BLK124
  1

  0
HATCH
  5
2BC
330
2B9
100
AcDbEntity
  8
LAYER_1
 62
     7
100
AcDbHatch
 10
0.0
 20
0.0
 30
0.0
210
0.0
220
0.0
230
1.0
  2
SOLID
 70
     1
 71
     0
 91
        1
 92
        1
 93
        1
 72
     4
 94
        3
 73
     0
 74
     0
 95
       14
 96
       10
 40
0.0
 40
0.0
 40
0.0
 40
0.0
 40
1.0
 40
1.0
 40
1.0
 40
2.0
 40
2.0
 40
2.0
 40
3.0
 40
3.0
 40
3.0
 40
3.0
 10
0.28680419921875
 20
0.51314697265625
 10
0.28680419921875
 20
0.51314697265625
 10
0.4142727322048611
 20
0.4080715603298611
 10
-0.5066012912326389
 20
-0.51314697265625
 10
0.4142727322048611
 20
0.4080715603298611
 10
0.5066012912326389
 20
0.28990478515625
 10
0.5066012912326389
 20
0.28990478515625
 10
0.5066012912326389
 20
0.28990478515625
 10
0.28680419921875
 20
0.51314697265625
 10
0.28680419921875
 20
0.51314697265625
 97
        0
 97
        0
 75
     0
 76
     1
 98
        1
 10
0.0
 20
0.0
  0
ENDBLK
  5
2BD
330
2B9
100
AcDbEntity
  8
LAYER_1
100
AcDbBlockEnd
  0
BLOCK
  5
2C0
330
2BE
100
AcDbEntity
  8
LAYER_1
 62
     7
100
AcDbBlockBegin
  2
AI9-BLK125
 70
     0
 10
0.0
 20
0.0
 30
0.0
  3
AI9-BLK125
  1

  0
HATCH
  5
2C1
330
2BE
100
AcDbEntity
  8
LAYER_1
 62
     7
100
AcDbHatch
 10
0.0
 20
0.0
 30
0.0
210
0.0
220
0.0
230
1.0
  2
SOLID
 70
     1
 71
     0
 91
        1
 92
        1
 93
        1
 72
     4
 94
        3
 73
     0
 74
     0
 95
       14
 96
       10
 40
0.0
 40
0.0
 40
0.0
 40
0.0
 40
1.0
 40
1.0
 40
1.0
 40
2.0
 40
2.0
 40
2.0
 40
3.0
 40
3.0
 40
3.0
 40
3.0
 10
0.6356201171874999
 20
0.2518364800347222
 10
0.6356201171874999
 20
0.2518364800347222
 10
0.5591389973958333
 20
0.0571885850694444
 10
-0.7090006510416667
 20
-0.2518364800347222
 10
0.5529378255208333
 20
0.0571885850694444
 10
0.7090006510416667
 20
-0.0509874131944444
 10
0.7090006510416667
 20
-0.0509874131944444
 10
0.7090006510416667
 20
-0.0509874131944444
 10
0.6356201171874999
 20
0.2518364800347222
 10
0.6356201171874999
 20
0.2518364800347222
 97
        0
 97
        0
 75
     0
 76
     1
 98
        1
 10
0.0
 20
0.0
  0
ENDBLK
  5
2C2
330
2BE
100
AcDbEntity
  8
LAYER_1
100
AcDbBlockEnd
  0
BLOCK
  5
2C5
330
2C3
100
AcDbEntity
  8
LAYER_1
 62
     7
100
AcDbBlockBegin
  2
AI9-BLK126
 70
     0
 10
0.0
 20
0.0
 30
0.0
  3
AI9-BLK126
  1

  0
HATCH
  5
2C6
330
2C3
100
AcDbEntity
  8
LAYER_1
 62
     7
100
AcDbHatch
 10
0.0
 20
0.0
 30
0.0
210
0.0
220
0.0
230
1.0
  2
SOLID
 70
     1
 71
     0
 91
        1
 92
        1
 93
        1
 72
     4
 94
        3
 73
     0
 74
     0
 95
       14
 96
       10
 40
0.0
 40
0.0
 40
0.0
 40
0.0
 40
1.0
 40
1.0
 40
1.0
 40
2.0
 40
2.0
 40
2.0
 40
3.0
 40
3.0
 40
3.0
 40
3.0
 10
0.51314697265625
 20
0.1496893988715278
 10
0.51314697265625
 20
0.1496893988715278
 10
0.4683607313368055
 20
-0.0063734266493056
 10
-0.51314697265625
 20
0.1307413736979167
 10
0.4652601453993055
 20
-0.0191202799479167
 10
0.4494127061631944
 20
-0.1496893988715278
 10
0.4494127061631944
 20
-0.1496893988715278
 10
0.4494127061631944
 20
-0.1496893988715278
 10
0.51314697265625
 20
0.1496893988715278
 10
0.51314697265625
 20
0.1496893988715278
 97
        0
 97
        0
 75
     0
 76
     1
 98
        1
 10
0.0
 20
0.0
  0
ENDBLK
  5
2C7
330
2C3
100
AcDbEntity
  8
LAYER_1
100
AcDbBlockEnd
  0
BLOCK
  5
2D4
330
2D2
100
AcDbEntity
  8
LAYER_1
 62
     7
100
AcDbBlockBegin
  2
AI9-BLK127
 70
     0
 10
0.0
 20
0.0
 30
0.0
  3
AI9-BLK127
  1

  0
INSERT
  5
2E6
330
2D2
100
AcDbEntity
  8
LAYER_1
 62
     7
100
AcDbBlockReference
  2
AI9-BLK132
 10
0.0
 20
0.0
 30
0.0
  0
INSERT
  5
2D6
330
2D2
100
AcDbEntity
  8
LAYER_1
 62
     7
100
AcDbBlockReference
  2
AI9-BLK128
 10
0.0
 20
0.0
 30
0.0
  0
ENDBLK
  5
2F5
330
2D2
100
AcDbEntity
  8
LAYER_1
100
AcDbBlockEnd
  0
BLOCK
  5
2D7
330
2D5
100
AcDbEntity
  8
LAYER_1
 62
     7
100
AcDbBlockBegin
  2
AI9-BLK128
 70
     0
 10
0.0
 20
0.0
 30
0.0
  3
AI9-BLK128
  1

  0
INSERT
  5
2D9
330
2D5
100
AcDbEntity
  8
LAYER_1
 62
     7
100
AcDbBlockReference
  2
AI9-BLK129
 10
0.0
 20
0.0
 30
0.0
  0
ENDBLK
  5
2E4
330
2D5
100
AcDbEntity
  8
LAYER_1
100
AcDbBlockEnd
  0
BLOCK
  5
2DA
330
2D8
100
AcDbEntity
  8
LAYER_1
 62
     7
100
AcDbBlockBegin
  2
AI9-BLK129
 70
     0
 10
0.0
 20
0.0
 30
0.0
  3
AI9-BLK129
  1

  0
INSERT
  5
2DC
330
2D8
100
AcDbEntity
  8
LAYER_1
 62
     7
100
AcDbBlockReference
  2
AI9-BLK130
 10
0.0
 20
0.0
 30
0.0
  0
ENDBLK
  5
2E3
330
2D8
100
AcDbEntity
  8
LAYER_1
100
AcDbBlockEnd
  0
BLOCK
  5
2DD
330
2DB
100
AcDbEntity
  8
LAYER_1
 62
     7
100
AcDbBlockBegin
  2
AI9-BLK130
 70
     0
 10
0.0
 20
0.0
 30
0.0
  3
AI9-BLK130
  1

  0
INSERT
  5
2DF
330
2DB
100
AcDbEntity
  8
LAYER_1
 62
     7
100
AcDbBlockReference
  2
AI9-BLK131
 10
0.0
 20
0.0
 30
0.0
  0
ENDBLK
  5
2E2
330
2DB
100
AcDbEntity
  8
LAYER_1
100
AcDbBlockEnd
  0
BLOCK
  5
2E0
330
2DE
100
AcDbEntity
  8
LAYER_1
 62
     7
100
AcDbBlockBegin
  2
AI9-BLK131
 70
     0
 10
0.0
 20
0.0
 30
0.0
  3
AI9-BLK131
  1

  0
ENDBLK
  5
2E1
330
2DE
100
AcDbEntity
  8
LAYER_1
100
AcDbBlockEnd
  0
BLOCK
  5
2E7
330
2E5
100
AcDbEntity
  8
LAYER_1
 62
     7
100
AcDbBlockBegin
  2
AI9-BLK132
 70
     0
 10
0.0
 20
0.0
 30
0.0
  3
AI9-BLK132
  1

  0
INSERT
  5
2E9
330
2E5
100
AcDbEntity
  8
LAYER_1
 62
     7
100
AcDbBlockReference
  2
AI9-BLK133
 10
0.0
 20
0.0
 30
0.0
  0
ENDBLK
  5
2F4
330
2E5
100
AcDbEntity
  8
LAYER_1
100
AcDbBlockEnd
  0
BLOCK
  5
2EA
330
2E8
100
AcDbEntity
  8
LAYER_1
 62
     7
100
AcDbBlockBegin
  2
AI9-BLK133
 70
     0
 10
0.0
 20
0.0
 30
0.0
  3
AI9-BLK133
  1

  0
INSERT
  5
2EC
330
2E8
100
AcDbEntity
  8
LAYER_1
 62
     7
100
AcDbBlockReference
  2
AI9-BLK134
 10
0.0
 20
0.0
 30
0.0
  0
ENDBLK
  5
2F3
330
2E8
100
AcDbEntity
  8
LAYER_1
100
AcDbBlockEnd
  0
BLOCK
  5
2ED
330
2EB
100
AcDbEntity
  8
LAYER_1
 62
     7
100
AcDbBlockBegin
  2
AI9-BLK134
 70
     0
 10
0.0
 20
0.0
 30
0.0
  3
AI9-BLK134
  1

  0
INSERT
  5
2EF
330
2EB
100
AcDbEntity
  8
LAYER_1
 62
     7
100
AcDbBlockReference
  2
AI9-BLK135
 10
0.0
 20
0.0
 30
0.0
  0
ENDBLK
  5
2F2
330
2EB
100
AcDbEntity
  8
LAYER_1
100
AcDbBlockEnd
  0
BLOCK
  5
2F0
330
2EE
100
AcDbEntity
  8
LAYER_1
 62
     7
100
AcDbBlockBegin
  2
AI9-BLK135
 70
     0
 10
0.0
 20
0.0
 30
0.0
  3
AI9-BLK135
  1

  0
ENDBLK
  5
2F1
330
2EE
100
AcDbEntity
  8
LAYER_1
100
AcDbBlockEnd
  0
ENDSEC
  0
SECTION
  2
ENTITIES
  0
LINE
  5
32E
330
A
100
AcDbEntity
  8
LAYER_1
 62
   230
100
AcDbLine
 10
-548.856421
 20
1090.272125
 30
0.0
 11
-548.856421
 21
-832.796023
 31
0.0
  0
LINE
  5
32D
330
A
100
AcDbEntity
  8
LAYER_1
 62
   230
100
AcDbLine
 10
-392.305425
 20
1090.272125
 30
0.0
 11
-392.305425
 21
-832.796023
 31
0.0
  0
LINE
  5
32C
330
A
100
AcDbEntity
  8
LAYER_1
 62
   230
100
AcDbLine
 10
-235.75753
 20
1090.272125
 30
0.0
 11
-235.75753
 21
-832.796023
 31
0.0
  0
LINE
  5
32B
330
A
100
AcDbEntity
  8
LAYER_1
 62
   230
100
AcDbLine
 10
-79.20619
 20
1090.272125
 30
0.0
 11
-79.20619
 21
-832.796023
 31
0.0
  0
LINE
  5
32A
330
A
100
AcDbEntity
  8
LAYER_1
 62
   230
100
AcDbLine
 10
77.344805
 20
1090.272125
 30
0.0
 11
77.344805
 21
-832.796023
 31
0.0
  0
LINE
  5
329
330
A
100
AcDbEntity
  8
LAYER_1
 62
   230
100
AcDbLine
 10
233.899246
 20
1090.272125
 30
0.0
 11
233.899246
 21
-832.796023
 31
0.0
  0
LINE
  5
328
330
A
100
AcDbEntity
  8
LAYER_1
 62
   230
100
AcDbLine
 10
390.450241
 20
1090.272125
 30
0.0
 11
390.450241
 21
-832.796023
 31
0.0
  0
LINE
  5
327
330
A
100
AcDbEntity
  8
LAYER_1
 62
   230
100
AcDbLine
 10
547.001581
 20
1090.272125
 30
0.0
 11
547.001581
 21
-832.796023
 31
0.0
  0
LINE
  5
326
330
A
100
AcDbEntity
  8
LAYER_1
 62
   230
100
AcDbLine
 10
703.552577
 20
1090.272125
 30
0.0
 11
703.552577
 21
-832.796023
 31
0.0
  0
LINE
  5
325
330
A
100
AcDbEntity
  8
LAYER_1
 62
   230
100
AcDbLine
 10
860.103573
 20
1090.272125
 30
0.0
 11
860.103573
 21
-832.796023
 31
0.0
  0
LINE
  5
324
330
A
100
AcDbEntity
  8
LAYER_1
 62
   230
100
AcDbLine
 10
-595.826164
 20
-833.05096
 30
0.0
 11
898.152585
 21
-833.057161
 31
0.0
  0
LINE
  5
323
330
A
100
AcDbEntity
  8
LAYER_1
 62
   230
100
AcDbLine
 10
-595.826164
 20
-676.503065
 30
0.0
 11
898.152585
 21
-676.503065
 31
0.0
  0
LINE
  5
322
330
A
100
AcDbEntity
  8
LAYER_1
 62
   230
100
AcDbLine
 10
-595.826164
 20
-519.948625
 30
0.0
 11
898.152585
 21
-519.948625
 31
0.0
  0
LINE
  5
321
330
A
100
AcDbEntity
  8
LAYER_1
 62
   230
100
AcDbLine
 10
-595.826164
 20
-363.397285
 30
0.0
 11
898.152585
 21
-363.40073
 31
0.0
  0
LINE
  5
320
330
A
100
AcDbEntity
  8
LAYER_1
 62
   230
100
AcDbLine
 10
-595.826164
 20
-206.846289
 30
0.0
 11
898.152585
 21
-206.84939
 31
0.0
  0
LINE
  5
31F
330
A
100
AcDbEntity
  8
LAYER_1
 62
   230
100
AcDbLine
 10
-595.826164
 20
-50.291848
 30
0.0
 11
898.152585
 21
-50.298394
 31
0.0
  0
LINE
  5
31E
330
A
100
AcDbEntity
  8
LAYER_1
 62
   230
100
AcDbLine
 10
-595.826164
 20
106.256047
 30
0.0
 11
898.152585
 21
106.249501
 31
0.0
  0
LINE
  5
31D
330
A
100
AcDbEntity
  8
LAYER_1
 62
   230
100
AcDbLine
 10
-595.826164
 20
262.810487
 30
0.0
 11
898.152585
 21
262.803942
 31
0.0
  0
LINE
  5
31C
330
A
100
AcDbEntity
  8
LAYER_1
 62
   230
100
AcDbLine
 10
-595.826164
 20
419.358382
 30
0.0
 11
898.152585
 21
419.358382
 31
0.0
  0
LINE
  5
31B
330
A
100
AcDbEntity
  8
LAYER_1
 62
   230
100
AcDbLine
 10
-595.826164
 20
575.912478
 30
0.0
 11
898.152585
 21
575.906277
 31
0.0
  0
LINE
  5
31A
330
A
100
AcDbEntity
  8
LAYER_1
 62
   230
100
AcDbLine
 10
-595.826164
 20
732.463818
 30
0.0
 11
898.152585
 21
732.463818
 31
0.0
  0
LINE
  5
319
330
A
100
AcDbEntity
  8
LAYER_1
 62
   230
100
AcDbLine
 10
-595.826164
 20
889.018259
 30
0.0
 11
898.152585
 21
889.011713
 31
0.0
  0
LINE
  5
318
330
A
100
AcDbEntity
  8
LAYER_1
 62
   230
100
AcDbLine
 10
-595.826164
 20
1045.566154
 30
0.0
 11
898.152585
 21
1045.563053
 31
0.0
  0
MTEXT
  5
317
330
A
100
AcDbEntity
  8
LAYER_1
 62
     7
100
AcDbMText
 10
-677.162629
 20
-815.510105
 30
0.0
 40
30.816531
 41
0.0
 46
0.0
 71
     1
 72
     2
  1
\W1.00;\fMyriad Roman|b0|i0;200
  7
STD
 73
     1
 44
1.0
  0
MTEXT
  5
316
330
A
100
AcDbEntity
  8
LAYER_1
 62
     7
100
AcDbMText
 10
-677.162629
 20
-658.92397
 30
0.0
 40
30.816531
 41
0.0
 46
0.0
 71
     1
 72
     2
  1
\W1.00;\fMyriad Roman|b0|i0;210
  7
STD
 73
     1
 44
1.0
  0
MTEXT
  5
315
330
A
100
AcDbEntity
  8
LAYER_1
 62
     7
100
AcDbMText
 10
-677.162629
 20
-502.33749
 30
0.0
 40
30.816531
 41
0.0
 46
0.0
 71
     1
 72
     2
  1
\W1.00;\fMyriad Roman|b0|i0;220
  7
STD
 73
     1
 44
1.0
  0
MTEXT
  5
314
330
A
100
AcDbEntity
  8
LAYER_1
 62
     7
100
AcDbMText
 10
-677.162629
 20
-345.748254
 30
0.0
 40
30.816531
 41
0.0
 46
0.0
 71
     1
 72
     2
  1
\W1.00;\fMyriad Roman|b0|i0;230
  7
STD
 73
     1
 44
1.0
  0
MTEXT
  5
313
330
A
100
AcDbEntity
  8
LAYER_1
 62
     7
100
AcDbMText
 10
-677.162629
 20
-189.165219
 30
0.0
 40
30.816531
 41
0.0
 46
0.0
 71
     1
 72
     2
  1
\W1.00;\fMyriad Roman|b0|i0;240
  7
STD
 73
     1
 44
1.0
  0
MTEXT
  5
312
330
A
100
AcDbEntity
  8
LAYER_1
 62
     7
100
AcDbMText
 10
-677.162629
 20
-32.575638
 30
0.0
 40
30.816531
 41
0.0
 46
0.0
 71
     1
 72
     2
  1
\W1.00;\fMyriad Roman|b0|i0;250
  7
STD
 73
     1
 44
1.0
  0
MTEXT
  5
311
330
A
100
AcDbEntity
  8
LAYER_1
 62
     7
100
AcDbMText
 10
-677.162629
 20
124.010498
 30
0.0
 40
30.816531
 41
0.0
 46
0.0
 71
     1
 72
     2
  1
\W1.00;\fMyriad Roman|b0|i0;260
  7
STD
 73
     1
 44
1.0
  0
MTEXT
  5
310
330
A
100
AcDbEntity
  8
LAYER_1
 62
     7
100
AcDbMText
 10
-677.162629
 20
280.599734
 30
0.0
 40
30.816531
 41
0.0
 46
0.0
 71
     1
 72
     2
  1
\W1.00;\fMyriad Roman|b0|i0;270
  7
STD
 73
     1
 44
1.0
  0
MTEXT
  5
30F
330
A
100
AcDbEntity
  8
LAYER_1
 62
     7
100
AcDbMText
 10
-677.162629
 20
437.186214
 30
0.0
 40
30.816531
 41
0.0
 46
0.0
 71
     1
 72
     2
  1
\W1.00;\fMyriad Roman|b0|i0;280
  7
STD
 73
     1
 44
1.0
  0
MTEXT
  5
30E
330
A
100
AcDbEntity
  8
LAYER_1
 62
     7
100
AcDbMText
 10
-677.162629
 20
593.772349
 30
0.0
 40
30.816531
 41
0.0
 46
0.0
 71
     1
 72
     2
  1
\W1.00;\fMyriad Roman|b0|i0;290
  7
STD
 73
     1
 44
1.0
  0
MTEXT
  5
30D
330
A
100
AcDbEntity
  8
LAYER_1
 62
     7
100
AcDbMText
 10
-677.162629
 20
750.352284
 30
0.0
 40
30.816531
 41
0.0
 46
0.0
 71
     1
 72
     2
  1
\W1.00;\fMyriad Roman|b0|i0;300
  7
STD
 73
     1
 44
1.0
  0
MTEXT
  5
30C
330
A
100
AcDbEntity
  8
LAYER_1
 62
     7
100
AcDbMText
 10
-677.162629
 20
906.94152
 30
0.0
 40
30.816531
 41
0.0
 46
0.0
 71
     1
 72
     2
  1
\W1.00;\fMyriad Roman|b0|i0;310
  7
STD
 73
     1
 44
1.0
  0
MTEXT
  5
30B
330
A
100
AcDbEntity
  8
LAYER_1
 62
     7
100
AcDbMText
 10
-677.162629
 20
1063.530756
 30
0.0
 40
30.816531
 41
0.0
 46
0.0
 71
     1
 72
     2
  1
\W1.00;\fMyriad Roman|b0|i0;320
  7
STD
 73
     1
 44
1.0
  0
MTEXT
  5
30A
330
A
100
AcDbEntity
  8
LAYER_1
 62
     7
100
AcDbMText
 10
-581.331613
 20
1149.449715
 30
0.0
 40
30.816531
 41
0.0
 46
0.0
 71
     1
 72
     2
  1
\W1.00;\fMyriad Roman|b0|i0;730
  7
STD
 73
     1
 44
1.0
  0
MTEXT
  5
309
330
A
100
AcDbEntity
  8
LAYER_1
 62
     7
100
AcDbMText
 10
-425.078619
 20
1149.449715
 30
0.0
 40
30.816531
 41
0.0
 46
0.0
 71
     1
 72
     2
  1
\W1.00;\fMyriad Roman|b0|i0;740
  7
STD
 73
     1
 44
1.0
  0
MTEXT
  5
308
330
A
100
AcDbEntity
  8
LAYER_1
 62
     7
100
AcDbMText
 10
-268.828725
 20
1149.449715
 30
0.0
 40
30.816531
 41
0.0
 46
0.0
 71
     1
 72
     2
  1
\W1.00;\fMyriad Roman|b0|i0;750
  7
STD
 73
     1
 44
1.0
  0
MTEXT
  5
307
330
A
100
AcDbEntity
  8
LAYER_1
 62
     7
100
AcDbMText
 10
-112.575385
 20
1149.449715
 30
0.0
 40
30.816531
 41
0.0
 46
0.0
 71
     1
 72
     2
  1
\W1.00;\fMyriad Roman|b0|i0;760
  7
STD
 73
     1
 44
1.0
  0
MTEXT
  5
306
330
A
100
AcDbEntity
  8
LAYER_1
 62
     7
100
AcDbMText
 10
43.674509
 20
1149.446614
 30
0.0
 40
30.816531
 41
0.0
 46
0.0
 71
     1
 72
     2
  1
\W1.00;\fMyriad Roman|b0|i0;770
  7
STD
 73
     1
 44
1.0
  0
MTEXT
  5
305
330
A
100
AcDbEntity
  8
LAYER_1
 62
     7
100
AcDbMText
 10
199.929226
 20
1149.446614
 30
0.0
 40
30.816531
 41
0.0
 46
0.0
 71
     1
 72
     2
  1
\W1.00;\fMyriad Roman|b0|i0;780
  7
STD
 73
     1
 44
1.0
  0
MTEXT
  5
304
330
A
100
AcDbEntity
  8
LAYER_1
 62
     7
100
AcDbMText
 10
356.180843
 20
1149.446614
 30
0.0
 40
30.816531
 41
0.0
 46
0.0
 71
     1
 72
     2
  1
\W1.00;\fMyriad Roman|b0|i0;790
  7
STD
 73
     1
 44
1.0
  0
MTEXT
  5
303
330
A
100
AcDbEntity
  8
LAYER_1
 62
     7
100
AcDbMText
 10
512.43556
 20
1149.446614
 30
0.0
 40
30.816531
 41
0.0
 46
0.0
 71
     1
 72
     2
  1
\W1.00;\fMyriad Roman|b0|i0;800
  7
STD
 73
     1
 44
1.0
  0
MTEXT
  5
302
330
A
100
AcDbEntity
  8
LAYER_1
 62
     7
100
AcDbMText
 10
668.687177
 20
1149.446614
 30
0.0
 40
30.816531
 41
0.0
 46
0.0
 71
     1
 72
     2
  1
\W1.00;\fMyriad Roman|b0|i0;810
  7
STD
 73
     1
 44
1.0
  0
MTEXT
  5
301
330
A
100
AcDbEntity
  8
LAYER_1
 62
     7
100
AcDbMText
 10
824.942239
 20
1149.446614
 30
0.0
 40
30.816531
 41
0.0
 46
0.0
 71
     1
 72
     2
  1
\W1.00;\fMyriad Roman|b0|i0;820
  7
STD
 73
     1
 44
1.0
  0
SPLINE
  5
300
330
A
100
AcDbEntity
  8
LAYER_1
 62
     7
100
AcDbSpline
210
0.0
220
0.0
230
1.0
 70
     8
 71
     3
 72
    32
 73
    28
 74
     0
 42
0.000000001
 43
0.00000001
 40
0.0
 40
0.0
 40
0.0
 40
0.0
 40
1.0
 40
1.0
 40
1.0
 40
2.0
 40
2.0
 40
2.0
 40
3.0
 40
3.0
 40
3.0
 40
4.0
 40
4.0
 40
4.0
 40
5.0
 40
5.0
 40
5.0
 40
6.0
 40
6.0
 40
6.0
 40
7.0
 40
7.0
 40
7.0
 40
8.0
 40
8.0
 40
8.0
 40
9.0
 40
9.0
 40
9.0
 40
9.0
 10
264.1947265625
 20
-526.9211534288194
 30
0.0
 10
264.1340928819444
 20
-526.5959364149305
 30
0.0
 10
264.0193712022569
 20
-525.3946316189235
 30
0.0
 10
263.4457628038194
 20
-525.7164035373263
 30
0.0
 10
263.3630805121527
 20
-525.7611897786458
 30
0.0
 10
263.3182942708333
 20
-525.8438720703125
 30
0.0
 10
263.2452582465277
 20
-525.9014051649305
 30
0.0
 10
263.1560302734375
 20
-525.968240017361
 30
0.0
 10
263.0668023003472
 20
-526.016126844618
 30
0.0
 10
262.9775743272569
 20
-526.0860622829861
 30
0.0
 10
262.8532063802083
 20
-526.1911376953125
 30
0.0
 10
262.7512315538194
 20
-526.369593641493
 30
0.0
 10
262.7991183810764
 20
-526.5291015624999
 30
0.0
 10
262.8277126736111
 20
-526.6279758029514
 30
0.0
 10
262.8818006727431
 20
-526.7234049479166
 30
0.0
 10
262.9231418185764
 20
-526.8157335069444
 30
0.0
 10
262.9486355251736
 20
-526.8891140407985
 30
0.0
 10
262.9679280598958
 20
-526.9848876953124
 30
0.0
 10
263.0158148871528
 20
-527.0486219618055
 30
0.0
 10
263.111244032118
 20
-527.163343641493
 30
0.0
 10
263.3089925130208
 20
-527.2015842013889
 30
0.0
 10
263.452308485243
 20
-527.2015842013889
 30
0.0
 10
263.6211181640625
 20
-527.1950385199652
 30
0.0
 10
263.8188666449652
 20
-527.1440511067708
 30
0.0
 10
263.9811306423611
 20
-527.0961642795138
 30
0.0
 10
264.0896511501736
 20
-527.0675699869792
 30
0.0
 10
264.146839735243
 20
-526.9910888671875
 30
0.0
 10
264.1692328559027
 20
-526.9018608940971
 30
0.0
  0
SPLINE
  5
2FF
330
A
100
AcDbEntity
  8
LAYER_1
 62
     7
100
AcDbSpline
210
0.0
220
0.0
230
1.0
 70
     8
 71
     3
 72
    29
 73
    25
 74
     0
 42
0.000000001
 43
0.00000001
 40
0.0
 40
0.0
 40
0.0
 40
0.0
 40
1.0
 40
1.0
 40
1.0
 40
2.0
 40
2.0
 40
2.0
 40
3.0
 40
3.0
 40
3.0
 40
4.0
 40
4.0
 40
4.0
 40
5.0
 40
5.0
 40
5.0
 40
6.0
 40
6.0
 40
6.0
 40
7.0
 40
7.0
 40
7.0
 40
8.0
 40
8.0
 40
8.0
 40
8.0
 10
262.7956732855902
 20
-527.1919379340277
 30
0.0
 10
262.7956732855902
 20
-526.8829128689235
 30
0.0
 10
262.6334092881944
 20
-526.6183295355902
 30
0.0
 10
262.3688259548611
 20
-526.41748046875
 30
0.0
 10
262.2637505425347
 20
-526.3409993489582
 30
0.0
 10
262.0660020616319
 20
-526.2104302300347
 30
0.0
 10
261.964027235243
 20
-526.1976833767361
 30
0.0
 10
261.7666232638888
 20
-526.1752902560763
 30
0.0
 10
261.5116861979166
 20
-526.2548719618055
 30
0.0
 10
261.3618245442708
 20
-526.3823404947916
 30
0.0
 10
261.1992160373264
 20
-526.5291015624999
 30
0.0
 10
261.2185085720486
 20
-526.76474609375
 30
0.0
 10
261.2405571831597
 20
-526.9655951605903
 30
0.0
 10
261.2598497178819
 20
-527.1950385199652
 30
0.0
 10
261.3266845703125
 20
-527.3128607855903
 30
0.0
 10
261.5561279296875
 20
-527.3862413194444
 30
0.0
 10
261.7314832899305
 20
-527.4372287326388
 30
0.0
 10
261.9419786241319
 20
-527.4437744140624
 30
0.0
 10
262.1204345703125
 20
-527.4437744140624
 30
0.0
 10
262.2764973958333
 20
-527.4437744140624
 30
0.0
 10
262.3974202473958
 20
-527.3638481987847
 30
0.0
 10
262.5314344618055
 20
-527.3035590277777
 30
0.0
 10
262.5982693142361
 20
-527.2780653211805
 30
0.0
 10
262.7322835286458
 20
-527.2332790798611
 30
0.0
 10
262.7577772352431
 20
-527.1822916666666
 30
0.0
  0
SPLINE
  5
2FE
330
A
100
AcDbEntity
  8
LAYER_1
 62
     7
100
AcDbSpline
210
0.0
220
0.0
230
1.0
 70
     8
 71
     3
 72
    38
 73
    34
 74
     0
 42
0.000000001
 43
0.00000001
 40
0.0
 40
0.0
 40
0.0
 40
0.0
 40
1.0
 40
1.0
 40
1.0
 40
2.0
 40
2.0
 40
2.0
 40
3.0
 40
3.0
 40
3.0
 40
4.0
 40
4.0
 40
4.0
 40
5.0
 40
5.0
 40
5.0
 40
6.0
 40
6.0
 40
6.0
 40
7.0
 40
7.0
 40
7.0
 40
8.0
 40
8.0
 40
8.0
 40
9.0
 40
9.0
 40
9.0
 40
10.0
 40
10.0
 40
10.0
 40
11.0
 40
11.0
 40
11.0
 40
11.0
 10
263.4874484592013
 20
-525.3150499131943
 30
0.0
 10
263.5094970703125
 20
-525.2385687934027
 30
0.0
 10
263.4747016059027
 20
-525.1427951388888
 30
0.0
 10
263.4905490451389
 20
-525.0601128472222
 30
0.0
 10
263.5191433376736
 20
-524.9198974609375
 30
0.0
 10
263.506396484375
 20
-524.9133517795138
 30
0.0
 10
263.4237141927083
 20
-524.8020751953125
 30
0.0
 10
263.3661810980902
 20
-524.7159478081596
 30
0.0
 10
263.3055474175347
 20
-524.6522135416666
 30
0.0
 10
263.2580050998264
 20
-524.5819335937499
 30
0.0
 10
263.2035725911458
 20
-524.5088975694443
 30
0.0
 10
263.2132188585069
 20
-524.4227701822916
 30
0.0
 10
263.1367377387152
 20
-524.3779839409722
 30
0.0
 10
262.9265869140625
 20
-524.2377685546875
 30
0.0
 10
262.7608778211805
 20
-524.4927056206596
 30
0.0
 10
262.6334092881944
 20
-524.6139729817708
 30
0.0
 10
262.5472819010416
 20
-524.687353515625
 30
0.0
 10
262.4773464626736
 20
-524.7669352213542
 30
0.0
 10
262.4039659288194
 20
-524.8530626085069
 30
0.0
 10
262.3274848090277
 20
-524.9326443142361
 30
0.0
 10
262.2062174479166
 20
-524.9708848741319
 30
0.0
 10
262.1459282769097
 20
-525.0601128472222
 30
0.0
 10
262.0277615017361
 20
-525.2258219401041
 30
0.0
 10
262.2286105685764
 20
-525.4232259114583
 30
0.0
 10
262.3243842230902
 20
-525.5537950303819
 30
0.0
 10
262.4198133680555
 20
-525.6878092447917
 30
0.0
 10
262.5186876085069
 20
-525.7801378038193
 30
0.0
 10
262.6905978732639
 20
-525.7770372178819
 30
0.0
 10
262.9424343532986
 20
-525.7739366319444
 30
0.0
 10
263.3055474175347
 20
-525.5889350043402
 30
0.0
 10
263.4457628038194
 20
-525.3753390842013
 30
0.0
 10
263.458509657118
 20
-525.3563910590277
 30
0.0
 10
263.4840033637153
 20
-525.3085042317708
 30
0.0
 10
263.4874484592013
 20
-525.3023030598957
 30
0.0
  0
SPLINE
  5
2FD
330
A
100
AcDbEntity
  8
LAYER_1
 62
     7
100
AcDbSpline
210
0.0
220
0.0
230
1.0
 70
     8
 71
     3
 72
    26
 73
    22
 74
     0
 42
0.000000001
 43
0.00000001
 40
0.0
 40
0.0
 40
0.0
 40
0.0
 40
1.0
 40
1.0
 40
1.0
 40
2.0
 40
2.0
 40
2.0
 40
3.0
 40
3.0
 40
3.0
 40
4.0
 40
4.0
 40
4.0
 40
5.0
 40
5.0
 40
5.0
 40
6.0
 40
6.0
 40
6.0
 40
7.0
 40
7.0
 40
7.0
 40
7.0
 10
262.1838243272569
 20
-525.850417751736
 30
0.0
 10
262.1073432074652
 20
-525.6016818576388
 30
0.0
 10
262.0501546223958
 20
-525.2768093532985
 30
0.0
 10
261.7473307291667
 20
-525.2130750868055
 30
0.0
 10
261.5943684895833
 20
-525.1810356987846
 30
0.0
 10
261.4159125434027
 20
-525.2003282335069
 30
0.0
 10
261.2598497178819
 20
-525.2003282335069
 30
0.0
 10
261.0844943576388
 20
-525.1937825520832
 30
0.0
 10
260.8677978515625
 20
-525.2130750868055
 30
0.0
 10
260.8870903862847
 20
-525.4232259114583
 30
0.0
 10
260.9029378255208
 20
-525.6368218315972
 30
0.0
 10
261.0717475043402
 20
-525.8152777777777
 30
0.0
 10
261.2471028645833
 20
-525.9362006293402
 30
0.0
 10
261.4097113715277
 20
-526.0478217230902
 30
0.0
 10
261.5244330512152
 20
-526.0798611111111
 30
0.0
 10
261.7125352647569
 20
-526.0478217230902
 30
0.0
 10
261.8334581163194
 20
-526.022328016493
 30
0.0
 10
261.9195855034722
 20
-525.9968343098958
 30
0.0
 10
262.0088134765625
 20
-525.9362006293402
 30
0.0
 10
262.0563557942708
 20
-525.9014051649305
 30
0.0
 10
262.1521294487847
 20
-525.8249240451388
 30
0.0
 10
262.1714219835069
 20
-525.8280246310763
 30
0.0
  0
SPLINE
  5
2FC
330
A
100
AcDbEntity
  8
LAYER_1
 62
     7
100
AcDbSpline
210
0.0
220
0.0
230
1.0
 70
     8
 71
     3
 72
    11
 73
     7
 74
     0
 42
0.000000001
 43
0.00000001
 40
0.0
 40
0.0
 40
0.0
 40
0.0
 40
1.0
 40
1.0
 40
1.0
 40
2.0
 40
2.0
 40
2.0
 40
2.0
 10
306.8260606553819
 20
-472.3749565972222
 30
0.0
 10
306.4911973741319
 20
-472.1231201171875
 30
0.0
 10
306.2745008680556
 20
-471.9574110243055
 30
0.0
 10
306.2745008680556
 20
-471.9574110243055
 30
0.0
 10
306.2745008680556
 20
-471.9574110243055
 30
0.0
 10
302.5527642144097
 20
-469.6119900173611
 30
0.0
 10
302.5527642144097
 20
-469.6119900173611
 30
0.0
  0
SPLINE
  5
2FB
330
A
100
AcDbEntity
  8
LAYER_1
 62
     7
100
AcDbSpline
210
0.0
220
0.0
230
1.0
 70
     8
 71
     3
 72
    14
 73
    10
 74
     0
 42
0.000000001
 43
0.00000001
 40
0.0
 40
0.0
 40
0.0
 40
0.0
 40
1.0
 40
1.0
 40
1.0
 40
2.0
 40
2.0
 40
2.0
 40
3.0
 40
3.0
 40
3.0
 40
3.0
 10
297.893617078993
 20
-475.9216824001736
 30
0.0
 10
297.9604519314236
 20
-475.9471761067708
 30
0.0
 10
298.0114393446181
 20
-475.972669813368
 30
0.0
 10
298.0338324652777
 20
-475.9885172526041
 30
0.0
 10
298.2539740668403
 20
-476.132177734375
 30
0.0
 10
300.6500379774305
 20
-477.3875705295138
 30
0.0
 10
301.7783067491319
 20
-478.6653564453125
 30
0.0
 10
301.8354953342014
 20
-478.732191297743
 30
0.0
 10
301.8930284288194
 20
-478.7993706597222
 30
0.0
 10
301.9567626953125
 20
-478.8662055121528
 30
0.0
  0
SPLINE
  5
2FA
330
A
100
AcDbEntity
  8
LAYER_1
 62
     7
100
AcDbSpline
210
0.0
220
0.0
230
1.0
 70
     8
 71
     3
 72
    11
 73
     7
 74
     0
 42
0.000000001
 43
0.00000001
 40
0.0
 40
0.0
 40
0.0
 40
0.0
 40
1.0
 40
1.0
 40
1.0
 40
2.0
 40
2.0
 40
2.0
 40
2.0
 10
252.6781168619791
 20
-434.9284912109375
 30
0.0
 10
251.7796359592014
 20
-434.24326171875
 30
0.0
 10
249.5489366319444
 20
-432.5289822048611
 30
0.0
 10
249.5489366319444
 20
-432.5289822048611
 30
0.0
 10
249.5489366319444
 20
-432.5289822048611
 30
0.0
 10
249.4724555121527
 20
-432.4621473524305
 30
0.0
 10
249.338441297743
 20
-432.353626844618
 30
0.0
  0
SPLINE
  5
2F9
330
A
100
AcDbEntity
  8
LAYER_1
 62
     7
100
AcDbSpline
210
0.0
220
0.0
230
1.0
 70
     8
 71
     3
 72
    11
 73
     7
 74
     0
 42
0.000000001
 43
0.00000001
 40
0.0
 40
0.0
 40
0.0
 40
0.0
 40
1.0
 40
1.0
 40
1.0
 40
2.0
 40
2.0
 40
2.0
 40
2.0
 10
244.2875868055555
 20
-439.6320800781249
 30
0.0
 10
245.549525282118
 20
-440.4795735677083
 30
0.0
 10
246.9964653862847
 20
-441.4610812717013
 30
0.0
 10
247.1428819444444
 20
-441.5441080729166
 30
0.0
 10
247.1811225043403
 20
-441.5630560980902
 30
0.0
 10
247.3947184244792
 20
-441.6970703124999
 30
0.0
 10
247.7195909288194
 20
-441.9010199652777
 30
0.0
  0
SPLINE
  5
2F8
330
A
100
AcDbEntity
  8
LAYER_1
 62
     7
100
AcDbSpline
210
0.0
220
0.0
230
1.0
 70
     8
 71
     3
 72
    23
 73
    19
 74
     0
 42
0.000000001
 43
0.00000001
 40
0.0
 40
0.0
 40
0.0
 40
0.0
 40
1.0
 40
1.0
 40
1.0
 40
2.0
 40
2.0
 40
2.0
 40
3.0
 40
3.0
 40
3.0
 40
4.0
 40
4.0
 40
4.0
 40
5.0
 40
5.0
 40
5.0
 40
6.0
 40
6.0
 40
6.0
 40
6.0
 10
291.6128634982638
 20
-534.4862386067708
 30
0.0
 10
291.6128634982638
 20
-534.4862386067708
 30
0.0
 10
291.8009657118055
 20
-536.1591769748263
 30
0.0
 10
291.7117377387153
 20
-536.417214626736
 30
0.0
 10
291.6190646701389
 20
-536.6786973741318
 30
0.0
 10
291.1381293402778
 20
-539.0813069661458
 30
0.0
 10
291.0933430989583
 20
-539.6166748046875
 30
0.0
 10
291.052001953125
 20
-540.1585883246528
 30
0.0
 10
291.1188368055555
 20
-542.0320312499999
 30
0.0
 10
291.5680772569444
 20
-542.7269070095485
 30
0.0
 10
292.0176622178819
 20
-543.4279839409721
 30
0.0
 10
292.9543836805555
 20
-544.2499837239583
 30
0.0
 10
293.4453097873264
 20
-544.4094916449652
 30
0.0
 10
293.9389919704861
 20
-544.5686550564236
 30
0.0
 10
294.9938802083333
 20
-544.7633029513888
 30
0.0
 10
295.5261474609375
 20
-544.383997938368
 30
0.0
 10
296.0580702039931
 20
-544.0015923394096
 30
0.0
 10
297.4922634548611
 20
-542.2552734374999
 30
0.0
 10
297.4922634548611
 20
-542.2552734374999
 30
0.0
  0
SPLINE
  5
2F7
330
A
100
AcDbEntity
  8
LAYER_1
 62
     7
100
AcDbSpline
210
0.0
220
0.0
230
1.0
 70
     8
 71
     3
 72
    38
 73
    34
 74
     0
 42
0.000000001
 43
0.00000001
 40
0.0
 40
0.0
 40
0.0
 40
0.0
 40
1.0
 40
1.0
 40
1.0
 40
2.0
 40
2.0
 40
2.0
 40
3.0
 40
3.0
 40
3.0
 40
4.0
 40
4.0
 40
4.0
 40
5.0
 40
5.0
 40
5.0
 40
6.0
 40
6.0
 40
6.0
 40
7.0
 40
7.0
 40
7.0
 40
8.0
 40
8.0
 40
8.0
 40
9.0
 40
9.0
 40
9.0
 40
10.0
 40
10.0
 40
10.0
 40
11.0
 40
11.0
 40
11.0
 40
11.0
 10
205.7993245442708
 20
-440.7090169270833
 30
0.0
 10
205.9298936631944
 20
-440.2628770616319
 30
0.0
 10
206.0508165147569
 20
-439.8360297309027
 30
0.0
 10
206.0415147569444
 20
-439.8167371961805
 30
0.0
 10
206.0222222222222
 20
-439.7722954644097
 30
0.0
 10
206.3312472873264
 20
-438.3508490668402
 30
0.0
 10
206.3312472873264
 20
-438.3508490668402
 30
0.0
 10
206.3312472873264
 20
-438.3508490668402
 30
0.0
 10
206.5703369140625
 20
-436.4071261935763
 30
0.0
 10
206.6151231553819
 20
-436.2669108072917
 30
0.0
 10
206.6626654730903
 20
-436.1139485677083
 30
0.0
 10
207.0578179253472
 20
-434.8902506510416
 30
0.0
 10
207.0133761935764
 20
-434.8520100911458
 30
0.0
 10
206.9685899522569
 20
-434.81376953125
 30
0.0
 10
207.1119059244791
 20
-433.7047932942708
 30
0.0
 10
206.9241482204861
 20
-433.3988688151042
 30
0.0
 10
206.742591688368
 20
-433.096044921875
 30
0.0
 10
206.0508165147569
 20
-431.5760687934027
 30
0.0
 10
205.6112223307291
 20
-431.5409288194444
 30
0.0
 10
205.1747287326389
 20
-431.4995876736111
 30
0.0
 10
203.877650282118
 20
-431.0982340494791
 30
0.0
 10
203.3391818576389
 20
-431.2987386067708
 30
0.0
 10
202.8007134331597
 20
-431.4995876736111
 30
0.0
 10
201.7809651692708
 20
-431.6556504991319
 30
0.0
 10
201.519482421875
 20
-432.054248046875
 30
0.0
 10
201.2614447699653
 20
-432.4556016710069
 30
0.0
 10
200.2478976779514
 20
-433.5835259331597
 30
0.0
 10
200.1652153862847
 20
-434.0424126519097
 30
0.0
 10
200.088734266493
 20
-434.4981987847222
 30
0.0
 10
198.7727077907986
 20
-437.2101779513889
 30
0.0
 10
198.7534152560764
 20
-437.3121527777777
 30
0.0
 10
198.7437689887153
 20
-437.3631401909722
 30
0.0
 10
198.53671875
 20
-438.0704182942708
 30
0.0
 10
198.3296685112847
 20
-438.7714952256944
 30
0.0
  0
SPLINE
  5
2F6
330
A
100
AcDbEntity
  8
LAYER_1
 62
     7
100
AcDbSpline
210
0.0
220
0.0
230
1.0
 70
     8
 71
     3
 72
     8
 73
     4
 74
     0
 42
0.000000001
 43
0.00000001
 40
0.0
 40
0.0
 40
0.0
 40
0.0
 40
1.0
 40
1.0
 40
1.0
 40
1.0
 10
180.1464545355903
 20
-521.5037407769097
 30
0.0
 10
180.1464545355903
 20
-521.5037407769097
 30
0.0
 10
175.6023735894097
 20
-519.7191813151042
 30
0.0
 10
172.6991916232639
 20
-518.438294813368
 30
0.0
  0
INSERT
  5
2D3
330
A
100
AcDbEntity
  8
LAYER_1
 62
     7
100
AcDbBlockReference
  2
AI9-BLK127
 10
268.569998
 20
612.081158
 30
0.0
  0
SPLINE
  5
2D1
330
A
100
AcDbEntity
  8
LAYER_1
 62
     7
100
AcDbSpline
210
0.0
220
0.0
230
1.0
 70
    11
 71
     3
 72
    50
 73
    46
 74
     0
 42
0.000000001
 43
0.00000001
 40
0.0
 40
0.0
 40
0.0
 40
0.0
 40
1.0
 40
1.0
 40
1.0
 40
2.0
 40
2.0
 40
2.0
 40
3.0
 40
3.0
 40
3.0
 40
4.0
 40
4.0
 40
4.0
 40
5.0
 40
5.0
 40
5.0
 40
6.0
 40
6.0
 40
6.0
 40
7.0
 40
7.0
 40
7.0
 40
8.0
 40
8.0
 40
8.0
 40
9.0
 40
9.0
 40
9.0
 40
10.0
 40
10.0
 40
10.0
 40
11.0
 40
11.0
 40
11.0
 40
12.0
 40
12.0
 40
12.0
 40
13.0
 40
13.0
 40
13.0
 40
14.0
 40
14.0
 40
14.0
 40
15.0
 40
15.0
 40
15.0
 40
15.0
 10
303.1198269314236
 20
-541.5541965060763
 30
0.0
 10
303.1198269314236
 20
-541.5541965060763
 30
0.0
 10
303.7985107421875
 20
-538.8008761935763
 30
0.0
 10
303.8019558376736
 20
-538.4887505425347
 30
0.0
 10
303.8050564236111
 20
-538.182826063368
 30
0.0
 10
303.8784369574652
 20
-534.8558973524305
 30
0.0
 10
303.8687906901042
 20
-534.741175672743
 30
0.0
 10
303.859144422743
 20
-534.6361002604166
 30
0.0
 10
303.3523708767361
 20
-532.1439181857638
 30
0.0
 10
303.0495469835069
 20
-531.8858805338541
 30
0.0
 10
302.7470675998264
 20
-531.6309434678819
 30
0.0
 10
301.1854058159722
 20
-529.6999674479166
 30
0.0
 10
301.099622938368
 20
-529.6200412326389
 30
0.0
 10
301.0069498697916
 20
-529.5404595269097
 30
0.0
 10
299.1717475043403
 20
-527.6921657986111
 30
0.0
 10
299.0504801432292
 20
-527.5932915581596
 30
0.0
 10
298.929212782118
 20
-527.4882161458332
 30
0.0
 10
298.0021375868055
 20
-526.0733154296875
 30
0.0
 10
297.2404269748263
 20
-526.0478217230902
 30
0.0
 10
296.4787163628472
 20
-526.022328016493
 30
0.0
 10
294.334144422743
 20
-525.5761881510416
 30
0.0
 10
293.7191948784722
 20
-526.3568467881944
 30
0.0
 10
293.1104465060764
 20
-527.1378499348958
 30
0.0
 10
291.2111653645833
 20
-529.4543321397568
 30
0.0
 10
291.4788492838541
 20
-530.729017469618
 30
0.0
 10
291.6862440321181
 20
-531.6819308810764
 30
0.0
 10
291.5970160590277
 20
-533.3579698350694
 30
0.0
 10
291.7434326171875
 20
-534.4352511935764
 30
0.0
 10
291.7882188585069
 20
-534.7983642578124
 30
0.0
 10
291.8646999782986
 20
-535.0915418836805
 30
0.0
 10
291.9856228298611
 20
-535.269997829861
 30
0.0
 10
292.4634575737847
 20
-535.9903672960069
 30
0.0
 10
294.2735107421875
 20
-538.9155978732639
 30
0.0
 10
294.5508409288194
 20
-539.2025743272569
 30
0.0
 10
294.8250705295139
 20
-539.4892062717014
 30
0.0
 10
296.5266031901041
 20
-541.7739935980902
 30
0.0
 10
296.7656928168403
 20
-541.9207546657985
 30
0.0
 10
296.9982367621528
 20
-542.0702718098958
 30
0.0
 10
298.7383544921875
 20
-542.6886664496527
 30
0.0
 10
299.3564046223958
 20
-542.7014133029513
 30
0.0
 10
299.9778998480903
 20
-542.7014133029513
 30
0.0
 10
301.6697862413194
 20
-542.7682481553819
 30
0.0
 10
301.8323947482639
 20
-542.6948676215277
 30
0.0
 10
301.9950032552083
 20
-542.6311333550346
 30
0.0
 10
302.9637641059027
 20
-542.1023111979166
 30
0.0
 10
303.1198269314236
 20
-541.5541965060763
 30
0.0
  0
SPLINE
  5
2D0
330
A
100
AcDbEntity
  8
LAYER_1
 62
     7
100
AcDbSpline
210
0.0
220
0.0
230
1.0
 70
     8
 71
     3
 72
    53
 73
    49
 74
     0
 42
0.000000001
 43
0.00000001
 40
0.0
 40
0.0
 40
0.0
 40
0.0
 40
1.0
 40
1.0
 40
1.0
 40
2.0
 40
2.0
 40
2.0
 40
3.0
 40
3.0
 40
3.0
 40
4.0
 40
4.0
 40
4.0
 40
5.0
 40
5.0
 40
5.0
 40
6.0
 40
6.0
 40
6.0
 40
7.0
 40
7.0
 40
7.0
 40
8.0
 40
8.0
 40
8.0
 40
9.0
 40
9.0
 40
9.0
 40
10.0
 40
10.0
 40
10.0
 40
11.0
 40
11.0
 40
11.0
 40
12.0
 40
12.0
 40
12.0
 40
13.0
 40
13.0
 40
13.0
 40
14.0
 40
14.0
 40
14.0
 40
15.0
 40
15.0
 40
15.0
 40
16.0
 40
16.0
 40
16.0
 40
16.0
 10
247.7195909288194
 20
-441.9010199652777
 30
0.0
 10
249.3067464192708
 20
-442.8918294270833
 30
0.0
 10
253.6055365668402
 20
-445.5910617404513
 30
0.0
 10
254.0706244574652
 20
-445.8077582465277
 30
0.0
 10
254.6283854166666
 20
-446.0688964843749
 30
0.0
 10
258.2770860460069
 20
-448.3953694661458
 30
0.0
 10
258.6467447916667
 20
-448.5197374131944
 30
0.0
 10
259.0164035373264
 20
-448.6437608506944
 30
0.0
 10
263.3692816840277
 20
-451.1676378038194
 30
0.0
 10
263.6848524305555
 20
-451.2441189236111
 30
0.0
 10
263.9973225911458
 20
-451.3206000434027
 30
0.0
 10
265.2496148003472
 20
-451.6041314019097
 30
0.0
 10
265.8583631727431
 20
-451.5056016710069
 30
0.0
 10
266.4636664496527
 20
-451.409828016493
 30
0.0
 10
268.8249348958333
 20
-451.4225748697916
 30
0.0
 10
269.4974175347222
 20
-451.5500434027778
 30
0.0
 10
270.1761013454861
 20
-451.6775119357638
 30
0.0
 10
272.4832817925347
 20
-452.5921847873263
 30
0.0
 10
273.1364718967014
 20
-452.493310546875
 30
0.0
 10
273.7962076822917
 20
-452.3851345486111
 30
0.0
 10
275.7399305555555
 20
-451.6647650824652
 30
0.0
 10
275.7399305555555
 20
-451.6647650824652
 30
0.0
 10
275.7399305555555
 20
-451.6647650824652
 30
0.0
 10
277.0115152994791
 20
-450.8999538845486
 30
0.0
 10
277.0115152994791
 20
-450.8999538845486
 30
0.0
 10
277.0115152994791
 20
-450.8999538845486
 30
0.0
 10
278.2576063368055
 20
-449.8485107421874
 30
0.0
 10
277.1007432725694
 20
-449.1474338107639
 30
0.0
 10
275.9407796223958
 20
-448.4463568793402
 30
0.0
 10
272.8339925130208
 20
-447.0758978949652
 30
0.0
 10
272.1105224609375
 20
-446.6745442708333
 30
0.0
 10
271.3870524088541
 20
-446.2697455512152
 30
0.0
 10
268.0060356987847
 20
-444.692236328125
 30
0.0
 10
267.7352511935763
 20
-444.5075792100694
 30
0.0
 10
267.4610215928819
 20
-444.3260226779514
 30
0.0
 10
263.8571072048611
 20
-442.5383626302083
 30
0.0
 10
263.6975992838541
 20
-442.449134657118
 30
0.0
 10
263.5349907769097
 20
-442.3599066840277
 30
0.0
 10
261.2312554253472
 20
-440.7982449001736
 30
0.0
 10
260.7341281467014
 20
-440.3552056206597
 30
0.0
 10
260.2370008680555
 20
-439.9059651692708
 30
0.0
 10
256.6647813585069
 20
-437.4968098958333
 30
0.0
 10
256.5817545572916
 20
-437.4523681640625
 30
0.0
 10
256.5021728515625
 20
-437.4110270182291
 30
0.0
 10
253.1528510199653
 20
-435.2661105685763
 30
0.0
 10
253.0446750217014
 20
-435.2023763020833
 30
0.0
 10
253.0253824869791
 20
-435.1896294487847
 30
0.0
 10
252.8886121961805
 20
-435.0845540364583
 30
0.0
 10
252.6781168619791
 20
-434.9284912109375
 30
0.0
  0
SPLINE
  5
2CF
330
A
100
AcDbEntity
  8
LAYER_1
 62
     7
100
AcDbSpline
210
0.0
220
0.0
230
1.0
 70
     8
 71
     3
 72
    83
 73
    79
 74
     0
 42
0.000000001
 43
0.00000001
 40
0.0
 40
0.0
 40
0.0
 40
0.0
 40
1.0
 40
1.0
 40
1.0
 40
2.0
 40
2.0
 40
2.0
 40
3.0
 40
3.0
 40
3.0
 40
4.0
 40
4.0
 40
4.0
 40
5.0
 40
5.0
 40
5.0
 40
6.0
 40
6.0
 40
6.0
 40
7.0
 40
7.0
 40
7.0
 40
8.0
 40
8.0
 40
8.0
 40
9.0
 40
9.0
 40
9.0
 40
10.0
 40
10.0
 40
10.0
 40
11.0
 40
11.0
 40
11.0
 40
12.0
 40
12.0
 40
12.0
 40
13.0
 40
13.0
 40
13.0
 40
14.0
 40
14.0
 40
14.0
 40
15.0
 40
15.0
 40
15.0
 40
16.0
 40
16.0
 40
16.0
 40
17.0
 40
17.0
 40
17.0
 40
18.0
 40
18.0
 40
18.0
 40
19.0
 40
19.0
 40
19.0
 40
20.0
 40
20.0
 40
20.0
 40
21.0
 40
21.0
 40
21.0
 40
22.0
 40
22.0
 40
22.0
 40
23.0
 40
23.0
 40
23.0
 40
24.0
 40
24.0
 40
24.0
 40
25.0
 40
25.0
 40
25.0
 40
26.0
 40
26.0
 40
26.0
 40
26.0
 10
249.338441297743
 20
-432.353626844618
 30
0.0
 10
248.5291883680555
 20
-431.6907904730903
 30
0.0
 10
245.6897406684027
 20
-429.3581163194444
 30
0.0
 10
245.2532470703125
 20
-429.1031792534722
 30
0.0
 10
244.743372938368
 20
-428.8100016276042
 30
0.0
 10
240.4986707899305
 20
-426.0759738498264
 30
0.0
 10
240.3619004991319
 20
-425.9612521701388
 30
0.0
 10
240.2247856987847
 20
-425.8465304904514
 30
0.0
 10
236.7831353081597
 20
-423.5551974826388
 30
0.0
 10
236.706654188368
 20
-423.5073106553819
 30
0.0
 10
236.6236273871528
 20
-423.4628689236111
 30
0.0
 10
230.8431016710069
 20
-419.7728271484374
 30
0.0
 10
230.7380262586805
 20
-419.7535346137153
 30
0.0
 10
230.6329508463541
 20
-419.7345865885416
 30
0.0
 10
227.3377170138889
 20
-417.5676215277778
 30
0.0
 10
226.9108696831597
 20
-417.3667724609375
 30
0.0
 10
226.4836778428819
 20
-417.1724690755208
 30
0.0
 10
224.2691704644097
 20
-415.7892632378472
 30
0.0
 10
223.8102837456597
 20
-415.4643907335069
 30
0.0
 10
223.3448513454861
 20
-415.1426188151041
 30
0.0
 10
221.8886094835069
 20
-414.5145779079861
 30
0.0
 10
221.445570203993
 20
-414.444642469618
 30
0.0
 10
221.0059760199653
 20
-414.380908203125
 30
0.0
 10
219.5466335720486
 20
-413.7818060980902
 30
0.0
 10
219.1480360243055
 20
-413.6033501519097
 30
0.0
 10
218.7528835720486
 20
-413.4310953776042
 30
0.0
 10
215.7956136067708
 20
-411.4108913845486
 30
0.0
 10
215.7956136067708
 20
-411.4108913845486
 30
0.0
 10
215.7956136067708
 20
-411.4108913845486
 30
0.0
 10
213.6703342013889
 20
-410.1999403211805
 30
0.0
 10
213.4501925998264
 20
-409.9832438151041
 30
0.0
 10
213.227294921875
 20
-409.7730929904513
 30
0.0
 10
212.3191677517361
 20
-409.279066297743
 30
0.0
 10
211.850634765625
 20
-409.2408257378472
 30
0.0
 10
211.3886474609375
 20
-409.1994845920138
 30
0.0
 10
209.9706461588542
 20
-408.4408745659722
 30
0.0
 10
209.6774685329861
 20
-408.3134060329861
 30
0.0
 10
209.384290907118
 20
-408.179736328125
 30
0.0
 10
208.0234781901042
 20
-407.1854817708333
 30
0.0
 10
207.9087565104167
 20
-407.0452663845486
 30
0.0
 10
207.7971354166666
 20
-406.8985053168402
 30
0.0
 10
206.4270209418403
 20
-406.4206705729166
 30
0.0
 10
206.2485649956597
 20
-406.4334174262152
 30
0.0
 10
206.0670084635416
 20
-406.4461642795139
 30
0.0
 10
204.7506374782986
 20
-406.2422146267361
 30
0.0
 10
204.336537000868
 20
-406.4206705729166
 30
0.0
 10
204.336537000868
 20
-406.4206705729166
 30
0.0
 10
204.0051188151041
 20
-406.5863796657986
 30
0.0
 10
204.0051188151041
 20
-406.5863796657986
 30
0.0
 10
204.0051188151041
 20
-406.5863796657986
 30
0.0
 10
203.5400309244791
 20
-407.5168999565972
 30
0.0
 10
204.2569552951389
 20
-408.4918619791666
 30
0.0
 10
204.9738796657986
 20
-409.4544216579861
 30
0.0
 10
207.9153021918403
 20
-413.2209445529513
 30
0.0
 10
207.9153021918403
 20
-413.2209445529513
 30
0.0
 10
208.0872124565972
 20
-413.4121473524305
 30
0.0
 10
212.0228895399305
 20
-417.1214816623263
 30
0.0
 10
212.0228895399305
 20
-417.1214816623263
 30
0.0
 10
212.0228895399305
 20
-417.1214816623263
 30
0.0
 10
215.1806640625
 20
-419.7662814670139
 30
0.0
 10
215.3749674479166
 20
-419.957484266493
 30
0.0
 10
215.5696153428819
 20
-420.1424858940972
 30
0.0
 10
220.4992024739583
 20
-423.7749945746527
 30
0.0
 10
221.0121771918403
 20
-424.0971110026042
 30
0.0
 10
221.5220513237847
 20
-424.4123372395833
 30
0.0
 10
225.8242865668402
 20
-427.2200900607638
 30
0.0
 10
225.8242865668402
 20
-427.2200900607638
 30
0.0
 10
225.8242865668402
 20
-427.2200900607638
 30
0.0
 10
230.8623942057291
 20
-430.5849148220486
 30
0.0
 10
231.5982666015625
 20
-431.1457763671875
 30
0.0
 10
232.3313829210069
 20
-431.7004367404513
 30
0.0
 10
235.5818305121527
 20
-433.8257161458333
 30
0.0
 10
235.9356418185764
 20
-434.1061469184027
 30
0.0
 10
236.2922092013889
 20
-434.3834771050347
 30
0.0
 10
241.8115966796875
 20
-437.9939371744791
 30
0.0
 10
242.4840793185764
 20
-438.4273301866319
 30
0.0
 10
242.7486626519097
 20
-438.5995849609375
 30
0.0
 10
243.478333875868
 20
-439.0901665581597
 30
0.0
 10
244.2875868055555
 20
-439.6320800781249
 30
0.0
  0
SPLINE
  5
2CE
330
A
100
AcDbEntity
  8
LAYER_1
 62
     7
100
AcDbSpline
210
0.0
220
0.0
230
1.0
 70
     8
 71
     3
 72
    44
 73
    40
 74
     0
 42
0.000000001
 43
0.00000001
 40
0.0
 40
0.0
 40
0.0
 40
0.0
 40
1.0
 40
1.0
 40
1.0
 40
2.0
 40
2.0
 40
2.0
 40
3.0
 40
3.0
 40
3.0
 40
4.0
 40
4.0
 40
4.0
 40
5.0
 40
5.0
 40
5.0
 40
6.0
 40
6.0
 40
6.0
 40
7.0
 40
7.0
 40
7.0
 40
8.0
 40
8.0
 40
8.0
 40
9.0
 40
9.0
 40
9.0
 40
10.0
 40
10.0
 40
10.0
 40
11.0
 40
11.0
 40
11.0
 40
12.0
 40
12.0
 40
12.0
 40
13.0
 40
13.0
 40
13.0
 40
13.0
 10
198.3296685112847
 20
-438.7714952256944
 30
0.0
 10
198.1226182725694
 20
-439.4598253038194
 30
0.0
 10
197.9186686197916
 20
-440.1481553819444
 30
0.0
 10
197.9186686197916
 20
-440.1481553819444
 30
0.0
 10
197.9186686197916
 20
-440.1481553819444
 30
0.0
 10
197.1951985677083
 20
-443.2838812934027
 30
0.0
 10
197.2303385416666
 20
-443.1660590277777
 30
0.0
 10
197.2303385416666
 20
-443.1660590277777
 30
0.0
 10
197.1728054470486
 20
-444.1058810763889
 30
0.0
 10
197.0549831814236
 20
-444.3194769965277
 30
0.0
 10
196.9433620876736
 20
-444.526527235243
 30
0.0
 10
196.4017930772569
 20
-445.2596435546874
 30
0.0
 10
196.4145399305555
 20
-445.5783148871527
 30
0.0
 10
196.423841688368
 20
-445.896986219618
 30
0.0
 10
196.9626546223958
 20
-446.9580756293402
 30
0.0
 10
197.0580837673611
 20
-447.0631510416666
 30
0.0
 10
197.1569580078125
 20
-447.1778727213541
 30
0.0
 10
197.8931749131944
 20
-448.0446587456597
 30
0.0
 10
198.2276936848958
 20
-448.2103678385416
 30
0.0
 10
198.5622124565972
 20
-448.3729763454861
 30
0.0
 10
199.5947075737847
 20
-448.9179904513888
 30
0.0
 10
199.683935546875
 20
-448.9689778645833
 30
0.0
 10
199.7762641059028
 20
-449.0199652777777
 30
0.0
 10
200.5379747178819
 20
-449.4533582899305
 30
0.0
 10
200.7577718098958
 20
-449.4661051432291
 30
0.0
 10
200.9779134114583
 20
-449.4754069010417
 30
0.0
 10
201.9273817274305
 20
-448.9817247178819
 30
0.0
 10
202.042103407118
 20
-448.8063693576389
 30
0.0
 10
202.159925672743
 20
-448.6406602647569
 30
0.0
 10
203.4315104166666
 20
-446.6903917100694
 30
0.0
 10
203.4315104166666
 20
-446.6903917100694
 30
0.0
 10
203.4315104166666
 20
-446.6903917100694
 30
0.0
 10
205.0152208116319
 20
-443.5515652126736
 30
0.0
 10
205.0152208116319
 20
-443.5515652126736
 30
0.0
 10
205.0152208116319
 20
-443.5515652126736
 30
0.0
 10
205.5061469184027
 20
-441.8434868706597
 30
0.0
 10
205.5123480902778
 20
-441.7480577256944
 30
0.0
 10
205.5154486762153
 20
-441.703271484375
 30
0.0
 10
205.6622097439236
 20
-441.196497938368
 30
0.0
 10
205.7993245442708
 20
-440.7090169270833
 30
0.0
  0
SPLINE
  5
2CD
330
A
100
AcDbEntity
  8
LAYER_1
 62
     7
100
AcDbSpline
210
0.0
220
0.0
230
1.0
 70
     8
 71
     3
 72
    32
 73
    28
 74
     0
 42
0.000000001
 43
0.00000001
 40
0.0
 40
0.0
 40
0.0
 40
0.0
 40
1.0
 40
1.0
 40
1.0
 40
2.0
 40
2.0
 40
2.0
 40
3.0
 40
3.0
 40
3.0
 40
4.0
 40
4.0
 40
4.0
 40
5.0
 40
5.0
 40
5.0
 40
6.0
 40
6.0
 40
6.0
 40
7.0
 40
7.0
 40
7.0
 40
8.0
 40
8.0
 40
8.0
 40
9.0
 40
9.0
 40
9.0
 40
9.0
 10
301.9567626953125
 20
-478.8662055121528
 30
0.0
 10
303.0912326388889
 20
-480.0771565755208
 30
0.0
 10
304.7514241536458
 20
-481.2626139322916
 30
0.0
 10
305.2454508463541
 20
-481.5237521701388
 30
0.0
 10
305.7680718315972
 20
-481.7979817708333
 30
0.0
 10
306.7812744140625
 20
-482.5882866753472
 30
0.0
 10
307.8392632378472
 20
-482.6582221137152
 30
0.0
 10
308.8972520616319
 20
-482.7347032335069
 30
0.0
 10
311.9117106119791
 20
-483.1553493923611
 30
0.0
 10
312.354749891493
 20
-483.091615125868
 30
0.0
 10
312.7946885850694
 20
-483.0309814453125
 30
0.0
 10
314.1107150607639
 20
-482.6837158203124
 30
0.0
 10
314.1107150607639
 20
-482.6837158203124
 30
0.0
 10
314.1107150607639
 20
-482.6837158203124
 30
0.0
 10
314.2188910590277
 20
-482.6775146484375
 30
0.0
 10
314.2188910590277
 20
-482.6775146484375
 30
0.0
 10
314.2188910590277
 20
-482.6775146484375
 30
0.0
 10
315.3437147352431
 20
-481.2753607855902
 30
0.0
 10
315.108070203993
 20
-480.2938530815972
 30
0.0
 10
314.872425672743
 20
-479.3057996961805
 30
0.0
 10
315.331312391493
 20
-478.4517605251735
 30
0.0
 10
314.1107150607639
 20
-477.6838487413194
 30
0.0
 10
312.8901177300347
 20
-476.9093912760416
 30
0.0
 10
310.2515190972222
 20
-474.9084798177083
 30
0.0
 10
309.9741889105903
 20
-474.7203776041666
 30
0.0
 10
309.767138671875
 20
-474.5801622178819
 30
0.0
 10
307.807568359375
 20
-473.1046278211805
 30
0.0
 10
306.8260606553819
 20
-472.3749565972222
 30
0.0
  0
SPLINE
  5
2CC
330
A
100
AcDbEntity
  8
LAYER_1
 62
     7
100
AcDbSpline
210
0.0
220
0.0
230
1.0
 70
     8
 71
     3
 72
    41
 73
    37
 74
     0
 42
0.000000001
 43
0.00000001
 40
0.0
 40
0.0
 40
0.0
 40
0.0
 40
1.0
 40
1.0
 40
1.0
 40
2.0
 40
2.0
 40
2.0
 40
3.0
 40
3.0
 40
3.0
 40
4.0
 40
4.0
 40
4.0
 40
5.0
 40
5.0
 40
5.0
 40
6.0
 40
6.0
 40
6.0
 40
7.0
 40
7.0
 40
7.0
 40
8.0
 40
8.0
 40
8.0
 40
9.0
 40
9.0
 40
9.0
 40
10.0
 40
10.0
 40
10.0
 40
11.0
 40
11.0
 40
11.0
 40
12.0
 40
12.0
 40
12.0
 40
12.0
 10
297.893617078993
 20
-475.9216824001736
 30
0.0
 10
297.2276801215277
 20
-475.6223036024305
 30
0.0
 10
294.5956271701389
 20
-474.5863633897569
 30
0.0
 10
294.2990044487847
 20
-474.4430474175347
 30
0.0
 10
293.9710313585069
 20
-474.2838840060763
 30
0.0
 10
289.974720594618
 20
-472.760462782118
 30
0.0
 10
289.4617458767361
 20
-472.5630588107638
 30
0.0
 10
288.9425699869792
 20
-472.3684109157986
 30
0.0
 10
286.8296929253472
 20
-471.3011203342014
 30
0.0
 10
286.1255154079861
 20
-470.7209662543402
 30
0.0
 10
285.4209933810764
 20
-470.1442572699652
 30
0.0
 10
284.1879937065972
 20
-467.9294053819444
 30
0.0
 10
283.5950927734375
 20
-466.7601399739583
 30
0.0
 10
283.0056369357638
 20
-465.5905300564236
 30
0.0
 10
284.3409559461805
 20
-464.8577582465277
 30
0.0
 10
284.6530815972222
 20
-464.5166937934027
 30
0.0
 10
284.9717529296875
 20
-464.1756293402777
 30
0.0
 10
286.991956922743
 20
-464.0929470486111
 30
0.0
 10
286.991956922743
 20
-464.0929470486111
 30
0.0
 10
286.3167182074653
 20
-464.2235161675347
 30
0.0
 10
288.8819363064236
 20
-463.9685791015625
 30
0.0
 10
289.910986328125
 20
-464.3351372612847
 30
0.0
 10
289.910986328125
 20
-464.3351372612847
 30
0.0
 10
289.9654188368056
 20
-464.3540852864583
 30
0.0
 10
289.9654188368056
 20
-464.3540852864583
 30
0.0
 10
290.1469753689236
 20
-464.3413384331597
 30
0.0
 10
292.6739529079861
 20
-465.2718587239583
 30
0.0
 10
293.3719292534722
 20
-465.4313666449652
 30
0.0
 10
294.0695610894097
 20
-465.577783203125
 30
0.0
 10
297.0619710286458
 20
-466.794935438368
 30
0.0
 10
297.5239583333333
 20
-466.9671902126736
 30
0.0
 10
297.9859456380208
 20
-467.1425455729166
 30
0.0
 10
301.9757107204861
 20
-469.2457763671874
 30
0.0
 10
301.9757107204861
 20
-469.2457763671874
 30
0.0
 10
301.9757107204861
 20
-469.2457763671874
 30
0.0
 10
302.5527642144097
 20
-469.6119900173611
 30
0.0
 10
302.5527642144097
 20
-469.6119900173611
 30
0.0
  0
SPLINE
  5
2CB
330
A
100
AcDbEntity
  8
LAYER_1
 62
     7
100
AcDbSpline
210
0.0
220
0.0
230
1.0
 70
    11
 71
     3
 72
    23
 73
    19
 74
     0
 42
0.000000001
 43
0.00000001
 40
0.0
 40
0.0
 40
0.0
 40
0.0
 40
1.0
 40
1.0
 40
1.0
 40
2.0
 40
2.0
 40
2.0
 40
3.0
 40
3.0
 40
3.0
 40
4.0
 40
4.0
 40
4.0
 40
5.0
 40
5.0
 40
5.0
 40
6.0
 40
6.0
 40
6.0
 40
6.0
 10
272.3206732855903
 20
-463.0890462239583
 30
0.0
 10
272.3206732855903
 20
-463.0890462239583
 30
0.0
 10
272.8115993923611
 20
-462.199867078993
 30
0.0
 10
271.830091688368
 20
-461.4670952690972
 30
0.0
 10
270.848583984375
 20
-460.7212320963541
 30
0.0
 10
269.0481770833333
 20
-460.3515733506944
 30
0.0
 10
268.5858452690972
 20
-460.6447509765625
 30
0.0
 10
268.1238579644097
 20
-460.9379286024305
 30
0.0
 10
266.9669949001736
 20
-461.8749945746528
 30
0.0
 10
266.9036051432291
 20
-462.3721218532986
 30
0.0
 10
266.8395263671875
 20
-462.8596028645833
 30
0.0
 10
267.0724148220486
 20
-464.1756293402777
 30
0.0
 10
267.8468722873264
 20
-464.5518337673611
 30
0.0
 10
268.6178846571181
 20
-464.9214925130208
 30
0.0
 10
270.2908230251736
 20
-464.9659342447916
 30
0.0
 10
270.8323920355903
 20
-464.717542860243
 30
0.0
 10
271.3774061414931
 20
-464.4688069661458
 30
0.0
 10
272.3206732855903
 20
-463.0890462239583
 30
0.0
 10
272.3206732855903
 20
-463.0890462239583
 30
0.0
  0
SPLINE
  5
2CA
330
A
100
AcDbEntity
  8
LAYER_1
 62
     7
100
AcDbSpline
210
0.0
220
0.0
230
1.0
 70
    11
 71
     3
 72
    20
 73
    16
 74
     0
 42
0.000000001
 43
0.00000001
 40
0.0
 40
0.0
 40
0.0
 40
0.0
 40
1.0
 40
1.0
 40
1.0
 40
2.0
 40
2.0
 40
2.0
 40
3.0
 40
3.0
 40
3.0
 40
4.0
 40
4.0
 40
4.0
 40
5.0
 40
5.0
 40
5.0
 40
5.0
 10
175.5513861762153
 20
-539.517800564236
 30
0.0
 10
175.5513861762153
 20
-539.517800564236
 30
0.0
 10
173.2345594618055
 20
-539.2852566189235
 30
0.0
 10
172.772572157118
 20
-540.2095757378472
 30
0.0
 10
172.3105848524305
 20
-541.1397515190972
 30
0.0
 10
172.2341037326389
 20
-542.3699951171875
 30
0.0
 10
173.0815972222222
 20
-542.9115641276042
 30
0.0
 10
173.9294352213541
 20
-543.4534776475693
 30
0.0
 10
175.0862982855903
 20
-544.0684271918402
 30
0.0
 10
175.8573106553819
 20
-543.6829210069444
 30
0.0
 10
176.6283230251736
 20
-543.2939697265624
 30
0.0
 10
177.2467176649305
 20
-542.3699951171875
 30
0.0
 10
176.9376925998264
 20
-541.5986382378471
 30
0.0
 10
176.6283230251736
 20
-540.8276258680555
 30
0.0
 10
176.1663357204861
 20
-539.7506890190972
 30
0.0
 10
175.5513861762153
 20
-539.517800564236
 30
0.0
  0
SPLINE
  5
2C9
330
A
100
AcDbEntity
  8
LAYER_1
 62
     7
100
AcDbSpline
210
0.0
220
0.0
230
1.0
 70
     8
 71
     3
 72
    14
 73
    10
 74
     0
 42
0.000000001
 43
0.00000001
 40
0.0
 40
0.0
 40
0.0
 40
0.0
 40
1.0
 40
1.0
 40
1.0
 40
2.0
 40
2.0
 40
2.0
 40
3.0
 40
3.0
 40
3.0
 40
3.0
 10
172.6991916232639
 20
-518.438294813368
 30
0.0
 10
171.7528238932292
 20
-518.0176486545139
 30
0.0
 10
170.9783664279514
 20
-517.6479899088541
 30
0.0
 10
170.5994059244792
 20
-517.4120008680555
 30
0.0
 10
169.0666829427083
 20
-516.4559868706597
 30
0.0
 10
167.6197428385416
 20
-515.866531032986
 30
0.0
 10
166.0966661241319
 20
-514.372048611111
 30
0.0
 10
164.5415500217014
 20
-512.8424262152778
 30
0.0
 10
164.5381049262153
 20
-512.8424262152778
 30
0.0
 10
163.8246256510417
 20
-512.2367784288194
 30
0.0
  0
INSERT
  5
299
330
A
100
AcDbEntity
  8
LAYER_1
 62
     7
100
AcDbBlockReference
  2
AI9-BLK117
 10
297.621282
 20
-534.184965
 30
0.0
  0
INSERT
  5
272
330
A
100
AcDbEntity
  8
LAYER_1
 62
     7
100
AcDbBlockReference
  2
AI9-BLK109
 10
260.485392
 20
-443.502128
 30
0.0
  0
INSERT
  5
232
330
A
100
AcDbEntity
  8
LAYER_1
 62
     7
100
AcDbBlockReference
  2
AI9-BLK96
 10
229.052169
 20
-424.19254
 30
0.0
  0
INSERT
  5
1E3
330
A
100
AcDbEntity
  8
LAYER_1
 62
     7
100
AcDbBlockReference
  2
AI9-BLK80
 10
201.430254
 20
-444.08211
 30
0.0
  0
INSERT
  5
1BC
330
A
100
AcDbEntity
  8
LAYER_1
 62
     7
100
AcDbBlockReference
  2
AI9-BLK72
 10
309.615899
 20
-478.660533
 30
0.0
  0
INSERT
  5
181
330
A
100
AcDbEntity
  8
LAYER_1
 62
     7
100
AcDbBlockReference
  2
AI9-BLK60
 10
293.008472
 20
-469.639206
 30
0.0
  0
INSERT
  5
15F
330
A
100
AcDbEntity
  8
LAYER_1
 62
     7
100
AcDbBlockReference
  2
AI9-BLK53
 10
269.362025
 20
-462.703368
 30
0.0
  0
INSERT
  5
142
330
A
100
AcDbEntity
  8
LAYER_1
 62
     7
100
AcDbBlockReference
  2
AI9-BLK47
 10
174.517169
 20
-541.515956
 30
0.0
  0
INSERT
  5
134
330
A
100
AcDbEntity
  8
LAYER_1
 62
     7
100
AcDbBlockReference
  2
AI9-BLK44
 10
160.379702
 20
-526.777665
 30
0.0
  0
INSERT
  5
126
330
A
100
AcDbEntity
  8
LAYER_1
 62
     7
100
AcDbBlockReference
  2
AI9-BLK41
 10
165.476721
 20
-516.760361
 30
0.0
  0
INSERT
  5
D7
330
A
100
AcDbEntity
  8
LAYER_1
 62
     7
100
AcDbBlockReference
  2
AI9-BLK25
 10
236.596583
 20
-495.345992
 30
0.0
  0
INSERT
  5
97
330
A
100
AcDbEntity
  8
LAYER_1
 62
     7
100
AcDbBlockReference
  2
AI9-BLK12
 10
223.943953
 20
-512.324456
 30
0.0
  0
INSERT
  5
90
330
A
100
AcDbEntity
  8
LAYER_1
 62
     7
100
AcDbBlockReference
  2
AI9-BLK11
 10
202.166471
 20
-439.246402
 30
0.0
  0
LINE
  5
8E
330
A
100
AcDbEntity
  8
LAYER_1
 62
     7
100
AcDbLine
 10
164.124004
 20
-512.644678
 30
0.0
 11
156.128627
 21
-525.588935
 31
0.0
  0
LINE
  5
8D
330
A
100
AcDbEntity
  8
LAYER_1
 62
     7
100
AcDbLine
 10
172.954129
 20
-518.517877
 30
0.0
 11
164.567044
 21
-530.996701
 31
0.0
  0
LINE
  5
8C
330
A
100
AcDbEntity
  8
LAYER_1
 62
     7
100
AcDbLine
 10
226.072678
 20
-500.019092
 30
0.0
 11
234.498348
 21
-505.927431
 31
0.0
  0
LINE
  5
8B
330
A
100
AcDbEntity
  8
LAYER_1
 62
     7
100
AcDbLine
 10
223.880219
 20
-503.199604
 30
0.0
 11
232.51604
 21
-509.311548
 31
0.0
  0
LINE
  5
8A
330
A
100
AcDbEntity
  8
LAYER_1
 62
     7
100
AcDbLine
 10
252.560295
 20
-434.870958
 30
0.0
 11
247.735783
 21
-441.862779
 31
0.0
  0
LINE
  5
89
330
A
100
AcDbEntity
  8
LAYER_1
 62
     7
100
AcDbLine
 10
249.363935
 20
-432.398413
 30
0.0
 11
244.338574
 21
-439.606586
 31
0.0
  0
LINE
  5
88
330
A
100
AcDbEntity
  8
LAYER_1
 62
     7
100
AcDbLine
 10
306.829161
 20
-472.416298
 30
0.0
 11
302.017396
 21
-478.799371
 31
0.0
  0
LINE
  5
87
330
A
100
AcDbEntity
  8
LAYER_1
 62
     7
100
AcDbLine
 10
302.558965
 20
-469.68227
 30
0.0
 11
297.941504
 21
-475.870695
 31
0.0
  0
SPLINE
  5
86
330
A
100
AcDbEntity
  8
LAYER_1
 62
     7
100
AcDbSpline
210
0.0
220
0.0
230
1.0
 70
     8
 71
     3
 72
    38
 73
    34
 74
     0
 42
0.000000001
 43
0.00000001
 40
0.0
 40
0.0
 40
0.0
 40
0.0
 40
1.0
 40
1.0
 40
1.0
 40
2.0
 40
2.0
 40
2.0
 40
3.0
 40
3.0
 40
3.0
 40
4.0
 40
4.0
 40
4.0
 40
5.0
 40
5.0
 40
5.0
 40
6.0
 40
6.0
 40
6.0
 40
7.0
 40
7.0
 40
7.0
 40
8.0
 40
8.0
 40
8.0
 40
9.0
 40
9.0
 40
9.0
 40
10.0
 40
10.0
 40
10.0
 40
11.0
 40
11.0
 40
11.0
 40
11.0
 10
216.2004123263889
 20
-420.6523600260416
 30
0.0
 10
216.2004123263889
 20
-420.6523600260416
 30
0.0
 10
211.4875217013889
 20
-422.0097276475694
 30
0.0
 10
210.4708740234375
 20
-422.717005750868
 30
0.0
 10
209.4542263454861
 20
-423.4246283637152
 30
0.0
 10
206.7839328342014
 20
-424.7089599609375
 30
0.0
 10
204.9356391059028
 20
-425.0369330512152
 30
0.0
 10
203.0842447916666
 20
-425.3621500651041
 30
0.0
 10
199.1899088541666
 20
-425.8527316623263
 30
0.0
 10
198.2817816840277
 20
-426.7322645399305
 30
0.0
 10
197.3671088324652
 20
-427.6055962456597
 30
0.0
 10
193.4955105251736
 20
-433.9914252387152
 30
0.0
 10
193.1100043402778
 20
-434.7403889973958
 30
0.0
 10
192.7210530598958
 20
-435.4828070746527
 30
0.0
 10
187.3804660373264
 20
-440.1991427951389
 30
0.0
 10
186.4465006510416
 20
-440.8109917534722
 30
0.0
 10
185.5128797743055
 20
-441.4228407118055
 30
0.0
 10
178.9007080078125
 20
-444.8069580078125
 30
0.0
 10
177.3166531032986
 20
-445.1128824869791
 30
0.0
 10
175.7329427083333
 20
-445.4222520616319
 30
0.0
 10
169.9586181640625
 20
-444.7177300347222
 30
0.0
 10
168.8561876085069
 20
-444.3608181423611
 30
0.0
 10
167.7537570529514
 20
-444.0008056640625
 30
0.0
 10
164.5797905815972
 20
-442.2896267361111
 30
0.0
 10
163.3209526909722
 20
-442.2069444444444
 30
0.0
 10
162.0621148003472
 20
-442.1304633246527
 30
0.0
 10
160.6282660590278
 20
-442.0698296440972
 30
0.0
 10
159.9047960069444
 20
-441.9454616970486
 30
0.0
 10
159.1816704644097
 20
-441.8307400173611
 30
0.0
 10
156.0841851128472
 20
-441.0914225260416
 30
0.0
 10
155.7207275390625
 20
-441.0342339409722
 30
0.0
 10
155.3576144748264
 20
-440.967054578993
 30
0.0
 10
152.2218885633681
 20
-440.8619791666666
 30
0.0
 10
152.2218885633681
 20
-440.8619791666666
 30
0.0
  0
SPLINE
  5
85
330
A
100
AcDbEntity
  8
LAYER_1
 62
     7
100
AcDbSpline
210
0.0
220
0.0
230
1.0
 70
     8
 71
     3
 72
    14
 73
    10
 74
     0
 42
0.000000001
 43
0.00000001
 40
0.0
 40
0.0
 40
0.0
 40
0.0
 40
1.0
 40
1.0
 40
1.0
 40
2.0
 40
2.0
 40
2.0
 40
3.0
 40
3.0
 40
3.0
 40
3.0
 10
154.7106255425347
 20
-475.0803900824652
 30
0.0
 10
154.7106255425347
 20
-475.0803900824652
 30
0.0
 10
162.1930284288194
 20
-479.6406629774305
 30
0.0
 10
166.2272352430555
 20
-480.1153971354166
 30
0.0
 10
170.2614420572916
 20
-480.5932318793402
 30
0.0
 10
175.414271375868
 20
-482.3588433159722
 30
0.0
 10
178.5978841145833
 20
-484.0669216579861
 30
0.0
 10
181.7876980251736
 20
-485.775
 30
0.0
 10
184.9616644965278
 20
-487.3363172743055
 30
0.0
 10
186.2552978515625
 20
-488.9806613498263
 30
0.0
  0
SPLINE
  5
84
330
A
100
AcDbEntity
  8
LAYER_1
  6
AI9-LType4
 62
     7
100
AcDbSpline
210
0.0
220
0.0
230
1.0
 70
     8
 71
     3
 72
    29
 73
    25
 74
     0
 42
0.000000001
 43
0.00000001
 40
0.0
 40
0.0
 40
0.0
 40
0.0
 40
1.0
 40
1.0
 40
1.0
 40
2.0
 40
2.0
 40
2.0
 40
3.0
 40
3.0
 40
3.0
 40
4.0
 40
4.0
 40
4.0
 40
5.0
 40
5.0
 40
5.0
 40
6.0
 40
6.0
 40
6.0
 40
7.0
 40
7.0
 40
7.0
 40
8.0
 40
8.0
 40
8.0
 40
8.0
 10
186.8512993706597
 20
-489.5859646267361
 30
0.0
 10
186.8512993706597
 20
-489.5859646267361
 30
0.0
 10
190.6784559461805
 20
-493.1743760850694
 30
0.0
 10
192.0168755425347
 20
-497.1703423394097
 30
0.0
 10
193.3552951388889
 20
-501.1663085937499
 30
0.0
 10
196.0417805989583
 20
-507.5493815104166
 30
0.0
 10
196.0417805989583
 20
-507.5493815104166
 30
0.0
 10
196.0417805989583
 20
-507.5493815104166
 30
0.0
 10
196.5258165147569
 20
-508.8399142795138
 30
0.0
 10
196.5258165147569
 20
-508.8399142795138
 30
0.0
 10
196.5258165147569
 20
-508.8399142795138
 30
0.0
 10
208.4410237630208
 20
-518.9192301432291
 30
0.0
 10
208.4410237630208
 20
-518.9192301432291
 30
0.0
 10
208.4410237630208
 20
-518.9192301432291
 30
0.0
 10
210.0691758897569
 20
-523.6386664496528
 30
0.0
 10
207.9407958984375
 20
-524.7796820746528
 30
0.0
 10
205.8120713975694
 20
-525.9268988715278
 30
0.0
 10
202.0293565538194
 20
-527.1981391059028
 30
0.0
 10
198.8044026692708
 20
-526.7616455078124
 30
0.0
 10
195.5794487847222
 20
-526.3282524956596
 30
0.0
 10
193.6612196180555
 20
-526.6152289496528
 30
0.0
 10
193.6612196180555
 20
-526.6152289496528
 30
0.0
 10
193.6612196180555
 20
-526.6152289496528
 30
0.0
 10
184.1300184461805
 20
-523.6324652777778
 30
0.0
 10
180.7837972005208
 20
-521.6821967230902
 30
0.0
  0
MTEXT
  5
82
330
A
100
AcDbEntity
  8
LAYER_1
 62
     7
100
AcDbMText
 10
174.126839
 20
-501.919256
 30
0.0
 40
1.643461
 41
0.0
 46
0.0
 71
     1
 72
     2
  1
\W1.00;\fHelvetica|b1|i0;387
  7
STD
 73
     1
 44
1.0
  0
MTEXT
  5
81
330
A
100
AcDbEntity
  8
LAYER_1
 62
     7
100
AcDbMText
 10
197.899376
 20
-449.852494
 30
0.0
 40
1.643461
 41
0.0
 46
0.0
 71
     1
 72
     2
  1
\W1.00;\fHelvetica|b1|i0;278
  7
STD
 73
     1
 44
1.0
  0
MTEXT
  5
80
330
A
100
AcDbEntity
  8
LAYER_1
 62
     7
100
AcDbMText
 10
224.998842
 20
-422.169774
 30
0.0
 40
1.643461
 41
0.0
 46
0.0
 71
     1
 72
     2
  1
\W1.00;\fHelvetica|b1|i0;312
  7
STD
 73
     1
 44
1.0
  0
MTEXT
  5
7F
330
A
100
AcDbEntity
  8
LAYER_1
 62
     7
100
AcDbMText
 10
260.893292
 20
-462.207295
 30
0.0
 40
1.643461
 41
0.0
 46
0.0
 71
     1
 72
     2
  1
\W1.00;\fHelvetica|b1|i0;315
  7
STD
 73
     1
 44
1.0
  0
MTEXT
  5
7E
330
A
100
AcDbEntity
  8
LAYER_1
 62
     7
100
AcDbMText
 10
292.371129
 20
-477.114224
 30
0.0
 40
1.643461
 41
0.0
 46
0.0
 71
     1
 72
     2
  1
\W1.00;\fHelvetica|b1|i0;313
  7
STD
 73
     1
 44
1.0
  0
MTEXT
  5
7D
330
A
100
AcDbEntity
  8
LAYER_1
 62
     7
100
AcDbMText
 10
285.19155
 20
-539.521784
 30
0.0
 40
1.643461
 41
0.0
 46
0.0
 71
     1
 72
     2
  1
\W1.00;\fHelvetica|b1|i0;321
  7
STD
 73
     1
 44
1.0
  0
MTEXT
  5
7C
330
A
100
AcDbEntity
  8
LAYER_1
 62
     7
100
AcDbMText
 10
322.191876
 20
-514.939994
 30
0.0
 40
1.643461
 41
0.0
 46
0.0
 71
     1
 72
     2
  1
\W1.00;\fHelvetica|b1|i0;327
  7
STD
 73
     1
 44
1.0
  0
MTEXT
  5
7B
330
A
100
AcDbEntity
  8
LAYER_1
 62
     7
100
AcDbMText
 10
213.399205
 20
-471.04052
 30
0.0
 40
1.643461
 41
0.0
 46
0.0
 71
     1
 72
     2
  1
\W1.00;\fHelvetica|b1|i0;487
  7
STD
 73
     1
 44
1.0
  0
MTEXT
  5
7A
330
A
100
AcDbEntity
  8
LAYER_1
 62
     7
100
AcDbMText
 10
245.431703
 20
-537.865037
 30
0.0
 40
1.643461
 41
0.0
 46
0.0
 71
     1
 72
     2
  1
\W1.00;\fHelvetica|b1|i0;484
  7
STD
 73
     1
 44
1.0
  0
MTEXT
  5
79
330
A
100
AcDbEntity
  8
LAYER_1
 62
     7
100
AcDbMText
 10
167.01444
 20
-540.069898
 30
0.0
 40
1.643461
 41
0.0
 46
0.0
 71
     1
 72
     2
  1
\W1.00;\fHelvetica|b1|i0;316
  7
STD
 73
     1
 44
1.0
  0
MTEXT
  5
78
330
A
100
AcDbEntity
  8
LAYER_1
 62
     7
100
AcDbMText
 10
179.990392
 20
-553.046195
 30
0.0
 40
1.643461
 41
0.0
 46
0.0
 71
     1
 72
     2
  1
\W1.00;\fHelvetica|b1|i0;390/486
  7
STD
 73
     1
 44
1.0
  0
MTEXT
  5
77
330
A
100
AcDbEntity
  8
LAYER_1
 62
     7
100
AcDbMText
 10
162.301204
 20
-521.989004
 30
0.0
 40
1.643461
 41
0.0
 46
0.0
 71
     1
 72
     2
  1
\W1.00;\fHelvetica|b1|i0;483
  7
STD
 73
     1
 44
1.0
  0
MTEXT
  5
76
330
A
100
AcDbEntity
  8
LAYER_1
 62
     7
100
AcDbMText
 10
222.188333
 20
-511.313686
 30
0.0
 40
1.643461
 41
0.0
 46
0.0
 71
     1
 72
     2
  1
\W1.00;\fHelvetica|b1|i0;314
  7
STD
 73
     1
 44
1.0
  0
MTEXT
  5
75
330
A
100
AcDbEntity
  8
LAYER_1
 62
     7
100
AcDbMText
 10
233.784524
 20
-495.574768
 30
0.0
 40
1.643461
 41
0.0
 46
0.0
 71
     1
 72
     2
  1
\W1.00;\fHelvetica|b1|i0;314
  7
STD
 73
     1
 44
1.0
  0
MTEXT
  5
74
330
A
100
AcDbEntity
  8
LAYER_1
 62
     7
100
AcDbMText
 10
257.85644
 20
-522.396903
 30
0.0
 40
1.643461
 41
0.0
 46
0.0
 71
     1
 72
     2
  1
\W1.00;\fHelvetica|b0|i0;post-hole?
  7
STD
 73
     1
 44
1.0
  0
INSERT
  5
5E
330
A
100
AcDbEntity
  8
LAYER_1
 62
     7
100
AcDbBlockReference
  2
AI9-BLK6
 10
233.832239
 20
-394.091363
 30
0.0
  0
INSERT
  5
47
330
A
100
AcDbEntity
  8
LAYER_1
  6
AI9-LType3
 62
     7
100
AcDbBlockReference
  2
AI9-BLK1
 10
233.832239
 20
-456.626392
 30
0.0
  0
MTEXT
  5
45
330
A
100
AcDbEntity
  8
LAYER_1
  6
AI9-LType3
 62
     7
100
AcDbMText
 10
235.846069
 20
-393.451589
 30
0.0
 40
1.232675
 41
0.0
 46
0.0
 71
     1
 72
     2
  1
\W1.00;\fHelvetica|b0|i0;780/228
  7
STD
 73
     1
 44
1.0
  0
MTEXT
  5
44
330
A
100
AcDbEntity
  8
LAYER_1
  6
AI9-LType3
 62
     7
100
AcDbMText
 10
235.78268
 20
-455.90049
 30
0.0
 40
1.232675
 41
0.0
 46
0.0
 71
     1
 72
     2
  1
\W1.00;\fHelvetica|b0|i0;780/224
  7
STD
 73
     1
 44
1.0
  0
LINE
  5
43
330
A
100
AcDbEntity
  8
LAYER_1
  6
AI9-LType3
 62
     7
100
AcDbLine
 10
272.215598
 20
-452.531551
 30
0.0
 11
240.199292
 21
-484.589543
 31
0.0
  0
SPLINE
  5
42
330
A
100
AcDbEntity
  8
LAYER_1
  6
AI9-LType3
 62
     7
100
AcDbSpline
210
0.0
220
0.0
230
1.0
 70
     8
 71
     3
 72
    11
 73
     7
 74
     0
 42
0.000000001
 43
0.00000001
 40
0.0
 40
0.0
 40
0.0
 40
0.0
 40
1.0
 40
1.0
 40
1.0
 40
2.0
 40
2.0
 40
2.0
 40
2.0
 10
232.4395589192708
 20
-509.2829535590277
 30
0.0
 10
232.6628011067708
 20
-508.9387885199652
 30
0.0
 10
232.7902696397569
 20
-508.737939453125
 30
0.0
 10
232.7902696397569
 20
-508.737939453125
 30
0.0
 10
232.7902696397569
 20
-508.737939453125
 30
0.0
 10
233.9278401692708
 20
-507.0109130859374
 30
0.0
 10
234.6289171006944
 20
-505.9591254340277
 30
0.0
  0
LINE
  5
41
330
A
100
AcDbEntity
  8
LAYER_1
  6
AI9-LType3
 62
     7
100
AcDbLine
 10
226.079224
 20
-500.019092
 30
0.0
 11
223.816485
 21
-503.142071
 31
0.0
  0
SPLINE
  5
40
330
A
100
AcDbEntity
  8
LAYER_1
  6
AI9-LType3
 62
     7
100
AcDbSpline
210
0.0
220
0.0
230
1.0
 70
     8
 71
     3
 72
    32
 73
    28
 74
     0
 42
0.000000001
 43
0.00000001
 40
0.0
 40
0.0
 40
0.0
 40
0.0
 40
1.0
 40
1.0
 40
1.0
 40
2.0
 40
2.0
 40
2.0
 40
3.0
 40
3.0
 40
3.0
 40
4.0
 40
4.0
 40
4.0
 40
5.0
 40
5.0
 40
5.0
 40
6.0
 40
6.0
 40
6.0
 40
7.0
 40
7.0
 40
7.0
 40
8.0
 40
8.0
 40
8.0
 40
9.0
 40
9.0
 40
9.0
 40
9.0
 10
234.6289171006944
 20
-505.9591254340277
 30
0.0
 10
234.8425130208333
 20
-505.6469997829861
 30
0.0
 10
235.0178683810764
 20
-505.3920627170139
 30
0.0
 10
235.106751844618
 20
-505.2645941840277
 30
0.0
 10
235.4891574435764
 20
-504.7226806640625
 30
0.0
 10
235.6455647786458
 20
-504.7226806640625
 30
0.0
 10
235.6455647786458
 20
-504.7226806640625
 30
0.0
 10
235.6455647786458
 20
-504.7226806640625
 30
0.0
 10
240.4287353515625
 20
-498.8625732421875
 30
0.0
 10
240.8876220703125
 20
-498.3237603081596
 30
0.0
 10
241.3527099609375
 20
-497.782191297743
 30
0.0
 10
242.7421169704861
 20
-495.6248725043403
 30
0.0
 10
242.7421169704861
 20
-495.6248725043403
 30
0.0
 10
242.7421169704861
 20
-495.6248725043403
 30
0.0
 10
245.6769938151041
 20
-490.3762695312499
 30
0.0
 10
245.7503743489583
 20
-489.3692681206597
 30
0.0
 10
245.8299560546875
 20
-488.3719129774305
 30
0.0
 10
244.4405490451389
 20
-485.1280110677083
 30
0.0
 10
243.5134738498264
 20
-484.8220865885416
 30
0.0
 10
242.5891547309027
 20
-484.5130615234374
 30
0.0
 10
239.5044162326389
 20
-484.5130615234374
 30
0.0
 10
238.883265516493
 20
-484.9016682942708
 30
0.0
 10
238.2714165581597
 20
-485.2840738932291
 30
0.0
 10
235.95458984375
 20
-486.4440375434027
 30
0.0
 10
233.947132703993
 20
-489.3692681206597
 30
0.0
 10
233.947132703993
 20
-489.3692681206597
 30
0.0
 10
226.0792236328125
 20
-500.0190917968749
 30
0.0
 10
226.0792236328125
 20
-500.0190917968749
 30
0.0
  0
SPLINE
  5
3F
330
A
100
AcDbEntity
  8
LAYER_1
  6
AI9-LType3
 62
     7
100
AcDbSpline
210
0.0
220
0.0
230
1.0
 70
     8
 71
     3
 72
    23
 73
    19
 74
     0
 42
0.000000001
 43
0.00000001
 40
0.0
 40
0.0
 40
0.0
 40
0.0
 40
1.0
 40
1.0
 40
1.0
 40
2.0
 40
2.0
 40
2.0
 40
3.0
 40
3.0
 40
3.0
 40
4.0
 40
4.0
 40
4.0
 40
5.0
 40
5.0
 40
5.0
 40
6.0
 40
6.0
 40
6.0
 40
6.0
 10
223.8164849175347
 20
-503.1420708550347
 30
0.0
 10
223.8164849175347
 20
-503.1420708550347
 30
0.0
 10
223.2270290798611
 20
-503.9516682942708
 30
0.0
 10
223.2270290798611
 20
-503.9516682942708
 30
0.0
 10
223.2270290798611
 20
-503.9516682942708
 30
0.0
 10
220.5246961805555
 20
-508.1963704427083
 30
0.0
 10
220.5246961805555
 20
-508.1963704427083
 30
0.0
 10
220.5246961805555
 20
-508.1963704427083
 30
0.0
 10
216.4364013671875
 20
-513.903515625
 30
0.0
 10
216.6689453125
 20
-514.9869981553819
 30
0.0
 10
216.898388671875
 20
-516.0608344184027
 30
0.0
 10
216.7454264322917
 20
-518.6866861979166
 30
0.0
 10
219.9066460503472
 20
-519.3815619574652
 30
0.0
 10
223.0675211588541
 20
-520.0760932074652
 30
0.0
 10
223.7623969184028
 20
-519.4611436631944
 30
0.0
 10
225.5404106987847
 20
-518.4572428385417
 30
0.0
 10
227.0445393880208
 20
-517.6097493489583
 30
0.0
 10
231.2065592447916
 20
-511.2108289930555
 30
0.0
 10
232.4395589192708
 20
-509.2829535590277
 30
0.0
  0
POLYLINE
  5
39
330
A
100
AcDbEntity
  8
LAYER_1
  6
AI9-LType2
 62
     7
100
AcDb2dPolyline
 66
     1
 10
0.0
 20
0.0
 30
0.0
  0
VERTEX
  5
3A
330
39
100
AcDbEntity
  8
LAYER_1
  6
AI9-LType2
 62
     7
100
AcDbVertex
100
AcDb2dVertex
 10
278.368883
 20
-599.608879
 30
0.0
  0
VERTEX
  5
3B
330
39
100
AcDbEntity
  8
LAYER_1
  6
AI9-LType2
 62
     7
100
AcDbVertex
100
AcDb2dVertex
 10
169.722974
 20
-534.049745
 30
0.0
  0
VERTEX
  5
3C
330
39
100
AcDbEntity
  8
LAYER_1
  6
AI9-LType2
 62
     7
100
AcDbVertex
100
AcDb2dVertex
 10
164.592537
 20
-530.948815
 30
0.0
  0
SEQEND
  5
3D
330
39
100
AcDbEntity
  8
LAYER_1
  6
AI9-LType2
 62
     7
  0
LINE
  5
38
330
A
100
AcDbEntity
  8
LAYER_1
  6
AI9-LType2
 62
     7
100
AcDbLine
 10
164.592537
 20
-530.948815
 30
0.0
 11
155.564665
 21
-525.499707
 31
0.0
  0
POLYLINE
  5
2D
330
A
100
AcDbEntity
  8
LAYER_1
  6
AI9-LType1
 62
     7
100
AcDb2dPolyline
 66
     1
 10
0.0
 20
0.0
 30
0.0
  0
VERTEX
  5
2E
330
2D
100
AcDbEntity
  8
LAYER_1
  6
AI9-LType1
 62
     7
100
AcDbVertex
100
AcDb2dVertex
 10
253.901815
 20
-420.41017
 30
0.0
  0
VERTEX
  5
2F
330
2D
100
AcDbEntity
  8
LAYER_1
  6
AI9-LType1
 62
     7
100
AcDbVertex
100
AcDb2dVertex
 10
295.325298
 20
-448.860457
 30
0.0
  0
VERTEX
  5
30
330
2D
100
AcDbEntity
  8
LAYER_1
  6
AI9-LType1
 62
     7
100
AcDbVertex
100
AcDb2dVertex
 10
314.846932
 20
-462.078944
 30
0.0
  0
VERTEX
  5
31
330
2D
100
AcDbEntity
  8
LAYER_1
  6
AI9-LType1
 62
     7
100
AcDbVertex
100
AcDb2dVertex
 10
357.207137
 20
-488.426001
 30
0.0
  0
VERTEX
  5
32
330
2D
100
AcDbEntity
  8
LAYER_1
  6
AI9-LType1
 62
     7
100
AcDbVertex
100
AcDb2dVertex
 10
327.178996
 20
-533.294236
 30
0.0
  0
VERTEX
  5
33
330
2D
100
AcDbEntity
  8
LAYER_1
  6
AI9-LType1
 62
     7
100
AcDbVertex
100
AcDb2dVertex
 10
301.096178
 20
-569.727498
 30
0.0
  0
VERTEX
  5
34
330
2D
100
AcDbEntity
  8
LAYER_1
  6
AI9-LType1
 62
     7
100
AcDbVertex
100
AcDb2dVertex
 10
266.833325
 20
-614.748695
 30
0.0
  0
VERTEX
  5
35
330
2D
100
AcDbEntity
  8
LAYER_1
  6
AI9-LType1
 62
     7
100
AcDbVertex
100
AcDb2dVertex
 10
162.078307
 20
-551.649704
 30
0.0
  0
SEQEND
  5
36
330
2D
100
AcDbEntity
  8
LAYER_1
  6
AI9-LType1
 62
     7
  0
LINE
  5
2C
330
A
100
AcDbEntity
  8
LAYER_1
  6
AI9-LType1
 62
     7
100
AcDbLine
 10
208.788289
 20
-607.011355
 30
0.0
 11
162.521002
 21
-572.206589
 31
0.0
  0
HATCH
  5
2A
330
A
100
AcDbEntity
  8
LAYER_1
 62
   252
100
AcDbHatch
 10
0.0
 20
0.0
 30
0.0
210
0.0
220
0.0
230
1.0
  2
SOLID
 70
     1
 71
     0
 91
        1
 92
        1
 93
        1
 72
     4
 94
        3
 73
     0
 74
     0
 95
       44
 96
       40
 40
0.0
 40
0.0
 40
0.0
 40
0.0
 40
1.0
 40
1.0
 40
1.0
 40
2.0
 40
2.0
 40
2.0
 40
3.0
 40
3.0
 40
3.0
 40
4.0
 40
4.0
 40
4.0
 40
5.0
 40
5.0
 40
5.0
 40
6.0
 40
6.0
 40
6.0
 40
7.0
 40
7.0
 40
7.0
 40
8.0
 40
8.0
 40
8.0
 40
9.0
 40
9.0
 40
9.0
 40
10.0
 40
10.0
 40
10.0
 40
11.0
 40
11.0
 40
11.0
 40
12.0
 40
12.0
 40
12.0
 40
13.0
 40
13.0
 40
13.0
 40
13.0
 10
216.385413953993
 20
-423.6540717230902
 10
214.2246500651042
 20
-423.6540717230902
 10
212.2044460720486
 20
-423.56484375
 10
210.7991916232639
 20
-425.3173638237847
 10
209.320556640625
 20
-427.1691026475694
 10
209.161048719618
 20
-429.7563693576388
 10
208.9698459201389
 20
-432.0222086588541
 10
208.8106825086805
 20
-433.9118435329861
 10
208.750048828125
 20
-435.4190728081597
 10
208.125453016493
 20
-437.1398980034722
 10
207.660365125868
 20
-438.4114827473958
 10
207.720654296875
 20
-440.2659776475694
 10
207.6569200303819
 20
-441.5950954861111
 10
207.5583902994792
 20
-443.6311469184027
 10
206.5896294487847
 20
-448.7202419704861
 10
208.8775173611111
 20
-449.3355360243055
 10
210.2731255425347
 20
-449.7082953559027
 10
212.3477620442708
 20
-448.9369384765624
 10
213.2751817491319
 20
-448.0446587456597
 10
213.9538655598958
 20
-447.3883680555555
 10
214.3872585720486
 20
-446.8051133897569
 10
214.7090304904514
 20
-445.903187391493
 10
215.1072835286458
 20
-444.8069580078125
 10
214.9257269965278
 20
-443.5326171875
 10
215.3019314236111
 20
-442.4298421223958
 10
215.5789171006944
 20
-441.6140435112847
 10
216.1080837673611
 20
-440.6866238064236
 10
216.5063368055555
 20
-439.8932183159722
 10
217.7427815755208
 20
-437.407581922743
 10
218.803870985243
 20
-434.877503797743
 10
219.8746066623264
 20
-432.3601725260417
 10
220.4385687934028
 20
-431.0344997829861
 10
221.209925672743
 20
-429.8170030381944
 10
221.557191297743
 20
-428.4148491753472
 10
221.8951551649305
 20
-427.0192409939236
 10
221.9333957248264
 20
-426.0601264105902
 10
220.7796332465278
 20
-425.2122884114583
 10
219.7440375434028
 20
-424.4505777994791
 10
216.9428304036458
 20
-423.3925889756944
 10
215.9041341145833
 20
-423.7749945746527
 97
        0
 97
        0
 75
     0
 76
     1
 98
        1
 10
0.0
 20
0.0
  0
HATCH
  5
29
330
A
100
AcDbEntity
  8
LAYER_1
 62
   252
100
AcDbHatch
 10
0.0
 20
0.0
 30
0.0
210
0.0
220
0.0
230
1.0
  2
SOLID
 70
     1
 71
     0
 91
        1
 92
        1
 93
        1
 72
     4
 94
        3
 73
     0
 74
     0
 95
       44
 96
       40
 40
0.0
 40
0.0
 40
0.0
 40
0.0
 40
1.0
 40
1.0
 40
1.0
 40
2.0
 40
2.0
 40
2.0
 40
3.0
 40
3.0
 40
3.0
 40
4.0
 40
4.0
 40
4.0
 40
5.0
 40
5.0
 40
5.0
 40
6.0
 40
6.0
 40
6.0
 40
7.0
 40
7.0
 40
7.0
 40
8.0
 40
8.0
 40
8.0
 40
9.0
 40
9.0
 40
9.0
 40
10.0
 40
10.0
 40
10.0
 40
11.0
 40
11.0
 40
11.0
 40
12.0
 40
12.0
 40
12.0
 40
13.0
 40
13.0
 40
13.0
 40
13.0
 10
175.2485622829861
 20
-458.5670138888888
 10
176.950439453125
 20
-458.0860785590277
 10
177.1829833984375
 20
-458.2676350911458
 10
178.0242757161458
 20
-457.0118977864583
 10
178.562744140625
 20
-456.2088460286458
 10
178.6585177951389
 20
-456.0655300564236
 10
178.744300672743
 20
-455.0936686197916
 10
178.9134548611111
 20
-453.2198811848958
 10
178.7315538194444
 20
-452.3021077473958
 10
176.8739583333333
 20
-451.5310953776041
 10
176.2810574001736
 20
-451.292005750868
 10
175.3953233506944
 20
-451.0594618055555
 10
174.9936252170139
 20
-450.6770562065972
 10
174.5667778862847
 20
-450.2691569010416
 10
174.4775499131944
 20
-449.5615342881944
 10
173.74443359375
 20
-449.1122938368055
 10
171.8644449869792
 20
-447.9778238932291
 10
171.1444200303819
 20
-448.6885470920138
 10
169.8442409939236
 20
-449.963232421875
 10
169.1462646484375
 20
-450.6388156467013
 10
168.3401123046875
 20
-451.2058783637152
 10
167.6262885199653
 20
-451.8718153211805
 10
166.6957682291666
 20
-452.7324001736111
 10
165.8127902560764
 20
-454.2461751302083
 10
164.7709933810764
 20
-454.8642252604166
 10
163.0818630642361
 20
-455.8712266710069
 10
162.8748128255208
 20
-454.8831732855903
 10
162.3332438151041
 20
-457.082177734375
 10
161.9570393880208
 20
-458.6052544487847
 10
162.2088758680555
 20
-459.8609917534722
 10
163.9679416232639
 20
-460.0043077256944
 10
166.6096408420139
 20
-460.2241048177083
 10
169.3598605685764
 20
-459.8799397786458
 10
172.0205078125
 20
-459.8833848741319
 10
173.225257703993
 20
-459.8833848741319
 10
173.6169650607639
 20
-459.7493706597222
 10
174.5285373263889
 20
-459.2746365017361
 10
175.4972981770833
 20
-458.7709635416666
 10
176.950439453125
 20
-458.293128797743
 10
177.76279296875
 20
-457.7322672526041
 97
        0
 97
        0
 75
     0
 76
     1
 98
        1
 10
0.0
 20
0.0
  0
ENDSEC
  0
SECTION
  2
OBJECTS
  0
DICTIONARY
  5
19
330
0
100
AcDbDictionary
281
     1
  3
ACAD_DETAILVIEWSTYLE
350
3AA
  3
ACAD_GROUP
350
1A
  3
ACAD_LAYOUT
350
1E
  3
ACAD_MATERIAL
350
36A
  3
ACAD_MLEADERSTYLE
350
370
  3
ACAD_MLINESTYLE
350
1B
  3
ACAD_PLOTSETTINGS
350
22
  3
ACAD_PLOTSTYLENAME
350
1F
  3
ACAD_SCALELIST
350
32F
  3
ACAD_SECTIONVIEWSTYLE
350
3AB
  3
ACAD_TABLESTYLE
350
36E
  3
ACAD_VISUALSTYLE
350
351
  3
ACAD_WIPEOUT_VARS
350
23
  3
ACDB_RECOMPOSE_DATA
350
3A6
  3
AcDbVariableDictionary
350
372
  0
DICTIONARY
  5
3AA
102
{ACAD_REACTORS
330
19
102
}
330
19
100
AcDbDictionary
281
     1
  0
DICTIONARY
  5
1A
102
{ACAD_REACTORS
330
19
102
}
330
19
100
AcDbDictionary
281
     1
  0
DICTIONARY
  5
1E
102
{ACAD_REACTORS
330
19
102
}
330
19
100
AcDbDictionary
281
     1
  3
Layout1
350
21
  3
Model
350
20
  0
DICTIONARY
  5
36A
102
{ACAD_REACTORS
330
19
102
}
330
19
100
AcDbDictionary
281
     1
  3
ByBlock
350
36C
  3
ByLayer
350
36B
  3
Global
350
36D
  0
DICTIONARY
  5
370
102
{ACAD_REACTORS
330
19
102
}
330
19
100
AcDbDictionary
281
     1
  3
Standard
350
371
  0
DICTIONARY
  5
1B
102
{ACAD_REACTORS
330
19
102
}
330
19
100
AcDbDictionary
281
     1
  3
Standard
350
1C
  0
DICTIONARY
  5
22
102
{ACAD_REACTORS
330
19
102
}
330
19
100
AcDbDictionary
281
     1
  0
ACDBDICTIONARYWDFLT
  5
1F
102
{ACAD_REACTORS
330
19
102
}
330
19
100
AcDbDictionary
281
     1
  3
Normal
350
1D
100
AcDbDictionaryWithDefault
340
1D
  0
DICTIONARY
  5
32F
102
{ACAD_REACTORS
330
19
102
}
330
19
100
AcDbDictionary
281
     1
  3
A0
350
330
  3
A1
350
331
  3
A2
350
332
  3
A3
350
333
  3
A4
350
334
  3
A5
350
335
  3
A6
350
336
  3
A7
350
337
  3
A8
350
338
  3
A9
350
339
  3
B0
350
33A
  3
B1
350
33B
  3
B2
350
33C
  3
B3
350
33D
  3
B4
350
33E
  3
B5
350
33F
  3
B6
350
340
  3
B7
350
341
  3
B8
350
342
  3
B9
350
343
  3
C0
350
344
  3
C1
350
345
  3
C2
350
346
  3
C3
350
347
  3
C4
350
348
  3
C5
350
349
  3
C6
350
34A
  3
C7
350
34B
  3
C8
350
34C
  3
C9
350
34D
  3
D0
350
34E
  3
D1
350
34F
  3
D2
350
350
  0
DICTIONARY
  5
3AB
102
{ACAD_REACTORS
330
19
102
}
330
19
100
AcDbDictionary
281
     1
  0
DICTIONARY
  5
36E
102
{ACAD_REACTORS
330
19
102
}
330
19
100
AcDbDictionary
281
     1
  3
Standard
350
36F
  0
DICTIONARY
  5
351
102
{ACAD_REACTORS
330
19
102
}
330
19
100
AcDbDictionary
281
     1
  3
2dWireframe
350
356
  3
Basic
350
359
  3
Brighten
350
35D
  3
ColorChange
350
361
  3
Conceptual
350
35B
  3
Dim
350
35C
  3
EdgeColorOff
350
364
  3
Facepattern
350
360
  3
Flat
350
352
  3
FlatWithEdges
350
353
  3
Gouraud
350
354
  3
GouraudWithEdges
350
355
  3
Hidden
350
358
  3
JitterOff
350
362
  3
Linepattern
350
35F
  3
OverhangOff
350
363
  3
Realistic
350
35A
  3
Shaded
350
369
  3
Shaded with edges
350
368
  3
Shades of Gray
350
365
  3
Sketchy
350
366
  3
Thicken
350
35E
  3
Wireframe
350
357
  3
X-Ray
350
367
  0
WIPEOUTVARIABLES
  5
23
330
19
100
AcDbWipeoutVariables
 70
     1
  0
XRECORD
  5
3A6
102
{ACAD_REACTORS
330
19
102
}
330
19
100
AcDbXrecord
280
     1
 90
        1
330
36F
  0
DICTIONARY
  5
372
102
{ACAD_REACTORS
330
19
102
}
330
19
100
AcDbDictionary
281
     1
  3
CANNOSCALE
350
373
  3
CMLEADERSTYLE
350
3A8
  3
CTABLESTYLE
350
3A7
  3
MSLTSCALE
350
3A9
  0
LAYOUT
  5
21
102
{ACAD_REACTORS
330
1E
102
}
330
1E
100
AcDbPlotSettings
  1

  2

  4

  6

 40
0.0
 41
0.0
 42
0.0
 43
0.0
 44
0.0
 45
0.0
 46
0.0
 47
0.0
 48
0.0
 49
0.0
140
0.0
141
0.0
142
1.0
143
1.0
 70
     0
 72
     0
 73
     0
 74
     0
  7

 75
     0
 76
     0
 77
     2
 78
   300
147
1.0
148
0.0
149
0.0
100
AcDbLayout
  1
Layout1
 70
     0
 71
     0
 10
0.0
 20
0.0
 11
0.0
 21
0.0
 12
0.0
 22
0.0
 32
0.0
 14
0.0
 24
0.0
 34
0.0
 15
0.0
 25
0.0
 35
0.0
146
0.0
 13
0.0
 23
0.0
 33
0.0
 16
0.0
 26
0.0
 36
0.0
 17
0.0
 27
0.0
 37
0.0
 76
     0
330
B
  0
LAYOUT
  5
20
102
{ACAD_REACTORS
330
1E
102
}
330
1E
100
AcDbPlotSettings
  1

  2

  4

  6

 40
0.0
 41
0.0
 42
0.0
 43
0.0
 44
0.0
 45
0.0
 46
0.0
 47
0.0
 48
0.0
 49
0.0
140
0.0
141
0.0
142
1.0
143
1.0
 70
  1024
 72
     0
 73
     0
 74
     0
  7

 75
     0
 76
     0
 77
     2
 78
   300
147
1.0
148
0.0
149
0.0
100
AcDbLayout
  1
Model
 70
     0
 71
     1
 10
0.0
 20
0.0
 11
0.0
 21
0.0
 12
0.0
 22
0.0
 32
0.0
 14
0.0
 24
0.0
 34
0.0
 15
0.0
 25
0.0
 35
0.0
146
0.0
 13
0.0
 23
0.0
 33
0.0
 16
0.0
 26
0.0
 36
0.0
 17
0.0
 27
0.0
 37
0.0
 76
     0
330
A
331
15
  0
MATERIAL
  5
36C
102
{ACAD_REACTORS
330
36A
102
}
330
36A
100
AcDbMaterial
  1
ByBlock
 72
     1
 94
      127
  0
MATERIAL
  5
36B
102
{ACAD_REACTORS
330
36A
102
}
330
36A
100
AcDbMaterial
  1
ByLayer
 72
     1
 94
      127
  0
MATERIAL
  5
36D
102
{ACAD_REACTORS
330
36A
102
}
330
36A
100
AcDbMaterial
  1
Global
 72
     1
 94
      127
  0
MLEADERSTYLE
  5
371
102
{ACAD_REACTORS
330
370
102
}
330
370
100
AcDbMLeaderStyle
179
     2
170
     2
171
     1
172
     0
 90
        2
 40
0.0
 41
0.0
173
     1
 91
-1056964608
340
11
 92
       -2
290
     1
 42
0.09
291
     1
 43
0.36
  3
Standard
341
0
 44
0.18
300

342
17
174
     1
178
     6
175
     1
176
     0
 93
-1056964608
 45
0.18
292
     0
297
     0
 46
0.18
343
0
 94
-1056964608
 47
1.0
 49
1.0
140
1.0
293
     1
141
0.0
294
     1
177
     0
142
1.0
295
     0
296
     0
143
0.125
271
     0
272
     9
273
     9
  0
MLINESTYLE
  5
1C
102
{ACAD_REACTORS
330
1B
102
}
330
1B
100
AcDbMlineStyle
  2
Standard
 70
     0
  3

 62
     0
 51
90.0
 52
90.0
 71
     2
 49
0.5
 62
   256
  6
BYLAYER
 49
-0.5
 62
   256
  6
BYLAYER
  0
ACDBPLACEHOLDER
  5
1D
102
{ACAD_REACTORS
330
1F
102
}
330
1F
  0
SCALE
  5
330
102
{ACAD_REACTORS
330
32F
102
}
330
32F
100
AcDbScale
 70
     0
300
1:1
140
1.0
141
1.0
290
     1
  0
SCALE
  5
331
102
{ACAD_REACTORS
330
32F
102
}
330
32F
100
AcDbScale
 70
     0
300
1:2
140
1.0
141
2.0
290
     0
  0
SCALE
  5
332
102
{ACAD_REACTORS
330
32F
102
}
330
32F
100
AcDbScale
 70
     0
300
1:4
140
1.0
141
4.0
290
     0
  0
SCALE
  5
333
102
{ACAD_REACTORS
330
32F
102
}
330
32F
100
AcDbScale
 70
     0
300
1:5
140
1.0
141
5.0
290
     0
  0
SCALE
  5
334
102
{ACAD_REACTORS
330
32F
102
}
330
32F
100
AcDbScale
 70
     0
300
1:8
140
1.0
141
8.0
290
     0
  0
SCALE
  5
335
102
{ACAD_REACTORS
330
32F
102
}
330
32F
100
AcDbScale
 70
     0
300
1:10
140
1.0
141
10.0
290
     0
  0
SCALE
  5
336
102
{ACAD_REACTORS
330
32F
102
}
330
32F
100
AcDbScale
 70
     0
300
1:16
140
1.0
141
16.0
290
     0
  0
SCALE
  5
337
102
{ACAD_REACTORS
330
32F
102
}
330
32F
100
AcDbScale
 70
     0
300
1:20
140
1.0
141
20.0
290
     0
  0
SCALE
  5
338
102
{ACAD_REACTORS
330
32F
102
}
330
32F
100
AcDbScale
 70
     0
300
1:30
140
1.0
141
30.0
290
     0
  0
SCALE
  5
339
102
{ACAD_REACTORS
330
32F
102
}
330
32F
100
AcDbScale
 70
     0
300
1:40
140
1.0
141
40.0
290
     0
  0
SCALE
  5
33A
102
{ACAD_REACTORS
330
32F
102
}
330
32F
100
AcDbScale
 70
     0
300
1:50
140
1.0
141
50.0
290
     0
  0
SCALE
  5
33B
102
{ACAD_REACTORS
330
32F
102
}
330
32F
100
AcDbScale
 70
     0
300
1:100
140
1.0
141
100.0
290
     0
  0
SCALE
  5
33C
102
{ACAD_REACTORS
330
32F
102
}
330
32F
100
AcDbScale
 70
     0
300
2:1
140
2.0
141
1.0
290
     0
  0
SCALE
  5
33D
102
{ACAD_REACTORS
330
32F
102
}
330
32F
100
AcDbScale
 70
     0
300
4:1
140
4.0
141
1.0
290
     0
  0
SCALE
  5
33E
102
{ACAD_REACTORS
330
32F
102
}
330
32F
100
AcDbScale
 70
     0
300
8:1
140
8.0
141
1.0
290
     0
  0
SCALE
  5
33F
102
{ACAD_REACTORS
330
32F
102
}
330
32F
100
AcDbScale
 70
     0
300
10:1
140
10.0
141
1.0
290
     0
  0
SCALE
  5
340
102
{ACAD_REACTORS
330
32F
102
}
330
32F
100
AcDbScale
 70
     0
300
100:1
140
100.0
141
1.0
290
     0
  0
SCALE
  5
341
102
{ACAD_REACTORS
330
32F
102
}
330
32F
100
AcDbScale
 70
     0
300
1/128" = 1'-0"
140
0.0078125
141
12.0
290
     0
  0
SCALE
  5
342
102
{ACAD_REACTORS
330
32F
102
}
330
32F
100
AcDbScale
 70
     0
300
1/64" = 1'-0"
140
0.015625
141
12.0
290
     0
  0
SCALE
  5
343
102
{ACAD_REACTORS
330
32F
102
}
330
32F
100
AcDbScale
 70
     0
300
1/32" = 1'-0"
140
0.03125
141
12.0
290
     0
  0
SCALE
  5
344
102
{ACAD_REACTORS
330
32F
102
}
330
32F
100
AcDbScale
 70
     0
300
1/16" = 1'-0"
140
0.0625
141
12.0
290
     0
  0
SCALE
  5
345
102
{ACAD_REACTORS
330
32F
102
}
330
32F
100
AcDbScale
 70
     0
300
3/32" = 1'-0"
140
0.09375
141
12.0
290
     0
  0
SCALE
  5
346
102
{ACAD_REACTORS
330
32F
102
}
330
32F
100
AcDbScale
 70
     0
300
1/8" = 1'-0"
140
0.125
141
12.0
290
     0
  0
SCALE
  5
347
102
{ACAD_REACTORS
330
32F
102
}
330
32F
100
AcDbScale
 70
     0
300
3/16" = 1'-0"
140
0.1875
141
12.0
290
     0
  0
SCALE
  5
348
102
{ACAD_REACTORS
330
32F
102
}
330
32F
100
AcDbScale
 70
     0
300
1/4" = 1'-0"
140
0.25
141
12.0
290
     0
  0
SCALE
  5
349
102
{ACAD_REACTORS
330
32F
102
}
330
32F
100
AcDbScale
 70
     0
300
3/8" = 1'-0"
140
0.375
141
12.0
290
     0
  0
SCALE
  5
34A
102
{ACAD_REACTORS
330
32F
102
}
330
32F
100
AcDbScale
 70
     0
300
1/2" = 1'-0"
140
0.5
141
12.0
290
     0
  0
SCALE
  5
34B
102
{ACAD_REACTORS
330
32F
102
}
330
32F
100
AcDbScale
 70
     0
300
3/4" = 1'-0"
140
0.75
141
12.0
290
     0
  0
SCALE
  5
34C
102
{ACAD_REACTORS
330
32F
102
}
330
32F
100
AcDbScale
 70
     0
300
1" = 1'-0"
140
1.0
141
12.0
290
     0
  0
SCALE
  5
34D
102
{ACAD_REACTORS
330
32F
102
}
330
32F
100
AcDbScale
 70
     0
300
1-1/2" = 1'-0"
140
1.5
141
12.0
290
     0
  0
SCALE
  5
34E
102
{ACAD_REACTORS
330
32F
102
}
330
32F
100
AcDbScale
 70
     0
300
3" = 1'-0"
140
3.0
141
12.0
290
     0
  0
SCALE
  5
34F
102
{ACAD_REACTORS
330
32F
102
}
330
32F
100
AcDbScale
 70
     0
300
6" = 1'-0"
140
6.0
141
12.0
290
     0
  0
SCALE
  5
350
102
{ACAD_REACTORS
330
32F
102
}
330
32F
100
AcDbScale
 70
     0
300
1'-0" = 1'-0"
140
12.0
141
12.0
290
     0
  0
TABLESTYLE
  5
36F
102
{ACAD_REACTORS
330
36E
102
}
102
{ACAD_XDICTIONARY
360
3A4
102
}
330
36E
100
AcDbTableStyle
  3
Standard
 70
     0
 71
     0
 40
0.06
 41
0.06
280
     0
281
     0
  7
Standard
140
0.18
170
     2
 62
     0
 63
   257
283
     0
 90
        4
 91
        0
  1

274
    -2
284
     1
 64
     0
275
    -2
285
     1
 65
     0
276
    -2
286
     1
 66
     0
277
    -2
287
     1
 67
     0
278
    -2
288
     1
 68
     0
279
    -2
289
     1
 69
     0
  7
Standard
140
0.25
170
     5
 62
     0
 63
   257
283
     0
 90
        4
 91
        0
  1

274
    -2
284
     1
 64
     0
275
    -2
285
     1
 65
     0
276
    -2
286
     1
 66
     0
277
    -2
287
     1
 67
     0
278
    -2
288
     1
 68
     0
279
    -2
289
     1
 69
     0
  7
Standard
140
0.18
170
     5
 62
     0
 63
   257
283
     0
 90
        4
 91
        0
  1

274
    -2
284
     1
 64
     0
275
    -2
285
     1
 65
     0
276
    -2
286
     1
 66
     0
277
    -2
287
     1
 67
     0
278
    -2
288
     1
 68
     0
279
    -2
289
     1
 69
     0
  0
VISUALSTYLE
  5
356
102
{ACAD_REACTORS
330
351
102
}
102
{ACAD_XDICTIONARY
360
37C
102
}
330
351
100
AcDbVisualStyle
  2
2dWireframe
 70
     4
177
     2
291
     0
 71
     0
176
     1
 72
     2
176
     1
 73
     0
176
     1
 90
        0
176
     1
 40
0.6
176
     1
 41
30.0
176
     1
 62
     5
 63
     7
421
 16777215
176
     1
 74
     1
176
     1
 91
        4
176
     1
 64
     7
176
     1
 65
   257
176
     1
 75
     1
176
     1
175
     1
176
     1
 42
1.0
176
     1
 92
        0
176
     1
 66
   257
176
     1
 43
1.0
176
     1
 76
     1
176
     1
 77
     6
176
     1
 78
     2
176
     1
 67
     7
176
     1
 79
     5
176
     1
170
     0
176
     1
171
     0
176
     1
290
     0
176
     1
 93
        1
176
     1
 44
0.0
176
     1
173
     0
176
     1
  0
VISUALSTYLE
  5
359
102
{ACAD_REACTORS
330
351
102
}
102
{ACAD_XDICTIONARY
360
382
102
}
330
351
100
AcDbVisualStyle
  2
Basic
 70
     7
177
     2
291
     1
 71
     1
176
     1
 72
     0
176
     1
 73
     1
176
     1
 90
        0
176
     1
 40
0.6
176
     1
 41
30.0
176
     1
 62
     5
 63
     7
421
 16777215
176
     1
 74
     0
176
     1
 91
        4
176
     1
 64
     7
176
     1
 65
   257
176
     1
 75
     1
176
     1
175
     1
176
     1
 42
1.0
176
     1
 92
        8
176
     1
 66
     7
176
     1
 43
1.0
176
     1
 76
     1
176
     1
 77
     6
176
     1
 78
     2
176
     1
 67
     7
176
     1
 79
     5
176
     1
170
     0
176
     1
171
     0
176
     1
290
     0
176
     1
 93
        1
176
     1
 44
0.0
176
     1
173
     0
176
     1
  0
VISUALSTYLE
  5
35D
102
{ACAD_REACTORS
330
351
102
}
102
{ACAD_XDICTIONARY
360
38A
102
}
330
351
100
AcDbVisualStyle
  2
Brighten
 70
    12
177
     2
291
     1
 71
     2
176
     1
 72
     2
176
     1
 73
     0
176
     1
 90
        0
176
     1
 40
0.6
176
     1
 41
30.0
176
     1
 62
     5
 63
     7
421
 16777215
176
     1
 74
     1
176
     1
 91
        4
176
     1
 64
     7
176
     1
 65
   257
176
     1
 75
     1
176
     1
175
     1
176
     1
 42
1.0
176
     1
 92
        8
176
     1
 66
     7
176
     1
 43
1.0
176
     1
 76
     1
176
     1
 77
     6
176
     1
 78
     2
176
     1
 67
     7
176
     1
 79
     5
176
     1
170
     0
176
     1
171
     0
176
     1
290
     0
176
     1
 93
        1
176
     1
 44
50.0
176
     1
173
     0
176
     1
  0
VISUALSTYLE
  5
361
102
{ACAD_REACTORS
330
351
102
}
102
{ACAD_XDICTIONARY
360
392
102
}
330
351
100
AcDbVisualStyle
  2
ColorChange
 70
    16
177
     2
291
     1
 71
     2
176
     1
 72
     2
176
     1
 73
     3
176
     1
 90
        0
176
     1
 40
0.6
176
     1
 41
30.0
176
     1
 62
     5
 63
     8
421
  8421504
176
     1
 74
     1
176
     1
 91
        4
176
     1
 64
     7
176
     1
 65
   257
176
     1
 75
     1
176
     1
175
     1
176
     1
 42
1.0
176
     1
 92
        8
176
     1
 66
     8
424
  8421504
176
     1
 43
1.0
176
     1
 76
     1
176
     1
 77
     6
176
     1
 78
     2
176
     1
 67
     7
176
     1
 79
     5
176
     1
170
     0
176
     1
171
     0
176
     1
290
     0
176
     1
 93
        1
176
     1
 44
0.0
176
     1
173
     0
176
     1
  0
VISUALSTYLE
  5
35B
102
{ACAD_REACTORS
330
351
102
}
102
{ACAD_XDICTIONARY
360
386
102
}
330
351
100
AcDbVisualStyle
  2
Conceptual
 70
     9
177
     2
291
     0
 71
     3
176
     1
 72
     2
176
     1
 73
     0
176
     1
 90
        0
176
     1
 40
0.6
176
     1
 41
30.0
176
     1
 62
     5
 63
     7
421
 16777215
176
     1
 74
     2
176
     1
 91
        2
176
     1
 64
     7
176
     1
 65
   257
176
     1
 75
     1
176
     1
175
     1
176
     1
 42
179.0
176
     1
 92
        8
176
     1
 66
     7
176
     1
 43
1.0
176
     1
 76
     1
176
     1
 77
     6
176
     1
 78
     2
176
     1
 67
     7
176
     1
 79
     3
176
     1
170
     0
176
     1
171
     0
176
     1
290
     0
176
     1
 93
        1
176
     1
 44
0.0
176
     1
173
     0
176
     1
  0
VISUALSTYLE
  5
35C
102
{ACAD_REACTORS
330
351
102
}
102
{ACAD_XDICTIONARY
360
388
102
}
330
351
100
AcDbVisualStyle
  2
Dim
 70
    11
177
     2
291
     1
 71
     2
176
     1
 72
     2
176
     1
 73
     0
176
     1
 90
        0
176
     1
 40
0.6
176
     1
 41
30.0
176
     1
 62
     5
 63
     7
421
 16777215
176
     1
 74
     1
176
     1
 91
        4
176
     1
 64
     7
176
     1
 65
   257
176
     1
 75
     1
176
     1
175
     1
176
     1
 42
1.0
176
     1
 92
        8
176
     1
 66
     7
176
     1
 43
1.0
176
     1
 76
     1
176
     1
 77
     6
176
     1
 78
     2
176
     1
 67
     7
176
     1
 79
     5
176
     1
170
     0
176
     1
171
     0
176
     1
290
     0
176
     1
 93
        1
176
     1
 44
-50.0
176
     1
173
     0
176
     1
  0
VISUALSTYLE
  5
364
102
{ACAD_REACTORS
330
351
102
}
102
{ACAD_XDICTIONARY
360
398
102
}
330
351
100
AcDbVisualStyle
  2
EdgeColorOff
 70
    22
177
     2
291
     1
 71
     2
176
     0
 72
     2
176
     0
 73
     0
176
     0
 90
        0
176
     0
 40
0.6
176
     0
 41
30.0
176
     0
 62
     5
 63
     7
421
 16777215
176
     0
 74
     1
176
     0
 91
        4
176
     0
 64
     7
176
     0
 65
   257
176
     0
 75
     1
176
     0
175
     1
176
     0
 42
1.0
176
     0
 92
        8
176
     2
 66
     7
176
     0
 43
1.0
176
     0
 76
     1
176
     0
 77
     6
176
     0
 78
     2
176
     0
 67
     7
176
     0
 79
     5
176
     0
170
     0
176
     0
171
     0
176
     0
290
     0
176
     0
 93
        1
176
     0
 44
0.0
176
     0
173
     0
176
     0
  0
VISUALSTYLE
  5
360
102
{ACAD_REACTORS
330
351
102
}
102
{ACAD_XDICTIONARY
360
390
102
}
330
351
100
AcDbVisualStyle
  2
Facepattern
 70
    15
177
     2
291
     1
 71
     2
176
     1
 72
     2
176
     1
 73
     0
176
     1
 90
        0
176
     1
 40
0.6
176
     1
 41
30.0
176
     1
 62
     5
 63
     7
421
 16777215
176
     1
 74
     1
176
     1
 91
        4
176
     1
 64
     7
176
     1
 65
   257
176
     1
 75
     1
176
     1
175
     1
176
     1
 42
1.0
176
     1
 92
        8
176
     1
 66
     7
176
     1
 43
1.0
176
     1
 76
     1
176
     1
 77
     6
176
     1
 78
     2
176
     1
 67
     7
176
     1
 79
     5
176
     1
170
     0
176
     1
171
     0
176
     1
290
     0
176
     1
 93
        1
176
     1
 44
0.0
176
     1
173
     0
176
     1
  0
VISUALSTYLE
  5
352
102
{ACAD_REACTORS
330
351
102
}
102
{ACAD_XDICTIONARY
360
374
102
}
330
351
100
AcDbVisualStyle
  2
Flat
 70
     0
177
     2
291
     1
 71
     2
176
     1
 72
     1
176
     1
 73
     1
176
     1
 90
        2
176
     1
 40
0.6
176
     1
 41
30.0
176
     1
 62
     5
 63
     7
421
 16777215
176
     1
 74
     0
176
     1
 91
        0
176
     1
 64
     7
176
     1
 65
   257
176
     1
 75
     1
176
     1
175
     1
176
     1
 42
1.0
176
     1
 92
        8
176
     1
 66
     7
176
     1
 43
1.0
176
     1
 76
     1
176
     1
 77
     6
176
     1
 78
     2
176
     1
 67
     7
176
     1
 79
     5
176
     1
170
     0
176
     1
171
     0
176
     1
290
     0
176
     1
 93
       13
176
     1
 44
0.0
176
     1
173
     0
176
     1
  0
VISUALSTYLE
  5
353
102
{ACAD_REACTORS
330
351
102
}
102
{ACAD_XDICTIONARY
360
376
102
}
330
351
100
AcDbVisualStyle
  2
FlatWithEdges
 70
     1
177
     2
291
     1
 71
     2
176
     1
 72
     1
176
     1
 73
     1
176
     1
 90
        2
176
     1
 40
0.6
176
     1
 41
30.0
176
     1
 62
     5
 63
     7
421
 16777215
176
     1
 74
     1
176
     1
 91
        0
176
     1
 64
     7
176
     1
 65
   257
176
     1
 75
     1
176
     1
175
     1
176
     1
 42
1.0
176
     1
 92
        0
176
     1
 66
   257
176
     1
 43
1.0
176
     1
 76
     1
176
     1
 77
     6
176
     1
 78
     2
176
     1
 67
     7
176
     1
 79
     5
176
     1
170
     0
176
     1
171
     0
176
     1
290
     0
176
     1
 93
       13
176
     1
 44
0.0
176
     1
173
     0
176
     1
  0
VISUALSTYLE
  5
354
102
{ACAD_REACTORS
330
351
102
}
102
{ACAD_XDICTIONARY
360
378
102
}
330
351
100
AcDbVisualStyle
  2
Gouraud
 70
     2
177
     2
291
     1
 71
     2
176
     1
 72
     2
176
     1
 73
     1
176
     1
 90
        2
176
     1
 40
0.6
176
     1
 41
30.0
176
     1
 62
     5
 63
     7
421
 16777215
176
     1
 74
     0
176
     1
 91
        0
176
     1
 64
     7
176
     1
 65
   257
176
     1
 75
     1
176
     1
175
     1
176
     1
 42
1.0
176
     1
 92
        0
176
     1
 66
     7
176
     1
 43
1.0
176
     1
 76
     1
176
     1
 77
     6
176
     1
 78
     2
176
     1
 67
     7
176
     1
 79
     5
176
     1
170
     0
176
     1
171
     0
176
     1
290
     0
176
     1
 93
       13
176
     1
 44
0.0
176
     1
173
     0
176
     1
  0
VISUALSTYLE
  5
355
102
{ACAD_REACTORS
330
351
102
}
102
{ACAD_XDICTIONARY
360
37A
102
}
330
351
100
AcDbVisualStyle
  2
GouraudWithEdges
 70
     3
177
     2
291
     1
 71
     2
176
     1
 72
     2
176
     1
 73
     1
176
     1
 90
        2
176
     1
 40
0.6
176
     1
 41
30.0
176
     1
 62
     5
 63
     7
421
 16777215
176
     1
 74
     1
176
     1
 91
        0
176
     1
 64
     7
176
     1
 65
   257
176
     1
 75
     1
176
     1
175
     1
176
     1
 42
1.0
176
     1
 92
        0
176
     1
 66
   257
176
     1
 43
1.0
176
     1
 76
     1
176
     1
 77
     6
176
     1
 78
     2
176
     1
 67
     7
176
     1
 79
     5
176
     1
170
     0
176
     1
171
     0
176
     1
290
     0
176
     1
 93
       13
176
     1
 44
0.0
176
     1
173
     0
176
     1
  0
VISUALSTYLE
  5
358
102
{ACAD_REACTORS
330
351
102
}
102
{ACAD_XDICTIONARY
360
380
102
}
330
351
100
AcDbVisualStyle
  2
Hidden
 70
     6
177
     2
291
     0
 71
     1
176
     1
 72
     2
176
     1
 73
     2
176
     1
 90
        0
176
     1
 40
0.6
176
     1
 41
30.0
176
     1
 62
     5
 63
     7
421
 16777215
176
     1
 74
     2
176
     1
 91
        2
176
     1
 64
     7
176
     1
 65
   257
176
     1
 75
     2
176
     1
175
     1
176
     1
 42
40.0
176
     1
 92
        0
176
     1
 66
   257
176
     1
 43
1.0
176
     1
 76
     1
176
     1
 77
     6
176
     1
 78
     2
176
     1
 67
     7
176
     1
 79
     3
176
     1
170
     0
176
     1
171
     0
176
     1
290
     0
176
     1
 93
        1
176
     1
 44
0.0
176
     1
173
     0
176
     1
  0
VISUALSTYLE
  5
362
102
{ACAD_REACTORS
330
351
102
}
102
{ACAD_XDICTIONARY
360
394
102
}
330
351
100
AcDbVisualStyle
  2
JitterOff
 70
    20
177
     2
291
     1
 71
     2
176
     0
 72
     2
176
     0
 73
     0
176
     0
 90
        0
176
     0
 40
0.6
176
     0
 41
30.0
176
     0
 62
     5
 63
     7
421
 16777215
176
     0
 74
     1
176
     0
 91
        4
176
     0
 64
     7
176
     0
 65
   257
176
     0
 75
     1
176
     0
175
     1
176
     0
 42
1.0
176
     0
 92
       10
176
     2
 66
     7
176
     0
 43
1.0
176
     0
 76
     1
176
     0
 77
     6
176
     0
 78
     2
176
     0
 67
     7
176
     0
 79
     5
176
     0
170
     0
176
     0
171
     0
176
     0
290
     0
176
     0
 93
        1
176
     0
 44
0.0
176
     0
173
     0
176
     0
  0
VISUALSTYLE
  5
35F
102
{ACAD_REACTORS
330
351
102
}
102
{ACAD_XDICTIONARY
360
38E
102
}
330
351
100
AcDbVisualStyle
  2
Linepattern
 70
    14
177
     2
291
     1
 71
     2
176
     1
 72
     2
176
     1
 73
     0
176
     1
 90
        0
176
     1
 40
0.6
176
     1
 41
30.0
176
     1
 62
     5
 63
     7
421
 16777215
176
     1
 74
     1
176
     1
 91
        4
176
     1
 64
     7
176
     1
 65
   257
176
     1
 75
     7
176
     1
175
     7
176
     1
 42
1.0
176
     1
 92
        8
176
     1
 66
     7
176
     1
 43
1.0
176
     1
 76
     1
176
     1
 77
     6
176
     1
 78
     2
176
     1
 67
     7
176
     1
 79
     5
176
     1
170
     0
176
     1
171
     0
176
     1
290
     0
176
     1
 93
        1
176
     1
 44
0.0
176
     1
173
     0
176
     1
  0
VISUALSTYLE
  5
363
102
{ACAD_REACTORS
330
351
102
}
102
{ACAD_XDICTIONARY
360
396
102
}
330
351
100
AcDbVisualStyle
  2
OverhangOff
 70
    21
177
     2
291
     1
 71
     2
176
     0
 72
     2
176
     0
 73
     0
176
     0
 90
        0
176
     0
 40
0.6
176
     0
 41
30.0
176
     0
 62
     5
 63
     7
421
 16777215
176
     0
 74
     1
176
     0
 91
        4
176
     0
 64
     7
176
     0
 65
   257
176
     0
 75
     1
176
     0
175
     1
176
     0
 42
1.0
176
     0
 92
        9
176
     2
 66
     7
176
     0
 43
1.0
176
     0
 76
     1
176
     0
 77
     6
176
     0
 78
     2
176
     0
 67
     7
176
     0
 79
     5
176
     0
170
     0
176
     0
171
     0
176
     0
290
     0
176
     0
 93
        1
176
     0
 44
0.0
176
     0
173
     0
176
     0
  0
VISUALSTYLE
  5
35A
102
{ACAD_REACTORS
330
351
102
}
102
{ACAD_XDICTIONARY
360
384
102
}
330
351
100
AcDbVisualStyle
  2
Realistic
 70
     8
177
     2
291
     0
 71
     2
176
     1
 72
     3
176
     1
 73
     0
176
     1
 90
        2
176
     1
 40
0.6
176
     1
 41
30.0
176
     1
 62
     5
 63
     7
421
 16777215
176
     1
 74
     0
176
     1
 91
        0
176
     1
 64
     7
176
     1
 65
   257
176
     1
 75
     1
176
     1
175
     1
176
     1
 42
1.0
176
     1
 92
        8
176
     1
 66
   257
176
     1
 43
1.0
176
     1
 76
     1
176
     1
 77
     6
176
     1
 78
     2
176
     1
 67
     7
176
     1
 79
     3
176
     1
170
     0
176
     1
171
     0
176
     1
290
     0
176
     1
 93
       13
176
     1
 44
0.0
176
     1
173
     0
176
     1
  0
VISUALSTYLE
  5
369
102
{ACAD_REACTORS
330
351
102
}
102
{ACAD_XDICTIONARY
360
3A2
102
}
330
351
100
AcDbVisualStyle
  2
Shaded
 70
    27
177
     2
291
     0
 71
     2
176
     1
 72
     2
176
     1
 73
     1
176
     1
 90
        2
176
     1
 40
0.6
176
     1
 41
30.0
176
     1
 62
     5
 63
     7
421
 16777215
176
     1
 74
     0
176
     1
 91
        4
176
     1
 64
     7
176
     1
 65
   257
176
     1
 75
     1
176
     1
175
     1
176
     1
 42
1.0
176
     1
 92
        8
176
     1
 66
   257
176
     1
 43
1.0
176
     1
 76
     1
176
     1
 77
     6
176
     1
 78
     2
176
     1
 67
     8
425
  7895160
176
     1
 79
     3
176
     1
170
     0
176
     1
171
     0
176
     1
290
     0
176
     1
 93
        5
176
     1
 44
0.0
176
     1
173
     0
176
     1
  0
VISUALSTYLE
  5
368
102
{ACAD_REACTORS
330
351
102
}
102
{ACAD_XDICTIONARY
360
3A0
102
}
330
351
100
AcDbVisualStyle
  2
Shaded with edges
 70
    26
177
     2
291
     0
 71
     2
176
     1
 72
     2
176
     1
 73
     1
176
     1
 90
        2
176
     1
 40
0.6
176
     1
 41
30.0
176
     1
 62
     5
 63
     7
421
 16777215
176
     1
 74
     1
176
     1
 91
       10
176
     1
 64
     7
176
     1
 65
   257
176
     1
 75
     2
176
     1
175
     1
176
     1
 42
1.0
176
     1
 92
        8
176
     1
 66
   257
176
     1
 43
1.0
176
     1
 76
     1
176
     1
 77
     6
176
     1
 78
     2
176
     1
 67
     7
176
     1
 79
     3
176
     1
170
     0
176
     1
171
     0
176
     1
290
     0
176
     1
 93
        5
176
     1
 44
0.0
176
     1
173
     0
176
     1
  0
VISUALSTYLE
  5
365
102
{ACAD_REACTORS
330
351
102
}
102
{ACAD_XDICTIONARY
360
39A
102
}
330
351
100
AcDbVisualStyle
  2
Shades of Gray
 70
    23
177
     2
291
     0
 71
     2
176
     1
 72
     2
176
     1
 73
     3
176
     1
 90
        0
176
     1
 40
0.6
176
     1
 41
30.0
176
     1
 62
     5
 63
     7
421
 16777215
176
     1
 74
     2
176
     1
 91
        2
176
     1
 64
     7
176
     1
 65
     7
176
     1
 75
     1
176
     1
175
     1
176
     1
 42
40.0
176
     1
 92
        8
176
     1
 66
     7
176
     1
 43
1.0
176
     1
 76
     1
176
     1
 77
     6
176
     1
 78
     2
176
     1
 67
     7
176
     1
 79
     3
176
     1
170
     0
176
     1
171
     0
176
     1
290
     0
176
     1
 93
        1
176
     1
 44
0.0
176
     1
173
     0
176
     1
  0
VISUALSTYLE
  5
366
102
{ACAD_REACTORS
330
351
102
}
102
{ACAD_XDICTIONARY
360
39C
102
}
330
351
100
AcDbVisualStyle
  2
Sketchy
 70
    24
177
     2
291
     0
 71
     1
176
     1
 72
     2
176
     1
 73
     2
176
     1
 90
        0
176
     1
 40
0.6
176
     1
 41
30.0
176
     1
 62
     5
 63
     7
421
 16777215
176
     1
 74
     2
176
     1
 91
        2
176
     1
 64
     7
176
     1
 65
     7
176
     1
 75
     1
176
     1
175
     1
176
     1
 42
40.0
176
     1
 92
       11
176
     1
 66
     7
176
     1
 43
1.0
176
     1
 76
     1
176
     1
 77
     6
176
     1
 78
     2
176
     1
 67
     7
176
     1
 79
     6
176
     1
170
     0
176
     1
171
     0
176
     1
290
     0
176
     1
 93
        1
176
     1
 44
0.0
176
     1
173
     0
176
     1
  0
VISUALSTYLE
  5
35E
102
{ACAD_REACTORS
330
351
102
}
102
{ACAD_XDICTIONARY
360
38C
102
}
330
351
100
AcDbVisualStyle
  2
Thicken
 70
    13
177
     2
291
     1
 71
     2
176
     1
 72
     2
176
     1
 73
     0
176
     1
 90
        0
176
     1
 40
0.6
176
     1
 41
30.0
176
     1
 62
     5
 63
     7
421
 16777215
176
     1
 74
     1
176
     1
 91
        4
176
     1
 64
     7
176
     1
 65
   257
176
     1
 75
     1
176
     1
175
     1
176
     1
 42
1.0
176
     1
 92
       12
176
     1
 66
     7
176
     1
 43
1.0
176
     1
 76
     1
176
     1
 77
     6
176
     1
 78
     2
176
     1
 67
     7
176
     1
 79
     5
176
     1
170
     0
176
     1
171
     0
176
     1
290
     0
176
     1
 93
        1
176
     1
 44
0.0
176
     1
173
     0
176
     1
  0
VISUALSTYLE
  5
357
102
{ACAD_REACTORS
330
351
102
}
102
{ACAD_XDICTIONARY
360
37E
102
}
330
351
100
AcDbVisualStyle
  2
Wireframe
 70
     5
177
     2
291
     0
 71
     0
176
     1
 72
     2
176
     1
 73
     0
176
     1
 90
        0
176
     1
 40
0.6
176
     1
 41
30.0
176
     1
 62
     5
 63
     7
421
 16777215
176
     1
 74
     1
176
     1
 91
        4
176
     1
 64
     7
176
     1
 65
   257
176
     1
 75
     1
176
     1
175
     1
176
     1
 42
1.0
176
     1
 92
        0
176
     1
 66
   257
176
     1
 43
1.0
176
     1
 76
     1
176
     1
 77
     6
176
     1
 78
     2
176
     1
 67
     7
176
     1
 79
     3
176
     1
170
     0
176
     1
171
     0
176
     1
290
     0
176
     1
 93
        1
176
     1
 44
0.0
176
     1
173
     0
176
     1
  0
VISUALSTYLE
  5
367
102
{ACAD_REACTORS
330
351
102
}
102
{ACAD_XDICTIONARY
360
39E
102
}
330
351
100
AcDbVisualStyle
  2
X-Ray
 70
    25
177
     2
291
     0
 71
     2
176
     1
 72
     2
176
     1
 73
     1
176
     1
 90
        1
176
     1
 40
0.5
176
     1
 41
30.0
176
     1
 62
     5
 63
     7
421
 16777215
176
     1
 74
     1
176
     1
 91
        0
176
     1
 64
     7
176
     1
 65
   257
176
     1
 75
     1
176
     1
175
     1
176
     1
 42
1.0
176
     1
 92
        8
176
     1
 66
     7
176
     1
 43
1.0
176
     1
 76
     1
176
     1
 77
     6
176
     1
 78
     2
176
     1
 67
     7
176
     1
 79
     3
176
     1
170
     0
176
     1
171
     0
176
     1
290
     0
176
     1
 93
       13
176
     1
 44
0.0
176
     1
173
     0
176
     1
  0
DICTIONARYVAR
  5
373
102
{ACAD_REACTORS
330
372
102
}
330
372
100
DictionaryVariables
280
     0
  1
1:1
  0
DICTIONARYVAR
  5
3A8
102
{ACAD_REACTORS
330
372
102
}
330
372
100
DictionaryVariables
280
     0
  1
Standard
  0
DICTIONARYVAR
  5
3A7
102
{ACAD_REACTORS
330
372
102
}
330
372
100
DictionaryVariables
280
     0
  1
Standard
  0
DICTIONARYVAR
  5
3A9
102
{ACAD_REACTORS
330
372
102
}
330
372
100
DictionaryVariables
280
     0
  1
0
  0
DICTIONARY
  5
3A4
330
36F
100
AcDbDictionary
280
     1
281
     1
  3
ACAD_ROUNDTRIP_2008_TABLESTYLE_CELLSTYLEMAP
360
3A5
  0
DICTIONARY
  5
37C
330
356
100
AcDbDictionary
280
     1
281
     1
  3
ACAD_XREC_ROUNDTRIP
360
37D
  0
DICTIONARY
  5
382
330
359
100
AcDbDictionary
280
     1
281
     1
  3
ACAD_XREC_ROUNDTRIP
360
383
  0
DICTIONARY
  5
38A
330
35D
100
AcDbDictionary
280
     1
281
     1
  3
ACAD_XREC_ROUNDTRIP
360
38B
  0
DICTIONARY
  5
392
330
361
100
AcDbDictionary
280
     1
281
     1
  3
ACAD_XREC_ROUNDTRIP
360
393
  0
DICTIONARY
  5
386
330
35B
100
AcDbDictionary
280
     1
281
     1
  3
ACAD_XREC_ROUNDTRIP
360
387
  0
DICTIONARY
  5
388
330
35C
100
AcDbDictionary
280
     1
281
     1
  3
ACAD_XREC_ROUNDTRIP
360
389
  0
DICTIONARY
  5
398
330
364
100
AcDbDictionary
280
     1
281
     1
  3
ACAD_XREC_ROUNDTRIP
360
399
  0
DICTIONARY
  5
390
330
360
100
AcDbDictionary
280
     1
281
     1
  3
ACAD_XREC_ROUNDTRIP
360
391
  0
DICTIONARY
  5
374
330
352
100
AcDbDictionary
280
     1
281
     1
  3
ACAD_XREC_ROUNDTRIP
360
375
  0
DICTIONARY
  5
376
330
353
100
AcDbDictionary
280
     1
281
     1
  3
ACAD_XREC_ROUNDTRIP
360
377
  0
DICTIONARY
  5
378
330
354
100
AcDbDictionary
280
     1
281
     1
  3
ACAD_XREC_ROUNDTRIP
360
379
  0
DICTIONARY
  5
37A
330
355
100
AcDbDictionary
280
     1
281
     1
  3
ACAD_XREC_ROUNDTRIP
360
37B
  0
DICTIONARY
  5
380
330
358
100
AcDbDictionary
280
     1
281
     1
  3
ACAD_XREC_ROUNDTRIP
360
381
  0
DICTIONARY
  5
394
330
362
100
AcDbDictionary
280
     1
281
     1
  3
ACAD_XREC_ROUNDTRIP
360
395
  0
DICTIONARY
  5
38E
330
35F
100
AcDbDictionary
280
     1
281
     1
  3
ACAD_XREC_ROUNDTRIP
360
38F
  0
DICTIONARY
  5
396
330
363
100
AcDbDictionary
280
     1
281
     1
  3
ACAD_XREC_ROUNDTRIP
360
397
  0
DICTIONARY
  5
384
330
35A
100
AcDbDictionary
280
     1
281
     1
  3
ACAD_XREC_ROUNDTRIP
360
385
  0
DICTIONARY
  5
3A2
330
369
100
AcDbDictionary
280
     1
281
     1
  3
ACAD_XREC_ROUNDTRIP
360
3A3
  0
DICTIONARY
  5
3A0
330
368
100
AcDbDictionary
280
     1
281
     1
  3
ACAD_XREC_ROUNDTRIP
360
3A1
  0
DICTIONARY
  5
39A
330
365
100
AcDbDictionary
280
     1
281
     1
  3
ACAD_XREC_ROUNDTRIP
360
39B
  0
DICTIONARY
  5
39C
330
366
100
AcDbDictionary
280
     1
281
     1
  3
ACAD_XREC_ROUNDTRIP
360
39D
  0
DICTIONARY
  5
38C
330
35E
100
AcDbDictionary
280
     1
281
     1
  3
ACAD_XREC_ROUNDTRIP
360
38D
  0
DICTIONARY
  5
37E
330
357
100
AcDbDictionary
280
     1
281
     1
  3
ACAD_XREC_ROUNDTRIP
360
37F
  0
DICTIONARY
  5
39E
330
367
100
AcDbDictionary
280
     1
281
     1
  3
ACAD_XREC_ROUNDTRIP
360
39F
  0
CELLSTYLEMAP
  5
3A5
102
{ACAD_REACTORS
330
3A4
102
}
330
3A4
100
AcDbCellStyleMap
 90
        3
300
CELLSTYLE
  1
TABLEFORMAT_BEGIN
 90
        5
170
     1
 91
        0
 92
    32768
 62
   257
 93
        1
300
CONTENTFORMAT
  1
CONTENTFORMAT_BEGIN
 90
        0
 91
        0
 92
        4
 93
        0
300

 40
0.0
140
1.0
 94
        5
 62
     0
340
17
144
0.25
309
CONTENTFORMAT_END
171
     1
301
MARGIN
  1
CELLMARGIN_BEGIN
 40
0.06
 40
0.06
 40
0.06
 40
0.06
 40
0.06
 40
0.06
309
CELLMARGIN_END
 94
        6
 95
        1
302
GRIDFORMAT
  1
GRIDFORMAT_BEGIN
 90
        0
 91
        1
 62
     0
 92
       -2
340
11
 93
        0
 40
0.045
309
GRIDFORMAT_END
 95
        2
302
GRIDFORMAT
  1
GRIDFORMAT_BEGIN
 90
        0
 91
        1
 62
     0
 92
       -2
340
11
 93
        0
 40
0.045
309
GRIDFORMAT_END
 95
        4
302
GRIDFORMAT
  1
GRIDFORMAT_BEGIN
 90
        0
 91
        1
 62
     0
 92
       -2
340
11
 93
        0
 40
0.045
309
GRIDFORMAT_END
 95
        8
302
GRIDFORMAT
  1
GRIDFORMAT_BEGIN
 90
        0
 91
        1
 62
     0
 92
       -2
340
11
 93
        0
 40
0.045
309
GRIDFORMAT_END
 95
       16
302
GRIDFORMAT
  1
GRIDFORMAT_BEGIN
 90
        0
 91
        1
 62
     0
 92
       -2
340
11
 93
        0
 40
0.045
309
GRIDFORMAT_END
 95
       32
302
GRIDFORMAT
  1
GRIDFORMAT_BEGIN
 90
        0
 91
        1
 62
     0
 92
       -2
340
11
 93
        0
 40
0.045
309
GRIDFORMAT_END
309
TABLEFORMAT_END
  1
CELLSTYLE_BEGIN
 90
        1
 91
        1
300
_TITLE
309
CELLSTYLE_END
300
CELLSTYLE
  1
TABLEFORMAT_BEGIN
 90
        5
170
     1
 91
        0
 92
        0
 62
   257
 93
        1
300
CONTENTFORMAT
  1
CONTENTFORMAT_BEGIN
 90
        0
 91
        0
 92
        4
 93
        0
300

 40
0.0
140
1.0
 94
        5
 62
     0
340
17
144
0.18
309
CONTENTFORMAT_END
171
     1
301
MARGIN
  1
CELLMARGIN_BEGIN
 40
0.06
 40
0.06
 40
0.06
 40
0.06
 40
0.06
 40
0.06
309
CELLMARGIN_END
 94
        6
 95
        1
302
GRIDFORMAT
  1
GRIDFORMAT_BEGIN
 90
        0
 91
        1
 62
     0
 92
       -2
340
11
 93
        0
 40
0.045
309
GRIDFORMAT_END
 95
        2
302
GRIDFORMAT
  1
GRIDFORMAT_BEGIN
 90
        0
 91
        1
 62
     0
 92
       -2
340
11
 93
        0
 40
0.045
309
GRIDFORMAT_END
 95
        4
302
GRIDFORMAT
  1
GRIDFORMAT_BEGIN
 90
        0
 91
        1
 62
     0
 92
       -2
340
11
 93
        0
 40
0.045
309
GRIDFORMAT_END
 95
        8
302
GRIDFORMAT
  1
GRIDFORMAT_BEGIN
 90
        0
 91
        1
 62
     0
 92
       -2
340
11
 93
        0
 40
0.045
309
GRIDFORMAT_END
 95
       16
302
GRIDFORMAT
  1
GRIDFORMAT_BEGIN
 90
        0
 91
        1
 62
     0
 92
       -2
340
11
 93
        0
 40
0.045
309
GRIDFORMAT_END
 95
       32
302
GRIDFORMAT
  1
GRIDFORMAT_BEGIN
 90
        0
 91
        1
 62
     0
 92
       -2
340
11
 93
        0
 40
0.045
309
GRIDFORMAT_END
309
TABLEFORMAT_END
  1
CELLSTYLE_BEGIN
 90
        2
 91
        1
300
_HEADER
309
CELLSTYLE_END
300
CELLSTYLE
  1
TABLEFORMAT_BEGIN
 90
        5
170
     1
 91
        0
 92
        0
 62
   257
 93
        1
300
CONTENTFORMAT
  1
CONTENTFORMAT_BEGIN
 90
        0
 91
        0
 92
        4
 93
        0
300

 40
0.0
140
1.0
 94
        2
 62
     0
340
17
144
0.18
309
CONTENTFORMAT_END
171
     1
301
MARGIN
  1
CELLMARGIN_BEGIN
 40
0.06
 40
0.06
 40
0.06
 40
0.06
 40
0.06
 40
0.06
309
CELLMARGIN_END
 94
        6
 95
        1
302
GRIDFORMAT
  1
GRIDFORMAT_BEGIN
 90
        0
 91
        1
 62
     0
 92
       -2
340
11
 93
        0
 40
0.045
309
GRIDFORMAT_END
 95
        2
302
GRIDFORMAT
  1
GRIDFORMAT_BEGIN
 90
        0
 91
        1
 62
     0
 92
       -2
340
11
 93
        0
 40
0.045
309
GRIDFORMAT_END
 95
        4
302
GRIDFORMAT
  1
GRIDFORMAT_BEGIN
 90
        0
 91
        1
 62
     0
 92
       -2
340
11
 93
        0
 40
0.045
309
GRIDFORMAT_END
 95
        8
302
GRIDFORMAT
  1
GRIDFORMAT_BEGIN
 90
        0
 91
        1
 62
     0
 92
       -2
340
11
 93
        0
 40
0.045
309
GRIDFORMAT_END
 95
       16
302
GRIDFORMAT
  1
GRIDFORMAT_BEGIN
 90
        0
 91
        1
 62
     0
 92
       -2
340
11
 93
        0
 40
0.045
309
GRIDFORMAT_END
 95
       32
302
GRIDFORMAT
  1
GRIDFORMAT_BEGIN
 90
        0
 91
        1
 62
     0
 92
       -2
340
11
 93
        0
 40
0.045
309
GRIDFORMAT_END
309
TABLEFORMAT_END
  1
CELLSTYLE_BEGIN
 90
        3
 91
        2
300
_DATA
309
CELLSTYLE_END
  0
XRECORD
  5
37D
102
{ACAD_REACTORS
330
37C
102
}
330
37C
100
AcDbXrecord
280
     1
102
RTVSPost2010Prop28
280
     1
102
RTVSPost2010PropOp28
 70
     1
102
RTVSPost2010Prop29
280
     1
102
RTVSPost2010PropOp29
 70
     1
102
RTVSPost2010Prop30
280
     0
102
RTVSPost2010PropOp30
 70
     1
102
RTVSPost2010Prop31
280
     0
102
RTVSPost2010PropOp31
 70
     1
102
RTVSPost2010Prop32
280
     0
102
RTVSPost2010PropOp32
 70
     1
102
RTVSPost2010Prop33
280
     0
102
RTVSPost2010PropOp33
 70
     1
102
RTVSPost2010Prop34
280
     0
102
RTVSPost2010PropOp34
 70
     1
102
RTVSPost2010Prop35
280
     0
102
RTVSPost2010PropOp35
 70
     1
102
RTVSPost2010Prop36
280
     0
102
RTVSPost2010PropOp36
 70
     1
102
RTVSPost2010Prop37
 90
       50
102
RTVSPost2010PropOp37
 70
     1
102
RTVSPost2010Prop38
140
0.0
102
RTVSPost2010PropOp38
 70
     1
102
RTVSPost2010Prop39
140
1.0
102
RTVSPost2010PropOp39
 70
     1
102
RTVSPost2010Prop40
 90
        0
102
RTVSPost2010PropOp40
 70
     1
102
RTVSPost2010Prop41ColorIndex
 90
       18
102
RTVSPost2010Prop41ColorRGB
 90
        0
102
RTVSPost2010PropOp41
 70
     1
102
RTVSPost2010Prop42
 90
       50
102
RTVSPost2010PropOp42
 70
     1
102
RTVSPost2010Prop43
 90
        3
102
RTVSPost2010PropOp43
 70
     1
102
RTVSPost2010Prop44ColorIndex
 90
        5
102
RTVSPost2010Prop44ColorRGB
 90
      255
102
RTVSPost2010PropOp44
 70
     1
102
RTVSPost2010Prop45
280
     0
102
RTVSPost2010PropOp45
 70
     1
102
RTVSPost2010Prop46
 90
       50
102
RTVSPost2010PropOp46
 70
     1
102
RTVSPost2010Prop47
 90
       50
102
RTVSPost2010PropOp47
 70
     1
102
RTVSPost2010Prop48
 90
       50
102
RTVSPost2010PropOp48
 70
     1
102
RTVSPost2010Prop49
280
     0
102
RTVSPost2010PropOp49
 70
     1
102
RTVSPost2010Prop50
 90
       50
102
RTVSPost2010PropOp50
 70
     1
102
RTVSPost2010Prop51ColorIndex
 90
      256
102
RTVSPost2010Prop51ColorRGB
 90
-16777216
102
RTVSPost2010PropOp51
 70
     0
102
RTVSPost2010Prop52
140
1.0
102
RTVSPost2010PropOp52
 70
     0
102
RTVSPost2010Prop53
 90
        2
102
RTVSPost2010PropOp53
 70
     1
102
RTVSPost2010Prop54
  1
strokes_ogs.tif
102
RTVSPost2010PropOp54
 70
     1
102
RTVSPost2010Prop55
280
     0
102
RTVSPost2010PropOp55
 70
     1
102
RTVSPost2010Prop56
140
1.0
102
RTVSPost2010PropOp56
 70
     1
102
RTVSPost2010Prop57
140
1.0
102
RTVSPost2010PropOp57
 70
     1
  0
XRECORD
  5
383
102
{ACAD_REACTORS
330
382
102
}
330
382
100
AcDbXrecord
280
     1
102
RTVSPost2010Prop28
280
     0
102
RTVSPost2010PropOp28
 70
     1
102
RTVSPost2010Prop29
280
     1
102
RTVSPost2010PropOp29
 70
     1
102
RTVSPost2010Prop30
280
     1
102
RTVSPost2010PropOp30
 70
     1
102
RTVSPost2010Prop31
280
     0
102
RTVSPost2010PropOp31
 70
     1
102
RTVSPost2010Prop32
280
     0
102
RTVSPost2010PropOp32
 70
     1
102
RTVSPost2010Prop33
280
     0
102
RTVSPost2010PropOp33
 70
     1
102
RTVSPost2010Prop34
280
     0
102
RTVSPost2010PropOp34
 70
     1
102
RTVSPost2010Prop35
280
     0
102
RTVSPost2010PropOp35
 70
     1
102
RTVSPost2010Prop36
280
     0
102
RTVSPost2010PropOp36
 70
     1
102
RTVSPost2010Prop37
 90
       50
102
RTVSPost2010PropOp37
 70
     1
102
RTVSPost2010Prop38
140
0.0
102
RTVSPost2010PropOp38
 70
     1
102
RTVSPost2010Prop39
140
1.0
102
RTVSPost2010PropOp39
 70
     1
102
RTVSPost2010Prop40
 90
        0
102
RTVSPost2010PropOp40
 70
     1
102
RTVSPost2010Prop41ColorIndex
 90
       18
102
RTVSPost2010Prop41ColorRGB
 90
        0
102
RTVSPost2010PropOp41
 70
     1
102
RTVSPost2010Prop42
 90
       50
102
RTVSPost2010PropOp42
 70
     1
102
RTVSPost2010Prop43
 90
        3
102
RTVSPost2010PropOp43
 70
     1
102
RTVSPost2010Prop44ColorIndex
 90
        5
102
RTVSPost2010Prop44ColorRGB
 90
      255
102
RTVSPost2010PropOp44
 70
     1
102
RTVSPost2010Prop45
280
     0
102
RTVSPost2010PropOp45
 70
     1
102
RTVSPost2010Prop46
 90
       50
102
RTVSPost2010PropOp46
 70
     1
102
RTVSPost2010Prop47
 90
       50
102
RTVSPost2010PropOp47
 70
     1
102
RTVSPost2010Prop48
 90
       50
102
RTVSPost2010PropOp48
 70
     1
102
RTVSPost2010Prop49
280
     0
102
RTVSPost2010PropOp49
 70
     1
102
RTVSPost2010Prop50
 90
       50
102
RTVSPost2010PropOp50
 70
     1
102
RTVSPost2010Prop51ColorIndex
 90
      256
102
RTVSPost2010Prop51ColorRGB
 90
-16777216
102
RTVSPost2010PropOp51
 70
     0
102
RTVSPost2010Prop52
140
1.0
102
RTVSPost2010PropOp52
 70
     0
102
RTVSPost2010Prop53
 90
        2
102
RTVSPost2010PropOp53
 70
     1
102
RTVSPost2010Prop54
  1
strokes_ogs.tif
102
RTVSPost2010PropOp54
 70
     1
102
RTVSPost2010Prop55
280
     0
102
RTVSPost2010PropOp55
 70
     1
102
RTVSPost2010Prop56
140
1.0
102
RTVSPost2010PropOp56
 70
     1
102
RTVSPost2010Prop57
140
1.0
102
RTVSPost2010PropOp57
 70
     1
  0
XRECORD
  5
38B
102
{ACAD_REACTORS
330
38A
102
}
330
38A
100
AcDbXrecord
280
     1
102
RTVSPost2010Prop28
280
     0
102
RTVSPost2010PropOp28
 70
     1
102
RTVSPost2010Prop29
280
     1
102
RTVSPost2010PropOp29
 70
     1
102
RTVSPost2010Prop30
280
     1
102
RTVSPost2010PropOp30
 70
     1
102
RTVSPost2010Prop31
280
     0
102
RTVSPost2010PropOp31
 70
     1
102
RTVSPost2010Prop32
280
     0
102
RTVSPost2010PropOp32
 70
     1
102
RTVSPost2010Prop33
280
     0
102
RTVSPost2010PropOp33
 70
     1
102
RTVSPost2010Prop34
280
     0
102
RTVSPost2010PropOp34
 70
     1
102
RTVSPost2010Prop35
280
     0
102
RTVSPost2010PropOp35
 70
     1
102
RTVSPost2010Prop36
280
     0
102
RTVSPost2010PropOp36
 70
     1
102
RTVSPost2010Prop37
 90
       50
102
RTVSPost2010PropOp37
 70
     1
102
RTVSPost2010Prop38
140
0.0
102
RTVSPost2010PropOp38
 70
     1
102
RTVSPost2010Prop39
140
1.0
102
RTVSPost2010PropOp39
 70
     1
102
RTVSPost2010Prop40
 90
        0
102
RTVSPost2010PropOp40
 70
     1
102
RTVSPost2010Prop41ColorIndex
 90
       18
102
RTVSPost2010Prop41ColorRGB
 90
        0
102
RTVSPost2010PropOp41
 70
     1
102
RTVSPost2010Prop42
 90
       50
102
RTVSPost2010PropOp42
 70
     1
102
RTVSPost2010Prop43
 90
        3
102
RTVSPost2010PropOp43
 70
     1
102
RTVSPost2010Prop44ColorIndex
 90
        5
102
RTVSPost2010Prop44ColorRGB
 90
      255
102
RTVSPost2010PropOp44
 70
     1
102
RTVSPost2010Prop45
280
     0
102
RTVSPost2010PropOp45
 70
     1
102
RTVSPost2010Prop46
 90
       50
102
RTVSPost2010PropOp46
 70
     1
102
RTVSPost2010Prop47
 90
       50
102
RTVSPost2010PropOp47
 70
     1
102
RTVSPost2010Prop48
 90
       50
102
RTVSPost2010PropOp48
 70
     1
102
RTVSPost2010Prop49
280
     0
102
RTVSPost2010PropOp49
 70
     1
102
RTVSPost2010Prop50
 90
       50
102
RTVSPost2010PropOp50
 70
     1
102
RTVSPost2010Prop51ColorIndex
 90
      256
102
RTVSPost2010Prop51ColorRGB
 90
-16777216
102
RTVSPost2010PropOp51
 70
     0
102
RTVSPost2010Prop52
140
1.0
102
RTVSPost2010PropOp52
 70
     0
102
RTVSPost2010Prop53
 90
        2
102
RTVSPost2010PropOp53
 70
     1
102
RTVSPost2010Prop54
  1
strokes_ogs.tif
102
RTVSPost2010PropOp54
 70
     1
102
RTVSPost2010Prop55
280
     0
102
RTVSPost2010PropOp55
 70
     1
102
RTVSPost2010Prop56
140
1.0
102
RTVSPost2010PropOp56
 70
     1
102
RTVSPost2010Prop57
140
1.0
102
RTVSPost2010PropOp57
 70
     1
  0
XRECORD
  5
393
102
{ACAD_REACTORS
330
392
102
}
330
392
100
AcDbXrecord
280
     1
102
RTVSPost2010Prop28
280
     0
102
RTVSPost2010PropOp28
 70
     1
102
RTVSPost2010Prop29
280
     1
102
RTVSPost2010PropOp29
 70
     1
102
RTVSPost2010Prop30
280
     1
102
RTVSPost2010PropOp30
 70
     1
102
RTVSPost2010Prop31
280
     0
102
RTVSPost2010PropOp31
 70
     1
102
RTVSPost2010Prop32
280
     0
102
RTVSPost2010PropOp32
 70
     1
102
RTVSPost2010Prop33
280
     0
102
RTVSPost2010PropOp33
 70
     1
102
RTVSPost2010Prop34
280
     0
102
RTVSPost2010PropOp34
 70
     1
102
RTVSPost2010Prop35
280
     0
102
RTVSPost2010PropOp35
 70
     1
102
RTVSPost2010Prop36
280
     0
102
RTVSPost2010PropOp36
 70
     1
102
RTVSPost2010Prop37
 90
       50
102
RTVSPost2010PropOp37
 70
     1
102
RTVSPost2010Prop38
140
0.0
102
RTVSPost2010PropOp38
 70
     1
102
RTVSPost2010Prop39
140
1.0
102
RTVSPost2010PropOp39
 70
     1
102
RTVSPost2010Prop40
 90
        0
102
RTVSPost2010PropOp40
 70
     1
102
RTVSPost2010Prop41ColorIndex
 90
       18
102
RTVSPost2010Prop41ColorRGB
 90
        0
102
RTVSPost2010PropOp41
 70
     1
102
RTVSPost2010Prop42
 90
       50
102
RTVSPost2010PropOp42
 70
     1
102
RTVSPost2010Prop43
 90
        3
102
RTVSPost2010PropOp43
 70
     1
102
RTVSPost2010Prop44ColorIndex
 90
        5
102
RTVSPost2010Prop44ColorRGB
 90
      255
102
RTVSPost2010PropOp44
 70
     1
102
RTVSPost2010Prop45
280
     0
102
RTVSPost2010PropOp45
 70
     1
102
RTVSPost2010Prop46
 90
       50
102
RTVSPost2010PropOp46
 70
     1
102
RTVSPost2010Prop47
 90
       50
102
RTVSPost2010PropOp47
 70
     1
102
RTVSPost2010Prop48
 90
       50
102
RTVSPost2010PropOp48
 70
     1
102
RTVSPost2010Prop49
280
     0
102
RTVSPost2010PropOp49
 70
     1
102
RTVSPost2010Prop50
 90
       50
102
RTVSPost2010PropOp50
 70
     1
102
RTVSPost2010Prop51ColorIndex
 90
      256
102
RTVSPost2010Prop51ColorRGB
 90
-16777216
102
RTVSPost2010PropOp51
 70
     0
102
RTVSPost2010Prop52
140
1.0
102
RTVSPost2010PropOp52
 70
     0
102
RTVSPost2010Prop53
 90
        2
102
RTVSPost2010PropOp53
 70
     1
102
RTVSPost2010Prop54
  1
strokes_ogs.tif
102
RTVSPost2010PropOp54
 70
     1
102
RTVSPost2010Prop55
280
     0
102
RTVSPost2010PropOp55
 70
     1
102
RTVSPost2010Prop56
140
1.0
102
RTVSPost2010PropOp56
 70
     1
102
RTVSPost2010Prop57
140
1.0
102
RTVSPost2010PropOp57
 70
     1
  0
XRECORD
  5
387
102
{ACAD_REACTORS
330
386
102
}
330
386
100
AcDbXrecord
280
     1
102
RTVSPost2010Prop28
280
     0
102
RTVSPost2010PropOp28
 70
     1
102
RTVSPost2010Prop29
280
     1
102
RTVSPost2010PropOp29
 70
     1
102
RTVSPost2010Prop30
280
     1
102
RTVSPost2010PropOp30
 70
     1
102
RTVSPost2010Prop31
280
     0
102
RTVSPost2010PropOp31
 70
     1
102
RTVSPost2010Prop32
280
     0
102
RTVSPost2010PropOp32
 70
     1
102
RTVSPost2010Prop33
280
     0
102
RTVSPost2010PropOp33
 70
     1
102
RTVSPost2010Prop34
280
     0
102
RTVSPost2010PropOp34
 70
     1
102
RTVSPost2010Prop35
280
     0
102
RTVSPost2010PropOp35
 70
     1
102
RTVSPost2010Prop36
280
     0
102
RTVSPost2010PropOp36
 70
     1
102
RTVSPost2010Prop37
 90
       50
102
RTVSPost2010PropOp37
 70
     1
102
RTVSPost2010Prop38
140
0.0
102
RTVSPost2010PropOp38
 70
     1
102
RTVSPost2010Prop39
140
1.0
102
RTVSPost2010PropOp39
 70
     1
102
RTVSPost2010Prop40
 90
        0
102
RTVSPost2010PropOp40
 70
     1
102
RTVSPost2010Prop41ColorIndex
 90
       18
102
RTVSPost2010Prop41ColorRGB
 90
        0
102
RTVSPost2010PropOp41
 70
     1
102
RTVSPost2010Prop42
 90
       50
102
RTVSPost2010PropOp42
 70
     1
102
RTVSPost2010Prop43
 90
        3
102
RTVSPost2010PropOp43
 70
     1
102
RTVSPost2010Prop44ColorIndex
 90
        5
102
RTVSPost2010Prop44ColorRGB
 90
      255
102
RTVSPost2010PropOp44
 70
     1
102
RTVSPost2010Prop45
280
     0
102
RTVSPost2010PropOp45
 70
     1
102
RTVSPost2010Prop46
 90
       50
102
RTVSPost2010PropOp46
 70
     1
102
RTVSPost2010Prop47
 90
       50
102
RTVSPost2010PropOp47
 70
     1
102
RTVSPost2010Prop48
 90
       50
102
RTVSPost2010PropOp48
 70
     1
102
RTVSPost2010Prop49
280
     0
102
RTVSPost2010PropOp49
 70
     1
102
RTVSPost2010Prop50
 90
       50
102
RTVSPost2010PropOp50
 70
     1
102
RTVSPost2010Prop51ColorIndex
 90
      256
102
RTVSPost2010Prop51ColorRGB
 90
-16777216
102
RTVSPost2010PropOp51
 70
     0
102
RTVSPost2010Prop52
140
1.0
102
RTVSPost2010PropOp52
 70
     0
102
RTVSPost2010Prop53
 90
        2
102
RTVSPost2010PropOp53
 70
     1
102
RTVSPost2010Prop54
  1
strokes_ogs.tif
102
RTVSPost2010PropOp54
 70
     1
102
RTVSPost2010Prop55
280
     0
102
RTVSPost2010PropOp55
 70
     1
102
RTVSPost2010Prop56
140
1.0
102
RTVSPost2010PropOp56
 70
     1
102
RTVSPost2010Prop57
140
1.0
102
RTVSPost2010PropOp57
 70
     1
  0
XRECORD
  5
389
102
{ACAD_REACTORS
330
388
102
}
330
388
100
AcDbXrecord
280
     1
102
RTVSPost2010Prop28
280
     0
102
RTVSPost2010PropOp28
 70
     1
102
RTVSPost2010Prop29
280
     1
102
RTVSPost2010PropOp29
 70
     1
102
RTVSPost2010Prop30
280
     1
102
RTVSPost2010PropOp30
 70
     1
102
RTVSPost2010Prop31
280
     0
102
RTVSPost2010PropOp31
 70
     1
102
RTVSPost2010Prop32
280
     0
102
RTVSPost2010PropOp32
 70
     1
102
RTVSPost2010Prop33
280
     0
102
RTVSPost2010PropOp33
 70
     1
102
RTVSPost2010Prop34
280
     0
102
RTVSPost2010PropOp34
 70
     1
102
RTVSPost2010Prop35
280
     0
102
RTVSPost2010PropOp35
 70
     1
102
RTVSPost2010Prop36
280
     0
102
RTVSPost2010PropOp36
 70
     1
102
RTVSPost2010Prop37
 90
       50
102
RTVSPost2010PropOp37
 70
     1
102
RTVSPost2010Prop38
140
0.0
102
RTVSPost2010PropOp38
 70
     1
102
RTVSPost2010Prop39
140
1.0
102
RTVSPost2010PropOp39
 70
     1
102
RTVSPost2010Prop40
 90
        0
102
RTVSPost2010PropOp40
 70
     1
102
RTVSPost2010Prop41ColorIndex
 90
       18
102
RTVSPost2010Prop41ColorRGB
 90
        0
102
RTVSPost2010PropOp41
 70
     1
102
RTVSPost2010Prop42
 90
       50
102
RTVSPost2010PropOp42
 70
     1
102
RTVSPost2010Prop43
 90
        3
102
RTVSPost2010PropOp43
 70
     1
102
RTVSPost2010Prop44ColorIndex
 90
        5
102
RTVSPost2010Prop44ColorRGB
 90
      255
102
RTVSPost2010PropOp44
 70
     1
102
RTVSPost2010Prop45
280
     0
102
RTVSPost2010PropOp45
 70
     1
102
RTVSPost2010Prop46
 90
       50
102
RTVSPost2010PropOp46
 70
     1
102
RTVSPost2010Prop47
 90
       50
102
RTVSPost2010PropOp47
 70
     1
102
RTVSPost2010Prop48
 90
       50
102
RTVSPost2010PropOp48
 70
     1
102
RTVSPost2010Prop49
280
     0
102
RTVSPost2010PropOp49
 70
     1
102
RTVSPost2010Prop50
 90
       50
102
RTVSPost2010PropOp50
 70
     1
102
RTVSPost2010Prop51ColorIndex
 90
      256
102
RTVSPost2010Prop51ColorRGB
 90
-16777216
102
RTVSPost2010PropOp51
 70
     0
102
RTVSPost2010Prop52
140
1.0
102
RTVSPost2010PropOp52
 70
     0
102
RTVSPost2010Prop53
 90
        2
102
RTVSPost2010PropOp53
 70
     1
102
RTVSPost2010Prop54
  1
strokes_ogs.tif
102
RTVSPost2010PropOp54
 70
     1
102
RTVSPost2010Prop55
280
     0
102
RTVSPost2010PropOp55
 70
     1
102
RTVSPost2010Prop56
140
1.0
102
RTVSPost2010PropOp56
 70
     1
102
RTVSPost2010Prop57
140
1.0
102
RTVSPost2010PropOp57
 70
     1
  0
XRECORD
  5
399
102
{ACAD_REACTORS
330
398
102
}
330
398
100
AcDbXrecord
280
     1
102
RTVSPost2010Prop28
280
     0
102
RTVSPost2010PropOp28
 70
     0
102
RTVSPost2010Prop29
280
     1
102
RTVSPost2010PropOp29
 70
     0
102
RTVSPost2010Prop30
280
     1
102
RTVSPost2010PropOp30
 70
     0
102
RTVSPost2010Prop31
280
     0
102
RTVSPost2010PropOp31
 70
     0
102
RTVSPost2010Prop32
280
     0
102
RTVSPost2010PropOp32
 70
     0
102
RTVSPost2010Prop33
280
     0
102
RTVSPost2010PropOp33
 70
     0
102
RTVSPost2010Prop34
280
     0
102
RTVSPost2010PropOp34
 70
     0
102
RTVSPost2010Prop35
280
     0
102
RTVSPost2010PropOp35
 70
     0
102
RTVSPost2010Prop36
280
     0
102
RTVSPost2010PropOp36
 70
     0
102
RTVSPost2010Prop37
 90
       50
102
RTVSPost2010PropOp37
 70
     0
102
RTVSPost2010Prop38
140
0.0
102
RTVSPost2010PropOp38
 70
     0
102
RTVSPost2010Prop39
140
1.0
102
RTVSPost2010PropOp39
 70
     0
102
RTVSPost2010Prop40
 90
        0
102
RTVSPost2010PropOp40
 70
     0
102
RTVSPost2010Prop41ColorIndex
 90
       18
102
RTVSPost2010Prop41ColorRGB
 90
        0
102
RTVSPost2010PropOp41
 70
     0
102
RTVSPost2010Prop42
 90
       50
102
RTVSPost2010PropOp42
 70
     0
102
RTVSPost2010Prop43
 90
        3
102
RTVSPost2010PropOp43
 70
     0
102
RTVSPost2010Prop44ColorIndex
 90
        5
102
RTVSPost2010Prop44ColorRGB
 90
      255
102
RTVSPost2010PropOp44
 70
     0
102
RTVSPost2010Prop45
280
     0
102
RTVSPost2010PropOp45
 70
     0
102
RTVSPost2010Prop46
 90
       50
102
RTVSPost2010PropOp46
 70
     0
102
RTVSPost2010Prop47
 90
       50
102
RTVSPost2010PropOp47
 70
     0
102
RTVSPost2010Prop48
 90
       50
102
RTVSPost2010PropOp48
 70
     0
102
RTVSPost2010Prop49
280
     0
102
RTVSPost2010PropOp49
 70
     0
102
RTVSPost2010Prop50
 90
       50
102
RTVSPost2010PropOp50
 70
     0
102
RTVSPost2010Prop51ColorIndex
 90
      256
102
RTVSPost2010Prop51ColorRGB
 90
-16777216
102
RTVSPost2010PropOp51
 70
     0
102
RTVSPost2010Prop52
140
1.0
102
RTVSPost2010PropOp52
 70
     0
102
RTVSPost2010Prop53
 90
        2
102
RTVSPost2010PropOp53
 70
     0
102
RTVSPost2010Prop54
  1
strokes_ogs.tif
102
RTVSPost2010PropOp54
 70
     0
102
RTVSPost2010Prop55
280
     0
102
RTVSPost2010PropOp55
 70
     0
102
RTVSPost2010Prop56
140
1.0
102
RTVSPost2010PropOp56
 70
     0
102
RTVSPost2010Prop57
140
1.0
102
RTVSPost2010PropOp57
 70
     0
  0
XRECORD
  5
391
102
{ACAD_REACTORS
330
390
102
}
330
390
100
AcDbXrecord
280
     1
102
RTVSPost2010Prop28
280
     0
102
RTVSPost2010PropOp28
 70
     1
102
RTVSPost2010Prop29
280
     1
102
RTVSPost2010PropOp29
 70
     1
102
RTVSPost2010Prop30
280
     1
102
RTVSPost2010PropOp30
 70
     1
102
RTVSPost2010Prop31
280
     0
102
RTVSPost2010PropOp31
 70
     1
102
RTVSPost2010Prop32
280
     0
102
RTVSPost2010PropOp32
 70
     1
102
RTVSPost2010Prop33
280
     0
102
RTVSPost2010PropOp33
 70
     1
102
RTVSPost2010Prop34
280
     0
102
RTVSPost2010PropOp34
 70
     1
102
RTVSPost2010Prop35
280
     0
102
RTVSPost2010PropOp35
 70
     1
102
RTVSPost2010Prop36
280
     0
102
RTVSPost2010PropOp36
 70
     1
102
RTVSPost2010Prop37
 90
       50
102
RTVSPost2010PropOp37
 70
     1
102
RTVSPost2010Prop38
140
0.0
102
RTVSPost2010PropOp38
 70
     1
102
RTVSPost2010Prop39
140
1.0
102
RTVSPost2010PropOp39
 70
     1
102
RTVSPost2010Prop40
 90
        0
102
RTVSPost2010PropOp40
 70
     1
102
RTVSPost2010Prop41ColorIndex
 90
       18
102
RTVSPost2010Prop41ColorRGB
 90
        0
102
RTVSPost2010PropOp41
 70
     1
102
RTVSPost2010Prop42
 90
       50
102
RTVSPost2010PropOp42
 70
     1
102
RTVSPost2010Prop43
 90
        3
102
RTVSPost2010PropOp43
 70
     1
102
RTVSPost2010Prop44ColorIndex
 90
        5
102
RTVSPost2010Prop44ColorRGB
 90
      255
102
RTVSPost2010PropOp44
 70
     1
102
RTVSPost2010Prop45
280
     0
102
RTVSPost2010PropOp45
 70
     1
102
RTVSPost2010Prop46
 90
       50
102
RTVSPost2010PropOp46
 70
     1
102
RTVSPost2010Prop47
 90
       50
102
RTVSPost2010PropOp47
 70
     1
102
RTVSPost2010Prop48
 90
       50
102
RTVSPost2010PropOp48
 70
     1
102
RTVSPost2010Prop49
280
     0
102
RTVSPost2010PropOp49
 70
     1
102
RTVSPost2010Prop50
 90
       50
102
RTVSPost2010PropOp50
 70
     1
102
RTVSPost2010Prop51ColorIndex
 90
      256
102
RTVSPost2010Prop51ColorRGB
 90
-16777216
102
RTVSPost2010PropOp51
 70
     0
102
RTVSPost2010Prop52
140
1.0
102
RTVSPost2010PropOp52
 70
     0
102
RTVSPost2010Prop53
 90
        2
102
RTVSPost2010PropOp53
 70
     1
102
RTVSPost2010Prop54
  1
strokes_ogs.tif
102
RTVSPost2010PropOp54
 70
     1
102
RTVSPost2010Prop55
280
     0
102
RTVSPost2010PropOp55
 70
     1
102
RTVSPost2010Prop56
140
1.0
102
RTVSPost2010PropOp56
 70
     1
102
RTVSPost2010Prop57
140
1.0
102
RTVSPost2010PropOp57
 70
     1
  0
XRECORD
  5
375
102
{ACAD_REACTORS
330
374
102
}
330
374
100
AcDbXrecord
280
     1
102
RTVSPost2010Prop28
280
     0
102
RTVSPost2010PropOp28
 70
     1
102
RTVSPost2010Prop29
280
     1
102
RTVSPost2010PropOp29
 70
     1
102
RTVSPost2010Prop30
280
     1
102
RTVSPost2010PropOp30
 70
     1
102
RTVSPost2010Prop31
280
     0
102
RTVSPost2010PropOp31
 70
     1
102
RTVSPost2010Prop32
280
     0
102
RTVSPost2010PropOp32
 70
     1
102
RTVSPost2010Prop33
280
     0
102
RTVSPost2010PropOp33
 70
     1
102
RTVSPost2010Prop34
280
     0
102
RTVSPost2010PropOp34
 70
     1
102
RTVSPost2010Prop35
280
     0
102
RTVSPost2010PropOp35
 70
     1
102
RTVSPost2010Prop36
280
     0
102
RTVSPost2010PropOp36
 70
     1
102
RTVSPost2010Prop37
 90
       50
102
RTVSPost2010PropOp37
 70
     1
102
RTVSPost2010Prop38
140
0.0
102
RTVSPost2010PropOp38
 70
     1
102
RTVSPost2010Prop39
140
1.0
102
RTVSPost2010PropOp39
 70
     1
102
RTVSPost2010Prop40
 90
        0
102
RTVSPost2010PropOp40
 70
     1
102
RTVSPost2010Prop41ColorIndex
 90
       18
102
RTVSPost2010Prop41ColorRGB
 90
        0
102
RTVSPost2010PropOp41
 70
     1
102
RTVSPost2010Prop42
 90
       50
102
RTVSPost2010PropOp42
 70
     1
102
RTVSPost2010Prop43
 90
        3
102
RTVSPost2010PropOp43
 70
     1
102
RTVSPost2010Prop44ColorIndex
 90
        5
102
RTVSPost2010Prop44ColorRGB
 90
      255
102
RTVSPost2010PropOp44
 70
     1
102
RTVSPost2010Prop45
280
     0
102
RTVSPost2010PropOp45
 70
     1
102
RTVSPost2010Prop46
 90
       50
102
RTVSPost2010PropOp46
 70
     1
102
RTVSPost2010Prop47
 90
       50
102
RTVSPost2010PropOp47
 70
     1
102
RTVSPost2010Prop48
 90
       50
102
RTVSPost2010PropOp48
 70
     1
102
RTVSPost2010Prop49
280
     0
102
RTVSPost2010PropOp49
 70
     1
102
RTVSPost2010Prop50
 90
       50
102
RTVSPost2010PropOp50
 70
     1
102
RTVSPost2010Prop51ColorIndex
 90
      256
102
RTVSPost2010Prop51ColorRGB
 90
-16777216
102
RTVSPost2010PropOp51
 70
     0
102
RTVSPost2010Prop52
140
1.0
102
RTVSPost2010PropOp52
 70
     0
102
RTVSPost2010Prop53
 90
        2
102
RTVSPost2010PropOp53
 70
     1
102
RTVSPost2010Prop54
  1
strokes_ogs.tif
102
RTVSPost2010PropOp54
 70
     1
102
RTVSPost2010Prop55
280
     0
102
RTVSPost2010PropOp55
 70
     1
102
RTVSPost2010Prop56
140
1.0
102
RTVSPost2010PropOp56
 70
     1
102
RTVSPost2010Prop57
140
1.0
102
RTVSPost2010PropOp57
 70
     1
  0
XRECORD
  5
377
102
{ACAD_REACTORS
330
376
102
}
330
376
100
AcDbXrecord
280
     1
102
RTVSPost2010Prop28
280
     0
102
RTVSPost2010PropOp28
 70
     1
102
RTVSPost2010Prop29
280
     1
102
RTVSPost2010PropOp29
 70
     1
102
RTVSPost2010Prop30
280
     1
102
RTVSPost2010PropOp30
 70
     1
102
RTVSPost2010Prop31
280
     0
102
RTVSPost2010PropOp31
 70
     1
102
RTVSPost2010Prop32
280
     0
102
RTVSPost2010PropOp32
 70
     1
102
RTVSPost2010Prop33
280
     0
102
RTVSPost2010PropOp33
 70
     1
102
RTVSPost2010Prop34
280
     0
102
RTVSPost2010PropOp34
 70
     1
102
RTVSPost2010Prop35
280
     0
102
RTVSPost2010PropOp35
 70
     1
102
RTVSPost2010Prop36
280
     0
102
RTVSPost2010PropOp36
 70
     1
102
RTVSPost2010Prop37
 90
       50
102
RTVSPost2010PropOp37
 70
     1
102
RTVSPost2010Prop38
140
0.0
102
RTVSPost2010PropOp38
 70
     1
102
RTVSPost2010Prop39
140
1.0
102
RTVSPost2010PropOp39
 70
     1
102
RTVSPost2010Prop40
 90
        0
102
RTVSPost2010PropOp40
 70
     1
102
RTVSPost2010Prop41ColorIndex
 90
       18
102
RTVSPost2010Prop41ColorRGB
 90
        0
102
RTVSPost2010PropOp41
 70
     1
102
RTVSPost2010Prop42
 90
       50
102
RTVSPost2010PropOp42
 70
     1
102
RTVSPost2010Prop43
 90
        3
102
RTVSPost2010PropOp43
 70
     1
102
RTVSPost2010Prop44ColorIndex
 90
        5
102
RTVSPost2010Prop44ColorRGB
 90
      255
102
RTVSPost2010PropOp44
 70
     1
102
RTVSPost2010Prop45
280
     0
102
RTVSPost2010PropOp45
 70
     1
102
RTVSPost2010Prop46
 90
       50
102
RTVSPost2010PropOp46
 70
     1
102
RTVSPost2010Prop47
 90
       50
102
RTVSPost2010PropOp47
 70
     1
102
RTVSPost2010Prop48
 90
       50
102
RTVSPost2010PropOp48
 70
     1
102
RTVSPost2010Prop49
280
     0
102
RTVSPost2010PropOp49
 70
     1
102
RTVSPost2010Prop50
 90
       50
102
RTVSPost2010PropOp50
 70
     1
102
RTVSPost2010Prop51ColorIndex
 90
      256
102
RTVSPost2010Prop51ColorRGB
 90
-16777216
102
RTVSPost2010PropOp51
 70
     0
102
RTVSPost2010Prop52
140
1.0
102
RTVSPost2010PropOp52
 70
     0
102
RTVSPost2010Prop53
 90
        2
102
RTVSPost2010PropOp53
 70
     1
102
RTVSPost2010Prop54
  1
strokes_ogs.tif
102
RTVSPost2010PropOp54
 70
     1
102
RTVSPost2010Prop55
280
     0
102
RTVSPost2010PropOp55
 70
     1
102
RTVSPost2010Prop56
140
1.0
102
RTVSPost2010PropOp56
 70
     1
102
RTVSPost2010Prop57
140
1.0
102
RTVSPost2010PropOp57
 70
     1
  0
XRECORD
  5
379
102
{ACAD_REACTORS
330
378
102
}
330
378
100
AcDbXrecord
280
     1
102
RTVSPost2010Prop28
280
     0
102
RTVSPost2010PropOp28
 70
     1
102
RTVSPost2010Prop29
280
     1
102
RTVSPost2010PropOp29
 70
     1
102
RTVSPost2010Prop30
280
     1
102
RTVSPost2010PropOp30
 70
     1
102
RTVSPost2010Prop31
280
     0
102
RTVSPost2010PropOp31
 70
     1
102
RTVSPost2010Prop32
280
     0
102
RTVSPost2010PropOp32
 70
     1
102
RTVSPost2010Prop33
280
     0
102
RTVSPost2010PropOp33
 70
     1
102
RTVSPost2010Prop34
280
     0
102
RTVSPost2010PropOp34
 70
     1
102
RTVSPost2010Prop35
280
     0
102
RTVSPost2010PropOp35
 70
     1
102
RTVSPost2010Prop36
280
     0
102
RTVSPost2010PropOp36
 70
     1
102
RTVSPost2010Prop37
 90
       50
102
RTVSPost2010PropOp37
 70
     1
102
RTVSPost2010Prop38
140
0.0
102
RTVSPost2010PropOp38
 70
     1
102
RTVSPost2010Prop39
140
1.0
102
RTVSPost2010PropOp39
 70
     1
102
RTVSPost2010Prop40
 90
        0
102
RTVSPost2010PropOp40
 70
     1
102
RTVSPost2010Prop41ColorIndex
 90
       18
102
RTVSPost2010Prop41ColorRGB
 90
        0
102
RTVSPost2010PropOp41
 70
     1
102
RTVSPost2010Prop42
 90
       50
102
RTVSPost2010PropOp42
 70
     1
102
RTVSPost2010Prop43
 90
        3
102
RTVSPost2010PropOp43
 70
     1
102
RTVSPost2010Prop44ColorIndex
 90
        5
102
RTVSPost2010Prop44ColorRGB
 90
      255
102
RTVSPost2010PropOp44
 70
     1
102
RTVSPost2010Prop45
280
     0
102
RTVSPost2010PropOp45
 70
     1
102
RTVSPost2010Prop46
 90
       50
102
RTVSPost2010PropOp46
 70
     1
102
RTVSPost2010Prop47
 90
       50
102
RTVSPost2010PropOp47
 70
     1
102
RTVSPost2010Prop48
 90
       50
102
RTVSPost2010PropOp48
 70
     1
102
RTVSPost2010Prop49
280
     0
102
RTVSPost2010PropOp49
 70
     1
102
RTVSPost2010Prop50
 90
       50
102
RTVSPost2010PropOp50
 70
     1
102
RTVSPost2010Prop51ColorIndex
 90
      256
102
RTVSPost2010Prop51ColorRGB
 90
-16777216
102
RTVSPost2010PropOp51
 70
     0
102
RTVSPost2010Prop52
140
1.0
102
RTVSPost2010PropOp52
 70
     0
102
RTVSPost2010Prop53
 90
        2
102
RTVSPost2010PropOp53
 70
     1
102
RTVSPost2010Prop54
  1
strokes_ogs.tif
102
RTVSPost2010PropOp54
 70
     1
102
RTVSPost2010Prop55
280
     0
102
RTVSPost2010PropOp55
 70
     1
102
RTVSPost2010Prop56
140
1.0
102
RTVSPost2010PropOp56
 70
     1
102
RTVSPost2010Prop57
140
1.0
102
RTVSPost2010PropOp57
 70
     1
  0
XRECORD
  5
37B
102
{ACAD_REACTORS
330
37A
102
}
330
37A
100
AcDbXrecord
280
     1
102
RTVSPost2010Prop28
280
     0
102
RTVSPost2010PropOp28
 70
     1
102
RTVSPost2010Prop29
280
     1
102
RTVSPost2010PropOp29
 70
     1
102
RTVSPost2010Prop30
280
     1
102
RTVSPost2010PropOp30
 70
     1
102
RTVSPost2010Prop31
280
     0
102
RTVSPost2010PropOp31
 70
     1
102
RTVSPost2010Prop32
280
     0
102
RTVSPost2010PropOp32
 70
     1
102
RTVSPost2010Prop33
280
     0
102
RTVSPost2010PropOp33
 70
     1
102
RTVSPost2010Prop34
280
     0
102
RTVSPost2010PropOp34
 70
     1
102
RTVSPost2010Prop35
280
     0
102
RTVSPost2010PropOp35
 70
     1
102
RTVSPost2010Prop36
280
     0
102
RTVSPost2010PropOp36
 70
     1
102
RTVSPost2010Prop37
 90
       50
102
RTVSPost2010PropOp37
 70
     1
102
RTVSPost2010Prop38
140
0.0
102
RTVSPost2010PropOp38
 70
     1
102
RTVSPost2010Prop39
140
1.0
102
RTVSPost2010PropOp39
 70
     1
102
RTVSPost2010Prop40
 90
        0
102
RTVSPost2010PropOp40
 70
     1
102
RTVSPost2010Prop41ColorIndex
 90
       18
102
RTVSPost2010Prop41ColorRGB
 90
        0
102
RTVSPost2010PropOp41
 70
     1
102
RTVSPost2010Prop42
 90
       50
102
RTVSPost2010PropOp42
 70
     1
102
RTVSPost2010Prop43
 90
        3
102
RTVSPost2010PropOp43
 70
     1
102
RTVSPost2010Prop44ColorIndex
 90
        5
102
RTVSPost2010Prop44ColorRGB
 90
      255
102
RTVSPost2010PropOp44
 70
     1
102
RTVSPost2010Prop45
280
     0
102
RTVSPost2010PropOp45
 70
     1
102
RTVSPost2010Prop46
 90
       50
102
RTVSPost2010PropOp46
 70
     1
102
RTVSPost2010Prop47
 90
       50
102
RTVSPost2010PropOp47
 70
     1
102
RTVSPost2010Prop48
 90
       50
102
RTVSPost2010PropOp48
 70
     1
102
RTVSPost2010Prop49
280
     0
102
RTVSPost2010PropOp49
 70
     1
102
RTVSPost2010Prop50
 90
       50
102
RTVSPost2010PropOp50
 70
     1
102
RTVSPost2010Prop51ColorIndex
 90
      256
102
RTVSPost2010Prop51ColorRGB
 90
-16777216
102
RTVSPost2010PropOp51
 70
     0
102
RTVSPost2010Prop52
140
1.0
102
RTVSPost2010PropOp52
 70
     0
102
RTVSPost2010Prop53
 90
        2
102
RTVSPost2010PropOp53
 70
     1
102
RTVSPost2010Prop54
  1
strokes_ogs.tif
102
RTVSPost2010PropOp54
 70
     1
102
RTVSPost2010Prop55
280
     0
102
RTVSPost2010PropOp55
 70
     1
102
RTVSPost2010Prop56
140
1.0
102
RTVSPost2010PropOp56
 70
     1
102
RTVSPost2010Prop57
140
1.0
102
RTVSPost2010PropOp57
 70
     1
  0
XRECORD
  5
381
102
{ACAD_REACTORS
330
380
102
}
330
380
100
AcDbXrecord
280
     1
102
RTVSPost2010Prop28
280
     0
102
RTVSPost2010PropOp28
 70
     1
102
RTVSPost2010Prop29
280
     1
102
RTVSPost2010PropOp29
 70
     1
102
RTVSPost2010Prop30
280
     1
102
RTVSPost2010PropOp30
 70
     1
102
RTVSPost2010Prop31
280
     0
102
RTVSPost2010PropOp31
 70
     1
102
RTVSPost2010Prop32
280
     0
102
RTVSPost2010PropOp32
 70
     1
102
RTVSPost2010Prop33
280
     0
102
RTVSPost2010PropOp33
 70
     1
102
RTVSPost2010Prop34
280
     0
102
RTVSPost2010PropOp34
 70
     1
102
RTVSPost2010Prop35
280
     0
102
RTVSPost2010PropOp35
 70
     1
102
RTVSPost2010Prop36
280
     0
102
RTVSPost2010PropOp36
 70
     1
102
RTVSPost2010Prop37
 90
       50
102
RTVSPost2010PropOp37
 70
     1
102
RTVSPost2010Prop38
140
0.0
102
RTVSPost2010PropOp38
 70
     1
102
RTVSPost2010Prop39
140
1.0
102
RTVSPost2010PropOp39
 70
     1
102
RTVSPost2010Prop40
 90
        0
102
RTVSPost2010PropOp40
 70
     1
102
RTVSPost2010Prop41ColorIndex
 90
       18
102
RTVSPost2010Prop41ColorRGB
 90
        0
102
RTVSPost2010PropOp41
 70
     1
102
RTVSPost2010Prop42
 90
       50
102
RTVSPost2010PropOp42
 70
     1
102
RTVSPost2010Prop43
 90
        3
102
RTVSPost2010PropOp43
 70
     1
102
RTVSPost2010Prop44ColorIndex
 90
        5
102
RTVSPost2010Prop44ColorRGB
 90
      255
102
RTVSPost2010PropOp44
 70
     1
102
RTVSPost2010Prop45
280
     0
102
RTVSPost2010PropOp45
 70
     1
102
RTVSPost2010Prop46
 90
       50
102
RTVSPost2010PropOp46
 70
     1
102
RTVSPost2010Prop47
 90
       50
102
RTVSPost2010PropOp47
 70
     1
102
RTVSPost2010Prop48
 90
       50
102
RTVSPost2010PropOp48
 70
     1
102
RTVSPost2010Prop49
280
     0
102
RTVSPost2010PropOp49
 70
     1
102
RTVSPost2010Prop50
 90
       50
102
RTVSPost2010PropOp50
 70
     1
102
RTVSPost2010Prop51ColorIndex
 90
      256
102
RTVSPost2010Prop51ColorRGB
 90
-16777216
102
RTVSPost2010PropOp51
 70
     0
102
RTVSPost2010Prop52
140
1.0
102
RTVSPost2010PropOp52
 70
     0
102
RTVSPost2010Prop53
 90
        2
102
RTVSPost2010PropOp53
 70
     1
102
RTVSPost2010Prop54
  1
strokes_ogs.tif
102
RTVSPost2010PropOp54
 70
     1
102
RTVSPost2010Prop55
280
     0
102
RTVSPost2010PropOp55
 70
     1
102
RTVSPost2010Prop56
140
1.0
102
RTVSPost2010PropOp56
 70
     1
102
RTVSPost2010Prop57
140
1.0
102
RTVSPost2010PropOp57
 70
     1
  0
XRECORD
  5
395
102
{ACAD_REACTORS
330
394
102
}
330
394
100
AcDbXrecord
280
     1
102
RTVSPost2010Prop28
280
     0
102
RTVSPost2010PropOp28
 70
     0
102
RTVSPost2010Prop29
280
     1
102
RTVSPost2010PropOp29
 70
     0
102
RTVSPost2010Prop30
280
     1
102
RTVSPost2010PropOp30
 70
     0
102
RTVSPost2010Prop31
280
     0
102
RTVSPost2010PropOp31
 70
     0
102
RTVSPost2010Prop32
280
     0
102
RTVSPost2010PropOp32
 70
     0
102
RTVSPost2010Prop33
280
     0
102
RTVSPost2010PropOp33
 70
     0
102
RTVSPost2010Prop34
280
     0
102
RTVSPost2010PropOp34
 70
     0
102
RTVSPost2010Prop35
280
     0
102
RTVSPost2010PropOp35
 70
     0
102
RTVSPost2010Prop36
280
     0
102
RTVSPost2010PropOp36
 70
     0
102
RTVSPost2010Prop37
 90
       50
102
RTVSPost2010PropOp37
 70
     0
102
RTVSPost2010Prop38
140
0.0
102
RTVSPost2010PropOp38
 70
     0
102
RTVSPost2010Prop39
140
1.0
102
RTVSPost2010PropOp39
 70
     0
102
RTVSPost2010Prop40
 90
        0
102
RTVSPost2010PropOp40
 70
     0
102
RTVSPost2010Prop41ColorIndex
 90
       18
102
RTVSPost2010Prop41ColorRGB
 90
        0
102
RTVSPost2010PropOp41
 70
     0
102
RTVSPost2010Prop42
 90
       50
102
RTVSPost2010PropOp42
 70
     0
102
RTVSPost2010Prop43
 90
        3
102
RTVSPost2010PropOp43
 70
     0
102
RTVSPost2010Prop44ColorIndex
 90
        5
102
RTVSPost2010Prop44ColorRGB
 90
      255
102
RTVSPost2010PropOp44
 70
     0
102
RTVSPost2010Prop45
280
     0
102
RTVSPost2010PropOp45
 70
     0
102
RTVSPost2010Prop46
 90
       50
102
RTVSPost2010PropOp46
 70
     0
102
RTVSPost2010Prop47
 90
       50
102
RTVSPost2010PropOp47
 70
     0
102
RTVSPost2010Prop48
 90
       50
102
RTVSPost2010PropOp48
 70
     0
102
RTVSPost2010Prop49
280
     0
102
RTVSPost2010PropOp49
 70
     0
102
RTVSPost2010Prop50
 90
       50
102
RTVSPost2010PropOp50
 70
     0
102
RTVSPost2010Prop51ColorIndex
 90
      256
102
RTVSPost2010Prop51ColorRGB
 90
-16777216
102
RTVSPost2010PropOp51
 70
     0
102
RTVSPost2010Prop52
140
1.0
102
RTVSPost2010PropOp52
 70
     0
102
RTVSPost2010Prop53
 90
        2
102
RTVSPost2010PropOp53
 70
     0
102
RTVSPost2010Prop54
  1
strokes_ogs.tif
102
RTVSPost2010PropOp54
 70
     0
102
RTVSPost2010Prop55
280
     0
102
RTVSPost2010PropOp55
 70
     0
102
RTVSPost2010Prop56
140
1.0
102
RTVSPost2010PropOp56
 70
     0
102
RTVSPost2010Prop57
140
1.0
102
RTVSPost2010PropOp57
 70
     0
  0
XRECORD
  5
38F
102
{ACAD_REACTORS
330
38E
102
}
330
38E
100
AcDbXrecord
280
     1
102
RTVSPost2010Prop28
280
     0
102
RTVSPost2010PropOp28
 70
     1
102
RTVSPost2010Prop29
280
     1
102
RTVSPost2010PropOp29
 70
     1
102
RTVSPost2010Prop30
280
     1
102
RTVSPost2010PropOp30
 70
     1
102
RTVSPost2010Prop31
280
     0
102
RTVSPost2010PropOp31
 70
     1
102
RTVSPost2010Prop32
280
     0
102
RTVSPost2010PropOp32
 70
     1
102
RTVSPost2010Prop33
280
     0
102
RTVSPost2010PropOp33
 70
     1
102
RTVSPost2010Prop34
280
     0
102
RTVSPost2010PropOp34
 70
     1
102
RTVSPost2010Prop35
280
     0
102
RTVSPost2010PropOp35
 70
     1
102
RTVSPost2010Prop36
280
     0
102
RTVSPost2010PropOp36
 70
     1
102
RTVSPost2010Prop37
 90
       50
102
RTVSPost2010PropOp37
 70
     1
102
RTVSPost2010Prop38
140
0.0
102
RTVSPost2010PropOp38
 70
     1
102
RTVSPost2010Prop39
140
1.0
102
RTVSPost2010PropOp39
 70
     1
102
RTVSPost2010Prop40
 90
        0
102
RTVSPost2010PropOp40
 70
     1
102
RTVSPost2010Prop41ColorIndex
 90
       18
102
RTVSPost2010Prop41ColorRGB
 90
        0
102
RTVSPost2010PropOp41
 70
     1
102
RTVSPost2010Prop42
 90
       50
102
RTVSPost2010PropOp42
 70
     1
102
RTVSPost2010Prop43
 90
        3
102
RTVSPost2010PropOp43
 70
     1
102
RTVSPost2010Prop44ColorIndex
 90
        5
102
RTVSPost2010Prop44ColorRGB
 90
      255
102
RTVSPost2010PropOp44
 70
     1
102
RTVSPost2010Prop45
280
     0
102
RTVSPost2010PropOp45
 70
     1
102
RTVSPost2010Prop46
 90
       50
102
RTVSPost2010PropOp46
 70
     1
102
RTVSPost2010Prop47
 90
       50
102
RTVSPost2010PropOp47
 70
     1
102
RTVSPost2010Prop48
 90
       50
102
RTVSPost2010PropOp48
 70
     1
102
RTVSPost2010Prop49
280
     0
102
RTVSPost2010PropOp49
 70
     1
102
RTVSPost2010Prop50
 90
       50
102
RTVSPost2010PropOp50
 70
     1
102
RTVSPost2010Prop51ColorIndex
 90
      256
102
RTVSPost2010Prop51ColorRGB
 90
-16777216
102
RTVSPost2010PropOp51
 70
     0
102
RTVSPost2010Prop52
140
1.0
102
RTVSPost2010PropOp52
 70
     0
102
RTVSPost2010Prop53
 90
        2
102
RTVSPost2010PropOp53
 70
     1
102
RTVSPost2010Prop54
  1
strokes_ogs.tif
102
RTVSPost2010PropOp54
 70
     1
102
RTVSPost2010Prop55
280
     0
102
RTVSPost2010PropOp55
 70
     1
102
RTVSPost2010Prop56
140
1.0
102
RTVSPost2010PropOp56
 70
     1
102
RTVSPost2010Prop57
140
1.0
102
RTVSPost2010PropOp57
 70
     1
  0
XRECORD
  5
397
102
{ACAD_REACTORS
330
396
102
}
330
396
100
AcDbXrecord
280
     1
102
RTVSPost2010Prop28
280
     0
102
RTVSPost2010PropOp28
 70
     0
102
RTVSPost2010Prop29
280
     1
102
RTVSPost2010PropOp29
 70
     0
102
RTVSPost2010Prop30
280
     1
102
RTVSPost2010PropOp30
 70
     0
102
RTVSPost2010Prop31
280
     0
102
RTVSPost2010PropOp31
 70
     0
102
RTVSPost2010Prop32
280
     0
102
RTVSPost2010PropOp32
 70
     0
102
RTVSPost2010Prop33
280
     0
102
RTVSPost2010PropOp33
 70
     0
102
RTVSPost2010Prop34
280
     0
102
RTVSPost2010PropOp34
 70
     0
102
RTVSPost2010Prop35
280
     0
102
RTVSPost2010PropOp35
 70
     0
102
RTVSPost2010Prop36
280
     0
102
RTVSPost2010PropOp36
 70
     0
102
RTVSPost2010Prop37
 90
       50
102
RTVSPost2010PropOp37
 70
     0
102
RTVSPost2010Prop38
140
0.0
102
RTVSPost2010PropOp38
 70
     0
102
RTVSPost2010Prop39
140
1.0
102
RTVSPost2010PropOp39
 70
     0
102
RTVSPost2010Prop40
 90
        0
102
RTVSPost2010PropOp40
 70
     0
102
RTVSPost2010Prop41ColorIndex
 90
       18
102
RTVSPost2010Prop41ColorRGB
 90
        0
102
RTVSPost2010PropOp41
 70
     0
102
RTVSPost2010Prop42
 90
       50
102
RTVSPost2010PropOp42
 70
     0
102
RTVSPost2010Prop43
 90
        3
102
RTVSPost2010PropOp43
 70
     0
102
RTVSPost2010Prop44ColorIndex
 90
        5
102
RTVSPost2010Prop44ColorRGB
 90
      255
102
RTVSPost2010PropOp44
 70
     0
102
RTVSPost2010Prop45
280
     0
102
RTVSPost2010PropOp45
 70
     0
102
RTVSPost2010Prop46
 90
       50
102
RTVSPost2010PropOp46
 70
     0
102
RTVSPost2010Prop47
 90
       50
102
RTVSPost2010PropOp47
 70
     0
102
RTVSPost2010Prop48
 90
       50
102
RTVSPost2010PropOp48
 70
     0
102
RTVSPost2010Prop49
280
     0
102
RTVSPost2010PropOp49
 70
     0
102
RTVSPost2010Prop50
 90
       50
102
RTVSPost2010PropOp50
 70
     0
102
RTVSPost2010Prop51ColorIndex
 90
      256
102
RTVSPost2010Prop51ColorRGB
 90
-16777216
102
RTVSPost2010PropOp51
 70
     0
102
RTVSPost2010Prop52
140
1.0
102
RTVSPost2010PropOp52
 70
     0
102
RTVSPost2010Prop53
 90
        2
102
RTVSPost2010PropOp53
 70
     0
102
RTVSPost2010Prop54
  1
strokes_ogs.tif
102
RTVSPost2010PropOp54
 70
     0
102
RTVSPost2010Prop55
280
     0
102
RTVSPost2010PropOp55
 70
     0
102
RTVSPost2010Prop56
140
1.0
102
RTVSPost2010PropOp56
 70
     0
102
RTVSPost2010Prop57
140
1.0
102
RTVSPost2010PropOp57
 70
     0
  0
XRECORD
  5
385
102
{ACAD_REACTORS
330
384
102
}
330
384
100
AcDbXrecord
280
     1
102
RTVSPost2010Prop28
280
     0
102
RTVSPost2010PropOp28
 70
     1
102
RTVSPost2010Prop29
280
     1
102
RTVSPost2010PropOp29
 70
     1
102
RTVSPost2010Prop30
280
     1
102
RTVSPost2010PropOp30
 70
     1
102
RTVSPost2010Prop31
280
     0
102
RTVSPost2010PropOp31
 70
     1
102
RTVSPost2010Prop32
280
     0
102
RTVSPost2010PropOp32
 70
     1
102
RTVSPost2010Prop33
280
     0
102
RTVSPost2010PropOp33
 70
     1
102
RTVSPost2010Prop34
280
     0
102
RTVSPost2010PropOp34
 70
     1
102
RTVSPost2010Prop35
280
     0
102
RTVSPost2010PropOp35
 70
     1
102
RTVSPost2010Prop36
280
     0
102
RTVSPost2010PropOp36
 70
     1
102
RTVSPost2010Prop37
 90
       50
102
RTVSPost2010PropOp37
 70
     1
102
RTVSPost2010Prop38
140
0.0
102
RTVSPost2010PropOp38
 70
     1
102
RTVSPost2010Prop39
140
1.0
102
RTVSPost2010PropOp39
 70
     1
102
RTVSPost2010Prop40
 90
        0
102
RTVSPost2010PropOp40
 70
     1
102
RTVSPost2010Prop41ColorIndex
 90
       18
102
RTVSPost2010Prop41ColorRGB
 90
        0
102
RTVSPost2010PropOp41
 70
     1
102
RTVSPost2010Prop42
 90
       50
102
RTVSPost2010PropOp42
 70
     1
102
RTVSPost2010Prop43
 90
        3
102
RTVSPost2010PropOp43
 70
     1
102
RTVSPost2010Prop44ColorIndex
 90
        5
102
RTVSPost2010Prop44ColorRGB
 90
      255
102
RTVSPost2010PropOp44
 70
     1
102
RTVSPost2010Prop45
280
     0
102
RTVSPost2010PropOp45
 70
     1
102
RTVSPost2010Prop46
 90
       50
102
RTVSPost2010PropOp46
 70
     1
102
RTVSPost2010Prop47
 90
       50
102
RTVSPost2010PropOp47
 70
     1
102
RTVSPost2010Prop48
 90
       50
102
RTVSPost2010PropOp48
 70
     1
102
RTVSPost2010Prop49
280
     0
102
RTVSPost2010PropOp49
 70
     1
102
RTVSPost2010Prop50
 90
       50
102
RTVSPost2010PropOp50
 70
     1
102
RTVSPost2010Prop51ColorIndex
 90
      256
102
RTVSPost2010Prop51ColorRGB
 90
-16777216
102
RTVSPost2010PropOp51
 70
     0
102
RTVSPost2010Prop52
140
1.0
102
RTVSPost2010PropOp52
 70
     0
102
RTVSPost2010Prop53
 90
        2
102
RTVSPost2010PropOp53
 70
     1
102
RTVSPost2010Prop54
  1
strokes_ogs.tif
102
RTVSPost2010PropOp54
 70
     1
102
RTVSPost2010Prop55
280
     0
102
RTVSPost2010PropOp55
 70
     1
102
RTVSPost2010Prop56
140
1.0
102
RTVSPost2010PropOp56
 70
     1
102
RTVSPost2010Prop57
140
1.0
102
RTVSPost2010PropOp57
 70
     1
  0
XRECORD
  5
3A3
102
{ACAD_REACTORS
330
3A2
102
}
330
3A2
100
AcDbXrecord
280
     1
102
RTVSPost2010Prop28
280
     0
102
RTVSPost2010PropOp28
 70
     1
102
RTVSPost2010Prop29
280
     1
102
RTVSPost2010PropOp29
 70
     1
102
RTVSPost2010Prop30
280
     1
102
RTVSPost2010PropOp30
 70
     1
102
RTVSPost2010Prop31
280
     0
102
RTVSPost2010PropOp31
 70
     1
102
RTVSPost2010Prop32
280
     0
102
RTVSPost2010PropOp32
 70
     1
102
RTVSPost2010Prop33
280
     0
102
RTVSPost2010PropOp33
 70
     1
102
RTVSPost2010Prop34
280
     0
102
RTVSPost2010PropOp34
 70
     1
102
RTVSPost2010Prop35
280
     0
102
RTVSPost2010PropOp35
 70
     1
102
RTVSPost2010Prop36
280
     0
102
RTVSPost2010PropOp36
 70
     1
102
RTVSPost2010Prop37
 90
       50
102
RTVSPost2010PropOp37
 70
     1
102
RTVSPost2010Prop38
140
0.0
102
RTVSPost2010PropOp38
 70
     1
102
RTVSPost2010Prop39
140
1.0
102
RTVSPost2010PropOp39
 70
     1
102
RTVSPost2010Prop40
 90
        0
102
RTVSPost2010PropOp40
 70
     1
102
RTVSPost2010Prop41ColorIndex
 90
       18
102
RTVSPost2010Prop41ColorRGB
 90
        0
102
RTVSPost2010PropOp41
 70
     1
102
RTVSPost2010Prop42
 90
       50
102
RTVSPost2010PropOp42
 70
     1
102
RTVSPost2010Prop43
 90
        3
102
RTVSPost2010PropOp43
 70
     1
102
RTVSPost2010Prop44ColorIndex
 90
        5
102
RTVSPost2010Prop44ColorRGB
 90
      255
102
RTVSPost2010PropOp44
 70
     1
102
RTVSPost2010Prop45
280
     0
102
RTVSPost2010PropOp45
 70
     1
102
RTVSPost2010Prop46
 90
       50
102
RTVSPost2010PropOp46
 70
     1
102
RTVSPost2010Prop47
 90
       50
102
RTVSPost2010PropOp47
 70
     1
102
RTVSPost2010Prop48
 90
       50
102
RTVSPost2010PropOp48
 70
     1
102
RTVSPost2010Prop49
280
     0
102
RTVSPost2010PropOp49
 70
     1
102
RTVSPost2010Prop50
 90
       50
102
RTVSPost2010PropOp50
 70
     1
102
RTVSPost2010Prop51ColorIndex
 90
      256
102
RTVSPost2010Prop51ColorRGB
 90
-16777216
102
RTVSPost2010PropOp51
 70
     0
102
RTVSPost2010Prop52
140
1.0
102
RTVSPost2010PropOp52
 70
     0
102
RTVSPost2010Prop53
 90
        2
102
RTVSPost2010PropOp53
 70
     1
102
RTVSPost2010Prop54
  1
strokes_ogs.tif
102
RTVSPost2010PropOp54
 70
     1
102
RTVSPost2010Prop55
280
     0
102
RTVSPost2010PropOp55
 70
     1
102
RTVSPost2010Prop56
140
1.0
102
RTVSPost2010PropOp56
 70
     1
102
RTVSPost2010Prop57
140
1.0
102
RTVSPost2010PropOp57
 70
     1
  0
XRECORD
  5
3A1
102
{ACAD_REACTORS
330
3A0
102
}
330
3A0
100
AcDbXrecord
280
     1
102
RTVSPost2010Prop28
280
     0
102
RTVSPost2010PropOp28
 70
     1
102
RTVSPost2010Prop29
280
     1
102
RTVSPost2010PropOp29
 70
     1
102
RTVSPost2010Prop30
280
     1
102
RTVSPost2010PropOp30
 70
     1
102
RTVSPost2010Prop31
280
     0
102
RTVSPost2010PropOp31
 70
     1
102
RTVSPost2010Prop32
280
     0
102
RTVSPost2010PropOp32
 70
     1
102
RTVSPost2010Prop33
280
     0
102
RTVSPost2010PropOp33
 70
     1
102
RTVSPost2010Prop34
280
     0
102
RTVSPost2010PropOp34
 70
     1
102
RTVSPost2010Prop35
280
     0
102
RTVSPost2010PropOp35
 70
     1
102
RTVSPost2010Prop36
280
     0
102
RTVSPost2010PropOp36
 70
     1
102
RTVSPost2010Prop37
 90
       50
102
RTVSPost2010PropOp37
 70
     1
102
RTVSPost2010Prop38
140
0.0
102
RTVSPost2010PropOp38
 70
     1
102
RTVSPost2010Prop39
140
1.0
102
RTVSPost2010PropOp39
 70
     1
102
RTVSPost2010Prop40
 90
        0
102
RTVSPost2010PropOp40
 70
     1
102
RTVSPost2010Prop41ColorIndex
 90
       18
102
RTVSPost2010Prop41ColorRGB
 90
        0
102
RTVSPost2010PropOp41
 70
     1
102
RTVSPost2010Prop42
 90
       50
102
RTVSPost2010PropOp42
 70
     1
102
RTVSPost2010Prop43
 90
        3
102
RTVSPost2010PropOp43
 70
     1
102
RTVSPost2010Prop44ColorIndex
 90
        5
102
RTVSPost2010Prop44ColorRGB
 90
      255
102
RTVSPost2010PropOp44
 70
     1
102
RTVSPost2010Prop45
280
     0
102
RTVSPost2010PropOp45
 70
     1
102
RTVSPost2010Prop46
 90
       50
102
RTVSPost2010PropOp46
 70
     1
102
RTVSPost2010Prop47
 90
       50
102
RTVSPost2010PropOp47
 70
     1
102
RTVSPost2010Prop48
 90
       50
102
RTVSPost2010PropOp48
 70
     1
102
RTVSPost2010Prop49
280
     0
102
RTVSPost2010PropOp49
 70
     1
102
RTVSPost2010Prop50
 90
       50
102
RTVSPost2010PropOp50
 70
     1
102
RTVSPost2010Prop51ColorIndex
 90
      256
102
RTVSPost2010Prop51ColorRGB
 90
-16777216
102
RTVSPost2010PropOp51
 70
     0
102
RTVSPost2010Prop52
140
1.0
102
RTVSPost2010PropOp52
 70
     0
102
RTVSPost2010Prop53
 90
        2
102
RTVSPost2010PropOp53
 70
     1
102
RTVSPost2010Prop54
  1
strokes_ogs.tif
102
RTVSPost2010PropOp54
 70
     1
102
RTVSPost2010Prop55
280
     0
102
RTVSPost2010PropOp55
 70
     1
102
RTVSPost2010Prop56
140
1.0
102
RTVSPost2010PropOp56
 70
     1
102
RTVSPost2010Prop57
140
1.0
102
RTVSPost2010PropOp57
 70
     1
  0
XRECORD
  5
39B
102
{ACAD_REACTORS
330
39A
102
}
330
39A
100
AcDbXrecord
280
     1
102
RTVSPost2010Prop28
280
     0
102
RTVSPost2010PropOp28
 70
     1
102
RTVSPost2010Prop29
280
     1
102
RTVSPost2010PropOp29
 70
     1
102
RTVSPost2010Prop30
280
     1
102
RTVSPost2010PropOp30
 70
     1
102
RTVSPost2010Prop31
280
     0
102
RTVSPost2010PropOp31
 70
     1
102
RTVSPost2010Prop32
280
     0
102
RTVSPost2010PropOp32
 70
     1
102
RTVSPost2010Prop33
280
     0
102
RTVSPost2010PropOp33
 70
     1
102
RTVSPost2010Prop34
280
     0
102
RTVSPost2010PropOp34
 70
     1
102
RTVSPost2010Prop35
280
     0
102
RTVSPost2010PropOp35
 70
     1
102
RTVSPost2010Prop36
280
     0
102
RTVSPost2010PropOp36
 70
     1
102
RTVSPost2010Prop37
 90
       50
102
RTVSPost2010PropOp37
 70
     1
102
RTVSPost2010Prop38
140
0.0
102
RTVSPost2010PropOp38
 70
     1
102
RTVSPost2010Prop39
140
1.0
102
RTVSPost2010PropOp39
 70
     1
102
RTVSPost2010Prop40
 90
        0
102
RTVSPost2010PropOp40
 70
     1
102
RTVSPost2010Prop41ColorIndex
 90
       18
102
RTVSPost2010Prop41ColorRGB
 90
        0
102
RTVSPost2010PropOp41
 70
     1
102
RTVSPost2010Prop42
 90
       50
102
RTVSPost2010PropOp42
 70
     1
102
RTVSPost2010Prop43
 90
        3
102
RTVSPost2010PropOp43
 70
     1
102
RTVSPost2010Prop44ColorIndex
 90
        5
102
RTVSPost2010Prop44ColorRGB
 90
      255
102
RTVSPost2010PropOp44
 70
     1
102
RTVSPost2010Prop45
280
     0
102
RTVSPost2010PropOp45
 70
     1
102
RTVSPost2010Prop46
 90
       50
102
RTVSPost2010PropOp46
 70
     1
102
RTVSPost2010Prop47
 90
       50
102
RTVSPost2010PropOp47
 70
     1
102
RTVSPost2010Prop48
 90
       50
102
RTVSPost2010PropOp48
 70
     1
102
RTVSPost2010Prop49
280
     0
102
RTVSPost2010PropOp49
 70
     1
102
RTVSPost2010Prop50
 90
       50
102
RTVSPost2010PropOp50
 70
     1
102
RTVSPost2010Prop51ColorIndex
 90
      256
102
RTVSPost2010Prop51ColorRGB
 90
-16777216
102
RTVSPost2010PropOp51
 70
     0
102
RTVSPost2010Prop52
140
1.0
102
RTVSPost2010PropOp52
 70
     0
102
RTVSPost2010Prop53
 90
        2
102
RTVSPost2010PropOp53
 70
     1
102
RTVSPost2010Prop54
  1
strokes_ogs.tif
102
RTVSPost2010PropOp54
 70
     1
102
RTVSPost2010Prop55
280
     0
102
RTVSPost2010PropOp55
 70
     1
102
RTVSPost2010Prop56
140
1.0
102
RTVSPost2010PropOp56
 70
     1
102
RTVSPost2010Prop57
140
1.0
102
RTVSPost2010PropOp57
 70
     1
  0
XRECORD
  5
39D
102
{ACAD_REACTORS
330
39C
102
}
330
39C
100
AcDbXrecord
280
     1
102
RTVSPost2010Prop28
280
     0
102
RTVSPost2010PropOp28
 70
     1
102
RTVSPost2010Prop29
280
     1
102
RTVSPost2010PropOp29
 70
     1
102
RTVSPost2010Prop30
280
     1
102
RTVSPost2010PropOp30
 70
     1
102
RTVSPost2010Prop31
280
     0
102
RTVSPost2010PropOp31
 70
     1
102
RTVSPost2010Prop32
280
     0
102
RTVSPost2010PropOp32
 70
     1
102
RTVSPost2010Prop33
280
     0
102
RTVSPost2010PropOp33
 70
     1
102
RTVSPost2010Prop34
280
     0
102
RTVSPost2010PropOp34
 70
     1
102
RTVSPost2010Prop35
280
     0
102
RTVSPost2010PropOp35
 70
     1
102
RTVSPost2010Prop36
280
     0
102
RTVSPost2010PropOp36
 70
     1
102
RTVSPost2010Prop37
 90
       50
102
RTVSPost2010PropOp37
 70
     1
102
RTVSPost2010Prop38
140
0.0
102
RTVSPost2010PropOp38
 70
     1
102
RTVSPost2010Prop39
140
1.0
102
RTVSPost2010PropOp39
 70
     1
102
RTVSPost2010Prop40
 90
        0
102
RTVSPost2010PropOp40
 70
     1
102
RTVSPost2010Prop41ColorIndex
 90
       18
102
RTVSPost2010Prop41ColorRGB
 90
        0
102
RTVSPost2010PropOp41
 70
     1
102
RTVSPost2010Prop42
 90
       50
102
RTVSPost2010PropOp42
 70
     1
102
RTVSPost2010Prop43
 90
        3
102
RTVSPost2010PropOp43
 70
     1
102
RTVSPost2010Prop44ColorIndex
 90
        5
102
RTVSPost2010Prop44ColorRGB
 90
      255
102
RTVSPost2010PropOp44
 70
     1
102
RTVSPost2010Prop45
280
     0
102
RTVSPost2010PropOp45
 70
     1
102
RTVSPost2010Prop46
 90
       50
102
RTVSPost2010PropOp46
 70
     1
102
RTVSPost2010Prop47
 90
       50
102
RTVSPost2010PropOp47
 70
     1
102
RTVSPost2010Prop48
 90
       50
102
RTVSPost2010PropOp48
 70
     1
102
RTVSPost2010Prop49
280
     0
102
RTVSPost2010PropOp49
 70
     1
102
RTVSPost2010Prop50
 90
       50
102
RTVSPost2010PropOp50
 70
     1
102
RTVSPost2010Prop51ColorIndex
 90
      256
102
RTVSPost2010Prop51ColorRGB
 90
-16777216
102
RTVSPost2010PropOp51
 70
     0
102
RTVSPost2010Prop52
140
1.0
102
RTVSPost2010PropOp52
 70
     0
102
RTVSPost2010Prop53
 90
        2
102
RTVSPost2010PropOp53
 70
     1
102
RTVSPost2010Prop54
  1
strokes_ogs.tif
102
RTVSPost2010PropOp54
 70
     1
102
RTVSPost2010Prop55
280
     0
102
RTVSPost2010PropOp55
 70
     1
102
RTVSPost2010Prop56
140
1.0
102
RTVSPost2010PropOp56
 70
     1
102
RTVSPost2010Prop57
140
1.0
102
RTVSPost2010PropOp57
 70
     1
  0
XRECORD
  5
38D
102
{ACAD_REACTORS
330
38C
102
}
330
38C
100
AcDbXrecord
280
     1
102
RTVSPost2010Prop28
280
     0
102
RTVSPost2010PropOp28
 70
     1
102
RTVSPost2010Prop29
280
     1
102
RTVSPost2010PropOp29
 70
     1
102
RTVSPost2010Prop30
280
     1
102
RTVSPost2010PropOp30
 70
     1
102
RTVSPost2010Prop31
280
     0
102
RTVSPost2010PropOp31
 70
     1
102
RTVSPost2010Prop32
280
     0
102
RTVSPost2010PropOp32
 70
     1
102
RTVSPost2010Prop33
280
     0
102
RTVSPost2010PropOp33
 70
     1
102
RTVSPost2010Prop34
280
     0
102
RTVSPost2010PropOp34
 70
     1
102
RTVSPost2010Prop35
280
     0
102
RTVSPost2010PropOp35
 70
     1
102
RTVSPost2010Prop36
280
     0
102
RTVSPost2010PropOp36
 70
     1
102
RTVSPost2010Prop37
 90
       50
102
RTVSPost2010PropOp37
 70
     1
102
RTVSPost2010Prop38
140
0.0
102
RTVSPost2010PropOp38
 70
     1
102
RTVSPost2010Prop39
140
1.0
102
RTVSPost2010PropOp39
 70
     1
102
RTVSPost2010Prop40
 90
        0
102
RTVSPost2010PropOp40
 70
     1
102
RTVSPost2010Prop41ColorIndex
 90
       18
102
RTVSPost2010Prop41ColorRGB
 90
        0
102
RTVSPost2010PropOp41
 70
     1
102
RTVSPost2010Prop42
 90
       50
102
RTVSPost2010PropOp42
 70
     1
102
RTVSPost2010Prop43
 90
        3
102
RTVSPost2010PropOp43
 70
     1
102
RTVSPost2010Prop44ColorIndex
 90
        5
102
RTVSPost2010Prop44ColorRGB
 90
      255
102
RTVSPost2010PropOp44
 70
     1
102
RTVSPost2010Prop45
280
     0
102
RTVSPost2010PropOp45
 70
     1
102
RTVSPost2010Prop46
 90
       50
102
RTVSPost2010PropOp46
 70
     1
102
RTVSPost2010Prop47
 90
       50
102
RTVSPost2010PropOp47
 70
     1
102
RTVSPost2010Prop48
 90
       50
102
RTVSPost2010PropOp48
 70
     1
102
RTVSPost2010Prop49
280
     0
102
RTVSPost2010PropOp49
 70
     1
102
RTVSPost2010Prop50
 90
       50
102
RTVSPost2010PropOp50
 70
     1
102
RTVSPost2010Prop51ColorIndex
 90
      256
102
RTVSPost2010Prop51ColorRGB
 90
-16777216
102
RTVSPost2010PropOp51
 70
     0
102
RTVSPost2010Prop52
140
1.0
102
RTVSPost2010PropOp52
 70
     0
102
RTVSPost2010Prop53
 90
        2
102
RTVSPost2010PropOp53
 70
     1
102
RTVSPost2010Prop54
  1
strokes_ogs.tif
102
RTVSPost2010PropOp54
 70
     1
102
RTVSPost2010Prop55
280
     0
102
RTVSPost2010PropOp55
 70
     1
102
RTVSPost2010Prop56
140
1.0
102
RTVSPost2010PropOp56
 70
     1
102
RTVSPost2010Prop57
140
1.0
102
RTVSPost2010PropOp57
 70
     1
  0
XRECORD
  5
37F
102
{ACAD_REACTORS
330
37E
102
}
330
37E
100
AcDbXrecord
280
     1
102
RTVSPost2010Prop28
280
     0
102
RTVSPost2010PropOp28
 70
     1
102
RTVSPost2010Prop29
280
     1
102
RTVSPost2010PropOp29
 70
     1
102
RTVSPost2010Prop30
280
     1
102
RTVSPost2010PropOp30
 70
     1
102
RTVSPost2010Prop31
280
     0
102
RTVSPost2010PropOp31
 70
     1
102
RTVSPost2010Prop32
280
     0
102
RTVSPost2010PropOp32
 70
     1
102
RTVSPost2010Prop33
280
     0
102
RTVSPost2010PropOp33
 70
     1
102
RTVSPost2010Prop34
280
     0
102
RTVSPost2010PropOp34
 70
     1
102
RTVSPost2010Prop35
280
     0
102
RTVSPost2010PropOp35
 70
     1
102
RTVSPost2010Prop36
280
     0
102
RTVSPost2010PropOp36
 70
     1
102
RTVSPost2010Prop37
 90
       50
102
RTVSPost2010PropOp37
 70
     1
102
RTVSPost2010Prop38
140
0.0
102
RTVSPost2010PropOp38
 70
     1
102
RTVSPost2010Prop39
140
1.0
102
RTVSPost2010PropOp39
 70
     1
102
RTVSPost2010Prop40
 90
        0
102
RTVSPost2010PropOp40
 70
     1
102
RTVSPost2010Prop41ColorIndex
 90
       18
102
RTVSPost2010Prop41ColorRGB
 90
        0
102
RTVSPost2010PropOp41
 70
     1
102
RTVSPost2010Prop42
 90
       50
102
RTVSPost2010PropOp42
 70
     1
102
RTVSPost2010Prop43
 90
        3
102
RTVSPost2010PropOp43
 70
     1
102
RTVSPost2010Prop44ColorIndex
 90
        5
102
RTVSPost2010Prop44ColorRGB
 90
      255
102
RTVSPost2010PropOp44
 70
     1
102
RTVSPost2010Prop45
280
     0
102
RTVSPost2010PropOp45
 70
     1
102
RTVSPost2010Prop46
 90
       50
102
RTVSPost2010PropOp46
 70
     1
102
RTVSPost2010Prop47
 90
       50
102
RTVSPost2010PropOp47
 70
     1
102
RTVSPost2010Prop48
 90
       50
102
RTVSPost2010PropOp48
 70
     1
102
RTVSPost2010Prop49
280
     0
102
RTVSPost2010PropOp49
 70
     1
102
RTVSPost2010Prop50
 90
       50
102
RTVSPost2010PropOp50
 70
     1
102
RTVSPost2010Prop51ColorIndex
 90
      256
102
RTVSPost2010Prop51ColorRGB
 90
-16777216
102
RTVSPost2010PropOp51
 70
     0
102
RTVSPost2010Prop52
140
1.0
102
RTVSPost2010PropOp52
 70
     0
102
RTVSPost2010Prop53
 90
        2
102
RTVSPost2010PropOp53
 70
     1
102
RTVSPost2010Prop54
  1
strokes_ogs.tif
102
RTVSPost2010PropOp54
 70
     1
102
RTVSPost2010Prop55
280
     0
102
RTVSPost2010PropOp55
 70
     1
102
RTVSPost2010Prop56
140
1.0
102
RTVSPost2010PropOp56
 70
     1
102
RTVSPost2010Prop57
140
1.0
102
RTVSPost2010PropOp57
 70
     1
  0
XRECORD
  5
39F
102
{ACAD_REACTORS
330
39E
102
}
330
39E
100
AcDbXrecord
280
     1
102
RTVSPost2010Prop28
280
     0
102
RTVSPost2010PropOp28
 70
     1
102
RTVSPost2010Prop29
280
     1
102
RTVSPost2010PropOp29
 70
     1
102
RTVSPost2010Prop30
280
     1
102
RTVSPost2010PropOp30
 70
     1
102
RTVSPost2010Prop31
280
     0
102
RTVSPost2010PropOp31
 70
     1
102
RTVSPost2010Prop32
280
     0
102
RTVSPost2010PropOp32
 70
     1
102
RTVSPost2010Prop33
280
     0
102
RTVSPost2010PropOp33
 70
     1
102
RTVSPost2010Prop34
280
     0
102
RTVSPost2010PropOp34
 70
     1
102
RTVSPost2010Prop35
280
     0
102
RTVSPost2010PropOp35
 70
     1
102
RTVSPost2010Prop36
280
     0
102
RTVSPost2010PropOp36
 70
     1
102
RTVSPost2010Prop37
 90
       50
102
RTVSPost2010PropOp37
 70
     1
102
RTVSPost2010Prop38
140
0.0
102
RTVSPost2010PropOp38
 70
     1
102
RTVSPost2010Prop39
140
1.0
102
RTVSPost2010PropOp39
 70
     1
102
RTVSPost2010Prop40
 90
        0
102
RTVSPost2010PropOp40
 70
     1
102
RTVSPost2010Prop41ColorIndex
 90
       18
102
RTVSPost2010Prop41ColorRGB
 90
        0
102
RTVSPost2010PropOp41
 70
     1
102
RTVSPost2010Prop42
 90
       50
102
RTVSPost2010PropOp42
 70
     1
102
RTVSPost2010Prop43
 90
        3
102
RTVSPost2010PropOp43
 70
     1
102
RTVSPost2010Prop44ColorIndex
 90
        5
102
RTVSPost2010Prop44ColorRGB
 90
      255
102
RTVSPost2010PropOp44
 70
     1
102
RTVSPost2010Prop45
280
     0
102
RTVSPost2010PropOp45
 70
     1
102
RTVSPost2010Prop46
 90
       50
102
RTVSPost2010PropOp46
 70
     1
102
RTVSPost2010Prop47
 90
       50
102
RTVSPost2010PropOp47
 70
     1
102
RTVSPost2010Prop48
 90
       50
102
RTVSPost2010PropOp48
 70
     1
102
RTVSPost2010Prop49
280
     0
102
RTVSPost2010PropOp49
 70
     1
102
RTVSPost2010Prop50
 90
       50
102
RTVSPost2010PropOp50
 70
     1
102
RTVSPost2010Prop51ColorIndex
 90
      256
102
RTVSPost2010Prop51ColorRGB
 90
-16777216
102
RTVSPost2010PropOp51
 70
     0
102
RTVSPost2010Prop52
140
1.0
102
RTVSPost2010PropOp52
 70
     0
102
RTVSPost2010Prop53
 90
        2
102
RTVSPost2010PropOp53
 70
     1
102
RTVSPost2010Prop54
  1
strokes_ogs.tif
102
RTVSPost2010PropOp54
 70
     1
102
RTVSPost2010Prop55
280
     0
102
RTVSPost2010PropOp55
 70
     1
102
RTVSPost2010Prop56
140
1.0
102
RTVSPost2010PropOp56
 70
     1
102
RTVSPost2010Prop57
140
1.0
102
RTVSPost2010PropOp57
 70
     1
  0
ENDSEC
  0
EOF
