  0
SECTION
  2
HEADER
  9
$ACADVER
  1
AC1024
  9
$ACADMAINTVER
 70
     6
  9
$DWGCODEPAGE
  3
ANSI_932
  9
$INSBASE
 10
0.0
 20
0.0
 30
0.0
  9
$EXTMIN
 10
-677.162629
 20
-856.68087
 30
1.000000000000000E+20
  9
$EXTMAX
 10
898.152585
 20
1153.050722
 30
-1.000000000000000E+20
  9
$LIMMIN
 10
-677.162629
 20
-856.68087
  9
$LIMMAX
 10
898.152585
 20
1153.050722
  9
$ORTHOMODE
 70
     0
  9
$REGENMODE
 70
     1
  9
$FILLMODE
 70
     1
  9
$QTEXTMODE
 70
     0
  9
$MIRRTEXT
 70
     1
  9
$LTSCALE
 40
1.0
  9
$ATTMODE
 70
     1
  9
$TEXTSIZE
 40
0.0
  9
$TRACEWID
 40
0.05
  9
$TEXTSTYLE
  7
Standard
  9
$CLAYER
  8
0
  9
$CELTYPE
  6
Continuous
  9
$CECOLOR
 62
   256
  9
$CELTSCALE
 40
1.0
  9
$DISPSILH
 70
     0
  9
$DIMSCALE
 40
1.0
  9
$DIMASZ
 40
0.18
  9
$DIMEXO
 40
0.0625
  9
$DIMDLI
 40
0.38
  9
$DIMRND
 40
0.0
  9
$DIMDLE
 40
0.0
  9
$DIMEXE
 40
0.18
  9
$DIMTP
 40
0.0
  9
$DIMTM
 40
0.0
  9
$DIMTXT
 40
0.18
  9
$DIMCEN
 40
0.09
  9
$DIMTSZ
 40
0.0
  9
$DIMTOL
 70
     0
  9
$DIMLIM
 70
     0
  9
$DIMTIH
 70
     1
  9
$DIMTOH
 70
     1
  9
$DIMSE1
 70
     0
  9
$DIMSE2
 70
     0
  9
$DIMTAD
 70
     0
  9
$DIMZIN
 70
     0
  9
$DIMBLK
  1

  9
$DIMASO
 70
     1
  9
$DIMSHO
 70
     1
  9
$DIMPOST
  1

  9
$DIMAPOST
  1

  9
$DIMALT
 70
     0
  9
$DIMALTD
 70
     2
  9
$DIMALTF
 40
25.4
  9
$DIMLFAC
 40
1.0
  9
$DIMTOFL
 70
     0
  9
$DIMTVP
 40
0.0
  9
$DIMTIX
 70
     0
  9
$DIMSOXD
 70
     0
  9
$DIMSAH
 70
     0
  9
$DIMBLK1
  1

  9
$DIMBLK2
  1

  9
$DIMSTYLE
  2
Standard
  9
$DIMCLRD
 70
     0
  9
$DIMCLRE
 70
     0
  9
$DIMCLRT
 70
     0
  9
$DIMTFAC
 40
1.0
  9
$DIMGAP
 40
0.09
  9
$DIMJUST
 70
     0
  9
$DIMSD1
 70
     0
  9
$DIMSD2
 70
     0
  9
$DIMTOLJ
 70
     1
  9
$DIMTZIN
 70
     0
  9
$DIMALTZ
 70
     0
  9
$DIMALTTZ
 70
     0
  9
$DIMUPT
 70
     0
  9
$DIMDEC
 70
     4
  9
$DIMTDEC
 70
     4
  9
$DIMALTU
 70
     2
  9
$DIMALTTD
 70
     2
  9
$DIMTXSTY
  7
Standard
  9
$DIMAUNIT
 70
     0
  9
$DIMADEC
 70
     0
  9
$DIMALTRND
 40
0.0
  9
$DIMAZIN
 70
     0
  9
$DIMDSEP
 70
     0
  9
$DIMATFIT
 70
     3
  9
$DIMFRAC
 70
     0
  9
$DIMLDRBLK
  1

  9
$DIMLUNIT
 70
     2
  9
$DIMLWD
 70
     0
  9
$DIMLWE
 70
     0
  9
$DIMTMOVE
 70
     0
  9
$DIMFXL
 40
1.0
  9
$DIMFXLON
 70
     0
  9
$DIMJOGANG
 40
0.7853981633974483
  9
$DIMTFILL
 70
     0
  9
$DIMTFILLCLR
 70
     0
  9
$DIMARCSYM
 70
     0
  9
$DIMLTYPE
  6

  9
$DIMLTEX1
  6

  9
$DIMLTEX2
  6

  9
$DIMTXTDIRECTION
 70
     0
  9
$LUNITS
 70
     2
  9
$LUPREC
 70
     4
  9
$SKETCHINC
 40
0.1
  9
$FILLETRAD
 40
0.0
  9
$AUNITS
 70
     0
  9
$AUPREC
 70
     0
  9
$MENU
  1
acad
  9
$ELEVATION
 40
0.0
  9
$PELEVATION
 40
0.0
  9
$THICKNESS
 40
0.0
  9
$LIMCHECK
 70
     0
  9
$CHAMFERA
 40
0.0
  9
$CHAMFERB
 40
0.0
  9
$CHAMFERC
 40
0.0
  9
$CHAMFERD
 40
0.0
  9
$SKPOLY
 70
     0
  9
$TDCREATE
 40
2447893.041666667
  9
$TDUCREATE
 40
0.0
  9
$TDUPDATE
 40
2457234.640822164
  9
$TDUUPDATE
 40
2457234.599155498
  9
$TDINDWG
 40
0.0
  9
$TDUSRTIMER
 40
0.0
  9
$USRTIMER
 70
     1
  9
$ANGBASE
 50
0.0
  9
$ANGDIR
 70
     0
  9
$PDMODE
 70
     0
  9
$PDSIZE
 40
0.0
  9
$PLINEWID
 40
0.0
  9
$SPLFRAME
 70
     0
  9
$SPLINETYPE
 70
     6
  9
$SPLINESEGS
 70
     8
  9
$HANDSEED
  5
272
  9
$SURFTAB1
 70
     6
  9
$SURFTAB2
 70
     6
  9
$SURFTYPE
 70
     6
  9
$SURFU
 70
     6
  9
$SURFV
 70
     6
  9
$UCSBASE
  2

  9
$UCSNAME
  2

  9
$UCSORG
 10
0.0
 20
0.0
 30
0.0
  9
$UCSXDIR
 10
1.0
 20
0.0
 30
0.0
  9
$UCSYDIR
 10
0.0
 20
1.0
 30
0.0
  9
$UCSORTHOREF
  2

  9
$UCSORTHOVIEW
 70
     0
  9
$UCSORGTOP
 10
0.0
 20
0.0
 30
0.0
  9
$UCSORGBOTTOM
 10
0.0
 20
0.0
 30
0.0
  9
$UCSORGLEFT
 10
0.0
 20
0.0
 30
0.0
  9
$UCSORGRIGHT
 10
0.0
 20
0.0
 30
0.0
  9
$UCSORGFRONT
 10
0.0
 20
0.0
 30
0.0
  9
$UCSORGBACK
 10
0.0
 20
0.0
 30
0.0
  9
$PUCSBASE
  2

  9
$PUCSNAME
  2

  9
$PUCSORG
 10
0.0
 20
0.0
 30
0.0
  9
$PUCSXDIR
 10
1.0
 20
0.0
 30
0.0
  9
$PUCSYDIR
 10
0.0
 20
1.0
 30
0.0
  9
$PUCSORTHOREF
  2

  9
$PUCSORTHOVIEW
 70
     0
  9
$PUCSORGTOP
 10
0.0
 20
0.0
 30
0.0
  9
$PUCSORGBOTTOM
 10
0.0
 20
0.0
 30
0.0
  9
$PUCSORGLEFT
 10
0.0
 20
0.0
 30
0.0
  9
$PUCSORGRIGHT
 10
0.0
 20
0.0
 30
0.0
  9
$PUCSORGFRONT
 10
0.0
 20
0.0
 30
0.0
  9
$PUCSORGBACK
 10
0.0
 20
0.0
 30
0.0
  9
$USERI1
 70
     0
  9
$USERI2
 70
     0
  9
$USERI3
 70
     0
  9
$USERI4
 70
     0
  9
$USERI5
 70
     0
  9
$USERR1
 40
0.0
  9
$USERR2
 40
0.0
  9
$USERR3
 40
0.0
  9
$USERR4
 40
0.0
  9
$USERR5
 40
0.0
  9
$WORLDVIEW
 70
     1
  9
$SHADEDGE
 70
     3
  9
$SHADEDIF
 70
    70
  9
$TILEMODE
 70
     1
  9
$MAXACTVP
 70
    16
  9
$PINSBASE
 10
0.0
 20
0.0
 30
0.0
  9
$PLIMCHECK
 70
     0
  9
$PEXTMIN
 10
1.000000000000000E+20
 20
1.000000000000000E+20
 30
1.000000000000000E+20
  9
$PEXTMAX
 10
-1.000000000000000E+20
 20
-1.000000000000000E+20
 30
-1.000000000000000E+20
  9
$PLIMMIN
 10
0.0
 20
0.0
  9
$PLIMMAX
 10
12.0
 20
9.0
  9
$UNITMODE
 70
     0
  9
$VISRETAIN
 70
     0
  9
$PLINEGEN
 70
     1
  9
$PSLTSCALE
 70
     0
  9
$TREEDEPTH
 70
  3020
  9
$CMLSTYLE
  2
Standard
  9
$CMLJUST
 70
     0
  9
$CMLSCALE
 40
1.0
  9
$PROXYGRAPHICS
 70
     0
  9
$MEASUREMENT
 70
     0
  9
$CELWEIGHT
370
     0
  9
$ENDCAPS
280
     0
  9
$JOINSTYLE
280
     0
  9
$LWDISPLAY
290
     0
  9
$INSUNITS
 70
     0
  9
$HYPERLINKBASE
  1

  9
$STYLESHEET
  1

  9
$XEDIT
290
     1
  9
$CEPSNTYPE
380
     0
  9
$PSTYLEMODE
290
     1
  9
$FINGERPRINTGUID
  2

  9
$VERSIONGUID
  2

  9
$EXTNAMES
290
     1
  9
$PSVPSCALE
 40
0.0
  9
$OLESTARTUP
290
     0
  9
$SORTENTS
280
   127
  9
$INDEXCTL
280
     0
  9
$HIDETEXT
280
     1
  9
$XCLIPFRAME
280
     2
  9
$HALOGAP
280
     0
  9
$OBSCOLOR
 70
   257
  9
$OBSLTYPE
280
     0
  9
$INTERSECTIONDISPLAY
280
     0
  9
$INTERSECTIONCOLOR
 70
   257
  9
$DIMASSOC
280
     2
  9
$PROJECTNAME
  1

  9
$CAMERADISPLAY
290
     0
  9
$LENSLENGTH
 40
50.0
  9
$CAMERAHEIGHT
 40
0.0
  9
$STEPSPERSEC
 40
2.0
  9
$STEPSIZE
 40
6.0
  9
$3DDWFPREC
 40
2.0
  9
$PSOLWIDTH
 40
0.25
  9
$PSOLHEIGHT
 40
4.0
  9
$LOFTANG1
 40
1.570796326794897
  9
$LOFTANG2
 40
1.570796326794897
  9
$LOFTMAG1
 40
0.0
  9
$LOFTMAG2
 40
0.0
  9
$LOFTPARAM
 70
     7
  9
$LOFTNORMALS
280
     1
  9
$LATITUDE
 40
37.795
  9
$LONGITUDE
 40
-122.394
  9
$NORTHDIRECTION
 40
0.0
  9
$TIMEZONE
 70
 -8000
  9
$LIGHTGLYPHDISPLAY
280
     1
  9
$TILEMODELIGHTSYNCH
280
     1
  9
$SOLIDHIST
280
     0
  9
$SHOWHIST
280
     1
  9
$DWFFRAME
280
     2
  9
$DGNFRAME
280
     2
  9
$REALWORLDSCALE
290
     1
  9
$INTERFERECOLOR
 62
   256
  9
$CSHADOW
280
     0
  9
$SHADOWPLANELOCATION
 40
0.0
  0
ENDSEC
  0
SECTION
  2
CLASSES
  0
CLASS
  1
LWPOLYLINE
  2
AcDbPolyline
  3
ObjectDBX Classes
 90
        0
 91
        1
280
     0
281
     1
  0
CLASS
  1
IMAGE
  2
AcDbRasterImage
  3
ISM
 90
      127
 91
        5
280
     0
281
     1
  0
CLASS
  1
OLE2FRAME
  2
AcDbOle2Frame
  3
ObjectDBX Classes
 90
        0
 91
        1
280
     0
281
     1
  0
CLASS
  1
HATCH
  2
AcDbHatch
  3
ObjectDBX Classes
 90
        0
 91
        1
280
     0
281
     1
  0
CLASS
  1
DICTIONARYVAR
  2
AcDbDictionaryVar
  3
ObjectDBX Classes
 90
        0
 91
        4
280
     0
281
     0
  0
CLASS
  1
RASTERVARIABLES
  2
AcDbRasterVariables
  3
ISM
 90
        0
 91
        4
280
     0
281
     0
  0
CLASS
  1
IMAGEDEF
  2
AcDbRasterImageDef
  3
ISM
 90
        0
 91
        4
280
     0
281
     0
  0
CLASS
  1
IMAGEDEF_REACTOR
  2
AcDbRasterImageDefReactor
  3
ISM
 90
        1
 91
        4
280
     0
281
     0
  0
CLASS
  1
IDBUFFER
  2
AcDbIdBuffer
  3
ObjectDBX Classes
 90
        0
 91
        4
280
     0
281
     0
  0
CLASS
  1
SPATIAL_FILTER
  2
AcDbSpatialFilter
  3
ObjectDBX Classes
 90
        0
 91
        4
280
     0
281
     0
  0
CLASS
  1
XRECORD
  2
AcDbXrecord
  3
ObjectDBX Classes
 90
        0
 91
        1
280
     0
281
     0
  0
CLASS
  1
SORTENTSTABLE
  2
AcDbSortentsTable
  3
ObjectDBX Classes
 90
        0
 91
        4
280
     0
281
     0
  0
CLASS
  1
LAYER_INDEX
  2
AcDbLayerIndex
  3
ObjectDBX Classes
 90
        0
 91
        4
280
     0
281
     0
  0
CLASS
  1
SPATIAL_INDEX
  2
AcDbSpatialIndex
  3
AutoCAD 2000
 90
        0
 91
        4
280
     0
281
     0
  0
CLASS
  1
OBJECT_PTR
  2
CAseDLPNTableRecord
  3
ASE-LPNTableRecord
 90
        1
 91
        4
280
     0
281
     0
  0
CLASS
  1
LAYOUT
  2
AcDbLayout
  3
ObjectDBX Classes
 90
        0
 91
        1
280
     0
281
     0
  0
CLASS
  1
PLOTSETTINGS
  2
AcDbPlotSettings
  3
ObjectDBX Classes
 90
        0
 91
        4
280
     0
281
     0
  0
CLASS
  1
ACDBDICTIONARYWDFLT
  2
AcDbDictionaryWithDefault
  3
ObjectDBX Classes
 90
        0
 91
        4
280
     0
281
     0
  0
CLASS
  1
ACDBPLACEHOLDER
  2
AcDbPlaceHolder
  3
ObjectDBX Classes
 90
        0
 91
        1
280
     0
281
     0
  0
CLASS
  1
VBA_PROJECT
  2
AcDbVbaProject
  3
ObjectDBX Classes
 90
        0
 91
        1
280
     0
281
     0
  0
CLASS
  1
WIPEOUT
  2
AcDbWipeout
  3
WipeOut|AutoCAD Express Tool|expresstools@autodesk.com
 90
      127
 91
        4
280
     0
281
     1
  0
CLASS
  1
WIPEOUTVARIABLES
  2
AcDbWipeoutVariables
  3
WipeOut|AutoCAD Express Tool|expresstools@autodesk.com
 90
        0
 91
        4
280
     0
281
     0
  0
CLASS
  1
RTEXT
  2
RText
  3
RText|AutoCAD Express Tool|expresstools@autodesk.com
 90
        0
 91
        4
280
     0
281
     1
  0
CLASS
  1
ARCALIGNEDTEXT
  2
AcDbArcAlignedText
  3
ATEXT|AutoCAD Express Tool|expresstools@autodesk.com
 90
        0
 91
        4
280
     0
281
     1
  0
CLASS
  1
SCALE
  2
AcDbScale
  3
ObjectDBX Classes
 90
     1153
 91
        4
280
     0
281
     0
  0
CLASS
  1
VISUALSTYLE
  2
AcDbVisualStyle
  3
ObjectDBX Classes
 90
     4095
 91
        4
280
     0
281
     0
  0
CLASS
  1
MATERIAL
  2
AcDbMaterial
  3
ObjectDBX Classes
 90
     1153
 91
        4
280
     0
281
     0
  0
CLASS
  1
TABLESTYLE
  2
AcDbTableStyle
  3
ObjectDBX Classes
 90
     4095
 91
        4
280
     0
281
     0
  0
CLASS
  1
MLEADERSTYLE
  2
AcDbMLeaderStyle
  3
ACDB_MLEADERSTYLE_CLASS
 90
     4095
 91
        4
280
     0
281
     0
  0
CLASS
  1
CELLSTYLEMAP
  2
AcDbCellStyleMap
  3
ObjectDBX Classes
 90
     1152
 91
        4
280
     0
281
     0
  0
ENDSEC
  0
SECTION
  2
TABLES
  0
TABLE
  2
VPORT
  5
7
330
0
100
AcDbSymbolTable
 70
     1
  0
VPORT
  5
15
330
7
100
AcDbSymbolTableRecord
100
AcDbViewportTableRecord
  2
*ACTIVE
 70
     0
 10
0.0
 20
0.0
 11
1.0
 21
1.0
 12
6.591288
 22
4.579184
 13
0.0
 23
0.0
 14
1.0
 24
1.0
 15
0.0
 25
0.0
 16
0.0
 26
0.0
 36
1.0
 17
0.0
 27
0.0
 37
0.0
 40
9.158369
 41
0.688564
 42
50.0
 43
0.0
 44
0.0
 50
0.0
 51
0.0
 71
     0
 72
   100
 73
     1
 74
     1
 75
     0
 76
     0
 77
     0
 78
     0
281
     0
 65
     0
110
0.0
120
0.0
130
0.0
111
1.0
121
0.0
131
0.0
112
0.0
122
1.0
132
0.0
 79
     0
146
0.0
348
21C
 60
     3
 61
     5
292
     1
282
     1
141
0.0
142
0.0
 63
   256
  0
ENDTAB
  0
TABLE
  2
LTYPE
  5
4
330
0
100
AcDbSymbolTable
 70
     3
  0
LTYPE
  5
11
330
4
100
AcDbSymbolTableRecord
100
AcDbLinetypeTableRecord
  2
ByBlock
 70
     0
  3

 72
    65
 73
     0
 40
0.0
  0
LTYPE
  5
12
330
4
100
AcDbSymbolTableRecord
100
AcDbLinetypeTableRecord
  2
ByLayer
 70
     0
  3

 72
    65
 73
     0
 40
0.0
  0
LTYPE
  5
13
330
4
100
AcDbSymbolTableRecord
100
AcDbLinetypeTableRecord
  2
Continuous
 70
     0
  3
Solid line
 72
    65
 73
     0
 40
0.0
  0
LTYPE
  5
39
330
4
100
AcDbSymbolTableRecord
100
AcDbLinetypeTableRecord
  2
AI9-LType1
 70
     0
  3
Illustrator Dash Style No.1
 72
    65
 73
     2
 40
2.116667
 49
1.411111
 74
     0
 49
-0.705556
 74
     0
  0
LTYPE
  5
165
330
4
100
AcDbSymbolTableRecord
100
AcDbLinetypeTableRecord
  2
AI9-LType2
 70
     0
  3
Illustrator Dash Style No.2
 72
    65
 73
     4
 40
4.586111
 49
2.116667
 74
     0
 49
-1.058333
 74
     0
 49
0.352778
 74
     0
 49
-1.058333
 74
     0
  0
ENDTAB
  0
TABLE
  2
LAYER
  5
2
330
0
100
AcDbSymbolTable
 70
     2
  0
LAYER
  5
14
330
2
100
AcDbSymbolTableRecord
100
AcDbLayerTableRecord
  2
0
 70
     0
 62
     7
  6
Continuous
370
    -3
390
1D
347
233
  0
LAYER
  5
28
330
2
100
AcDbSymbolTableRecord
100
AcDbLayerTableRecord
  2
LAYER_1
 70
     0
 62
   160
  6
Continuous
370
    -3
390
1D
347
233
  0
ENDTAB
  0
TABLE
  2
STYLE
  5
3
330
0
100
AcDbSymbolTable
 70
     5
  0
STYLE
  5
17
330
3
100
AcDbSymbolTableRecord
100
AcDbTextStyleTableRecord
  2
Standard
 70
     0
 40
0.0
 41
1.0
 50
0.0
 71
     0
 42
0.0
  3
txt
  4

  0
STYLE
  5
24
330
3
100
AcDbSymbolTableRecord
100
AcDbTextStyleTableRecord
  2
STD
 70
     0
 40
0.0
 41
1.0
 50
0.0
 71
     0
 42
0.0
  3
txt
  4

  0
STYLE
  5
25
330
3
100
AcDbSymbolTableRecord
100
AcDbTextStyleTableRecord
  2
TATESTD
 70
     4
 40
0.0
 41
1.0
 50
0.0
 71
     0
 42
0.0
  3
txt
  4

  0
STYLE
  5
26
330
3
100
AcDbSymbolTableRecord
100
AcDbTextStyleTableRecord
  2
KANJISTD
 70
     0
 40
0.0
 41
1.0
 50
0.0
 71
     0
 42
0.0
  3
txt
  4
extfont
  0
STYLE
  5
27
330
3
100
AcDbSymbolTableRecord
100
AcDbTextStyleTableRecord
  2
KANJITATE
 70
     4
 40
0.0
 41
1.0
 50
0.0
 71
     0
 42
0.0
  3
txt
  4
extfont
  0
ENDTAB
  0
TABLE
  2
VIEW
  5
5
330
0
100
AcDbSymbolTable
 70
     0
  0
ENDTAB
  0
TABLE
  2
UCS
  5
6
330
0
100
AcDbSymbolTable
 70
     0
  0
ENDTAB
  0
TABLE
  2
APPID
  5
8
330
0
100
AcDbSymbolTable
 70
     1
  0
APPID
  5
16
330
8
100
AcDbSymbolTableRecord
100
AcDbRegAppTableRecord
  2
ACAD
 70
     0
  0
ENDTAB
  0
TABLE
  2
DIMSTYLE
  5
9
330
0
100
AcDbSymbolTable
 70
     1
100
AcDbDimStyleTable
  0
DIMSTYLE
105
18
330
9
100
AcDbSymbolTableRecord
100
AcDbDimStyleTableRecord
  2
Standard
 70
     0
178
     0
340
17
  0
ENDTAB
  0
TABLE
  2
BLOCK_RECORD
  5
1
330
0
100
AcDbSymbolTable
 70
    62
  0
BLOCK_RECORD
  5
A
330
1
100
AcDbSymbolTableRecord
100
AcDbBlockTableRecord
  2
*MODEL_SPACE
340
20
 70
     0
280
     1
281
     0
  0
BLOCK_RECORD
  5
B
330
1
100
AcDbSymbolTableRecord
100
AcDbBlockTableRecord
  2
*PAPER_SPACE
340
21
 70
     0
280
     1
281
     0
  0
BLOCK_RECORD
  5
59
330
1
100
AcDbSymbolTableRecord
100
AcDbBlockTableRecord
  2
AI9-BLK1
340
0
102
{BLKREFS
331
5A
102
}
 70
     0
280
     1
281
     0
  0
BLOCK_RECORD
  5
5C
330
1
100
AcDbSymbolTableRecord
100
AcDbBlockTableRecord
  2
AI9-BLK2
340
0
102
{BLKREFS
331
5D
102
}
 70
     0
280
     1
281
     0
  0
BLOCK_RECORD
  5
5F
330
1
100
AcDbSymbolTableRecord
100
AcDbBlockTableRecord
  2
AI9-BLK3
340
0
102
{BLKREFS
331
60
102
}
 70
     0
280
     1
281
     0
  0
BLOCK_RECORD
  5
62
330
1
100
AcDbSymbolTableRecord
100
AcDbBlockTableRecord
  2
AI9-BLK4
340
0
102
{BLKREFS
331
63
102
}
 70
     0
280
     1
281
     0
  0
BLOCK_RECORD
  5
6C
330
1
100
AcDbSymbolTableRecord
100
AcDbBlockTableRecord
  2
AI9-BLK5
340
0
102
{BLKREFS
331
6D
102
}
 70
     0
280
     1
281
     0
  0
BLOCK_RECORD
  5
6F
330
1
100
AcDbSymbolTableRecord
100
AcDbBlockTableRecord
  2
AI9-BLK6
340
0
102
{BLKREFS
331
70
102
}
 70
     0
280
     1
281
     0
  0
BLOCK_RECORD
  5
72
330
1
100
AcDbSymbolTableRecord
100
AcDbBlockTableRecord
  2
AI9-BLK7
340
0
102
{BLKREFS
331
73
102
}
 70
     0
280
     1
281
     0
  0
BLOCK_RECORD
  5
75
330
1
100
AcDbSymbolTableRecord
100
AcDbBlockTableRecord
  2
AI9-BLK8
340
0
102
{BLKREFS
331
76
102
}
 70
     0
280
     1
281
     0
  0
BLOCK_RECORD
  5
81
330
1
100
AcDbSymbolTableRecord
100
AcDbBlockTableRecord
  2
AI9-BLK9
340
0
102
{BLKREFS
331
82
102
}
 70
     0
280
     1
281
     0
  0
BLOCK_RECORD
  5
84
330
1
100
AcDbSymbolTableRecord
100
AcDbBlockTableRecord
  2
AI9-BLK10
340
0
102
{BLKREFS
331
85
102
}
 70
     0
280
     1
281
     0
  0
BLOCK_RECORD
  5
87
330
1
100
AcDbSymbolTableRecord
100
AcDbBlockTableRecord
  2
AI9-BLK11
340
0
102
{BLKREFS
331
88
102
}
 70
     0
280
     1
281
     0
  0
BLOCK_RECORD
  5
8D
330
1
100
AcDbSymbolTableRecord
100
AcDbBlockTableRecord
  2
AI9-BLK12
340
0
102
{BLKREFS
331
8E
102
}
 70
     0
280
     1
281
     0
  0
BLOCK_RECORD
  5
90
330
1
100
AcDbSymbolTableRecord
100
AcDbBlockTableRecord
  2
AI9-BLK13
340
0
102
{BLKREFS
331
91
102
}
 70
     0
280
     1
281
     0
  0
BLOCK_RECORD
  5
93
330
1
100
AcDbSymbolTableRecord
100
AcDbBlockTableRecord
  2
AI9-BLK14
340
0
102
{BLKREFS
331
94
102
}
 70
     0
280
     1
281
     0
  0
BLOCK_RECORD
  5
99
330
1
100
AcDbSymbolTableRecord
100
AcDbBlockTableRecord
  2
AI9-BLK15
340
0
102
{BLKREFS
331
9A
102
}
 70
     0
280
     1
281
     0
  0
BLOCK_RECORD
  5
9C
330
1
100
AcDbSymbolTableRecord
100
AcDbBlockTableRecord
  2
AI9-BLK16
340
0
102
{BLKREFS
331
9D
102
}
 70
     0
280
     1
281
     0
  0
BLOCK_RECORD
  5
9F
330
1
100
AcDbSymbolTableRecord
100
AcDbBlockTableRecord
  2
AI9-BLK17
340
0
102
{BLKREFS
331
A0
102
}
 70
     0
280
     1
281
     0
  0
BLOCK_RECORD
  5
A6
330
1
100
AcDbSymbolTableRecord
100
AcDbBlockTableRecord
  2
AI9-BLK18
340
0
102
{BLKREFS
331
A7
102
}
 70
     0
280
     1
281
     0
  0
BLOCK_RECORD
  5
A9
330
1
100
AcDbSymbolTableRecord
100
AcDbBlockTableRecord
  2
AI9-BLK19
340
0
102
{BLKREFS
331
AA
102
}
 70
     0
280
     1
281
     0
  0
BLOCK_RECORD
  5
AC
330
1
100
AcDbSymbolTableRecord
100
AcDbBlockTableRecord
  2
AI9-BLK20
340
0
102
{BLKREFS
331
AD
102
}
 70
     0
280
     1
281
     0
  0
BLOCK_RECORD
  5
B3
330
1
100
AcDbSymbolTableRecord
100
AcDbBlockTableRecord
  2
AI9-BLK21
340
0
102
{BLKREFS
331
B4
102
}
 70
     0
280
     1
281
     0
  0
BLOCK_RECORD
  5
B6
330
1
100
AcDbSymbolTableRecord
100
AcDbBlockTableRecord
  2
AI9-BLK22
340
0
102
{BLKREFS
331
B7
102
}
 70
     0
280
     1
281
     0
  0
BLOCK_RECORD
  5
B9
330
1
100
AcDbSymbolTableRecord
100
AcDbBlockTableRecord
  2
AI9-BLK23
340
0
102
{BLKREFS
331
BA
102
}
 70
     0
280
     1
281
     0
  0
BLOCK_RECORD
  5
C0
330
1
100
AcDbSymbolTableRecord
100
AcDbBlockTableRecord
  2
AI9-BLK24
340
0
102
{BLKREFS
331
C1
102
}
 70
     0
280
     1
281
     0
  0
BLOCK_RECORD
  5
C3
330
1
100
AcDbSymbolTableRecord
100
AcDbBlockTableRecord
  2
AI9-BLK25
340
0
102
{BLKREFS
331
C4
102
}
 70
     0
280
     1
281
     0
  0
BLOCK_RECORD
  5
C6
330
1
100
AcDbSymbolTableRecord
100
AcDbBlockTableRecord
  2
AI9-BLK26
340
0
102
{BLKREFS
331
C7
102
}
 70
     0
280
     1
281
     0
  0
BLOCK_RECORD
  5
CD
330
1
100
AcDbSymbolTableRecord
100
AcDbBlockTableRecord
  2
AI9-BLK27
340
0
102
{BLKREFS
331
CE
102
}
 70
     0
280
     1
281
     0
  0
BLOCK_RECORD
  5
D0
330
1
100
AcDbSymbolTableRecord
100
AcDbBlockTableRecord
  2
AI9-BLK28
340
0
102
{BLKREFS
331
D1
102
}
 70
     0
280
     1
281
     0
  0
BLOCK_RECORD
  5
D3
330
1
100
AcDbSymbolTableRecord
100
AcDbBlockTableRecord
  2
AI9-BLK29
340
0
102
{BLKREFS
331
D4
102
}
 70
     0
280
     1
281
     0
  0
BLOCK_RECORD
  5
DA
330
1
100
AcDbSymbolTableRecord
100
AcDbBlockTableRecord
  2
AI9-BLK30
340
0
102
{BLKREFS
331
DB
102
}
 70
     0
280
     1
281
     0
  0
BLOCK_RECORD
  5
DD
330
1
100
AcDbSymbolTableRecord
100
AcDbBlockTableRecord
  2
AI9-BLK31
340
0
102
{BLKREFS
331
DE
102
}
 70
     0
280
     1
281
     0
  0
BLOCK_RECORD
  5
E0
330
1
100
AcDbSymbolTableRecord
100
AcDbBlockTableRecord
  2
AI9-BLK32
340
0
102
{BLKREFS
331
E1
102
}
 70
     0
280
     1
281
     0
  0
BLOCK_RECORD
  5
E6
330
1
100
AcDbSymbolTableRecord
100
AcDbBlockTableRecord
  2
AI9-BLK33
340
0
102
{BLKREFS
331
E7
102
}
 70
     0
280
     1
281
     0
  0
BLOCK_RECORD
  5
E9
330
1
100
AcDbSymbolTableRecord
100
AcDbBlockTableRecord
  2
AI9-BLK34
340
0
102
{BLKREFS
331
EA
102
}
 70
     0
280
     1
281
     0
  0
BLOCK_RECORD
  5
EC
330
1
100
AcDbSymbolTableRecord
100
AcDbBlockTableRecord
  2
AI9-BLK35
340
0
102
{BLKREFS
331
ED
102
}
 70
     0
280
     1
281
     0
  0
BLOCK_RECORD
  5
F2
330
1
100
AcDbSymbolTableRecord
100
AcDbBlockTableRecord
  2
AI9-BLK36
340
0
102
{BLKREFS
331
F3
102
}
 70
     0
280
     1
281
     0
  0
BLOCK_RECORD
  5
F5
330
1
100
AcDbSymbolTableRecord
100
AcDbBlockTableRecord
  2
AI9-BLK37
340
0
102
{BLKREFS
331
F6
102
}
 70
     0
280
     1
281
     0
  0
BLOCK_RECORD
  5
F8
330
1
100
AcDbSymbolTableRecord
100
AcDbBlockTableRecord
  2
AI9-BLK38
340
0
102
{BLKREFS
331
F9
102
}
 70
     0
280
     1
281
     0
  0
BLOCK_RECORD
  5
FF
330
1
100
AcDbSymbolTableRecord
100
AcDbBlockTableRecord
  2
AI9-BLK39
340
0
102
{BLKREFS
331
100
102
}
 70
     0
280
     1
281
     0
  0
BLOCK_RECORD
  5
102
330
1
100
AcDbSymbolTableRecord
100
AcDbBlockTableRecord
  2
AI9-BLK40
340
0
102
{BLKREFS
331
103
102
}
 70
     0
280
     1
281
     0
  0
BLOCK_RECORD
  5
105
330
1
100
AcDbSymbolTableRecord
100
AcDbBlockTableRecord
  2
AI9-BLK41
340
0
102
{BLKREFS
331
106
102
}
 70
     0
280
     1
281
     0
  0
BLOCK_RECORD
  5
10C
330
1
100
AcDbSymbolTableRecord
100
AcDbBlockTableRecord
  2
AI9-BLK42
340
0
102
{BLKREFS
331
10D
102
}
 70
     0
280
     1
281
     0
  0
BLOCK_RECORD
  5
10F
330
1
100
AcDbSymbolTableRecord
100
AcDbBlockTableRecord
  2
AI9-BLK43
340
0
102
{BLKREFS
331
110
102
}
 70
     0
280
     1
281
     0
  0
BLOCK_RECORD
  5
112
330
1
100
AcDbSymbolTableRecord
100
AcDbBlockTableRecord
  2
AI9-BLK44
340
0
102
{BLKREFS
331
113
102
}
 70
     0
280
     1
281
     0
  0
BLOCK_RECORD
  5
118
330
1
100
AcDbSymbolTableRecord
100
AcDbBlockTableRecord
  2
AI9-BLK45
340
0
102
{BLKREFS
331
119
102
}
 70
     0
280
     1
281
     0
  0
BLOCK_RECORD
  5
11B
330
1
100
AcDbSymbolTableRecord
100
AcDbBlockTableRecord
  2
AI9-BLK46
340
0
102
{BLKREFS
331
11C
102
}
 70
     0
280
     1
281
     0
  0
BLOCK_RECORD
  5
11E
330
1
100
AcDbSymbolTableRecord
100
AcDbBlockTableRecord
  2
AI9-BLK47
340
0
102
{BLKREFS
331
11F
102
}
 70
     0
280
     1
281
     0
  0
BLOCK_RECORD
  5
124
330
1
100
AcDbSymbolTableRecord
100
AcDbBlockTableRecord
  2
AI9-BLK48
340
0
102
{BLKREFS
331
125
102
}
 70
     0
280
     1
281
     0
  0
BLOCK_RECORD
  5
127
330
1
100
AcDbSymbolTableRecord
100
AcDbBlockTableRecord
  2
AI9-BLK49
340
0
102
{BLKREFS
331
128
102
}
 70
     0
280
     1
281
     0
  0
BLOCK_RECORD
  5
12A
330
1
100
AcDbSymbolTableRecord
100
AcDbBlockTableRecord
  2
AI9-BLK50
340
0
102
{BLKREFS
331
12B
102
}
 70
     0
280
     1
281
     0
  0
BLOCK_RECORD
  5
131
330
1
100
AcDbSymbolTableRecord
100
AcDbBlockTableRecord
  2
AI9-BLK51
340
0
102
{BLKREFS
331
132
102
}
 70
     0
280
     1
281
     0
  0
BLOCK_RECORD
  5
134
330
1
100
AcDbSymbolTableRecord
100
AcDbBlockTableRecord
  2
AI9-BLK52
340
0
102
{BLKREFS
331
135
102
}
 70
     0
280
     1
281
     0
  0
BLOCK_RECORD
  5
137
330
1
100
AcDbSymbolTableRecord
100
AcDbBlockTableRecord
  2
AI9-BLK53
340
0
102
{BLKREFS
331
138
102
}
 70
     0
280
     1
281
     0
  0
BLOCK_RECORD
  5
13E
330
1
100
AcDbSymbolTableRecord
100
AcDbBlockTableRecord
  2
AI9-BLK54
340
0
102
{BLKREFS
331
13F
102
}
 70
     0
280
     1
281
     0
  0
BLOCK_RECORD
  5
141
330
1
100
AcDbSymbolTableRecord
100
AcDbBlockTableRecord
  2
AI9-BLK55
340
0
102
{BLKREFS
331
142
102
}
 70
     0
280
     1
281
     0
  0
BLOCK_RECORD
  5
144
330
1
100
AcDbSymbolTableRecord
100
AcDbBlockTableRecord
  2
AI9-BLK56
340
0
102
{BLKREFS
331
145
102
}
 70
     0
280
     1
281
     0
  0
BLOCK_RECORD
  5
14B
330
1
100
AcDbSymbolTableRecord
100
AcDbBlockTableRecord
  2
AI9-BLK57
340
0
102
{BLKREFS
331
14C
102
}
 70
     0
280
     1
281
     0
  0
BLOCK_RECORD
  5
14E
330
1
100
AcDbSymbolTableRecord
100
AcDbBlockTableRecord
  2
AI9-BLK58
340
0
102
{BLKREFS
331
14F
102
}
 70
     0
280
     1
281
     0
  0
BLOCK_RECORD
  5
151
330
1
100
AcDbSymbolTableRecord
100
AcDbBlockTableRecord
  2
AI9-BLK59
340
0
102
{BLKREFS
331
152
102
}
 70
     0
280
     1
281
     0
  0
BLOCK_RECORD
  5
158
330
1
100
AcDbSymbolTableRecord
100
AcDbBlockTableRecord
  2
AI9-BLK60
340
0
102
{BLKREFS
331
159
102
}
 70
     0
280
     1
281
     0
  0
BLOCK_RECORD
  5
15B
330
1
100
AcDbSymbolTableRecord
100
AcDbBlockTableRecord
  2
AI9-BLK61
340
0
102
{BLKREFS
331
15C
102
}
 70
     0
280
     1
281
     0
  0
BLOCK_RECORD
  5
15E
330
1
100
AcDbSymbolTableRecord
100
AcDbBlockTableRecord
  2
AI9-BLK62
340
0
102
{BLKREFS
331
15F
102
}
 70
     0
280
     1
281
     0
  0
ENDTAB
  0
ENDSEC
  0
SECTION
  2
BLOCKS
  0
BLOCK
  5
D
330
A
100
AcDbEntity
  8
0
100
AcDbBlockBegin
  2
*MODEL_SPACE
 70
     0
 10
0.0
 20
0.0
 30
0.0
  3
*MODEL_SPACE
  1

  0
ENDBLK
  5
E
330
A
100
AcDbEntity
  8
0
100
AcDbBlockEnd
  0
BLOCK
  5
F
330
B
100
AcDbEntity
 67
     1
  8
0
100
AcDbBlockBegin
  2
*PAPER_SPACE
 70
     0
 10
0.0
 20
0.0
 30
0.0
  3
*PAPER_SPACE
  1

  0
ENDBLK
  5
10
330
B
100
AcDbEntity
 67
     1
  8
0
100
AcDbBlockEnd
  0
BLOCK
  5
5B
330
59
100
AcDbEntity
  8
LAYER_1
 62
     7
100
AcDbBlockBegin
  2
AI9-BLK1
 70
     0
 10
0.0
 20
0.0
 30
0.0
  3
AI9-BLK1
  1

  0
INSERT
  5
5D
330
59
100
AcDbEntity
  8
LAYER_1
 62
     7
100
AcDbBlockReference
  2
AI9-BLK2
 10
0.0
 20
0.0
 30
0.0
  0
ENDBLK
  5
6B
330
59
100
AcDbEntity
  8
LAYER_1
100
AcDbBlockEnd
  0
BLOCK
  5
5E
330
5C
100
AcDbEntity
  8
LAYER_1
 62
     7
100
AcDbBlockBegin
  2
AI9-BLK2
 70
     0
 10
0.0
 20
0.0
 30
0.0
  3
AI9-BLK2
  1

  0
INSERT
  5
60
330
5C
100
AcDbEntity
  8
LAYER_1
 62
     7
100
AcDbBlockReference
  2
AI9-BLK3
 10
0.0
 20
0.0
 30
0.0
  0
ENDBLK
  5
6A
330
5C
100
AcDbEntity
  8
LAYER_1
100
AcDbBlockEnd
  0
BLOCK
  5
61
330
5F
100
AcDbEntity
  8
LAYER_1
 62
     7
100
AcDbBlockBegin
  2
AI9-BLK3
 70
     0
 10
0.0
 20
0.0
 30
0.0
  3
AI9-BLK3
  1

  0
INSERT
  5
63
330
5F
100
AcDbEntity
  8
LAYER_1
 62
     7
100
AcDbBlockReference
  2
AI9-BLK4
 10
0.0
 20
0.0
 30
0.0
  0
ENDBLK
  5
69
330
5F
100
AcDbEntity
  8
LAYER_1
100
AcDbBlockEnd
  0
BLOCK
  5
64
330
62
100
AcDbEntity
  8
LAYER_1
 62
     7
100
AcDbBlockBegin
  2
AI9-BLK4
 70
     0
 10
0.0
 20
0.0
 30
0.0
  3
AI9-BLK4
  1

  0
CIRCLE
  5
67
330
62
100
AcDbEntity
  8
LAYER_1
 62
     7
100
AcDbCircle
 10
0.000172
 20
-0.000345
 30
0.0
 40
1.000111
  0
LINE
  5
66
330
62
100
AcDbEntity
  8
LAYER_1
 62
     7
100
AcDbLine
 10
-0.000172
 20
1.999878
 30
0.0
 11
-0.000172
 21
-1.999878
 31
0.0
  0
LINE
  5
65
330
62
100
AcDbEntity
  8
LAYER_1
 62
     7
100
AcDbLine
 10
-2.00005
 20
-0.000345
 30
0.0
 11
2.00005
 21
-0.000345
 31
0.0
  0
ENDBLK
  5
68
330
62
100
AcDbEntity
  8
LAYER_1
100
AcDbBlockEnd
  0
BLOCK
  5
6E
330
6C
100
AcDbEntity
  8
LAYER_1
 62
     7
100
AcDbBlockBegin
  2
AI9-BLK5
 70
     0
 10
0.0
 20
0.0
 30
0.0
  3
AI9-BLK5
  1

  0
INSERT
  5
70
330
6C
100
AcDbEntity
  8
LAYER_1
 62
     7
100
AcDbBlockReference
  2
AI9-BLK6
 10
0.0
 20
0.0
 30
0.0
  0
ENDBLK
  5
7E
330
6C
100
AcDbEntity
  8
LAYER_1
100
AcDbBlockEnd
  0
BLOCK
  5
71
330
6F
100
AcDbEntity
  8
LAYER_1
 62
     7
100
AcDbBlockBegin
  2
AI9-BLK6
 70
     0
 10
0.0
 20
0.0
 30
0.0
  3
AI9-BLK6
  1

  0
INSERT
  5
73
330
6F
100
AcDbEntity
  8
LAYER_1
 62
     7
100
AcDbBlockReference
  2
AI9-BLK7
 10
0.0
 20
0.0
 30
0.0
  0
ENDBLK
  5
7D
330
6F
100
AcDbEntity
  8
LAYER_1
100
AcDbBlockEnd
  0
BLOCK
  5
74
330
72
100
AcDbEntity
  8
LAYER_1
 62
     7
100
AcDbBlockBegin
  2
AI9-BLK7
 70
     0
 10
0.0
 20
0.0
 30
0.0
  3
AI9-BLK7
  1

  0
INSERT
  5
76
330
72
100
AcDbEntity
  8
LAYER_1
 62
     7
100
AcDbBlockReference
  2
AI9-BLK8
 10
0.0
 20
0.0
 30
0.0
  0
ENDBLK
  5
7C
330
72
100
AcDbEntity
  8
LAYER_1
100
AcDbBlockEnd
  0
BLOCK
  5
77
330
75
100
AcDbEntity
  8
LAYER_1
 62
     7
100
AcDbBlockBegin
  2
AI9-BLK8
 70
     0
 10
0.0
 20
0.0
 30
0.0
  3
AI9-BLK8
  1

  0
CIRCLE
  5
7A
330
75
100
AcDbEntity
  8
LAYER_1
 62
     7
100
AcDbCircle
 10
0.000172
 20
-0.000345
 30
0.0
 40
1.000111
  0
LINE
  5
79
330
75
100
AcDbEntity
  8
LAYER_1
 62
     7
100
AcDbLine
 10
-0.000172
 20
1.999878
 30
0.0
 11
-0.000172
 21
-1.999878
 31
0.0
  0
LINE
  5
78
330
75
100
AcDbEntity
  8
LAYER_1
 62
     7
100
AcDbLine
 10
-2.00005
 20
-0.000345
 30
0.0
 11
2.00005
 21
-0.000345
 31
0.0
  0
ENDBLK
  5
7B
330
75
100
AcDbEntity
  8
LAYER_1
100
AcDbBlockEnd
  0
BLOCK
  5
83
330
81
100
AcDbEntity
  8
LAYER_1
 62
     7
100
AcDbBlockBegin
  2
AI9-BLK9
 70
     0
 10
0.0
 20
0.0
 30
0.0
  3
AI9-BLK9
  1

  0
INSERT
  5
85
330
81
100
AcDbEntity
  8
LAYER_1
 62
     7
100
AcDbBlockReference
  2
AI9-BLK10
 10
0.0
 20
0.0
 30
0.0
  0
ENDBLK
  5
8C
330
81
100
AcDbEntity
  8
LAYER_1
100
AcDbBlockEnd
  0
BLOCK
  5
86
330
84
100
AcDbEntity
  8
LAYER_1
 62
     7
100
AcDbBlockBegin
  2
AI9-BLK10
 70
     0
 10
0.0
 20
0.0
 30
0.0
  3
AI9-BLK10
  1

  0
INSERT
  5
88
330
84
100
AcDbEntity
  8
LAYER_1
 62
     7
100
AcDbBlockReference
  2
AI9-BLK11
 10
0.0
 20
0.0
 30
0.0
  0
ENDBLK
  5
8B
330
84
100
AcDbEntity
  8
LAYER_1
100
AcDbBlockEnd
  0
BLOCK
  5
89
330
87
100
AcDbEntity
  8
LAYER_1
 62
     7
100
AcDbBlockBegin
  2
AI9-BLK11
 70
     0
 10
0.0
 20
0.0
 30
0.0
  3
AI9-BLK11
  1

  0
ENDBLK
  5
8A
330
87
100
AcDbEntity
  8
LAYER_1
100
AcDbBlockEnd
  0
BLOCK
  5
8F
330
8D
100
AcDbEntity
  8
LAYER_1
 62
     7
100
AcDbBlockBegin
  2
AI9-BLK12
 70
     0
 10
0.0
 20
0.0
 30
0.0
  3
AI9-BLK12
  1

  0
INSERT
  5
91
330
8D
100
AcDbEntity
  8
LAYER_1
 62
     7
100
AcDbBlockReference
  2
AI9-BLK13
 10
0.0
 20
0.0
 30
0.0
  0
ENDBLK
  5
98
330
8D
100
AcDbEntity
  8
LAYER_1
100
AcDbBlockEnd
  0
BLOCK
  5
92
330
90
100
AcDbEntity
  8
LAYER_1
 62
     7
100
AcDbBlockBegin
  2
AI9-BLK13
 70
     0
 10
0.0
 20
0.0
 30
0.0
  3
AI9-BLK13
  1

  0
INSERT
  5
94
330
90
100
AcDbEntity
  8
LAYER_1
 62
     7
100
AcDbBlockReference
  2
AI9-BLK14
 10
0.0
 20
0.0
 30
0.0
  0
ENDBLK
  5
97
330
90
100
AcDbEntity
  8
LAYER_1
100
AcDbBlockEnd
  0
BLOCK
  5
95
330
93
100
AcDbEntity
  8
LAYER_1
 62
     7
100
AcDbBlockBegin
  2
AI9-BLK14
 70
     0
 10
0.0
 20
0.0
 30
0.0
  3
AI9-BLK14
  1

  0
ENDBLK
  5
96
330
93
100
AcDbEntity
  8
LAYER_1
100
AcDbBlockEnd
  0
BLOCK
  5
9B
330
99
100
AcDbEntity
  8
LAYER_1
 62
     7
100
AcDbBlockBegin
  2
AI9-BLK15
 70
     0
 10
0.0
 20
0.0
 30
0.0
  3
AI9-BLK15
  1

  0
INSERT
  5
9D
330
99
100
AcDbEntity
  8
LAYER_1
 62
     7
100
AcDbBlockReference
  2
AI9-BLK16
 10
-0.087333
 20
0.0
 30
0.0
  0
ENDBLK
  5
A5
330
99
100
AcDbEntity
  8
LAYER_1
100
AcDbBlockEnd
  0
BLOCK
  5
9E
330
9C
100
AcDbEntity
  8
LAYER_1
 62
     7
100
AcDbBlockBegin
  2
AI9-BLK16
 70
     0
 10
0.0
 20
0.0
 30
0.0
  3
AI9-BLK16
  1

  0
INSERT
  5
A0
330
9C
100
AcDbEntity
  8
LAYER_1
 62
     7
100
AcDbBlockReference
  2
AI9-BLK17
 10
-0.04203
 20
0.299465
 30
0.0
  0
ENDBLK
  5
A4
330
9C
100
AcDbEntity
  8
LAYER_1
100
AcDbBlockEnd
  0
BLOCK
  5
A1
330
9F
100
AcDbEntity
  8
LAYER_1
 62
     7
100
AcDbBlockBegin
  2
AI9-BLK17
 70
     0
 10
0.0
 20
0.0
 30
0.0
  3
AI9-BLK17
  1

  0
HATCH
  5
A2
330
9F
100
AcDbEntity
  8
LAYER_1
 62
     7
100
AcDbHatch
 10
0.0
 20
0.0
 30
0.0
210
0.0
220
0.0
230
1.0
  2
SOLID
 70
     1
 71
     0
 91
        1
 92
        1
 93
        1
 72
     4
 94
        3
 73
     0
 74
     0
 95
       14
 96
       10
 40
0.0
 40
0.0
 40
0.0
 40
0.0
 40
1.0
 40
1.0
 40
1.0
 40
2.0
 40
2.0
 40
2.0
 40
3.0
 40
3.0
 40
3.0
 40
3.0
 10
3.191191948784722
 20
-0.591781277126736
 10
3.191191948784722
 20
-0.591781277126736
 10
3.332096354166666
 20
-0.2991204155815972
 10
-3.269740125868055
 20
0.591781277126736
 10
3.319694010416666
 20
-0.2973978678385417
 10
3.269740125868055
 20
-0.0071485731336806
 10
3.269740125868055
 20
-0.0071485731336806
 10
3.269740125868055
 20
-0.0071485731336806
 10
3.191191948784722
 20
-0.591781277126736
 10
3.191191948784722
 20
-0.591781277126736
 97
        0
 97
        0
 75
     0
 76
     1
 98
        1
 10
0.0
 20
0.0
  0
ENDBLK
  5
A3
330
9F
100
AcDbEntity
  8
LAYER_1
100
AcDbBlockEnd
  0
BLOCK
  5
A8
330
A6
100
AcDbEntity
  8
LAYER_1
 62
     7
100
AcDbBlockBegin
  2
AI9-BLK18
 70
     0
 10
0.0
 20
0.0
 30
0.0
  3
AI9-BLK18
  1

  0
INSERT
  5
AA
330
A6
100
AcDbEntity
  8
LAYER_1
 62
     7
100
AcDbBlockReference
  2
AI9-BLK19
 10
-0.087333
 20
0.0
 30
0.0
  0
ENDBLK
  5
B2
330
A6
100
AcDbEntity
  8
LAYER_1
100
AcDbBlockEnd
  0
BLOCK
  5
AB
330
A9
100
AcDbEntity
  8
LAYER_1
 62
     7
100
AcDbBlockBegin
  2
AI9-BLK19
 70
     0
 10
0.0
 20
0.0
 30
0.0
  3
AI9-BLK19
  1

  0
INSERT
  5
AD
330
A9
100
AcDbEntity
  8
LAYER_1
 62
     7
100
AcDbBlockReference
  2
AI9-BLK20
 10
-0.049093
 20
0.276297
 30
0.0
  0
ENDBLK
  5
B1
330
A9
100
AcDbEntity
  8
LAYER_1
100
AcDbBlockEnd
  0
BLOCK
  5
AE
330
AC
100
AcDbEntity
  8
LAYER_1
 62
     7
100
AcDbBlockBegin
  2
AI9-BLK20
 70
     0
 10
0.0
 20
0.0
 30
0.0
  3
AI9-BLK20
  1

  0
HATCH
  5
AF
330
AC
100
AcDbEntity
  8
LAYER_1
 62
     7
100
AcDbHatch
 10
0.0
 20
0.0
 30
0.0
210
0.0
220
0.0
230
1.0
  2
SOLID
 70
     1
 71
     0
 91
        1
 92
        1
 93
        1
 72
     4
 94
        3
 73
     0
 74
     0
 95
       14
 96
       10
 40
0.0
 40
0.0
 40
0.0
 40
0.0
 40
1.0
 40
1.0
 40
1.0
 40
2.0
 40
2.0
 40
2.0
 40
3.0
 40
3.0
 40
3.0
 40
3.0
 10
3.181028917100694
 20
-0.6178778754340277
 10
3.181028917100694
 20
-0.6178778754340277
 10
3.328823513454861
 20
-0.2737128363715278
 10
-3.27266845703125
 20
0.6178778754340277
 10
3.316421169704861
 20
-0.2719902886284722
 10
3.27266845703125
 20
0.0651123046875
 10
3.27266845703125
 20
0.0651123046875
 10
3.27266845703125
 20
0.0651123046875
 10
3.181028917100694
 20
-0.6178778754340277
 10
3.181028917100694
 20
-0.6178778754340277
 97
        0
 97
        0
 75
     0
 76
     1
 98
        1
 10
0.0
 20
0.0
  0
ENDBLK
  5
B0
330
AC
100
AcDbEntity
  8
LAYER_1
100
AcDbBlockEnd
  0
BLOCK
  5
B5
330
B3
100
AcDbEntity
  8
LAYER_1
 62
     7
100
AcDbBlockBegin
  2
AI9-BLK21
 70
     0
 10
0.0
 20
0.0
 30
0.0
  3
AI9-BLK21
  1

  0
INSERT
  5
B7
330
B3
100
AcDbEntity
  8
LAYER_1
 62
     7
100
AcDbBlockReference
  2
AI9-BLK22
 10
-0.087333
 20
0.0
 30
0.0
  0
ENDBLK
  5
BF
330
B3
100
AcDbEntity
  8
LAYER_1
100
AcDbBlockEnd
  0
BLOCK
  5
B8
330
B6
100
AcDbEntity
  8
LAYER_1
 62
     7
100
AcDbBlockBegin
  2
AI9-BLK22
 70
     0
 10
0.0
 20
0.0
 30
0.0
  3
AI9-BLK22
  1

  0
INSERT
  5
BA
330
B6
100
AcDbEntity
  8
LAYER_1
 62
     7
100
AcDbBlockReference
  2
AI9-BLK23
 10
-0.042547
 20
0.302307
 30
0.0
  0
ENDBLK
  5
BE
330
B6
100
AcDbEntity
  8
LAYER_1
100
AcDbBlockEnd
  0
BLOCK
  5
BB
330
B9
100
AcDbEntity
  8
LAYER_1
 62
     7
100
AcDbBlockBegin
  2
AI9-BLK23
 70
     0
 10
0.0
 20
0.0
 30
0.0
  3
AI9-BLK23
  1

  0
HATCH
  5
BC
330
B9
100
AcDbEntity
  8
LAYER_1
 62
     7
100
AcDbHatch
 10
0.0
 20
0.0
 30
0.0
210
0.0
220
0.0
230
1.0
  2
SOLID
 70
     1
 71
     0
 91
        1
 92
        1
 93
        1
 72
     4
 94
        3
 73
     0
 74
     0
 95
       14
 96
       10
 40
0.0
 40
0.0
 40
0.0
 40
0.0
 40
1.0
 40
1.0
 40
1.0
 40
2.0
 40
2.0
 40
2.0
 40
3.0
 40
3.0
 40
3.0
 40
3.0
 10
3.189641655815972
 20
-0.5963460286458333
 10
3.189641655815972
 20
-0.5963460286458333
 10
3.331235080295138
 20
-0.3019626193576389
 10
-3.26956787109375
 20
0.5963460286458333
 10
3.318832736545139
 20
-0.3004123263888889
 10
3.26956787109375
 20
-0.0084404839409722
 10
3.26956787109375
 20
-0.0084404839409722
 10
3.26956787109375
 20
-0.0084404839409722
 10
3.189641655815972
 20
-0.5963460286458333
 10
3.189641655815972
 20
-0.5963460286458333
 97
        0
 97
        0
 75
     0
 76
     1
 98
        1
 10
0.0
 20
0.0
  0
ENDBLK
  5
BD
330
B9
100
AcDbEntity
  8
LAYER_1
100
AcDbBlockEnd
  0
BLOCK
  5
C2
330
C0
100
AcDbEntity
  8
LAYER_1
 62
     7
100
AcDbBlockBegin
  2
AI9-BLK24
 70
     0
 10
0.0
 20
0.0
 30
0.0
  3
AI9-BLK24
  1

  0
INSERT
  5
C4
330
C0
100
AcDbEntity
  8
LAYER_1
 62
     7
100
AcDbBlockReference
  2
AI9-BLK25
 10
-0.087333
 20
0.0
 30
0.0
  0
ENDBLK
  5
CC
330
C0
100
AcDbEntity
  8
LAYER_1
100
AcDbBlockEnd
  0
BLOCK
  5
C5
330
C3
100
AcDbEntity
  8
LAYER_1
 62
     7
100
AcDbBlockBegin
  2
AI9-BLK25
 70
     0
 10
0.0
 20
0.0
 30
0.0
  3
AI9-BLK25
  1

  0
INSERT
  5
C7
330
C3
100
AcDbEntity
  8
LAYER_1
 62
     7
100
AcDbBlockReference
  2
AI9-BLK26
 10
-0.048576
 20
0.286029
 30
0.0
  0
ENDBLK
  5
CB
330
C3
100
AcDbEntity
  8
LAYER_1
100
AcDbBlockEnd
  0
BLOCK
  5
C8
330
C6
100
AcDbEntity
  8
LAYER_1
 62
     7
100
AcDbBlockBegin
  2
AI9-BLK26
 70
     0
 10
0.0
 20
0.0
 30
0.0
  3
AI9-BLK26
  1

  0
HATCH
  5
C9
330
C6
100
AcDbEntity
  8
LAYER_1
 62
     7
100
AcDbHatch
 10
0.0
 20
0.0
 30
0.0
210
0.0
220
0.0
230
1.0
  2
SOLID
 70
     1
 71
     0
 91
        1
 92
        1
 93
        1
 72
     4
 94
        3
 73
     0
 74
     0
 95
       14
 96
       10
 40
0.0
 40
0.0
 40
0.0
 40
0.0
 40
1.0
 40
1.0
 40
1.0
 40
2.0
 40
2.0
 40
2.0
 40
3.0
 40
3.0
 40
3.0
 40
3.0
 10
3.180684407552083
 20
-0.619342041015625
 10
3.180684407552083
 20
-0.619342041015625
 10
3.328134494357639
 20
-0.2839619954427083
 10
-3.271634928385416
 20
0.619342041015625
 10
3.315732150607638
 20
-0.2822394476996528
 10
3.271634928385416
 20
0.047283935546875
 10
3.271634928385416
 20
0.047283935546875
 10
3.271634928385416
 20
0.047283935546875
 10
3.180684407552083
 20
-0.619342041015625
 10
3.180684407552083
 20
-0.619342041015625
 97
        0
 97
        0
 75
     0
 76
     1
 98
        1
 10
0.0
 20
0.0
  0
ENDBLK
  5
CA
330
C6
100
AcDbEntity
  8
LAYER_1
100
AcDbBlockEnd
  0
BLOCK
  5
CF
330
CD
100
AcDbEntity
  8
LAYER_1
 62
     7
100
AcDbBlockBegin
  2
AI9-BLK27
 70
     0
 10
0.0
 20
0.0
 30
0.0
  3
AI9-BLK27
  1

  0
INSERT
  5
D1
330
CD
100
AcDbEntity
  8
LAYER_1
 62
     7
100
AcDbBlockReference
  2
AI9-BLK28
 10
-0.087333
 20
0.0
 30
0.0
  0
ENDBLK
  5
D9
330
CD
100
AcDbEntity
  8
LAYER_1
100
AcDbBlockEnd
  0
BLOCK
  5
D2
330
D0
100
AcDbEntity
  8
LAYER_1
 62
     7
100
AcDbBlockBegin
  2
AI9-BLK28
 70
     0
 10
0.0
 20
0.0
 30
0.0
  3
AI9-BLK28
  1

  0
INSERT
  5
D4
330
D0
100
AcDbEntity
  8
LAYER_1
 62
     7
100
AcDbBlockReference
  2
AI9-BLK29
 10
-0.04203
 20
0.295331
 30
0.0
  0
ENDBLK
  5
D8
330
D0
100
AcDbEntity
  8
LAYER_1
100
AcDbBlockEnd
  0
BLOCK
  5
D5
330
D3
100
AcDbEntity
  8
LAYER_1
 62
     7
100
AcDbBlockBegin
  2
AI9-BLK29
 70
     0
 10
0.0
 20
0.0
 30
0.0
  3
AI9-BLK29
  1

  0
HATCH
  5
D6
330
D3
100
AcDbEntity
  8
LAYER_1
 62
     7
100
AcDbHatch
 10
0.0
 20
0.0
 30
0.0
210
0.0
220
0.0
230
1.0
  2
SOLID
 70
     1
 71
     0
 91
        1
 92
        1
 93
        1
 72
     4
 94
        3
 73
     0
 74
     0
 95
       14
 96
       10
 40
0.0
 40
0.0
 40
0.0
 40
0.0
 40
1.0
 40
1.0
 40
1.0
 40
2.0
 40
2.0
 40
2.0
 40
3.0
 40
3.0
 40
3.0
 40
3.0
 10
3.191536458333333
 20
-0.5898864746093749
 10
3.191536458333333
 20
-0.5898864746093749
 10
3.332440863715278
 20
-0.2948140462239583
 10
-3.270084635416666
 20
0.5898864746093749
 10
3.320038519965277
 20
-0.2930914984809028
 10
3.270084635416666
 20
-0.0009474012586806
 10
3.270084635416666
 20
-0.0009474012586806
 10
3.270084635416666
 20
-0.0009474012586806
 10
3.191536458333333
 20
-0.5898864746093749
 10
3.191536458333333
 20
-0.5898864746093749
 97
        0
 97
        0
 75
     0
 76
     1
 98
        1
 10
0.0
 20
0.0
  0
ENDBLK
  5
D7
330
D3
100
AcDbEntity
  8
LAYER_1
100
AcDbBlockEnd
  0
BLOCK
  5
DC
330
DA
100
AcDbEntity
  8
LAYER_1
 62
     7
100
AcDbBlockBegin
  2
AI9-BLK30
 70
     0
 10
0.0
 20
0.0
 30
0.0
  3
AI9-BLK30
  1

  0
INSERT
  5
DE
330
DA
100
AcDbEntity
  8
LAYER_1
 62
     7
100
AcDbBlockReference
  2
AI9-BLK31
 10
0.0
 20
0.0
 30
0.0
  0
ENDBLK
  5
E5
330
DA
100
AcDbEntity
  8
LAYER_1
100
AcDbBlockEnd
  0
BLOCK
  5
DF
330
DD
100
AcDbEntity
  8
LAYER_1
 62
     7
100
AcDbBlockBegin
  2
AI9-BLK31
 70
     0
 10
0.0
 20
0.0
 30
0.0
  3
AI9-BLK31
  1

  0
INSERT
  5
E1
330
DD
100
AcDbEntity
  8
LAYER_1
 62
     7
100
AcDbBlockReference
  2
AI9-BLK32
 10
0.0
 20
0.0
 30
0.0
  0
ENDBLK
  5
E4
330
DD
100
AcDbEntity
  8
LAYER_1
100
AcDbBlockEnd
  0
BLOCK
  5
E2
330
E0
100
AcDbEntity
  8
LAYER_1
 62
     7
100
AcDbBlockBegin
  2
AI9-BLK32
 70
     0
 10
0.0
 20
0.0
 30
0.0
  3
AI9-BLK32
  1

  0
ENDBLK
  5
E3
330
E0
100
AcDbEntity
  8
LAYER_1
100
AcDbBlockEnd
  0
BLOCK
  5
E8
330
E6
100
AcDbEntity
  8
LAYER_1
 62
     7
100
AcDbBlockBegin
  2
AI9-BLK33
 70
     0
 10
0.0
 20
0.0
 30
0.0
  3
AI9-BLK33
  1

  0
INSERT
  5
EA
330
E6
100
AcDbEntity
  8
LAYER_1
 62
     7
100
AcDbBlockReference
  2
AI9-BLK34
 10
0.0
 20
0.0
 30
0.0
  0
ENDBLK
  5
F1
330
E6
100
AcDbEntity
  8
LAYER_1
100
AcDbBlockEnd
  0
BLOCK
  5
EB
330
E9
100
AcDbEntity
  8
LAYER_1
 62
     7
100
AcDbBlockBegin
  2
AI9-BLK34
 70
     0
 10
0.0
 20
0.0
 30
0.0
  3
AI9-BLK34
  1

  0
INSERT
  5
ED
330
E9
100
AcDbEntity
  8
LAYER_1
 62
     7
100
AcDbBlockReference
  2
AI9-BLK35
 10
0.0
 20
0.0
 30
0.0
  0
ENDBLK
  5
F0
330
E9
100
AcDbEntity
  8
LAYER_1
100
AcDbBlockEnd
  0
BLOCK
  5
EE
330
EC
100
AcDbEntity
  8
LAYER_1
 62
     7
100
AcDbBlockBegin
  2
AI9-BLK35
 70
     0
 10
0.0
 20
0.0
 30
0.0
  3
AI9-BLK35
  1

  0
ENDBLK
  5
EF
330
EC
100
AcDbEntity
  8
LAYER_1
100
AcDbBlockEnd
  0
BLOCK
  5
F4
330
F2
100
AcDbEntity
  8
LAYER_1
 62
     7
100
AcDbBlockBegin
  2
AI9-BLK36
 70
     0
 10
0.0
 20
0.0
 30
0.0
  3
AI9-BLK36
  1

  0
INSERT
  5
F6
330
F2
100
AcDbEntity
  8
LAYER_1
 62
     7
100
AcDbBlockReference
  2
AI9-BLK37
 10
0.016364
 20
0.086644
 30
0.0
  0
ENDBLK
  5
FE
330
F2
100
AcDbEntity
  8
LAYER_1
100
AcDbBlockEnd
  0
BLOCK
  5
F7
330
F5
100
AcDbEntity
  8
LAYER_1
 62
     7
100
AcDbBlockBegin
  2
AI9-BLK37
 70
     0
 10
0.0
 20
0.0
 30
0.0
  3
AI9-BLK37
  1

  0
INSERT
  5
F9
330
F5
100
AcDbEntity
  8
LAYER_1
 62
     7
100
AcDbBlockReference
  2
AI9-BLK38
 10
0.36518
 20
0.069074
 30
0.0
  0
ENDBLK
  5
FD
330
F5
100
AcDbEntity
  8
LAYER_1
100
AcDbBlockEnd
  0
BLOCK
  5
FA
330
F8
100
AcDbEntity
  8
LAYER_1
 62
     7
100
AcDbBlockBegin
  2
AI9-BLK38
 70
     0
 10
0.0
 20
0.0
 30
0.0
  3
AI9-BLK38
  1

  0
HATCH
  5
FB
330
F8
100
AcDbEntity
  8
LAYER_1
 62
     7
100
AcDbHatch
 10
0.0
 20
0.0
 30
0.0
210
0.0
220
0.0
230
1.0
  2
SOLID
 70
     1
 71
     0
 91
        1
 92
        1
 93
        1
 72
     4
 94
        3
 73
     0
 74
     0
 95
       14
 96
       10
 40
0.0
 40
0.0
 40
0.0
 40
0.0
 40
1.0
 40
1.0
 40
1.0
 40
2.0
 40
2.0
 40
2.0
 40
3.0
 40
3.0
 40
3.0
 40
3.0
 10
-0.7887546115451388
 20
-3.124701605902778
 10
-0.7887546115451388
 20
-3.124701605902778
 10
-0.4459676106770833
 20
-3.291616482204861
 10
0.7887546115451388
 20
3.254581705729166
 10
-0.4435560438368055
 20
-3.279386393229166
 10
-0.0987019856770833
 20
-3.254581705729166
 10
-0.0987019856770833
 20
-3.254581705729166
 10
-0.0987019856770833
 20
-3.254581705729166
 10
-0.7887546115451388
 20
-3.124701605902778
 10
-0.7887546115451388
 20
-3.124701605902778
 97
        0
 97
        0
 75
     0
 76
     1
 98
        1
 10
0.0
 20
0.0
  0
ENDBLK
  5
FC
330
F8
100
AcDbEntity
  8
LAYER_1
100
AcDbBlockEnd
  0
BLOCK
  5
101
330
FF
100
AcDbEntity
  8
LAYER_1
 62
     7
100
AcDbBlockBegin
  2
AI9-BLK39
 70
     0
 10
0.0
 20
0.0
 30
0.0
  3
AI9-BLK39
  1

  0
INSERT
  5
103
330
FF
100
AcDbEntity
  8
LAYER_1
 62
     7
100
AcDbBlockReference
  2
AI9-BLK40
 10
0.016192
 20
0.086644
 30
0.0
  0
ENDBLK
  5
10B
330
FF
100
AcDbEntity
  8
LAYER_1
100
AcDbBlockEnd
  0
BLOCK
  5
104
330
102
100
AcDbEntity
  8
LAYER_1
 62
     7
100
AcDbBlockBegin
  2
AI9-BLK40
 70
     0
 10
0.0
 20
0.0
 30
0.0
  3
AI9-BLK40
  1

  0
INSERT
  5
106
330
102
100
AcDbEntity
  8
LAYER_1
 62
     7
100
AcDbBlockReference
  2
AI9-BLK41
 10
0.357601
 20
0.067524
 30
0.0
  0
ENDBLK
  5
10A
330
102
100
AcDbEntity
  8
LAYER_1
100
AcDbBlockEnd
  0
BLOCK
  5
107
330
105
100
AcDbEntity
  8
LAYER_1
 62
     7
100
AcDbBlockBegin
  2
AI9-BLK41
 70
     0
 10
0.0
 20
0.0
 30
0.0
  3
AI9-BLK41
  1

  0
HATCH
  5
108
330
105
100
AcDbEntity
  8
LAYER_1
 62
     7
100
AcDbHatch
 10
0.0
 20
0.0
 30
0.0
210
0.0
220
0.0
230
1.0
  2
SOLID
 70
     1
 71
     0
 91
        1
 92
        1
 93
        1
 72
     4
 94
        3
 73
     0
 74
     0
 95
       14
 96
       10
 40
0.0
 40
0.0
 40
0.0
 40
0.0
 40
1.0
 40
1.0
 40
1.0
 40
2.0
 40
2.0
 40
2.0
 40
3.0
 40
3.0
 40
3.0
 40
3.0
 10
-0.7835869683159722
 20
-3.127285427517361
 10
-0.7835869683159722
 20
-3.127285427517361
 10
-0.4483791775173611
 20
-3.292477756076388
 10
0.7835869683159722
 20
3.25406494140625
 10
-0.4459676106770833
 20
-3.280247667100694
 10
-0.1076592339409722
 20
-3.25406494140625
 10
-0.1076592339409722
 20
-3.25406494140625
 10
-0.1076592339409722
 20
-3.25406494140625
 10
-0.7835869683159722
 20
-3.127285427517361
 10
-0.7835869683159722
 20
-3.127285427517361
 97
        0
 97
        0
 75
     0
 76
     1
 98
        1
 10
0.0
 20
0.0
  0
ENDBLK
  5
109
330
105
100
AcDbEntity
  8
LAYER_1
100
AcDbBlockEnd
  0
BLOCK
  5
10E
330
10C
100
AcDbEntity
  8
LAYER_1
 62
     7
100
AcDbBlockBegin
  2
AI9-BLK42
 70
     0
 10
0.0
 20
0.0
 30
0.0
  3
AI9-BLK42
  1

  0
INSERT
  5
110
330
10C
100
AcDbEntity
  8
LAYER_1
 62
     7
100
AcDbBlockReference
  2
AI9-BLK43
 10
0.0
 20
0.0
 30
0.0
  0
ENDBLK
  5
117
330
10C
100
AcDbEntity
  8
LAYER_1
100
AcDbBlockEnd
  0
BLOCK
  5
111
330
10F
100
AcDbEntity
  8
LAYER_1
 62
     7
100
AcDbBlockBegin
  2
AI9-BLK43
 70
     0
 10
0.0
 20
0.0
 30
0.0
  3
AI9-BLK43
  1

  0
INSERT
  5
113
330
10F
100
AcDbEntity
  8
LAYER_1
 62
     7
100
AcDbBlockReference
  2
AI9-BLK44
 10
0.0
 20
0.0
 30
0.0
  0
ENDBLK
  5
116
330
10F
100
AcDbEntity
  8
LAYER_1
100
AcDbBlockEnd
  0
BLOCK
  5
114
330
112
100
AcDbEntity
  8
LAYER_1
 62
     7
100
AcDbBlockBegin
  2
AI9-BLK44
 70
     0
 10
0.0
 20
0.0
 30
0.0
  3
AI9-BLK44
  1

  0
ENDBLK
  5
115
330
112
100
AcDbEntity
  8
LAYER_1
100
AcDbBlockEnd
  0
BLOCK
  5
11A
330
118
100
AcDbEntity
  8
LAYER_1
 62
     7
100
AcDbBlockBegin
  2
AI9-BLK45
 70
     0
 10
0.0
 20
0.0
 30
0.0
  3
AI9-BLK45
  1

  0
INSERT
  5
11C
330
118
100
AcDbEntity
  8
LAYER_1
 62
     7
100
AcDbBlockReference
  2
AI9-BLK46
 10
0.0
 20
0.0
 30
0.0
  0
ENDBLK
  5
123
330
118
100
AcDbEntity
  8
LAYER_1
100
AcDbBlockEnd
  0
BLOCK
  5
11D
330
11B
100
AcDbEntity
  8
LAYER_1
 62
     7
100
AcDbBlockBegin
  2
AI9-BLK46
 70
     0
 10
0.0
 20
0.0
 30
0.0
  3
AI9-BLK46
  1

  0
INSERT
  5
11F
330
11B
100
AcDbEntity
  8
LAYER_1
 62
     7
100
AcDbBlockReference
  2
AI9-BLK47
 10
0.0
 20
0.0
 30
0.0
  0
ENDBLK
  5
122
330
11B
100
AcDbEntity
  8
LAYER_1
100
AcDbBlockEnd
  0
BLOCK
  5
120
330
11E
100
AcDbEntity
  8
LAYER_1
 62
     7
100
AcDbBlockBegin
  2
AI9-BLK47
 70
     0
 10
0.0
 20
0.0
 30
0.0
  3
AI9-BLK47
  1

  0
ENDBLK
  5
121
330
11E
100
AcDbEntity
  8
LAYER_1
100
AcDbBlockEnd
  0
BLOCK
  5
126
330
124
100
AcDbEntity
  8
LAYER_1
 62
     7
100
AcDbBlockBegin
  2
AI9-BLK48
 70
     0
 10
0.0
 20
0.0
 30
0.0
  3
AI9-BLK48
  1

  0
INSERT
  5
128
330
124
100
AcDbEntity
  8
LAYER_1
 62
     7
100
AcDbBlockReference
  2
AI9-BLK49
 10
0.016364
 20
0.086644
 30
0.0
  0
ENDBLK
  5
130
330
124
100
AcDbEntity
  8
LAYER_1
100
AcDbBlockEnd
  0
BLOCK
  5
129
330
127
100
AcDbEntity
  8
LAYER_1
 62
     7
100
AcDbBlockBegin
  2
AI9-BLK49
 70
     0
 10
0.0
 20
0.0
 30
0.0
  3
AI9-BLK49
  1

  0
INSERT
  5
12B
330
127
100
AcDbEntity
  8
LAYER_1
 62
     7
100
AcDbBlockReference
  2
AI9-BLK50
 10
0.340892
 20
0.064682
 30
0.0
  0
ENDBLK
  5
12F
330
127
100
AcDbEntity
  8
LAYER_1
100
AcDbBlockEnd
  0
BLOCK
  5
12C
330
12A
100
AcDbEntity
  8
LAYER_1
 62
     7
100
AcDbBlockBegin
  2
AI9-BLK50
 70
     0
 10
0.0
 20
0.0
 30
0.0
  3
AI9-BLK50
  1

  0
HATCH
  5
12D
330
12A
100
AcDbEntity
  8
LAYER_1
 62
     7
100
AcDbHatch
 10
0.0
 20
0.0
 30
0.0
210
0.0
220
0.0
230
1.0
  2
SOLID
 70
     1
 71
     0
 91
        1
 92
        1
 93
        1
 72
     4
 94
        3
 73
     0
 74
     0
 95
       14
 96
       10
 40
0.0
 40
0.0
 40
0.0
 40
0.0
 40
1.0
 40
1.0
 40
1.0
 40
2.0
 40
2.0
 40
2.0
 40
3.0
 40
3.0
 40
3.0
 40
3.0
 10
-0.7784193250868054
 20
-3.130644395616319
 10
-0.7784193250868054
 20
-3.130644395616319
 10
-0.4600925021701389
 20
-3.293080647786458
 10
0.7784193250868054
 20
3.252256266276041
 10
-0.4576809353298611
 20
-3.281022813585069
 10
-0.1345309787326389
 20
-3.252256266276041
 10
-0.1345309787326389
 20
-3.252256266276041
 10
-0.1345309787326389
 20
-3.252256266276041
 10
-0.7784193250868054
 20
-3.130644395616319
 10
-0.7784193250868054
 20
-3.130644395616319
 97
        0
 97
        0
 75
     0
 76
     1
 98
        1
 10
0.0
 20
0.0
  0
ENDBLK
  5
12E
330
12A
100
AcDbEntity
  8
LAYER_1
100
AcDbBlockEnd
  0
BLOCK
  5
133
330
131
100
AcDbEntity
  8
LAYER_1
 62
     7
100
AcDbBlockBegin
  2
AI9-BLK51
 70
     0
 10
0.0
 20
0.0
 30
0.0
  3
AI9-BLK51
  1

  0
INSERT
  5
135
330
131
100
AcDbEntity
  8
LAYER_1
 62
     7
100
AcDbBlockReference
  2
AI9-BLK52
 10
0.016192
 20
0.08673
 30
0.0
  0
ENDBLK
  5
13D
330
131
100
AcDbEntity
  8
LAYER_1
100
AcDbBlockEnd
  0
BLOCK
  5
136
330
134
100
AcDbEntity
  8
LAYER_1
 62
     7
100
AcDbBlockBegin
  2
AI9-BLK52
 70
     0
 10
0.0
 20
0.0
 30
0.0
  3
AI9-BLK52
  1

  0
INSERT
  5
138
330
134
100
AcDbEntity
  8
LAYER_1
 62
     7
100
AcDbBlockReference
  2
AI9-BLK53
 10
0.281981
 20
0.052882
 30
0.0
  0
ENDBLK
  5
13C
330
134
100
AcDbEntity
  8
LAYER_1
100
AcDbBlockEnd
  0
BLOCK
  5
139
330
137
100
AcDbEntity
  8
LAYER_1
 62
     7
100
AcDbBlockBegin
  2
AI9-BLK53
 70
     0
 10
0.0
 20
0.0
 30
0.0
  3
AI9-BLK53
  1

  0
HATCH
  5
13A
330
137
100
AcDbEntity
  8
LAYER_1
 62
     7
100
AcDbHatch
 10
0.0
 20
0.0
 30
0.0
210
0.0
220
0.0
230
1.0
  2
SOLID
 70
     1
 71
     0
 91
        1
 92
        1
 93
        1
 72
     4
 94
        3
 73
     0
 74
     0
 95
       14
 96
       10
 40
0.0
 40
0.0
 40
0.0
 40
0.0
 40
1.0
 40
1.0
 40
1.0
 40
2.0
 40
2.0
 40
2.0
 40
3.0
 40
3.0
 40
3.0
 40
3.0
 10
-0.741384548611111
 20
-3.149161783854166
 10
-0.741384548611111
 20
-3.149161783854166
 10
-0.4809353298611111
 20
-3.300056966145833
 10
0.741384548611111
 20
3.248380533854166
 10
-0.4788682725694444
 20
-3.287826877170139
 10
-0.2091172960069444
 20
-3.248380533854166
 10
-0.2091172960069444
 20
-3.248380533854166
 10
-0.2091172960069444
 20
-3.248380533854166
 10
-0.741384548611111
 20
-3.149161783854166
 10
-0.741384548611111
 20
-3.149161783854166
 97
        0
 97
        0
 75
     0
 76
     1
 98
        1
 10
0.0
 20
0.0
  0
ENDBLK
  5
13B
330
137
100
AcDbEntity
  8
LAYER_1
100
AcDbBlockEnd
  0
BLOCK
  5
140
330
13E
100
AcDbEntity
  8
LAYER_1
 62
     7
100
AcDbBlockBegin
  2
AI9-BLK54
 70
     0
 10
0.0
 20
0.0
 30
0.0
  3
AI9-BLK54
  1

  0
INSERT
  5
142
330
13E
100
AcDbEntity
  8
LAYER_1
 62
     7
100
AcDbBlockReference
  2
AI9-BLK55
 10
-0.030317
 20
0.07407
 30
0.0
  0
ENDBLK
  5
14A
330
13E
100
AcDbEntity
  8
LAYER_1
100
AcDbBlockEnd
  0
BLOCK
  5
143
330
141
100
AcDbEntity
  8
LAYER_1
 62
     7
100
AcDbBlockBegin
  2
AI9-BLK55
 70
     0
 10
0.0
 20
0.0
 30
0.0
  3
AI9-BLK55
  1

  0
INSERT
  5
145
330
141
100
AcDbEntity
  8
LAYER_1
 62
     7
100
AcDbBlockReference
  2
AI9-BLK56
 10
-0.274746
 20
0.180092
 30
0.0
  0
ENDBLK
  5
149
330
141
100
AcDbEntity
  8
LAYER_1
100
AcDbBlockEnd
  0
BLOCK
  5
146
330
144
100
AcDbEntity
  8
LAYER_1
 62
     7
100
AcDbBlockBegin
  2
AI9-BLK56
 70
     0
 10
0.0
 20
0.0
 30
0.0
  3
AI9-BLK56
  1

  0
HATCH
  5
147
330
144
100
AcDbEntity
  8
LAYER_1
 62
     7
100
AcDbHatch
 10
0.0
 20
0.0
 30
0.0
210
0.0
220
0.0
230
1.0
  2
SOLID
 70
     1
 71
     0
 91
        1
 92
        1
 93
        1
 72
     4
 94
        3
 73
     0
 74
     0
 95
       14
 96
       10
 40
0.0
 40
0.0
 40
0.0
 40
0.0
 40
1.0
 40
1.0
 40
1.0
 40
2.0
 40
2.0
 40
2.0
 40
3.0
 40
3.0
 40
3.0
 40
3.0
 10
0.0425469292534722
 20
-0.7829840766059027
 10
0.0422024197048611
 20
-0.7829840766059027
 10
0.3250447591145833
 20
-0.630538601345486
 10
-0.5555216471354166
 20
0.7829840766059027
 10
0.3222886827256944
 20
-0.6284715440538194
 10
0.5558661566840277
 20
-0.4517381456163194
 10
0.5555216471354166
 20
-0.4517381456163194
 10
0.5555216471354166
 20
-0.4517381456163194
 10
0.0425469292534722
 20
-0.7829840766059027
 10
0.0425469292534722
 20
-0.7829840766059027
 97
        0
 97
        0
 75
     0
 76
     1
 98
        1
 10
0.0
 20
0.0
  0
ENDBLK
  5
148
330
144
100
AcDbEntity
  8
LAYER_1
100
AcDbBlockEnd
  0
BLOCK
  5
14D
330
14B
100
AcDbEntity
  8
LAYER_1
 62
     7
100
AcDbBlockBegin
  2
AI9-BLK57
 70
     0
 10
0.0
 20
0.0
 30
0.0
  3
AI9-BLK57
  1

  0
INSERT
  5
14F
330
14B
100
AcDbEntity
  8
LAYER_1
 62
     7
100
AcDbBlockReference
  2
AI9-BLK58
 10
0.023943
 20
0.080271
 30
0.0
  0
ENDBLK
  5
157
330
14B
100
AcDbEntity
  8
LAYER_1
100
AcDbBlockEnd
  0
BLOCK
  5
150
330
14E
100
AcDbEntity
  8
LAYER_1
 62
     7
100
AcDbBlockBegin
  2
AI9-BLK58
 70
     0
 10
0.0
 20
0.0
 30
0.0
  3
AI9-BLK58
  1

  0
INSERT
  5
152
330
14E
100
AcDbEntity
  8
LAYER_1
 62
     7
100
AcDbBlockReference
  2
AI9-BLK59
 10
-0.049782
 20
0.198437
 30
0.0
  0
ENDBLK
  5
156
330
14E
100
AcDbEntity
  8
LAYER_1
100
AcDbBlockEnd
  0
BLOCK
  5
153
330
151
100
AcDbEntity
  8
LAYER_1
 62
     7
100
AcDbBlockBegin
  2
AI9-BLK59
 70
     0
 10
0.0
 20
0.0
 30
0.0
  3
AI9-BLK59
  1

  0
HATCH
  5
154
330
151
100
AcDbEntity
  8
LAYER_1
 62
     7
100
AcDbHatch
 10
0.0
 20
0.0
 30
0.0
210
0.0
220
0.0
230
1.0
  2
SOLID
 70
     1
 71
     0
 91
        1
 92
        1
 93
        1
 72
     4
 94
        3
 73
     0
 74
     0
 95
       14
 96
       10
 40
0.0
 40
0.0
 40
0.0
 40
0.0
 40
1.0
 40
1.0
 40
1.0
 40
2.0
 40
2.0
 40
2.0
 40
3.0
 40
3.0
 40
3.0
 40
3.0
 10
-0.3837836371527778
 20
-0.8613599989149304
 10
-0.3827501085069444
 20
-0.8637715657552083
 10
-0.0093017578125
 20
-0.7621412489149305
 10
-0.3331407335069444
 20
0.8613599989149304
 10
0.0313503689236111
 20
-0.7604187011718749
 10
0.3820610894097222
 20
-0.6794589572482638
 10
0.3837836371527778
 20
-0.6789421929253472
 10
0.1219563802083333
 20
-0.7130486382378471
 10
-0.1347032335069444
 20
-0.7698927137586805
 10
-0.3837836371527778
 20
-0.8613599989149304
 97
        0
 97
        0
 75
     0
 76
     1
 98
        1
 10
0.0
 20
0.0
  0
ENDBLK
  5
155
330
151
100
AcDbEntity
  8
LAYER_1
100
AcDbBlockEnd
  0
BLOCK
  5
15A
330
158
100
AcDbEntity
  8
LAYER_1
 62
     7
100
AcDbBlockBegin
  2
AI9-BLK60
 70
     0
 10
0.0
 20
0.0
 30
0.0
  3
AI9-BLK60
  1

  0
INSERT
  5
15C
330
158
100
AcDbEntity
  8
LAYER_1
 62
     7
100
AcDbBlockReference
  2
AI9-BLK61
 10
0.053227
 20
0.070366
 30
0.0
  0
ENDBLK
  5
164
330
158
100
AcDbEntity
  8
LAYER_1
100
AcDbBlockEnd
  0
BLOCK
  5
15D
330
15B
100
AcDbEntity
  8
LAYER_1
 62
     7
100
AcDbBlockBegin
  2
AI9-BLK61
 70
     0
 10
0.0
 20
0.0
 30
0.0
  3
AI9-BLK61
  1

  0
INSERT
  5
15F
330
15B
100
AcDbEntity
  8
LAYER_1
 62
     7
100
AcDbBlockReference
  2
AI9-BLK62
 10
0.240123
 20
0.184313
 30
0.0
  0
ENDBLK
  5
163
330
15B
100
AcDbEntity
  8
LAYER_1
100
AcDbBlockEnd
  0
BLOCK
  5
160
330
15E
100
AcDbEntity
  8
LAYER_1
 62
     7
100
AcDbBlockBegin
  2
AI9-BLK62
 70
     0
 10
0.0
 20
0.0
 30
0.0
  3
AI9-BLK62
  1

  0
HATCH
  5
161
330
15E
100
AcDbEntity
  8
LAYER_1
 62
     7
100
AcDbHatch
 10
0.0
 20
0.0
 30
0.0
210
0.0
220
0.0
230
1.0
  2
SOLID
 70
     1
 71
     0
 91
        1
 92
        1
 93
        1
 72
     4
 94
        3
 73
     0
 74
     0
 95
       14
 96
       10
 40
0.0
 40
0.0
 40
0.0
 40
0.0
 40
1.0
 40
1.0
 40
1.0
 40
2.0
 40
2.0
 40
2.0
 40
3.0
 40
3.0
 40
3.0
 40
3.0
 10
-0.6142605251736111
 20
-0.3967027452256944
 10
-0.6135715060763889
 20
-0.3965304904513888
 10
-0.3992865668402778
 20
-0.587905544704861
 10
0.6142605251736111
 20
0.7322550455729167
 10
-0.3923963758680555
 20
-0.5903171115451389
 10
-0.1725992838541667
 20
-0.73173828125
 10
-0.1722547743055556
 20
-0.7322550455729167
 10
-0.1722547743055556
 20
-0.7322550455729167
 10
-0.6142605251736111
 20
-0.3967027452256944
 10
-0.6142605251736111
 20
-0.3967027452256944
 97
        0
 97
        0
 75
     0
 76
     1
 98
        1
 10
0.0
 20
0.0
  0
ENDBLK
  5
162
330
15E
100
AcDbEntity
  8
LAYER_1
100
AcDbBlockEnd
  0
ENDSEC
  0
SECTION
  2
ENTITIES
  0
LINE
  5
1F4
330
A
100
AcDbEntity
  8
LAYER_1
 62
   230
100
AcDbLine
 10
-548.856421
 20
1090.272125
 30
0.0
 11
-548.856421
 21
-832.796023
 31
0.0
  0
LINE
  5
1F3
330
A
100
AcDbEntity
  8
LAYER_1
 62
   230
100
AcDbLine
 10
-392.305425
 20
1090.272125
 30
0.0
 11
-392.305425
 21
-832.796023
 31
0.0
  0
LINE
  5
1F2
330
A
100
AcDbEntity
  8
LAYER_1
 62
   230
100
AcDbLine
 10
-235.75753
 20
1090.272125
 30
0.0
 11
-235.75753
 21
-832.796023
 31
0.0
  0
LINE
  5
1F1
330
A
100
AcDbEntity
  8
LAYER_1
 62
   230
100
AcDbLine
 10
-79.20619
 20
1090.272125
 30
0.0
 11
-79.20619
 21
-832.796023
 31
0.0
  0
LINE
  5
1F0
330
A
100
AcDbEntity
  8
LAYER_1
 62
   230
100
AcDbLine
 10
77.344805
 20
1090.272125
 30
0.0
 11
77.344805
 21
-832.796023
 31
0.0
  0
LINE
  5
1EF
330
A
100
AcDbEntity
  8
LAYER_1
 62
   230
100
AcDbLine
 10
233.899246
 20
1090.272125
 30
0.0
 11
233.899246
 21
-832.796023
 31
0.0
  0
LINE
  5
1EE
330
A
100
AcDbEntity
  8
LAYER_1
 62
   230
100
AcDbLine
 10
390.450241
 20
1090.272125
 30
0.0
 11
390.450241
 21
-832.796023
 31
0.0
  0
LINE
  5
1ED
330
A
100
AcDbEntity
  8
LAYER_1
 62
   230
100
AcDbLine
 10
547.001581
 20
1090.272125
 30
0.0
 11
547.001581
 21
-832.796023
 31
0.0
  0
LINE
  5
1EC
330
A
100
AcDbEntity
  8
LAYER_1
 62
   230
100
AcDbLine
 10
703.552577
 20
1090.272125
 30
0.0
 11
703.552577
 21
-832.796023
 31
0.0
  0
LINE
  5
1EB
330
A
100
AcDbEntity
  8
LAYER_1
 62
   230
100
AcDbLine
 10
860.103573
 20
1090.272125
 30
0.0
 11
860.103573
 21
-832.796023
 31
0.0
  0
LINE
  5
1EA
330
A
100
AcDbEntity
  8
LAYER_1
 62
   230
100
AcDbLine
 10
-595.826164
 20
-833.05096
 30
0.0
 11
898.152585
 21
-833.057161
 31
0.0
  0
LINE
  5
1E9
330
A
100
AcDbEntity
  8
LAYER_1
 62
   230
100
AcDbLine
 10
-595.826164
 20
-676.503065
 30
0.0
 11
898.152585
 21
-676.503065
 31
0.0
  0
LINE
  5
1E8
330
A
100
AcDbEntity
  8
LAYER_1
 62
   230
100
AcDbLine
 10
-595.826164
 20
-519.948625
 30
0.0
 11
898.152585
 21
-519.948625
 31
0.0
  0
LINE
  5
1E7
330
A
100
AcDbEntity
  8
LAYER_1
 62
   230
100
AcDbLine
 10
-595.826164
 20
-363.397285
 30
0.0
 11
898.152585
 21
-363.40073
 31
0.0
  0
LINE
  5
1E6
330
A
100
AcDbEntity
  8
LAYER_1
 62
   230
100
AcDbLine
 10
-595.826164
 20
-206.846289
 30
0.0
 11
898.152585
 21
-206.84939
 31
0.0
  0
LINE
  5
1E5
330
A
100
AcDbEntity
  8
LAYER_1
 62
   230
100
AcDbLine
 10
-595.826164
 20
-50.291848
 30
0.0
 11
898.152585
 21
-50.298394
 31
0.0
  0
LINE
  5
1E4
330
A
100
AcDbEntity
  8
LAYER_1
 62
   230
100
AcDbLine
 10
-595.826164
 20
106.256047
 30
0.0
 11
898.152585
 21
106.249501
 31
0.0
  0
LINE
  5
1E3
330
A
100
AcDbEntity
  8
LAYER_1
 62
   230
100
AcDbLine
 10
-595.826164
 20
262.810487
 30
0.0
 11
898.152585
 21
262.803942
 31
0.0
  0
LINE
  5
1E2
330
A
100
AcDbEntity
  8
LAYER_1
 62
   230
100
AcDbLine
 10
-595.826164
 20
419.358382
 30
0.0
 11
898.152585
 21
419.358382
 31
0.0
  0
LINE
  5
1E1
330
A
100
AcDbEntity
  8
LAYER_1
 62
   230
100
AcDbLine
 10
-595.826164
 20
575.912478
 30
0.0
 11
898.152585
 21
575.906277
 31
0.0
  0
LINE
  5
1E0
330
A
100
AcDbEntity
  8
LAYER_1
 62
   230
100
AcDbLine
 10
-595.826164
 20
732.463818
 30
0.0
 11
898.152585
 21
732.463818
 31
0.0
  0
LINE
  5
1DF
330
A
100
AcDbEntity
  8
LAYER_1
 62
   230
100
AcDbLine
 10
-595.826164
 20
889.018259
 30
0.0
 11
898.152585
 21
889.011713
 31
0.0
  0
LINE
  5
1DE
330
A
100
AcDbEntity
  8
LAYER_1
 62
   230
100
AcDbLine
 10
-595.826164
 20
1045.566154
 30
0.0
 11
898.152585
 21
1045.563053
 31
0.0
  0
MTEXT
  5
1DD
330
A
100
AcDbEntity
  8
LAYER_1
 62
     7
100
AcDbMText
 10
-677.162629
 20
-815.510105
 30
0.0
 40
30.816531
 41
0.0
 46
0.0
 71
     1
 72
     2
  1
\W1.00;\fMyriad Roman|b0|i0;200
  7
STD
 73
     1
 44
1.0
  0
MTEXT
  5
1DC
330
A
100
AcDbEntity
  8
LAYER_1
 62
     7
100
AcDbMText
 10
-677.162629
 20
-658.92397
 30
0.0
 40
30.816531
 41
0.0
 46
0.0
 71
     1
 72
     2
  1
\W1.00;\fMyriad Roman|b0|i0;210
  7
STD
 73
     1
 44
1.0
  0
MTEXT
  5
1DB
330
A
100
AcDbEntity
  8
LAYER_1
 62
     7
100
AcDbMText
 10
-677.162629
 20
-502.33749
 30
0.0
 40
30.816531
 41
0.0
 46
0.0
 71
     1
 72
     2
  1
\W1.00;\fMyriad Roman|b0|i0;220
  7
STD
 73
     1
 44
1.0
  0
MTEXT
  5
1DA
330
A
100
AcDbEntity
  8
LAYER_1
 62
     7
100
AcDbMText
 10
-677.162629
 20
-345.748254
 30
0.0
 40
30.816531
 41
0.0
 46
0.0
 71
     1
 72
     2
  1
\W1.00;\fMyriad Roman|b0|i0;230
  7
STD
 73
     1
 44
1.0
  0
MTEXT
  5
1D9
330
A
100
AcDbEntity
  8
LAYER_1
 62
     7
100
AcDbMText
 10
-677.162629
 20
-189.165219
 30
0.0
 40
30.816531
 41
0.0
 46
0.0
 71
     1
 72
     2
  1
\W1.00;\fMyriad Roman|b0|i0;240
  7
STD
 73
     1
 44
1.0
  0
MTEXT
  5
1D8
330
A
100
AcDbEntity
  8
LAYER_1
 62
     7
100
AcDbMText
 10
-677.162629
 20
-32.575638
 30
0.0
 40
30.816531
 41
0.0
 46
0.0
 71
     1
 72
     2
  1
\W1.00;\fMyriad Roman|b0|i0;250
  7
STD
 73
     1
 44
1.0
  0
MTEXT
  5
1D7
330
A
100
AcDbEntity
  8
LAYER_1
 62
     7
100
AcDbMText
 10
-677.162629
 20
124.010498
 30
0.0
 40
30.816531
 41
0.0
 46
0.0
 71
     1
 72
     2
  1
\W1.00;\fMyriad Roman|b0|i0;260
  7
STD
 73
     1
 44
1.0
  0
MTEXT
  5
1D6
330
A
100
AcDbEntity
  8
LAYER_1
 62
     7
100
AcDbMText
 10
-677.162629
 20
280.599734
 30
0.0
 40
30.816531
 41
0.0
 46
0.0
 71
     1
 72
     2
  1
\W1.00;\fMyriad Roman|b0|i0;270
  7
STD
 73
     1
 44
1.0
  0
MTEXT
  5
1D5
330
A
100
AcDbEntity
  8
LAYER_1
 62
     7
100
AcDbMText
 10
-677.162629
 20
437.186214
 30
0.0
 40
30.816531
 41
0.0
 46
0.0
 71
     1
 72
     2
  1
\W1.00;\fMyriad Roman|b0|i0;280
  7
STD
 73
     1
 44
1.0
  0
MTEXT
  5
1D4
330
A
100
AcDbEntity
  8
LAYER_1
 62
     7
100
AcDbMText
 10
-677.162629
 20
593.772349
 30
0.0
 40
30.816531
 41
0.0
 46
0.0
 71
     1
 72
     2
  1
\W1.00;\fMyriad Roman|b0|i0;290
  7
STD
 73
     1
 44
1.0
  0
MTEXT
  5
1D3
330
A
100
AcDbEntity
  8
LAYER_1
 62
     7
100
AcDbMText
 10
-677.162629
 20
750.352284
 30
0.0
 40
30.816531
 41
0.0
 46
0.0
 71
     1
 72
     2
  1
\W1.00;\fMyriad Roman|b0|i0;300
  7
STD
 73
     1
 44
1.0
  0
MTEXT
  5
1D2
330
A
100
AcDbEntity
  8
LAYER_1
 62
     7
100
AcDbMText
 10
-677.162629
 20
906.94152
 30
0.0
 40
30.816531
 41
0.0
 46
0.0
 71
     1
 72
     2
  1
\W1.00;\fMyriad Roman|b0|i0;310
  7
STD
 73
     1
 44
1.0
  0
MTEXT
  5
1D1
330
A
100
AcDbEntity
  8
LAYER_1
 62
     7
100
AcDbMText
 10
-677.162629
 20
1063.530756
 30
0.0
 40
30.816531
 41
0.0
 46
0.0
 71
     1
 72
     2
  1
\W1.00;\fMyriad Roman|b0|i0;320
  7
STD
 73
     1
 44
1.0
  0
MTEXT
  5
1D0
330
A
100
AcDbEntity
  8
LAYER_1
 62
     7
100
AcDbMText
 10
-581.331613
 20
1149.449715
 30
0.0
 40
30.816531
 41
0.0
 46
0.0
 71
     1
 72
     2
  1
\W1.00;\fMyriad Roman|b0|i0;730
  7
STD
 73
     1
 44
1.0
  0
MTEXT
  5
1CF
330
A
100
AcDbEntity
  8
LAYER_1
 62
     7
100
AcDbMText
 10
-425.078619
 20
1149.449715
 30
0.0
 40
30.816531
 41
0.0
 46
0.0
 71
     1
 72
     2
  1
\W1.00;\fMyriad Roman|b0|i0;740
  7
STD
 73
     1
 44
1.0
  0
MTEXT
  5
1CE
330
A
100
AcDbEntity
  8
LAYER_1
 62
     7
100
AcDbMText
 10
-268.828725
 20
1149.449715
 30
0.0
 40
30.816531
 41
0.0
 46
0.0
 71
     1
 72
     2
  1
\W1.00;\fMyriad Roman|b0|i0;750
  7
STD
 73
     1
 44
1.0
  0
MTEXT
  5
1CD
330
A
100
AcDbEntity
  8
LAYER_1
 62
     7
100
AcDbMText
 10
-112.575385
 20
1149.449715
 30
0.0
 40
30.816531
 41
0.0
 46
0.0
 71
     1
 72
     2
  1
\W1.00;\fMyriad Roman|b0|i0;760
  7
STD
 73
     1
 44
1.0
  0
MTEXT
  5
1CC
330
A
100
AcDbEntity
  8
LAYER_1
 62
     7
100
AcDbMText
 10
43.674509
 20
1149.446614
 30
0.0
 40
30.816531
 41
0.0
 46
0.0
 71
     1
 72
     2
  1
\W1.00;\fMyriad Roman|b0|i0;770
  7
STD
 73
     1
 44
1.0
  0
MTEXT
  5
1CB
330
A
100
AcDbEntity
  8
LAYER_1
 62
     7
100
AcDbMText
 10
199.929226
 20
1149.446614
 30
0.0
 40
30.816531
 41
0.0
 46
0.0
 71
     1
 72
     2
  1
\W1.00;\fMyriad Roman|b0|i0;780
  7
STD
 73
     1
 44
1.0
  0
MTEXT
  5
1CA
330
A
100
AcDbEntity
  8
LAYER_1
 62
     7
100
AcDbMText
 10
356.180843
 20
1149.446614
 30
0.0
 40
30.816531
 41
0.0
 46
0.0
 71
     1
 72
     2
  1
\W1.00;\fMyriad Roman|b0|i0;790
  7
STD
 73
     1
 44
1.0
  0
MTEXT
  5
1C9
330
A
100
AcDbEntity
  8
LAYER_1
 62
     7
100
AcDbMText
 10
512.43556
 20
1149.446614
 30
0.0
 40
30.816531
 41
0.0
 46
0.0
 71
     1
 72
     2
  1
\W1.00;\fMyriad Roman|b0|i0;800
  7
STD
 73
     1
 44
1.0
  0
MTEXT
  5
1C8
330
A
100
AcDbEntity
  8
LAYER_1
 62
     7
100
AcDbMText
 10
668.687177
 20
1149.446614
 30
0.0
 40
30.816531
 41
0.0
 46
0.0
 71
     1
 72
     2
  1
\W1.00;\fMyriad Roman|b0|i0;810
  7
STD
 73
     1
 44
1.0
  0
MTEXT
  5
1C7
330
A
100
AcDbEntity
  8
LAYER_1
 62
     7
100
AcDbMText
 10
824.942239
 20
1149.446614
 30
0.0
 40
30.816531
 41
0.0
 46
0.0
 71
     1
 72
     2
  1
\W1.00;\fMyriad Roman|b0|i0;820
  7
STD
 73
     1
 44
1.0
  0
SPLINE
  5
1C6
330
A
100
AcDbEntity
  8
LAYER_1
 62
     7
100
AcDbSpline
210
0.0
220
0.0
230
1.0
 70
    11
 71
     3
 72
    32
 73
    28
 74
     0
 42
0.000000001
 43
0.00000001
 40
0.0
 40
0.0
 40
0.0
 40
0.0
 40
1.0
 40
1.0
 40
1.0
 40
2.0
 40
2.0
 40
2.0
 40
3.0
 40
3.0
 40
3.0
 40
4.0
 40
4.0
 40
4.0
 40
5.0
 40
5.0
 40
5.0
 40
6.0
 40
6.0
 40
6.0
 40
7.0
 40
7.0
 40
7.0
 40
8.0
 40
8.0
 40
8.0
 40
9.0
 40
9.0
 40
9.0
 40
9.0
 10
419.6656846788194
 20
557.8315836588541
 30
0.0
 10
419.5699110243055
 20
557.5576985677083
 30
0.0
 10
419.4011013454861
 20
557.2641764322916
 30
0.0
 10
419.3628607855902
 20
556.9837456597222
 30
0.0
 10
419.2894802517361
 20
556.5314046223958
 30
0.0
 10
419.2608859592013
 20
555.9770887586805
 30
0.0
 10
419.3215196397569
 20
555.5306043836805
 30
0.0
 10
419.3659613715278
 20
555.2153781467014
 30
0.0
 10
419.4872287326389
 20
555.2122775607638
 30
0.0
 10
419.7738606770833
 20
555.1481987847221
 30
0.0
 10
420.0828857421874
 20
555.0717176649305
 30
0.0
 10
420.2582411024305
 20
555.2122775607638
 30
0.0
 10
420.5324707031249
 20
555.3204535590278
 30
0.0
 10
420.8191026475694
 20
555.4224283854167
 30
0.0
 10
421.1188259548611
 20
555.5023546006944
 30
0.0
 10
421.3544704861111
 20
555.709060329861
 30
0.0
 10
421.5711669921874
 20
555.9006076388888
 30
0.0
 10
421.6765869140625
 20
556.167947048611
 30
0.0
 10
421.8071560329861
 20
556.4104817708333
 30
0.0
 10
422.1575222439236
 20
557.0540256076389
 30
0.0
 10
421.9535725911458
 20
557.3916449652777
 30
0.0
 10
421.3672173394097
 20
557.7805962456597
 30
0.0
 10
421.0516465928819
 20
557.987646484375
 30
0.0
 10
420.8511420355902
 20
558.2139892578125
 30
0.0
 10
420.5641655815972
 20
558.462380642361
 30
0.0
 10
420.0129503038194
 20
558.9598524305555
 30
0.0
 10
419.8186469184027
 20
558.2935709635416
 30
0.0
 10
419.6656846788194
 20
557.8315836588541
 30
0.0
  0
SPLINE
  5
1C5
330
A
100
AcDbEntity
  8
LAYER_1
 62
     7
100
AcDbSpline
210
0.0
220
0.0
230
1.0
 70
    11
 71
     3
 72
    20
 73
    16
 74
     0
 42
0.000000001
 43
0.00000001
 40
0.0
 40
0.0
 40
0.0
 40
0.0
 40
1.0
 40
1.0
 40
1.0
 40
2.0
 40
2.0
 40
2.0
 40
3.0
 40
3.0
 40
3.0
 40
4.0
 40
4.0
 40
4.0
 40
5.0
 40
5.0
 40
5.0
 40
5.0
 10
427.1670355902777
 20
559.0073947482639
 30
0.0
 10
427.4061252170138
 20
558.6728759765624
 30
0.0
 10
427.9094536675347
 20
558.5199137369791
 30
0.0
 10
428.3015055338541
 20
558.4689263237847
 30
0.0
 10
428.5850368923611
 20
558.4306857638888
 30
0.0
 10
428.6870117187499
 20
558.5423068576389
 30
0.0
 10
428.7762396918403
 20
558.8068901909721
 30
0.0
 10
428.856165907118
 20
559.0487358940971
 30
0.0
 10
428.9867350260416
 20
559.3036729600694
 30
0.0
 10
428.973988172743
 20
559.5586100260416
 30
0.0
 10
428.9546956380208
 20
560.0560818142361
 30
0.0
 10
428.3142523871527
 20
560.1770046657986
 30
0.0
 10
427.9128987630208
 20
560.2503851996528
 30
0.0
 10
427.5081000434027
 20
560.3299669053819
 30
0.0
 10
426.9055528428819
 20
559.3739529079861
 30
0.0
 10
427.1670355902777
 20
559.0073947482639
 30
0.0
  0
SPLINE
  5
1C4
330
A
100
AcDbEntity
  8
LAYER_1
 62
     7
100
AcDbSpline
210
0.0
220
0.0
230
1.0
 70
    11
 71
     3
 72
    32
 73
    28
 74
     0
 42
0.000000001
 43
0.00000001
 40
0.0
 40
0.0
 40
0.0
 40
0.0
 40
1.0
 40
1.0
 40
1.0
 40
2.0
 40
2.0
 40
2.0
 40
3.0
 40
3.0
 40
3.0
 40
4.0
 40
4.0
 40
4.0
 40
5.0
 40
5.0
 40
5.0
 40
6.0
 40
6.0
 40
6.0
 40
7.0
 40
7.0
 40
7.0
 40
8.0
 40
8.0
 40
8.0
 40
9.0
 40
9.0
 40
9.0
 40
9.0
 10
428.3142523871527
 20
552.7200954861111
 30
0.0
 10
428.0720621744791
 20
552.5450846354166
 30
0.0
 10
427.8619113498264
 20
552.4110704210069
 30
0.0
 10
427.6545166015625
 20
552.2102213541666
 30
0.0
 10
427.4347195095486
 20
551.9938693576388
 30
0.0
 10
427.1956298828125
 20
551.8057671440972
 30
0.0
 10
426.9503390842013
 20
551.6304117838541
 30
0.0
 10
426.6954020182291
 20
551.44541015625
 30
0.0
 10
426.5775797526042
 20
551.4075141059027
 30
0.0
 10
426.7560356987847
 20
551.1460313585069
 30
0.0
 10
426.9120985243055
 20
550.9165879991319
 30
0.0
 10
427.0044270833333
 20
550.814613172743
 30
0.0
 10
427.3010498046875
 20
550.814613172743
 30
0.0
 10
427.5876817491319
 20
550.8115125868055
 30
0.0
 10
427.8681125217013
 20
550.8335611979167
 30
0.0
 10
428.1547444661458
 20
550.8370062934027
 30
0.0
 10
428.7762396918403
 20
550.8466525607638
 30
0.0
 10
429.3563937717013
 20
550.7157389322916
 30
0.0
 10
429.9076090494791
 20
551.0695502387152
 30
0.0
 10
430.474671766493
 20
551.439208984375
 30
0.0
 10
430.2579752604166
 20
551.7513346354166
 30
0.0
 10
429.8245822482638
 20
552.1468315972222
 30
0.0
 10
429.5889377170138
 20
552.3600830078125
 30
0.0
 10
429.4676703559027
 20
552.6787543402777
 30
0.0
 10
429.2382269965277
 20
552.8985514322916
 30
0.0
 10
428.8527208116319
 20
553.274755859375
 30
0.0
 10
428.6646185980902
 20
552.9719319661458
 30
0.0
 10
428.3142523871527
 20
552.7200954861111
 30
0.0
  0
SPLINE
  5
1C3
330
A
100
AcDbEntity
  8
LAYER_1
 62
     7
100
AcDbSpline
210
0.0
220
0.0
230
1.0
 70
    11
 71
     3
 72
    17
 73
    13
 74
     0
 42
0.000000001
 43
0.00000001
 40
0.0
 40
0.0
 40
0.0
 40
0.0
 40
1.0
 40
1.0
 40
1.0
 40
2.0
 40
2.0
 40
2.0
 40
3.0
 40
3.0
 40
3.0
 40
4.0
 40
4.0
 40
4.0
 40
4.0
 10
432.6161431206597
 20
556.0122287326388
 30
0.0
 10
432.9158664279514
 20
555.7252522786458
 30
0.0
 10
433.4098931206597
 20
555.1833387586805
 30
0.0
 10
433.7633599175347
 20
555.6580729166666
 30
0.0
 10
433.964208984375
 20
555.926101345486
 30
0.0
 10
433.9866021050347
 20
556.0246310763888
 30
0.0
 10
433.7251193576388
 20
556.2320258246527
 30
0.0
 10
433.5849039713542
 20
556.3436469184028
 30
0.0
 10
433.4002468532986
 20
556.5951388888889
 30
0.0
 10
433.2059434678819
 20
556.6109863281249
 30
0.0
 10
432.9158664279514
 20
556.6399251302083
 30
0.0
 10
432.7246636284722
 20
556.2254801432291
 30
0.0
 10
432.6161431206597
 20
556.0122287326388
 30
0.0
  0
SPLINE
  5
1C2
330
A
100
AcDbEntity
  8
LAYER_1
 62
     7
100
AcDbSpline
210
0.0
220
0.0
230
1.0
 70
    11
 71
     3
 72
    26
 73
    22
 74
     0
 42
0.000000001
 43
0.00000001
 40
0.0
 40
0.0
 40
0.0
 40
0.0
 40
1.0
 40
1.0
 40
1.0
 40
2.0
 40
2.0
 40
2.0
 40
3.0
 40
3.0
 40
3.0
 40
4.0
 40
4.0
 40
4.0
 40
5.0
 40
5.0
 40
5.0
 40
6.0
 40
6.0
 40
6.0
 40
7.0
 40
7.0
 40
7.0
 40
7.0
 10
429.0694173177083
 20
559.4442328559028
 30
0.0
 10
429.0249755859375
 20
559.1031684027778
 30
0.0
 10
429.1300509982639
 20
558.9819010416666
 30
0.0
 10
429.2799126519097
 20
558.7014702690972
 30
0.0
 10
429.4583685980903
 20
558.3669514973958
 30
0.0
 10
429.2988606770833
 20
557.6658745659722
 30
0.0
 10
429.7036593967014
 20
557.4936197916666
 30
0.0
 10
429.9682427300347
 20
557.3792426215277
 30
0.0
 10
430.0254313151041
 20
557.5446072048611
 30
0.0
 10
430.0891655815972
 20
557.7551025390625
 30
0.0
 10
430.1656467013888
 20
558.0262315538193
 30
0.0
 10
430.2834689670138
 20
558.220534939236
 30
0.0
 10
430.4905192057291
 20
558.3989908854167
 30
0.0
 10
430.7423556857639
 20
558.6091417100694
 30
0.0
 10
431.4658257378472
 20
558.9660536024305
 30
0.0
 10
431.4148383246527
 20
559.3835991753472
 30
0.0
 10
431.3573052300347
 20
559.8521321614583
 30
0.0
 10
430.6245334201388
 20
559.9313693576388
 30
0.0
 10
430.2676215277777
 20
559.9699544270833
 30
0.0
 10
429.7577473958333
 20
560.0240424262153
 30
0.0
 10
429.1586452907986
 20
560.1194715711805
 30
0.0
 10
429.0694173177083
 20
559.4442328559028
 30
0.0
  0
SPLINE
  5
1C1
330
A
100
AcDbEntity
  8
LAYER_1
 62
     7
100
AcDbSpline
210
0.0
220
0.0
230
1.0
 70
    11
 71
     3
 72
    23
 73
    19
 74
     0
 42
0.000000001
 43
0.00000001
 40
0.0
 40
0.0
 40
0.0
 40
0.0
 40
1.0
 40
1.0
 40
1.0
 40
2.0
 40
2.0
 40
2.0
 40
3.0
 40
3.0
 40
3.0
 40
4.0
 40
4.0
 40
4.0
 40
5.0
 40
5.0
 40
5.0
 40
6.0
 40
6.0
 40
6.0
 40
6.0
 10
419.2546847873264
 20
554.9159993489583
 30
0.0
 10
419.0410888671875
 20
554.6831108940971
 30
0.0
 10
418.8305935329861
 20
553.9947808159721
 30
0.0
 10
419.2415934244791
 20
553.8990071614583
 30
0.0
 10
419.5096218532986
 20
553.8356174045139
 30
0.0
 10
419.73251953125
 20
553.8866048177083
 30
0.0
 10
419.9874565972222
 20
553.73984375
 30
0.0
 10
420.1755588107638
 20
553.6378689236111
 30
0.0
 10
420.3412679036458
 20
553.5806803385416
 30
0.0
 10
420.5579644097222
 20
553.6185763888889
 30
0.0
 10
421.0709391276041
 20
553.7016031901042
 30
0.0
 10
421.2046088324652
 20
554.3806315104166
 30
0.0
 10
420.9117757161458
 20
554.7564914279513
 30
0.0
 10
420.8445963541666
 20
554.8422743055555
 30
0.0
 10
420.7457221137153
 20
554.9318467881944
 30
0.0
 10
420.6406467013888
 20
554.9697428385416
 30
0.0
 10
420.309228515625
 20
555.0910101996527
 30
0.0
 10
419.5351155598958
 20
555.237771267361
 30
0.0
 10
419.2546847873264
 20
554.9159993489583
 30
0.0
  0
SPLINE
  5
1C0
330
A
100
AcDbEntity
  8
LAYER_1
 62
     7
100
AcDbSpline
210
0.0
220
0.0
230
1.0
 70
    11
 71
     3
 72
    23
 73
    19
 74
     0
 42
0.000000001
 43
0.00000001
 40
0.0
 40
0.0
 40
0.0
 40
0.0
 40
1.0
 40
1.0
 40
1.0
 40
2.0
 40
2.0
 40
2.0
 40
3.0
 40
3.0
 40
3.0
 40
4.0
 40
4.0
 40
4.0
 40
5.0
 40
5.0
 40
5.0
 40
6.0
 40
6.0
 40
6.0
 40
6.0
 10
427.8488199869792
 20
557.5701009114583
 30
0.0
 10
427.8712131076388
 20
557.3472032335069
 30
0.0
 10
427.9128987630208
 20
556.9458496093749
 30
0.0
 10
428.0848090277777
 20
556.7797960069444
 30
0.0
 10
428.1898844401042
 20
556.6778211805555
 30
0.0
 10
428.5278483072916
 20
556.5730902777777
 30
0.0
 10
428.6711642795138
 20
556.5314046223958
 30
0.0
 10
429.3178087022569
 20
556.3718967013889
 30
0.0
 10
428.9994818793402
 20
557.245228407118
 30
0.0
 10
428.91025390625
 20
557.538406032986
 30
0.0
 10
428.8465196397569
 20
557.7551025390625
 30
0.0
 10
428.9546956380208
 20
557.9814453125
 30
0.0
 10
428.8940619574652
 20
558.1819498697917
 30
0.0
 10
428.8113796657986
 20
558.4561794704861
 30
0.0
 10
428.3841878255208
 20
558.4434326171875
 30
0.0
 10
428.167835828993
 20
558.3480034722222
 30
0.0
 10
427.8553656684027
 20
558.2074435763889
 30
0.0
 10
427.8233262803819
 20
557.86982421875
 30
0.0
 10
427.8488199869792
 20
557.5701009114583
 30
0.0
  0
SPLINE
  5
1BF
330
A
100
AcDbEntity
  8
LAYER_1
 62
     7
100
AcDbSpline
210
0.0
220
0.0
230
1.0
 70
    11
 71
     3
 72
    26
 73
    22
 74
     0
 42
0.000000001
 43
0.00000001
 40
0.0
 40
0.0
 40
0.0
 40
0.0
 40
1.0
 40
1.0
 40
1.0
 40
2.0
 40
2.0
 40
2.0
 40
3.0
 40
3.0
 40
3.0
 40
4.0
 40
4.0
 40
4.0
 40
5.0
 40
5.0
 40
5.0
 40
6.0
 40
6.0
 40
6.0
 40
7.0
 40
7.0
 40
7.0
 40
7.0
 10
434.2670328776042
 20
554.8905056423611
 30
0.0
 10
434.0916775173611
 20
554.8488199869792
 30
0.0
 10
433.8494873046874
 20
554.902907986111
 30
0.0
 10
433.6679307725694
 20
554.902907986111
 30
0.0
 10
433.2758789062499
 20
554.9159993489583
 30
0.0
 10
432.8903727213541
 20
554.8488199869792
 30
0.0
 10
432.8455864800347
 20
554.3771864149305
 30
0.0
 10
432.8011447482638
 20
553.8673122829861
 30
0.0
 10
433.4191948784722
 20
553.9437934027777
 30
0.0
 10
433.7826524522569
 20
553.9341471354167
 30
0.0
 10
434.0120958116319
 20
553.9310465494791
 30
0.0
 10
434.2859809027777
 20
553.8197699652777
 30
0.0
 10
434.4995768229167
 20
553.9120985243055
 30
0.0
 10
434.7097276475694
 20
554.0009819878471
 30
0.0
 10
434.8978298611111
 20
554.2304253472222
 30
0.0
 10
434.9967041015624
 20
554.428173828125
 30
0.0
 10
435.0952338324652
 20
554.6224772135416
 30
0.0
 10
435.2037543402777
 20
554.9159993489583
 30
0.0
 10
435.0221978081597
 20
555.0848090277777
 30
0.0
 10
434.7321207682292
 20
555.3586941189236
 30
0.0
 10
434.5250705295139
 20
554.950794813368
 30
0.0
 10
434.2670328776042
 20
554.8905056423611
 30
0.0
  0
SPLINE
  5
1BE
330
A
100
AcDbEntity
  8
LAYER_1
 62
     7
100
AcDbSpline
210
0.0
220
0.0
230
1.0
 70
    11
 71
     3
 72
    35
 73
    31
 74
     0
 42
0.000000001
 43
0.00000001
 40
0.0
 40
0.0
 40
0.0
 40
0.0
 40
1.0
 40
1.0
 40
1.0
 40
2.0
 40
2.0
 40
2.0
 40
3.0
 40
3.0
 40
3.0
 40
4.0
 40
4.0
 40
4.0
 40
5.0
 40
5.0
 40
5.0
 40
6.0
 40
6.0
 40
6.0
 40
7.0
 40
7.0
 40
7.0
 40
8.0
 40
8.0
 40
8.0
 40
9.0
 40
9.0
 40
9.0
 40
10.0
 40
10.0
 40
10.0
 40
10.0
 10
430.9239122178819
 20
553.8800591362847
 30
0.0
 10
430.7871419270833
 20
553.7143500434028
 30
0.0
 10
430.4874186197916
 20
553.5007541232638
 30
0.0
 10
430.4109375
 20
553.3064507378472
 30
0.0
 10
430.3344563802083
 20
553.1217936197916
 30
0.0
 10
430.4491780598958
 20
552.8475640190971
 30
0.0
 10
430.4557237413194
 20
552.6594618055555
 30
0.0
 10
430.4650254991319
 20
552.4045247395833
 30
0.0
 10
430.4715711805555
 20
552.1592339409722
 30
0.0
 10
430.5480523003472
 20
551.9173882378471
 30
0.0
 10
430.7075602213541
 20
551.4075141059027
 30
0.0
 10
431.0355333116319
 20
551.1270833333333
 30
0.0
 10
431.5678005642361
 20
551.0695502387152
 30
0.0
 10
432.0966227213542
 20
551.0089165581596
 30
0.0
 10
432.6099419487847
 20
551.1460313585069
 30
0.0
 10
432.7501573350694
 20
551.7196397569444
 30
0.0
 10
432.8200927734375
 20
551.9938693576388
 30
0.0
 10
432.9093207465277
 20
552.3666286892361
 30
0.0
 10
432.8903727213541
 20
552.6470594618055
 30
0.0
 10
432.8710801866319
 20
552.9943250868055
 30
0.0
 10
432.6161431206597
 20
553.0260199652778
 30
0.0
 10
432.3612060546874
 20
553.1851833767361
 30
0.0
 10
432.0587266710069
 20
553.3767306857638
 30
0.0
 10
431.956751844618
 20
553.5486409505207
 30
0.0
 10
431.851331922743
 20
553.873513454861
 30
0.0
 10
431.8037896050347
 20
554.0264756944443
 30
0.0
 10
431.7431559244791
 20
554.3069064670138
 30
0.0
 10
431.5357611762153
 20
554.3389458550347
 30
0.0
 10
431.2939154730902
 20
554.374085828993
 30
0.0
 10
431.0610270182291
 20
554.033021375868
 30
0.0
 10
430.9239122178819
 20
553.8800591362847
 30
0.0
  0
SPLINE
  5
1BD
330
A
100
AcDbEntity
  8
LAYER_1
 62
     7
100
AcDbSpline
210
0.0
220
0.0
230
1.0
 70
    11
 71
     3
 72
    23
 73
    19
 74
     0
 42
0.000000001
 43
0.00000001
 40
0.0
 40
0.0
 40
0.0
 40
0.0
 40
1.0
 40
1.0
 40
1.0
 40
2.0
 40
2.0
 40
2.0
 40
3.0
 40
3.0
 40
3.0
 40
4.0
 40
4.0
 40
4.0
 40
5.0
 40
5.0
 40
5.0
 40
6.0
 40
6.0
 40
6.0
 40
6.0
 10
421.2748887803819
 20
552.6915011935763
 30
0.0
 10
421.3417236328125
 20
552.2997938368055
 30
0.0
 10
421.6159532335069
 20
551.3689290364583
 30
0.0
 10
422.0682942708333
 20
552.0510579427083
 30
0.0
 10
422.2212565104167
 20
552.2867024739583
 30
0.0
 10
422.3552707248264
 20
552.4589572482638
 30
0.0
 10
422.5812689887152
 20
552.6181206597222
 30
0.0
 10
422.779017469618
 20
552.7648817274305
 30
0.0
 10
422.8840928819444
 20
552.7841742621528
 30
0.0
 10
422.8492974175347
 20
553.0642605251736
 30
0.0
 10
422.8141574435763
 20
553.3415907118055
 30
0.0
 10
422.6963351779514
 20
553.3829318576388
 30
0.0
 10
422.4858398437499
 20
553.5393391927083
 30
0.0
 10
422.2629421657986
 20
553.7081488715278
 30
0.0
 10
422.1161810980902
 20
553.9499945746527
 30
0.0
 10
421.8867377387152
 20
554.1095024956596
 30
0.0
 10
421.0836859809027
 20
554.6479709201388
 30
0.0
 10
421.2046088324652
 20
553.0739067925347
 30
0.0
 10
421.2748887803819
 20
552.6915011935763
 30
0.0
  0
SPLINE
  5
1BC
330
A
100
AcDbEntity
  8
LAYER_1
 62
     7
100
AcDbSpline
210
0.0
220
0.0
230
1.0
 70
    11
 71
     3
 72
    41
 73
    37
 74
     0
 42
0.000000001
 43
0.00000001
 40
0.0
 40
0.0
 40
0.0
 40
0.0
 40
1.0
 40
1.0
 40
1.0
 40
2.0
 40
2.0
 40
2.0
 40
3.0
 40
3.0
 40
3.0
 40
4.0
 40
4.0
 40
4.0
 40
5.0
 40
5.0
 40
5.0
 40
6.0
 40
6.0
 40
6.0
 40
7.0
 40
7.0
 40
7.0
 40
8.0
 40
8.0
 40
8.0
 40
9.0
 40
9.0
 40
9.0
 40
10.0
 40
10.0
 40
10.0
 40
11.0
 40
11.0
 40
11.0
 40
12.0
 40
12.0
 40
12.0
 40
12.0
 10
430.4588243272569
 20
556.6144314236111
 30
0.0
 10
430.1845947265625
 20
556.5665445963541
 30
0.0
 10
429.9010633680555
 20
556.5792914496527
 30
0.0
 10
429.6237331814236
 20
556.6109863281249
 30
0.0
 10
429.4931640624999
 20
556.6240776909722
 30
0.0
 10
429.2413275824653
 20
556.6909125434028
 30
0.0
 10
429.2320258246527
 20
556.4931640625
 30
0.0
 10
429.2289252387152
 20
556.4359754774305
 30
0.0
 10
429.2764675564236
 20
556.3656955295138
 30
0.0
 10
429.3116075303819
 20
556.3147081163194
 30
0.0
 10
429.3722412109375
 20
556.2189344618055
 30
0.0
 10
429.432874891493
 20
556.1235053168402
 30
0.0
 10
429.4962646484375
 20
556.0246310763888
 30
0.0
 10
429.5665445963541
 20
555.9195556640625
 30
0.0
 10
429.6016845703124
 20
555.7696940104166
 30
0.0
 10
429.674720594618
 20
555.6773654513888
 30
0.0
 10
429.7195068359375
 20
555.6263780381944
 30
0.0
 10
429.9713433159722
 20
555.409681532118
 30
0.0
 10
430.0316324869791
 20
555.4224283854167
 30
0.0
 10
430.0795193142361
 20
555.4286295572916
 30
0.0
 10
430.0988118489583
 20
555.4892632378471
 30
0.0
 10
430.127406141493
 20
555.5244032118055
 30
0.0
 10
430.2803683810764
 20
555.709060329861
 30
0.0
 10
430.3058620876736
 20
555.9068088107639
 30
0.0
 10
430.5576985677083
 20
555.9770887586805
 30
0.0
 10
430.7964436848958
 20
556.0470241970486
 30
0.0
 10
431.2363823784722
 20
556.028076171875
 30
0.0
 10
431.3449028862847
 20
556.3116075303819
 30
0.0
 10
431.3958902994791
 20
556.4359754774305
 30
0.0
 10
431.4468777126736
 20
556.6778211805555
 30
0.0
 10
431.280824110243
 20
556.732253689236
 30
0.0
 10
431.1822943793402
 20
556.7673936631944
 30
0.0
 10
431.0293321397569
 20
556.6909125434028
 30
0.0
 10
430.927357313368
 20
556.6778211805555
 30
0.0
 10
430.7709499782986
 20
556.6523274739583
 30
0.0
 10
430.6148871527777
 20
556.6399251302083
 30
0.0
 10
430.4588243272569
 20
556.6144314236111
 30
0.0
  0
SPLINE
  5
1BB
330
A
100
AcDbEntity
  8
LAYER_1
 62
     7
100
AcDbSpline
210
0.0
220
0.0
230
1.0
 70
    11
 71
     3
 72
    38
 73
    34
 74
     0
 42
0.000000001
 43
0.00000001
 40
0.0
 40
0.0
 40
0.0
 40
0.0
 40
1.0
 40
1.0
 40
1.0
 40
2.0
 40
2.0
 40
2.0
 40
3.0
 40
3.0
 40
3.0
 40
4.0
 40
4.0
 40
4.0
 40
5.0
 40
5.0
 40
5.0
 40
6.0
 40
6.0
 40
6.0
 40
7.0
 40
7.0
 40
7.0
 40
8.0
 40
8.0
 40
8.0
 40
9.0
 40
9.0
 40
9.0
 40
10.0
 40
10.0
 40
10.0
 40
11.0
 40
11.0
 40
11.0
 40
11.0
 10
427.5143012152777
 20
556.7608479817708
 30
0.0
 10
427.3837320963542
 20
556.6843668619791
 30
0.0
 10
427.2369710286458
 20
556.6399251302083
 30
0.0
 10
427.1033013237847
 20
556.5730902777777
 30
0.0
 10
427.0013264973958
 20
556.5186577690972
 30
0.0
 10
426.9310465494791
 20
556.4294297960068
 30
0.0
 10
426.915199110243
 20
556.3116075303819
 30
0.0
 10
426.8897054036458
 20
556.1169596354166
 30
0.0
 10
427.0874538845486
 20
556.043923611111
 30
0.0
 10
427.192529296875
 20
555.91025390625
 30
0.0
 10
427.3582383897569
 20
555.702859157986
 30
0.0
 10
427.0395670572916
 20
554.8743136935764
 30
0.0
 10
427.4571126302083
 20
554.9284016927082
 30
0.0
 10
427.5366943359375
 20
554.9380479600694
 30
0.0
 10
427.6100748697916
 20
554.9828342013889
 30
0.0
 10
427.6738091362847
 20
555.0369222005207
 30
0.0
 10
427.7055040147569
 20
555.062415907118
 30
0.0
 10
427.7247965494792
 20
555.0972113715277
 30
0.0
 10
427.7564914279513
 20
555.1165039062499
 30
0.0
 10
427.832972547743
 20
555.1643907335069
 30
0.0
 10
427.9253011067708
 20
555.1481987847221
 30
0.0
 10
428.0083279079861
 20
555.1867838541666
 30
0.0
 10
428.1261501736111
 20
555.2501736111111
 30
0.0
 10
428.2953043619791
 20
555.5244032118055
 30
0.0
 10
428.3366455078125
 20
555.6646185980902
 30
0.0
 10
428.4386203342013
 20
556.0215304904514
 30
0.0
 10
428.3142523871527
 20
556.3243543836805
 30
0.0
 10
428.1485432942708
 20
556.6240776909722
 30
0.0
 10
428.0975558810763
 20
556.7098605685763
 30
0.0
 10
428.0338216145833
 20
556.8535210503471
 30
0.0
 10
427.9349473741319
 20
556.8914171006944
 30
0.0
 10
427.7947319878472
 20
556.9458496093749
 30
0.0
 10
427.6228217230902
 20
556.8245822482638
 30
0.0
 10
427.5143012152777
 20
556.7608479817708
 30
0.0
  0
SPLINE
  5
1BA
330
A
100
AcDbEntity
  8
LAYER_1
 62
     7
100
AcDbSpline
210
0.0
220
0.0
230
1.0
 70
    11
 71
     3
 72
    26
 73
    22
 74
     0
 42
0.000000001
 43
0.00000001
 40
0.0
 40
0.0
 40
0.0
 40
0.0
 40
1.0
 40
1.0
 40
1.0
 40
2.0
 40
2.0
 40
2.0
 40
3.0
 40
3.0
 40
3.0
 40
4.0
 40
4.0
 40
4.0
 40
5.0
 40
5.0
 40
5.0
 40
6.0
 40
6.0
 40
6.0
 40
7.0
 40
7.0
 40
7.0
 40
7.0
 10
423.6299560546875
 20
554.8743136935764
 30
0.0
 10
423.7763726128472
 20
554.950794813368
 30
0.0
 10
424.2893473307291
 20
555.2026312934028
 30
0.0
 10
424.2287136501736
 20
554.8105794270833
 30
0.0
 10
424.1939181857638
 20
554.603529188368
 30
0.0
 10
423.9613742404513
 20
554.4343749999999
 30
0.0
 10
423.8242594401041
 20
554.2945041232639
 30
0.0
 10
423.5820692274305
 20
554.0492133246528
 30
0.0
 10
423.3367784288194
 20
553.7591362847222
 30
0.0
 10
423.0656494140625
 20
553.5486409505207
 30
0.0
 10
422.8076117621528
 20
553.344691297743
 30
0.0
 10
422.5209798177083
 20
553.6506157769097
 30
0.0
 10
422.3711181640625
 20
553.8673122829861
 30
0.0
 10
422.2946370442708
 20
553.9754882812499
 30
0.0
 10
422.2532958984374
 20
554.1284505208333
 30
0.0
 10
422.326331922743
 20
554.2559190538194
 30
0.0
 10
422.4413981119791
 20
554.4598687065971
 30
0.0
 10
422.6577501085069
 20
554.4664143880208
 30
0.0
 10
422.8492974175347
 20
554.5428955078124
 30
0.0
 10
423.1104356553819
 20
554.6514160156249
 30
0.0
 10
423.3781195746527
 20
554.7564914279513
 30
0.0
 10
423.6299560546875
 20
554.8743136935764
 30
0.0
  0
SPLINE
  5
1B9
330
A
100
AcDbEntity
  8
LAYER_1
 62
     7
100
AcDbSpline
210
0.0
220
0.0
230
1.0
 70
    11
 71
     3
 72
    44
 73
    40
 74
     0
 42
0.000000001
 43
0.00000001
 40
0.0
 40
0.0
 40
0.0
 40
0.0
 40
1.0
 40
1.0
 40
1.0
 40
2.0
 40
2.0
 40
2.0
 40
3.0
 40
3.0
 40
3.0
 40
4.0
 40
4.0
 40
4.0
 40
5.0
 40
5.0
 40
5.0
 40
6.0
 40
6.0
 40
6.0
 40
7.0
 40
7.0
 40
7.0
 40
8.0
 40
8.0
 40
8.0
 40
9.0
 40
9.0
 40
9.0
 40
10.0
 40
10.0
 40
10.0
 40
11.0
 40
11.0
 40
11.0
 40
12.0
 40
12.0
 40
12.0
 40
13.0
 40
13.0
 40
13.0
 40
13.0
 10
419.7039252387152
 20
553.5613878038193
 30
0.0
 10
419.5637098524305
 20
553.4883517795139
 30
0.0
 10
419.5413167317708
 20
553.5072998046875
 30
0.0
 10
419.3945556640625
 20
553.5296929253471
 30
0.0
 10
419.2384928385416
 20
553.5551866319444
 30
0.0
 10
419.16201171875
 20
553.5138454861111
 30
0.0
 10
419.0472900390625
 20
553.408425564236
 30
0.0
 10
418.7703043619791
 20
553.1534884982639
 30
0.0
 10
418.585302734375
 20
552.7586805555555
 30
0.0
 10
418.473681640625
 20
552.4045247395833
 30
0.0
 10
418.4292399088541
 20
552.2743001302083
 30
0.0
 10
418.4068467881944
 20
552.1723253038194
 30
0.0
 10
418.5184678819444
 20
552.0638047960069
 30
0.0
 10
418.6393907335069
 20
551.9552842881944
 30
0.0
 10
418.872279188368
 20
551.9938693576388
 30
0.0
 10
419.0345431857638
 20
551.9683756510416
 30
0.0
 10
419.2036973741319
 20
551.9394368489583
 30
0.0
 10
419.3725070529513
 20
551.850208875868
 30
0.0
 10
419.5220241970486
 20
551.7706271701388
 30
0.0
 10
419.7580132378472
 20
551.6493598090277
 30
0.0
 10
420.031898328993
 20
551.6238661024305
 30
0.0
 10
420.261341688368
 20
551.502943250868
 30
0.0
 10
420.5259250217014
 20
551.3754747178818
 30
0.0
 10
420.8893825954861
 20
551.3565266927083
 30
0.0
 10
421.0392442491319
 20
551.6590060763889
 30
0.0
 10
421.1122802734375
 20
551.8216145833333
 30
0.0
 10
421.172913953993
 20
552.019363064236
 30
0.0
 10
421.2335476345486
 20
552.1847276475694
 30
0.0
 10
421.3034830729166
 20
552.3600830078125
 30
0.0
 10
421.2941813151041
 20
552.5736789279514
 30
0.0
 10
421.2301025390624
 20
552.7586805555555
 30
0.0
 10
421.1536214192708
 20
552.9784776475694
 30
0.0
 10
421.0041042751736
 20
553.3829318576388
 30
0.0
 10
420.7650146484374
 20
553.4849066840277
 30
0.0
 10
420.6344455295139
 20
553.5393391927083
 30
0.0
 10
420.4652913411458
 20
553.5262478298611
 30
0.0
 10
420.3285210503472
 20
553.5551866319444
 30
0.0
 10
420.0828857421874
 20
553.5996283637153
 30
0.0
 10
419.9523166232639
 20
553.7016031901042
 30
0.0
 10
419.7039252387152
 20
553.5613878038193
 30
0.0
  0
SPLINE
  5
1B8
330
A
100
AcDbEntity
  8
LAYER_1
 62
     7
100
AcDbSpline
210
0.0
220
0.0
230
1.0
 70
    11
 71
     3
 72
    29
 73
    25
 74
     0
 42
0.000000001
 43
0.00000001
 40
0.0
 40
0.0
 40
0.0
 40
0.0
 40
1.0
 40
1.0
 40
1.0
 40
2.0
 40
2.0
 40
2.0
 40
3.0
 40
3.0
 40
3.0
 40
4.0
 40
4.0
 40
4.0
 40
5.0
 40
5.0
 40
5.0
 40
6.0
 40
6.0
 40
6.0
 40
7.0
 40
7.0
 40
7.0
 40
8.0
 40
8.0
 40
8.0
 40
8.0
 10
420.714027235243
 20
558.392445203993
 30
0.0
 10
420.5162787543402
 20
558.6153428819443
 30
0.0
 10
419.9940022786458
 20
558.8258382161458
 30
0.0
 10
420.2010525173611
 20
559.2147894965277
 30
0.0
 10
420.2933810763889
 20
559.3866997612847
 30
0.0
 10
420.6947347005208
 20
559.0073947482639
 30
0.0
 10
420.7843071831597
 20
558.9212673611111
 30
0.0
 10
420.8924831814236
 20
558.8130913628472
 30
0.0
 10
420.949671766493
 20
558.7269639756944
 30
0.0
 10
421.0836859809027
 20
558.6408365885416
 30
0.0
 10
421.2779893663194
 20
558.5133680555555
 30
0.0
 10
421.4788384331597
 20
558.4051920572916
 30
0.0
 10
421.6700412326388
 20
558.2777235243055
 30
0.0
 10
421.8388509114583
 20
558.163001844618
 30
0.0
 10
422.0142062717014
 20
557.9590521918402
 30
0.0
 10
422.0014594184028
 20
557.7423556857639
 30
0.0
 10
421.867445203993
 20
557.7392550998263
 30
0.0
 10
421.8102566189236
 20
557.7871419270833
 30
0.0
 10
421.685888671875
 20
557.8381293402778
 30
0.0
 10
421.4691921657986
 20
557.933558485243
 30
0.0
 10
421.2046088324652
 20
557.9525065104166
 30
0.0
 10
421.0041042751736
 20
558.0737738715277
 30
0.0
 10
420.8766357421875
 20
558.1502549913193
 30
0.0
 10
420.8063557942708
 20
558.2839246961805
 30
0.0
 10
420.714027235243
 20
558.392445203993
 30
0.0
  0
SPLINE
  5
1B7
330
A
100
AcDbEntity
  8
LAYER_1
 62
     7
100
AcDbSpline
210
0.0
220
0.0
230
1.0
 70
    11
 71
     3
 72
    38
 73
    34
 74
     0
 42
0.000000001
 43
0.00000001
 40
0.0
 40
0.0
 40
0.0
 40
0.0
 40
1.0
 40
1.0
 40
1.0
 40
2.0
 40
2.0
 40
2.0
 40
3.0
 40
3.0
 40
3.0
 40
4.0
 40
4.0
 40
4.0
 40
5.0
 40
5.0
 40
5.0
 40
6.0
 40
6.0
 40
6.0
 40
7.0
 40
7.0
 40
7.0
 40
8.0
 40
8.0
 40
8.0
 40
9.0
 40
9.0
 40
9.0
 40
10.0
 40
10.0
 40
10.0
 40
11.0
 40
11.0
 40
11.0
 40
11.0
 10
426.797376844618
 20
556.1999864366319
 30
0.0
 10
426.6985026041666
 20
556.2509738498263
 30
0.0
 10
426.5872260199652
 20
556.2861138237847
 30
0.0
 10
426.4787055121527
 20
556.3019612630208
 30
0.0
 10
426.3608832465277
 20
556.3181532118055
 30
0.0
 10
426.2141221788194
 20
556.384988064236
 30
0.0
 10
426.1793267144097
 20
556.2509738498263
 30
0.0
 10
426.1600341796874
 20
556.1872395833333
 30
0.0
 10
426.1951741536458
 20
556.1045572916667
 30
0.0
 10
426.1951741536458
 20
556.043923611111
 30
0.0
 10
426.1982747395833
 20
555.9515950520832
 30
0.0
 10
426.1824273003472
 20
555.8751139322916
 30
0.0
 10
426.163134765625
 20
555.7920871310763
 30
0.0
 10
426.1345404730902
 20
555.6008843315972
 30
0.0
 10
426.1283393012152
 20
555.3841878255208
 30
0.0
 10
426.1600341796874
 20
555.1964301215278
 30
0.0
 10
426.1824273003472
 20
555.0717176649305
 30
0.0
 10
426.1727810329861
 20
554.9159993489583
 30
0.0
 10
426.2620090060764
 20
554.8233262803819
 30
0.0
 10
426.4787055121527
 20
554.5683892144096
 30
0.0
 10
426.8738579644097
 20
555.0083279079861
 30
0.0
 10
427.0013264973958
 20
555.1709364149305
 30
0.0
 10
427.1415418836805
 20
555.3428466796875
 30
0.0
 10
427.192529296875
 20
555.5023546006944
 30
0.0
 10
427.1990749782986
 20
555.7317979600693
 30
0.0
 10
427.2021755642361
 20
555.81103515625
 30
0.0
 10
427.1735812717013
 20
555.9130099826389
 30
0.0
 10
427.1256944444444
 20
555.9770887586805
 30
0.0
 10
427.0840087890625
 20
556.0377224392361
 30
0.0
 10
427.0237196180555
 20
556.050124782986
 30
0.0
 10
426.9630859375
 20
556.0852647569444
 30
0.0
 10
426.9024522569444
 20
556.1169596354166
 30
0.0
 10
426.8545654296875
 20
556.167947048611
 30
0.0
 10
426.797376844618
 20
556.1999864366319
 30
0.0
  0
SPLINE
  5
1B6
330
A
100
AcDbEntity
  8
LAYER_1
 62
     7
100
AcDbSpline
210
0.0
220
0.0
230
1.0
 70
    11
 71
     3
 72
    26
 73
    22
 74
     0
 42
0.000000001
 43
0.00000001
 40
0.0
 40
0.0
 40
0.0
 40
0.0
 40
1.0
 40
1.0
 40
1.0
 40
2.0
 40
2.0
 40
2.0
 40
3.0
 40
3.0
 40
3.0
 40
4.0
 40
4.0
 40
4.0
 40
5.0
 40
5.0
 40
5.0
 40
6.0
 40
6.0
 40
6.0
 40
7.0
 40
7.0
 40
7.0
 40
7.0
 10
429.1648464626736
 20
558.5643554687499
 30
0.0
 10
429.3687961154513
 20
558.4051920572916
 30
0.0
 10
429.3529486762152
 20
558.0992675781249
 30
0.0
 10
429.3849880642361
 20
557.8570773654513
 30
0.0
 10
429.4104817708333
 20
557.7010145399305
 30
0.0
 10
429.439076063368
 20
557.5001654730902
 30
0.0
 10
429.3371012369792
 20
557.3726969401041
 30
0.0
 10
429.25751953125
 20
557.2834689670138
 30
0.0
 10
429.1489990234375
 20
557.127406141493
 30
0.0
 10
429.0377224392361
 20
557.2579752604166
 30
0.0
 10
428.9546956380208
 20
557.3537489149305
 30
0.0
 10
428.9326470269097
 20
557.5256591796874
 30
0.0
 10
428.9292019314236
 20
557.640380859375
 30
0.0
 10
428.9261013454861
 20
557.7740505642361
 30
0.0
 10
428.9326470269097
 20
557.9146104600694
 30
0.0
 10
428.9195556640624
 20
558.0482801649305
 30
0.0
 10
428.91025390625
 20
558.1564561631944
 30
0.0
 10
428.862367078993
 20
558.2491292317708
 30
0.0
 10
428.8496202256944
 20
558.3542046440972
 30
0.0
 10
428.8306722005208
 20
558.5264594184027
 30
0.0
 10
429.0091281467014
 20
558.6887234157986
 30
0.0
 10
429.1648464626736
 20
558.5643554687499
 30
0.0
  0
SPLINE
  5
1B5
330
A
100
AcDbEntity
  8
LAYER_1
 62
     7
100
AcDbSpline
210
0.0
220
0.0
230
1.0
 70
    11
 71
     3
 72
    41
 73
    37
 74
     0
 42
0.000000001
 43
0.00000001
 40
0.0
 40
0.0
 40
0.0
 40
0.0
 40
1.0
 40
1.0
 40
1.0
 40
2.0
 40
2.0
 40
2.0
 40
3.0
 40
3.0
 40
3.0
 40
4.0
 40
4.0
 40
4.0
 40
5.0
 40
5.0
 40
5.0
 40
6.0
 40
6.0
 40
6.0
 40
7.0
 40
7.0
 40
7.0
 40
8.0
 40
8.0
 40
8.0
 40
9.0
 40
9.0
 40
9.0
 40
10.0
 40
10.0
 40
10.0
 40
11.0
 40
11.0
 40
11.0
 40
12.0
 40
12.0
 40
12.0
 40
12.0
 10
428.1037570529513
 20
555.2088324652777
 30
0.0
 10
427.832972547743
 20
555.0462239583333
 30
0.0
 10
428.0465684678819
 20
554.8360731336805
 30
0.0
 10
428.1423421223958
 20
554.6224772135416
 30
0.0
 10
428.2091769748263
 20
554.4598687065971
 30
0.0
 10
428.2408718532986
 20
554.3069064670138
 30
0.0
 10
428.2536187065972
 20
554.1349962022568
 30
0.0
 10
428.2601643880208
 20
554.0140733506944
 30
0.0
 10
428.228125
 20
553.8356174045139
 30
0.0
 10
428.2822129991319
 20
553.7205512152777
 30
0.0
 10
428.397279188368
 20
553.4721598307291
 30
0.0
 10
428.9515950520833
 20
553.5930826822917
 30
0.0
 10
429.1713921440972
 20
553.6061740451388
 30
0.0
 10
429.3784423828125
 20
553.6158203125
 30
0.0
 10
429.6078857421875
 20
553.6061740451388
 30
0.0
 10
429.8118353949652
 20
553.5868815104166
 30
0.0
 10
429.9551513671875
 20
553.5806803385416
 30
0.0
 10
430.1401529947916
 20
553.4945529513889
 30
0.0
 10
430.2741672092013
 20
553.5551866319444
 30
0.0
 10
430.4078369140624
 20
553.6185763888889
 30
0.0
 10
430.4302300347222
 20
553.7846299913194
 30
0.0
 10
430.4078369140624
 20
553.9217447916666
 30
0.0
 10
430.3761420355902
 20
554.0936550564236
 30
0.0
 10
430.2486735026041
 20
554.1604899088541
 30
0.0
 10
430.1146592881944
 20
554.2497178819444
 30
0.0
 10
430.0061387803819
 20
554.3261990017361
 30
0.0
 10
429.9203559027777
 20
554.4474663628472
 30
0.0
 10
429.8152804904514
 20
554.5363498263888
 30
0.0
 10
429.6461263020833
 20
554.6703640407985
 30
0.0
 10
429.4263292100694
 20
554.7024034288194
 30
0.0
 10
429.2733669704861
 20
554.8360731336805
 30
0.0
 10
429.1138590494791
 20
554.9762885199652
 30
0.0
 10
429.0439236111111
 20
555.1709364149305
 30
0.0
 10
428.8337727864583
 20
555.237771267361
 30
0.0
 10
428.626722547743
 20
555.3011610243055
 30
0.0
 10
428.3015055338541
 20
555.3204535590278
 30
0.0
 10
428.1037570529513
 20
555.2088324652777
 30
0.0
  0
SPLINE
  5
1B4
330
A
100
AcDbEntity
  8
LAYER_1
 62
     7
100
AcDbSpline
210
0.0
220
0.0
230
1.0
 70
    11
 71
     3
 72
    17
 73
    13
 74
     0
 42
0.000000001
 43
0.00000001
 40
0.0
 40
0.0
 40
0.0
 40
0.0
 40
1.0
 40
1.0
 40
1.0
 40
2.0
 40
2.0
 40
2.0
 40
3.0
 40
3.0
 40
3.0
 40
4.0
 40
4.0
 40
4.0
 40
4.0
 10
426.3257432725694
 20
557.4812174479166
 30
0.0
 10
426.2937038845486
 20
557.3472032335069
 30
0.0
 10
426.3832763671875
 20
557.1656467013888
 30
0.0
 10
426.3832763671875
 20
557.0285319010416
 30
0.0
 10
426.3798312717013
 20
556.8118353949652
 30
0.0
 10
426.2079210069444
 20
556.4359754774305
 30
0.0
 10
426.5138454861111
 20
556.3656955295138
 30
0.0
 10
427.1225938585069
 20
556.2254801432291
 30
0.0
 10
427.2945041232638
 20
557.1560004340278
 30
0.0
 10
426.9120985243055
 20
557.5001654730902
 30
0.0
 10
426.8004774305555
 20
557.5955946180555
 30
0.0
 10
426.3701850043402
 20
557.6913682725694
 30
0.0
 10
426.3257432725694
 20
557.4812174479166
 30
0.0
  0
SPLINE
  5
1B3
330
A
100
AcDbEntity
  8
LAYER_1
 62
     7
100
AcDbSpline
210
0.0
220
0.0
230
1.0
 70
    11
 71
     3
 72
    32
 73
    28
 74
     0
 42
0.000000001
 43
0.00000001
 40
0.0
 40
0.0
 40
0.0
 40
0.0
 40
1.0
 40
1.0
 40
1.0
 40
2.0
 40
2.0
 40
2.0
 40
3.0
 40
3.0
 40
3.0
 40
4.0
 40
4.0
 40
4.0
 40
5.0
 40
5.0
 40
5.0
 40
6.0
 40
6.0
 40
6.0
 40
7.0
 40
7.0
 40
7.0
 40
8.0
 40
8.0
 40
8.0
 40
9.0
 40
9.0
 40
9.0
 40
9.0
 10
431.1695475260416
 20
554.5046549479166
 30
0.0
 10
431.0324327256944
 20
554.6545166015625
 30
0.0
 10
431.1058132595486
 20
555.1227050781249
 30
0.0
 10
431.1247612847222
 20
555.2949598524305
 30
0.0
 10
431.156800672743
 20
555.5626437717013
 30
0.0
 10
431.2298366970486
 20
555.5626437717013
 30
0.0
 10
431.4723714192708
 20
555.6167317708333
 30
0.0
 10
431.6187879774305
 20
555.6518717447916
 30
0.0
 10
431.727308485243
 20
555.6263780381944
 30
0.0
 10
431.8671793619791
 20
555.575390625
 30
0.0
 10
432.192396375868
 20
555.4575683593749
 30
0.0
 10
432.3708523220486
 20
555.1771375868055
 30
0.0
 10
432.4345865885416
 20
554.8360731336805
 30
0.0
 10
432.4886745876736
 20
554.5811360677083
 30
0.0
 10
432.5176133897569
 20
554.3230984157985
 30
0.0
 10
432.5686008029513
 20
554.0681613498264
 30
0.0
 10
432.6099419487847
 20
553.8480197482638
 30
0.0
 10
432.6640299479166
 20
553.5613878038193
 30
0.0
 10
432.3901448567708
 20
553.4945529513889
 30
0.0
 10
432.186195203993
 20
553.4466661241319
 30
0.0
 10
432.0139404296875
 20
553.6506157769097
 30
0.0
 10
431.9119656032986
 20
553.8066786024305
 30
0.0
 10
431.8227376302083
 20
553.9596408420139
 30
0.0
 10
431.7972439236111
 20
554.1539442274305
 30
0.0
 10
431.6825222439236
 20
554.2879584418403
 30
0.0
 10
431.5423068576388
 20
554.4664143880208
 30
0.0
 10
431.3032172309028
 20
554.3551378038194
 30
0.0
 10
431.1695475260416
 20
554.5046549479166
 30
0.0
  0
SPLINE
  5
1B2
330
A
100
AcDbEntity
  8
LAYER_1
 62
     7
100
AcDbSpline
210
0.0
220
0.0
230
1.0
 70
    11
 71
     3
 72
    23
 73
    19
 74
     0
 42
0.000000001
 43
0.00000001
 40
0.0
 40
0.0
 40
0.0
 40
0.0
 40
1.0
 40
1.0
 40
1.0
 40
2.0
 40
2.0
 40
2.0
 40
3.0
 40
3.0
 40
3.0
 40
4.0
 40
4.0
 40
4.0
 40
5.0
 40
5.0
 40
5.0
 40
6.0
 40
6.0
 40
6.0
 40
6.0
 10
429.4676703559027
 20
557.4522786458333
 30
0.0
 10
429.3722412109375
 20
557.414382595486
 30
0.0
 10
429.2509738498263
 20
557.245228407118
 30
0.0
 10
429.2289252387152
 20
557.1528998480902
 30
0.0
 10
429.1045572916667
 20
556.6909125434028
 30
0.0
 10
429.6206325954861
 20
556.7033148871527
 30
0.0
 10
429.9203559027777
 20
556.6909125434028
 30
0.0
 10
430.1591010199652
 20
556.6909125434028
 30
0.0
 10
430.5511528862847
 20
556.6461263020833
 30
0.0
 10
430.7168619791667
 20
556.856277126736
 30
0.0
 10
430.8605224609375
 20
557.0412787543403
 30
0.0
 10
430.7902425130208
 20
557.4267849392361
 30
0.0
 10
430.5576985677083
 20
557.5129123263888
 30
0.0
 10
430.3792426215277
 20
557.5701009114583
 30
0.0
 10
430.181494140625
 20
557.4522786458333
 30
0.0
 10
430.0192301432292
 20
557.4267849392361
 30
0.0
 10
429.8500759548611
 20
557.3916449652777
 30
0.0
 10
429.6302788628472
 20
557.5191134982639
 30
0.0
 10
429.4676703559027
 20
557.4522786458333
 30
0.0
  0
SPLINE
  5
1B1
330
A
100
AcDbEntity
  8
LAYER_1
 62
     7
100
AcDbSpline
210
0.0
220
0.0
230
1.0
 70
    11
 71
     3
 72
    26
 73
    22
 74
     0
 42
0.000000001
 43
0.00000001
 40
0.0
 40
0.0
 40
0.0
 40
0.0
 40
1.0
 40
1.0
 40
1.0
 40
2.0
 40
2.0
 40
2.0
 40
3.0
 40
3.0
 40
3.0
 40
4.0
 40
4.0
 40
4.0
 40
5.0
 40
5.0
 40
5.0
 40
6.0
 40
6.0
 40
6.0
 40
7.0
 40
7.0
 40
7.0
 40
7.0
 10
431.0420789930555
 20
554.8553656684028
 30
0.0
 10
431.0579264322917
 20
555.020730251736
 30
0.0
 10
431.0675726996527
 20
555.1771375868055
 30
0.0
 10
431.0548258463541
 20
555.3397460937499
 30
0.0
 10
431.0420789930555
 20
555.4703152126735
 30
0.0
 10
431.1023681640625
 20
555.6325792100694
 30
0.0
 10
431.038978407118
 20
555.7634928385417
 30
0.0
 10
430.9655978732638
 20
555.91025390625
 30
0.0
 10
430.821937391493
 20
555.91025390625
 30
0.0
 10
430.6724202473958
 20
555.8940619574653
 30
0.0
 10
430.5511528862847
 20
555.8813151041666
 30
0.0
 10
430.3726969401041
 20
555.8241265190971
 30
0.0
 10
430.3282552083333
 20
555.702859157986
 30
0.0
 10
430.2645209418403
 20
555.5371500651041
 30
0.0
 10
430.3537489149305
 20
555.3204535590278
 30
0.0
 10
430.4236843532986
 20
555.1709364149305
 30
0.0
 10
430.4905192057291
 20
555.0145290798611
 30
0.0
 10
430.5638997395833
 20
554.2559190538194
 30
0.0
 10
430.927357313368
 20
554.3899332682291
 30
0.0
 10
431.0706732855903
 20
554.4409206814236
 30
0.0
 10
431.0293321397569
 20
554.7437445746527
 30
0.0
 10
431.0420789930555
 20
554.8553656684028
 30
0.0
  0
SPLINE
  5
1B0
330
A
100
AcDbEntity
  8
LAYER_1
 62
     7
100
AcDbSpline
210
0.0
220
0.0
230
1.0
 70
    11
 71
     3
 72
    29
 73
    25
 74
     0
 42
0.000000001
 43
0.00000001
 40
0.0
 40
0.0
 40
0.0
 40
0.0
 40
1.0
 40
1.0
 40
1.0
 40
2.0
 40
2.0
 40
2.0
 40
3.0
 40
3.0
 40
3.0
 40
4.0
 40
4.0
 40
4.0
 40
5.0
 40
5.0
 40
5.0
 40
6.0
 40
6.0
 40
6.0
 40
7.0
 40
7.0
 40
7.0
 40
8.0
 40
8.0
 40
8.0
 40
8.0
 10
428.1516438802083
 20
553.7081488715278
 30
0.0
 10
428.2698106553819
 20
553.9086534288194
 30
0.0
 10
428.0975558810763
 20
554.3644395616319
 30
0.0
 10
427.9859347873264
 20
554.5301486545138
 30
0.0
 10
427.8936062282986
 20
554.6769097222221
 30
0.0
 10
427.8553656684027
 20
554.8360731336805
 30
0.0
 10
427.6579616970486
 20
554.7723388671875
 30
0.0
 10
427.5208468967014
 20
554.7278971354166
 30
0.0
 10
427.3868326822916
 20
554.6958577473957
 30
0.0
 10
427.250062391493
 20
554.6479709201388
 30
0.0
 10
427.1990749782986
 20
554.6321234809027
 30
0.0
 10
427.1095024956597
 20
554.6066297743055
 30
0.0
 10
427.0778076171875
 20
554.555642361111
 30
0.0
 10
426.9951253255208
 20
554.4536675347222
 30
0.0
 10
427.0840087890625
 20
554.4154269748263
 30
0.0
 10
427.1480875651041
 20
554.3389458550347
 30
0.0
 10
427.3296440972222
 20
554.1095024956596
 30
0.0
 10
427.3933783637152
 20
553.3543375651041
 30
0.0
 10
427.8074788411458
 20
553.4945529513889
 30
0.0
 10
427.8808593749999
 20
553.5200466579861
 30
0.0
 10
427.9128987630208
 20
553.5675889756944
 30
0.0
 10
427.9700873480903
 20
553.5996283637153
 30
0.0
 10
428.0307210286458
 20
553.6378689236111
 30
0.0
 10
428.1134033203124
 20
553.6506157769097
 30
0.0
 10
428.1516438802083
 20
553.7081488715278
 30
0.0
  0
SPLINE
  5
1AF
330
A
100
AcDbEntity
  8
LAYER_1
 62
     7
100
AcDbSpline
210
0.0
220
0.0
230
1.0
 70
    11
 71
     3
 72
    35
 73
    31
 74
     0
 42
0.000000001
 43
0.00000001
 40
0.0
 40
0.0
 40
0.0
 40
0.0
 40
1.0
 40
1.0
 40
1.0
 40
2.0
 40
2.0
 40
2.0
 40
3.0
 40
3.0
 40
3.0
 40
4.0
 40
4.0
 40
4.0
 40
5.0
 40
5.0
 40
5.0
 40
6.0
 40
6.0
 40
6.0
 40
7.0
 40
7.0
 40
7.0
 40
8.0
 40
8.0
 40
8.0
 40
9.0
 40
9.0
 40
9.0
 40
10.0
 40
10.0
 40
10.0
 40
10.0
 10
428.5182020399305
 20
556.3656955295138
 30
0.0
 10
428.3907335069444
 20
556.3436469184028
 30
0.0
 10
428.403480360243
 20
556.3656955295138
 30
0.0
 10
428.3748860677083
 20
556.2637207031249
 30
0.0
 10
428.3621392144097
 20
556.2065321180555
 30
0.0
 10
428.3717854817708
 20
556.1235053168402
 30
0.0
 10
428.3938340928819
 20
556.0725179036458
 30
0.0
 10
428.4448215060763
 20
555.9639973958333
 30
0.0
 10
428.5309488932292
 20
555.9385036892361
 30
0.0
 10
428.5722900390625
 20
555.8303276909721
 30
0.0
 10
428.5946831597222
 20
555.7572916666666
 30
0.0
 10
428.6043294270833
 20
555.6835666232638
 30
0.0
 10
428.626722547743
 20
555.6136311848958
 30
0.0
 10
428.6646185980902
 20
555.4927083333333
 30
0.0
 10
428.7286973741319
 20
555.3776421440972
 30
0.0
 10
428.8210259331597
 20
555.2949598524305
 30
0.0
 10
428.9230007595486
 20
555.2026312934028
 30
0.0
 10
428.9867350260416
 20
555.2026312934028
 30
0.0
 10
429.1076578776041
 20
555.237771267361
 30
0.0
 10
429.327454969618
 20
555.3011610243055
 30
0.0
 10
429.3498480902778
 20
555.3969346788194
 30
0.0
 10
429.3371012369792
 20
555.6298231336805
 30
0.0
 10
429.327454969618
 20
555.8303276909721
 30
0.0
 10
429.2509738498263
 20
555.9960367838542
 30
0.0
 10
429.1779378255208
 20
556.1841389973957
 30
0.0
 10
429.1393527560763
 20
556.2892144097221
 30
0.0
 10
429.0628716362847
 20
556.4294297960068
 30
0.0
 10
428.9450493706597
 20
556.4614691840277
 30
0.0
 10
428.8017333984375
 20
556.5059109157986
 30
0.0
 10
428.6553168402777
 20
556.391189236111
 30
0.0
 10
428.5182020399305
 20
556.3656955295138
 30
0.0
  0
SPLINE
  5
1AE
330
A
100
AcDbEntity
  8
LAYER_1
 62
     7
100
AcDbSpline
210
0.0
220
0.0
230
1.0
 70
    11
 71
     3
 72
    77
 73
    73
 74
     0
 42
0.000000001
 43
0.00000001
 40
0.0
 40
0.0
 40
0.0
 40
0.0
 40
1.0
 40
1.0
 40
1.0
 40
2.0
 40
2.0
 40
2.0
 40
3.0
 40
3.0
 40
3.0
 40
4.0
 40
4.0
 40
4.0
 40
5.0
 40
5.0
 40
5.0
 40
6.0
 40
6.0
 40
6.0
 40
7.0
 40
7.0
 40
7.0
 40
8.0
 40
8.0
 40
8.0
 40
9.0
 40
9.0
 40
9.0
 40
10.0
 40
10.0
 40
10.0
 40
11.0
 40
11.0
 40
11.0
 40
12.0
 40
12.0
 40
12.0
 40
13.0
 40
13.0
 40
13.0
 40
14.0
 40
14.0
 40
14.0
 40
15.0
 40
15.0
 40
15.0
 40
16.0
 40
16.0
 40
16.0
 40
17.0
 40
17.0
 40
17.0
 40
18.0
 40
18.0
 40
18.0
 40
19.0
 40
19.0
 40
19.0
 40
20.0
 40
20.0
 40
20.0
 40
21.0
 40
21.0
 40
21.0
 40
22.0
 40
22.0
 40
22.0
 40
23.0
 40
23.0
 40
23.0
 40
24.0
 40
24.0
 40
24.0
 40
24.0
 10
422.4062581380208
 20
552.3376898871527
 30
0.0
 10
422.3170301649305
 20
552.2581081814236
 30
0.0
 10
422.256396484375
 20
552.1530327690972
 30
0.0
 10
422.1702690972222
 20
552.0731065538193
 30
0.0
 10
422.0937879774305
 20
552.0000705295139
 30
0.0
 10
422.0142062717014
 20
551.9363362630207
 30
0.0
 10
421.9408257378472
 20
551.8598551432291
 30
0.0
 10
421.8040554470486
 20
551.7196397569444
 30
0.0
 10
421.6634955512152
 20
551.6176649305555
 30
0.0
 10
421.6986355251736
 20
551.3944227430555
 30
0.0
 10
421.7337754991319
 20
551.1842719184027
 30
0.0
 10
421.9856119791666
 20
551.0822970920138
 30
0.0
 10
422.1733696831597
 20
551.0630045572916
 30
0.0
 10
422.4954861111111
 20
551.0251085069444
 30
0.0
 10
422.8203586154514
 20
551.0506022135417
 30
0.0
 10
423.1328287760416
 20
550.9420817057292
 30
0.0
 10
423.2282579210069
 20
550.9100423177083
 30
0.0
 10
423.3336778428819
 20
550.872146267361
 30
0.0
 10
423.4225613064236
 20
550.814613172743
 30
0.0
 10
423.578968641493
 20
550.702992078993
 30
0.0
 10
423.7160834418402
 20
550.6774983723958
 30
0.0
 10
423.9007405598958
 20
550.6106635199652
 30
0.0
 10
424.2383599175347
 20
550.5021430121527
 30
0.0
 10
424.6400580512152
 20
550.3491807725694
 30
0.0
 10
425.0000705295138
 20
550.3905219184028
 30
0.0
 10
425.1626790364583
 20
550.4067138671875
 30
0.0
 10
425.3855767144097
 20
550.515234375
 30
0.0
 10
425.5354383680555
 20
550.585169813368
 30
0.0
 10
425.6405137803819
 20
550.6361572265624
 30
0.0
 10
425.7362874348958
 20
550.655105251736
 30
0.0
 10
425.7903754340277
 20
550.7701714409721
 30
0.0
 10
425.8923502604166
 20
550.9768771701389
 30
0.0
 10
425.8765028211805
 20
551.2958930121528
 30
0.0
 10
425.8923502604166
 20
551.5218912760416
 30
0.0
 10
425.9147433810763
 20
551.8247151692708
 30
0.0
 10
425.9305908203125
 20
552.1306396484374
 30
0.0
 10
425.9529839409722
 20
552.4396647135416
 30
0.0
 10
425.9591851128472
 20
552.5671332465278
 30
0.0
 10
425.9846788194444
 20
552.6821994357639
 30
0.0
 10
425.9367919921875
 20
552.8031222873263
 30
0.0
 10
425.8988959418402
 20
552.8985514322916
 30
0.0
 10
425.8189697265624
 20
552.9943250868055
 30
0.0
 10
425.7521348741319
 20
553.0611599392361
 30
0.0
 10
425.6694525824652
 20
553.1341959635416
 30
0.0
 10
425.5512858072916
 20
553.1596896701388
 30
0.0
 10
425.4813503689236
 20
553.2334147135416
 30
0.0
 10
425.4400092230902
 20
553.28095703125
 30
0.0
 10
425.3890218098958
 20
553.3829318576388
 30
0.0
 10
425.3600830078125
 20
553.4401204427082
 30
0.0
 10
425.191273328993
 20
553.733642578125
 30
0.0
 10
425.1754258897569
 20
554.1415418836805
 30
0.0
 10
424.8629557291666
 20
554.3420464409721
 30
0.0
 10
424.732386610243
 20
554.42197265625
 30
0.0
 10
424.5380832248263
 20
554.428173828125
 30
0.0
 10
424.391322157118
 20
554.4026801215277
 30
0.0
 10
424.1715250651041
 20
554.3551378038194
 30
0.0
 10
423.8814480251736
 20
554.3613389756944
 30
0.0
 10
423.7319308810763
 20
554.19873046875
 30
0.0
 10
423.4928412543402
 20
553.9437934027777
 30
0.0
 10
423.1772705078125
 20
553.7016031901042
 30
0.0
 10
422.9926133897569
 20
553.408425564236
 30
0.0
 10
422.890638563368
 20
553.2589084201388
 30
0.0
 10
422.9161322699653
 20
553.115247938368
 30
0.0
 10
422.9636745876736
 20
552.9464382595486
 30
0.0
 10
422.9767659505208
 20
552.8923502604166
 30
0.0
 10
423.0339545355902
 20
552.7710828993055
 30
0.0
 10
423.0053602430555
 20
552.7138943142361
 30
0.0
 10
422.9636745876736
 20
552.6405137803819
 30
0.0
 10
422.8172580295138
 20
552.592626953125
 30
0.0
 10
422.7473225911458
 20
552.5481852213541
 30
0.0
 10
422.6419026692708
 20
552.478249782986
 30
0.0
 10
422.4954861111111
 20
552.4334635416666
 30
0.0
 10
422.4062581380208
 20
552.3376898871527
 30
0.0
  0
SPLINE
  5
1AD
330
A
100
AcDbEntity
  8
LAYER_1
 62
     7
100
AcDbSpline
210
0.0
220
0.0
230
1.0
 70
    11
 71
     3
 72
    47
 73
    43
 74
     0
 42
0.000000001
 43
0.00000001
 40
0.0
 40
0.0
 40
0.0
 40
0.0
 40
1.0
 40
1.0
 40
1.0
 40
2.0
 40
2.0
 40
2.0
 40
3.0
 40
3.0
 40
3.0
 40
4.0
 40
4.0
 40
4.0
 40
5.0
 40
5.0
 40
5.0
 40
6.0
 40
6.0
 40
6.0
 40
7.0
 40
7.0
 40
7.0
 40
8.0
 40
8.0
 40
8.0
 40
9.0
 40
9.0
 40
9.0
 40
10.0
 40
10.0
 40
10.0
 40
11.0
 40
11.0
 40
11.0
 40
12.0
 40
12.0
 40
12.0
 40
13.0
 40
13.0
 40
13.0
 40
14.0
 40
14.0
 40
14.0
 40
14.0
 10
422.0142062717014
 20
556.3147081163194
 30
0.0
 10
421.8963840060763
 20
556.2509738498263
 30
0.0
 10
421.8040554470486
 20
556.1235053168402
 30
0.0
 10
421.7179280598958
 20
556.0215304904514
 30
0.0
 10
421.4340521918402
 20
555.6966579861111
 30
0.0
 10
421.3927110460069
 20
555.237771267361
 30
0.0
 10
421.3289767795138
 20
554.8233262803819
 30
0.0
 10
421.3034830729166
 20
554.6576171874999
 30
0.0
 10
421.2524956597222
 20
554.428173828125
 30
0.0
 10
421.4915852864583
 20
554.4409206814236
 30
0.0
 10
421.625599500868
 20
554.4409206814236
 30
0.0
 10
421.7561686197917
 20
554.491908094618
 30
0.0
 10
421.8963840060763
 20
554.4984537760416
 30
0.0
 10
422.0748399522569
 20
554.4984537760416
 30
0.0
 10
422.13857421875
 20
554.4984537760416
 30
0.0
 10
422.2915364583333
 20
554.5811360677083
 30
0.0
 10
422.4348524305555
 20
554.6545166015625
 30
0.0
 10
422.5878146701389
 20
554.7086046006943
 30
0.0
 10
422.7311306423611
 20
554.778884548611
 30
0.0
 10
422.896839735243
 20
554.8553656684028
 30
0.0
 10
423.062548828125
 20
554.950794813368
 30
0.0
 10
423.2348036024305
 20
555.0145290798611
 30
0.0
 10
423.4101589626736
 20
555.0782633463541
 30
0.0
 10
423.6234103732638
 20
555.0972113715277
 30
0.0
 10
423.7794731987847
 20
555.2088324652777
 30
0.0
 10
423.9451822916666
 20
555.3204535590278
 30
0.0
 10
423.9706759982639
 20
555.5116563585069
 30
0.0
 10
424.0344102647569
 20
555.6835666232638
 30
0.0
 10
424.0888427734375
 20
555.8430745442707
 30
0.0
 10
424.155677625868
 20
556.0311767578124
 30
0.0
 10
424.0123616536458
 20
556.1617458767361
 30
0.0
 10
423.8242594401041
 20
556.3243543836805
 30
0.0
 10
423.4990424262152
 20
556.3181532118055
 30
0.0
 10
423.2664984809027
 20
556.3116075303819
 30
0.0
 10
423.1135362413194
 20
556.3116075303819
 30
0.0
 10
422.9223334418402
 20
556.2189344618055
 30
0.0
 10
422.7693712022569
 20
556.25751953125
 30
0.0
 10
422.661195203993
 20
556.2861138237847
 30
0.0
 10
422.5688666449652
 20
556.3784423828124
 30
0.0
 10
422.4506998697916
 20
556.3973904079861
 30
0.0
 10
422.3073838975694
 20
556.4294297960068
 30
0.0
 10
422.1416748046875
 20
556.384988064236
 30
0.0
 10
422.0142062717014
 20
556.3147081163194
 30
0.0
  0
SPLINE
  5
1AC
330
A
100
AcDbEntity
  8
LAYER_1
 62
     7
100
AcDbSpline
210
0.0
220
0.0
230
1.0
 70
    11
 71
     3
 72
    44
 73
    40
 74
     0
 42
0.000000001
 43
0.00000001
 40
0.0
 40
0.0
 40
0.0
 40
0.0
 40
1.0
 40
1.0
 40
1.0
 40
2.0
 40
2.0
 40
2.0
 40
3.0
 40
3.0
 40
3.0
 40
4.0
 40
4.0
 40
4.0
 40
5.0
 40
5.0
 40
5.0
 40
6.0
 40
6.0
 40
6.0
 40
7.0
 40
7.0
 40
7.0
 40
8.0
 40
8.0
 40
8.0
 40
9.0
 40
9.0
 40
9.0
 40
10.0
 40
10.0
 40
10.0
 40
11.0
 40
11.0
 40
11.0
 40
12.0
 40
12.0
 40
12.0
 40
13.0
 40
13.0
 40
13.0
 40
13.0
 10
406.4440972222222
 20
513.5273111979167
 30
0.0
 10
406.3104275173611
 20
513.4063883463541
 30
0.0
 10
406.0458441840277
 20
513.2372341579861
 30
0.0
 10
405.9628173828125
 20
513.0653238932291
 30
0.0
 10
405.8229465060763
 20
512.7721462673611
 30
0.0
 10
406.1157796223958
 20
512.6925645616319
 30
0.0
 10
406.364515516493
 20
512.6384765624999
 30
0.0
 10
406.8330485026041
 20
512.5299560546874
 30
0.0
 10
407.6106065538194
 20
512.8265787760416
 30
0.0
 10
408.0278076171875
 20
512.5585503472222
 30
0.0
 10
408.2476047092014
 20
512.4279812282986
 30
0.0
 10
408.3082383897569
 20
512.0645236545139
 30
0.0
 10
408.4804931640625
 20
511.8736653645833
 30
0.0
 10
408.665150282118
 20
511.6697157118055
 30
0.0
 10
408.9745198567708
 20
511.6442220052083
 30
0.0
 10
409.2387586805555
 20
511.5801432291666
 30
0.0
 10
409.5446831597222
 20
511.5102077907986
 30
0.0
 10
410.1406846788194
 20
511.3761935763889
 30
0.0
 10
410.1789252387152
 20
511.8161322699652
 30
0.0
 10
410.2044189453125
 20
512.1286024305555
 30
0.0
 10
409.930189344618
 20
512.2622721354167
 30
0.0
 10
409.7965196397569
 20
512.5172092013888
 30
0.0
 10
409.6659505208333
 20
512.765945095486
 30
0.0
 10
409.8571533203125
 20
512.7914388020832
 30
0.0
 10
410.0611029730902
 20
512.9822970920138
 30
0.0
 10
410.2681532118055
 20
513.1862467447917
 30
0.0
 10
410.389076063368
 20
513.339208984375
 30
0.0
 10
410.1182915581597
 20
513.5497043185763
 30
0.0
 10
409.9398356119791
 20
513.689919704861
 30
0.0
 10
409.6786973741319
 20
513.7601996527777
 30
0.0
 10
409.4747477213541
 20
513.8683756510417
 30
0.0
 10
409.235658094618
 20
514.0085910373264
 30
0.0
 10
408.9903672960069
 20
514.1615532769097
 30
0.0
 10
408.7450764973958
 20
514.2824761284721
 30
0.0
 10
408.3912651909722
 20
514.4609320746528
 30
0.0
 10
407.9196316189236
 20
514.6779730902778
 30
0.0
 10
407.5275797526041
 20
514.5091634114583
 30
0.0
 10
407.0814398871527
 20
514.314515516493
 30
0.0
 10
406.7948079427083
 20
513.8366807725694
 30
0.0
 10
406.4440972222222
 20
513.5273111979167
 30
0.0
  0
SPLINE
  5
1AB
330
A
100
AcDbEntity
  8
LAYER_1
 62
     7
100
AcDbSpline
210
0.0
220
0.0
230
1.0
 70
    11
 71
     3
 72
    50
 73
    46
 74
     0
 42
0.000000001
 43
0.00000001
 40
0.0
 40
0.0
 40
0.0
 40
0.0
 40
1.0
 40
1.0
 40
1.0
 40
2.0
 40
2.0
 40
2.0
 40
3.0
 40
3.0
 40
3.0
 40
4.0
 40
4.0
 40
4.0
 40
5.0
 40
5.0
 40
5.0
 40
6.0
 40
6.0
 40
6.0
 40
7.0
 40
7.0
 40
7.0
 40
8.0
 40
8.0
 40
8.0
 40
9.0
 40
9.0
 40
9.0
 40
10.0
 40
10.0
 40
10.0
 40
11.0
 40
11.0
 40
11.0
 40
12.0
 40
12.0
 40
12.0
 40
13.0
 40
13.0
 40
13.0
 40
14.0
 40
14.0
 40
14.0
 40
15.0
 40
15.0
 40
15.0
 40
15.0
 10
415.831982421875
 20
513.1800455729166
 30
0.0
 10
415.8574761284722
 20
512.8644748263888
 30
0.0
 10
415.6728190104166
 20
512.7180582682291
 30
0.0
 10
415.6121853298611
 20
512.4345269097222
 30
0.0
 10
415.5642985026041
 20
512.1919921875
 30
0.0
 10
415.6249321831597
 20
511.9115614149305
 30
0.0
 10
415.6187310112847
 20
511.6631700303819
 30
0.0
 10
415.6025390624999
 20
511.2935112847222
 30
0.0
 10
415.484716796875
 20
511.032373046875
 30
0.0
 10
415.3414008246527
 20
510.7009548611111
 30
0.0
 10
415.095765516493
 20
510.12080078125
 30
0.0
 10
414.9304009331597
 20
509.5220431857638
 30
0.0
 10
414.6975124782986
 20
508.9480902777777
 30
0.0
 10
414.5001085069444
 20
508.4637098524305
 30
0.0
 10
414.1845377604166
 20
507.8584065755208
 30
0.0
 10
414.6051839192708
 20
507.3898735894097
 30
0.0
 10
414.7677924262152
 20
507.2048719618055
 30
0.0
 10
415.2139322916667
 20
506.8386583116319
 30
0.0
 10
415.4402750651041
 20
506.7714789496528
 30
0.0
 10
415.82578125
 20
506.6602023654514
 30
0.0
 10
415.9277560763888
 20
507.0870496961805
 30
0.0
 10
416.055224609375
 20
507.355078125
 30
0.0
 10
416.290869140625
 20
507.8711534288194
 30
0.0
 10
416.918910047743
 20
508.2280653211805
 30
0.0
 10
417.0587809244792
 20
508.7506863064236
 30
0.0
 10
417.2182888454861
 20
509.3497884114583
 30
0.0
 10
417.5273139105902
 20
509.955091688368
 30
0.0
 10
417.5145670572916
 20
510.589333767361
 30
0.0
 10
417.5114664713541
 20
510.8091308593749
 30
0.0
 10
417.4508327907986
 20
511.0130805121527
 30
0.0
 10
417.4859727647569
 20
511.2363226996527
 30
0.0
 10
417.5242133246527
 20
511.4912597656249
 30
0.0
 10
417.6420355902777
 20
511.5422471788194
 30
0.0
 10
417.7378092447916
 20
511.7110568576388
 30
0.0
 10
417.890771484375
 20
511.9914876302083
 30
0.0
 10
417.9290120442708
 20
512.4724229600694
 30
0.0
 10
417.8142903645833
 20
512.7593994140625
 30
0.0
 10
417.6771755642361
 20
513.1097656249999
 30
0.0
 10
417.2503282335069
 20
513.3681477864583
 30
0.0
 10
416.9409586588541
 20
513.5307562934028
 30
0.0
 10
416.7848958333333
 20
513.6134385850694
 30
0.0
 10
416.5967936197916
 20
513.6995659722222
 30
0.0
 10
416.4279839409722
 20
513.7409071180555
 30
0.0
 10
415.9150092230902
 20
513.8683756510417
 30
0.0
 10
415.7906412760416
 20
513.6451334635416
 30
0.0
 10
415.831982421875
 20
513.1800455729166
 30
0.0
  0
SPLINE
  5
1AA
330
A
100
AcDbEntity
  8
LAYER_1
 62
     7
100
AcDbSpline
210
0.0
220
0.0
230
1.0
 70
    11
 71
     3
 72
    35
 73
    31
 74
     0
 42
0.000000001
 43
0.00000001
 40
0.0
 40
0.0
 40
0.0
 40
0.0
 40
1.0
 40
1.0
 40
1.0
 40
2.0
 40
2.0
 40
2.0
 40
3.0
 40
3.0
 40
3.0
 40
4.0
 40
4.0
 40
4.0
 40
5.0
 40
5.0
 40
5.0
 40
6.0
 40
6.0
 40
6.0
 40
7.0
 40
7.0
 40
7.0
 40
8.0
 40
8.0
 40
8.0
 40
9.0
 40
9.0
 40
9.0
 40
10.0
 40
10.0
 40
10.0
 40
10.0
 10
407.4924397786458
 20
503.7156792534722
 30
0.0
 10
407.2791883680555
 20
503.3460205078125
 30
0.0
 10
407.2950358072916
 20
502.8681857638888
 30
0.0
 10
407.2853895399305
 20
502.4602864583333
 30
0.0
 10
407.2726426866319
 20
501.9025254991319
 30
0.0
 10
407.3236300998263
 20
501.9214735243055
 30
0.0
 10
407.8493516710069
 20
501.9504123263889
 30
0.0
 10
408.1332275390625
 20
501.9628146701389
 30
0.0
 10
408.3785183376736
 20
501.8673855251736
 30
0.0
 10
408.6493028428819
 20
501.8291449652777
 30
0.0
 10
408.9266330295139
 20
501.7909044053819
 30
0.0
 10
409.2132649739583
 20
501.8291449652777
 30
0.0
 10
409.4936957465277
 20
501.8098524305555
 30
0.0
 10
409.7772271050347
 20
501.7909044053819
 30
0.0
 10
410.0769504123264
 20
501.6954752604166
 30
0.0
 10
410.319140625
 20
501.8863335503472
 30
0.0
 10
410.6571044921874
 20
502.1447157118055
 30
0.0
 10
410.7173936631944
 20
502.5174750434027
 30
0.0
 10
410.7683810763888
 20
502.9033257378472
 30
0.0
 10
410.7845730251736
 20
503.0211480034721
 30
0.0
 10
410.8927490234375
 20
503.3046793619791
 30
0.0
 10
410.8641547309027
 20
503.4159559461805
 30
0.0
 10
410.835560438368
 20
503.5372233072916
 30
0.0
 10
410.6378119574653
 20
503.6453993055555
 30
0.0
 10
410.5199896918402
 20
503.7094780815972
 30
0.0
 10
409.9973687065972
 20
504.0023111979166
 30
0.0
 10
409.3758734809027
 20
504.1938585069444
 30
0.0
 10
408.8150119357638
 20
504.4074544270833
 30
0.0
 10
408.1521755642361
 20
504.6527452256944
 30
0.0
 10
407.8142116970486
 20
504.2703396267361
 30
0.0
 10
407.4924397786458
 20
503.7156792534722
 30
0.0
  0
SPLINE
  5
1A9
330
A
100
AcDbEntity
  8
LAYER_1
 62
     7
100
AcDbSpline
210
0.0
220
0.0
230
1.0
 70
    11
 71
     3
 72
    47
 73
    43
 74
     0
 42
0.000000001
 43
0.00000001
 40
0.0
 40
0.0
 40
0.0
 40
0.0
 40
1.0
 40
1.0
 40
1.0
 40
2.0
 40
2.0
 40
2.0
 40
3.0
 40
3.0
 40
3.0
 40
4.0
 40
4.0
 40
4.0
 40
5.0
 40
5.0
 40
5.0
 40
6.0
 40
6.0
 40
6.0
 40
7.0
 40
7.0
 40
7.0
 40
8.0
 40
8.0
 40
8.0
 40
9.0
 40
9.0
 40
9.0
 40
10.0
 40
10.0
 40
10.0
 40
11.0
 40
11.0
 40
11.0
 40
12.0
 40
12.0
 40
12.0
 40
13.0
 40
13.0
 40
13.0
 40
14.0
 40
14.0
 40
14.0
 40
14.0
 10
408.6079616970486
 20
509.1554850260416
 30
0.0
 10
408.5886691623264
 20
508.3555338541666
 30
0.0
 10
408.6906439887152
 20
507.5652289496527
 30
0.0
 10
408.601416015625
 20
506.7749240451388
 30
0.0
 10
408.547328016493
 20
506.2843424479166
 30
0.0
 10
408.435706922743
 20
505.8220106336805
 30
0.0
 10
408.3592258029514
 20
505.3534776475694
 30
0.0
 10
408.3082383897569
 20
505.0475531684027
 30
0.0
 10
408.3020372178819
 20
504.7736680772569
 30
0.0
 10
408.5886691623264
 20
504.5762641059027
 30
0.0
 10
409.0730495876736
 20
504.2510470920138
 30
0.0
 10
409.688343641493
 20
504.0216037326388
 30
0.0
 10
410.2681532118055
 20
503.9389214409722
 30
0.0
 10
410.9437364366319
 20
503.8335015190972
 30
0.0
 10
411.5810791015625
 20
503.6519449869791
 30
0.0
 10
412.2790554470486
 20
503.6329969618055
 30
0.0
 10
412.6104736328124
 20
503.6264512803819
 30
0.0
 10
412.8685112847222
 20
503.5916558159722
 30
0.0
 10
413.1138020833333
 20
503.8335015190972
 30
0.0
 10
413.3752848307291
 20
504.0980848524305
 30
0.0
 10
413.483460828993
 20
504.4264024522569
 30
0.0
 10
413.53134765625
 20
504.7802137586805
 30
0.0
 10
413.6936116536458
 20
505.8633517795138
 30
0.0
 10
413.7766384548611
 20
506.9564805772569
 30
0.0
 10
414.1524983723958
 20
507.9793294270833
 30
0.0
 10
414.3788411458333
 20
508.6008246527777
 30
0.0
 10
414.6689181857639
 20
509.2350667317708
 30
0.0
 10
414.7963867187499
 20
509.88515625
 30
0.0
 10
414.9014621310764
 20
510.4205240885416
 30
0.0
 10
414.5349039713541
 20
510.5349012586805
 30
0.0
 10
414.0698160807291
 20
510.6368760850694
 30
0.0
 10
413.4676133897569
 20
510.7643446180555
 30
0.0
 10
412.8971055772569
 20
510.81533203125
 30
0.0
 10
412.2790554470486
 20
510.8029296875
 30
0.0
 10
411.6382676866319
 20
510.7836371527777
 30
0.0
 10
411.0202175564236
 20
510.7388509114583
 30
0.0
 10
410.3732286241319
 20
510.7519422743055
 30
0.0
 10
409.9208875868055
 20
510.7643446180555
 30
0.0
 10
409.0413547092014
 20
511.2232313368055
 30
0.0
 10
408.7161376953125
 20
510.7326497395833
 30
0.0
 10
408.4422526041666
 20
510.3343967013889
 30
0.0
 10
408.6207085503472
 20
509.607826063368
 30
0.0
 10
408.6079616970486
 20
509.1554850260416
 30
0.0
  0
SPLINE
  5
1A8
330
A
100
AcDbEntity
  8
LAYER_1
 62
     7
100
AcDbSpline
210
0.0
220
0.0
230
1.0
 70
     8
 71
     3
 72
    29
 73
    25
 74
     0
 42
0.000000001
 43
0.00000001
 40
0.0
 40
0.0
 40
0.0
 40
0.0
 40
1.0
 40
1.0
 40
1.0
 40
2.0
 40
2.0
 40
2.0
 40
3.0
 40
3.0
 40
3.0
 40
4.0
 40
4.0
 40
4.0
 40
5.0
 40
5.0
 40
5.0
 40
6.0
 40
6.0
 40
6.0
 40
7.0
 40
7.0
 40
7.0
 40
8.0
 40
8.0
 40
8.0
 40
8.0
 10
408.6300103081597
 20
508.1770779079861
 30
0.0
 10
408.658949110243
 20
508.3937744140625
 30
0.0
 10
408.5921142578125
 20
508.6869520399305
 30
0.0
 10
408.4804931640625
 20
508.8812554253471
 30
0.0
 10
408.3275309244791
 20
509.1458387586805
 30
0.0
 10
408.1842149522569
 20
509.0659125434027
 30
0.0
 10
407.976820203993
 20
508.8461154513889
 30
0.0
 10
407.629554578993
 20
508.4830023871527
 30
0.0
 10
407.3332763671875
 20
507.9028483072916
 30
0.0
 10
407.2375027126736
 20
507.4060655381944
 30
0.0
 10
407.1772135416666
 20
507.0681016710069
 30
0.0
 10
407.2598958333333
 20
506.736683485243
 30
0.0
 10
407.2629964192708
 20
506.3925184461805
 30
0.0
 10
407.2664415147569
 20
506.1279351128472
 30
0.0
 10
407.2471489800347
 20
505.8888454861111
 30
0.0
 10
407.3429226345486
 20
505.6404541015625
 30
0.0
 10
407.4383517795139
 20
505.3920627170139
 30
0.0
 10
407.6488471137152
 20
504.9776177300347
 30
0.0
 10
407.865199110243
 20
504.8181098090278
 30
0.0
 10
408.1266818576389
 20
504.6272515190972
 30
0.0
 10
408.1873155381944
 20
504.7671223958333
 30
0.0
 10
408.2572509765625
 20
505.0124131944444
 30
0.0
 10
408.2923909505208
 20
505.1529730902777
 30
0.0
 10
408.3337320963541
 20
505.2866427951388
 30
0.0
 10
408.3337320963541
 20
505.4334038628472
 30
0.0
  0
SPLINE
  5
1A7
330
A
100
AcDbEntity
  8
LAYER_1
 62
     7
100
AcDbSpline
210
0.0
220
0.0
230
1.0
 70
     8
 71
     3
 72
    47
 73
    43
 74
     0
 42
0.000000001
 43
0.00000001
 40
0.0
 40
0.0
 40
0.0
 40
0.0
 40
1.0
 40
1.0
 40
1.0
 40
2.0
 40
2.0
 40
2.0
 40
3.0
 40
3.0
 40
3.0
 40
4.0
 40
4.0
 40
4.0
 40
5.0
 40
5.0
 40
5.0
 40
6.0
 40
6.0
 40
6.0
 40
7.0
 40
7.0
 40
7.0
 40
8.0
 40
8.0
 40
8.0
 40
9.0
 40
9.0
 40
9.0
 40
10.0
 40
10.0
 40
10.0
 40
11.0
 40
11.0
 40
11.0
 40
12.0
 40
12.0
 40
12.0
 40
13.0
 40
13.0
 40
13.0
 40
14.0
 40
14.0
 40
14.0
 40
14.0
 10
462.8096489800347
 20
571.6936143663194
 30
0.0
 10
462.6122450086805
 20
571.3814887152777
 30
0.0
 10
462.6025987413194
 20
570.9735894097222
 30
0.0
 10
462.5071695963541
 20
570.6259792751736
 30
0.0
 10
462.4017496744791
 20
570.2532199435764
 30
0.0
 10
462.3063205295139
 20
569.8835611979166
 30
0.0
 10
462.2139919704861
 20
569.5042561848958
 30
0.0
 10
462.1344102647569
 20
569.1855848524305
 30
0.0
 10
462.0034966362847
 20
568.9402940538193
 30
0.0
 10
462.3128662109374
 20
568.7556369357638
 30
0.0
 10
462.5612575954861
 20
568.6088758680555
 30
0.0
 10
462.7810546874999
 20
568.5640896267361
 30
0.0
 10
462.9915500217014
 20
568.322243923611
 30
0.0
 10
463.7498155381944
 20
567.4234185112847
 30
0.0
 10
464.5783610026041
 20
566.1201388888888
 30
0.0
 10
465.9422743055555
 20
566.2252143012153
 30
0.0
 10
466.2068576388888
 20
566.24140625
 30
0.0
 10
466.5892632378472
 20
566.4419108072916
 30
0.0
 10
466.8473008897569
 20
566.4005696614582
 30
0.0
 10
467.140478515625
 20
566.3526828342013
 30
0.0
 10
467.2393527560764
 20
565.9320366753471
 30
0.0
 10
467.4908447265624
 20
565.7852756076388
 30
0.0
 10
467.6376057942708
 20
565.6994927300346
 30
0.0
 10
467.7457817925347
 20
565.7218858506944
 30
0.0
 10
467.898744032118
 20
565.686745876736
 30
0.0
 10
468.0647976345485
 20
565.6516059027778
 30
0.0
 10
468.1505805121527
 20
565.5909722222221
 30
0.0
 10
468.3066433376736
 20
565.5303385416667
 30
0.0
 10
468.4661512586805
 20
565.4731499565971
 30
0.0
 10
468.9122911241319
 20
565.4283637152778
 30
0.0
 10
469.0366590711805
 20
565.5654785156249
 30
0.0
 10
469.2120144314235
 20
565.7535807291666
 30
0.0
 10
469.103493923611
 20
566.5218370225693
 30
0.0
 10
469.1193413628472
 20
566.7540364583333
 30
0.0
 10
469.1641276041667
 20
567.3979248046875
 30
0.0
 10
469.2085693359375
 20
568.035267469618
 30
0.0
 10
469.1989230685763
 20
568.6888020833333
 30
0.0
 10
469.1830756293402
 20
569.5108018663194
 30
0.0
 10
469.1641276041667
 20
570.3872341579861
 30
0.0
 10
469.2661024305555
 20
571.1995876736111
 30
0.0
 10
469.2915961371527
 20
571.3876898871528
 30
0.0
 10
469.2723036024305
 20
571.6488281249999
 30
0.0
 10
469.3394829644097
 20
571.8210828993055
 30
0.0
  0
SPLINE
  5
1A6
330
A
100
AcDbEntity
  8
LAYER_1
 62
     7
100
AcDbSpline
210
0.0
220
0.0
230
1.0
 70
    11
 71
     3
 72
    26
 73
    22
 74
     0
 42
0.000000001
 43
0.00000001
 40
0.0
 40
0.0
 40
0.0
 40
0.0
 40
1.0
 40
1.0
 40
1.0
 40
2.0
 40
2.0
 40
2.0
 40
3.0
 40
3.0
 40
3.0
 40
4.0
 40
4.0
 40
4.0
 40
5.0
 40
5.0
 40
5.0
 40
6.0
 40
6.0
 40
6.0
 40
7.0
 40
7.0
 40
7.0
 40
7.0
 10
433.0274875217013
 20
553.4466661241319
 30
0.0
 10
432.92861328125
 20
553.3064507378472
 30
0.0
 10
432.9444607204861
 20
552.9653862847222
 30
0.0
 10
432.9541069878472
 20
552.7807291666666
 30
0.0
 10
432.9730550130208
 20
552.3442355685763
 30
0.0
 10
433.0433349609374
 20
551.850208875868
 30
0.0
 10
433.5022216796875
 20
551.79267578125
 30
0.0
 10
433.7123725043402
 20
551.7644259982638
 30
0.0
 10
434.2349934895833
 20
551.6972466362847
 30
0.0
 10
434.4740831163194
 20
551.7706271701388
 30
0.0
 10
434.7893093532986
 20
551.8726019965277
 30
0.0
 10
434.7800075954861
 20
552.2040201822916
 30
0.0
 10
434.7607150607639
 20
552.4940972222222
 30
0.0
 10
434.7417670355902
 20
552.7586805555555
 30
0.0
 10
434.7383219401041
 20
553.2203233506943
 30
0.0
 10
434.5729573567708
 20
553.4466661241319
 30
0.0
 10
434.4644368489583
 20
553.6123752170139
 30
0.0
 10
434.311474609375
 20
553.622021484375
 30
0.0
 10
434.1299180772569
 20
553.6506157769097
 30
0.0
 10
433.8301947699653
 20
553.6950575086805
 30
0.0
 10
433.2569308810764
 20
553.7749837239583
 30
0.0
 10
433.0274875217013
 20
553.4466661241319
 30
0.0
  0
SPLINE
  5
1A5
330
A
100
AcDbEntity
  8
LAYER_1
 62
     7
100
AcDbSpline
210
0.0
220
0.0
230
1.0
 70
    11
 71
     3
 72
    17
 73
    13
 74
     0
 42
0.000000001
 43
0.00000001
 40
0.0
 40
0.0
 40
0.0
 40
0.0
 40
1.0
 40
1.0
 40
1.0
 40
2.0
 40
2.0
 40
2.0
 40
3.0
 40
3.0
 40
3.0
 40
4.0
 40
4.0
 40
4.0
 40
4.0
 10
426.6571614583333
 20
551.9683756510416
 30
0.0
 10
427.0936550564236
 20
551.9552842881944
 30
0.0
 10
427.8998074001736
 20
552.2040201822916
 30
0.0
 10
427.8777587890625
 20
552.7521348741319
 30
0.0
 10
427.8650119357638
 20
553.0832085503472
 30
0.0
 10
427.5208468967014
 20
553.5166015625
 30
0.0
 10
427.1670355902777
 20
553.5327935112847
 30
0.0
 10
426.908997938368
 20
553.5486409505207
 30
0.0
 10
426.6506157769097
 20
553.28095703125
 30
0.0
 10
426.5138454861111
 20
553.0897542317708
 30
0.0
 10
426.2813015407986
 20
552.7710828993055
 30
0.0
 10
426.0132731119791
 20
551.9873236762153
 30
0.0
 10
426.6571614583333
 20
551.9683756510416
 30
0.0
  0
SPLINE
  5
1A4
330
A
100
AcDbEntity
  8
LAYER_1
 62
     7
100
AcDbSpline
210
0.0
220
0.0
230
1.0
 70
    11
 71
     3
 72
    20
 73
    16
 74
     0
 42
0.000000001
 43
0.00000001
 40
0.0
 40
0.0
 40
0.0
 40
0.0
 40
1.0
 40
1.0
 40
1.0
 40
2.0
 40
2.0
 40
2.0
 40
3.0
 40
3.0
 40
3.0
 40
4.0
 40
4.0
 40
4.0
 40
5.0
 40
5.0
 40
5.0
 40
5.0
 10
429.7036593967014
 20
550.6871446397569
 30
0.0
 10
429.5858371310763
 20
550.2792453342014
 30
0.0
 10
430.5670003255208
 20
550.1231825086805
 30
0.0
 10
430.8060899522569
 20
550.0625488281249
 30
0.0
 10
430.9146104600694
 20
550.0370551215277
 30
0.0
 10
431.3097629123263
 20
549.8871934678818
 30
0.0
 10
431.4499782986111
 20
549.9733208550347
 30
0.0
 10
431.6794216579861
 20
550.1100911458333
 30
0.0
 10
431.5454074435763
 20
550.3877658420139
 30
0.0
 10
431.4306857638888
 20
550.5341824001736
 30
0.0
 10
431.2363823784722
 20
550.7763726128471
 30
0.0
 10
430.9814453124999
 20
551.1842719184027
 30
0.0
 10
430.6565728081597
 20
551.2703993055555
 30
0.0
 10
430.3726969401041
 20
551.3434353298611
 30
0.0
 10
429.7832411024305
 20
550.9768771701389
 30
0.0
 10
429.7036593967014
 20
550.6871446397569
 30
0.0
  0
SPLINE
  5
1A3
330
A
100
AcDbEntity
  8
LAYER_1
 62
     7
100
AcDbSpline
210
0.0
220
0.0
230
1.0
 70
    11
 71
     3
 72
    17
 73
    13
 74
     0
 42
0.000000001
 43
0.00000001
 40
0.0
 40
0.0
 40
0.0
 40
0.0
 40
1.0
 40
1.0
 40
1.0
 40
2.0
 40
2.0
 40
2.0
 40
3.0
 40
3.0
 40
3.0
 40
4.0
 40
4.0
 40
4.0
 40
4.0
 10
429.722607421875
 20
552.6181206597222
 30
0.0
 10
429.8786702473958
 20
552.4940972222222
 30
0.0
 10
430.127406141493
 20
552.2391601562499
 30
0.0
 10
430.2579752604166
 20
552.5195909288194
 30
0.0
 10
430.3155083550347
 20
552.6532606336805
 30
0.0
 10
430.1911404079861
 20
553.0832085503472
 30
0.0
 10
430.1146592881944
 20
553.1948296440971
 30
0.0
 10
429.9840901692708
 20
553.3891330295138
 30
0.0
 10
429.6557725694444
 20
553.4656141493055
 30
0.0
 10
429.4804172092013
 20
553.28095703125
 30
0.0
 10
429.2509738498263
 20
553.0322211371528
 30
0.0
 10
429.5348497178819
 20
552.7776285807291
 30
0.0
 10
429.722607421875
 20
552.6181206597222
 30
0.0
  0
SPLINE
  5
1A2
330
A
100
AcDbEntity
  8
LAYER_1
 62
     7
100
AcDbSpline
210
0.0
220
0.0
230
1.0
 70
    11
 71
     3
 72
    17
 73
    13
 74
     0
 42
0.000000001
 43
0.00000001
 40
0.0
 40
0.0
 40
0.0
 40
0.0
 40
1.0
 40
1.0
 40
1.0
 40
2.0
 40
2.0
 40
2.0
 40
3.0
 40
3.0
 40
3.0
 40
4.0
 40
4.0
 40
4.0
 40
4.0
 10
423.0498019748263
 20
556.8535210503471
 30
0.0
 10
423.1645236545139
 20
556.5792914496527
 30
0.0
 10
423.1231825086805
 20
556.3371012369792
 30
0.0
 10
423.4928412543402
 20
556.4614691840277
 30
0.0
 10
423.8273600260416
 20
556.5665445963541
 30
0.0
 10
424.0344102647569
 20
556.7288085937499
 30
0.0
 10
423.7829182942708
 20
557.0478244357638
 30
0.0
 10
423.6650960286458
 20
557.2069878472222
 30
0.0
 10
423.4225613064236
 20
557.5129123263888
 30
0.0
 10
423.2282579210069
 20
557.5673448350694
 30
0.0
 10
422.7597249348958
 20
557.7010145399305
 30
0.0
 10
422.9416259765625
 20
557.0988118489582
 30
0.0
 10
423.0498019748263
 20
556.8535210503471
 30
0.0
  0
SPLINE
  5
1A1
330
A
100
AcDbEntity
  8
LAYER_1
 62
     7
100
AcDbSpline
210
0.0
220
0.0
230
1.0
 70
    11
 71
     3
 72
    44
 73
    40
 74
     0
 42
0.000000001
 43
0.00000001
 40
0.0
 40
0.0
 40
0.0
 40
0.0
 40
1.0
 40
1.0
 40
1.0
 40
2.0
 40
2.0
 40
2.0
 40
3.0
 40
3.0
 40
3.0
 40
4.0
 40
4.0
 40
4.0
 40
5.0
 40
5.0
 40
5.0
 40
6.0
 40
6.0
 40
6.0
 40
7.0
 40
7.0
 40
7.0
 40
8.0
 40
8.0
 40
8.0
 40
9.0
 40
9.0
 40
9.0
 40
10.0
 40
10.0
 40
10.0
 40
11.0
 40
11.0
 40
11.0
 40
12.0
 40
12.0
 40
12.0
 40
13.0
 40
13.0
 40
13.0
 40
13.0
 10
358.6251383463541
 20
532.1215250651042
 30
0.0
 10
358.386048719618
 20
531.8665879991319
 30
0.0
 10
357.9430094401041
 20
531.6147515190971
 30
0.0
 10
357.7710991753472
 20
531.3281195746528
 30
0.0
 10
357.28671875
 20
530.5378146701388
 30
0.0
 10
358.2458333333333
 20
529.8398383246528
 30
0.0
 10
358.7908474392361
 20
529.463978407118
 30
0.0
 10
359.0519856770833
 20
529.2789767795139
 30
0.0
 10
359.3899495442708
 20
529.005091688368
 30
0.0
 10
359.7020751953125
 20
528.9668511284722
 30
0.0
 10
360.0972276475694
 20
528.9158637152777
 30
0.0
 10
360.3618109809028
 20
529.1356608072916
 30
0.0
 10
360.7600640190972
 20
528.8903700086805
 30
0.0
 10
361.3912055121527
 20
528.5017632378472
 30
0.0
 10
361.9041802300347
 20
527.7431532118055
 30
0.0
 10
362.5129286024305
 20
527.2904676649305
 30
0.0
 10
363.2680935329861
 20
526.7361518012152
 30
0.0
 10
363.8224093967013
 20
527.453076171875
 30
0.0
 10
364.1793212890624
 20
528.1572536892361
 30
0.0
 10
364.3739691840278
 20
528.5396592881943
 30
0.0
 10
364.5300320095486
 20
528.8490288628471
 30
0.0
 10
364.7594753689236
 20
529.2024956597222
 30
0.0
 10
364.9186387803819
 20
529.4512315538194
 30
0.0
 10
365.1546278211805
 20
529.9418131510416
 30
0.0
 10
365.0781467013888
 20
530.2542833116319
 30
0.0
 10
365.0047661675347
 20
530.5474609375
 30
0.0
 10
364.5427788628472
 20
531.0349419487846
 30
0.0
 10
364.3291829427083
 20
531.2419921874999
 30
0.0
 10
364.010511610243
 20
531.5541178385416
 30
0.0
 10
363.5740180121527
 20
531.6402452256943
 30
0.0
 10
363.1819661458333
 20
531.7870062934028
 30
0.0
 10
362.7678656684027
 20
531.9399685329861
 30
0.0
 10
362.3344726562499
 20
532.1342719184028
 30
0.0
 10
361.9679144965277
 20
532.3575141059027
 30
0.0
 10
361.5600151909722
 20
532.6090060763888
 30
0.0
 10
361.2923312717014
 20
533.023451063368
 30
0.0
 10
360.8716851128472
 20
533.2497938368055
 30
0.0
 10
359.7785563151041
 20
533.8519965277777
 30
0.0
 10
359.2528347439236
 20
532.8226019965277
 30
0.0
 10
358.6251383463541
 20
532.1215250651042
 30
0.0
  0
SPLINE
  5
1A0
330
A
100
AcDbEntity
  8
LAYER_1
 62
     7
100
AcDbSpline
210
0.0
220
0.0
230
1.0
 70
    11
 71
     3
 72
    35
 73
    31
 74
     0
 42
0.000000001
 43
0.00000001
 40
0.0
 40
0.0
 40
0.0
 40
0.0
 40
1.0
 40
1.0
 40
1.0
 40
2.0
 40
2.0
 40
2.0
 40
3.0
 40
3.0
 40
3.0
 40
4.0
 40
4.0
 40
4.0
 40
5.0
 40
5.0
 40
5.0
 40
6.0
 40
6.0
 40
6.0
 40
7.0
 40
7.0
 40
7.0
 40
8.0
 40
8.0
 40
8.0
 40
9.0
 40
9.0
 40
9.0
 40
10.0
 40
10.0
 40
10.0
 40
10.0
 10
371.4195339626736
 20
544.447732204861
 30
0.0
 10
371.4098876953125
 20
544.0143391927082
 30
0.0
 10
371.1869900173611
 20
542.9880452473958
 30
0.0
 10
371.5917887369791
 20
542.6693739149305
 30
0.0
 10
371.9039143880208
 20
542.4302842881943
 30
0.0
 10
372.8278889973958
 20
542.6566270616319
 30
0.0
 10
373.2233859592014
 20
542.6631727430555
 30
0.0
 10
374.6730821397569
 20
542.6948676215277
 30
0.0
 10
376.1613633897569
 20
542.3124620225694
 30
0.0
 10
377.607958984375
 20
542.1340060763888
 30
0.0
 10
378.3379747178819
 20
542.0416775173611
 30
0.0
 10
378.3951633029513
 20
542.0830186631944
 30
0.0
 10
378.4144558376736
 20
542.8574761284722
 30
0.0
 10
378.4303032769097
 20
543.4376302083333
 30
0.0
 10
378.5129855685764
 20
543.9058186848957
 30
0.0
 10
378.6786946614583
 20
544.4666802300346
 30
0.0
 10
378.9498236762153
 20
545.362060546875
 30
0.0
 10
379.4087103949652
 20
546.3532145182292
 30
0.0
 10
379.2650499131944
 20
547.3250759548611
 30
0.0
 10
379.153773328993
 20
548.0933322482639
 30
0.0
 10
378.2070610894097
 20
548.1250271267361
 30
0.0
 10
377.5059841579861
 20
548.1725694444444
 30
0.0
 10
376.5851101345486
 20
548.2397488064236
 30
0.0
 10
375.7024766710069
 20
548.0547471788194
 30
0.0
 10
374.7750569661458
 20
548.1918619791666
 30
0.0
 10
373.6119927300347
 20
548.360671657986
 30
0.0
 10
371.9931423611111
 20
548.9663194444444
 30
0.0
 10
371.5979899088541
 20
547.4428982204861
 30
0.0
 10
371.352699110243
 20
546.4741373697916
 30
0.0
 10
371.4450276692708
 20
545.4419867621527
 30
0.0
 10
371.4195339626736
 20
544.447732204861
 30
0.0
  0
SPLINE
  5
19F
330
A
100
AcDbEntity
  8
LAYER_1
 62
     7
100
AcDbSpline
210
0.0
220
0.0
230
1.0
 70
    11
 71
     3
 72
    32
 73
    28
 74
     0
 42
0.000000001
 43
0.00000001
 40
0.0
 40
0.0
 40
0.0
 40
0.0
 40
1.0
 40
1.0
 40
1.0
 40
2.0
 40
2.0
 40
2.0
 40
3.0
 40
3.0
 40
3.0
 40
4.0
 40
4.0
 40
4.0
 40
5.0
 40
5.0
 40
5.0
 40
6.0
 40
6.0
 40
6.0
 40
7.0
 40
7.0
 40
7.0
 40
8.0
 40
8.0
 40
8.0
 40
9.0
 40
9.0
 40
9.0
 40
9.0
 10
411.2782552083333
 20
497.1479492187499
 30
0.0
 10
410.9661295572917
 20
496.2205295138888
 30
0.0
 10
411.7753824869791
 20
495.5831868489583
 30
0.0
 10
412.218421766493
 20
494.9045030381944
 30
0.0
 10
412.7124484592014
 20
494.1431369357638
 30
0.0
 10
413.7831841362847
 20
493.0276150173611
 30
0.0
 10
414.6754638671875
 20
493.8306667751735
 30
0.0
 10
414.9937906901041
 20
494.1176432291666
 30
0.0
 10
415.2363254123263
 20
494.4235677083333
 30
0.0
 10
415.4240831163194
 20
494.7739339192708
 30
0.0
 10
415.6121853298611
 20
495.1277452256944
 30
0.0
 10
415.8798692491319
 20
495.31240234375
 30
0.0
 10
416.1826931423611
 20
495.5800862630208
 30
0.0
 10
416.6384792751736
 20
495.9879855685763
 30
0.0
 10
417.3044162326389
 20
496.3610894097222
 30
0.0
 10
417.3075168185763
 20
497.0618218315972
 30
0.0
 10
417.3106174045138
 20
497.6578233506944
 30
0.0
 10
416.9633517795139
 20
498.1645968967014
 30
0.0
 10
416.4183376736111
 20
498.4164333767361
 30
0.0
 10
415.8926161024305
 20
498.6555230034722
 30
0.0
 10
415.3476019965277
 20
498.652077907986
 30
0.0
 10
414.7774386935764
 20
498.6679253472222
 30
0.0
 10
414.1304497612847
 20
498.6872178819444
 30
0.0
 10
413.4676133897569
 20
498.9483561197916
 30
0.0
 10
412.8364718967014
 20
498.6837727864583
 30
0.0
 10
412.2501166449653
 20
498.4384819878472
 30
0.0
 10
411.4918511284722
 20
497.7632432725694
 30
0.0
 10
411.2782552083333
 20
497.1479492187499
 30
0.0
  0
SPLINE
  5
19E
330
A
100
AcDbEntity
  8
LAYER_1
 62
     7
100
AcDbSpline
210
0.0
220
0.0
230
1.0
 70
     8
 71
     3
 72
    29
 73
    25
 74
     0
 42
0.000000001
 43
0.00000001
 40
0.0
 40
0.0
 40
0.0
 40
0.0
 40
1.0
 40
1.0
 40
1.0
 40
2.0
 40
2.0
 40
2.0
 40
3.0
 40
3.0
 40
3.0
 40
4.0
 40
4.0
 40
4.0
 40
5.0
 40
5.0
 40
5.0
 40
6.0
 40
6.0
 40
6.0
 40
7.0
 40
7.0
 40
7.0
 40
8.0
 40
8.0
 40
8.0
 40
8.0
 10
413.0087266710069
 20
498.7733452690971
 30
0.0
 10
412.8909044053819
 20
498.8849663628472
 30
0.0
 10
412.8078776041666
 20
499.0441297743055
 30
0.0
 10
412.6742078993055
 20
499.1333577473958
 30
0.0
 10
412.5498399522569
 20
499.2160400390625
 30
0.0
 10
412.4065239800347
 20
499.2094943576388
 30
0.0
 10
412.2597629123263
 20
499.2094943576388
 30
0.0
 10
412.2566623263888
 20
499.1333577473958
 30
0.0
 10
412.2535617404513
 20
499.0503309461805
 30
0.0
 10
412.2535617404513
 20
498.9738498263889
 30
0.0
 10
412.1515869140625
 20
499.0058892144096
 30
0.0
 10
412.0716606987847
 20
498.9452555338541
 30
0.0
 10
411.9762315538194
 20
498.9039143880208
 30
0.0
 10
411.8553087022569
 20
498.8529269748263
 30
0.0
 10
411.7243950737847
 20
498.7922932942708
 30
0.0
 10
411.6065728081597
 20
498.7189127604166
 30
0.0
 10
411.077406141493
 20
498.4067871093749
 30
0.0
 10
410.4021674262152
 20
497.8776204427083
 30
0.0
 10
410.4276611328125
 20
497.1892903645833
 30
0.0
 10
410.436962890625
 20
496.9219509548611
 30
0.0
 10
410.6440131293402
 20
496.7369493272569
 30
0.0
 10
410.9375352647569
 20
496.7944824218749
 30
0.0
 10
411.0808512369791
 20
496.822732204861
 30
0.0
 10
411.294447157118
 20
497.0873155381944
 30
0.0
 10
411.2558620876736
 20
497.2147840711805
 30
0.0
  0
SPLINE
  5
19D
330
A
100
AcDbEntity
  8
LAYER_1
 62
     7
100
AcDbSpline
210
0.0
220
0.0
230
1.0
 70
    11
 71
     3
 72
    32
 73
    28
 74
     0
 42
0.000000001
 43
0.00000001
 40
0.0
 40
0.0
 40
0.0
 40
0.0
 40
1.0
 40
1.0
 40
1.0
 40
2.0
 40
2.0
 40
2.0
 40
3.0
 40
3.0
 40
3.0
 40
4.0
 40
4.0
 40
4.0
 40
5.0
 40
5.0
 40
5.0
 40
6.0
 40
6.0
 40
6.0
 40
7.0
 40
7.0
 40
7.0
 40
8.0
 40
8.0
 40
8.0
 40
9.0
 40
9.0
 40
9.0
 40
9.0
 10
413.2157769097222
 20
493.5757297092014
 30
0.0
 10
413.018372938368
 20
493.5757297092014
 30
0.0
 10
412.7854844835069
 20
493.5023491753471
 30
0.0
 10
412.6614610460069
 20
493.3273383246527
 30
0.0
 10
412.6039279513889
 20
493.2508572048611
 30
0.0
 10
412.61357421875
 20
493.2029703776041
 30
0.0
 10
412.61357421875
 20
493.1040961371527
 30
0.0
 10
412.6104736328124
 20
492.7409830729166
 30
0.0
 10
412.7059027777777
 20
492.6899956597222
 30
0.0
 10
413.0149278428819
 20
492.5814751519097
 30
0.0
 10
413.1968288845486
 20
492.5211859809027
 30
0.0
 10
413.4421196831597
 20
492.4826009114583
 30
0.0
 10
413.601283094618
 20
492.3744249131944
 30
0.0
 10
413.719105360243
 20
492.2882975260416
 30
0.0
 10
413.7862847222222
 20
492.2245632595486
 30
0.0
 10
413.9199544270833
 20
492.1608289930555
 30
0.0
 10
414.1462972005208
 20
492.0492078993055
 30
0.0
 10
414.5001085069444
 20
491.7911702473958
 30
0.0
 10
414.6623725043402
 20
492.08779296875
 30
0.0
 10
414.7836398654513
 20
492.3010443793402
 30
0.0
 10
414.8408284505208
 20
492.6610568576389
 30
0.0
 10
414.8728678385417
 20
492.9035915798611
 30
0.0
 10
414.9173095703125
 20
493.2377658420139
 30
0.0
 10
414.7009575737847
 20
493.3783257378471
 30
0.0
 10
414.407435438368
 20
493.4293131510416
 30
0.0
 10
414.0188286675347
 20
493.4927029079861
 30
0.0
 10
413.6078287760416
 20
493.5757297092014
 30
0.0
 10
413.2157769097222
 20
493.5757297092014
 30
0.0
  0
SPLINE
  5
19C
330
A
100
AcDbEntity
  8
LAYER_1
 62
     7
100
AcDbSpline
210
0.0
220
0.0
230
1.0
 70
    11
 71
     3
 72
    23
 73
    19
 74
     0
 42
0.000000001
 43
0.00000001
 40
0.0
 40
0.0
 40
0.0
 40
0.0
 40
1.0
 40
1.0
 40
1.0
 40
2.0
 40
2.0
 40
2.0
 40
3.0
 40
3.0
 40
3.0
 40
4.0
 40
4.0
 40
4.0
 40
5.0
 40
5.0
 40
5.0
 40
6.0
 40
6.0
 40
6.0
 40
6.0
 10
409.8347601996527
 20
497.8331787109374
 30
0.0
 10
409.7138373480902
 20
497.8204318576388
 30
0.0
 10
409.5319363064236
 20
497.7949381510416
 30
0.0
 10
409.4396077473958
 20
497.8841661241319
 30
0.0
 10
409.2453043619792
 20
498.0815700954861
 30
0.0
 10
409.3789740668402
 20
498.4929144965278
 30
0.0
 10
409.519189453125
 20
498.6775716145833
 30
0.0
 10
409.700745985243
 20
498.9197618272569
 30
0.0
 10
409.9367350260416
 20
499.0379286024305
 30
0.0
 10
410.1727240668403
 20
499.1970920138888
 30
0.0
 10
410.3125949435764
 20
499.2859754774305
 30
0.0
 10
410.4497097439236
 20
499.3597005208333
 30
0.0
 10
410.6250651041667
 20
499.3369628906249
 30
0.0
 10
411.119091796875
 20
499.2670274522569
 30
0.0
 10
411.3516357421875
 20
498.865673828125
 30
0.0
 10
411.0808512369791
 20
498.4515733506944
 30
0.0
 10
410.8386610243055
 20
498.0753689236111
 30
0.0
 10
410.2554063585069
 20
497.8841661241319
 30
0.0
 10
409.8347601996527
 20
497.8331787109374
 30
0.0
  0
SPLINE
  5
19B
330
A
100
AcDbEntity
  8
LAYER_1
 62
     7
100
AcDbSpline
210
0.0
220
0.0
230
1.0
 70
     8
 71
     3
 72
     8
 73
     4
 74
     0
 42
0.000000001
 43
0.00000001
 40
0.0
 40
0.0
 40
0.0
 40
0.0
 40
1.0
 40
1.0
 40
1.0
 40
1.0
 10
409.8761013454861
 20
497.8204318576388
 30
0.0
 10
409.9556830512153
 20
497.5909884982639
 30
0.0
 10
410.153431532118
 20
497.265771484375
 30
0.0
 10
410.3956217447916
 20
497.2881646050347
 30
0.0
  0
SPLINE
  5
19A
330
A
100
AcDbEntity
  8
LAYER_1
 62
     7
100
AcDbSpline
210
0.0
220
0.0
230
1.0
 70
    11
 71
     3
 72
    23
 73
    19
 74
     0
 42
0.000000001
 43
0.00000001
 40
0.0
 40
0.0
 40
0.0
 40
0.0
 40
1.0
 40
1.0
 40
1.0
 40
2.0
 40
2.0
 40
2.0
 40
3.0
 40
3.0
 40
3.0
 40
4.0
 40
4.0
 40
4.0
 40
5.0
 40
5.0
 40
5.0
 40
6.0
 40
6.0
 40
6.0
 40
6.0
 10
417.3137179904513
 20
499.6270399305555
 30
0.0
 10
417.1514539930555
 20
499.5794976128471
 30
0.0
 10
416.8293375651041
 20
499.5664062499999
 30
0.0
 10
416.701869032118
 20
499.458230251736
 30
0.0
 10
416.6129855685763
 20
499.3755479600694
 30
0.0
 10
416.577845594618
 20
499.1970920138888
 30
0.0
 10
416.5874918619791
 20
499.0792697482639
 30
0.0
 10
416.63193359375
 20
498.5215087890625
 30
0.0
 10
417.3647054036458
 20
498.8112413194444
 30
0.0
 10
417.6930230034722
 20
498.9039143880208
 30
0.0
 10
418.0595811631944
 20
499.0186360677083
 30
0.0
 10
418.2890245225694
 20
499.165052625868
 30
0.0
 10
418.2445827907986
 20
499.5918999565972
 30
0.0
 10
418.2221896701388
 20
499.7834472656249
 30
0.0
 10
418.1360622829861
 20
499.7769015842014
 30
0.0
 10
417.9510606553819
 20
499.7834472656249
 30
0.0
 10
417.7409098307292
 20
499.795849609375
 30
0.0
 10
417.5145670572916
 20
499.6780273437499
 30
0.0
 10
417.3137179904513
 20
499.6270399305555
 30
0.0
  0
SPLINE
  5
199
330
A
100
AcDbEntity
  8
LAYER_1
 62
     7
100
AcDbSpline
210
0.0
220
0.0
230
1.0
 70
    11
 71
     3
 72
    26
 73
    22
 74
     0
 42
0.000000001
 43
0.00000001
 40
0.0
 40
0.0
 40
0.0
 40
0.0
 40
1.0
 40
1.0
 40
1.0
 40
2.0
 40
2.0
 40
2.0
 40
3.0
 40
3.0
 40
3.0
 40
4.0
 40
4.0
 40
4.0
 40
5.0
 40
5.0
 40
5.0
 40
6.0
 40
6.0
 40
6.0
 40
7.0
 40
7.0
 40
7.0
 40
7.0
 10
409.117835828993
 20
517.5139756944444
 30
0.0
 10
408.9266330295139
 20
517.3737603081597
 30
0.0
 10
408.776771375868
 20
517.137771267361
 30
0.0
 10
408.6176079644097
 20
516.9531141493055
 30
0.0
 10
408.3592258029514
 20
516.6599365234374
 30
0.0
 10
407.7825168185764
 20
515.8920247395832
 30
0.0
 10
408.4229600694444
 20
515.6370876736111
 30
0.0
 10
408.7257839626736
 20
515.519265407986
 30
0.0
 10
409.1209364149305
 20
515.6625813802083
 30
0.0
 10
409.3855197482638
 20
515.8024522569444
 30
0.0
 10
409.6084174262152
 20
515.9175184461805
 30
0.0
 10
409.8027208116319
 20
516.0863281249999
 30
0.0
 10
409.86025390625
 20
516.3412651909722
 30
0.0
 10
409.923988172743
 20
516.6120496961805
 30
0.0
 10
409.9336344401041
 20
516.8063530815972
 30
0.0
 10
410.1024441189236
 20
517.0326958550347
 30
0.0
 10
410.2075195312499
 20
517.1763563368055
 30
0.0
 10
410.3415337456597
 20
517.3513671874999
 30
0.0
 10
410.2523057725694
 20
517.5394694010416
 30
0.0
 10
410.0132161458333
 20
518.0269504123263
 30
0.0
 10
409.4141140407986
 20
517.7399739583333
 30
0.0
 10
409.117835828993
 20
517.5139756944444
 30
0.0
  0
SPLINE
  5
198
330
A
100
AcDbEntity
  8
LAYER_1
 62
     7
100
AcDbSpline
210
0.0
220
0.0
230
1.0
 70
    11
 71
     3
 72
    41
 73
    37
 74
     0
 42
0.000000001
 43
0.00000001
 40
0.0
 40
0.0
 40
0.0
 40
0.0
 40
1.0
 40
1.0
 40
1.0
 40
2.0
 40
2.0
 40
2.0
 40
3.0
 40
3.0
 40
3.0
 40
4.0
 40
4.0
 40
4.0
 40
5.0
 40
5.0
 40
5.0
 40
6.0
 40
6.0
 40
6.0
 40
7.0
 40
7.0
 40
7.0
 40
8.0
 40
8.0
 40
8.0
 40
9.0
 40
9.0
 40
9.0
 40
10.0
 40
10.0
 40
10.0
 40
11.0
 40
11.0
 40
11.0
 40
12.0
 40
12.0
 40
12.0
 40
12.0
 10
388.6880750868055
 20
499.6525336371527
 30
0.0
 10
388.6815294053819
 20
499.3913953993055
 30
0.0
 10
388.7900499131944
 20
499.2160400390625
 30
0.0
 10
389.0163926866319
 20
499.1109646267361
 30
0.0
 10
389.1724555121527
 20
499.0441297743055
 30
0.0
 10
389.3443657769097
 20
499.0379286024305
 30
0.0
 10
389.497328016493
 20
498.9803955078124
 30
0.0
 10
389.6313422309028
 20
498.9325086805555
 30
0.0
 10
389.7333170572916
 20
498.865673828125
 30
0.0
 10
389.8766330295139
 20
498.8305338541666
 30
0.0
 10
390.0264946831597
 20
498.7922932942708
 30
0.0
 10
390.1987494574652
 20
498.7988389756944
 30
0.0
 10
390.345166015625
 20
498.7444064670138
 30
0.0
 10
390.4726345486111
 20
498.7065104166666
 30
0.0
 10
390.5777099609375
 20
498.6169379340278
 30
0.0
 10
390.6955322265625
 20
498.5724962022569
 30
0.0
 10
390.7975070529513
 20
498.528054470486
 30
0.0
 10
390.915673828125
 20
498.4929144965278
 30
0.0
 10
391.0238498263889
 20
498.470521375868
 30
0.0
 10
391.2725857204861
 20
498.4260796440972
 30
0.0
 10
391.4699896918402
 20
498.3557996961805
 30
0.0
 10
391.5592176649305
 20
498.630029296875
 30
0.0
 10
391.6387993706597
 20
498.8784206814236
 30
0.0
 10
391.7283718532986
 20
499.3531548394097
 30
0.0
 10
391.6198513454861
 20
499.6049913194444
 30
0.0
 10
391.4954833984374
 20
499.9074707031249
 30
0.0
 10
391.0303955078124
 20
500.0893717447916
 30
0.0
 10
390.756165907118
 20
500.1975477430555
 30
0.0
 10
390.3930528428819
 20
500.3443088107638
 30
0.0
 10
390.0168484157986
 20
500.541712782118
 30
0.0
 10
389.6247965494791
 20
500.6023464626736
 30
0.0
 10
389.5614067925347
 20
500.6116482204861
 30
0.0
 10
389.4687337239583
 20
500.6405870225694
 30
0.0
 10
389.4084445529514
 20
500.6247395833333
 30
0.0
 10
389.0449869791667
 20
500.5131184895833
 30
0.0
 10
388.6977213541666
 20
500.0383843315972
 30
0.0
 10
388.6880750868055
 20
499.6525336371527
 30
0.0
  0
SPLINE
  5
197
330
A
100
AcDbEntity
  8
LAYER_1
 62
     7
100
AcDbSpline
210
0.0
220
0.0
230
1.0
 70
    11
 71
     3
 72
    35
 73
    31
 74
     0
 42
0.000000001
 43
0.00000001
 40
0.0
 40
0.0
 40
0.0
 40
0.0
 40
1.0
 40
1.0
 40
1.0
 40
2.0
 40
2.0
 40
2.0
 40
3.0
 40
3.0
 40
3.0
 40
4.0
 40
4.0
 40
4.0
 40
5.0
 40
5.0
 40
5.0
 40
6.0
 40
6.0
 40
6.0
 40
7.0
 40
7.0
 40
7.0
 40
8.0
 40
8.0
 40
8.0
 40
9.0
 40
9.0
 40
9.0
 40
10.0
 40
10.0
 40
10.0
 40
10.0
 10
384.2266764322916
 20
495.0033772786458
 30
0.0
 10
384.0258273654513
 20
494.50625
 30
0.0
 10
383.9334988064236
 20
493.7159450954861
 30
0.0
 10
384.032373046875
 20
493.1840223524305
 30
0.0
 10
384.0609673394097
 20
493.0083224826388
 30
0.0
 10
384.1756890190972
 20
492.8746527777777
 30
0.0
 10
384.2938557942708
 20
492.7599310980902
 30
0.0
 10
384.4816134982639
 20
492.5687282986111
 30
0.0
 10
384.7207031249999
 20
492.5559814453125
 30
0.0
 10
384.9821858723958
 20
492.5115397135416
 30
0.0
 10
385.3229058159722
 20
492.4540066189236
 30
0.0
 10
385.6384765625
 20
492.3806260850694
 30
0.0
 10
385.9922878689236
 20
492.3709798177083
 30
0.0
 10
386.3171603732638
 20
492.3616780598958
 30
0.0
 10
386.6551242404514
 20
492.2407552083333
 30
0.0
 10
386.961048719618
 20
492.3806260850694
 30
0.0
 10
387.3017686631944
 20
492.5304877387152
 30
0.0
 10
387.2159857855902
 20
493.0978949652778
 30
0.0
 10
387.1808458116319
 20
493.4293131510416
 30
0.0
 10
387.1360595703125
 20
493.8627061631944
 30
0.0
 10
386.8938693576388
 20
494.2575141059027
 30
0.0
 10
386.5531494140625
 20
494.5379448784722
 30
0.0
 10
386.2503255208333
 20
494.7804796006944
 30
0.0
 10
386.0305284288194
 20
495.086404079861
 30
0.0
 10
385.7277045355902
 20
495.3413411458333
 30
0.0
 10
385.4824137369791
 20
495.551491970486
 30
0.0
 10
385.1954372829861
 20
495.835023328993
 30
0.0
 10
384.8416259765625
 20
495.7141004774305
 30
0.0
 10
384.5167534722222
 20
495.605579969618
 30
0.0
 10
384.3510443793402
 20
495.2996554904514
 30
0.0
 10
384.2266764322916
 20
495.0033772786458
 30
0.0
  0
SPLINE
  5
196
330
A
100
AcDbEntity
  8
LAYER_1
 62
     7
100
AcDbSpline
210
0.0
220
0.0
230
1.0
 70
    11
 71
     3
 72
    77
 73
    73
 74
     0
 42
0.000000001
 43
0.00000001
 40
0.0
 40
0.0
 40
0.0
 40
0.0
 40
1.0
 40
1.0
 40
1.0
 40
2.0
 40
2.0
 40
2.0
 40
3.0
 40
3.0
 40
3.0
 40
4.0
 40
4.0
 40
4.0
 40
5.0
 40
5.0
 40
5.0
 40
6.0
 40
6.0
 40
6.0
 40
7.0
 40
7.0
 40
7.0
 40
8.0
 40
8.0
 40
8.0
 40
9.0
 40
9.0
 40
9.0
 40
10.0
 40
10.0
 40
10.0
 40
11.0
 40
11.0
 40
11.0
 40
12.0
 40
12.0
 40
12.0
 40
13.0
 40
13.0
 40
13.0
 40
14.0
 40
14.0
 40
14.0
 40
15.0
 40
15.0
 40
15.0
 40
16.0
 40
16.0
 40
16.0
 40
17.0
 40
17.0
 40
17.0
 40
18.0
 40
18.0
 40
18.0
 40
19.0
 40
19.0
 40
19.0
 40
20.0
 40
20.0
 40
20.0
 40
21.0
 40
21.0
 40
21.0
 40
22.0
 40
22.0
 40
22.0
 40
23.0
 40
23.0
 40
23.0
 40
24.0
 40
24.0
 40
24.0
 40
24.0
 10
385.9922878689236
 20
499.5918999565972
 30
0.0
 10
385.8103868272569
 20
499.4775227864583
 30
0.0
 10
385.6064371744791
 20
499.4199896918402
 30
0.0
 10
385.4059326171875
 20
499.3466091579861
 30
0.0
 10
385.2274766710069
 20
499.2859754774305
 30
0.0
 10
385.0107801649305
 20
499.2287868923611
 30
0.0
 10
384.8609185112847
 20
499.1109646267361
 30
0.0
 10
384.6824625651041
 20
498.9738498263889
 30
0.0
 10
384.7110568576389
 20
498.7857476128472
 30
0.0
 10
384.7238037109375
 20
498.5852430555555
 30
0.0
 10
384.7430962456597
 20
498.3685465494791
 30
0.0
 10
384.6921088324652
 20
498.1518500434028
 30
0.0
 10
384.7238037109375
 20
497.9320529513889
 30
0.0
 10
384.7396511501736
 20
497.8331787109374
 30
0.0
 10
384.7558430989583
 20
497.6419759114583
 30
0.0
 10
384.7971842447917
 20
497.5654947916666
 30
0.0
 10
384.8481716579861
 20
497.4697211371528
 30
0.0
 10
384.9373996310763
 20
497.4442274305555
 30
0.0
 10
385.013880750868
 20
497.37119140625
 30
0.0
 10
385.1062093098958
 20
497.2754177517361
 30
0.0
 10
385.1382486979167
 20
497.141748046875
 30
0.0
 10
385.2019829644097
 20
497.036328125
 30
0.0
 10
385.2719184027777
 20
496.9281521267361
 30
0.0
 10
385.3676920572916
 20
496.8323784722222
 30
0.0
 10
385.4407280815972
 20
496.7304036458333
 30
0.0
 10
385.6002360026041
 20
496.5202528211805
 30
0.0
 10
385.7466525607638
 20
496.3225043402778
 30
0.0
 10
385.8679199218749
 20
496.0806586371527
 30
0.0
 10
386.1004638671874
 20
495.6407199435764
 30
0.0
 10
386.272718641493
 20
495.0354166666666
 30
0.0
 10
386.8718207465278
 20
495.028870985243
 30
0.0
 10
386.9830973307292
 20
495.028870985243
 30
0.0
 10
387.1649983723958
 20
495.0798583984375
 30
0.0
 10
387.2700737847222
 20
495.028870985243
 30
0.0
 10
387.3434543185763
 20
494.9906304253471
 30
0.0
 10
387.3017686631944
 20
494.9906304253471
 30
0.0
 10
387.3527560763889
 20
494.9458441840277
 30
0.0
 10
387.4357828776041
 20
494.859716796875
 30
0.0
 10
387.4802246093749
 20
494.8121744791666
 30
0.0
 10
387.5790988498264
 20
494.745339626736
 30
0.0
 10
387.8402370876736
 20
494.5668836805555
 30
0.0
 10
387.9997450086805
 20
494.2960991753472
 30
0.0
 10
388.3597574869791
 20
494.3150472005208
 30
0.0
 10
388.8410373263889
 20
494.340540907118
 30
0.0
 10
389.3188720703125
 20
494.3725802951388
 30
0.0
 10
389.8066975911458
 20
494.3594889322916
 30
0.0
 10
389.997900390625
 20
494.3532877604166
 30
0.0
 10
390.4216471354166
 20
494.404275173611
 30
0.0
 10
390.5811550564236
 20
494.5255425347221
 30
0.0
 10
390.7913058810764
 20
494.6974527994791
 30
0.0
 10
390.8230007595486
 20
495.1435926649305
 30
0.0
 10
390.804052734375
 20
495.3857828776041
 30
0.0
 10
390.7785590277778
 20
495.6886067708333
 30
0.0
 10
390.5394694010416
 20
495.9084038628472
 30
0.0
 10
390.3069254557291
 20
496.0868598090277
 30
0.0
 10
390.0010009765625
 20
496.3128580729166
 30
0.0
 10
389.8607855902777
 20
496.4692654079861
 30
0.0
 10
389.6599365234375
 20
496.7689887152777
 30
0.0
 10
389.5197211371527
 20
496.9694932725694
 30
0.0
 10
389.3509114583333
 20
497.2499240451389
 30
0.0
 10
389.1628092447916
 20
497.3932400173611
 30
0.0
 10
388.684974500868
 20
497.7566975911458
 30
0.0
 10
388.1813015407986
 20
498.2314317491319
 30
0.0
 10
388.2195421006944
 20
498.865673828125
 30
0.0
 10
388.2577826605902
 20
499.4644314236111
 30
0.0
 10
387.7162136501736
 20
499.4454833984374
 30
0.0
 10
387.2700737847222
 20
499.6335856119791
 30
0.0
 10
387.0661241319444
 20
499.7259141710069
 30
0.0
 10
386.8463270399305
 20
499.8661295572916
 30
0.0
 10
386.6103379991319
 20
499.8788764105902
 30
0.0
 10
386.3330078124999
 20
499.9043701171875
 30
0.0
 10
386.2089843749999
 20
499.7324598524305
 30
0.0
 10
385.9922878689236
 20
499.5918999565972
 30
0.0
  0
SPLINE
  5
195
330
A
100
AcDbEntity
  8
LAYER_1
 62
     7
100
AcDbSpline
210
0.0
220
0.0
230
1.0
 70
    11
 71
     3
 72
    11
 73
     7
 74
     0
 42
0.000000001
 43
0.00000001
 40
0.0
 40
0.0
 40
0.0
 40
0.0
 40
1.0
 40
1.0
 40
1.0
 40
2.0
 40
2.0
 40
2.0
 40
2.0
 10
386.626185438368
 20
503.0115017361111
 30
0.0
 10
387.0502766927083
 20
503.5916558159722
 30
0.0
 10
386.5307562934028
 20
504.7130343967013
 30
0.0
 10
385.8551730685763
 20
503.9740614149305
 30
0.0
 10
385.3804389105902
 20
503.4479953342013
 30
0.0
 10
385.931654188368
 20
502.0713351779514
 30
0.0
 10
386.626185438368
 20
503.0115017361111
 30
0.0
  0
SPLINE
  5
194
330
A
100
AcDbEntity
  8
LAYER_1
 62
     7
100
AcDbSpline
210
0.0
220
0.0
230
1.0
 70
    11
 71
     3
 72
    14
 73
    10
 74
     0
 42
0.000000001
 43
0.00000001
 40
0.0
 40
0.0
 40
0.0
 40
0.0
 40
1.0
 40
1.0
 40
1.0
 40
2.0
 40
2.0
 40
2.0
 40
3.0
 40
3.0
 40
3.0
 40
3.0
 10
361.8593939887152
 20
500.7329155815972
 30
0.0
 10
362.174964735243
 20
500.4076985677083
 30
0.0
 10
362.9590684678819
 20
500.7329155815972
 30
0.0
 10
363.1564724392361
 20
501.0071451822916
 30
0.0
 10
363.5709174262153
 20
501.5966010199652
 30
0.0
 10
363.370068359375
 20
502.2370442708333
 30
0.0
 10
362.6083577473958
 20
502.2942328559027
 30
0.0
 10
361.8979790581597
 20
502.3452202690972
 30
0.0
 10
361.3240261501736
 20
501.2810302734375
 30
0.0
 10
361.8593939887152
 20
500.7329155815972
 30
0.0
  0
SPLINE
  5
193
330
A
100
AcDbEntity
  8
LAYER_1
 62
     7
100
AcDbSpline
210
0.0
220
0.0
230
1.0
 70
    11
 71
     3
 72
    14
 73
    10
 74
     0
 42
0.000000001
 43
0.00000001
 40
0.0
 40
0.0
 40
0.0
 40
0.0
 40
1.0
 40
1.0
 40
1.0
 40
2.0
 40
2.0
 40
2.0
 40
3.0
 40
3.0
 40
3.0
 40
3.0
 10
363.8448025173611
 20
509.8658637152777
 30
0.0
 10
364.0711452907986
 20
510.1080539279513
 30
0.0
 10
364.3801703559027
 20
510.6754611545139
 30
0.0
 10
364.1889675564236
 20
511.0258273654513
 30
0.0
 10
363.774867078993
 20
511.7778917100694
 30
0.0
 10
362.7868136935763
 20
511.2742187499999
 30
0.0
 10
362.6944851345486
 20
510.5955349392361
 30
0.0
 10
362.5894097222222
 20
509.8279676649305
 30
0.0
 10
363.210560438368
 20
509.1744330512152
 30
0.0
 10
363.8448025173611
 20
509.8658637152777
 30
0.0
  0
SPLINE
  5
192
330
A
100
AcDbEntity
  8
LAYER_1
 62
     7
100
AcDbSpline
210
0.0
220
0.0
230
1.0
 70
    11
 71
     3
 72
    29
 73
    25
 74
     0
 42
0.000000001
 43
0.00000001
 40
0.0
 40
0.0
 40
0.0
 40
0.0
 40
1.0
 40
1.0
 40
1.0
 40
2.0
 40
2.0
 40
2.0
 40
3.0
 40
3.0
 40
3.0
 40
4.0
 40
4.0
 40
4.0
 40
5.0
 40
5.0
 40
5.0
 40
6.0
 40
6.0
 40
6.0
 40
7.0
 40
7.0
 40
7.0
 40
8.0
 40
8.0
 40
8.0
 40
8.0
 10
349.8170627170139
 20
515.1368598090278
 30
0.0
 10
349.6003662109375
 20
514.8819227430555
 30
0.0
 10
348.7335801866319
 20
514.4995171440971
 30
0.0
 10
349.0649983723958
 20
513.9799967447916
 30
0.0
 10
349.1797200520833
 20
513.8046413845485
 30
0.0
 10
350.231507703993
 20
513.6006917317708
 30
0.0
 10
350.5053927951388
 20
513.4921712239583
 30
0.0
 10
350.8306098090277
 20
513.3619466145833
 30
0.0
 10
351.0473063151042
 20
513.3268066406249
 30
0.0
 10
351.4200656467013
 20
513.3202609592014
 30
0.0
 10
352.0191677517361
 20
513.3013129340277
 30
0.0
 10
352.8763075086805
 20
513.0332845052083
 30
0.0
 10
353.3927273220486
 20
513.0842719184027
 30
0.0
 10
353.9184488932291
 20
513.1352593315971
 30
0.0
 10
354.3804361979167
 20
513.6802734375
 30
0.0
 10
354.4379692925347
 20
514.2156412760417
 30
0.0
 10
354.527197265625
 20
514.9838975694444
 30
0.0
 10
354.1192979600694
 20
515.1430609809028
 30
0.0
 10
353.5549913194444
 20
515.3628580729167
 30
0.0
 10
352.9083468967013
 20
515.6146945529514
 30
0.0
 10
352.3123453776041
 20
516.0990749782985
 30
0.0
 10
351.6112684461805
 20
516.1848578559027
 30
0.0
 10
350.6201144748264
 20
516.3095703125
 30
0.0
 10
350.3717230902777
 20
515.7742024739583
 30
0.0
 10
349.8170627170139
 20
515.1368598090278
 30
0.0
  0
SPLINE
  5
191
330
A
100
AcDbEntity
  8
LAYER_1
 62
     7
100
AcDbSpline
210
0.0
220
0.0
230
1.0
 70
    11
 71
     3
 72
    14
 73
    10
 74
     0
 42
0.000000001
 43
0.00000001
 40
0.0
 40
0.0
 40
0.0
 40
0.0
 40
1.0
 40
1.0
 40
1.0
 40
2.0
 40
2.0
 40
2.0
 40
3.0
 40
3.0
 40
3.0
 40
3.0
 10
355.285462782118
 20
511.6566243489583
 30
0.0
 10
355.4766655815972
 20
511.5167534722221
 30
0.0
 10
355.5882866753472
 20
512.9058159722222
 30
0.0
 10
355.5435004340277
 20
513.0398301866319
 30
0.0
 10
355.3939832899305
 20
513.5052625868055
 30
0.0
 10
354.7404486762152
 20
514.1360595703125
 30
0.0
 10
354.4028293185764
 20
513.6006917317708
 30
0.0
 10
354.026624891493
 20
513.0143364800347
 30
0.0
 10
354.8648166232638
 20
511.9597927517361
 30
0.0
 10
355.285462782118
 20
511.6566243489583
 30
0.0
  0
SPLINE
  5
190
330
A
100
AcDbEntity
  8
LAYER_1
 62
     7
100
AcDbSpline
210
0.0
220
0.0
230
1.0
 70
    11
 71
     3
 72
    38
 73
    34
 74
     0
 42
0.000000001
 43
0.00000001
 40
0.0
 40
0.0
 40
0.0
 40
0.0
 40
1.0
 40
1.0
 40
1.0
 40
2.0
 40
2.0
 40
2.0
 40
3.0
 40
3.0
 40
3.0
 40
4.0
 40
4.0
 40
4.0
 40
5.0
 40
5.0
 40
5.0
 40
6.0
 40
6.0
 40
6.0
 40
7.0
 40
7.0
 40
7.0
 40
8.0
 40
8.0
 40
8.0
 40
9.0
 40
9.0
 40
9.0
 40
10.0
 40
10.0
 40
10.0
 40
11.0
 40
11.0
 40
11.0
 40
11.0
 10
338.1126953125
 20
501.0133463541666
 30
0.0
 10
338.4472140842013
 20
500.7267144097221
 30
0.0
 10
338.9123019748263
 20
500.3443088107638
 30
0.0
 10
339.2788601345486
 20
500.0924723307291
 30
0.0
 10
340.2317735460069
 20
499.4327365451388
 30
0.0
 10
341.4937120225694
 20
499.5092176649305
 30
0.0
 10
342.3573974609375
 20
498.8050401475694
 30
0.0
 10
342.9148139105902
 20
498.3430528428819
 30
0.0
 10
343.2207383897569
 20
498.2090386284722
 30
0.0
 10
343.8325873480903
 20
497.8841661241319
 30
0.0
 10
344.3872477213541
 20
497.5909884982639
 30
0.0
 10
344.9033230251736
 20
496.9281521267361
 30
0.0
 10
345.5055257161458
 20
496.7813910590277
 30
0.0
 10
345.9582112630208
 20
496.6732150607638
 30
0.0
 10
346.5411214192708
 20
496.8261773003472
 30
0.0
 10
346.3502631293402
 20
497.3966851128472
 30
0.0
 10
346.2351969401041
 20
497.7501519097221
 30
0.0
 10
345.3749565972222
 20
498.3685465494791
 30
0.0
 10
345.0945258246527
 20
498.6679253472222
 30
0.0
 10
344.5877522786458
 20
499.2160400390625
 30
0.0
 10
344.0589301215277
 20
499.5918999565972
 30
0.0
 10
343.5042697482639
 20
500.02529296875
 30
0.0
 10
343.1284098307291
 20
500.312269422743
 30
0.0
 10
343.1060167100694
 20
500.5193196614583
 30
0.0
 10
342.6057888454861
 20
500.6371419270833
 30
0.0
 10
342.1851426866319
 20
500.7425618489583
 30
0.0
 10
342.0638753255208
 20
500.6757269965277
 30
0.0
 10
341.6849148220486
 20
500.9051703559027
 30
0.0
 10
341.0792670355902
 20
501.2744845920138
 30
0.0
 10
340.6172797309027
 20
501.7333713107639
 30
0.0
 10
339.9100016276041
 20
501.8959798177083
 30
0.0
 10
339.1834309895833
 20
502.0647894965277
 30
0.0
 10
336.6147677951388
 20
502.2976779513888
 30
0.0
 10
338.1126953125
 20
501.0133463541666
 30
0.0
  0
POLYLINE
  5
185
330
A
100
AcDbEntity
  8
LAYER_1
  6
AI9-LType2
 62
     7
100
AcDb2dPolyline
 66
     1
 10
0.0
 20
0.0
 30
0.0
  0
VERTEX
  5
186
330
185
100
AcDbEntity
  8
LAYER_1
  6
AI9-LType2
 62
     7
100
AcDbVertex
100
AcDb2dVertex
 10
429.722607
 20
495.576986
 30
0.0
  0
VERTEX
  5
187
330
185
100
AcDbEntity
  8
LAYER_1
  6
AI9-LType2
 62
     7
100
AcDbVertex
100
AcDb2dVertex
 10
444.135853
 20
494.853516
 30
0.0
  0
VERTEX
  5
188
330
185
100
AcDbEntity
  8
LAYER_1
  6
AI9-LType2
 62
     7
100
AcDbVertex
100
AcDb2dVertex
 10
460.209635
 20
494.292654
 30
0.0
  0
VERTEX
  5
189
330
185
100
AcDbEntity
  8
LAYER_1
  6
AI9-LType2
 62
     7
100
AcDbVertex
100
AcDb2dVertex
 10
472.567537
 20
494.245112
 30
0.0
  0
VERTEX
  5
18A
330
185
100
AcDbEntity
  8
LAYER_1
  6
AI9-LType2
 62
     7
100
AcDbVertex
100
AcDb2dVertex
 10
481.882042
 20
493.865462
 30
0.0
  0
VERTEX
  5
18B
330
185
100
AcDbEntity
  8
LAYER_1
  6
AI9-LType2
 62
     7
100
AcDbVertex
100
AcDb2dVertex
 10
494.363968
 20
493.190224
 30
0.0
  0
VERTEX
  5
18C
330
185
100
AcDbEntity
  8
LAYER_1
  6
AI9-LType2
 62
     7
100
AcDbVertex
100
AcDb2dVertex
 10
502.987386
 20
492.970426
 30
0.0
  0
VERTEX
  5
18D
330
185
100
AcDbEntity
  8
LAYER_1
  6
AI9-LType2
 62
     7
100
AcDbVertex
100
AcDb2dVertex
 10
510.641699
 20
492.555981
 30
0.0
  0
VERTEX
  5
18E
330
185
100
AcDbEntity
  8
LAYER_1
  6
AI9-LType2
 62
     7
100
AcDbVertex
100
AcDb2dVertex
 10
526.919086
 20
491.854905
 30
0.0
  0
SEQEND
  5
18F
330
185
100
AcDbEntity
  8
LAYER_1
  6
AI9-LType2
 62
     7
  0
LINE
  5
184
330
A
100
AcDbEntity
  8
LAYER_1
 62
     7
100
AcDbLine
 10
437.874048
 20
571.502412
 30
0.0
 11
436.494287
 21
555.345947
 31
0.0
  0
SPLINE
  5
183
330
A
100
AcDbEntity
  8
LAYER_1
 62
     7
100
AcDbSpline
210
0.0
220
0.0
230
1.0
 70
     8
 71
     3
 72
    14
 73
    10
 74
     0
 42
0.000000001
 43
0.00000001
 40
0.0
 40
0.0
 40
0.0
 40
0.0
 40
1.0
 40
1.0
 40
1.0
 40
2.0
 40
2.0
 40
2.0
 40
3.0
 40
3.0
 40
3.0
 40
3.0
 10
409.7837727864583
 20
569.2655110677083
 30
0.0
 10
409.7837727864583
 20
569.2655110677083
 30
0.0
 10
420.4112033420138
 20
565.5303385416667
 30
0.0
 10
420.4112033420138
 20
565.5303385416667
 30
0.0
 10
420.4112033420138
 20
565.5303385416667
 30
0.0
 10
420.7777615017361
 20
565.3649739583333
 30
0.0
 10
420.4590901692708
 20
563.3030843098958
 30
0.0
 10
420.137318250868
 20
561.2411946614583
 30
0.0
 10
419.7421657986111
 20
558.2267361111111
 30
0.0
 10
419.7421657986111
 20
558.2267361111111
 30
0.0
  0
SPLINE
  5
182
330
A
100
AcDbEntity
  8
LAYER_1
 62
     7
100
AcDbSpline
210
0.0
220
0.0
230
1.0
 70
     8
 71
     3
 72
    80
 73
    76
 74
     0
 42
0.000000001
 43
0.00000001
 40
0.0
 40
0.0
 40
0.0
 40
0.0
 40
1.0
 40
1.0
 40
1.0
 40
2.0
 40
2.0
 40
2.0
 40
3.0
 40
3.0
 40
3.0
 40
4.0
 40
4.0
 40
4.0
 40
5.0
 40
5.0
 40
5.0
 40
6.0
 40
6.0
 40
6.0
 40
7.0
 40
7.0
 40
7.0
 40
8.0
 40
8.0
 40
8.0
 40
9.0
 40
9.0
 40
9.0
 40
10.0
 40
10.0
 40
10.0
 40
11.0
 40
11.0
 40
11.0
 40
12.0
 40
12.0
 40
12.0
 40
13.0
 40
13.0
 40
13.0
 40
14.0
 40
14.0
 40
14.0
 40
15.0
 40
15.0
 40
15.0
 40
16.0
 40
16.0
 40
16.0
 40
17.0
 40
17.0
 40
17.0
 40
18.0
 40
18.0
 40
18.0
 40
19.0
 40
19.0
 40
19.0
 40
20.0
 40
20.0
 40
20.0
 40
21.0
 40
21.0
 40
21.0
 40
22.0
 40
22.0
 40
22.0
 40
23.0
 40
23.0
 40
23.0
 40
24.0
 40
24.0
 40
24.0
 40
25.0
 40
25.0
 40
25.0
 40
25.0
 10
340.129798719618
 20
551.0185628255208
 30
0.0
 10
340.129798719618
 20
551.0185628255208
 30
0.0
 10
349.1576714409722
 20
551.1525770399305
 30
0.0
 10
349.1576714409722
 20
551.1525770399305
 30
0.0
 10
349.1576714409722
 20
551.1525770399305
 30
0.0
 10
360.9547119140624
 20
551.6431586371527
 30
0.0
 10
360.9547119140624
 20
551.6431586371527
 30
0.0
 10
360.9547119140624
 20
551.6431586371527
 30
0.0
 10
370.670570203993
 20
551.5508300781249
 30
0.0
 10
370.670570203993
 20
551.5508300781249
 30
0.0
 10
370.670570203993
 20
551.5508300781249
 30
0.0
 10
379.848304578993
 20
551.3055392795138
 30
0.0
 10
379.848304578993
 20
551.3055392795138
 30
0.0
 10
379.848304578993
 20
551.3055392795138
 30
0.0
 10
380.3168375651042
 20
548.9056857638889
 30
0.0
 10
379.6092149522569
 20
548.179115125868
 30
0.0
 10
379.6092149522569
 20
548.179115125868
 30
0.0
 10
373.194447157118
 20
548.6156087239583
 30
0.0
 10
373.194447157118
 20
548.6156087239583
 30
0.0
 10
373.194447157118
 20
548.6156087239583
 30
0.0
 10
367.9396430121528
 20
548.6986355251736
 30
0.0
 10
367.9396430121528
 20
548.6986355251736
 30
0.0
 10
367.9396430121528
 20
548.6986355251736
 30
0.0
 10
366.9484890407986
 20
549.3073838975694
 30
0.0
 10
366.6873508029514
 20
547.5100775824652
 30
0.0
 10
366.4293131510416
 20
545.7158718532986
 30
0.0
 10
366.0913492838541
 20
540.942347547743
 30
0.0
 10
366.0913492838541
 20
540.942347547743
 30
0.0
 10
366.0913492838541
 20
540.942347547743
 30
0.0
 10
365.046107313368
 20
529.3430555555555
 30
0.0
 10
365.046107313368
 20
529.3430555555555
 30
0.0
 10
365.046107313368
 20
529.3430555555555
 30
0.0
 10
364.2465006510416
 20
521.1371826171875
 30
0.0
 10
364.2465006510416
 20
521.1371826171875
 30
0.0
 10
364.2465006510416
 20
521.1371826171875
 30
0.0
 10
371.5153076171875
 20
520.9459798177082
 30
0.0
 10
371.5153076171875
 20
520.9459798177082
 30
0.0
 10
371.5153076171875
 20
520.9459798177082
 30
0.0
 10
371.8401801215277
 20
525.2385687934027
 30
0.0
 10
371.8401801215277
 20
525.2385687934027
 30
0.0
 10
371.8401801215277
 20
525.2385687934027
 30
0.0
 10
373.3157145182291
 20
522.7591335720485
 30
0.0
 10
375.8743869357639
 20
523.1160454644097
 30
0.0
 10
378.4303032769097
 20
523.4729573567707
 30
0.0
 10
380.7054443359374
 20
525.270263671875
 30
0.0
 10
380.7054443359374
 20
525.270263671875
 30
0.0
 10
380.7054443359374
 20
525.270263671875
 30
0.0
 10
388.5509602864583
 20
524.7986300998264
 30
0.0
 10
388.5509602864583
 20
524.7986300998264
 30
0.0
 10
388.5509602864583
 20
524.7986300998264
 30
0.0
 10
400.6890652126736
 20
524.0017795138889
 30
0.0
 10
400.6890652126736
 20
524.0017795138889
 30
0.0
 10
400.6890652126736
 20
524.0017795138889
 30
0.0
 10
405.4563883463541
 20
523.6131727430555
 30
0.0
 10
405.4563883463541
 20
523.6131727430555
 30
0.0
 10
405.4563883463541
 20
523.6131727430555
 30
0.0
 10
415.2363254123263
 20
522.0835503472222
 30
0.0
 10
415.2363254123263
 20
522.0835503472222
 30
0.0
 10
415.2363254123263
 20
522.0835503472222
 30
0.0
 10
425.2264133029514
 20
520.280042860243
 30
0.0
 10
425.2264133029514
 20
520.280042860243
 30
0.0
 10
425.2264133029514
 20
520.280042860243
 30
0.0
 10
429.3433024088541
 20
519.3750162760416
 30
0.0
 10
429.3433024088541
 20
519.3750162760416
 30
0.0
 10
429.3433024088541
 20
519.3750162760416
 30
0.0
 10
432.9255126953125
 20
518.3263292100694
 30
0.0
 10
432.9255126953125
 20
518.3263292100694
 30
0.0
 10
432.9255126953125
 20
518.3263292100694
 30
0.0
 10
434.5281711154514
 20
518.6611924913194
 30
0.0
 10
434.2032986111111
 20
516.4370388454861
 30
0.0
 10
433.8780815972222
 20
514.2156412760417
 30
0.0
 10
432.5717013888889
 20
506.9244411892361
 30
0.0
 10
432.5717013888889
 20
506.9244411892361
 30
0.0
 10
432.5717013888889
 20
506.9244411892361
 30
0.0
 10
430.6245334201388
 20
495.4526177300347
 30
0.0
 10
430.6245334201388
 20
495.4526177300347
 30
0.0
  0
POLYLINE
  5
17B
330
A
100
AcDbEntity
  8
LAYER_1
 62
     7
100
AcDb2dPolyline
 66
     1
 10
0.0
 20
0.0
 30
0.0
  0
VERTEX
  5
17C
330
17B
100
AcDbEntity
  8
LAYER_1
 62
     7
100
AcDbVertex
100
AcDb2dVertex
 10
339.568937
 20
524.891303
 30
0.0
  0
VERTEX
  5
17D
330
17B
100
AcDbEntity
  8
LAYER_1
 62
     7
100
AcDbVertex
100
AcDb2dVertex
 10
339.546544
 20
522.223766
 30
0.0
  0
VERTEX
  5
17E
330
17B
100
AcDbEntity
  8
LAYER_1
 62
     7
100
AcDbVertex
100
AcDb2dVertex
 10
348.102783
 20
522.038764
 30
0.0
  0
VERTEX
  5
17F
330
17B
100
AcDbEntity
  8
LAYER_1
 62
     7
100
AcDbVertex
100
AcDb2dVertex
 10
353.34174
 20
521.630865
 30
0.0
  0
VERTEX
  5
180
330
17B
100
AcDbEntity
  8
LAYER_1
 62
     7
100
AcDbVertex
100
AcDb2dVertex
 10
356.416832
 20
521.366626
 30
0.0
  0
SEQEND
  5
181
330
17B
100
AcDbEntity
  8
LAYER_1
 62
     7
  0
POLYLINE
  5
16F
330
A
100
AcDbEntity
  8
LAYER_1
  6
AI9-LType2
 62
     7
100
AcDb2dPolyline
 66
     1
 10
0.0
 20
0.0
 30
0.0
  0
VERTEX
  5
170
330
16F
100
AcDbEntity
  8
LAYER_1
  6
AI9-LType2
 62
     7
100
AcDbVertex
100
AcDb2dVertex
 10
344.428589
 20
568.035267
 30
0.0
  0
VERTEX
  5
171
330
16F
100
AcDbEntity
  8
LAYER_1
  6
AI9-LType2
 62
     7
100
AcDbVertex
100
AcDb2dVertex
 10
381.097496
 20
569.010574
 30
0.0
  0
VERTEX
  5
172
330
16F
100
AcDbEntity
  8
LAYER_1
  6
AI9-LType2
 62
     7
100
AcDbVertex
100
AcDb2dVertex
 10
403.285978
 20
569.073964
 30
0.0
  0
VERTEX
  5
173
330
16F
100
AcDbEntity
  8
LAYER_1
  6
AI9-LType2
 62
     7
100
AcDbVertex
100
AcDb2dVertex
 10
428.107202
 20
571.094512
 30
0.0
  0
VERTEX
  5
174
330
16F
100
AcDbEntity
  8
LAYER_1
  6
AI9-LType2
 62
     7
100
AcDbVertex
100
AcDb2dVertex
 10
438.157924
 20
571.655374
 30
0.0
  0
VERTEX
  5
175
330
16F
100
AcDbEntity
  8
LAYER_1
  6
AI9-LType2
 62
     7
100
AcDbVertex
100
AcDb2dVertex
 10
457.491111
 20
571.613688
 30
0.0
  0
VERTEX
  5
176
330
16F
100
AcDbEntity
  8
LAYER_1
  6
AI9-LType2
 62
     7
100
AcDbVertex
100
AcDb2dVertex
 10
476.468075
 20
572.034679
 30
0.0
  0
VERTEX
  5
177
330
16F
100
AcDbEntity
  8
LAYER_1
  6
AI9-LType2
 62
     7
100
AcDbVertex
100
AcDb2dVertex
 10
494.246145
 20
572.308564
 30
0.0
  0
VERTEX
  5
178
330
16F
100
AcDbEntity
  8
LAYER_1
  6
AI9-LType2
 62
     7
100
AcDbVertex
100
AcDb2dVertex
 10
511.651801
 20
572.496666
 30
0.0
  0
VERTEX
  5
179
330
16F
100
AcDbEntity
  8
LAYER_1
  6
AI9-LType2
 62
     7
100
AcDbVertex
100
AcDb2dVertex
 10
533.295614
 20
572.754704
 30
0.0
  0
SEQEND
  5
17A
330
16F
100
AcDbEntity
  8
LAYER_1
  6
AI9-LType2
 62
     7
  0
LINE
  5
16E
330
A
100
AcDbEntity
  8
LAYER_1
  6
AI9-LType2
 62
     7
100
AcDbLine
 10
322.580827
 20
500.293321
 30
0.0
 11
345.958211
 21
496.367291
 31
0.0
  0
POLYLINE
  5
166
330
A
100
AcDbEntity
  8
LAYER_1
  6
AI9-LType2
 62
     7
100
AcDb2dPolyline
 66
     1
 10
0.0
 20
0.0
 30
0.0
  0
VERTEX
  5
167
330
166
100
AcDbEntity
  8
LAYER_1
  6
AI9-LType2
 62
     7
100
AcDbVertex
100
AcDb2dVertex
 10
356.289364
 20
493.607769
 30
0.0
  0
VERTEX
  5
168
330
166
100
AcDbEntity
  8
LAYER_1
  6
AI9-LType2
 62
     7
100
AcDbVertex
100
AcDb2dVertex
 10
384.17879
 20
489.837801
 30
0.0
  0
VERTEX
  5
169
330
166
100
AcDbEntity
  8
LAYER_1
  6
AI9-LType2
 62
     7
100
AcDbVertex
100
AcDb2dVertex
 10
406.02035
 20
487.055887
 30
0.0
  0
VERTEX
  5
16A
330
166
100
AcDbEntity
  8
LAYER_1
  6
AI9-LType2
 62
     7
100
AcDbVertex
100
AcDb2dVertex
 10
427.131896
 20
484.665679
 30
0.0
  0
VERTEX
  5
16B
330
166
100
AcDbEntity
  8
LAYER_1
  6
AI9-LType2
 62
     7
100
AcDbVertex
100
AcDb2dVertex
 10
428.435175
 20
495.583187
 30
0.0
  0
VERTEX
  5
16C
330
166
100
AcDbEntity
  8
LAYER_1
  6
AI9-LType2
 62
     7
100
AcDbVertex
100
AcDb2dVertex
 10
429.630279
 20
495.647266
 30
0.0
  0
SEQEND
  5
16D
330
166
100
AcDbEntity
  8
LAYER_1
  6
AI9-LType2
 62
     7
  0
INSERT
  5
159
330
A
100
AcDbEntity
  8
LAYER_1
 62
     7
100
AcDbBlockReference
  2
AI9-BLK60
 10
373.355161
 20
524.15345
 30
0.0
  0
INSERT
  5
14C
330
A
100
AcDbEntity
  8
LAYER_1
 62
     7
100
AcDbBlockReference
  2
AI9-BLK57
 10
377.115655
 20
523.945711
 30
0.0
  0
INSERT
  5
13F
330
A
100
AcDbEntity
  8
LAYER_1
 62
     7
100
AcDbBlockReference
  2
AI9-BLK54
 10
379.912039
 20
525.145723
 30
0.0
  0
INSERT
  5
132
330
A
100
AcDbEntity
  8
LAYER_1
 62
     7
100
AcDbBlockReference
  2
AI9-BLK51
 10
327.845449
 20
530.208722
 30
0.0
  0
INSERT
  5
125
330
A
100
AcDbEntity
  8
LAYER_1
 62
     7
100
AcDbBlockReference
  2
AI9-BLK48
 10
331.755633
 20
529.418331
 30
0.0
  0
INSERT
  5
119
330
A
100
AcDbEntity
  8
LAYER_1
 62
     7
100
AcDbBlockReference
  2
AI9-BLK45
 10
332.172662
 20
526.305859
 30
0.0
  0
INSERT
  5
10D
330
A
100
AcDbEntity
  8
LAYER_1
 62
     7
100
AcDbBlockReference
  2
AI9-BLK42
 10
334.189765
 20
525.926899
 30
0.0
  0
INSERT
  5
100
330
A
100
AcDbEntity
  8
LAYER_1
 62
     7
100
AcDbBlockReference
  2
AI9-BLK39
 10
335.314761
 20
528.766347
 30
0.0
  0
INSERT
  5
F3
330
A
100
AcDbEntity
  8
LAYER_1
 62
     7
100
AcDbBlockReference
  2
AI9-BLK36
 10
338.501302
 20
528.115224
 30
0.0
  0
INSERT
  5
E7
330
A
100
AcDbEntity
  8
LAYER_1
 62
     7
100
AcDbBlockReference
  2
AI9-BLK33
 10
340.266914
 20
524.785883
 30
0.0
  0
INSERT
  5
DB
330
A
100
AcDbEntity
  8
LAYER_1
 62
     7
100
AcDbBlockReference
  2
AI9-BLK30
 10
342.076967
 20
524.448264
 30
0.0
  0
INSERT
  5
CE
330
A
100
AcDbEntity
  8
LAYER_1
 62
     7
100
AcDbBlockReference
  2
AI9-BLK27
 10
343.957128
 20
539.119548
 30
0.0
  0
INSERT
  5
C1
330
A
100
AcDbEntity
  8
LAYER_1
 62
     7
100
AcDbBlockReference
  2
AI9-BLK24
 10
344.614969
 20
543.440559
 30
0.0
  0
INSERT
  5
B4
330
A
100
AcDbEntity
  8
LAYER_1
 62
     7
100
AcDbBlockReference
  2
AI9-BLK21
 10
345.346535
 20
547.686983
 30
0.0
  0
INSERT
  5
A7
330
A
100
AcDbEntity
  8
LAYER_1
 62
     7
100
AcDbBlockReference
  2
AI9-BLK18
 10
342.745832
 20
531.012721
 30
0.0
  0
INSERT
  5
9A
330
A
100
AcDbEntity
  8
LAYER_1
 62
     7
100
AcDbBlockReference
  2
AI9-BLK15
 10
343.275343
 20
535.037454
 30
0.0
  0
INSERT
  5
8E
330
A
100
AcDbEntity
  8
LAYER_1
 62
     7
100
AcDbBlockReference
  2
AI9-BLK12
 10
346.49978
 20
535.948682
 30
0.0
  0
INSERT
  5
82
330
A
100
AcDbEntity
  8
LAYER_1
 62
     7
100
AcDbBlockReference
  2
AI9-BLK9
 10
346.754717
 20
537.838661
 30
0.0
  0
MTEXT
  5
80
330
A
100
AcDbEntity
  8
LAYER_1
 62
     7
100
AcDbMText
 10
392.964049
 20
576.625828
 30
0.0
 40
1.232649
 41
0.0
 46
0.0
 71
     1
 72
     2
  1
\W1.00;\fHelvetica|b0|i0;790/290
  7
STD
 11
0.9999128739611288
 21
0.01320016995328223
 31
0.0
 73
     1
 44
1.0
  0
MTEXT
  5
7F
330
A
100
AcDbEntity
  8
LAYER_1
 62
     7
100
AcDbMText
 10
392.368973
 20
498.239889
 30
0.0
 40
1.232649
 41
0.0
 46
0.0
 71
     1
 72
     2
  1
\W1.00;\fHelvetica|b0|i0;790/285
  7
STD
 11
0.9996051129932294
 21
0.02810014373260279
 31
0.0
 73
     1
 44
1.0
  0
INSERT
  5
6D
330
A
100
AcDbEntity
  8
LAYER_1
 62
     7
100
AcDbBlockReference
  2
AI9-BLK5
 10
390.504846
 20
497.610281
 30
0.0
  0
INSERT
  5
5A
330
A
100
AcDbEntity
  8
LAYER_1
 62
     7
100
AcDbBlockReference
  2
AI9-BLK1
 10
390.504846
 20
575.861491
 30
0.0
  0
MTEXT
  5
58
330
A
100
AcDbEntity
  8
LAYER_1
 62
     7
100
AcDbMText
 10
335.81277
 20
558.174361
 30
0.0
 40
1.64312
 41
0.0
 46
0.0
 71
     1
 72
     2
  1
\W1.00;\fHelvetica|b1|i0;620
  7
STD
 11
0.9999383883716085
 21
0.01110042615354021
 31
0.0
 73
     1
 44
1.0
  0
MTEXT
  5
57
330
A
100
AcDbEntity
  8
LAYER_1
 62
     7
100
AcDbMText
 10
371.50482
 20
550.870781
 30
0.0
 40
1.643488
 41
0.0
 46
0.0
 71
     1
 72
     2
  1
\W1.00;\fHelvetica|b1|i0;966
  7
STD
 11
0.9998874964850341
 21
-0.01499981242851836
 31
0.0
 73
     1
 44
1.0
  0
MTEXT
  5
56
330
A
100
AcDbEntity
  8
LAYER_1
 62
     7
100
AcDbMText
 10
374.401022
 20
545.421016
 30
0.0
 40
1.643488
 41
0.0
 46
0.0
 71
     1
 72
     2
  1
\W1.00;\fHelvetica|b1|i0;967
  7
STD
 11
0.9994942579219823
 21
0.03179981731057432
 31
0.0
 73
     1
 44
1.0
  0
MTEXT
  5
55
330
A
100
AcDbEntity
  8
LAYER_1
 62
     7
100
AcDbMText
 10
350.342193
 20
530.667527
 30
0.0
 40
1.643488
 41
0.0
 46
0.0
 71
     1
 72
     2
  1
\W1.00;\fHelvetica|b1|i0;955
  7
STD
 11
0.9999859553239748
 21
-0.005299920263296803
 31
0.0
 73
     1
 44
1.0
  0
MTEXT
  5
54
330
A
100
AcDbEntity
  8
LAYER_1
 62
     7
100
AcDbMText
 10
321.663196
 20
529.667045
 30
0.0
 40
1.643461
 41
0.0
 46
0.0
 71
     1
 72
     2
  1
\W1.00;\fHelvetica|b1|i0;12
  7
STD
 11
0.9999983800071766
 21
0.001799995284017634
 31
0.0
 73
     1
 44
1.0
  0
MTEXT
  5
53
330
A
100
AcDbEntity
  8
LAYER_1
 62
     7
100
AcDbMText
 10
350.071621
 20
515.349255
 30
0.0
 40
1.643488
 41
0.0
 46
0.0
 71
     1
 72
     2
  1
\W1.00;\fHelvetica|b1|i0;955
  7
STD
 11
0.9999813955564109
 21
0.006099880413013694
 31
0.0
 73
     1
 44
1.0
  0
MTEXT
  5
52
330
A
100
AcDbEntity
  8
LAYER_1
 62
     7
100
AcDbMText
 10
344.644376
 20
501.247659
 30
0.0
 40
1.642832
 41
0.0
 46
0.0
 71
     1
 72
     2
  1
\W1.00;\fHelvetica|b1|i0;946
  7
STD
 11
0.9999479736548318
 21
0.01020048938021731
 31
0.0
 73
     1
 44
1.0
  0
MTEXT
  5
51
330
A
100
AcDbEntity
  8
LAYER_1
 62
     7
100
AcDbMText
 10
330.986459
 20
500.578621
 30
0.0
 40
1.642832
 41
0.0
 46
0.0
 71
     1
 72
     2
  1
\W1.00;\fHelvetica|b1|i0;1137
  7
STD
 11
0.999948988700964
 21
0.01010049483536327
 31
0.0
 73
     1
 44
1.0
  0
MTEXT
  5
50
330
A
100
AcDbEntity
  8
LAYER_1
 62
     7
100
AcDbMText
 10
372.849581
 20
505.072784
 30
0.0
 40
1.644065
 41
0.0
 46
0.0
 71
     1
 72
     2
  1
\W1.00;\fHelvetica|b1|i0;1136
  7
STD
 11
0.999762369652596
 21
0.02179917949432546
 31
0.0
 73
     1
 44
1.0
  0
MTEXT
  5
4F
330
A
100
AcDbEntity
  8
LAYER_1
 62
     7
100
AcDbMText
 10
379.500799
 20
498.95978
 30
0.0
 40
1.643514
 41
0.0
 46
0.0
 71
     1
 72
     2
  1
\W1.00;\fHelvetica|b1|i0;1106
  7
STD
 11
0.9996799166322102
 21
0.02529949173831641
 31
0.0
 73
     1
 44
1.0
  0
MTEXT
  5
4E
330
A
100
AcDbEntity
  8
LAYER_1
 62
     7
100
AcDbMText
 10
390.718584
 20
501.857332
 30
0.0
 40
1.64312
 41
0.0
 46
0.0
 71
     1
 72
     2
  1
\W1.00;\fHelvetica|b1|i0;71
  7
STD
 11
0.998430672261385
 21
0.05600172039927641
 31
0.0
 73
     1
 44
1.0
  0
MTEXT
  5
4D
330
A
100
AcDbEntity
  8
LAYER_1
 62
     7
100
AcDbMText
 10
435.808365
 20
513.783947
 30
0.0
 40
1.643435
 41
0.0
 46
0.0
 71
     1
 72
     2
  1
\W1.00;\fHelvetica|b1|i0;1138
  7
STD
 11
0.9997143460037986
 21
0.0239003429723825
 31
0.0
 73
     1
 44
1.0
  0
MTEXT
  5
4C
330
A
100
AcDbEntity
  8
LAYER_1
 62
     7
100
AcDbMText
 10
424.341553
 20
563.154935
 30
0.0
 40
1.64312
 41
0.0
 46
0.0
 71
     1
 72
     2
  1
\W1.00;\fHelvetica|b1|i0;1084
  7
STD
 11
0.9999394933902025
 21
0.0110004344707393
 31
0.0
 73
     1
 44
1.0
  0
MTEXT
  5
4B
330
A
100
AcDbEntity
  8
LAYER_1
 62
     7
100
AcDbMText
 10
549.034666
 20
497.868223
 30
0.0
 40
2.886373
 41
0.0
 46
0.0
 71
     1
 72
     2
  1
\fTimes New Roman|b0|i0;
  7
STD
 11
0.8480432470681045
 21
0.5299270243176752
 31
0.0
 73
     1
 44
1.0
  0
LINE
  5
4A
330
A
100
AcDbEntity
  8
LAYER_1
 62
     7
100
AcDbLine
 10
435.455591
 20
512.976096
 30
0.0
 11
432.157256
 21
512.807286
 31
0.0
  0
SPLINE
  5
49
330
A
100
AcDbEntity
  8
LAYER_1
 62
     7
100
AcDbSpline
210
0.0
220
0.0
230
1.0
 70
    11
 71
     3
 72
    50
 73
    46
 74
     0
 42
0.000000001
 43
0.00000001
 40
0.0
 40
0.0
 40
0.0
 40
0.0
 40
1.0
 40
1.0
 40
1.0
 40
2.0
 40
2.0
 40
2.0
 40
3.0
 40
3.0
 40
3.0
 40
4.0
 40
4.0
 40
4.0
 40
5.0
 40
5.0
 40
5.0
 40
6.0
 40
6.0
 40
6.0
 40
7.0
 40
7.0
 40
7.0
 40
8.0
 40
8.0
 40
8.0
 40
9.0
 40
9.0
 40
9.0
 40
10.0
 40
10.0
 40
10.0
 40
11.0
 40
11.0
 40
11.0
 40
12.0
 40
12.0
 40
12.0
 40
13.0
 40
13.0
 40
13.0
 40
14.0
 40
14.0
 40
14.0
 40
15.0
 40
15.0
 40
15.0
 40
15.0
 10
396.6707058376736
 20
503.00185546875
 30
0.0
 10
396.5814778645833
 20
503.0307942708333
 30
0.0
 10
396.5018961588542
 20
503.1865125868055
 30
0.0
 10
396.4157687717014
 20
503.2375
 30
0.0
 10
396.3330864800347
 20
503.2919325086805
 30
0.0
 10
396.262806532118
 20
503.2981336805555
 30
0.0
 10
396.1608317057292
 20
503.3077799479166
 30
0.0
 10
395.5999701605903
 20
503.3525661892361
 30
0.0
 10
395.3960205078125
 20
503.0053005642361
 30
0.0
 10
395.4756022135416
 20
502.4761338975694
 30
0.0
 10
395.5172878689236
 20
502.1922580295138
 30
0.0
 10
395.568275282118
 20
501.8835774739583
 30
0.0
 10
395.6509575737847
 20
501.6155490451388
 30
0.0
 10
395.7274386935763
 20
501.3482096354166
 30
0.0
 10
395.7177924262152
 20
501.0960286458333
 30
0.0
 10
395.740185546875
 20
500.8155978732639
 30
0.0
 10
395.7529324001736
 20
500.6946750217014
 30
0.0
 10
395.7529324001736
 20
500.5544596354166
 30
0.0
 10
395.7942735460069
 20
500.4397379557291
 30
0.0
 10
395.8518066406249
 20
500.2802300347222
 30
0.0
 10
395.8931477864583
 20
500.312269422743
 30
0.0
 10
396.0430094401041
 20
500.2326877170138
 30
0.0
 10
396.3775282118055
 20
500.0638780381944
 30
0.0
 10
396.3234402126736
 20
499.9205620659721
 30
0.0
 10
396.7344401041667
 20
499.9171169704861
 30
0.0
 10
396.8429606119792
 20
499.9171169704861
 30
0.0
 10
396.9128960503472
 20
499.9205620659721
 30
0.0
 10
397.0148708767361
 20
499.9743055555555
 30
0.0
 10
397.4289713541666
 20
500.1879014756944
 30
0.0
 10
397.6777072482639
 20
500.5737521701388
 30
0.0
 10
398.0091254340277
 20
500.8796766493055
 30
0.0
 10
398.3594916449653
 20
501.2076497395833
 30
0.0
 10
398.6271755642361
 20
501.3289171006944
 30
0.0
 10
398.6399224175347
 20
501.8418918185764
 30
0.0
 10
398.6526692708333
 20
502.3645128038194
 30
0.0
 10
398.6592149522569
 20
502.9636149088541
 30
0.0
 10
398.0856065538194
 20
503.1865125868055
 30
0.0
 10
397.8623643663194
 20
503.2760850694444
 30
0.0
 10
397.6043267144097
 20
503.364968532986
 30
0.0
 10
397.3590359157986
 20
503.3525661892361
 30
0.0
 10
397.2250217013889
 20
503.3460205078125
 30
0.0
 10
397.1485405815972
 20
503.3174262152777
 30
0.0
 10
397.0469102647569
 20
503.231298828125
 30
0.0
 10
396.9383897569444
 20
503.1451714409721
 30
0.0
 10
396.833314344618
 20
502.9446668836805
 30
0.0
 10
396.6707058376736
 20
503.00185546875
 30
0.0
  0
HATCH
  5
48
330
A
100
AcDbEntity
  8
LAYER_1
 62
     7
100
AcDbHatch
 10
0.0
 20
0.0
 30
0.0
210
0.0
220
0.0
230
1.0
  2
SOLID
 70
     1
 71
     0
 91
        1
 92
        1
 93
        1
 72
     4
 94
        3
 73
     0
 74
     0
 95
       50
 96
       46
 40
0.0
 40
0.0
 40
0.0
 40
0.0
 40
1.0
 40
1.0
 40
1.0
 40
2.0
 40
2.0
 40
2.0
 40
3.0
 40
3.0
 40
3.0
 40
4.0
 40
4.0
 40
4.0
 40
5.0
 40
5.0
 40
5.0
 40
6.0
 40
6.0
 40
6.0
 40
7.0
 40
7.0
 40
7.0
 40
8.0
 40
8.0
 40
8.0
 40
9.0
 40
9.0
 40
9.0
 40
10.0
 40
10.0
 40
10.0
 40
11.0
 40
11.0
 40
11.0
 40
12.0
 40
12.0
 40
12.0
 40
13.0
 40
13.0
 40
13.0
 40
14.0
 40
14.0
 40
14.0
 40
15.0
 40
15.0
 40
15.0
 40
15.0
 10
396.6707058376736
 20
503.00185546875
 10
396.5814778645833
 20
503.0307942708333
 10
396.5018961588542
 20
503.1865125868055
 10
396.4157687717014
 20
503.2375
 10
396.3330864800347
 20
503.2919325086805
 10
396.262806532118
 20
503.2981336805555
 10
396.1608317057292
 20
503.3077799479166
 10
395.5999701605903
 20
503.3525661892361
 10
395.3960205078125
 20
503.0053005642361
 10
395.4756022135416
 20
502.4761338975694
 10
395.5172878689236
 20
502.1922580295138
 10
395.568275282118
 20
501.8835774739583
 10
395.6509575737847
 20
501.6155490451388
 10
395.7274386935763
 20
501.3482096354166
 10
395.7177924262152
 20
501.0960286458333
 10
395.740185546875
 20
500.8155978732639
 10
395.7529324001736
 20
500.6946750217014
 10
395.7529324001736
 20
500.5544596354166
 10
395.7942735460069
 20
500.4397379557291
 10
395.8518066406249
 20
500.2802300347222
 10
395.8931477864583
 20
500.312269422743
 10
396.0430094401041
 20
500.2326877170138
 10
396.3775282118055
 20
500.0638780381944
 10
396.3234402126736
 20
499.9205620659721
 10
396.7344401041667
 20
499.9171169704861
 10
396.8429606119792
 20
499.9171169704861
 10
396.9128960503472
 20
499.9205620659721
 10
397.0148708767361
 20
499.9743055555555
 10
397.4289713541666
 20
500.1879014756944
 10
397.6777072482639
 20
500.5737521701388
 10
398.0091254340277
 20
500.8796766493055
 10
398.3594916449653
 20
501.2076497395833
 10
398.6271755642361
 20
501.3289171006944
 10
398.6399224175347
 20
501.8418918185764
 10
398.6526692708333
 20
502.3645128038194
 10
398.6592149522569
 20
502.9636149088541
 10
398.0856065538194
 20
503.1865125868055
 10
397.8623643663194
 20
503.2760850694444
 10
397.6043267144097
 20
503.364968532986
 10
397.3590359157986
 20
503.3525661892361
 10
397.2250217013889
 20
503.3460205078125
 10
397.1485405815972
 20
503.3174262152777
 10
397.0469102647569
 20
503.231298828125
 10
396.9383897569444
 20
503.1451714409721
 10
396.833314344618
 20
502.9446668836805
 10
396.6707058376736
 20
503.00185546875
 97
        0
 97
        0
 75
     0
 76
     1
 98
        1
 10
0.0
 20
0.0
  0
SPLINE
  5
47
330
A
100
AcDbEntity
  8
LAYER_1
 62
     7
100
AcDbSpline
210
0.0
220
0.0
230
1.0
 70
    11
 71
     3
 72
    11
 73
     7
 74
     0
 42
0.000000001
 43
0.00000001
 40
0.0
 40
0.0
 40
0.0
 40
0.0
 40
1.0
 40
1.0
 40
1.0
 40
2.0
 40
2.0
 40
2.0
 40
2.0
 10
351.031458875868
 20
526.0385199652777
 30
0.0
 10
351.3883707682292
 20
526.0543674045139
 30
0.0
 10
351.4837999131944
 20
526.6117838541667
 30
0.0
 10
351.2099148220486
 20
526.7936848958333
 30
0.0
 10
350.6649007161458
 20
527.1598985460068
 30
0.0
 10
350.3972167968749
 20
526.0064805772569
 30
0.0
 10
351.031458875868
 20
526.0385199652777
 30
0.0
  0
HATCH
  5
46
330
A
100
AcDbEntity
  8
LAYER_1
 62
     7
100
AcDbHatch
 10
0.0
 20
0.0
 30
0.0
210
0.0
220
0.0
230
1.0
  2
SOLID
 70
     1
 71
     0
 91
        1
 92
        1
 93
        1
 72
     4
 94
        3
 73
     0
 74
     0
 95
       11
 96
        7
 40
0.0
 40
0.0
 40
0.0
 40
0.0
 40
1.0
 40
1.0
 40
1.0
 40
2.0
 40
2.0
 40
2.0
 40
2.0
 10
351.031458875868
 20
526.0385199652777
 10
351.3883707682292
 20
526.0543674045139
 10
351.4837999131944
 20
526.6117838541667
 10
351.2099148220486
 20
526.7936848958333
 10
350.6649007161458
 20
527.1598985460068
 10
350.3972167968749
 20
526.0064805772569
 10
351.031458875868
 20
526.0385199652777
 97
        0
 97
        0
 75
     0
 76
     1
 98
        1
 10
0.0
 20
0.0
  0
SPLINE
  5
45
330
A
100
AcDbEntity
  8
LAYER_1
 62
     7
100
AcDbSpline
210
0.0
220
0.0
230
1.0
 70
    11
 71
     3
 72
    11
 73
     7
 74
     0
 42
0.000000001
 43
0.00000001
 40
0.0
 40
0.0
 40
0.0
 40
0.0
 40
1.0
 40
1.0
 40
1.0
 40
2.0
 40
2.0
 40
2.0
 40
2.0
 10
352.3474853515625
 20
523.670361328125
 30
0.0
 10
352.4112196180555
 20
523.44091796875
 30
0.0
 10
352.8160183376736
 20
523.8233235677083
 30
0.0
 10
352.8573594835069
 20
523.8936035156249
 30
0.0
 10
353.0068766276041
 20
524.1898817274305
 30
0.0
 10
352.1879774305555
 20
524.2377685546875
 30
0.0
 10
352.3474853515625
 20
523.670361328125
 30
0.0
  0
HATCH
  5
44
330
A
100
AcDbEntity
  8
LAYER_1
 62
     7
100
AcDbHatch
 10
0.0
 20
0.0
 30
0.0
210
0.0
220
0.0
230
1.0
  2
SOLID
 70
     1
 71
     0
 91
        1
 92
        1
 93
        1
 72
     4
 94
        3
 73
     0
 74
     0
 95
       11
 96
        7
 40
0.0
 40
0.0
 40
0.0
 40
0.0
 40
1.0
 40
1.0
 40
1.0
 40
2.0
 40
2.0
 40
2.0
 40
2.0
 10
352.3474853515625
 20
523.670361328125
 10
352.4112196180555
 20
523.44091796875
 10
352.8160183376736
 20
523.8233235677083
 10
352.8573594835069
 20
523.8936035156249
 10
353.0068766276041
 20
524.1898817274305
 10
352.1879774305555
 20
524.2377685546875
 10
352.3474853515625
 20
523.670361328125
 97
        0
 97
        0
 75
     0
 76
     1
 98
        1
 10
0.0
 20
0.0
  0
SPLINE
  5
43
330
A
100
AcDbEntity
  8
LAYER_1
 62
     7
100
AcDbSpline
210
0.0
220
0.0
230
1.0
 70
    11
 71
     3
 72
    11
 73
     7
 74
     0
 42
0.000000001
 43
0.00000001
 40
0.0
 40
0.0
 40
0.0
 40
0.0
 40
1.0
 40
1.0
 40
1.0
 40
2.0
 40
2.0
 40
2.0
 40
2.0
 10
354.0011311848958
 20
523.897048611111
 30
0.0
 10
354.5557915581597
 20
524.1802354600694
 30
0.0
 10
353.4881564670139
 20
524.5309461805555
 30
0.0
 10
353.561537000868
 20
523.8298692491319
 30
0.0
 10
353.7175998263888
 20
523.781982421875
 30
0.0
 10
353.8547146267361
 20
523.8233235677083
 30
0.0
 10
354.0011311848958
 20
523.897048611111
 30
0.0
  0
HATCH
  5
42
330
A
100
AcDbEntity
  8
LAYER_1
 62
     7
100
AcDbHatch
 10
0.0
 20
0.0
 30
0.0
210
0.0
220
0.0
230
1.0
  2
SOLID
 70
     1
 71
     0
 91
        1
 92
        1
 93
        1
 72
     4
 94
        3
 73
     0
 74
     0
 95
       11
 96
        7
 40
0.0
 40
0.0
 40
0.0
 40
0.0
 40
1.0
 40
1.0
 40
1.0
 40
2.0
 40
2.0
 40
2.0
 40
2.0
 10
354.0011311848958
 20
523.897048611111
 10
354.5557915581597
 20
524.1802354600694
 10
353.4881564670139
 20
524.5309461805555
 10
353.561537000868
 20
523.8298692491319
 10
353.7175998263888
 20
523.781982421875
 10
353.8547146267361
 20
523.8233235677083
 10
354.0011311848958
 20
523.897048611111
 97
        0
 97
        0
 75
     0
 76
     1
 98
        1
 10
0.0
 20
0.0
  0
POLYLINE
  5
3D
330
A
100
AcDbEntity
  8
LAYER_1
 62
     7
100
AcDb2dPolyline
 66
     1
 10
0.0
 20
0.0
 30
0.0
  0
VERTEX
  5
3E
330
3D
100
AcDbEntity
  8
LAYER_1
 62
     7
100
AcDbVertex
100
AcDb2dVertex
 10
348.998164
 20
551.152577
 30
0.0
  0
VERTEX
  5
3F
330
3D
100
AcDbEntity
  8
LAYER_1
 62
     7
100
AcDbVertex
100
AcDb2dVertex
 10
344.750361
 20
523.944591
 30
0.0
  0
VERTEX
  5
40
330
3D
100
AcDbEntity
  8
LAYER_1
 62
     7
100
AcDbVertex
100
AcDb2dVertex
 10
324.881462
 20
527.602938
 30
0.0
  0
SEQEND
  5
41
330
3D
100
AcDbEntity
  8
LAYER_1
 62
     7
  0
SPLINE
  5
3C
330
A
100
AcDbEntity
  8
LAYER_1
  6
AI9-LType1
 62
     7
100
AcDbSpline
210
0.0
220
0.0
230
1.0
 70
     8
 71
     3
 72
    29
 73
    25
 74
     0
 42
0.000000001
 43
0.00000001
 40
0.0
 40
0.0
 40
0.0
 40
0.0
 40
1.0
 40
1.0
 40
1.0
 40
2.0
 40
2.0
 40
2.0
 40
3.0
 40
3.0
 40
3.0
 40
4.0
 40
4.0
 40
4.0
 40
5.0
 40
5.0
 40
5.0
 40
6.0
 40
6.0
 40
6.0
 40
7.0
 40
7.0
 40
7.0
 40
8.0
 40
8.0
 40
8.0
 40
8.0
 10
431.739710828993
 20
518.6994330512152
 30
0.0
 10
431.7080159505208
 20
518.3807617187499
 30
0.0
 10
431.6029405381944
 20
518.0524441189235
 30
0.0
 10
431.5932942708333
 20
517.7179253472221
 30
0.0
 10
431.5805474175347
 20
517.3320746527777
 30
0.0
 10
431.5743462456597
 20
516.9469129774305
 30
0.0
 10
431.497865125868
 20
516.5707085503471
 30
0.0
 10
431.280824110243
 20
515.5127197265624
 30
0.0
 10
430.9463053385416
 20
514.4609320746528
 30
0.0
 10
430.8412299262152
 20
513.3681477864583
 30
0.0
 10
430.7871419270833
 20
512.8327799479166
 30
0.0
 10
430.8508761935764
 20
512.3704481336805
 30
0.0
 10
430.8860161675347
 20
511.8416259765625
 30
0.0
 10
430.9115098741319
 20
511.4592203776041
 30
0.0
 10
430.8350287543402
 20
511.0957628038194
 30
0.0
 10
430.8729248046874
 20
510.7009548611111
 30
0.0
 10
430.9624972873264
 20
509.8534613715277
 30
0.0
 10
430.9686984592013
 20
509.0183702256944
 30
0.0
 10
431.1375081380208
 20
508.1770779079861
 30
0.0
 10
431.2649766710069
 20
507.5524820963541
 30
0.0
 10
431.4372314453125
 20
506.9375325520833
 30
0.0
 10
431.6122422960069
 20
506.3353298611111
 30
0.0
 10
431.7238633897569
 20
505.9494791666666
 30
0.0
 10
431.7875976562499
 20
505.2738959418402
 30
0.0
 10
432.2433837890625
 20
505.1371256510416
 30
0.0
  0
LINE
  5
3B
330
A
100
AcDbEntity
  8
LAYER_1
  6
AI9-LType1
 62
     7
100
AcDbLine
 10
357.197491
 20
551.490196
 30
0.0
 11
370.731204
 21
548.69209
 31
0.0
  0
LINE
  5
3A
330
A
100
AcDbEntity
  8
LAYER_1
  6
AI9-LType1
 62
     7
100
AcDbLine
 10
320.394914
 20
504.394363
 30
0.0
 11
339.546544
 21
499.799295
 31
0.0
  0
POLYLINE
  5
33
330
A
100
AcDbEntity
  8
LAYER_1
 62
     7
100
AcDb2dPolyline
 66
     1
 10
0.0
 20
0.0
 30
0.0
  0
VERTEX
  5
34
330
33
100
AcDbEntity
  8
LAYER_1
 62
     7
100
AcDbVertex
100
AcDb2dVertex
 10
325.021677
 20
527.975697
 30
0.0
  0
VERTEX
  5
35
330
33
100
AcDbEntity
  8
LAYER_1
 62
     7
100
AcDbVertex
100
AcDb2dVertex
 10
322.81027
 20
517.246292
 30
0.0
  0
VERTEX
  5
36
330
33
100
AcDbEntity
  8
LAYER_1
 62
     7
100
AcDbVertex
100
AcDb2dVertex
 10
320.582671
 20
505.697987
 30
0.0
  0
VERTEX
  5
37
330
33
100
AcDbEntity
  8
LAYER_1
 62
     7
100
AcDbVertex
100
AcDb2dVertex
 10
319.929481
 20
501.115321
 30
0.0
  0
SEQEND
  5
38
330
33
100
AcDbEntity
  8
LAYER_1
 62
     7
  0
POLYLINE
  5
2C
330
A
100
AcDbEntity
  8
LAYER_1
 62
     7
100
AcDb2dPolyline
 66
     1
 10
0.0
 20
0.0
 30
0.0
  0
VERTEX
  5
2D
330
2C
100
AcDbEntity
  8
LAYER_1
 62
     7
100
AcDbVertex
100
AcDb2dVertex
 10
324.942095
 20
527.883369
 30
0.0
  0
VERTEX
  5
2E
330
2C
100
AcDbEntity
  8
LAYER_1
 62
     7
100
AcDbVertex
100
AcDb2dVertex
 10
328.574948
 20
543.864478
 30
0.0
  0
VERTEX
  5
2F
330
2C
100
AcDbEntity
  8
LAYER_1
 62
     7
100
AcDbVertex
100
AcDb2dVertex
 10
330.203101
 20
551.811968
 30
0.0
  0
VERTEX
  5
30
330
2C
100
AcDbEntity
  8
LAYER_1
 62
     7
100
AcDbVertex
100
AcDb2dVertex
 10
340.222127
 20
551.050602
 30
0.0
  0
VERTEX
  5
31
330
2C
100
AcDbEntity
  8
LAYER_1
 62
     7
100
AcDbVertex
100
AcDb2dVertex
 10
344.43479
 20
568.149989
 30
0.0
  0
SEQEND
  5
32
330
2C
100
AcDbEntity
  8
LAYER_1
 62
     7
  0
LINE
  5
2B
330
A
100
AcDbEntity
  8
LAYER_1
 62
     7
100
AcDbLine
 10
345.964412
 20
496.300456
 30
0.0
 11
345.135867
 21
493.184022
 31
0.0
  0
LINE
  5
2A
330
A
100
AcDbEntity
  8
LAYER_1
 62
     7
100
AcDbLine
 10
356.26697
 20
493.594678
 30
0.0
 11
355.588287
 21
490.178521
 31
0.0
  0
SPLINE
  5
29
330
A
100
AcDbEntity
  8
LAYER_1
 62
     7
100
AcDbSpline
210
0.0
220
0.0
230
1.0
 70
     8
 71
     3
 72
    47
 73
    43
 74
     0
 42
0.000000001
 43
0.00000001
 40
0.0
 40
0.0
 40
0.0
 40
0.0
 40
1.0
 40
1.0
 40
1.0
 40
2.0
 40
2.0
 40
2.0
 40
3.0
 40
3.0
 40
3.0
 40
4.0
 40
4.0
 40
4.0
 40
5.0
 40
5.0
 40
5.0
 40
6.0
 40
6.0
 40
6.0
 40
7.0
 40
7.0
 40
7.0
 40
8.0
 40
8.0
 40
8.0
 40
9.0
 40
9.0
 40
9.0
 40
10.0
 40
10.0
 40
10.0
 40
11.0
 40
11.0
 40
11.0
 40
12.0
 40
12.0
 40
12.0
 40
13.0
 40
13.0
 40
13.0
 40
14.0
 40
14.0
 40
14.0
 40
14.0
 10
346.3564643012152
 20
522.1345377604166
 30
0.0
 10
345.419398328993
 20
523.0013237847222
 30
0.0
 10
346.4456922743055
 20
523.8619086371527
 30
0.0
 10
346.5221733940972
 20
524.8847574869791
 30
0.0
 10
346.566615125868
 20
525.5568956163194
 30
0.0
 10
346.5156277126736
 20
526.2390245225694
 30
0.0
 10
346.5731608072916
 20
526.9146077473957
 30
0.0
 10
346.6210476345486
 20
527.4403293185763
 30
0.0
 10
346.8091498480903
 20
527.9409016927083
 30
0.0
 10
346.8439453125
 20
528.47626953125
 30
0.0
 10
346.907679578993
 20
529.3905978732638
 30
0.0
 10
346.8439453125
 20
529.8081434461805
 30
0.0
 10
347.254945203993
 20
530.5729546440972
 30
0.0
 10
347.5674153645833
 20
531.1531087239583
 30
0.0
 10
347.819251844618
 20
531.694677734375
 30
0.0
 10
348.2333523220486
 20
532.2141981336805
 30
0.0
 10
348.4948350694444
 20
532.5359700520833
 30
0.0
 10
348.7080864800347
 20
532.8542968749999
 30
0.0
 10
349.1128851996527
 20
532.9245768229166
 30
0.0
 10
349.5559244791667
 20
533.0045030381943
 30
0.0
 10
350.1264322916666
 20
532.9149305555555
 30
0.0
 10
350.572572157118
 20
532.8894368489583
 30
0.0
 10
351.7993706597222
 20
532.8164008246528
 30
0.0
 10
352.8284206814236
 20
532.6503472222222
 30
0.0
 10
354.0428168402777
 20
532.8894368489583
 30
0.0
 10
354.9316514756944
 20
533.0616916232639
 30
0.0
 10
356.0406277126736
 20
533.3262749565972
 30
0.0
 10
356.6269829644097
 20
532.3637152777777
 30
0.0
 10
356.8946668836805
 20
531.9175754123263
 30
0.0
 10
356.7957926432291
 20
531.3949544270832
 30
0.0
 10
356.8054389105902
 20
530.898171657986
 30
0.0
 10
356.8212863498264
 20
530.0182942708333
 30
0.0
 10
356.897767469618
 20
529.1453070746527
 30
0.0
 10
356.82783203125
 20
528.2561279296874
 30
0.0
 10
356.7544514973958
 20
527.2491265190972
 30
0.0
 10
356.7926920572916
 20
526.1563422309027
 30
0.0
 10
356.6207817925347
 20
525.1651882595486
 30
0.0
 10
356.5315538194444
 20
524.6425672743055
 30
0.0
 10
356.4740207248263
 20
524.2122748480903
 30
0.0
 10
356.5601481119791
 20
523.7089463975694
 30
0.0
 10
356.7003634982639
 20
522.9120958116318
 30
0.0
 10
356.8088840060764
 20
522.0132703993055
 30
0.0
 10
356.1873887803819
 20
521.3697265625
 30
0.0
  0
ENDSEC
  0
SECTION
  2
OBJECTS
  0
DICTIONARY
  5
19
330
0
100
AcDbDictionary
281
     1
  3
ACAD_DETAILVIEWSTYLE
350
270
  3
ACAD_GROUP
350
1A
  3
ACAD_LAYOUT
350
1E
  3
ACAD_MATERIAL
350
230
  3
ACAD_MLEADERSTYLE
350
236
  3
ACAD_MLINESTYLE
350
1B
  3
ACAD_PLOTSETTINGS
350
22
  3
ACAD_PLOTSTYLENAME
350
1F
  3
ACAD_SCALELIST
350
1F5
  3
ACAD_SECTIONVIEWSTYLE
350
271
  3
ACAD_TABLESTYLE
350
234
  3
ACAD_VISUALSTYLE
350
217
  3
ACAD_WIPEOUT_VARS
350
23
  3
ACDB_RECOMPOSE_DATA
350
26C
  3
AcDbVariableDictionary
350
238
  0
DICTIONARY
  5
270
102
{ACAD_REACTORS
330
19
102
}
330
19
100
AcDbDictionary
281
     1
  0
DICTIONARY
  5
1A
102
{ACAD_REACTORS
330
19
102
}
330
19
100
AcDbDictionary
281
     1
  0
DICTIONARY
  5
1E
102
{ACAD_REACTORS
330
19
102
}
330
19
100
AcDbDictionary
281
     1
  3
Layout1
350
21
  3
Model
350
20
  0
DICTIONARY
  5
230
102
{ACAD_REACTORS
330
19
102
}
330
19
100
AcDbDictionary
281
     1
  3
ByBlock
350
232
  3
ByLayer
350
231
  3
Global
350
233
  0
DICTIONARY
  5
236
102
{ACAD_REACTORS
330
19
102
}
330
19
100
AcDbDictionary
281
     1
  3
Standard
350
237
  0
DICTIONARY
  5
1B
102
{ACAD_REACTORS
330
19
102
}
330
19
100
AcDbDictionary
281
     1
  3
Standard
350
1C
  0
DICTIONARY
  5
22
102
{ACAD_REACTORS
330
19
102
}
330
19
100
AcDbDictionary
281
     1
  0
ACDBDICTIONARYWDFLT
  5
1F
102
{ACAD_REACTORS
330
19
102
}
330
19
100
AcDbDictionary
281
     1
  3
Normal
350
1D
100
AcDbDictionaryWithDefault
340
1D
  0
DICTIONARY
  5
1F5
102
{ACAD_REACTORS
330
19
102
}
330
19
100
AcDbDictionary
281
     1
  3
A0
350
1F6
  3
A1
350
1F7
  3
A2
350
1F8
  3
A3
350
1F9
  3
A4
350
1FA
  3
A5
350
1FB
  3
A6
350
1FC
  3
A7
350
1FD
  3
A8
350
1FE
  3
A9
350
1FF
  3
B0
350
200
  3
B1
350
201
  3
B2
350
202
  3
B3
350
203
  3
B4
350
204
  3
B5
350
205
  3
B6
350
206
  3
B7
350
207
  3
B8
350
208
  3
B9
350
209
  3
C0
350
20A
  3
C1
350
20B
  3
C2
350
20C
  3
C3
350
20D
  3
C4
350
20E
  3
C5
350
20F
  3
C6
350
210
  3
C7
350
211
  3
C8
350
212
  3
C9
350
213
  3
D0
350
214
  3
D1
350
215
  3
D2
350
216
  0
DICTIONARY
  5
271
102
{ACAD_REACTORS
330
19
102
}
330
19
100
AcDbDictionary
281
     1
  0
DICTIONARY
  5
234
102
{ACAD_REACTORS
330
19
102
}
330
19
100
AcDbDictionary
281
     1
  3
Standard
350
235
  0
DICTIONARY
  5
217
102
{ACAD_REACTORS
330
19
102
}
330
19
100
AcDbDictionary
281
     1
  3
2dWireframe
350
21C
  3
Basic
350
21F
  3
Brighten
350
223
  3
ColorChange
350
227
  3
Conceptual
350
221
  3
Dim
350
222
  3
EdgeColorOff
350
22A
  3
Facepattern
350
226
  3
Flat
350
218
  3
FlatWithEdges
350
219
  3
Gouraud
350
21A
  3
GouraudWithEdges
350
21B
  3
Hidden
350
21E
  3
JitterOff
350
228
  3
Linepattern
350
225
  3
OverhangOff
350
229
  3
Realistic
350
220
  3
Shaded
350
22F
  3
Shaded with edges
350
22E
  3
Shades of Gray
350
22B
  3
Sketchy
350
22C
  3
Thicken
350
224
  3
Wireframe
350
21D
  3
X-Ray
350
22D
  0
WIPEOUTVARIABLES
  5
23
330
19
100
AcDbWipeoutVariables
 70
     1
  0
XRECORD
  5
26C
102
{ACAD_REACTORS
330
19
102
}
330
19
100
AcDbXrecord
280
     1
 90
        1
330
235
  0
DICTIONARY
  5
238
102
{ACAD_REACTORS
330
19
102
}
330
19
100
AcDbDictionary
281
     1
  3
CANNOSCALE
350
239
  3
CMLEADERSTYLE
350
26E
  3
CTABLESTYLE
350
26D
  3
MSLTSCALE
350
26F
  0
LAYOUT
  5
21
102
{ACAD_REACTORS
330
1E
102
}
330
1E
100
AcDbPlotSettings
  1

  2

  4

  6

 40
0.0
 41
0.0
 42
0.0
 43
0.0
 44
0.0
 45
0.0
 46
0.0
 47
0.0
 48
0.0
 49
0.0
140
0.0
141
0.0
142
1.0
143
1.0
 70
     0
 72
     0
 73
     0
 74
     0
  7

 75
     0
 76
     0
 77
     2
 78
   300
147
1.0
148
0.0
149
0.0
100
AcDbLayout
  1
Layout1
 70
     0
 71
     0
 10
0.0
 20
0.0
 11
0.0
 21
0.0
 12
0.0
 22
0.0
 32
0.0
 14
0.0
 24
0.0
 34
0.0
 15
0.0
 25
0.0
 35
0.0
146
0.0
 13
0.0
 23
0.0
 33
0.0
 16
0.0
 26
0.0
 36
0.0
 17
0.0
 27
0.0
 37
0.0
 76
     0
330
B
  0
LAYOUT
  5
20
102
{ACAD_REACTORS
330
1E
102
}
330
1E
100
AcDbPlotSettings
  1

  2

  4

  6

 40
0.0
 41
0.0
 42
0.0
 43
0.0
 44
0.0
 45
0.0
 46
0.0
 47
0.0
 48
0.0
 49
0.0
140
0.0
141
0.0
142
1.0
143
1.0
 70
  1024
 72
     0
 73
     0
 74
     0
  7

 75
     0
 76
     0
 77
     2
 78
   300
147
1.0
148
0.0
149
0.0
100
AcDbLayout
  1
Model
 70
     0
 71
     1
 10
0.0
 20
0.0
 11
0.0
 21
0.0
 12
0.0
 22
0.0
 32
0.0
 14
0.0
 24
0.0
 34
0.0
 15
0.0
 25
0.0
 35
0.0
146
0.0
 13
0.0
 23
0.0
 33
0.0
 16
0.0
 26
0.0
 36
0.0
 17
0.0
 27
0.0
 37
0.0
 76
     0
330
A
331
15
  0
MATERIAL
  5
232
102
{ACAD_REACTORS
330
230
102
}
330
230
100
AcDbMaterial
  1
ByBlock
 72
     1
 94
      127
  0
MATERIAL
  5
231
102
{ACAD_REACTORS
330
230
102
}
330
230
100
AcDbMaterial
  1
ByLayer
 72
     1
 94
      127
  0
MATERIAL
  5
233
102
{ACAD_REACTORS
330
230
102
}
330
230
100
AcDbMaterial
  1
Global
 72
     1
 94
      127
  0
MLEADERSTYLE
  5
237
102
{ACAD_REACTORS
330
236
102
}
330
236
100
AcDbMLeaderStyle
179
     2
170
     2
171
     1
172
     0
 90
        2
 40
0.0
 41
0.0
173
     1
 91
-1056964608
340
11
 92
       -2
290
     1
 42
0.09
291
     1
 43
0.36
  3
Standard
341
0
 44
0.18
300

342
17
174
     1
178
     6
175
     1
176
     0
 93
-1056964608
 45
0.18
292
     0
297
     0
 46
0.18
343
0
 94
-1056964608
 47
1.0
 49
1.0
140
1.0
293
     1
141
0.0
294
     1
177
     0
142
1.0
295
     0
296
     0
143
0.125
271
     0
272
     9
273
     9
  0
MLINESTYLE
  5
1C
102
{ACAD_REACTORS
330
1B
102
}
330
1B
100
AcDbMlineStyle
  2
Standard
 70
     0
  3

 62
     0
 51
90.0
 52
90.0
 71
     2
 49
0.5
 62
   256
  6
BYLAYER
 49
-0.5
 62
   256
  6
BYLAYER
  0
ACDBPLACEHOLDER
  5
1D
102
{ACAD_REACTORS
330
1F
102
}
330
1F
  0
SCALE
  5
1F6
102
{ACAD_REACTORS
330
1F5
102
}
330
1F5
100
AcDbScale
 70
     0
300
1:1
140
1.0
141
1.0
290
     1
  0
SCALE
  5
1F7
102
{ACAD_REACTORS
330
1F5
102
}
330
1F5
100
AcDbScale
 70
     0
300
1:2
140
1.0
141
2.0
290
     0
  0
SCALE
  5
1F8
102
{ACAD_REACTORS
330
1F5
102
}
330
1F5
100
AcDbScale
 70
     0
300
1:4
140
1.0
141
4.0
290
     0
  0
SCALE
  5
1F9
102
{ACAD_REACTORS
330
1F5
102
}
330
1F5
100
AcDbScale
 70
     0
300
1:5
140
1.0
141
5.0
290
     0
  0
SCALE
  5
1FA
102
{ACAD_REACTORS
330
1F5
102
}
330
1F5
100
AcDbScale
 70
     0
300
1:8
140
1.0
141
8.0
290
     0
  0
SCALE
  5
1FB
102
{ACAD_REACTORS
330
1F5
102
}
330
1F5
100
AcDbScale
 70
     0
300
1:10
140
1.0
141
10.0
290
     0
  0
SCALE
  5
1FC
102
{ACAD_REACTORS
330
1F5
102
}
330
1F5
100
AcDbScale
 70
     0
300
1:16
140
1.0
141
16.0
290
     0
  0
SCALE
  5
1FD
102
{ACAD_REACTORS
330
1F5
102
}
330
1F5
100
AcDbScale
 70
     0
300
1:20
140
1.0
141
20.0
290
     0
  0
SCALE
  5
1FE
102
{ACAD_REACTORS
330
1F5
102
}
330
1F5
100
AcDbScale
 70
     0
300
1:30
140
1.0
141
30.0
290
     0
  0
SCALE
  5
1FF
102
{ACAD_REACTORS
330
1F5
102
}
330
1F5
100
AcDbScale
 70
     0
300
1:40
140
1.0
141
40.0
290
     0
  0
SCALE
  5
200
102
{ACAD_REACTORS
330
1F5
102
}
330
1F5
100
AcDbScale
 70
     0
300
1:50
140
1.0
141
50.0
290
     0
  0
SCALE
  5
201
102
{ACAD_REACTORS
330
1F5
102
}
330
1F5
100
AcDbScale
 70
     0
300
1:100
140
1.0
141
100.0
290
     0
  0
SCALE
  5
202
102
{ACAD_REACTORS
330
1F5
102
}
330
1F5
100
AcDbScale
 70
     0
300
2:1
140
2.0
141
1.0
290
     0
  0
SCALE
  5
203
102
{ACAD_REACTORS
330
1F5
102
}
330
1F5
100
AcDbScale
 70
     0
300
4:1
140
4.0
141
1.0
290
     0
  0
SCALE
  5
204
102
{ACAD_REACTORS
330
1F5
102
}
330
1F5
100
AcDbScale
 70
     0
300
8:1
140
8.0
141
1.0
290
     0
  0
SCALE
  5
205
102
{ACAD_REACTORS
330
1F5
102
}
330
1F5
100
AcDbScale
 70
     0
300
10:1
140
10.0
141
1.0
290
     0
  0
SCALE
  5
206
102
{ACAD_REACTORS
330
1F5
102
}
330
1F5
100
AcDbScale
 70
     0
300
100:1
140
100.0
141
1.0
290
     0
  0
SCALE
  5
207
102
{ACAD_REACTORS
330
1F5
102
}
330
1F5
100
AcDbScale
 70
     0
300
1/128" = 1'-0"
140
0.0078125
141
12.0
290
     0
  0
SCALE
  5
208
102
{ACAD_REACTORS
330
1F5
102
}
330
1F5
100
AcDbScale
 70
     0
300
1/64" = 1'-0"
140
0.015625
141
12.0
290
     0
  0
SCALE
  5
209
102
{ACAD_REACTORS
330
1F5
102
}
330
1F5
100
AcDbScale
 70
     0
300
1/32" = 1'-0"
140
0.03125
141
12.0
290
     0
  0
SCALE
  5
20A
102
{ACAD_REACTORS
330
1F5
102
}
330
1F5
100
AcDbScale
 70
     0
300
1/16" = 1'-0"
140
0.0625
141
12.0
290
     0
  0
SCALE
  5
20B
102
{ACAD_REACTORS
330
1F5
102
}
330
1F5
100
AcDbScale
 70
     0
300
3/32" = 1'-0"
140
0.09375
141
12.0
290
     0
  0
SCALE
  5
20C
102
{ACAD_REACTORS
330
1F5
102
}
330
1F5
100
AcDbScale
 70
     0
300
1/8" = 1'-0"
140
0.125
141
12.0
290
     0
  0
SCALE
  5
20D
102
{ACAD_REACTORS
330
1F5
102
}
330
1F5
100
AcDbScale
 70
     0
300
3/16" = 1'-0"
140
0.1875
141
12.0
290
     0
  0
SCALE
  5
20E
102
{ACAD_REACTORS
330
1F5
102
}
330
1F5
100
AcDbScale
 70
     0
300
1/4" = 1'-0"
140
0.25
141
12.0
290
     0
  0
SCALE
  5
20F
102
{ACAD_REACTORS
330
1F5
102
}
330
1F5
100
AcDbScale
 70
     0
300
3/8" = 1'-0"
140
0.375
141
12.0
290
     0
  0
SCALE
  5
210
102
{ACAD_REACTORS
330
1F5
102
}
330
1F5
100
AcDbScale
 70
     0
300
1/2" = 1'-0"
140
0.5
141
12.0
290
     0
  0
SCALE
  5
211
102
{ACAD_REACTORS
330
1F5
102
}
330
1F5
100
AcDbScale
 70
     0
300
3/4" = 1'-0"
140
0.75
141
12.0
290
     0
  0
SCALE
  5
212
102
{ACAD_REACTORS
330
1F5
102
}
330
1F5
100
AcDbScale
 70
     0
300
1" = 1'-0"
140
1.0
141
12.0
290
     0
  0
SCALE
  5
213
102
{ACAD_REACTORS
330
1F5
102
}
330
1F5
100
AcDbScale
 70
     0
300
1-1/2" = 1'-0"
140
1.5
141
12.0
290
     0
  0
SCALE
  5
214
102
{ACAD_REACTORS
330
1F5
102
}
330
1F5
100
AcDbScale
 70
     0
300
3" = 1'-0"
140
3.0
141
12.0
290
     0
  0
SCALE
  5
215
102
{ACAD_REACTORS
330
1F5
102
}
330
1F5
100
AcDbScale
 70
     0
300
6" = 1'-0"
140
6.0
141
12.0
290
     0
  0
SCALE
  5
216
102
{ACAD_REACTORS
330
1F5
102
}
330
1F5
100
AcDbScale
 70
     0
300
1'-0" = 1'-0"
140
12.0
141
12.0
290
     0
  0
TABLESTYLE
  5
235
102
{ACAD_REACTORS
330
234
102
}
102
{ACAD_XDICTIONARY
360
26A
102
}
330
234
100
AcDbTableStyle
  3
Standard
 70
     0
 71
     0
 40
0.06
 41
0.06
280
     0
281
     0
  7
Standard
140
0.18
170
     2
 62
     0
 63
   257
283
     0
 90
        4
 91
        0
  1

274
    -2
284
     1
 64
     0
275
    -2
285
     1
 65
     0
276
    -2
286
     1
 66
     0
277
    -2
287
     1
 67
     0
278
    -2
288
     1
 68
     0
279
    -2
289
     1
 69
     0
  7
Standard
140
0.25
170
     5
 62
     0
 63
   257
283
     0
 90
        4
 91
        0
  1

274
    -2
284
     1
 64
     0
275
    -2
285
     1
 65
     0
276
    -2
286
     1
 66
     0
277
    -2
287
     1
 67
     0
278
    -2
288
     1
 68
     0
279
    -2
289
     1
 69
     0
  7
Standard
140
0.18
170
     5
 62
     0
 63
   257
283
     0
 90
        4
 91
        0
  1

274
    -2
284
     1
 64
     0
275
    -2
285
     1
 65
     0
276
    -2
286
     1
 66
     0
277
    -2
287
     1
 67
     0
278
    -2
288
     1
 68
     0
279
    -2
289
     1
 69
     0
  0
VISUALSTYLE
  5
21C
102
{ACAD_REACTORS
330
217
102
}
102
{ACAD_XDICTIONARY
360
242
102
}
330
217
100
AcDbVisualStyle
  2
2dWireframe
 70
     4
177
     2
291
     0
 71
     0
176
     1
 72
     2
176
     1
 73
     0
176
     1
 90
        0
176
     1
 40
0.6
176
     1
 41
30.0
176
     1
 62
     5
 63
     7
421
 16777215
176
     1
 74
     1
176
     1
 91
        4
176
     1
 64
     7
176
     1
 65
   257
176
     1
 75
     1
176
     1
175
     1
176
     1
 42
1.0
176
     1
 92
        0
176
     1
 66
   257
176
     1
 43
1.0
176
     1
 76
     1
176
     1
 77
     6
176
     1
 78
     2
176
     1
 67
     7
176
     1
 79
     5
176
     1
170
     0
176
     1
171
     0
176
     1
290
     0
176
     1
 93
        1
176
     1
 44
0.0
176
     1
173
     0
176
     1
  0
VISUALSTYLE
  5
21F
102
{ACAD_REACTORS
330
217
102
}
102
{ACAD_XDICTIONARY
360
248
102
}
330
217
100
AcDbVisualStyle
  2
Basic
 70
     7
177
     2
291
     1
 71
     1
176
     1
 72
     0
176
     1
 73
     1
176
     1
 90
        0
176
     1
 40
0.6
176
     1
 41
30.0
176
     1
 62
     5
 63
     7
421
 16777215
176
     1
 74
     0
176
     1
 91
        4
176
     1
 64
     7
176
     1
 65
   257
176
     1
 75
     1
176
     1
175
     1
176
     1
 42
1.0
176
     1
 92
        8
176
     1
 66
     7
176
     1
 43
1.0
176
     1
 76
     1
176
     1
 77
     6
176
     1
 78
     2
176
     1
 67
     7
176
     1
 79
     5
176
     1
170
     0
176
     1
171
     0
176
     1
290
     0
176
     1
 93
        1
176
     1
 44
0.0
176
     1
173
     0
176
     1
  0
VISUALSTYLE
  5
223
102
{ACAD_REACTORS
330
217
102
}
102
{ACAD_XDICTIONARY
360
250
102
}
330
217
100
AcDbVisualStyle
  2
Brighten
 70
    12
177
     2
291
     1
 71
     2
176
     1
 72
     2
176
     1
 73
     0
176
     1
 90
        0
176
     1
 40
0.6
176
     1
 41
30.0
176
     1
 62
     5
 63
     7
421
 16777215
176
     1
 74
     1
176
     1
 91
        4
176
     1
 64
     7
176
     1
 65
   257
176
     1
 75
     1
176
     1
175
     1
176
     1
 42
1.0
176
     1
 92
        8
176
     1
 66
     7
176
     1
 43
1.0
176
     1
 76
     1
176
     1
 77
     6
176
     1
 78
     2
176
     1
 67
     7
176
     1
 79
     5
176
     1
170
     0
176
     1
171
     0
176
     1
290
     0
176
     1
 93
        1
176
     1
 44
50.0
176
     1
173
     0
176
     1
  0
VISUALSTYLE
  5
227
102
{ACAD_REACTORS
330
217
102
}
102
{ACAD_XDICTIONARY
360
258
102
}
330
217
100
AcDbVisualStyle
  2
ColorChange
 70
    16
177
     2
291
     1
 71
     2
176
     1
 72
     2
176
     1
 73
     3
176
     1
 90
        0
176
     1
 40
0.6
176
     1
 41
30.0
176
     1
 62
     5
 63
     8
421
  8421504
176
     1
 74
     1
176
     1
 91
        4
176
     1
 64
     7
176
     1
 65
   257
176
     1
 75
     1
176
     1
175
     1
176
     1
 42
1.0
176
     1
 92
        8
176
     1
 66
     8
424
  8421504
176
     1
 43
1.0
176
     1
 76
     1
176
     1
 77
     6
176
     1
 78
     2
176
     1
 67
     7
176
     1
 79
     5
176
     1
170
     0
176
     1
171
     0
176
     1
290
     0
176
     1
 93
        1
176
     1
 44
0.0
176
     1
173
     0
176
     1
  0
VISUALSTYLE
  5
221
102
{ACAD_REACTORS
330
217
102
}
102
{ACAD_XDICTIONARY
360
24C
102
}
330
217
100
AcDbVisualStyle
  2
Conceptual
 70
     9
177
     2
291
     0
 71
     3
176
     1
 72
     2
176
     1
 73
     0
176
     1
 90
        0
176
     1
 40
0.6
176
     1
 41
30.0
176
     1
 62
     5
 63
     7
421
 16777215
176
     1
 74
     2
176
     1
 91
        2
176
     1
 64
     7
176
     1
 65
   257
176
     1
 75
     1
176
     1
175
     1
176
     1
 42
179.0
176
     1
 92
        8
176
     1
 66
     7
176
     1
 43
1.0
176
     1
 76
     1
176
     1
 77
     6
176
     1
 78
     2
176
     1
 67
     7
176
     1
 79
     3
176
     1
170
     0
176
     1
171
     0
176
     1
290
     0
176
     1
 93
        1
176
     1
 44
0.0
176
     1
173
     0
176
     1
  0
VISUALSTYLE
  5
222
102
{ACAD_REACTORS
330
217
102
}
102
{ACAD_XDICTIONARY
360
24E
102
}
330
217
100
AcDbVisualStyle
  2
Dim
 70
    11
177
     2
291
     1
 71
     2
176
     1
 72
     2
176
     1
 73
     0
176
     1
 90
        0
176
     1
 40
0.6
176
     1
 41
30.0
176
     1
 62
     5
 63
     7
421
 16777215
176
     1
 74
     1
176
     1
 91
        4
176
     1
 64
     7
176
     1
 65
   257
176
     1
 75
     1
176
     1
175
     1
176
     1
 42
1.0
176
     1
 92
        8
176
     1
 66
     7
176
     1
 43
1.0
176
     1
 76
     1
176
     1
 77
     6
176
     1
 78
     2
176
     1
 67
     7
176
     1
 79
     5
176
     1
170
     0
176
     1
171
     0
176
     1
290
     0
176
     1
 93
        1
176
     1
 44
-50.0
176
     1
173
     0
176
     1
  0
VISUALSTYLE
  5
22A
102
{ACAD_REACTORS
330
217
102
}
102
{ACAD_XDICTIONARY
360
25E
102
}
330
217
100
AcDbVisualStyle
  2
EdgeColorOff
 70
    22
177
     2
291
     1
 71
     2
176
     0
 72
     2
176
     0
 73
     0
176
     0
 90
        0
176
     0
 40
0.6
176
     0
 41
30.0
176
     0
 62
     5
 63
     7
421
 16777215
176
     0
 74
     1
176
     0
 91
        4
176
     0
 64
     7
176
     0
 65
   257
176
     0
 75
     1
176
     0
175
     1
176
     0
 42
1.0
176
     0
 92
        8
176
     2
 66
     7
176
     0
 43
1.0
176
     0
 76
     1
176
     0
 77
     6
176
     0
 78
     2
176
     0
 67
     7
176
     0
 79
     5
176
     0
170
     0
176
     0
171
     0
176
     0
290
     0
176
     0
 93
        1
176
     0
 44
0.0
176
     0
173
     0
176
     0
  0
VISUALSTYLE
  5
226
102
{ACAD_REACTORS
330
217
102
}
102
{ACAD_XDICTIONARY
360
256
102
}
330
217
100
AcDbVisualStyle
  2
Facepattern
 70
    15
177
     2
291
     1
 71
     2
176
     1
 72
     2
176
     1
 73
     0
176
     1
 90
        0
176
     1
 40
0.6
176
     1
 41
30.0
176
     1
 62
     5
 63
     7
421
 16777215
176
     1
 74
     1
176
     1
 91
        4
176
     1
 64
     7
176
     1
 65
   257
176
     1
 75
     1
176
     1
175
     1
176
     1
 42
1.0
176
     1
 92
        8
176
     1
 66
     7
176
     1
 43
1.0
176
     1
 76
     1
176
     1
 77
     6
176
     1
 78
     2
176
     1
 67
     7
176
     1
 79
     5
176
     1
170
     0
176
     1
171
     0
176
     1
290
     0
176
     1
 93
        1
176
     1
 44
0.0
176
     1
173
     0
176
     1
  0
VISUALSTYLE
  5
218
102
{ACAD_REACTORS
330
217
102
}
102
{ACAD_XDICTIONARY
360
23A
102
}
330
217
100
AcDbVisualStyle
  2
Flat
 70
     0
177
     2
291
     1
 71
     2
176
     1
 72
     1
176
     1
 73
     1
176
     1
 90
        2
176
     1
 40
0.6
176
     1
 41
30.0
176
     1
 62
     5
 63
     7
421
 16777215
176
     1
 74
     0
176
     1
 91
        0
176
     1
 64
     7
176
     1
 65
   257
176
     1
 75
     1
176
     1
175
     1
176
     1
 42
1.0
176
     1
 92
        8
176
     1
 66
     7
176
     1
 43
1.0
176
     1
 76
     1
176
     1
 77
     6
176
     1
 78
     2
176
     1
 67
     7
176
     1
 79
     5
176
     1
170
     0
176
     1
171
     0
176
     1
290
     0
176
     1
 93
       13
176
     1
 44
0.0
176
     1
173
     0
176
     1
  0
VISUALSTYLE
  5
219
102
{ACAD_REACTORS
330
217
102
}
102
{ACAD_XDICTIONARY
360
23C
102
}
330
217
100
AcDbVisualStyle
  2
FlatWithEdges
 70
     1
177
     2
291
     1
 71
     2
176
     1
 72
     1
176
     1
 73
     1
176
     1
 90
        2
176
     1
 40
0.6
176
     1
 41
30.0
176
     1
 62
     5
 63
     7
421
 16777215
176
     1
 74
     1
176
     1
 91
        0
176
     1
 64
     7
176
     1
 65
   257
176
     1
 75
     1
176
     1
175
     1
176
     1
 42
1.0
176
     1
 92
        0
176
     1
 66
   257
176
     1
 43
1.0
176
     1
 76
     1
176
     1
 77
     6
176
     1
 78
     2
176
     1
 67
     7
176
     1
 79
     5
176
     1
170
     0
176
     1
171
     0
176
     1
290
     0
176
     1
 93
       13
176
     1
 44
0.0
176
     1
173
     0
176
     1
  0
VISUALSTYLE
  5
21A
102
{ACAD_REACTORS
330
217
102
}
102
{ACAD_XDICTIONARY
360
23E
102
}
330
217
100
AcDbVisualStyle
  2
Gouraud
 70
     2
177
     2
291
     1
 71
     2
176
     1
 72
     2
176
     1
 73
     1
176
     1
 90
        2
176
     1
 40
0.6
176
     1
 41
30.0
176
     1
 62
     5
 63
     7
421
 16777215
176
     1
 74
     0
176
     1
 91
        0
176
     1
 64
     7
176
     1
 65
   257
176
     1
 75
     1
176
     1
175
     1
176
     1
 42
1.0
176
     1
 92
        0
176
     1
 66
     7
176
     1
 43
1.0
176
     1
 76
     1
176
     1
 77
     6
176
     1
 78
     2
176
     1
 67
     7
176
     1
 79
     5
176
     1
170
     0
176
     1
171
     0
176
     1
290
     0
176
     1
 93
       13
176
     1
 44
0.0
176
     1
173
     0
176
     1
  0
VISUALSTYLE
  5
21B
102
{ACAD_REACTORS
330
217
102
}
102
{ACAD_XDICTIONARY
360
240
102
}
330
217
100
AcDbVisualStyle
  2
GouraudWithEdges
 70
     3
177
     2
291
     1
 71
     2
176
     1
 72
     2
176
     1
 73
     1
176
     1
 90
        2
176
     1
 40
0.6
176
     1
 41
30.0
176
     1
 62
     5
 63
     7
421
 16777215
176
     1
 74
     1
176
     1
 91
        0
176
     1
 64
     7
176
     1
 65
   257
176
     1
 75
     1
176
     1
175
     1
176
     1
 42
1.0
176
     1
 92
        0
176
     1
 66
   257
176
     1
 43
1.0
176
     1
 76
     1
176
     1
 77
     6
176
     1
 78
     2
176
     1
 67
     7
176
     1
 79
     5
176
     1
170
     0
176
     1
171
     0
176
     1
290
     0
176
     1
 93
       13
176
     1
 44
0.0
176
     1
173
     0
176
     1
  0
VISUALSTYLE
  5
21E
102
{ACAD_REACTORS
330
217
102
}
102
{ACAD_XDICTIONARY
360
246
102
}
330
217
100
AcDbVisualStyle
  2
Hidden
 70
     6
177
     2
291
     0
 71
     1
176
     1
 72
     2
176
     1
 73
     2
176
     1
 90
        0
176
     1
 40
0.6
176
     1
 41
30.0
176
     1
 62
     5
 63
     7
421
 16777215
176
     1
 74
     2
176
     1
 91
        2
176
     1
 64
     7
176
     1
 65
   257
176
     1
 75
     2
176
     1
175
     1
176
     1
 42
40.0
176
     1
 92
        0
176
     1
 66
   257
176
     1
 43
1.0
176
     1
 76
     1
176
     1
 77
     6
176
     1
 78
     2
176
     1
 67
     7
176
     1
 79
     3
176
     1
170
     0
176
     1
171
     0
176
     1
290
     0
176
     1
 93
        1
176
     1
 44
0.0
176
     1
173
     0
176
     1
  0
VISUALSTYLE
  5
228
102
{ACAD_REACTORS
330
217
102
}
102
{ACAD_XDICTIONARY
360
25A
102
}
330
217
100
AcDbVisualStyle
  2
JitterOff
 70
    20
177
     2
291
     1
 71
     2
176
     0
 72
     2
176
     0
 73
     0
176
     0
 90
        0
176
     0
 40
0.6
176
     0
 41
30.0
176
     0
 62
     5
 63
     7
421
 16777215
176
     0
 74
     1
176
     0
 91
        4
176
     0
 64
     7
176
     0
 65
   257
176
     0
 75
     1
176
     0
175
     1
176
     0
 42
1.0
176
     0
 92
       10
176
     2
 66
     7
176
     0
 43
1.0
176
     0
 76
     1
176
     0
 77
     6
176
     0
 78
     2
176
     0
 67
     7
176
     0
 79
     5
176
     0
170
     0
176
     0
171
     0
176
     0
290
     0
176
     0
 93
        1
176
     0
 44
0.0
176
     0
173
     0
176
     0
  0
VISUALSTYLE
  5
225
102
{ACAD_REACTORS
330
217
102
}
102
{ACAD_XDICTIONARY
360
254
102
}
330
217
100
AcDbVisualStyle
  2
Linepattern
 70
    14
177
     2
291
     1
 71
     2
176
     1
 72
     2
176
     1
 73
     0
176
     1
 90
        0
176
     1
 40
0.6
176
     1
 41
30.0
176
     1
 62
     5
 63
     7
421
 16777215
176
     1
 74
     1
176
     1
 91
        4
176
     1
 64
     7
176
     1
 65
   257
176
     1
 75
     7
176
     1
175
     7
176
     1
 42
1.0
176
     1
 92
        8
176
     1
 66
     7
176
     1
 43
1.0
176
     1
 76
     1
176
     1
 77
     6
176
     1
 78
     2
176
     1
 67
     7
176
     1
 79
     5
176
     1
170
     0
176
     1
171
     0
176
     1
290
     0
176
     1
 93
        1
176
     1
 44
0.0
176
     1
173
     0
176
     1
  0
VISUALSTYLE
  5
229
102
{ACAD_REACTORS
330
217
102
}
102
{ACAD_XDICTIONARY
360
25C
102
}
330
217
100
AcDbVisualStyle
  2
OverhangOff
 70
    21
177
     2
291
     1
 71
     2
176
     0
 72
     2
176
     0
 73
     0
176
     0
 90
        0
176
     0
 40
0.6
176
     0
 41
30.0
176
     0
 62
     5
 63
     7
421
 16777215
176
     0
 74
     1
176
     0
 91
        4
176
     0
 64
     7
176
     0
 65
   257
176
     0
 75
     1
176
     0
175
     1
176
     0
 42
1.0
176
     0
 92
        9
176
     2
 66
     7
176
     0
 43
1.0
176
     0
 76
     1
176
     0
 77
     6
176
     0
 78
     2
176
     0
 67
     7
176
     0
 79
     5
176
     0
170
     0
176
     0
171
     0
176
     0
290
     0
176
     0
 93
        1
176
     0
 44
0.0
176
     0
173
     0
176
     0
  0
VISUALSTYLE
  5
220
102
{ACAD_REACTORS
330
217
102
}
102
{ACAD_XDICTIONARY
360
24A
102
}
330
217
100
AcDbVisualStyle
  2
Realistic
 70
     8
177
     2
291
     0
 71
     2
176
     1
 72
     3
176
     1
 73
     0
176
     1
 90
        2
176
     1
 40
0.6
176
     1
 41
30.0
176
     1
 62
     5
 63
     7
421
 16777215
176
     1
 74
     0
176
     1
 91
        0
176
     1
 64
     7
176
     1
 65
   257
176
     1
 75
     1
176
     1
175
     1
176
     1
 42
1.0
176
     1
 92
        8
176
     1
 66
   257
176
     1
 43
1.0
176
     1
 76
     1
176
     1
 77
     6
176
     1
 78
     2
176
     1
 67
     7
176
     1
 79
     3
176
     1
170
     0
176
     1
171
     0
176
     1
290
     0
176
     1
 93
       13
176
     1
 44
0.0
176
     1
173
     0
176
     1
  0
VISUALSTYLE
  5
22F
102
{ACAD_REACTORS
330
217
102
}
102
{ACAD_XDICTIONARY
360
268
102
}
330
217
100
AcDbVisualStyle
  2
Shaded
 70
    27
177
     2
291
     0
 71
     2
176
     1
 72
     2
176
     1
 73
     1
176
     1
 90
        2
176
     1
 40
0.6
176
     1
 41
30.0
176
     1
 62
     5
 63
     7
421
 16777215
176
     1
 74
     0
176
     1
 91
        4
176
     1
 64
     7
176
     1
 65
   257
176
     1
 75
     1
176
     1
175
     1
176
     1
 42
1.0
176
     1
 92
        8
176
     1
 66
   257
176
     1
 43
1.0
176
     1
 76
     1
176
     1
 77
     6
176
     1
 78
     2
176
     1
 67
     8
425
  7895160
176
     1
 79
     3
176
     1
170
     0
176
     1
171
     0
176
     1
290
     0
176
     1
 93
        5
176
     1
 44
0.0
176
     1
173
     0
176
     1
  0
VISUALSTYLE
  5
22E
102
{ACAD_REACTORS
330
217
102
}
102
{ACAD_XDICTIONARY
360
266
102
}
330
217
100
AcDbVisualStyle
  2
Shaded with edges
 70
    26
177
     2
291
     0
 71
     2
176
     1
 72
     2
176
     1
 73
     1
176
     1
 90
        2
176
     1
 40
0.6
176
     1
 41
30.0
176
     1
 62
     5
 63
     7
421
 16777215
176
     1
 74
     1
176
     1
 91
       10
176
     1
 64
     7
176
     1
 65
   257
176
     1
 75
     2
176
     1
175
     1
176
     1
 42
1.0
176
     1
 92
        8
176
     1
 66
   257
176
     1
 43
1.0
176
     1
 76
     1
176
     1
 77
     6
176
     1
 78
     2
176
     1
 67
     7
176
     1
 79
     3
176
     1
170
     0
176
     1
171
     0
176
     1
290
     0
176
     1
 93
        5
176
     1
 44
0.0
176
     1
173
     0
176
     1
  0
VISUALSTYLE
  5
22B
102
{ACAD_REACTORS
330
217
102
}
102
{ACAD_XDICTIONARY
360
260
102
}
330
217
100
AcDbVisualStyle
  2
Shades of Gray
 70
    23
177
     2
291
     0
 71
     2
176
     1
 72
     2
176
     1
 73
     3
176
     1
 90
        0
176
     1
 40
0.6
176
     1
 41
30.0
176
     1
 62
     5
 63
     7
421
 16777215
176
     1
 74
     2
176
     1
 91
        2
176
     1
 64
     7
176
     1
 65
     7
176
     1
 75
     1
176
     1
175
     1
176
     1
 42
40.0
176
     1
 92
        8
176
     1
 66
     7
176
     1
 43
1.0
176
     1
 76
     1
176
     1
 77
     6
176
     1
 78
     2
176
     1
 67
     7
176
     1
 79
     3
176
     1
170
     0
176
     1
171
     0
176
     1
290
     0
176
     1
 93
        1
176
     1
 44
0.0
176
     1
173
     0
176
     1
  0
VISUALSTYLE
  5
22C
102
{ACAD_REACTORS
330
217
102
}
102
{ACAD_XDICTIONARY
360
262
102
}
330
217
100
AcDbVisualStyle
  2
Sketchy
 70
    24
177
     2
291
     0
 71
     1
176
     1
 72
     2
176
     1
 73
     2
176
     1
 90
        0
176
     1
 40
0.6
176
     1
 41
30.0
176
     1
 62
     5
 63
     7
421
 16777215
176
     1
 74
     2
176
     1
 91
        2
176
     1
 64
     7
176
     1
 65
     7
176
     1
 75
     1
176
     1
175
     1
176
     1
 42
40.0
176
     1
 92
       11
176
     1
 66
     7
176
     1
 43
1.0
176
     1
 76
     1
176
     1
 77
     6
176
     1
 78
     2
176
     1
 67
     7
176
     1
 79
     6
176
     1
170
     0
176
     1
171
     0
176
     1
290
     0
176
     1
 93
        1
176
     1
 44
0.0
176
     1
173
     0
176
     1
  0
VISUALSTYLE
  5
224
102
{ACAD_REACTORS
330
217
102
}
102
{ACAD_XDICTIONARY
360
252
102
}
330
217
100
AcDbVisualStyle
  2
Thicken
 70
    13
177
     2
291
     1
 71
     2
176
     1
 72
     2
176
     1
 73
     0
176
     1
 90
        0
176
     1
 40
0.6
176
     1
 41
30.0
176
     1
 62
     5
 63
     7
421
 16777215
176
     1
 74
     1
176
     1
 91
        4
176
     1
 64
     7
176
     1
 65
   257
176
     1
 75
     1
176
     1
175
     1
176
     1
 42
1.0
176
     1
 92
       12
176
     1
 66
     7
176
     1
 43
1.0
176
     1
 76
     1
176
     1
 77
     6
176
     1
 78
     2
176
     1
 67
     7
176
     1
 79
     5
176
     1
170
     0
176
     1
171
     0
176
     1
290
     0
176
     1
 93
        1
176
     1
 44
0.0
176
     1
173
     0
176
     1
  0
VISUALSTYLE
  5
21D
102
{ACAD_REACTORS
330
217
102
}
102
{ACAD_XDICTIONARY
360
244
102
}
330
217
100
AcDbVisualStyle
  2
Wireframe
 70
     5
177
     2
291
     0
 71
     0
176
     1
 72
     2
176
     1
 73
     0
176
     1
 90
        0
176
     1
 40
0.6
176
     1
 41
30.0
176
     1
 62
     5
 63
     7
421
 16777215
176
     1
 74
     1
176
     1
 91
        4
176
     1
 64
     7
176
     1
 65
   257
176
     1
 75
     1
176
     1
175
     1
176
     1
 42
1.0
176
     1
 92
        0
176
     1
 66
   257
176
     1
 43
1.0
176
     1
 76
     1
176
     1
 77
     6
176
     1
 78
     2
176
     1
 67
     7
176
     1
 79
     3
176
     1
170
     0
176
     1
171
     0
176
     1
290
     0
176
     1
 93
        1
176
     1
 44
0.0
176
     1
173
     0
176
     1
  0
VISUALSTYLE
  5
22D
102
{ACAD_REACTORS
330
217
102
}
102
{ACAD_XDICTIONARY
360
264
102
}
330
217
100
AcDbVisualStyle
  2
X-Ray
 70
    25
177
     2
291
     0
 71
     2
176
     1
 72
     2
176
     1
 73
     1
176
     1
 90
        1
176
     1
 40
0.5
176
     1
 41
30.0
176
     1
 62
     5
 63
     7
421
 16777215
176
     1
 74
     1
176
     1
 91
        0
176
     1
 64
     7
176
     1
 65
   257
176
     1
 75
     1
176
     1
175
     1
176
     1
 42
1.0
176
     1
 92
        8
176
     1
 66
     7
176
     1
 43
1.0
176
     1
 76
     1
176
     1
 77
     6
176
     1
 78
     2
176
     1
 67
     7
176
     1
 79
     3
176
     1
170
     0
176
     1
171
     0
176
     1
290
     0
176
     1
 93
       13
176
     1
 44
0.0
176
     1
173
     0
176
     1
  0
DICTIONARYVAR
  5
239
102
{ACAD_REACTORS
330
238
102
}
330
238
100
DictionaryVariables
280
     0
  1
1:1
  0
DICTIONARYVAR
  5
26E
102
{ACAD_REACTORS
330
238
102
}
330
238
100
DictionaryVariables
280
     0
  1
Standard
  0
DICTIONARYVAR
  5
26D
102
{ACAD_REACTORS
330
238
102
}
330
238
100
DictionaryVariables
280
     0
  1
Standard
  0
DICTIONARYVAR
  5
26F
102
{ACAD_REACTORS
330
238
102
}
330
238
100
DictionaryVariables
280
     0
  1
0
  0
DICTIONARY
  5
26A
330
235
100
AcDbDictionary
280
     1
281
     1
  3
ACAD_ROUNDTRIP_2008_TABLESTYLE_CELLSTYLEMAP
360
26B
  0
DICTIONARY
  5
242
330
21C
100
AcDbDictionary
280
     1
281
     1
  3
ACAD_XREC_ROUNDTRIP
360
243
  0
DICTIONARY
  5
248
330
21F
100
AcDbDictionary
280
     1
281
     1
  3
ACAD_XREC_ROUNDTRIP
360
249
  0
DICTIONARY
  5
250
330
223
100
AcDbDictionary
280
     1
281
     1
  3
ACAD_XREC_ROUNDTRIP
360
251
  0
DICTIONARY
  5
258
330
227
100
AcDbDictionary
280
     1
281
     1
  3
ACAD_XREC_ROUNDTRIP
360
259
  0
DICTIONARY
  5
24C
330
221
100
AcDbDictionary
280
     1
281
     1
  3
ACAD_XREC_ROUNDTRIP
360
24D
  0
DICTIONARY
  5
24E
330
222
100
AcDbDictionary
280
     1
281
     1
  3
ACAD_XREC_ROUNDTRIP
360
24F
  0
DICTIONARY
  5
25E
330
22A
100
AcDbDictionary
280
     1
281
     1
  3
ACAD_XREC_ROUNDTRIP
360
25F
  0
DICTIONARY
  5
256
330
226
100
AcDbDictionary
280
     1
281
     1
  3
ACAD_XREC_ROUNDTRIP
360
257
  0
DICTIONARY
  5
23A
330
218
100
AcDbDictionary
280
     1
281
     1
  3
ACAD_XREC_ROUNDTRIP
360
23B
  0
DICTIONARY
  5
23C
330
219
100
AcDbDictionary
280
     1
281
     1
  3
ACAD_XREC_ROUNDTRIP
360
23D
  0
DICTIONARY
  5
23E
330
21A
100
AcDbDictionary
280
     1
281
     1
  3
ACAD_XREC_ROUNDTRIP
360
23F
  0
DICTIONARY
  5
240
330
21B
100
AcDbDictionary
280
     1
281
     1
  3
ACAD_XREC_ROUNDTRIP
360
241
  0
DICTIONARY
  5
246
330
21E
100
AcDbDictionary
280
     1
281
     1
  3
ACAD_XREC_ROUNDTRIP
360
247
  0
DICTIONARY
  5
25A
330
228
100
AcDbDictionary
280
     1
281
     1
  3
ACAD_XREC_ROUNDTRIP
360
25B
  0
DICTIONARY
  5
254
330
225
100
AcDbDictionary
280
     1
281
     1
  3
ACAD_XREC_ROUNDTRIP
360
255
  0
DICTIONARY
  5
25C
330
229
100
AcDbDictionary
280
     1
281
     1
  3
ACAD_XREC_ROUNDTRIP
360
25D
  0
DICTIONARY
  5
24A
330
220
100
AcDbDictionary
280
     1
281
     1
  3
ACAD_XREC_ROUNDTRIP
360
24B
  0
DICTIONARY
  5
268
330
22F
100
AcDbDictionary
280
     1
281
     1
  3
ACAD_XREC_ROUNDTRIP
360
269
  0
DICTIONARY
  5
266
330
22E
100
AcDbDictionary
280
     1
281
     1
  3
ACAD_XREC_ROUNDTRIP
360
267
  0
DICTIONARY
  5
260
330
22B
100
AcDbDictionary
280
     1
281
     1
  3
ACAD_XREC_ROUNDTRIP
360
261
  0
DICTIONARY
  5
262
330
22C
100
AcDbDictionary
280
     1
281
     1
  3
ACAD_XREC_ROUNDTRIP
360
263
  0
DICTIONARY
  5
252
330
224
100
AcDbDictionary
280
     1
281
     1
  3
ACAD_XREC_ROUNDTRIP
360
253
  0
DICTIONARY
  5
244
330
21D
100
AcDbDictionary
280
     1
281
     1
  3
ACAD_XREC_ROUNDTRIP
360
245
  0
DICTIONARY
  5
264
330
22D
100
AcDbDictionary
280
     1
281
     1
  3
ACAD_XREC_ROUNDTRIP
360
265
  0
CELLSTYLEMAP
  5
26B
102
{ACAD_REACTORS
330
26A
102
}
330
26A
100
AcDbCellStyleMap
 90
        3
300
CELLSTYLE
  1
TABLEFORMAT_BEGIN
 90
        5
170
     1
 91
        0
 92
    32768
 62
   257
 93
        1
300
CONTENTFORMAT
  1
CONTENTFORMAT_BEGIN
 90
        0
 91
        0
 92
        4
 93
        0
300

 40
0.0
140
1.0
 94
        5
 62
     0
340
17
144
0.25
309
CONTENTFORMAT_END
171
     1
301
MARGIN
  1
CELLMARGIN_BEGIN
 40
0.06
 40
0.06
 40
0.06
 40
0.06
 40
0.06
 40
0.06
309
CELLMARGIN_END
 94
        6
 95
        1
302
GRIDFORMAT
  1
GRIDFORMAT_BEGIN
 90
        0
 91
        1
 62
     0
 92
       -2
340
11
 93
        0
 40
0.045
309
GRIDFORMAT_END
 95
        2
302
GRIDFORMAT
  1
GRIDFORMAT_BEGIN
 90
        0
 91
        1
 62
     0
 92
       -2
340
11
 93
        0
 40
0.045
309
GRIDFORMAT_END
 95
        4
302
GRIDFORMAT
  1
GRIDFORMAT_BEGIN
 90
        0
 91
        1
 62
     0
 92
       -2
340
11
 93
        0
 40
0.045
309
GRIDFORMAT_END
 95
        8
302
GRIDFORMAT
  1
GRIDFORMAT_BEGIN
 90
        0
 91
        1
 62
     0
 92
       -2
340
11
 93
        0
 40
0.045
309
GRIDFORMAT_END
 95
       16
302
GRIDFORMAT
  1
GRIDFORMAT_BEGIN
 90
        0
 91
        1
 62
     0
 92
       -2
340
11
 93
        0
 40
0.045
309
GRIDFORMAT_END
 95
       32
302
GRIDFORMAT
  1
GRIDFORMAT_BEGIN
 90
        0
 91
        1
 62
     0
 92
       -2
340
11
 93
        0
 40
0.045
309
GRIDFORMAT_END
309
TABLEFORMAT_END
  1
CELLSTYLE_BEGIN
 90
        1
 91
        1
300
_TITLE
309
CELLSTYLE_END
300
CELLSTYLE
  1
TABLEFORMAT_BEGIN
 90
        5
170
     1
 91
        0
 92
        0
 62
   257
 93
        1
300
CONTENTFORMAT
  1
CONTENTFORMAT_BEGIN
 90
        0
 91
        0
 92
        4
 93
        0
300

 40
0.0
140
1.0
 94
        5
 62
     0
340
17
144
0.18
309
CONTENTFORMAT_END
171
     1
301
MARGIN
  1
CELLMARGIN_BEGIN
 40
0.06
 40
0.06
 40
0.06
 40
0.06
 40
0.06
 40
0.06
309
CELLMARGIN_END
 94
        6
 95
        1
302
GRIDFORMAT
  1
GRIDFORMAT_BEGIN
 90
        0
 91
        1
 62
     0
 92
       -2
340
11
 93
        0
 40
0.045
309
GRIDFORMAT_END
 95
        2
302
GRIDFORMAT
  1
GRIDFORMAT_BEGIN
 90
        0
 91
        1
 62
     0
 92
       -2
340
11
 93
        0
 40
0.045
309
GRIDFORMAT_END
 95
        4
302
GRIDFORMAT
  1
GRIDFORMAT_BEGIN
 90
        0
 91
        1
 62
     0
 92
       -2
340
11
 93
        0
 40
0.045
309
GRIDFORMAT_END
 95
        8
302
GRIDFORMAT
  1
GRIDFORMAT_BEGIN
 90
        0
 91
        1
 62
     0
 92
       -2
340
11
 93
        0
 40
0.045
309
GRIDFORMAT_END
 95
       16
302
GRIDFORMAT
  1
GRIDFORMAT_BEGIN
 90
        0
 91
        1
 62
     0
 92
       -2
340
11
 93
        0
 40
0.045
309
GRIDFORMAT_END
 95
       32
302
GRIDFORMAT
  1
GRIDFORMAT_BEGIN
 90
        0
 91
        1
 62
     0
 92
       -2
340
11
 93
        0
 40
0.045
309
GRIDFORMAT_END
309
TABLEFORMAT_END
  1
CELLSTYLE_BEGIN
 90
        2
 91
        1
300
_HEADER
309
CELLSTYLE_END
300
CELLSTYLE
  1
TABLEFORMAT_BEGIN
 90
        5
170
     1
 91
        0
 92
        0
 62
   257
 93
        1
300
CONTENTFORMAT
  1
CONTENTFORMAT_BEGIN
 90
        0
 91
        0
 92
        4
 93
        0
300

 40
0.0
140
1.0
 94
        2
 62
     0
340
17
144
0.18
309
CONTENTFORMAT_END
171
     1
301
MARGIN
  1
CELLMARGIN_BEGIN
 40
0.06
 40
0.06
 40
0.06
 40
0.06
 40
0.06
 40
0.06
309
CELLMARGIN_END
 94
        6
 95
        1
302
GRIDFORMAT
  1
GRIDFORMAT_BEGIN
 90
        0
 91
        1
 62
     0
 92
       -2
340
11
 93
        0
 40
0.045
309
GRIDFORMAT_END
 95
        2
302
GRIDFORMAT
  1
GRIDFORMAT_BEGIN
 90
        0
 91
        1
 62
     0
 92
       -2
340
11
 93
        0
 40
0.045
309
GRIDFORMAT_END
 95
        4
302
GRIDFORMAT
  1
GRIDFORMAT_BEGIN
 90
        0
 91
        1
 62
     0
 92
       -2
340
11
 93
        0
 40
0.045
309
GRIDFORMAT_END
 95
        8
302
GRIDFORMAT
  1
GRIDFORMAT_BEGIN
 90
        0
 91
        1
 62
     0
 92
       -2
340
11
 93
        0
 40
0.045
309
GRIDFORMAT_END
 95
       16
302
GRIDFORMAT
  1
GRIDFORMAT_BEGIN
 90
        0
 91
        1
 62
     0
 92
       -2
340
11
 93
        0
 40
0.045
309
GRIDFORMAT_END
 95
       32
302
GRIDFORMAT
  1
GRIDFORMAT_BEGIN
 90
        0
 91
        1
 62
     0
 92
       -2
340
11
 93
        0
 40
0.045
309
GRIDFORMAT_END
309
TABLEFORMAT_END
  1
CELLSTYLE_BEGIN
 90
        3
 91
        2
300
_DATA
309
CELLSTYLE_END
  0
XRECORD
  5
243
102
{ACAD_REACTORS
330
242
102
}
330
242
100
AcDbXrecord
280
     1
102
RTVSPost2010Prop28
280
     1
102
RTVSPost2010PropOp28
 70
     1
102
RTVSPost2010Prop29
280
     1
102
RTVSPost2010PropOp29
 70
     1
102
RTVSPost2010Prop30
280
     0
102
RTVSPost2010PropOp30
 70
     1
102
RTVSPost2010Prop31
280
     0
102
RTVSPost2010PropOp31
 70
     1
102
RTVSPost2010Prop32
280
     0
102
RTVSPost2010PropOp32
 70
     1
102
RTVSPost2010Prop33
280
     0
102
RTVSPost2010PropOp33
 70
     1
102
RTVSPost2010Prop34
280
     0
102
RTVSPost2010PropOp34
 70
     1
102
RTVSPost2010Prop35
280
     0
102
RTVSPost2010PropOp35
 70
     1
102
RTVSPost2010Prop36
280
     0
102
RTVSPost2010PropOp36
 70
     1
102
RTVSPost2010Prop37
 90
       50
102
RTVSPost2010PropOp37
 70
     1
102
RTVSPost2010Prop38
140
0.0
102
RTVSPost2010PropOp38
 70
     1
102
RTVSPost2010Prop39
140
1.0
102
RTVSPost2010PropOp39
 70
     1
102
RTVSPost2010Prop40
 90
        0
102
RTVSPost2010PropOp40
 70
     1
102
RTVSPost2010Prop41ColorIndex
 90
       18
102
RTVSPost2010Prop41ColorRGB
 90
        0
102
RTVSPost2010PropOp41
 70
     1
102
RTVSPost2010Prop42
 90
       50
102
RTVSPost2010PropOp42
 70
     1
102
RTVSPost2010Prop43
 90
        3
102
RTVSPost2010PropOp43
 70
     1
102
RTVSPost2010Prop44ColorIndex
 90
        5
102
RTVSPost2010Prop44ColorRGB
 90
      255
102
RTVSPost2010PropOp44
 70
     1
102
RTVSPost2010Prop45
280
     0
102
RTVSPost2010PropOp45
 70
     1
102
RTVSPost2010Prop46
 90
       50
102
RTVSPost2010PropOp46
 70
     1
102
RTVSPost2010Prop47
 90
       50
102
RTVSPost2010PropOp47
 70
     1
102
RTVSPost2010Prop48
 90
       50
102
RTVSPost2010PropOp48
 70
     1
102
RTVSPost2010Prop49
280
     0
102
RTVSPost2010PropOp49
 70
     1
102
RTVSPost2010Prop50
 90
       50
102
RTVSPost2010PropOp50
 70
     1
102
RTVSPost2010Prop51ColorIndex
 90
      256
102
RTVSPost2010Prop51ColorRGB
 90
-16777216
102
RTVSPost2010PropOp51
 70
     0
102
RTVSPost2010Prop52
140
1.0
102
RTVSPost2010PropOp52
 70
     0
102
RTVSPost2010Prop53
 90
        2
102
RTVSPost2010PropOp53
 70
     1
102
RTVSPost2010Prop54
  1
strokes_ogs.tif
102
RTVSPost2010PropOp54
 70
     1
102
RTVSPost2010Prop55
280
     0
102
RTVSPost2010PropOp55
 70
     1
102
RTVSPost2010Prop56
140
1.0
102
RTVSPost2010PropOp56
 70
     1
102
RTVSPost2010Prop57
140
1.0
102
RTVSPost2010PropOp57
 70
     1
  0
XRECORD
  5
249
102
{ACAD_REACTORS
330
248
102
}
330
248
100
AcDbXrecord
280
     1
102
RTVSPost2010Prop28
280
     0
102
RTVSPost2010PropOp28
 70
     1
102
RTVSPost2010Prop29
280
     1
102
RTVSPost2010PropOp29
 70
     1
102
RTVSPost2010Prop30
280
     1
102
RTVSPost2010PropOp30
 70
     1
102
RTVSPost2010Prop31
280
     0
102
RTVSPost2010PropOp31
 70
     1
102
RTVSPost2010Prop32
280
     0
102
RTVSPost2010PropOp32
 70
     1
102
RTVSPost2010Prop33
280
     0
102
RTVSPost2010PropOp33
 70
     1
102
RTVSPost2010Prop34
280
     0
102
RTVSPost2010PropOp34
 70
     1
102
RTVSPost2010Prop35
280
     0
102
RTVSPost2010PropOp35
 70
     1
102
RTVSPost2010Prop36
280
     0
102
RTVSPost2010PropOp36
 70
     1
102
RTVSPost2010Prop37
 90
       50
102
RTVSPost2010PropOp37
 70
     1
102
RTVSPost2010Prop38
140
0.0
102
RTVSPost2010PropOp38
 70
     1
102
RTVSPost2010Prop39
140
1.0
102
RTVSPost2010PropOp39
 70
     1
102
RTVSPost2010Prop40
 90
        0
102
RTVSPost2010PropOp40
 70
     1
102
RTVSPost2010Prop41ColorIndex
 90
       18
102
RTVSPost2010Prop41ColorRGB
 90
        0
102
RTVSPost2010PropOp41
 70
     1
102
RTVSPost2010Prop42
 90
       50
102
RTVSPost2010PropOp42
 70
     1
102
RTVSPost2010Prop43
 90
        3
102
RTVSPost2010PropOp43
 70
     1
102
RTVSPost2010Prop44ColorIndex
 90
        5
102
RTVSPost2010Prop44ColorRGB
 90
      255
102
RTVSPost2010PropOp44
 70
     1
102
RTVSPost2010Prop45
280
     0
102
RTVSPost2010PropOp45
 70
     1
102
RTVSPost2010Prop46
 90
       50
102
RTVSPost2010PropOp46
 70
     1
102
RTVSPost2010Prop47
 90
       50
102
RTVSPost2010PropOp47
 70
     1
102
RTVSPost2010Prop48
 90
       50
102
RTVSPost2010PropOp48
 70
     1
102
RTVSPost2010Prop49
280
     0
102
RTVSPost2010PropOp49
 70
     1
102
RTVSPost2010Prop50
 90
       50
102
RTVSPost2010PropOp50
 70
     1
102
RTVSPost2010Prop51ColorIndex
 90
      256
102
RTVSPost2010Prop51ColorRGB
 90
-16777216
102
RTVSPost2010PropOp51
 70
     0
102
RTVSPost2010Prop52
140
1.0
102
RTVSPost2010PropOp52
 70
     0
102
RTVSPost2010Prop53
 90
        2
102
RTVSPost2010PropOp53
 70
     1
102
RTVSPost2010Prop54
  1
strokes_ogs.tif
102
RTVSPost2010PropOp54
 70
     1
102
RTVSPost2010Prop55
280
     0
102
RTVSPost2010PropOp55
 70
     1
102
RTVSPost2010Prop56
140
1.0
102
RTVSPost2010PropOp56
 70
     1
102
RTVSPost2010Prop57
140
1.0
102
RTVSPost2010PropOp57
 70
     1
  0
XRECORD
  5
251
102
{ACAD_REACTORS
330
250
102
}
330
250
100
AcDbXrecord
280
     1
102
RTVSPost2010Prop28
280
     0
102
RTVSPost2010PropOp28
 70
     1
102
RTVSPost2010Prop29
280
     1
102
RTVSPost2010PropOp29
 70
     1
102
RTVSPost2010Prop30
280
     1
102
RTVSPost2010PropOp30
 70
     1
102
RTVSPost2010Prop31
280
     0
102
RTVSPost2010PropOp31
 70
     1
102
RTVSPost2010Prop32
280
     0
102
RTVSPost2010PropOp32
 70
     1
102
RTVSPost2010Prop33
280
     0
102
RTVSPost2010PropOp33
 70
     1
102
RTVSPost2010Prop34
280
     0
102
RTVSPost2010PropOp34
 70
     1
102
RTVSPost2010Prop35
280
     0
102
RTVSPost2010PropOp35
 70
     1
102
RTVSPost2010Prop36
280
     0
102
RTVSPost2010PropOp36
 70
     1
102
RTVSPost2010Prop37
 90
       50
102
RTVSPost2010PropOp37
 70
     1
102
RTVSPost2010Prop38
140
0.0
102
RTVSPost2010PropOp38
 70
     1
102
RTVSPost2010Prop39
140
1.0
102
RTVSPost2010PropOp39
 70
     1
102
RTVSPost2010Prop40
 90
        0
102
RTVSPost2010PropOp40
 70
     1
102
RTVSPost2010Prop41ColorIndex
 90
       18
102
RTVSPost2010Prop41ColorRGB
 90
        0
102
RTVSPost2010PropOp41
 70
     1
102
RTVSPost2010Prop42
 90
       50
102
RTVSPost2010PropOp42
 70
     1
102
RTVSPost2010Prop43
 90
        3
102
RTVSPost2010PropOp43
 70
     1
102
RTVSPost2010Prop44ColorIndex
 90
        5
102
RTVSPost2010Prop44ColorRGB
 90
      255
102
RTVSPost2010PropOp44
 70
     1
102
RTVSPost2010Prop45
280
     0
102
RTVSPost2010PropOp45
 70
     1
102
RTVSPost2010Prop46
 90
       50
102
RTVSPost2010PropOp46
 70
     1
102
RTVSPost2010Prop47
 90
       50
102
RTVSPost2010PropOp47
 70
     1
102
RTVSPost2010Prop48
 90
       50
102
RTVSPost2010PropOp48
 70
     1
102
RTVSPost2010Prop49
280
     0
102
RTVSPost2010PropOp49
 70
     1
102
RTVSPost2010Prop50
 90
       50
102
RTVSPost2010PropOp50
 70
     1
102
RTVSPost2010Prop51ColorIndex
 90
      256
102
RTVSPost2010Prop51ColorRGB
 90
-16777216
102
RTVSPost2010PropOp51
 70
     0
102
RTVSPost2010Prop52
140
1.0
102
RTVSPost2010PropOp52
 70
     0
102
RTVSPost2010Prop53
 90
        2
102
RTVSPost2010PropOp53
 70
     1
102
RTVSPost2010Prop54
  1
strokes_ogs.tif
102
RTVSPost2010PropOp54
 70
     1
102
RTVSPost2010Prop55
280
     0
102
RTVSPost2010PropOp55
 70
     1
102
RTVSPost2010Prop56
140
1.0
102
RTVSPost2010PropOp56
 70
     1
102
RTVSPost2010Prop57
140
1.0
102
RTVSPost2010PropOp57
 70
     1
  0
XRECORD
  5
259
102
{ACAD_REACTORS
330
258
102
}
330
258
100
AcDbXrecord
280
     1
102
RTVSPost2010Prop28
280
     0
102
RTVSPost2010PropOp28
 70
     1
102
RTVSPost2010Prop29
280
     1
102
RTVSPost2010PropOp29
 70
     1
102
RTVSPost2010Prop30
280
     1
102
RTVSPost2010PropOp30
 70
     1
102
RTVSPost2010Prop31
280
     0
102
RTVSPost2010PropOp31
 70
     1
102
RTVSPost2010Prop32
280
     0
102
RTVSPost2010PropOp32
 70
     1
102
RTVSPost2010Prop33
280
     0
102
RTVSPost2010PropOp33
 70
     1
102
RTVSPost2010Prop34
280
     0
102
RTVSPost2010PropOp34
 70
     1
102
RTVSPost2010Prop35
280
     0
102
RTVSPost2010PropOp35
 70
     1
102
RTVSPost2010Prop36
280
     0
102
RTVSPost2010PropOp36
 70
     1
102
RTVSPost2010Prop37
 90
       50
102
RTVSPost2010PropOp37
 70
     1
102
RTVSPost2010Prop38
140
0.0
102
RTVSPost2010PropOp38
 70
     1
102
RTVSPost2010Prop39
140
1.0
102
RTVSPost2010PropOp39
 70
     1
102
RTVSPost2010Prop40
 90
        0
102
RTVSPost2010PropOp40
 70
     1
102
RTVSPost2010Prop41ColorIndex
 90
       18
102
RTVSPost2010Prop41ColorRGB
 90
        0
102
RTVSPost2010PropOp41
 70
     1
102
RTVSPost2010Prop42
 90
       50
102
RTVSPost2010PropOp42
 70
     1
102
RTVSPost2010Prop43
 90
        3
102
RTVSPost2010PropOp43
 70
     1
102
RTVSPost2010Prop44ColorIndex
 90
        5
102
RTVSPost2010Prop44ColorRGB
 90
      255
102
RTVSPost2010PropOp44
 70
     1
102
RTVSPost2010Prop45
280
     0
102
RTVSPost2010PropOp45
 70
     1
102
RTVSPost2010Prop46
 90
       50
102
RTVSPost2010PropOp46
 70
     1
102
RTVSPost2010Prop47
 90
       50
102
RTVSPost2010PropOp47
 70
     1
102
RTVSPost2010Prop48
 90
       50
102
RTVSPost2010PropOp48
 70
     1
102
RTVSPost2010Prop49
280
     0
102
RTVSPost2010PropOp49
 70
     1
102
RTVSPost2010Prop50
 90
       50
102
RTVSPost2010PropOp50
 70
     1
102
RTVSPost2010Prop51ColorIndex
 90
      256
102
RTVSPost2010Prop51ColorRGB
 90
-16777216
102
RTVSPost2010PropOp51
 70
     0
102
RTVSPost2010Prop52
140
1.0
102
RTVSPost2010PropOp52
 70
     0
102
RTVSPost2010Prop53
 90
        2
102
RTVSPost2010PropOp53
 70
     1
102
RTVSPost2010Prop54
  1
strokes_ogs.tif
102
RTVSPost2010PropOp54
 70
     1
102
RTVSPost2010Prop55
280
     0
102
RTVSPost2010PropOp55
 70
     1
102
RTVSPost2010Prop56
140
1.0
102
RTVSPost2010PropOp56
 70
     1
102
RTVSPost2010Prop57
140
1.0
102
RTVSPost2010PropOp57
 70
     1
  0
XRECORD
  5
24D
102
{ACAD_REACTORS
330
24C
102
}
330
24C
100
AcDbXrecord
280
     1
102
RTVSPost2010Prop28
280
     0
102
RTVSPost2010PropOp28
 70
     1
102
RTVSPost2010Prop29
280
     1
102
RTVSPost2010PropOp29
 70
     1
102
RTVSPost2010Prop30
280
     1
102
RTVSPost2010PropOp30
 70
     1
102
RTVSPost2010Prop31
280
     0
102
RTVSPost2010PropOp31
 70
     1
102
RTVSPost2010Prop32
280
     0
102
RTVSPost2010PropOp32
 70
     1
102
RTVSPost2010Prop33
280
     0
102
RTVSPost2010PropOp33
 70
     1
102
RTVSPost2010Prop34
280
     0
102
RTVSPost2010PropOp34
 70
     1
102
RTVSPost2010Prop35
280
     0
102
RTVSPost2010PropOp35
 70
     1
102
RTVSPost2010Prop36
280
     0
102
RTVSPost2010PropOp36
 70
     1
102
RTVSPost2010Prop37
 90
       50
102
RTVSPost2010PropOp37
 70
     1
102
RTVSPost2010Prop38
140
0.0
102
RTVSPost2010PropOp38
 70
     1
102
RTVSPost2010Prop39
140
1.0
102
RTVSPost2010PropOp39
 70
     1
102
RTVSPost2010Prop40
 90
        0
102
RTVSPost2010PropOp40
 70
     1
102
RTVSPost2010Prop41ColorIndex
 90
       18
102
RTVSPost2010Prop41ColorRGB
 90
        0
102
RTVSPost2010PropOp41
 70
     1
102
RTVSPost2010Prop42
 90
       50
102
RTVSPost2010PropOp42
 70
     1
102
RTVSPost2010Prop43
 90
        3
102
RTVSPost2010PropOp43
 70
     1
102
RTVSPost2010Prop44ColorIndex
 90
        5
102
RTVSPost2010Prop44ColorRGB
 90
      255
102
RTVSPost2010PropOp44
 70
     1
102
RTVSPost2010Prop45
280
     0
102
RTVSPost2010PropOp45
 70
     1
102
RTVSPost2010Prop46
 90
       50
102
RTVSPost2010PropOp46
 70
     1
102
RTVSPost2010Prop47
 90
       50
102
RTVSPost2010PropOp47
 70
     1
102
RTVSPost2010Prop48
 90
       50
102
RTVSPost2010PropOp48
 70
     1
102
RTVSPost2010Prop49
280
     0
102
RTVSPost2010PropOp49
 70
     1
102
RTVSPost2010Prop50
 90
       50
102
RTVSPost2010PropOp50
 70
     1
102
RTVSPost2010Prop51ColorIndex
 90
      256
102
RTVSPost2010Prop51ColorRGB
 90
-16777216
102
RTVSPost2010PropOp51
 70
     0
102
RTVSPost2010Prop52
140
1.0
102
RTVSPost2010PropOp52
 70
     0
102
RTVSPost2010Prop53
 90
        2
102
RTVSPost2010PropOp53
 70
     1
102
RTVSPost2010Prop54
  1
strokes_ogs.tif
102
RTVSPost2010PropOp54
 70
     1
102
RTVSPost2010Prop55
280
     0
102
RTVSPost2010PropOp55
 70
     1
102
RTVSPost2010Prop56
140
1.0
102
RTVSPost2010PropOp56
 70
     1
102
RTVSPost2010Prop57
140
1.0
102
RTVSPost2010PropOp57
 70
     1
  0
XRECORD
  5
24F
102
{ACAD_REACTORS
330
24E
102
}
330
24E
100
AcDbXrecord
280
     1
102
RTVSPost2010Prop28
280
     0
102
RTVSPost2010PropOp28
 70
     1
102
RTVSPost2010Prop29
280
     1
102
RTVSPost2010PropOp29
 70
     1
102
RTVSPost2010Prop30
280
     1
102
RTVSPost2010PropOp30
 70
     1
102
RTVSPost2010Prop31
280
     0
102
RTVSPost2010PropOp31
 70
     1
102
RTVSPost2010Prop32
280
     0
102
RTVSPost2010PropOp32
 70
     1
102
RTVSPost2010Prop33
280
     0
102
RTVSPost2010PropOp33
 70
     1
102
RTVSPost2010Prop34
280
     0
102
RTVSPost2010PropOp34
 70
     1
102
RTVSPost2010Prop35
280
     0
102
RTVSPost2010PropOp35
 70
     1
102
RTVSPost2010Prop36
280
     0
102
RTVSPost2010PropOp36
 70
     1
102
RTVSPost2010Prop37
 90
       50
102
RTVSPost2010PropOp37
 70
     1
102
RTVSPost2010Prop38
140
0.0
102
RTVSPost2010PropOp38
 70
     1
102
RTVSPost2010Prop39
140
1.0
102
RTVSPost2010PropOp39
 70
     1
102
RTVSPost2010Prop40
 90
        0
102
RTVSPost2010PropOp40
 70
     1
102
RTVSPost2010Prop41ColorIndex
 90
       18
102
RTVSPost2010Prop41ColorRGB
 90
        0
102
RTVSPost2010PropOp41
 70
     1
102
RTVSPost2010Prop42
 90
       50
102
RTVSPost2010PropOp42
 70
     1
102
RTVSPost2010Prop43
 90
        3
102
RTVSPost2010PropOp43
 70
     1
102
RTVSPost2010Prop44ColorIndex
 90
        5
102
RTVSPost2010Prop44ColorRGB
 90
      255
102
RTVSPost2010PropOp44
 70
     1
102
RTVSPost2010Prop45
280
     0
102
RTVSPost2010PropOp45
 70
     1
102
RTVSPost2010Prop46
 90
       50
102
RTVSPost2010PropOp46
 70
     1
102
RTVSPost2010Prop47
 90
       50
102
RTVSPost2010PropOp47
 70
     1
102
RTVSPost2010Prop48
 90
       50
102
RTVSPost2010PropOp48
 70
     1
102
RTVSPost2010Prop49
280
     0
102
RTVSPost2010PropOp49
 70
     1
102
RTVSPost2010Prop50
 90
       50
102
RTVSPost2010PropOp50
 70
     1
102
RTVSPost2010Prop51ColorIndex
 90
      256
102
RTVSPost2010Prop51ColorRGB
 90
-16777216
102
RTVSPost2010PropOp51
 70
     0
102
RTVSPost2010Prop52
140
1.0
102
RTVSPost2010PropOp52
 70
     0
102
RTVSPost2010Prop53
 90
        2
102
RTVSPost2010PropOp53
 70
     1
102
RTVSPost2010Prop54
  1
strokes_ogs.tif
102
RTVSPost2010PropOp54
 70
     1
102
RTVSPost2010Prop55
280
     0
102
RTVSPost2010PropOp55
 70
     1
102
RTVSPost2010Prop56
140
1.0
102
RTVSPost2010PropOp56
 70
     1
102
RTVSPost2010Prop57
140
1.0
102
RTVSPost2010PropOp57
 70
     1
  0
XRECORD
  5
25F
102
{ACAD_REACTORS
330
25E
102
}
330
25E
100
AcDbXrecord
280
     1
102
RTVSPost2010Prop28
280
     0
102
RTVSPost2010PropOp28
 70
     0
102
RTVSPost2010Prop29
280
     1
102
RTVSPost2010PropOp29
 70
     0
102
RTVSPost2010Prop30
280
     1
102
RTVSPost2010PropOp30
 70
     0
102
RTVSPost2010Prop31
280
     0
102
RTVSPost2010PropOp31
 70
     0
102
RTVSPost2010Prop32
280
     0
102
RTVSPost2010PropOp32
 70
     0
102
RTVSPost2010Prop33
280
     0
102
RTVSPost2010PropOp33
 70
     0
102
RTVSPost2010Prop34
280
     0
102
RTVSPost2010PropOp34
 70
     0
102
RTVSPost2010Prop35
280
     0
102
RTVSPost2010PropOp35
 70
     0
102
RTVSPost2010Prop36
280
     0
102
RTVSPost2010PropOp36
 70
     0
102
RTVSPost2010Prop37
 90
       50
102
RTVSPost2010PropOp37
 70
     0
102
RTVSPost2010Prop38
140
0.0
102
RTVSPost2010PropOp38
 70
     0
102
RTVSPost2010Prop39
140
1.0
102
RTVSPost2010PropOp39
 70
     0
102
RTVSPost2010Prop40
 90
        0
102
RTVSPost2010PropOp40
 70
     0
102
RTVSPost2010Prop41ColorIndex
 90
       18
102
RTVSPost2010Prop41ColorRGB
 90
        0
102
RTVSPost2010PropOp41
 70
     0
102
RTVSPost2010Prop42
 90
       50
102
RTVSPost2010PropOp42
 70
     0
102
RTVSPost2010Prop43
 90
        3
102
RTVSPost2010PropOp43
 70
     0
102
RTVSPost2010Prop44ColorIndex
 90
        5
102
RTVSPost2010Prop44ColorRGB
 90
      255
102
RTVSPost2010PropOp44
 70
     0
102
RTVSPost2010Prop45
280
     0
102
RTVSPost2010PropOp45
 70
     0
102
RTVSPost2010Prop46
 90
       50
102
RTVSPost2010PropOp46
 70
     0
102
RTVSPost2010Prop47
 90
       50
102
RTVSPost2010PropOp47
 70
     0
102
RTVSPost2010Prop48
 90
       50
102
RTVSPost2010PropOp48
 70
     0
102
RTVSPost2010Prop49
280
     0
102
RTVSPost2010PropOp49
 70
     0
102
RTVSPost2010Prop50
 90
       50
102
RTVSPost2010PropOp50
 70
     0
102
RTVSPost2010Prop51ColorIndex
 90
      256
102
RTVSPost2010Prop51ColorRGB
 90
-16777216
102
RTVSPost2010PropOp51
 70
     0
102
RTVSPost2010Prop52
140
1.0
102
RTVSPost2010PropOp52
 70
     0
102
RTVSPost2010Prop53
 90
        2
102
RTVSPost2010PropOp53
 70
     0
102
RTVSPost2010Prop54
  1
strokes_ogs.tif
102
RTVSPost2010PropOp54
 70
     0
102
RTVSPost2010Prop55
280
     0
102
RTVSPost2010PropOp55
 70
     0
102
RTVSPost2010Prop56
140
1.0
102
RTVSPost2010PropOp56
 70
     0
102
RTVSPost2010Prop57
140
1.0
102
RTVSPost2010PropOp57
 70
     0
  0
XRECORD
  5
257
102
{ACAD_REACTORS
330
256
102
}
330
256
100
AcDbXrecord
280
     1
102
RTVSPost2010Prop28
280
     0
102
RTVSPost2010PropOp28
 70
     1
102
RTVSPost2010Prop29
280
     1
102
RTVSPost2010PropOp29
 70
     1
102
RTVSPost2010Prop30
280
     1
102
RTVSPost2010PropOp30
 70
     1
102
RTVSPost2010Prop31
280
     0
102
RTVSPost2010PropOp31
 70
     1
102
RTVSPost2010Prop32
280
     0
102
RTVSPost2010PropOp32
 70
     1
102
RTVSPost2010Prop33
280
     0
102
RTVSPost2010PropOp33
 70
     1
102
RTVSPost2010Prop34
280
     0
102
RTVSPost2010PropOp34
 70
     1
102
RTVSPost2010Prop35
280
     0
102
RTVSPost2010PropOp35
 70
     1
102
RTVSPost2010Prop36
280
     0
102
RTVSPost2010PropOp36
 70
     1
102
RTVSPost2010Prop37
 90
       50
102
RTVSPost2010PropOp37
 70
     1
102
RTVSPost2010Prop38
140
0.0
102
RTVSPost2010PropOp38
 70
     1
102
RTVSPost2010Prop39
140
1.0
102
RTVSPost2010PropOp39
 70
     1
102
RTVSPost2010Prop40
 90
        0
102
RTVSPost2010PropOp40
 70
     1
102
RTVSPost2010Prop41ColorIndex
 90
       18
102
RTVSPost2010Prop41ColorRGB
 90
        0
102
RTVSPost2010PropOp41
 70
     1
102
RTVSPost2010Prop42
 90
       50
102
RTVSPost2010PropOp42
 70
     1
102
RTVSPost2010Prop43
 90
        3
102
RTVSPost2010PropOp43
 70
     1
102
RTVSPost2010Prop44ColorIndex
 90
        5
102
RTVSPost2010Prop44ColorRGB
 90
      255
102
RTVSPost2010PropOp44
 70
     1
102
RTVSPost2010Prop45
280
     0
102
RTVSPost2010PropOp45
 70
     1
102
RTVSPost2010Prop46
 90
       50
102
RTVSPost2010PropOp46
 70
     1
102
RTVSPost2010Prop47
 90
       50
102
RTVSPost2010PropOp47
 70
     1
102
RTVSPost2010Prop48
 90
       50
102
RTVSPost2010PropOp48
 70
     1
102
RTVSPost2010Prop49
280
     0
102
RTVSPost2010PropOp49
 70
     1
102
RTVSPost2010Prop50
 90
       50
102
RTVSPost2010PropOp50
 70
     1
102
RTVSPost2010Prop51ColorIndex
 90
      256
102
RTVSPost2010Prop51ColorRGB
 90
-16777216
102
RTVSPost2010PropOp51
 70
     0
102
RTVSPost2010Prop52
140
1.0
102
RTVSPost2010PropOp52
 70
     0
102
RTVSPost2010Prop53
 90
        2
102
RTVSPost2010PropOp53
 70
     1
102
RTVSPost2010Prop54
  1
strokes_ogs.tif
102
RTVSPost2010PropOp54
 70
     1
102
RTVSPost2010Prop55
280
     0
102
RTVSPost2010PropOp55
 70
     1
102
RTVSPost2010Prop56
140
1.0
102
RTVSPost2010PropOp56
 70
     1
102
RTVSPost2010Prop57
140
1.0
102
RTVSPost2010PropOp57
 70
     1
  0
XRECORD
  5
23B
102
{ACAD_REACTORS
330
23A
102
}
330
23A
100
AcDbXrecord
280
     1
102
RTVSPost2010Prop28
280
     0
102
RTVSPost2010PropOp28
 70
     1
102
RTVSPost2010Prop29
280
     1
102
RTVSPost2010PropOp29
 70
     1
102
RTVSPost2010Prop30
280
     1
102
RTVSPost2010PropOp30
 70
     1
102
RTVSPost2010Prop31
280
     0
102
RTVSPost2010PropOp31
 70
     1
102
RTVSPost2010Prop32
280
     0
102
RTVSPost2010PropOp32
 70
     1
102
RTVSPost2010Prop33
280
     0
102
RTVSPost2010PropOp33
 70
     1
102
RTVSPost2010Prop34
280
     0
102
RTVSPost2010PropOp34
 70
     1
102
RTVSPost2010Prop35
280
     0
102
RTVSPost2010PropOp35
 70
     1
102
RTVSPost2010Prop36
280
     0
102
RTVSPost2010PropOp36
 70
     1
102
RTVSPost2010Prop37
 90
       50
102
RTVSPost2010PropOp37
 70
     1
102
RTVSPost2010Prop38
140
0.0
102
RTVSPost2010PropOp38
 70
     1
102
RTVSPost2010Prop39
140
1.0
102
RTVSPost2010PropOp39
 70
     1
102
RTVSPost2010Prop40
 90
        0
102
RTVSPost2010PropOp40
 70
     1
102
RTVSPost2010Prop41ColorIndex
 90
       18
102
RTVSPost2010Prop41ColorRGB
 90
        0
102
RTVSPost2010PropOp41
 70
     1
102
RTVSPost2010Prop42
 90
       50
102
RTVSPost2010PropOp42
 70
     1
102
RTVSPost2010Prop43
 90
        3
102
RTVSPost2010PropOp43
 70
     1
102
RTVSPost2010Prop44ColorIndex
 90
        5
102
RTVSPost2010Prop44ColorRGB
 90
      255
102
RTVSPost2010PropOp44
 70
     1
102
RTVSPost2010Prop45
280
     0
102
RTVSPost2010PropOp45
 70
     1
102
RTVSPost2010Prop46
 90
       50
102
RTVSPost2010PropOp46
 70
     1
102
RTVSPost2010Prop47
 90
       50
102
RTVSPost2010PropOp47
 70
     1
102
RTVSPost2010Prop48
 90
       50
102
RTVSPost2010PropOp48
 70
     1
102
RTVSPost2010Prop49
280
     0
102
RTVSPost2010PropOp49
 70
     1
102
RTVSPost2010Prop50
 90
       50
102
RTVSPost2010PropOp50
 70
     1
102
RTVSPost2010Prop51ColorIndex
 90
      256
102
RTVSPost2010Prop51ColorRGB
 90
-16777216
102
RTVSPost2010PropOp51
 70
     0
102
RTVSPost2010Prop52
140
1.0
102
RTVSPost2010PropOp52
 70
     0
102
RTVSPost2010Prop53
 90
        2
102
RTVSPost2010PropOp53
 70
     1
102
RTVSPost2010Prop54
  1
strokes_ogs.tif
102
RTVSPost2010PropOp54
 70
     1
102
RTVSPost2010Prop55
280
     0
102
RTVSPost2010PropOp55
 70
     1
102
RTVSPost2010Prop56
140
1.0
102
RTVSPost2010PropOp56
 70
     1
102
RTVSPost2010Prop57
140
1.0
102
RTVSPost2010PropOp57
 70
     1
  0
XRECORD
  5
23D
102
{ACAD_REACTORS
330
23C
102
}
330
23C
100
AcDbXrecord
280
     1
102
RTVSPost2010Prop28
280
     0
102
RTVSPost2010PropOp28
 70
     1
102
RTVSPost2010Prop29
280
     1
102
RTVSPost2010PropOp29
 70
     1
102
RTVSPost2010Prop30
280
     1
102
RTVSPost2010PropOp30
 70
     1
102
RTVSPost2010Prop31
280
     0
102
RTVSPost2010PropOp31
 70
     1
102
RTVSPost2010Prop32
280
     0
102
RTVSPost2010PropOp32
 70
     1
102
RTVSPost2010Prop33
280
     0
102
RTVSPost2010PropOp33
 70
     1
102
RTVSPost2010Prop34
280
     0
102
RTVSPost2010PropOp34
 70
     1
102
RTVSPost2010Prop35
280
     0
102
RTVSPost2010PropOp35
 70
     1
102
RTVSPost2010Prop36
280
     0
102
RTVSPost2010PropOp36
 70
     1
102
RTVSPost2010Prop37
 90
       50
102
RTVSPost2010PropOp37
 70
     1
102
RTVSPost2010Prop38
140
0.0
102
RTVSPost2010PropOp38
 70
     1
102
RTVSPost2010Prop39
140
1.0
102
RTVSPost2010PropOp39
 70
     1
102
RTVSPost2010Prop40
 90
        0
102
RTVSPost2010PropOp40
 70
     1
102
RTVSPost2010Prop41ColorIndex
 90
       18
102
RTVSPost2010Prop41ColorRGB
 90
        0
102
RTVSPost2010PropOp41
 70
     1
102
RTVSPost2010Prop42
 90
       50
102
RTVSPost2010PropOp42
 70
     1
102
RTVSPost2010Prop43
 90
        3
102
RTVSPost2010PropOp43
 70
     1
102
RTVSPost2010Prop44ColorIndex
 90
        5
102
RTVSPost2010Prop44ColorRGB
 90
      255
102
RTVSPost2010PropOp44
 70
     1
102
RTVSPost2010Prop45
280
     0
102
RTVSPost2010PropOp45
 70
     1
102
RTVSPost2010Prop46
 90
       50
102
RTVSPost2010PropOp46
 70
     1
102
RTVSPost2010Prop47
 90
       50
102
RTVSPost2010PropOp47
 70
     1
102
RTVSPost2010Prop48
 90
       50
102
RTVSPost2010PropOp48
 70
     1
102
RTVSPost2010Prop49
280
     0
102
RTVSPost2010PropOp49
 70
     1
102
RTVSPost2010Prop50
 90
       50
102
RTVSPost2010PropOp50
 70
     1
102
RTVSPost2010Prop51ColorIndex
 90
      256
102
RTVSPost2010Prop51ColorRGB
 90
-16777216
102
RTVSPost2010PropOp51
 70
     0
102
RTVSPost2010Prop52
140
1.0
102
RTVSPost2010PropOp52
 70
     0
102
RTVSPost2010Prop53
 90
        2
102
RTVSPost2010PropOp53
 70
     1
102
RTVSPost2010Prop54
  1
strokes_ogs.tif
102
RTVSPost2010PropOp54
 70
     1
102
RTVSPost2010Prop55
280
     0
102
RTVSPost2010PropOp55
 70
     1
102
RTVSPost2010Prop56
140
1.0
102
RTVSPost2010PropOp56
 70
     1
102
RTVSPost2010Prop57
140
1.0
102
RTVSPost2010PropOp57
 70
     1
  0
XRECORD
  5
23F
102
{ACAD_REACTORS
330
23E
102
}
330
23E
100
AcDbXrecord
280
     1
102
RTVSPost2010Prop28
280
     0
102
RTVSPost2010PropOp28
 70
     1
102
RTVSPost2010Prop29
280
     1
102
RTVSPost2010PropOp29
 70
     1
102
RTVSPost2010Prop30
280
     1
102
RTVSPost2010PropOp30
 70
     1
102
RTVSPost2010Prop31
280
     0
102
RTVSPost2010PropOp31
 70
     1
102
RTVSPost2010Prop32
280
     0
102
RTVSPost2010PropOp32
 70
     1
102
RTVSPost2010Prop33
280
     0
102
RTVSPost2010PropOp33
 70
     1
102
RTVSPost2010Prop34
280
     0
102
RTVSPost2010PropOp34
 70
     1
102
RTVSPost2010Prop35
280
     0
102
RTVSPost2010PropOp35
 70
     1
102
RTVSPost2010Prop36
280
     0
102
RTVSPost2010PropOp36
 70
     1
102
RTVSPost2010Prop37
 90
       50
102
RTVSPost2010PropOp37
 70
     1
102
RTVSPost2010Prop38
140
0.0
102
RTVSPost2010PropOp38
 70
     1
102
RTVSPost2010Prop39
140
1.0
102
RTVSPost2010PropOp39
 70
     1
102
RTVSPost2010Prop40
 90
        0
102
RTVSPost2010PropOp40
 70
     1
102
RTVSPost2010Prop41ColorIndex
 90
       18
102
RTVSPost2010Prop41ColorRGB
 90
        0
102
RTVSPost2010PropOp41
 70
     1
102
RTVSPost2010Prop42
 90
       50
102
RTVSPost2010PropOp42
 70
     1
102
RTVSPost2010Prop43
 90
        3
102
RTVSPost2010PropOp43
 70
     1
102
RTVSPost2010Prop44ColorIndex
 90
        5
102
RTVSPost2010Prop44ColorRGB
 90
      255
102
RTVSPost2010PropOp44
 70
     1
102
RTVSPost2010Prop45
280
     0
102
RTVSPost2010PropOp45
 70
     1
102
RTVSPost2010Prop46
 90
       50
102
RTVSPost2010PropOp46
 70
     1
102
RTVSPost2010Prop47
 90
       50
102
RTVSPost2010PropOp47
 70
     1
102
RTVSPost2010Prop48
 90
       50
102
RTVSPost2010PropOp48
 70
     1
102
RTVSPost2010Prop49
280
     0
102
RTVSPost2010PropOp49
 70
     1
102
RTVSPost2010Prop50
 90
       50
102
RTVSPost2010PropOp50
 70
     1
102
RTVSPost2010Prop51ColorIndex
 90
      256
102
RTVSPost2010Prop51ColorRGB
 90
-16777216
102
RTVSPost2010PropOp51
 70
     0
102
RTVSPost2010Prop52
140
1.0
102
RTVSPost2010PropOp52
 70
     0
102
RTVSPost2010Prop53
 90
        2
102
RTVSPost2010PropOp53
 70
     1
102
RTVSPost2010Prop54
  1
strokes_ogs.tif
102
RTVSPost2010PropOp54
 70
     1
102
RTVSPost2010Prop55
280
     0
102
RTVSPost2010PropOp55
 70
     1
102
RTVSPost2010Prop56
140
1.0
102
RTVSPost2010PropOp56
 70
     1
102
RTVSPost2010Prop57
140
1.0
102
RTVSPost2010PropOp57
 70
     1
  0
XRECORD
  5
241
102
{ACAD_REACTORS
330
240
102
}
330
240
100
AcDbXrecord
280
     1
102
RTVSPost2010Prop28
280
     0
102
RTVSPost2010PropOp28
 70
     1
102
RTVSPost2010Prop29
280
     1
102
RTVSPost2010PropOp29
 70
     1
102
RTVSPost2010Prop30
280
     1
102
RTVSPost2010PropOp30
 70
     1
102
RTVSPost2010Prop31
280
     0
102
RTVSPost2010PropOp31
 70
     1
102
RTVSPost2010Prop32
280
     0
102
RTVSPost2010PropOp32
 70
     1
102
RTVSPost2010Prop33
280
     0
102
RTVSPost2010PropOp33
 70
     1
102
RTVSPost2010Prop34
280
     0
102
RTVSPost2010PropOp34
 70
     1
102
RTVSPost2010Prop35
280
     0
102
RTVSPost2010PropOp35
 70
     1
102
RTVSPost2010Prop36
280
     0
102
RTVSPost2010PropOp36
 70
     1
102
RTVSPost2010Prop37
 90
       50
102
RTVSPost2010PropOp37
 70
     1
102
RTVSPost2010Prop38
140
0.0
102
RTVSPost2010PropOp38
 70
     1
102
RTVSPost2010Prop39
140
1.0
102
RTVSPost2010PropOp39
 70
     1
102
RTVSPost2010Prop40
 90
        0
102
RTVSPost2010PropOp40
 70
     1
102
RTVSPost2010Prop41ColorIndex
 90
       18
102
RTVSPost2010Prop41ColorRGB
 90
        0
102
RTVSPost2010PropOp41
 70
     1
102
RTVSPost2010Prop42
 90
       50
102
RTVSPost2010PropOp42
 70
     1
102
RTVSPost2010Prop43
 90
        3
102
RTVSPost2010PropOp43
 70
     1
102
RTVSPost2010Prop44ColorIndex
 90
        5
102
RTVSPost2010Prop44ColorRGB
 90
      255
102
RTVSPost2010PropOp44
 70
     1
102
RTVSPost2010Prop45
280
     0
102
RTVSPost2010PropOp45
 70
     1
102
RTVSPost2010Prop46
 90
       50
102
RTVSPost2010PropOp46
 70
     1
102
RTVSPost2010Prop47
 90
       50
102
RTVSPost2010PropOp47
 70
     1
102
RTVSPost2010Prop48
 90
       50
102
RTVSPost2010PropOp48
 70
     1
102
RTVSPost2010Prop49
280
     0
102
RTVSPost2010PropOp49
 70
     1
102
RTVSPost2010Prop50
 90
       50
102
RTVSPost2010PropOp50
 70
     1
102
RTVSPost2010Prop51ColorIndex
 90
      256
102
RTVSPost2010Prop51ColorRGB
 90
-16777216
102
RTVSPost2010PropOp51
 70
     0
102
RTVSPost2010Prop52
140
1.0
102
RTVSPost2010PropOp52
 70
     0
102
RTVSPost2010Prop53
 90
        2
102
RTVSPost2010PropOp53
 70
     1
102
RTVSPost2010Prop54
  1
strokes_ogs.tif
102
RTVSPost2010PropOp54
 70
     1
102
RTVSPost2010Prop55
280
     0
102
RTVSPost2010PropOp55
 70
     1
102
RTVSPost2010Prop56
140
1.0
102
RTVSPost2010PropOp56
 70
     1
102
RTVSPost2010Prop57
140
1.0
102
RTVSPost2010PropOp57
 70
     1
  0
XRECORD
  5
247
102
{ACAD_REACTORS
330
246
102
}
330
246
100
AcDbXrecord
280
     1
102
RTVSPost2010Prop28
280
     0
102
RTVSPost2010PropOp28
 70
     1
102
RTVSPost2010Prop29
280
     1
102
RTVSPost2010PropOp29
 70
     1
102
RTVSPost2010Prop30
280
     1
102
RTVSPost2010PropOp30
 70
     1
102
RTVSPost2010Prop31
280
     0
102
RTVSPost2010PropOp31
 70
     1
102
RTVSPost2010Prop32
280
     0
102
RTVSPost2010PropOp32
 70
     1
102
RTVSPost2010Prop33
280
     0
102
RTVSPost2010PropOp33
 70
     1
102
RTVSPost2010Prop34
280
     0
102
RTVSPost2010PropOp34
 70
     1
102
RTVSPost2010Prop35
280
     0
102
RTVSPost2010PropOp35
 70
     1
102
RTVSPost2010Prop36
280
     0
102
RTVSPost2010PropOp36
 70
     1
102
RTVSPost2010Prop37
 90
       50
102
RTVSPost2010PropOp37
 70
     1
102
RTVSPost2010Prop38
140
0.0
102
RTVSPost2010PropOp38
 70
     1
102
RTVSPost2010Prop39
140
1.0
102
RTVSPost2010PropOp39
 70
     1
102
RTVSPost2010Prop40
 90
        0
102
RTVSPost2010PropOp40
 70
     1
102
RTVSPost2010Prop41ColorIndex
 90
       18
102
RTVSPost2010Prop41ColorRGB
 90
        0
102
RTVSPost2010PropOp41
 70
     1
102
RTVSPost2010Prop42
 90
       50
102
RTVSPost2010PropOp42
 70
     1
102
RTVSPost2010Prop43
 90
        3
102
RTVSPost2010PropOp43
 70
     1
102
RTVSPost2010Prop44ColorIndex
 90
        5
102
RTVSPost2010Prop44ColorRGB
 90
      255
102
RTVSPost2010PropOp44
 70
     1
102
RTVSPost2010Prop45
280
     0
102
RTVSPost2010PropOp45
 70
     1
102
RTVSPost2010Prop46
 90
       50
102
RTVSPost2010PropOp46
 70
     1
102
RTVSPost2010Prop47
 90
       50
102
RTVSPost2010PropOp47
 70
     1
102
RTVSPost2010Prop48
 90
       50
102
RTVSPost2010PropOp48
 70
     1
102
RTVSPost2010Prop49
280
     0
102
RTVSPost2010PropOp49
 70
     1
102
RTVSPost2010Prop50
 90
       50
102
RTVSPost2010PropOp50
 70
     1
102
RTVSPost2010Prop51ColorIndex
 90
      256
102
RTVSPost2010Prop51ColorRGB
 90
-16777216
102
RTVSPost2010PropOp51
 70
     0
102
RTVSPost2010Prop52
140
1.0
102
RTVSPost2010PropOp52
 70
     0
102
RTVSPost2010Prop53
 90
        2
102
RTVSPost2010PropOp53
 70
     1
102
RTVSPost2010Prop54
  1
strokes_ogs.tif
102
RTVSPost2010PropOp54
 70
     1
102
RTVSPost2010Prop55
280
     0
102
RTVSPost2010PropOp55
 70
     1
102
RTVSPost2010Prop56
140
1.0
102
RTVSPost2010PropOp56
 70
     1
102
RTVSPost2010Prop57
140
1.0
102
RTVSPost2010PropOp57
 70
     1
  0
XRECORD
  5
25B
102
{ACAD_REACTORS
330
25A
102
}
330
25A
100
AcDbXrecord
280
     1
102
RTVSPost2010Prop28
280
     0
102
RTVSPost2010PropOp28
 70
     0
102
RTVSPost2010Prop29
280
     1
102
RTVSPost2010PropOp29
 70
     0
102
RTVSPost2010Prop30
280
     1
102
RTVSPost2010PropOp30
 70
     0
102
RTVSPost2010Prop31
280
     0
102
RTVSPost2010PropOp31
 70
     0
102
RTVSPost2010Prop32
280
     0
102
RTVSPost2010PropOp32
 70
     0
102
RTVSPost2010Prop33
280
     0
102
RTVSPost2010PropOp33
 70
     0
102
RTVSPost2010Prop34
280
     0
102
RTVSPost2010PropOp34
 70
     0
102
RTVSPost2010Prop35
280
     0
102
RTVSPost2010PropOp35
 70
     0
102
RTVSPost2010Prop36
280
     0
102
RTVSPost2010PropOp36
 70
     0
102
RTVSPost2010Prop37
 90
       50
102
RTVSPost2010PropOp37
 70
     0
102
RTVSPost2010Prop38
140
0.0
102
RTVSPost2010PropOp38
 70
     0
102
RTVSPost2010Prop39
140
1.0
102
RTVSPost2010PropOp39
 70
     0
102
RTVSPost2010Prop40
 90
        0
102
RTVSPost2010PropOp40
 70
     0
102
RTVSPost2010Prop41ColorIndex
 90
       18
102
RTVSPost2010Prop41ColorRGB
 90
        0
102
RTVSPost2010PropOp41
 70
     0
102
RTVSPost2010Prop42
 90
       50
102
RTVSPost2010PropOp42
 70
     0
102
RTVSPost2010Prop43
 90
        3
102
RTVSPost2010PropOp43
 70
     0
102
RTVSPost2010Prop44ColorIndex
 90
        5
102
RTVSPost2010Prop44ColorRGB
 90
      255
102
RTVSPost2010PropOp44
 70
     0
102
RTVSPost2010Prop45
280
     0
102
RTVSPost2010PropOp45
 70
     0
102
RTVSPost2010Prop46
 90
       50
102
RTVSPost2010PropOp46
 70
     0
102
RTVSPost2010Prop47
 90
       50
102
RTVSPost2010PropOp47
 70
     0
102
RTVSPost2010Prop48
 90
       50
102
RTVSPost2010PropOp48
 70
     0
102
RTVSPost2010Prop49
280
     0
102
RTVSPost2010PropOp49
 70
     0
102
RTVSPost2010Prop50
 90
       50
102
RTVSPost2010PropOp50
 70
     0
102
RTVSPost2010Prop51ColorIndex
 90
      256
102
RTVSPost2010Prop51ColorRGB
 90
-16777216
102
RTVSPost2010PropOp51
 70
     0
102
RTVSPost2010Prop52
140
1.0
102
RTVSPost2010PropOp52
 70
     0
102
RTVSPost2010Prop53
 90
        2
102
RTVSPost2010PropOp53
 70
     0
102
RTVSPost2010Prop54
  1
strokes_ogs.tif
102
RTVSPost2010PropOp54
 70
     0
102
RTVSPost2010Prop55
280
     0
102
RTVSPost2010PropOp55
 70
     0
102
RTVSPost2010Prop56
140
1.0
102
RTVSPost2010PropOp56
 70
     0
102
RTVSPost2010Prop57
140
1.0
102
RTVSPost2010PropOp57
 70
     0
  0
XRECORD
  5
255
102
{ACAD_REACTORS
330
254
102
}
330
254
100
AcDbXrecord
280
     1
102
RTVSPost2010Prop28
280
     0
102
RTVSPost2010PropOp28
 70
     1
102
RTVSPost2010Prop29
280
     1
102
RTVSPost2010PropOp29
 70
     1
102
RTVSPost2010Prop30
280
     1
102
RTVSPost2010PropOp30
 70
     1
102
RTVSPost2010Prop31
280
     0
102
RTVSPost2010PropOp31
 70
     1
102
RTVSPost2010Prop32
280
     0
102
RTVSPost2010PropOp32
 70
     1
102
RTVSPost2010Prop33
280
     0
102
RTVSPost2010PropOp33
 70
     1
102
RTVSPost2010Prop34
280
     0
102
RTVSPost2010PropOp34
 70
     1
102
RTVSPost2010Prop35
280
     0
102
RTVSPost2010PropOp35
 70
     1
102
RTVSPost2010Prop36
280
     0
102
RTVSPost2010PropOp36
 70
     1
102
RTVSPost2010Prop37
 90
       50
102
RTVSPost2010PropOp37
 70
     1
102
RTVSPost2010Prop38
140
0.0
102
RTVSPost2010PropOp38
 70
     1
102
RTVSPost2010Prop39
140
1.0
102
RTVSPost2010PropOp39
 70
     1
102
RTVSPost2010Prop40
 90
        0
102
RTVSPost2010PropOp40
 70
     1
102
RTVSPost2010Prop41ColorIndex
 90
       18
102
RTVSPost2010Prop41ColorRGB
 90
        0
102
RTVSPost2010PropOp41
 70
     1
102
RTVSPost2010Prop42
 90
       50
102
RTVSPost2010PropOp42
 70
     1
102
RTVSPost2010Prop43
 90
        3
102
RTVSPost2010PropOp43
 70
     1
102
RTVSPost2010Prop44ColorIndex
 90
        5
102
RTVSPost2010Prop44ColorRGB
 90
      255
102
RTVSPost2010PropOp44
 70
     1
102
RTVSPost2010Prop45
280
     0
102
RTVSPost2010PropOp45
 70
     1
102
RTVSPost2010Prop46
 90
       50
102
RTVSPost2010PropOp46
 70
     1
102
RTVSPost2010Prop47
 90
       50
102
RTVSPost2010PropOp47
 70
     1
102
RTVSPost2010Prop48
 90
       50
102
RTVSPost2010PropOp48
 70
     1
102
RTVSPost2010Prop49
280
     0
102
RTVSPost2010PropOp49
 70
     1
102
RTVSPost2010Prop50
 90
       50
102
RTVSPost2010PropOp50
 70
     1
102
RTVSPost2010Prop51ColorIndex
 90
      256
102
RTVSPost2010Prop51ColorRGB
 90
-16777216
102
RTVSPost2010PropOp51
 70
     0
102
RTVSPost2010Prop52
140
1.0
102
RTVSPost2010PropOp52
 70
     0
102
RTVSPost2010Prop53
 90
        2
102
RTVSPost2010PropOp53
 70
     1
102
RTVSPost2010Prop54
  1
strokes_ogs.tif
102
RTVSPost2010PropOp54
 70
     1
102
RTVSPost2010Prop55
280
     0
102
RTVSPost2010PropOp55
 70
     1
102
RTVSPost2010Prop56
140
1.0
102
RTVSPost2010PropOp56
 70
     1
102
RTVSPost2010Prop57
140
1.0
102
RTVSPost2010PropOp57
 70
     1
  0
XRECORD
  5
25D
102
{ACAD_REACTORS
330
25C
102
}
330
25C
100
AcDbXrecord
280
     1
102
RTVSPost2010Prop28
280
     0
102
RTVSPost2010PropOp28
 70
     0
102
RTVSPost2010Prop29
280
     1
102
RTVSPost2010PropOp29
 70
     0
102
RTVSPost2010Prop30
280
     1
102
RTVSPost2010PropOp30
 70
     0
102
RTVSPost2010Prop31
280
     0
102
RTVSPost2010PropOp31
 70
     0
102
RTVSPost2010Prop32
280
     0
102
RTVSPost2010PropOp32
 70
     0
102
RTVSPost2010Prop33
280
     0
102
RTVSPost2010PropOp33
 70
     0
102
RTVSPost2010Prop34
280
     0
102
RTVSPost2010PropOp34
 70
     0
102
RTVSPost2010Prop35
280
     0
102
RTVSPost2010PropOp35
 70
     0
102
RTVSPost2010Prop36
280
     0
102
RTVSPost2010PropOp36
 70
     0
102
RTVSPost2010Prop37
 90
       50
102
RTVSPost2010PropOp37
 70
     0
102
RTVSPost2010Prop38
140
0.0
102
RTVSPost2010PropOp38
 70
     0
102
RTVSPost2010Prop39
140
1.0
102
RTVSPost2010PropOp39
 70
     0
102
RTVSPost2010Prop40
 90
        0
102
RTVSPost2010PropOp40
 70
     0
102
RTVSPost2010Prop41ColorIndex
 90
       18
102
RTVSPost2010Prop41ColorRGB
 90
        0
102
RTVSPost2010PropOp41
 70
     0
102
RTVSPost2010Prop42
 90
       50
102
RTVSPost2010PropOp42
 70
     0
102
RTVSPost2010Prop43
 90
        3
102
RTVSPost2010PropOp43
 70
     0
102
RTVSPost2010Prop44ColorIndex
 90
        5
102
RTVSPost2010Prop44ColorRGB
 90
      255
102
RTVSPost2010PropOp44
 70
     0
102
RTVSPost2010Prop45
280
     0
102
RTVSPost2010PropOp45
 70
     0
102
RTVSPost2010Prop46
 90
       50
102
RTVSPost2010PropOp46
 70
     0
102
RTVSPost2010Prop47
 90
       50
102
RTVSPost2010PropOp47
 70
     0
102
RTVSPost2010Prop48
 90
       50
102
RTVSPost2010PropOp48
 70
     0
102
RTVSPost2010Prop49
280
     0
102
RTVSPost2010PropOp49
 70
     0
102
RTVSPost2010Prop50
 90
       50
102
RTVSPost2010PropOp50
 70
     0
102
RTVSPost2010Prop51ColorIndex
 90
      256
102
RTVSPost2010Prop51ColorRGB
 90
-16777216
102
RTVSPost2010PropOp51
 70
     0
102
RTVSPost2010Prop52
140
1.0
102
RTVSPost2010PropOp52
 70
     0
102
RTVSPost2010Prop53
 90
        2
102
RTVSPost2010PropOp53
 70
     0
102
RTVSPost2010Prop54
  1
strokes_ogs.tif
102
RTVSPost2010PropOp54
 70
     0
102
RTVSPost2010Prop55
280
     0
102
RTVSPost2010PropOp55
 70
     0
102
RTVSPost2010Prop56
140
1.0
102
RTVSPost2010PropOp56
 70
     0
102
RTVSPost2010Prop57
140
1.0
102
RTVSPost2010PropOp57
 70
     0
  0
XRECORD
  5
24B
102
{ACAD_REACTORS
330
24A
102
}
330
24A
100
AcDbXrecord
280
     1
102
RTVSPost2010Prop28
280
     0
102
RTVSPost2010PropOp28
 70
     1
102
RTVSPost2010Prop29
280
     1
102
RTVSPost2010PropOp29
 70
     1
102
RTVSPost2010Prop30
280
     1
102
RTVSPost2010PropOp30
 70
     1
102
RTVSPost2010Prop31
280
     0
102
RTVSPost2010PropOp31
 70
     1
102
RTVSPost2010Prop32
280
     0
102
RTVSPost2010PropOp32
 70
     1
102
RTVSPost2010Prop33
280
     0
102
RTVSPost2010PropOp33
 70
     1
102
RTVSPost2010Prop34
280
     0
102
RTVSPost2010PropOp34
 70
     1
102
RTVSPost2010Prop35
280
     0
102
RTVSPost2010PropOp35
 70
     1
102
RTVSPost2010Prop36
280
     0
102
RTVSPost2010PropOp36
 70
     1
102
RTVSPost2010Prop37
 90
       50
102
RTVSPost2010PropOp37
 70
     1
102
RTVSPost2010Prop38
140
0.0
102
RTVSPost2010PropOp38
 70
     1
102
RTVSPost2010Prop39
140
1.0
102
RTVSPost2010PropOp39
 70
     1
102
RTVSPost2010Prop40
 90
        0
102
RTVSPost2010PropOp40
 70
     1
102
RTVSPost2010Prop41ColorIndex
 90
       18
102
RTVSPost2010Prop41ColorRGB
 90
        0
102
RTVSPost2010PropOp41
 70
     1
102
RTVSPost2010Prop42
 90
       50
102
RTVSPost2010PropOp42
 70
     1
102
RTVSPost2010Prop43
 90
        3
102
RTVSPost2010PropOp43
 70
     1
102
RTVSPost2010Prop44ColorIndex
 90
        5
102
RTVSPost2010Prop44ColorRGB
 90
      255
102
RTVSPost2010PropOp44
 70
     1
102
RTVSPost2010Prop45
280
     0
102
RTVSPost2010PropOp45
 70
     1
102
RTVSPost2010Prop46
 90
       50
102
RTVSPost2010PropOp46
 70
     1
102
RTVSPost2010Prop47
 90
       50
102
RTVSPost2010PropOp47
 70
     1
102
RTVSPost2010Prop48
 90
       50
102
RTVSPost2010PropOp48
 70
     1
102
RTVSPost2010Prop49
280
     0
102
RTVSPost2010PropOp49
 70
     1
102
RTVSPost2010Prop50
 90
       50
102
RTVSPost2010PropOp50
 70
     1
102
RTVSPost2010Prop51ColorIndex
 90
      256
102
RTVSPost2010Prop51ColorRGB
 90
-16777216
102
RTVSPost2010PropOp51
 70
     0
102
RTVSPost2010Prop52
140
1.0
102
RTVSPost2010PropOp52
 70
     0
102
RTVSPost2010Prop53
 90
        2
102
RTVSPost2010PropOp53
 70
     1
102
RTVSPost2010Prop54
  1
strokes_ogs.tif
102
RTVSPost2010PropOp54
 70
     1
102
RTVSPost2010Prop55
280
     0
102
RTVSPost2010PropOp55
 70
     1
102
RTVSPost2010Prop56
140
1.0
102
RTVSPost2010PropOp56
 70
     1
102
RTVSPost2010Prop57
140
1.0
102
RTVSPost2010PropOp57
 70
     1
  0
XRECORD
  5
269
102
{ACAD_REACTORS
330
268
102
}
330
268
100
AcDbXrecord
280
     1
102
RTVSPost2010Prop28
280
     0
102
RTVSPost2010PropOp28
 70
     1
102
RTVSPost2010Prop29
280
     1
102
RTVSPost2010PropOp29
 70
     1
102
RTVSPost2010Prop30
280
     1
102
RTVSPost2010PropOp30
 70
     1
102
RTVSPost2010Prop31
280
     0
102
RTVSPost2010PropOp31
 70
     1
102
RTVSPost2010Prop32
280
     0
102
RTVSPost2010PropOp32
 70
     1
102
RTVSPost2010Prop33
280
     0
102
RTVSPost2010PropOp33
 70
     1
102
RTVSPost2010Prop34
280
     0
102
RTVSPost2010PropOp34
 70
     1
102
RTVSPost2010Prop35
280
     0
102
RTVSPost2010PropOp35
 70
     1
102
RTVSPost2010Prop36
280
     0
102
RTVSPost2010PropOp36
 70
     1
102
RTVSPost2010Prop37
 90
       50
102
RTVSPost2010PropOp37
 70
     1
102
RTVSPost2010Prop38
140
0.0
102
RTVSPost2010PropOp38
 70
     1
102
RTVSPost2010Prop39
140
1.0
102
RTVSPost2010PropOp39
 70
     1
102
RTVSPost2010Prop40
 90
        0
102
RTVSPost2010PropOp40
 70
     1
102
RTVSPost2010Prop41ColorIndex
 90
       18
102
RTVSPost2010Prop41ColorRGB
 90
        0
102
RTVSPost2010PropOp41
 70
     1
102
RTVSPost2010Prop42
 90
       50
102
RTVSPost2010PropOp42
 70
     1
102
RTVSPost2010Prop43
 90
        3
102
RTVSPost2010PropOp43
 70
     1
102
RTVSPost2010Prop44ColorIndex
 90
        5
102
RTVSPost2010Prop44ColorRGB
 90
      255
102
RTVSPost2010PropOp44
 70
     1
102
RTVSPost2010Prop45
280
     0
102
RTVSPost2010PropOp45
 70
     1
102
RTVSPost2010Prop46
 90
       50
102
RTVSPost2010PropOp46
 70
     1
102
RTVSPost2010Prop47
 90
       50
102
RTVSPost2010PropOp47
 70
     1
102
RTVSPost2010Prop48
 90
       50
102
RTVSPost2010PropOp48
 70
     1
102
RTVSPost2010Prop49
280
     0
102
RTVSPost2010PropOp49
 70
     1
102
RTVSPost2010Prop50
 90
       50
102
RTVSPost2010PropOp50
 70
     1
102
RTVSPost2010Prop51ColorIndex
 90
      256
102
RTVSPost2010Prop51ColorRGB
 90
-16777216
102
RTVSPost2010PropOp51
 70
     0
102
RTVSPost2010Prop52
140
1.0
102
RTVSPost2010PropOp52
 70
     0
102
RTVSPost2010Prop53
 90
        2
102
RTVSPost2010PropOp53
 70
     1
102
RTVSPost2010Prop54
  1
strokes_ogs.tif
102
RTVSPost2010PropOp54
 70
     1
102
RTVSPost2010Prop55
280
     0
102
RTVSPost2010PropOp55
 70
     1
102
RTVSPost2010Prop56
140
1.0
102
RTVSPost2010PropOp56
 70
     1
102
RTVSPost2010Prop57
140
1.0
102
RTVSPost2010PropOp57
 70
     1
  0
XRECORD
  5
267
102
{ACAD_REACTORS
330
266
102
}
330
266
100
AcDbXrecord
280
     1
102
RTVSPost2010Prop28
280
     0
102
RTVSPost2010PropOp28
 70
     1
102
RTVSPost2010Prop29
280
     1
102
RTVSPost2010PropOp29
 70
     1
102
RTVSPost2010Prop30
280
     1
102
RTVSPost2010PropOp30
 70
     1
102
RTVSPost2010Prop31
280
     0
102
RTVSPost2010PropOp31
 70
     1
102
RTVSPost2010Prop32
280
     0
102
RTVSPost2010PropOp32
 70
     1
102
RTVSPost2010Prop33
280
     0
102
RTVSPost2010PropOp33
 70
     1
102
RTVSPost2010Prop34
280
     0
102
RTVSPost2010PropOp34
 70
     1
102
RTVSPost2010Prop35
280
     0
102
RTVSPost2010PropOp35
 70
     1
102
RTVSPost2010Prop36
280
     0
102
RTVSPost2010PropOp36
 70
     1
102
RTVSPost2010Prop37
 90
       50
102
RTVSPost2010PropOp37
 70
     1
102
RTVSPost2010Prop38
140
0.0
102
RTVSPost2010PropOp38
 70
     1
102
RTVSPost2010Prop39
140
1.0
102
RTVSPost2010PropOp39
 70
     1
102
RTVSPost2010Prop40
 90
        0
102
RTVSPost2010PropOp40
 70
     1
102
RTVSPost2010Prop41ColorIndex
 90
       18
102
RTVSPost2010Prop41ColorRGB
 90
        0
102
RTVSPost2010PropOp41
 70
     1
102
RTVSPost2010Prop42
 90
       50
102
RTVSPost2010PropOp42
 70
     1
102
RTVSPost2010Prop43
 90
        3
102
RTVSPost2010PropOp43
 70
     1
102
RTVSPost2010Prop44ColorIndex
 90
        5
102
RTVSPost2010Prop44ColorRGB
 90
      255
102
RTVSPost2010PropOp44
 70
     1
102
RTVSPost2010Prop45
280
     0
102
RTVSPost2010PropOp45
 70
     1
102
RTVSPost2010Prop46
 90
       50
102
RTVSPost2010PropOp46
 70
     1
102
RTVSPost2010Prop47
 90
       50
102
RTVSPost2010PropOp47
 70
     1
102
RTVSPost2010Prop48
 90
       50
102
RTVSPost2010PropOp48
 70
     1
102
RTVSPost2010Prop49
280
     0
102
RTVSPost2010PropOp49
 70
     1
102
RTVSPost2010Prop50
 90
       50
102
RTVSPost2010PropOp50
 70
     1
102
RTVSPost2010Prop51ColorIndex
 90
      256
102
RTVSPost2010Prop51ColorRGB
 90
-16777216
102
RTVSPost2010PropOp51
 70
     0
102
RTVSPost2010Prop52
140
1.0
102
RTVSPost2010PropOp52
 70
     0
102
RTVSPost2010Prop53
 90
        2
102
RTVSPost2010PropOp53
 70
     1
102
RTVSPost2010Prop54
  1
strokes_ogs.tif
102
RTVSPost2010PropOp54
 70
     1
102
RTVSPost2010Prop55
280
     0
102
RTVSPost2010PropOp55
 70
     1
102
RTVSPost2010Prop56
140
1.0
102
RTVSPost2010PropOp56
 70
     1
102
RTVSPost2010Prop57
140
1.0
102
RTVSPost2010PropOp57
 70
     1
  0
XRECORD
  5
261
102
{ACAD_REACTORS
330
260
102
}
330
260
100
AcDbXrecord
280
     1
102
RTVSPost2010Prop28
280
     0
102
RTVSPost2010PropOp28
 70
     1
102
RTVSPost2010Prop29
280
     1
102
RTVSPost2010PropOp29
 70
     1
102
RTVSPost2010Prop30
280
     1
102
RTVSPost2010PropOp30
 70
     1
102
RTVSPost2010Prop31
280
     0
102
RTVSPost2010PropOp31
 70
     1
102
RTVSPost2010Prop32
280
     0
102
RTVSPost2010PropOp32
 70
     1
102
RTVSPost2010Prop33
280
     0
102
RTVSPost2010PropOp33
 70
     1
102
RTVSPost2010Prop34
280
     0
102
RTVSPost2010PropOp34
 70
     1
102
RTVSPost2010Prop35
280
     0
102
RTVSPost2010PropOp35
 70
     1
102
RTVSPost2010Prop36
280
     0
102
RTVSPost2010PropOp36
 70
     1
102
RTVSPost2010Prop37
 90
       50
102
RTVSPost2010PropOp37
 70
     1
102
RTVSPost2010Prop38
140
0.0
102
RTVSPost2010PropOp38
 70
     1
102
RTVSPost2010Prop39
140
1.0
102
RTVSPost2010PropOp39
 70
     1
102
RTVSPost2010Prop40
 90
        0
102
RTVSPost2010PropOp40
 70
     1
102
RTVSPost2010Prop41ColorIndex
 90
       18
102
RTVSPost2010Prop41ColorRGB
 90
        0
102
RTVSPost2010PropOp41
 70
     1
102
RTVSPost2010Prop42
 90
       50
102
RTVSPost2010PropOp42
 70
     1
102
RTVSPost2010Prop43
 90
        3
102
RTVSPost2010PropOp43
 70
     1
102
RTVSPost2010Prop44ColorIndex
 90
        5
102
RTVSPost2010Prop44ColorRGB
 90
      255
102
RTVSPost2010PropOp44
 70
     1
102
RTVSPost2010Prop45
280
     0
102
RTVSPost2010PropOp45
 70
     1
102
RTVSPost2010Prop46
 90
       50
102
RTVSPost2010PropOp46
 70
     1
102
RTVSPost2010Prop47
 90
       50
102
RTVSPost2010PropOp47
 70
     1
102
RTVSPost2010Prop48
 90
       50
102
RTVSPost2010PropOp48
 70
     1
102
RTVSPost2010Prop49
280
     0
102
RTVSPost2010PropOp49
 70
     1
102
RTVSPost2010Prop50
 90
       50
102
RTVSPost2010PropOp50
 70
     1
102
RTVSPost2010Prop51ColorIndex
 90
      256
102
RTVSPost2010Prop51ColorRGB
 90
-16777216
102
RTVSPost2010PropOp51
 70
     0
102
RTVSPost2010Prop52
140
1.0
102
RTVSPost2010PropOp52
 70
     0
102
RTVSPost2010Prop53
 90
        2
102
RTVSPost2010PropOp53
 70
     1
102
RTVSPost2010Prop54
  1
strokes_ogs.tif
102
RTVSPost2010PropOp54
 70
     1
102
RTVSPost2010Prop55
280
     0
102
RTVSPost2010PropOp55
 70
     1
102
RTVSPost2010Prop56
140
1.0
102
RTVSPost2010PropOp56
 70
     1
102
RTVSPost2010Prop57
140
1.0
102
RTVSPost2010PropOp57
 70
     1
  0
XRECORD
  5
263
102
{ACAD_REACTORS
330
262
102
}
330
262
100
AcDbXrecord
280
     1
102
RTVSPost2010Prop28
280
     0
102
RTVSPost2010PropOp28
 70
     1
102
RTVSPost2010Prop29
280
     1
102
RTVSPost2010PropOp29
 70
     1
102
RTVSPost2010Prop30
280
     1
102
RTVSPost2010PropOp30
 70
     1
102
RTVSPost2010Prop31
280
     0
102
RTVSPost2010PropOp31
 70
     1
102
RTVSPost2010Prop32
280
     0
102
RTVSPost2010PropOp32
 70
     1
102
RTVSPost2010Prop33
280
     0
102
RTVSPost2010PropOp33
 70
     1
102
RTVSPost2010Prop34
280
     0
102
RTVSPost2010PropOp34
 70
     1
102
RTVSPost2010Prop35
280
     0
102
RTVSPost2010PropOp35
 70
     1
102
RTVSPost2010Prop36
280
     0
102
RTVSPost2010PropOp36
 70
     1
102
RTVSPost2010Prop37
 90
       50
102
RTVSPost2010PropOp37
 70
     1
102
RTVSPost2010Prop38
140
0.0
102
RTVSPost2010PropOp38
 70
     1
102
RTVSPost2010Prop39
140
1.0
102
RTVSPost2010PropOp39
 70
     1
102
RTVSPost2010Prop40
 90
        0
102
RTVSPost2010PropOp40
 70
     1
102
RTVSPost2010Prop41ColorIndex
 90
       18
102
RTVSPost2010Prop41ColorRGB
 90
        0
102
RTVSPost2010PropOp41
 70
     1
102
RTVSPost2010Prop42
 90
       50
102
RTVSPost2010PropOp42
 70
     1
102
RTVSPost2010Prop43
 90
        3
102
RTVSPost2010PropOp43
 70
     1
102
RTVSPost2010Prop44ColorIndex
 90
        5
102
RTVSPost2010Prop44ColorRGB
 90
      255
102
RTVSPost2010PropOp44
 70
     1
102
RTVSPost2010Prop45
280
     0
102
RTVSPost2010PropOp45
 70
     1
102
RTVSPost2010Prop46
 90
       50
102
RTVSPost2010PropOp46
 70
     1
102
RTVSPost2010Prop47
 90
       50
102
RTVSPost2010PropOp47
 70
     1
102
RTVSPost2010Prop48
 90
       50
102
RTVSPost2010PropOp48
 70
     1
102
RTVSPost2010Prop49
280
     0
102
RTVSPost2010PropOp49
 70
     1
102
RTVSPost2010Prop50
 90
       50
102
RTVSPost2010PropOp50
 70
     1
102
RTVSPost2010Prop51ColorIndex
 90
      256
102
RTVSPost2010Prop51ColorRGB
 90
-16777216
102
RTVSPost2010PropOp51
 70
     0
102
RTVSPost2010Prop52
140
1.0
102
RTVSPost2010PropOp52
 70
     0
102
RTVSPost2010Prop53
 90
        2
102
RTVSPost2010PropOp53
 70
     1
102
RTVSPost2010Prop54
  1
strokes_ogs.tif
102
RTVSPost2010PropOp54
 70
     1
102
RTVSPost2010Prop55
280
     0
102
RTVSPost2010PropOp55
 70
     1
102
RTVSPost2010Prop56
140
1.0
102
RTVSPost2010PropOp56
 70
     1
102
RTVSPost2010Prop57
140
1.0
102
RTVSPost2010PropOp57
 70
     1
  0
XRECORD
  5
253
102
{ACAD_REACTORS
330
252
102
}
330
252
100
AcDbXrecord
280
     1
102
RTVSPost2010Prop28
280
     0
102
RTVSPost2010PropOp28
 70
     1
102
RTVSPost2010Prop29
280
     1
102
RTVSPost2010PropOp29
 70
     1
102
RTVSPost2010Prop30
280
     1
102
RTVSPost2010PropOp30
 70
     1
102
RTVSPost2010Prop31
280
     0
102
RTVSPost2010PropOp31
 70
     1
102
RTVSPost2010Prop32
280
     0
102
RTVSPost2010PropOp32
 70
     1
102
RTVSPost2010Prop33
280
     0
102
RTVSPost2010PropOp33
 70
     1
102
RTVSPost2010Prop34
280
     0
102
RTVSPost2010PropOp34
 70
     1
102
RTVSPost2010Prop35
280
     0
102
RTVSPost2010PropOp35
 70
     1
102
RTVSPost2010Prop36
280
     0
102
RTVSPost2010PropOp36
 70
     1
102
RTVSPost2010Prop37
 90
       50
102
RTVSPost2010PropOp37
 70
     1
102
RTVSPost2010Prop38
140
0.0
102
RTVSPost2010PropOp38
 70
     1
102
RTVSPost2010Prop39
140
1.0
102
RTVSPost2010PropOp39
 70
     1
102
RTVSPost2010Prop40
 90
        0
102
RTVSPost2010PropOp40
 70
     1
102
RTVSPost2010Prop41ColorIndex
 90
       18
102
RTVSPost2010Prop41ColorRGB
 90
        0
102
RTVSPost2010PropOp41
 70
     1
102
RTVSPost2010Prop42
 90
       50
102
RTVSPost2010PropOp42
 70
     1
102
RTVSPost2010Prop43
 90
        3
102
RTVSPost2010PropOp43
 70
     1
102
RTVSPost2010Prop44ColorIndex
 90
        5
102
RTVSPost2010Prop44ColorRGB
 90
      255
102
RTVSPost2010PropOp44
 70
     1
102
RTVSPost2010Prop45
280
     0
102
RTVSPost2010PropOp45
 70
     1
102
RTVSPost2010Prop46
 90
       50
102
RTVSPost2010PropOp46
 70
     1
102
RTVSPost2010Prop47
 90
       50
102
RTVSPost2010PropOp47
 70
     1
102
RTVSPost2010Prop48
 90
       50
102
RTVSPost2010PropOp48
 70
     1
102
RTVSPost2010Prop49
280
     0
102
RTVSPost2010PropOp49
 70
     1
102
RTVSPost2010Prop50
 90
       50
102
RTVSPost2010PropOp50
 70
     1
102
RTVSPost2010Prop51ColorIndex
 90
      256
102
RTVSPost2010Prop51ColorRGB
 90
-16777216
102
RTVSPost2010PropOp51
 70
     0
102
RTVSPost2010Prop52
140
1.0
102
RTVSPost2010PropOp52
 70
     0
102
RTVSPost2010Prop53
 90
        2
102
RTVSPost2010PropOp53
 70
     1
102
RTVSPost2010Prop54
  1
strokes_ogs.tif
102
RTVSPost2010PropOp54
 70
     1
102
RTVSPost2010Prop55
280
     0
102
RTVSPost2010PropOp55
 70
     1
102
RTVSPost2010Prop56
140
1.0
102
RTVSPost2010PropOp56
 70
     1
102
RTVSPost2010Prop57
140
1.0
102
RTVSPost2010PropOp57
 70
     1
  0
XRECORD
  5
245
102
{ACAD_REACTORS
330
244
102
}
330
244
100
AcDbXrecord
280
     1
102
RTVSPost2010Prop28
280
     0
102
RTVSPost2010PropOp28
 70
     1
102
RTVSPost2010Prop29
280
     1
102
RTVSPost2010PropOp29
 70
     1
102
RTVSPost2010Prop30
280
     1
102
RTVSPost2010PropOp30
 70
     1
102
RTVSPost2010Prop31
280
     0
102
RTVSPost2010PropOp31
 70
     1
102
RTVSPost2010Prop32
280
     0
102
RTVSPost2010PropOp32
 70
     1
102
RTVSPost2010Prop33
280
     0
102
RTVSPost2010PropOp33
 70
     1
102
RTVSPost2010Prop34
280
     0
102
RTVSPost2010PropOp34
 70
     1
102
RTVSPost2010Prop35
280
     0
102
RTVSPost2010PropOp35
 70
     1
102
RTVSPost2010Prop36
280
     0
102
RTVSPost2010PropOp36
 70
     1
102
RTVSPost2010Prop37
 90
       50
102
RTVSPost2010PropOp37
 70
     1
102
RTVSPost2010Prop38
140
0.0
102
RTVSPost2010PropOp38
 70
     1
102
RTVSPost2010Prop39
140
1.0
102
RTVSPost2010PropOp39
 70
     1
102
RTVSPost2010Prop40
 90
        0
102
RTVSPost2010PropOp40
 70
     1
102
RTVSPost2010Prop41ColorIndex
 90
       18
102
RTVSPost2010Prop41ColorRGB
 90
        0
102
RTVSPost2010PropOp41
 70
     1
102
RTVSPost2010Prop42
 90
       50
102
RTVSPost2010PropOp42
 70
     1
102
RTVSPost2010Prop43
 90
        3
102
RTVSPost2010PropOp43
 70
     1
102
RTVSPost2010Prop44ColorIndex
 90
        5
102
RTVSPost2010Prop44ColorRGB
 90
      255
102
RTVSPost2010PropOp44
 70
     1
102
RTVSPost2010Prop45
280
     0
102
RTVSPost2010PropOp45
 70
     1
102
RTVSPost2010Prop46
 90
       50
102
RTVSPost2010PropOp46
 70
     1
102
RTVSPost2010Prop47
 90
       50
102
RTVSPost2010PropOp47
 70
     1
102
RTVSPost2010Prop48
 90
       50
102
RTVSPost2010PropOp48
 70
     1
102
RTVSPost2010Prop49
280
     0
102
RTVSPost2010PropOp49
 70
     1
102
RTVSPost2010Prop50
 90
       50
102
RTVSPost2010PropOp50
 70
     1
102
RTVSPost2010Prop51ColorIndex
 90
      256
102
RTVSPost2010Prop51ColorRGB
 90
-16777216
102
RTVSPost2010PropOp51
 70
     0
102
RTVSPost2010Prop52
140
1.0
102
RTVSPost2010PropOp52
 70
     0
102
RTVSPost2010Prop53
 90
        2
102
RTVSPost2010PropOp53
 70
     1
102
RTVSPost2010Prop54
  1
strokes_ogs.tif
102
RTVSPost2010PropOp54
 70
     1
102
RTVSPost2010Prop55
280
     0
102
RTVSPost2010PropOp55
 70
     1
102
RTVSPost2010Prop56
140
1.0
102
RTVSPost2010PropOp56
 70
     1
102
RTVSPost2010Prop57
140
1.0
102
RTVSPost2010PropOp57
 70
     1
  0
XRECORD
  5
265
102
{ACAD_REACTORS
330
264
102
}
330
264
100
AcDbXrecord
280
     1
102
RTVSPost2010Prop28
280
     0
102
RTVSPost2010PropOp28
 70
     1
102
RTVSPost2010Prop29
280
     1
102
RTVSPost2010PropOp29
 70
     1
102
RTVSPost2010Prop30
280
     1
102
RTVSPost2010PropOp30
 70
     1
102
RTVSPost2010Prop31
280
     0
102
RTVSPost2010PropOp31
 70
     1
102
RTVSPost2010Prop32
280
     0
102
RTVSPost2010PropOp32
 70
     1
102
RTVSPost2010Prop33
280
     0
102
RTVSPost2010PropOp33
 70
     1
102
RTVSPost2010Prop34
280
     0
102
RTVSPost2010PropOp34
 70
     1
102
RTVSPost2010Prop35
280
     0
102
RTVSPost2010PropOp35
 70
     1
102
RTVSPost2010Prop36
280
     0
102
RTVSPost2010PropOp36
 70
     1
102
RTVSPost2010Prop37
 90
       50
102
RTVSPost2010PropOp37
 70
     1
102
RTVSPost2010Prop38
140
0.0
102
RTVSPost2010PropOp38
 70
     1
102
RTVSPost2010Prop39
140
1.0
102
RTVSPost2010PropOp39
 70
     1
102
RTVSPost2010Prop40
 90
        0
102
RTVSPost2010PropOp40
 70
     1
102
RTVSPost2010Prop41ColorIndex
 90
       18
102
RTVSPost2010Prop41ColorRGB
 90
        0
102
RTVSPost2010PropOp41
 70
     1
102
RTVSPost2010Prop42
 90
       50
102
RTVSPost2010PropOp42
 70
     1
102
RTVSPost2010Prop43
 90
        3
102
RTVSPost2010PropOp43
 70
     1
102
RTVSPost2010Prop44ColorIndex
 90
        5
102
RTVSPost2010Prop44ColorRGB
 90
      255
102
RTVSPost2010PropOp44
 70
     1
102
RTVSPost2010Prop45
280
     0
102
RTVSPost2010PropOp45
 70
     1
102
RTVSPost2010Prop46
 90
       50
102
RTVSPost2010PropOp46
 70
     1
102
RTVSPost2010Prop47
 90
       50
102
RTVSPost2010PropOp47
 70
     1
102
RTVSPost2010Prop48
 90
       50
102
RTVSPost2010PropOp48
 70
     1
102
RTVSPost2010Prop49
280
     0
102
RTVSPost2010PropOp49
 70
     1
102
RTVSPost2010Prop50
 90
       50
102
RTVSPost2010PropOp50
 70
     1
102
RTVSPost2010Prop51ColorIndex
 90
      256
102
RTVSPost2010Prop51ColorRGB
 90
-16777216
102
RTVSPost2010PropOp51
 70
     0
102
RTVSPost2010Prop52
140
1.0
102
RTVSPost2010PropOp52
 70
     0
102
RTVSPost2010Prop53
 90
        2
102
RTVSPost2010PropOp53
 70
     1
102
RTVSPost2010Prop54
  1
strokes_ogs.tif
102
RTVSPost2010PropOp54
 70
     1
102
RTVSPost2010Prop55
280
     0
102
RTVSPost2010PropOp55
 70
     1
102
RTVSPost2010Prop56
140
1.0
102
RTVSPost2010PropOp56
 70
     1
102
RTVSPost2010Prop57
140
1.0
102
RTVSPost2010PropOp57
 70
     1
  0
ENDSEC
  0
EOF
