  0
SECTION
  2
HEADER
  9
$ACADVER
  1
AC1024
  9
$ACADMAINTVER
 70
     6
  9
$DWGCODEPAGE
  3
ANSI_932
  9
$INSBASE
 10
0.0
 20
0.0
 30
0.0
  9
$EXTMIN
 10
-677.162629
 20
-856.68087
 30
1.000000000000000E+20
  9
$EXTMAX
 10
898.152585
 20
1153.050722
 30
-1.000000000000000E+20
  9
$LIMMIN
 10
-677.162629
 20
-856.68087
  9
$LIMMAX
 10
898.152585
 20
1153.050722
  9
$ORTHOMODE
 70
     0
  9
$REGENMODE
 70
     1
  9
$FILLMODE
 70
     1
  9
$QTEXTMODE
 70
     0
  9
$MIRRTEXT
 70
     1
  9
$LTSCALE
 40
1.0
  9
$ATTMODE
 70
     1
  9
$TEXTSIZE
 40
0.0
  9
$TRACEWID
 40
0.05
  9
$TEXTSTYLE
  7
Standard
  9
$CLAYER
  8
0
  9
$CELTYPE
  6
Continuous
  9
$CECOLOR
 62
   256
  9
$CELTSCALE
 40
1.0
  9
$DISPSILH
 70
     0
  9
$DIMSCALE
 40
1.0
  9
$DIMASZ
 40
0.18
  9
$DIMEXO
 40
0.0625
  9
$DIMDLI
 40
0.38
  9
$DIMRND
 40
0.0
  9
$DIMDLE
 40
0.0
  9
$DIMEXE
 40
0.18
  9
$DIMTP
 40
0.0
  9
$DIMTM
 40
0.0
  9
$DIMTXT
 40
0.18
  9
$DIMCEN
 40
0.09
  9
$DIMTSZ
 40
0.0
  9
$DIMTOL
 70
     0
  9
$DIMLIM
 70
     0
  9
$DIMTIH
 70
     1
  9
$DIMTOH
 70
     1
  9
$DIMSE1
 70
     0
  9
$DIMSE2
 70
     0
  9
$DIMTAD
 70
     0
  9
$DIMZIN
 70
     0
  9
$DIMBLK
  1

  9
$DIMASO
 70
     1
  9
$DIMSHO
 70
     1
  9
$DIMPOST
  1

  9
$DIMAPOST
  1

  9
$DIMALT
 70
     0
  9
$DIMALTD
 70
     2
  9
$DIMALTF
 40
25.4
  9
$DIMLFAC
 40
1.0
  9
$DIMTOFL
 70
     0
  9
$DIMTVP
 40
0.0
  9
$DIMTIX
 70
     0
  9
$DIMSOXD
 70
     0
  9
$DIMSAH
 70
     0
  9
$DIMBLK1
  1

  9
$DIMBLK2
  1

  9
$DIMSTYLE
  2
Standard
  9
$DIMCLRD
 70
     0
  9
$DIMCLRE
 70
     0
  9
$DIMCLRT
 70
     0
  9
$DIMTFAC
 40
1.0
  9
$DIMGAP
 40
0.09
  9
$DIMJUST
 70
     0
  9
$DIMSD1
 70
     0
  9
$DIMSD2
 70
     0
  9
$DIMTOLJ
 70
     1
  9
$DIMTZIN
 70
     0
  9
$DIMALTZ
 70
     0
  9
$DIMALTTZ
 70
     0
  9
$DIMUPT
 70
     0
  9
$DIMDEC
 70
     4
  9
$DIMTDEC
 70
     4
  9
$DIMALTU
 70
     2
  9
$DIMALTTD
 70
     2
  9
$DIMTXSTY
  7
Standard
  9
$DIMAUNIT
 70
     0
  9
$DIMADEC
 70
     0
  9
$DIMALTRND
 40
0.0
  9
$DIMAZIN
 70
     0
  9
$DIMDSEP
 70
     0
  9
$DIMATFIT
 70
     3
  9
$DIMFRAC
 70
     0
  9
$DIMLDRBLK
  1

  9
$DIMLUNIT
 70
     2
  9
$DIMLWD
 70
     0
  9
$DIMLWE
 70
     0
  9
$DIMTMOVE
 70
     0
  9
$DIMFXL
 40
1.0
  9
$DIMFXLON
 70
     0
  9
$DIMJOGANG
 40
0.7853981633974483
  9
$DIMTFILL
 70
     0
  9
$DIMTFILLCLR
 70
     0
  9
$DIMARCSYM
 70
     0
  9
$DIMLTYPE
  6

  9
$DIMLTEX1
  6

  9
$DIMLTEX2
  6

  9
$DIMTXTDIRECTION
 70
     0
  9
$LUNITS
 70
     2
  9
$LUPREC
 70
     4
  9
$SKETCHINC
 40
0.1
  9
$FILLETRAD
 40
0.0
  9
$AUNITS
 70
     0
  9
$AUPREC
 70
     0
  9
$MENU
  1
acad
  9
$ELEVATION
 40
0.0
  9
$PELEVATION
 40
0.0
  9
$THICKNESS
 40
0.0
  9
$LIMCHECK
 70
     0
  9
$CHAMFERA
 40
0.0
  9
$CHAMFERB
 40
0.0
  9
$CHAMFERC
 40
0.0
  9
$CHAMFERD
 40
0.0
  9
$SKPOLY
 70
     0
  9
$TDCREATE
 40
2447893.041666667
  9
$TDUCREATE
 40
0.0
  9
$TDUPDATE
 40
2457234.640822604
  9
$TDUUPDATE
 40
2457234.599155937
  9
$TDINDWG
 40
0.0
  9
$TDUSRTIMER
 40
0.0
  9
$USRTIMER
 70
     1
  9
$ANGBASE
 50
0.0
  9
$ANGDIR
 70
     0
  9
$PDMODE
 70
     0
  9
$PDSIZE
 40
0.0
  9
$PLINEWID
 40
0.0
  9
$SPLFRAME
 70
     0
  9
$SPLINETYPE
 70
     6
  9
$SPLINESEGS
 70
     8
  9
$HANDSEED
  5
1AF
  9
$SURFTAB1
 70
     6
  9
$SURFTAB2
 70
     6
  9
$SURFTYPE
 70
     6
  9
$SURFU
 70
     6
  9
$SURFV
 70
     6
  9
$UCSBASE
  2

  9
$UCSNAME
  2

  9
$UCSORG
 10
0.0
 20
0.0
 30
0.0
  9
$UCSXDIR
 10
1.0
 20
0.0
 30
0.0
  9
$UCSYDIR
 10
0.0
 20
1.0
 30
0.0
  9
$UCSORTHOREF
  2

  9
$UCSORTHOVIEW
 70
     0
  9
$UCSORGTOP
 10
0.0
 20
0.0
 30
0.0
  9
$UCSORGBOTTOM
 10
0.0
 20
0.0
 30
0.0
  9
$UCSORGLEFT
 10
0.0
 20
0.0
 30
0.0
  9
$UCSORGRIGHT
 10
0.0
 20
0.0
 30
0.0
  9
$UCSORGFRONT
 10
0.0
 20
0.0
 30
0.0
  9
$UCSORGBACK
 10
0.0
 20
0.0
 30
0.0
  9
$PUCSBASE
  2

  9
$PUCSNAME
  2

  9
$PUCSORG
 10
0.0
 20
0.0
 30
0.0
  9
$PUCSXDIR
 10
1.0
 20
0.0
 30
0.0
  9
$PUCSYDIR
 10
0.0
 20
1.0
 30
0.0
  9
$PUCSORTHOREF
  2

  9
$PUCSORTHOVIEW
 70
     0
  9
$PUCSORGTOP
 10
0.0
 20
0.0
 30
0.0
  9
$PUCSORGBOTTOM
 10
0.0
 20
0.0
 30
0.0
  9
$PUCSORGLEFT
 10
0.0
 20
0.0
 30
0.0
  9
$PUCSORGRIGHT
 10
0.0
 20
0.0
 30
0.0
  9
$PUCSORGFRONT
 10
0.0
 20
0.0
 30
0.0
  9
$PUCSORGBACK
 10
0.0
 20
0.0
 30
0.0
  9
$USERI1
 70
     0
  9
$USERI2
 70
     0
  9
$USERI3
 70
     0
  9
$USERI4
 70
     0
  9
$USERI5
 70
     0
  9
$USERR1
 40
0.0
  9
$USERR2
 40
0.0
  9
$USERR3
 40
0.0
  9
$USERR4
 40
0.0
  9
$USERR5
 40
0.0
  9
$WORLDVIEW
 70
     1
  9
$SHADEDGE
 70
     3
  9
$SHADEDIF
 70
    70
  9
$TILEMODE
 70
     1
  9
$MAXACTVP
 70
    16
  9
$PINSBASE
 10
0.0
 20
0.0
 30
0.0
  9
$PLIMCHECK
 70
     0
  9
$PEXTMIN
 10
1.000000000000000E+20
 20
1.000000000000000E+20
 30
1.000000000000000E+20
  9
$PEXTMAX
 10
-1.000000000000000E+20
 20
-1.000000000000000E+20
 30
-1.000000000000000E+20
  9
$PLIMMIN
 10
0.0
 20
0.0
  9
$PLIMMAX
 10
12.0
 20
9.0
  9
$UNITMODE
 70
     0
  9
$VISRETAIN
 70
     0
  9
$PLINEGEN
 70
     1
  9
$PSLTSCALE
 70
     0
  9
$TREEDEPTH
 70
  3020
  9
$CMLSTYLE
  2
Standard
  9
$CMLJUST
 70
     0
  9
$CMLSCALE
 40
1.0
  9
$PROXYGRAPHICS
 70
     0
  9
$MEASUREMENT
 70
     0
  9
$CELWEIGHT
370
     0
  9
$ENDCAPS
280
     0
  9
$JOINSTYLE
280
     0
  9
$LWDISPLAY
290
     0
  9
$INSUNITS
 70
     0
  9
$HYPERLINKBASE
  1

  9
$STYLESHEET
  1

  9
$XEDIT
290
     1
  9
$CEPSNTYPE
380
     0
  9
$PSTYLEMODE
290
     1
  9
$FINGERPRINTGUID
  2

  9
$VERSIONGUID
  2

  9
$EXTNAMES
290
     1
  9
$PSVPSCALE
 40
0.0
  9
$OLESTARTUP
290
     0
  9
$SORTENTS
280
   127
  9
$INDEXCTL
280
     0
  9
$HIDETEXT
280
     1
  9
$XCLIPFRAME
280
     2
  9
$HALOGAP
280
     0
  9
$OBSCOLOR
 70
   257
  9
$OBSLTYPE
280
     0
  9
$INTERSECTIONDISPLAY
280
     0
  9
$INTERSECTIONCOLOR
 70
   257
  9
$DIMASSOC
280
     2
  9
$PROJECTNAME
  1

  9
$CAMERADISPLAY
290
     0
  9
$LENSLENGTH
 40
50.0
  9
$CAMERAHEIGHT
 40
0.0
  9
$STEPSPERSEC
 40
2.0
  9
$STEPSIZE
 40
6.0
  9
$3DDWFPREC
 40
2.0
  9
$PSOLWIDTH
 40
0.25
  9
$PSOLHEIGHT
 40
4.0
  9
$LOFTANG1
 40
1.570796326794897
  9
$LOFTANG2
 40
1.570796326794897
  9
$LOFTMAG1
 40
0.0
  9
$LOFTMAG2
 40
0.0
  9
$LOFTPARAM
 70
     7
  9
$LOFTNORMALS
280
     1
  9
$LATITUDE
 40
37.795
  9
$LONGITUDE
 40
-122.394
  9
$NORTHDIRECTION
 40
0.0
  9
$TIMEZONE
 70
 -8000
  9
$LIGHTGLYPHDISPLAY
280
     1
  9
$TILEMODELIGHTSYNCH
280
     1
  9
$SOLIDHIST
280
     0
  9
$SHOWHIST
280
     1
  9
$DWFFRAME
280
     2
  9
$DGNFRAME
280
     2
  9
$REALWORLDSCALE
290
     1
  9
$INTERFERECOLOR
 62
   256
  9
$CSHADOW
280
     0
  9
$SHADOWPLANELOCATION
 40
0.0
  0
ENDSEC
  0
SECTION
  2
CLASSES
  0
CLASS
  1
LWPOLYLINE
  2
AcDbPolyline
  3
ObjectDBX Classes
 90
        0
 91
        1
280
     0
281
     1
  0
CLASS
  1
IMAGE
  2
AcDbRasterImage
  3
ISM
 90
      127
 91
        5
280
     0
281
     1
  0
CLASS
  1
OLE2FRAME
  2
AcDbOle2Frame
  3
ObjectDBX Classes
 90
        0
 91
        1
280
     0
281
     1
  0
CLASS
  1
HATCH
  2
AcDbHatch
  3
ObjectDBX Classes
 90
        0
 91
        1
280
     0
281
     1
  0
CLASS
  1
DICTIONARYVAR
  2
AcDbDictionaryVar
  3
ObjectDBX Classes
 90
        0
 91
        4
280
     0
281
     0
  0
CLASS
  1
RASTERVARIABLES
  2
AcDbRasterVariables
  3
ISM
 90
        0
 91
        4
280
     0
281
     0
  0
CLASS
  1
IMAGEDEF
  2
AcDbRasterImageDef
  3
ISM
 90
        0
 91
        4
280
     0
281
     0
  0
CLASS
  1
IMAGEDEF_REACTOR
  2
AcDbRasterImageDefReactor
  3
ISM
 90
        1
 91
        4
280
     0
281
     0
  0
CLASS
  1
IDBUFFER
  2
AcDbIdBuffer
  3
ObjectDBX Classes
 90
        0
 91
        4
280
     0
281
     0
  0
CLASS
  1
SPATIAL_FILTER
  2
AcDbSpatialFilter
  3
ObjectDBX Classes
 90
        0
 91
        4
280
     0
281
     0
  0
CLASS
  1
XRECORD
  2
AcDbXrecord
  3
ObjectDBX Classes
 90
        0
 91
        1
280
     0
281
     0
  0
CLASS
  1
SORTENTSTABLE
  2
AcDbSortentsTable
  3
ObjectDBX Classes
 90
        0
 91
        4
280
     0
281
     0
  0
CLASS
  1
LAYER_INDEX
  2
AcDbLayerIndex
  3
ObjectDBX Classes
 90
        0
 91
        4
280
     0
281
     0
  0
CLASS
  1
SPATIAL_INDEX
  2
AcDbSpatialIndex
  3
AutoCAD 2000
 90
        0
 91
        4
280
     0
281
     0
  0
CLASS
  1
OBJECT_PTR
  2
CAseDLPNTableRecord
  3
ASE-LPNTableRecord
 90
        1
 91
        4
280
     0
281
     0
  0
CLASS
  1
LAYOUT
  2
AcDbLayout
  3
ObjectDBX Classes
 90
        0
 91
        1
280
     0
281
     0
  0
CLASS
  1
PLOTSETTINGS
  2
AcDbPlotSettings
  3
ObjectDBX Classes
 90
        0
 91
        4
280
     0
281
     0
  0
CLASS
  1
ACDBDICTIONARYWDFLT
  2
AcDbDictionaryWithDefault
  3
ObjectDBX Classes
 90
        0
 91
        4
280
     0
281
     0
  0
CLASS
  1
ACDBPLACEHOLDER
  2
AcDbPlaceHolder
  3
ObjectDBX Classes
 90
        0
 91
        1
280
     0
281
     0
  0
CLASS
  1
VBA_PROJECT
  2
AcDbVbaProject
  3
ObjectDBX Classes
 90
        0
 91
        1
280
     0
281
     0
  0
CLASS
  1
WIPEOUT
  2
AcDbWipeout
  3
WipeOut|AutoCAD Express Tool|expresstools@autodesk.com
 90
      127
 91
        4
280
     0
281
     1
  0
CLASS
  1
WIPEOUTVARIABLES
  2
AcDbWipeoutVariables
  3
WipeOut|AutoCAD Express Tool|expresstools@autodesk.com
 90
        0
 91
        4
280
     0
281
     0
  0
CLASS
  1
RTEXT
  2
RText
  3
RText|AutoCAD Express Tool|expresstools@autodesk.com
 90
        0
 91
        4
280
     0
281
     1
  0
CLASS
  1
ARCALIGNEDTEXT
  2
AcDbArcAlignedText
  3
ATEXT|AutoCAD Express Tool|expresstools@autodesk.com
 90
        0
 91
        4
280
     0
281
     1
  0
CLASS
  1
SCALE
  2
AcDbScale
  3
ObjectDBX Classes
 90
     1153
 91
        4
280
     0
281
     0
  0
CLASS
  1
VISUALSTYLE
  2
AcDbVisualStyle
  3
ObjectDBX Classes
 90
     4095
 91
        4
280
     0
281
     0
  0
CLASS
  1
MATERIAL
  2
AcDbMaterial
  3
ObjectDBX Classes
 90
     1153
 91
        4
280
     0
281
     0
  0
CLASS
  1
TABLESTYLE
  2
AcDbTableStyle
  3
ObjectDBX Classes
 90
     4095
 91
        4
280
     0
281
     0
  0
CLASS
  1
MLEADERSTYLE
  2
AcDbMLeaderStyle
  3
ACDB_MLEADERSTYLE_CLASS
 90
     4095
 91
        4
280
     0
281
     0
  0
CLASS
  1
CELLSTYLEMAP
  2
AcDbCellStyleMap
  3
ObjectDBX Classes
 90
     1152
 91
        4
280
     0
281
     0
  0
ENDSEC
  0
SECTION
  2
TABLES
  0
TABLE
  2
VPORT
  5
7
330
0
100
AcDbSymbolTable
 70
     1
  0
VPORT
  5
15
330
7
100
AcDbSymbolTableRecord
100
AcDbViewportTableRecord
  2
*ACTIVE
 70
     0
 10
0.0
 20
0.0
 11
1.0
 21
1.0
 12
6.591288
 22
4.579184
 13
0.0
 23
0.0
 14
1.0
 24
1.0
 15
0.0
 25
0.0
 16
0.0
 26
0.0
 36
1.0
 17
0.0
 27
0.0
 37
0.0
 40
9.158369
 41
0.688564
 42
50.0
 43
0.0
 44
0.0
 50
0.0
 51
0.0
 71
     0
 72
   100
 73
     1
 74
     1
 75
     0
 76
     0
 77
     0
 78
     0
281
     0
 65
     0
110
0.0
120
0.0
130
0.0
111
1.0
121
0.0
131
0.0
112
0.0
122
1.0
132
0.0
 79
     0
146
0.0
348
159
 60
     3
 61
     5
292
     1
282
     1
141
0.0
142
0.0
 63
   256
  0
ENDTAB
  0
TABLE
  2
LTYPE
  5
4
330
0
100
AcDbSymbolTable
 70
     3
  0
LTYPE
  5
11
330
4
100
AcDbSymbolTableRecord
100
AcDbLinetypeTableRecord
  2
ByBlock
 70
     0
  3

 72
    65
 73
     0
 40
0.0
  0
LTYPE
  5
12
330
4
100
AcDbSymbolTableRecord
100
AcDbLinetypeTableRecord
  2
ByLayer
 70
     0
  3

 72
    65
 73
     0
 40
0.0
  0
LTYPE
  5
13
330
4
100
AcDbSymbolTableRecord
100
AcDbLinetypeTableRecord
  2
Continuous
 70
     0
  3
Solid line
 72
    65
 73
     0
 40
0.0
  0
LTYPE
  5
37
330
4
100
AcDbSymbolTableRecord
100
AcDbLinetypeTableRecord
  2
AI9-LType1
 70
     0
  3
Illustrator Dash Style No.1
 72
    65
 73
     4
 40
4.586111
 49
2.116667
 74
     0
 49
-1.058333
 74
     0
 49
0.352778
 74
     0
 49
-1.058333
 74
     0
  0
LTYPE
  5
3F
330
4
100
AcDbSymbolTableRecord
100
AcDbLinetypeTableRecord
  2
AI9-LType2
 70
     0
  3
Illustrator Dash Style No.2
 72
    65
 73
     0
 40
0.0
  0
ENDTAB
  0
TABLE
  2
LAYER
  5
2
330
0
100
AcDbSymbolTable
 70
     2
  0
LAYER
  5
14
330
2
100
AcDbSymbolTableRecord
100
AcDbLayerTableRecord
  2
0
 70
     0
 62
     7
  6
Continuous
370
    -3
390
1D
347
170
  0
LAYER
  5
28
330
2
100
AcDbSymbolTableRecord
100
AcDbLayerTableRecord
  2
LAYER_1
 70
     0
 62
   160
  6
Continuous
370
    -3
390
1D
347
170
  0
ENDTAB
  0
TABLE
  2
STYLE
  5
3
330
0
100
AcDbSymbolTable
 70
     5
  0
STYLE
  5
17
330
3
100
AcDbSymbolTableRecord
100
AcDbTextStyleTableRecord
  2
Standard
 70
     0
 40
0.0
 41
1.0
 50
0.0
 71
     0
 42
0.0
  3
txt
  4

  0
STYLE
  5
24
330
3
100
AcDbSymbolTableRecord
100
AcDbTextStyleTableRecord
  2
STD
 70
     0
 40
0.0
 41
1.0
 50
0.0
 71
     0
 42
0.0
  3
txt
  4

  0
STYLE
  5
25
330
3
100
AcDbSymbolTableRecord
100
AcDbTextStyleTableRecord
  2
TATESTD
 70
     4
 40
0.0
 41
1.0
 50
0.0
 71
     0
 42
0.0
  3
txt
  4

  0
STYLE
  5
26
330
3
100
AcDbSymbolTableRecord
100
AcDbTextStyleTableRecord
  2
KANJISTD
 70
     0
 40
0.0
 41
1.0
 50
0.0
 71
     0
 42
0.0
  3
txt
  4
extfont
  0
STYLE
  5
27
330
3
100
AcDbSymbolTableRecord
100
AcDbTextStyleTableRecord
  2
KANJITATE
 70
     4
 40
0.0
 41
1.0
 50
0.0
 71
     0
 42
0.0
  3
txt
  4
extfont
  0
ENDTAB
  0
TABLE
  2
VIEW
  5
5
330
0
100
AcDbSymbolTable
 70
     0
  0
ENDTAB
  0
TABLE
  2
UCS
  5
6
330
0
100
AcDbSymbolTable
 70
     0
  0
ENDTAB
  0
TABLE
  2
APPID
  5
8
330
0
100
AcDbSymbolTable
 70
     1
  0
APPID
  5
16
330
8
100
AcDbSymbolTableRecord
100
AcDbRegAppTableRecord
  2
ACAD
 70
     0
  0
ENDTAB
  0
TABLE
  2
DIMSTYLE
  5
9
330
0
100
AcDbSymbolTable
 70
     1
100
AcDbDimStyleTable
  0
DIMSTYLE
105
18
330
9
100
AcDbSymbolTableRecord
100
AcDbDimStyleTableRecord
  2
Standard
 70
     0
178
     0
340
17
  0
ENDTAB
  0
TABLE
  2
BLOCK_RECORD
  5
1
330
0
100
AcDbSymbolTable
 70
    24
  0
BLOCK_RECORD
  5
A
330
1
100
AcDbSymbolTableRecord
100
AcDbBlockTableRecord
  2
*MODEL_SPACE
340
20
 70
     0
280
     1
281
     0
  0
BLOCK_RECORD
  5
B
330
1
100
AcDbSymbolTableRecord
100
AcDbBlockTableRecord
  2
*PAPER_SPACE
340
21
 70
     0
280
     1
281
     0
  0
BLOCK_RECORD
  5
63
330
1
100
AcDbSymbolTableRecord
100
AcDbBlockTableRecord
  2
AI9-BLK1
340
0
102
{BLKREFS
331
64
102
}
 70
     0
280
     1
281
     0
  0
BLOCK_RECORD
  5
66
330
1
100
AcDbSymbolTableRecord
100
AcDbBlockTableRecord
  2
AI9-BLK2
340
0
102
{BLKREFS
331
67
102
}
 70
     0
280
     1
281
     0
  0
BLOCK_RECORD
  5
69
330
1
100
AcDbSymbolTableRecord
100
AcDbBlockTableRecord
  2
AI9-BLK3
340
0
102
{BLKREFS
331
6A
102
}
 70
     0
280
     1
281
     0
  0
BLOCK_RECORD
  5
6C
330
1
100
AcDbSymbolTableRecord
100
AcDbBlockTableRecord
  2
AI9-BLK4
340
0
102
{BLKREFS
331
6D
102
}
 70
     0
280
     1
281
     0
  0
BLOCK_RECORD
  5
6F
330
1
100
AcDbSymbolTableRecord
100
AcDbBlockTableRecord
  2
AI9-BLK5
340
0
102
{BLKREFS
331
70
102
}
 70
     0
280
     1
281
     0
  0
BLOCK_RECORD
  5
7A
330
1
100
AcDbSymbolTableRecord
100
AcDbBlockTableRecord
  2
AI9-BLK6
340
0
102
{BLKREFS
331
7B
102
}
 70
     0
280
     1
281
     0
  0
BLOCK_RECORD
  5
7D
330
1
100
AcDbSymbolTableRecord
100
AcDbBlockTableRecord
  2
AI9-BLK7
340
0
102
{BLKREFS
331
7E
102
}
 70
     0
280
     1
281
     0
  0
BLOCK_RECORD
  5
80
330
1
100
AcDbSymbolTableRecord
100
AcDbBlockTableRecord
  2
AI9-BLK8
340
0
102
{BLKREFS
331
81
102
}
 70
     0
280
     1
281
     0
  0
BLOCK_RECORD
  5
83
330
1
100
AcDbSymbolTableRecord
100
AcDbBlockTableRecord
  2
AI9-BLK9
340
0
102
{BLKREFS
331
84
102
}
 70
     0
280
     1
281
     0
  0
BLOCK_RECORD
  5
86
330
1
100
AcDbSymbolTableRecord
100
AcDbBlockTableRecord
  2
AI9-BLK10
340
0
102
{BLKREFS
331
87
102
}
 70
     0
280
     1
281
     0
  0
BLOCK_RECORD
  5
91
330
1
100
AcDbSymbolTableRecord
100
AcDbBlockTableRecord
  2
AI9-BLK11
340
0
102
{BLKREFS
331
92
102
}
 70
     0
280
     1
281
     0
  0
BLOCK_RECORD
  5
96
330
1
100
AcDbSymbolTableRecord
100
AcDbBlockTableRecord
  2
AI9-BLK12
340
0
102
{BLKREFS
331
97
102
}
 70
     0
280
     1
281
     0
  0
BLOCK_RECORD
  5
9B
330
1
100
AcDbSymbolTableRecord
100
AcDbBlockTableRecord
  2
AI9-BLK13
340
0
102
{BLKREFS
331
9C
102
}
 70
     0
280
     1
281
     0
  0
BLOCK_RECORD
  5
A0
330
1
100
AcDbSymbolTableRecord
100
AcDbBlockTableRecord
  2
AI9-BLK14
340
0
102
{BLKREFS
331
A1
102
}
 70
     0
280
     1
281
     0
  0
BLOCK_RECORD
  5
A5
330
1
100
AcDbSymbolTableRecord
100
AcDbBlockTableRecord
  2
AI9-BLK15
340
0
102
{BLKREFS
331
A6
102
}
 70
     0
280
     1
281
     0
  0
BLOCK_RECORD
  5
AA
330
1
100
AcDbSymbolTableRecord
100
AcDbBlockTableRecord
  2
AI9-BLK16
340
0
102
{BLKREFS
331
AB
102
}
 70
     0
280
     1
281
     0
  0
BLOCK_RECORD
  5
AF
330
1
100
AcDbSymbolTableRecord
100
AcDbBlockTableRecord
  2
AI9-BLK17
340
0
102
{BLKREFS
331
B0
102
}
 70
     0
280
     1
281
     0
  0
BLOCK_RECORD
  5
B4
330
1
100
AcDbSymbolTableRecord
100
AcDbBlockTableRecord
  2
AI9-BLK18
340
0
102
{BLKREFS
331
B5
102
}
 70
     0
280
     1
281
     0
  0
BLOCK_RECORD
  5
B9
330
1
100
AcDbSymbolTableRecord
100
AcDbBlockTableRecord
  2
AI9-BLK19
340
0
102
{BLKREFS
331
BA
102
}
 70
     0
280
     1
281
     0
  0
BLOCK_RECORD
  5
BE
330
1
100
AcDbSymbolTableRecord
100
AcDbBlockTableRecord
  2
AI9-BLK20
340
0
102
{BLKREFS
331
BF
102
}
 70
     0
280
     1
281
     0
  0
BLOCK_RECORD
  5
C3
330
1
100
AcDbSymbolTableRecord
100
AcDbBlockTableRecord
  2
AI9-BLK21
340
0
102
{BLKREFS
331
C4
102
}
 70
     0
280
     1
281
     0
  0
BLOCK_RECORD
  5
C8
330
1
100
AcDbSymbolTableRecord
100
AcDbBlockTableRecord
  2
AI9-BLK22
340
0
102
{BLKREFS
331
C9
102
}
 70
     0
280
     1
281
     0
  0
BLOCK_RECORD
  5
CD
330
1
100
AcDbSymbolTableRecord
100
AcDbBlockTableRecord
  2
AI9-BLK23
340
0
102
{BLKREFS
331
CE
102
}
 70
     0
280
     1
281
     0
  0
BLOCK_RECORD
  5
D2
330
1
100
AcDbSymbolTableRecord
100
AcDbBlockTableRecord
  2
AI9-BLK24
340
0
102
{BLKREFS
331
D3
102
}
 70
     0
280
     1
281
     0
  0
ENDTAB
  0
ENDSEC
  0
SECTION
  2
BLOCKS
  0
BLOCK
  5
D
330
A
100
AcDbEntity
  8
0
100
AcDbBlockBegin
  2
*MODEL_SPACE
 70
     0
 10
0.0
 20
0.0
 30
0.0
  3
*MODEL_SPACE
  1

  0
ENDBLK
  5
E
330
A
100
AcDbEntity
  8
0
100
AcDbBlockEnd
  0
BLOCK
  5
F
330
B
100
AcDbEntity
 67
     1
  8
0
100
AcDbBlockBegin
  2
*PAPER_SPACE
 70
     0
 10
0.0
 20
0.0
 30
0.0
  3
*PAPER_SPACE
  1

  0
ENDBLK
  5
10
330
B
100
AcDbEntity
 67
     1
  8
0
100
AcDbBlockEnd
  0
BLOCK
  5
65
330
63
100
AcDbEntity
  8
LAYER_1
 62
     7
100
AcDbBlockBegin
  2
AI9-BLK1
 70
     0
 10
0.0
 20
0.0
 30
0.0
  3
AI9-BLK1
  1

  0
INSERT
  5
67
330
63
100
AcDbEntity
  8
LAYER_1
 62
     7
100
AcDbBlockReference
  2
AI9-BLK2
 10
0.0
 20
0.0
 30
0.0
  0
ENDBLK
  5
79
330
63
100
AcDbEntity
  8
LAYER_1
100
AcDbBlockEnd
  0
BLOCK
  5
68
330
66
100
AcDbEntity
  8
LAYER_1
 62
     7
100
AcDbBlockBegin
  2
AI9-BLK2
 70
     0
 10
0.0
 20
0.0
 30
0.0
  3
AI9-BLK2
  1

  0
INSERT
  5
6A
330
66
100
AcDbEntity
  8
LAYER_1
 62
     7
100
AcDbBlockReference
  2
AI9-BLK3
 10
0.0
 20
0.0
 30
0.0
  0
ENDBLK
  5
78
330
66
100
AcDbEntity
  8
LAYER_1
100
AcDbBlockEnd
  0
BLOCK
  5
6B
330
69
100
AcDbEntity
  8
LAYER_1
 62
     7
100
AcDbBlockBegin
  2
AI9-BLK3
 70
     0
 10
0.0
 20
0.0
 30
0.0
  3
AI9-BLK3
  1

  0
INSERT
  5
6D
330
69
100
AcDbEntity
  8
LAYER_1
 62
     7
100
AcDbBlockReference
  2
AI9-BLK4
 10
0.0
 20
0.0
 30
0.0
  0
ENDBLK
  5
77
330
69
100
AcDbEntity
  8
LAYER_1
100
AcDbBlockEnd
  0
BLOCK
  5
6E
330
6C
100
AcDbEntity
  8
LAYER_1
 62
     7
100
AcDbBlockBegin
  2
AI9-BLK4
 70
     0
 10
0.0
 20
0.0
 30
0.0
  3
AI9-BLK4
  1

  0
INSERT
  5
70
330
6C
100
AcDbEntity
  8
LAYER_1
 62
     7
100
AcDbBlockReference
  2
AI9-BLK5
 10
0.0
 20
0.0
 30
0.0
  0
ENDBLK
  5
76
330
6C
100
AcDbEntity
  8
LAYER_1
100
AcDbBlockEnd
  0
BLOCK
  5
71
330
6F
100
AcDbEntity
  8
LAYER_1
 62
     7
100
AcDbBlockBegin
  2
AI9-BLK5
 70
     0
 10
0.0
 20
0.0
 30
0.0
  3
AI9-BLK5
  1

  0
CIRCLE
  5
74
330
6F
100
AcDbEntity
  8
LAYER_1
 62
     7
100
AcDbCircle
 10
0.000172
 20
-0.000345
 30
0.0
 40
1.000111
  0
LINE
  5
73
330
6F
100
AcDbEntity
  8
LAYER_1
 62
     7
100
AcDbLine
 10
-0.000172
 20
1.999878
 30
0.0
 11
-0.000172
 21
-1.999878
 31
0.0
  0
LINE
  5
72
330
6F
100
AcDbEntity
  8
LAYER_1
 62
     7
100
AcDbLine
 10
-2.00005
 20
-0.000345
 30
0.0
 11
2.00005
 21
-0.000345
 31
0.0
  0
ENDBLK
  5
75
330
6F
100
AcDbEntity
  8
LAYER_1
100
AcDbBlockEnd
  0
BLOCK
  5
7C
330
7A
100
AcDbEntity
  8
LAYER_1
 62
     7
100
AcDbBlockBegin
  2
AI9-BLK6
 70
     0
 10
0.0
 20
0.0
 30
0.0
  3
AI9-BLK6
  1

  0
INSERT
  5
7E
330
7A
100
AcDbEntity
  8
LAYER_1
 62
     7
100
AcDbBlockReference
  2
AI9-BLK7
 10
0.0
 20
0.0
 30
0.0
  0
ENDBLK
  5
90
330
7A
100
AcDbEntity
  8
LAYER_1
100
AcDbBlockEnd
  0
BLOCK
  5
7F
330
7D
100
AcDbEntity
  8
LAYER_1
 62
     7
100
AcDbBlockBegin
  2
AI9-BLK7
 70
     0
 10
0.0
 20
0.0
 30
0.0
  3
AI9-BLK7
  1

  0
INSERT
  5
81
330
7D
100
AcDbEntity
  8
LAYER_1
 62
     7
100
AcDbBlockReference
  2
AI9-BLK8
 10
0.0
 20
0.0
 30
0.0
  0
ENDBLK
  5
8F
330
7D
100
AcDbEntity
  8
LAYER_1
100
AcDbBlockEnd
  0
BLOCK
  5
82
330
80
100
AcDbEntity
  8
LAYER_1
 62
     7
100
AcDbBlockBegin
  2
AI9-BLK8
 70
     0
 10
0.0
 20
0.0
 30
0.0
  3
AI9-BLK8
  1

  0
INSERT
  5
84
330
80
100
AcDbEntity
  8
LAYER_1
 62
     7
100
AcDbBlockReference
  2
AI9-BLK9
 10
0.0
 20
0.0
 30
0.0
  0
ENDBLK
  5
8E
330
80
100
AcDbEntity
  8
LAYER_1
100
AcDbBlockEnd
  0
BLOCK
  5
85
330
83
100
AcDbEntity
  8
LAYER_1
 62
     7
100
AcDbBlockBegin
  2
AI9-BLK9
 70
     0
 10
0.0
 20
0.0
 30
0.0
  3
AI9-BLK9
  1

  0
INSERT
  5
87
330
83
100
AcDbEntity
  8
LAYER_1
 62
     7
100
AcDbBlockReference
  2
AI9-BLK10
 10
0.0
 20
0.0
 30
0.0
  0
ENDBLK
  5
8D
330
83
100
AcDbEntity
  8
LAYER_1
100
AcDbBlockEnd
  0
BLOCK
  5
88
330
86
100
AcDbEntity
  8
LAYER_1
 62
     7
100
AcDbBlockBegin
  2
AI9-BLK10
 70
     0
 10
0.0
 20
0.0
 30
0.0
  3
AI9-BLK10
  1

  0
CIRCLE
  5
8B
330
86
100
AcDbEntity
  8
LAYER_1
 62
     7
100
AcDbCircle
 10
0.000172
 20
-0.000345
 30
0.0
 40
1.000111
  0
LINE
  5
8A
330
86
100
AcDbEntity
  8
LAYER_1
 62
     7
100
AcDbLine
 10
-0.000172
 20
1.999878
 30
0.0
 11
-0.000172
 21
-1.999878
 31
0.0
  0
LINE
  5
89
330
86
100
AcDbEntity
  8
LAYER_1
 62
     7
100
AcDbLine
 10
-2.00005
 20
-0.000345
 30
0.0
 11
2.00005
 21
-0.000345
 31
0.0
  0
ENDBLK
  5
8C
330
86
100
AcDbEntity
  8
LAYER_1
100
AcDbBlockEnd
  0
BLOCK
  5
93
330
91
100
AcDbEntity
  8
LAYER_1
 62
     7
100
AcDbBlockBegin
  2
AI9-BLK11
 70
     0
 10
0.0
 20
0.0
 30
0.0
  3
AI9-BLK11
  1

  0
HATCH
  5
94
330
91
100
AcDbEntity
  8
LAYER_1
 62
     7
100
AcDbHatch
 10
0.0
 20
0.0
 30
0.0
210
0.0
220
0.0
230
1.0
  2
SOLID
 70
     1
 71
     0
 91
        1
 92
        1
 93
        1
 72
     4
 94
        3
 73
     0
 74
     0
 95
       14
 96
       10
 40
0.0
 40
0.0
 40
0.0
 40
0.0
 40
1.0
 40
1.0
 40
1.0
 40
2.0
 40
2.0
 40
2.0
 40
3.0
 40
3.0
 40
3.0
 40
3.0
 10
-1.159963650173611
 20
-1.49913330078125
 10
-1.159963650173611
 20
-1.49913330078125
 10
-0.4909261067708333
 20
-1.862590874565972
 10
1.159963650173611
 20
2.079287380642361
 10
-0.4874810112847222
 20
-1.856045193142361
 10
0.1657090928819444
 20
-2.079287380642361
 10
0.1657090928819444
 20
-2.079287380642361
 10
0.1657090928819444
 20
-2.079287380642361
 10
-1.159963650173611
 20
-1.49913330078125
 10
-1.159963650173611
 20
-1.49913330078125
 97
        0
 97
        0
 75
     0
 76
     1
 98
        1
 10
0.0
 20
0.0
  0
ENDBLK
  5
95
330
91
100
AcDbEntity
  8
LAYER_1
100
AcDbBlockEnd
  0
BLOCK
  5
98
330
96
100
AcDbEntity
  8
LAYER_1
 62
     7
100
AcDbBlockBegin
  2
AI9-BLK12
 70
     0
 10
0.0
 20
0.0
 30
0.0
  3
AI9-BLK12
  1

  0
HATCH
  5
99
330
96
100
AcDbEntity
  8
LAYER_1
 62
     7
100
AcDbHatch
 10
0.0
 20
0.0
 30
0.0
210
0.0
220
0.0
230
1.0
  2
SOLID
 70
     1
 71
     0
 91
        1
 92
        1
 93
        1
 72
     4
 94
        3
 73
     0
 74
     0
 95
       14
 96
       10
 40
0.0
 40
0.0
 40
0.0
 40
0.0
 40
1.0
 40
1.0
 40
1.0
 40
2.0
 40
2.0
 40
2.0
 40
3.0
 40
3.0
 40
3.0
 40
3.0
 10
4.977473958333333
 20
-0.6338975694444444
 10
4.977473958333333
 20
-0.6338975694444444
 10
5.053955078124999
 20
0.0895724826388889
 10
-4.977473958333333
 20
-0.7234700520833333
 10
5.035007052951388
 20
0.0830268012152778
 10
4.827956814236111
 20
0.7234700520833333
 10
4.827956814236111
 20
0.7234700520833333
 10
4.827956814236111
 20
0.7234700520833333
 10
4.977473958333333
 20
-0.6338975694444444
 10
4.977473958333333
 20
-0.6338975694444444
 97
        0
 97
        0
 75
     0
 76
     1
 98
        1
 10
0.0
 20
0.0
  0
ENDBLK
  5
9A
330
96
100
AcDbEntity
  8
LAYER_1
100
AcDbBlockEnd
  0
BLOCK
  5
9D
330
9B
100
AcDbEntity
  8
LAYER_1
 62
     7
100
AcDbBlockBegin
  2
AI9-BLK13
 70
     0
 10
0.0
 20
0.0
 30
0.0
  3
AI9-BLK13
  1

  0
HATCH
  5
9E
330
9B
100
AcDbEntity
  8
LAYER_1
 62
     7
100
AcDbHatch
 10
0.0
 20
0.0
 30
0.0
210
0.0
220
0.0
230
1.0
  2
SOLID
 70
     1
 71
     0
 91
        1
 92
        1
 93
        1
 72
     4
 94
        3
 73
     0
 74
     0
 95
       14
 96
       10
 40
0.0
 40
0.0
 40
0.0
 40
0.0
 40
1.0
 40
1.0
 40
1.0
 40
2.0
 40
2.0
 40
2.0
 40
3.0
 40
3.0
 40
3.0
 40
3.0
 10
-1.367186143663194
 20
-1.306380208333333
 10
-1.367186143663194
 20
-1.306380208333333
 10
-0.9368937174479166
 20
-1.659847005208333
 10
1.367186143663194
 20
1.886534288194444
 10
-0.9306925455729166
 20
-1.657090928819444
 10
-0.4780069986979166
 20
-1.886534288194444
 10
-0.4780069986979166
 20
-1.886534288194444
 10
-0.4780069986979166
 20
-1.886534288194444
 10
-1.367186143663194
 20
-1.306380208333333
 10
-1.367186143663194
 20
-1.306380208333333
 97
        0
 97
        0
 75
     0
 76
     1
 98
        1
 10
0.0
 20
0.0
  0
ENDBLK
  5
9F
330
9B
100
AcDbEntity
  8
LAYER_1
100
AcDbBlockEnd
  0
BLOCK
  5
A2
330
A0
100
AcDbEntity
  8
LAYER_1
 62
     7
100
AcDbBlockBegin
  2
AI9-BLK14
 70
     0
 10
0.0
 20
0.0
 30
0.0
  3
AI9-BLK14
  1

  0
HATCH
  5
A3
330
A0
100
AcDbEntity
  8
LAYER_1
 62
     7
100
AcDbHatch
 10
0.0
 20
0.0
 30
0.0
210
0.0
220
0.0
230
1.0
  2
SOLID
 70
     1
 71
     0
 91
        1
 92
        1
 93
        1
 72
     4
 94
        3
 73
     0
 74
     0
 95
       14
 96
       10
 40
0.0
 40
0.0
 40
0.0
 40
0.0
 40
1.0
 40
1.0
 40
1.0
 40
2.0
 40
2.0
 40
2.0
 40
3.0
 40
3.0
 40
3.0
 40
3.0
 10
-1.20302734375
 20
-0.8619628906249999
 10
-1.20302734375
 20
-0.8619628906249999
 10
-0.8140760633680555
 20
-1.218874782986111
 10
1.20302734375
 20
1.473811848958333
 10
-0.8078748914930555
 20
-1.2123291015625
 10
-0.4030761718749999
 20
-1.473811848958333
 10
-0.4030761718749999
 20
-1.473811848958333
 10
-0.4030761718749999
 20
-1.473811848958333
 10
-1.20302734375
 20
-0.8619628906249999
 10
-1.20302734375
 20
-0.8619628906249999
 97
        0
 97
        0
 75
     0
 76
     1
 98
        1
 10
0.0
 20
0.0
  0
ENDBLK
  5
A4
330
A0
100
AcDbEntity
  8
LAYER_1
100
AcDbBlockEnd
  0
BLOCK
  5
A7
330
A5
100
AcDbEntity
  8
LAYER_1
 62
     7
100
AcDbBlockBegin
  2
AI9-BLK15
 70
     0
 10
0.0
 20
0.0
 30
0.0
  3
AI9-BLK15
  1

  0
HATCH
  5
A8
330
A5
100
AcDbEntity
  8
LAYER_1
 62
     7
100
AcDbHatch
 10
0.0
 20
0.0
 30
0.0
210
0.0
220
0.0
230
1.0
  2
SOLID
 70
     1
 71
     0
 91
        1
 92
        1
 93
        1
 72
     4
 94
        3
 73
     0
 74
     0
 95
       14
 96
       10
 40
0.0
 40
0.0
 40
0.0
 40
0.0
 40
1.0
 40
1.0
 40
1.0
 40
2.0
 40
2.0
 40
2.0
 40
3.0
 40
3.0
 40
3.0
 40
3.0
 10
-1.249191623263889
 20
-1.397330729166667
 10
-1.249191623263889
 20
-1.397330729166667
 10
-0.7648111979166666
 20
-1.741840277777778
 10
1.249191623263889
 20
1.942344835069444
 10
-0.7617106119791666
 20
-1.728748914930555
 10
-0.2645833333333333
 20
-1.942344835069444
 10
-0.2645833333333333
 20
-1.942344835069444
 10
-0.2645833333333333
 20
-1.942344835069444
 10
-1.249191623263889
 20
-1.397330729166667
 10
-1.249191623263889
 20
-1.397330729166667
 97
        0
 97
        0
 75
     0
 76
     1
 98
        1
 10
0.0
 20
0.0
  0
ENDBLK
  5
A9
330
A5
100
AcDbEntity
  8
LAYER_1
100
AcDbBlockEnd
  0
BLOCK
  5
AC
330
AA
100
AcDbEntity
  8
LAYER_1
 62
     7
100
AcDbBlockBegin
  2
AI9-BLK16
 70
     0
 10
0.0
 20
0.0
 30
0.0
  3
AI9-BLK16
  1

  0
HATCH
  5
AD
330
AA
100
AcDbEntity
  8
LAYER_1
 62
     7
100
AcDbHatch
 10
0.0
 20
0.0
 30
0.0
210
0.0
220
0.0
230
1.0
  2
SOLID
 70
     1
 71
     0
 91
        1
 92
        1
 93
        1
 72
     4
 94
        3
 73
     0
 74
     0
 95
       14
 96
       10
 40
0.0
 40
0.0
 40
0.0
 40
0.0
 40
1.0
 40
1.0
 40
1.0
 40
2.0
 40
2.0
 40
2.0
 40
3.0
 40
3.0
 40
3.0
 40
3.0
 10
2.066368272569444
 20
-0.3186713324652777
 10
2.066368272569444
 20
-0.3186713324652777
 10
2.142849392361111
 20
0.0158474392361111
 10
-2.085660807291667
 20
0.0954291449652778
 10
2.136648220486111
 20
0.0158474392361111
 10
2.085660807291667
 20
0.3186713324652777
 10
2.085660807291667
 20
0.3186713324652777
 10
2.085660807291667
 20
0.3186713324652777
 10
2.066368272569444
 20
-0.3186713324652777
 10
2.066368272569444
 20
-0.3186713324652777
 97
        0
 97
        0
 75
     0
 76
     1
 98
        1
 10
0.0
 20
0.0
  0
ENDBLK
  5
AE
330
AA
100
AcDbEntity
  8
LAYER_1
100
AcDbBlockEnd
  0
BLOCK
  5
B1
330
AF
100
AcDbEntity
  8
LAYER_1
 62
     7
100
AcDbBlockBegin
  2
AI9-BLK17
 70
     0
 10
0.0
 20
0.0
 30
0.0
  3
AI9-BLK17
  1

  0
HATCH
  5
B2
330
AF
100
AcDbEntity
  8
LAYER_1
 62
     7
100
AcDbHatch
 10
0.0
 20
0.0
 30
0.0
210
0.0
220
0.0
230
1.0
  2
SOLID
 70
     1
 71
     0
 91
        1
 92
        1
 93
        1
 72
     4
 94
        3
 73
     0
 74
     0
 95
       14
 96
       10
 40
0.0
 40
0.0
 40
0.0
 40
0.0
 40
1.0
 40
1.0
 40
1.0
 40
2.0
 40
2.0
 40
2.0
 40
3.0
 40
3.0
 40
3.0
 40
3.0
 10
2.069468858506944
 20
-0.3171210394965278
 10
2.069468858506944
 20
-0.3171210394965278
 10
2.142849392361111
 20
0.0142971462673611
 10
-2.088761393229166
 20
0.0907782660590278
 10
2.133547634548611
 20
0.0142971462673611
 10
2.088761393229166
 20
0.3171210394965278
 10
2.088761393229166
 20
0.3171210394965278
 10
2.088761393229166
 20
0.3171210394965278
 10
2.069468858506944
 20
-0.3171210394965278
 10
2.069468858506944
 20
-0.3171210394965278
 97
        0
 97
        0
 75
     0
 76
     1
 98
        1
 10
0.0
 20
0.0
  0
ENDBLK
  5
B3
330
AF
100
AcDbEntity
  8
LAYER_1
100
AcDbBlockEnd
  0
BLOCK
  5
B6
330
B4
100
AcDbEntity
  8
LAYER_1
 62
     7
100
AcDbBlockBegin
  2
AI9-BLK18
 70
     0
 10
0.0
 20
0.0
 30
0.0
  3
AI9-BLK18
  1

  0
HATCH
  5
B7
330
B4
100
AcDbEntity
  8
LAYER_1
 62
     7
100
AcDbHatch
 10
0.0
 20
0.0
 30
0.0
210
0.0
220
0.0
230
1.0
  2
SOLID
 70
     1
 71
     0
 91
        1
 92
        1
 93
        1
 72
     4
 94
        3
 73
     0
 74
     0
 95
       14
 96
       10
 40
0.0
 40
0.0
 40
0.0
 40
0.0
 40
1.0
 40
1.0
 40
1.0
 40
2.0
 40
2.0
 40
2.0
 40
3.0
 40
3.0
 40
3.0
 40
3.0
 10
2.069468858506944
 20
-0.3217719184027778
 10
2.069468858506944
 20
-0.3217719184027778
 10
2.139748806423611
 20
0.0096462673611111
 10
-2.088761393229166
 20
0.0892279730902778
 10
2.133547634548611
 20
0.0096462673611111
 10
2.088761393229166
 20
0.3217719184027778
 10
2.088761393229166
 20
0.3217719184027778
 10
2.088761393229166
 20
0.3217719184027778
 10
2.069468858506944
 20
-0.3217719184027778
 10
2.069468858506944
 20
-0.3217719184027778
 97
        0
 97
        0
 75
     0
 76
     1
 98
        1
 10
0.0
 20
0.0
  0
ENDBLK
  5
B8
330
B4
100
AcDbEntity
  8
LAYER_1
100
AcDbBlockEnd
  0
BLOCK
  5
BB
330
B9
100
AcDbEntity
  8
LAYER_1
 62
     7
100
AcDbBlockBegin
  2
AI9-BLK19
 70
     0
 10
0.0
 20
0.0
 30
0.0
  3
AI9-BLK19
  1

  0
HATCH
  5
BC
330
B9
100
AcDbEntity
  8
LAYER_1
 62
     7
100
AcDbHatch
 10
0.0
 20
0.0
 30
0.0
210
0.0
220
0.0
230
1.0
  2
SOLID
 70
     1
 71
     0
 91
        1
 92
        1
 93
        1
 72
     4
 94
        3
 73
     0
 74
     0
 95
       14
 96
       10
 40
0.0
 40
0.0
 40
0.0
 40
0.0
 40
1.0
 40
1.0
 40
1.0
 40
2.0
 40
2.0
 40
2.0
 40
3.0
 40
3.0
 40
3.0
 40
3.0
 10
2.085660807291667
 20
-0.3169487847222222
 10
2.085660807291667
 20
-0.3169487847222222
 10
2.145949978298611
 20
0.0172254774305556
 10
-2.085660807291667
 20
0.0303168402777778
 10
2.136648220486111
 20
0.0172254774305556
 10
2.079115125868055
 20
0.3169487847222222
 10
2.079115125868055
 20
0.3169487847222222
 10
2.079115125868055
 20
0.3169487847222222
 10
2.085660807291667
 20
-0.3169487847222222
 10
2.085660807291667
 20
-0.3169487847222222
 97
        0
 97
        0
 75
     0
 76
     1
 98
        1
 10
0.0
 20
0.0
  0
ENDBLK
  5
BD
330
B9
100
AcDbEntity
  8
LAYER_1
100
AcDbBlockEnd
  0
BLOCK
  5
C0
330
BE
100
AcDbEntity
  8
LAYER_1
 62
     7
100
AcDbBlockBegin
  2
AI9-BLK20
 70
     0
 10
0.0
 20
0.0
 30
0.0
  3
AI9-BLK20
  1

  0
HATCH
  5
C1
330
BE
100
AcDbEntity
  8
LAYER_1
 62
     7
100
AcDbHatch
 10
0.0
 20
0.0
 30
0.0
210
0.0
220
0.0
230
1.0
  2
SOLID
 70
     1
 71
     0
 91
        1
 92
        1
 93
        1
 72
     4
 94
        3
 73
     0
 74
     0
 95
       14
 96
       10
 40
0.0
 40
0.0
 40
0.0
 40
0.0
 40
1.0
 40
1.0
 40
1.0
 40
2.0
 40
2.0
 40
2.0
 40
3.0
 40
3.0
 40
3.0
 40
3.0
 10
2.082560221354167
 20
-0.3217719184027778
 10
2.082560221354167
 20
-0.3217719184027778
 10
2.149395073784722
 20
0.0158474392361111
 10
-2.082560221354167
 20
0.0413411458333333
 10
2.142849392361111
 20
0.0158474392361111
 10
2.082560221354167
 20
0.3217719184027778
 10
2.082560221354167
 20
0.3217719184027778
 10
2.082560221354167
 20
0.3217719184027778
 10
2.082560221354167
 20
-0.3217719184027778
 10
2.082560221354167
 20
-0.3217719184027778
 97
        0
 97
        0
 75
     0
 76
     1
 98
        1
 10
0.0
 20
0.0
  0
ENDBLK
  5
C2
330
BE
100
AcDbEntity
  8
LAYER_1
100
AcDbBlockEnd
  0
BLOCK
  5
C5
330
C3
100
AcDbEntity
  8
LAYER_1
 62
     7
100
AcDbBlockBegin
  2
AI9-BLK21
 70
     0
 10
0.0
 20
0.0
 30
0.0
  3
AI9-BLK21
  1

  0
HATCH
  5
C6
330
C3
100
AcDbEntity
  8
LAYER_1
 62
     7
100
AcDbHatch
 10
0.0
 20
0.0
 30
0.0
210
0.0
220
0.0
230
1.0
  2
SOLID
 70
     1
 71
     0
 91
        1
 92
        1
 93
        1
 72
     4
 94
        3
 73
     0
 74
     0
 95
       14
 96
       10
 40
0.0
 40
0.0
 40
0.0
 40
0.0
 40
1.0
 40
1.0
 40
1.0
 40
2.0
 40
2.0
 40
2.0
 40
3.0
 40
3.0
 40
3.0
 40
3.0
 10
2.053793674045139
 20
-0.3171210394965278
 10
2.053793674045139
 20
-0.3171210394965278
 10
2.136820475260417
 20
0.0111965603298611
 10
-2.092034233940972
 20
0.1452107747395833
 10
2.127174207899305
 20
0.0177422417534722
 10
2.092034233940972
 20
0.3171210394965278
 10
2.092034233940972
 20
0.3171210394965278
 10
2.092034233940972
 20
0.3171210394965278
 10
2.053793674045139
 20
-0.3171210394965278
 10
2.053793674045139
 20
-0.3171210394965278
 97
        0
 97
        0
 75
     0
 76
     1
 98
        1
 10
0.0
 20
0.0
  0
ENDBLK
  5
C7
330
C3
100
AcDbEntity
  8
LAYER_1
100
AcDbBlockEnd
  0
BLOCK
  5
CA
330
C8
100
AcDbEntity
  8
LAYER_1
 62
     7
100
AcDbBlockBegin
  2
AI9-BLK22
 70
     0
 10
0.0
 20
0.0
 30
0.0
  3
AI9-BLK22
  1

  0
HATCH
  5
CB
330
C8
100
AcDbEntity
  8
LAYER_1
 62
     7
100
AcDbHatch
 10
0.0
 20
0.0
 30
0.0
210
0.0
220
0.0
230
1.0
  2
SOLID
 70
     1
 71
     0
 91
        1
 92
        1
 93
        1
 72
     4
 94
        3
 73
     0
 74
     0
 95
       14
 96
       10
 40
0.0
 40
0.0
 40
0.0
 40
0.0
 40
1.0
 40
1.0
 40
1.0
 40
2.0
 40
2.0
 40
2.0
 40
3.0
 40
3.0
 40
3.0
 40
3.0
 10
2.087383355034722
 20
-0.3186713324652777
 10
2.087383355034722
 20
-0.3186713324652777
 10
2.141471354166666
 20
0.0155029296875
 10
-2.087383355034722
 20
-0.0003445095486111
 10
2.134925672743055
 20
0.0155029296875
 10
2.07119140625
 20
0.3186713324652777
 10
2.07119140625
 20
0.3186713324652777
 10
2.07119140625
 20
0.3186713324652777
 10
2.087383355034722
 20
-0.3186713324652777
 10
2.087383355034722
 20
-0.3186713324652777
 97
        0
 97
        0
 75
     0
 76
     1
 98
        1
 10
0.0
 20
0.0
  0
ENDBLK
  5
CC
330
C8
100
AcDbEntity
  8
LAYER_1
100
AcDbBlockEnd
  0
BLOCK
  5
CF
330
CD
100
AcDbEntity
  8
LAYER_1
 62
     7
100
AcDbBlockBegin
  2
AI9-BLK23
 70
     0
 10
0.0
 20
0.0
 30
0.0
  3
AI9-BLK23
  1

  0
HATCH
  5
D0
330
CD
100
AcDbEntity
  8
LAYER_1
 62
     7
100
AcDbHatch
 10
0.0
 20
0.0
 30
0.0
210
0.0
220
0.0
230
1.0
  2
SOLID
 70
     1
 71
     0
 91
        1
 92
        1
 93
        1
 72
     4
 94
        3
 73
     0
 74
     0
 95
       14
 96
       10
 40
0.0
 40
0.0
 40
0.0
 40
0.0
 40
1.0
 40
1.0
 40
1.0
 40
2.0
 40
2.0
 40
2.0
 40
3.0
 40
3.0
 40
3.0
 40
3.0
 10
2.087211100260416
 20
-0.3186713324652777
 10
2.087211100260416
 20
-0.3186713324652777
 10
2.141299099392361
 20
0.0127468532986111
 10
-2.087211100260416
 20
-0.0127468532986111
 10
2.131997341579861
 20
0.0127468532986111
 10
2.064817979600694
 20
0.3186713324652777
 10
2.064817979600694
 20
0.3186713324652777
 10
2.064817979600694
 20
0.3186713324652777
 10
2.087211100260416
 20
-0.3186713324652777
 10
2.087211100260416
 20
-0.3186713324652777
 97
        0
 97
        0
 75
     0
 76
     1
 98
        1
 10
0.0
 20
0.0
  0
ENDBLK
  5
D1
330
CD
100
AcDbEntity
  8
LAYER_1
100
AcDbBlockEnd
  0
BLOCK
  5
D4
330
D2
100
AcDbEntity
  8
LAYER_1
 62
     7
100
AcDbBlockBegin
  2
AI9-BLK24
 70
     0
 10
0.0
 20
0.0
 30
0.0
  3
AI9-BLK24
  1

  0
HATCH
  5
D5
330
D2
100
AcDbEntity
  8
LAYER_1
 62
     7
100
AcDbHatch
 10
0.0
 20
0.0
 30
0.0
210
0.0
220
0.0
230
1.0
  2
SOLID
 70
     1
 71
     0
 91
        1
 92
        1
 93
        1
 72
     4
 94
        3
 73
     0
 74
     0
 95
       14
 96
       10
 40
0.0
 40
0.0
 40
0.0
 40
0.0
 40
1.0
 40
1.0
 40
1.0
 40
2.0
 40
2.0
 40
2.0
 40
3.0
 40
3.0
 40
3.0
 40
3.0
 10
3.9656494140625
 20
-0.5258938259548611
 10
3.9656494140625
 20
-0.5258938259548611
 10
4.016636827256944
 20
0.0732082790798611
 10
-3.9656494140625
 20
-0.5896280924479166
 10
4.000789388020833
 20
0.06666259765625
 10
3.835080295138888
 20
0.5896280924479166
 10
3.835080295138888
 20
0.5896280924479166
 10
3.835080295138888
 20
0.5896280924479166
 10
3.9656494140625
 20
-0.5258938259548611
 10
3.9656494140625
 20
-0.5258938259548611
 97
        0
 97
        0
 75
     0
 76
     1
 98
        1
 10
0.0
 20
0.0
  0
ENDBLK
  5
D6
330
D2
100
AcDbEntity
  8
LAYER_1
100
AcDbBlockEnd
  0
ENDSEC
  0
SECTION
  2
ENTITIES
  0
LINE
  5
131
330
A
100
AcDbEntity
  8
LAYER_1
 62
   230
100
AcDbLine
 10
-548.856421
 20
1090.272125
 30
0.0
 11
-548.856421
 21
-832.796023
 31
0.0
  0
LINE
  5
130
330
A
100
AcDbEntity
  8
LAYER_1
 62
   230
100
AcDbLine
 10
-392.305425
 20
1090.272125
 30
0.0
 11
-392.305425
 21
-832.796023
 31
0.0
  0
LINE
  5
12F
330
A
100
AcDbEntity
  8
LAYER_1
 62
   230
100
AcDbLine
 10
-235.75753
 20
1090.272125
 30
0.0
 11
-235.75753
 21
-832.796023
 31
0.0
  0
LINE
  5
12E
330
A
100
AcDbEntity
  8
LAYER_1
 62
   230
100
AcDbLine
 10
-79.20619
 20
1090.272125
 30
0.0
 11
-79.20619
 21
-832.796023
 31
0.0
  0
LINE
  5
12D
330
A
100
AcDbEntity
  8
LAYER_1
 62
   230
100
AcDbLine
 10
77.344805
 20
1090.272125
 30
0.0
 11
77.344805
 21
-832.796023
 31
0.0
  0
LINE
  5
12C
330
A
100
AcDbEntity
  8
LAYER_1
 62
   230
100
AcDbLine
 10
233.899246
 20
1090.272125
 30
0.0
 11
233.899246
 21
-832.796023
 31
0.0
  0
LINE
  5
12B
330
A
100
AcDbEntity
  8
LAYER_1
 62
   230
100
AcDbLine
 10
390.450241
 20
1090.272125
 30
0.0
 11
390.450241
 21
-832.796023
 31
0.0
  0
LINE
  5
12A
330
A
100
AcDbEntity
  8
LAYER_1
 62
   230
100
AcDbLine
 10
547.001581
 20
1090.272125
 30
0.0
 11
547.001581
 21
-832.796023
 31
0.0
  0
LINE
  5
129
330
A
100
AcDbEntity
  8
LAYER_1
 62
   230
100
AcDbLine
 10
703.552577
 20
1090.272125
 30
0.0
 11
703.552577
 21
-832.796023
 31
0.0
  0
LINE
  5
128
330
A
100
AcDbEntity
  8
LAYER_1
 62
   230
100
AcDbLine
 10
860.103573
 20
1090.272125
 30
0.0
 11
860.103573
 21
-832.796023
 31
0.0
  0
LINE
  5
127
330
A
100
AcDbEntity
  8
LAYER_1
 62
   230
100
AcDbLine
 10
-595.826164
 20
-833.05096
 30
0.0
 11
898.152585
 21
-833.057161
 31
0.0
  0
LINE
  5
126
330
A
100
AcDbEntity
  8
LAYER_1
 62
   230
100
AcDbLine
 10
-595.826164
 20
-676.503065
 30
0.0
 11
898.152585
 21
-676.503065
 31
0.0
  0
LINE
  5
125
330
A
100
AcDbEntity
  8
LAYER_1
 62
   230
100
AcDbLine
 10
-595.826164
 20
-519.948625
 30
0.0
 11
898.152585
 21
-519.948625
 31
0.0
  0
LINE
  5
124
330
A
100
AcDbEntity
  8
LAYER_1
 62
   230
100
AcDbLine
 10
-595.826164
 20
-363.397285
 30
0.0
 11
898.152585
 21
-363.40073
 31
0.0
  0
LINE
  5
123
330
A
100
AcDbEntity
  8
LAYER_1
 62
   230
100
AcDbLine
 10
-595.826164
 20
-206.846289
 30
0.0
 11
898.152585
 21
-206.84939
 31
0.0
  0
LINE
  5
122
330
A
100
AcDbEntity
  8
LAYER_1
 62
   230
100
AcDbLine
 10
-595.826164
 20
-50.291848
 30
0.0
 11
898.152585
 21
-50.298394
 31
0.0
  0
LINE
  5
121
330
A
100
AcDbEntity
  8
LAYER_1
 62
   230
100
AcDbLine
 10
-595.826164
 20
106.256047
 30
0.0
 11
898.152585
 21
106.249501
 31
0.0
  0
LINE
  5
120
330
A
100
AcDbEntity
  8
LAYER_1
 62
   230
100
AcDbLine
 10
-595.826164
 20
262.810487
 30
0.0
 11
898.152585
 21
262.803942
 31
0.0
  0
LINE
  5
11F
330
A
100
AcDbEntity
  8
LAYER_1
 62
   230
100
AcDbLine
 10
-595.826164
 20
419.358382
 30
0.0
 11
898.152585
 21
419.358382
 31
0.0
  0
LINE
  5
11E
330
A
100
AcDbEntity
  8
LAYER_1
 62
   230
100
AcDbLine
 10
-595.826164
 20
575.912478
 30
0.0
 11
898.152585
 21
575.906277
 31
0.0
  0
LINE
  5
11D
330
A
100
AcDbEntity
  8
LAYER_1
 62
   230
100
AcDbLine
 10
-595.826164
 20
732.463818
 30
0.0
 11
898.152585
 21
732.463818
 31
0.0
  0
LINE
  5
11C
330
A
100
AcDbEntity
  8
LAYER_1
 62
   230
100
AcDbLine
 10
-595.826164
 20
889.018259
 30
0.0
 11
898.152585
 21
889.011713
 31
0.0
  0
LINE
  5
11B
330
A
100
AcDbEntity
  8
LAYER_1
 62
   230
100
AcDbLine
 10
-595.826164
 20
1045.566154
 30
0.0
 11
898.152585
 21
1045.563053
 31
0.0
  0
MTEXT
  5
11A
330
A
100
AcDbEntity
  8
LAYER_1
 62
     7
100
AcDbMText
 10
-677.162629
 20
-815.510105
 30
0.0
 40
30.816531
 41
0.0
 46
0.0
 71
     1
 72
     2
  1
\W1.00;\fMyriad Roman|b0|i0;200
  7
STD
 73
     1
 44
1.0
  0
MTEXT
  5
119
330
A
100
AcDbEntity
  8
LAYER_1
 62
     7
100
AcDbMText
 10
-677.162629
 20
-658.92397
 30
0.0
 40
30.816531
 41
0.0
 46
0.0
 71
     1
 72
     2
  1
\W1.00;\fMyriad Roman|b0|i0;210
  7
STD
 73
     1
 44
1.0
  0
MTEXT
  5
118
330
A
100
AcDbEntity
  8
LAYER_1
 62
     7
100
AcDbMText
 10
-677.162629
 20
-502.33749
 30
0.0
 40
30.816531
 41
0.0
 46
0.0
 71
     1
 72
     2
  1
\W1.00;\fMyriad Roman|b0|i0;220
  7
STD
 73
     1
 44
1.0
  0
MTEXT
  5
117
330
A
100
AcDbEntity
  8
LAYER_1
 62
     7
100
AcDbMText
 10
-677.162629
 20
-345.748254
 30
0.0
 40
30.816531
 41
0.0
 46
0.0
 71
     1
 72
     2
  1
\W1.00;\fMyriad Roman|b0|i0;230
  7
STD
 73
     1
 44
1.0
  0
MTEXT
  5
116
330
A
100
AcDbEntity
  8
LAYER_1
 62
     7
100
AcDbMText
 10
-677.162629
 20
-189.165219
 30
0.0
 40
30.816531
 41
0.0
 46
0.0
 71
     1
 72
     2
  1
\W1.00;\fMyriad Roman|b0|i0;240
  7
STD
 73
     1
 44
1.0
  0
MTEXT
  5
115
330
A
100
AcDbEntity
  8
LAYER_1
 62
     7
100
AcDbMText
 10
-677.162629
 20
-32.575638
 30
0.0
 40
30.816531
 41
0.0
 46
0.0
 71
     1
 72
     2
  1
\W1.00;\fMyriad Roman|b0|i0;250
  7
STD
 73
     1
 44
1.0
  0
MTEXT
  5
114
330
A
100
AcDbEntity
  8
LAYER_1
 62
     7
100
AcDbMText
 10
-677.162629
 20
124.010498
 30
0.0
 40
30.816531
 41
0.0
 46
0.0
 71
     1
 72
     2
  1
\W1.00;\fMyriad Roman|b0|i0;260
  7
STD
 73
     1
 44
1.0
  0
MTEXT
  5
113
330
A
100
AcDbEntity
  8
LAYER_1
 62
     7
100
AcDbMText
 10
-677.162629
 20
280.599734
 30
0.0
 40
30.816531
 41
0.0
 46
0.0
 71
     1
 72
     2
  1
\W1.00;\fMyriad Roman|b0|i0;270
  7
STD
 73
     1
 44
1.0
  0
MTEXT
  5
112
330
A
100
AcDbEntity
  8
LAYER_1
 62
     7
100
AcDbMText
 10
-677.162629
 20
437.186214
 30
0.0
 40
30.816531
 41
0.0
 46
0.0
 71
     1
 72
     2
  1
\W1.00;\fMyriad Roman|b0|i0;280
  7
STD
 73
     1
 44
1.0
  0
MTEXT
  5
111
330
A
100
AcDbEntity
  8
LAYER_1
 62
     7
100
AcDbMText
 10
-677.162629
 20
593.772349
 30
0.0
 40
30.816531
 41
0.0
 46
0.0
 71
     1
 72
     2
  1
\W1.00;\fMyriad Roman|b0|i0;290
  7
STD
 73
     1
 44
1.0
  0
MTEXT
  5
110
330
A
100
AcDbEntity
  8
LAYER_1
 62
     7
100
AcDbMText
 10
-677.162629
 20
750.352284
 30
0.0
 40
30.816531
 41
0.0
 46
0.0
 71
     1
 72
     2
  1
\W1.00;\fMyriad Roman|b0|i0;300
  7
STD
 73
     1
 44
1.0
  0
MTEXT
  5
10F
330
A
100
AcDbEntity
  8
LAYER_1
 62
     7
100
AcDbMText
 10
-677.162629
 20
906.94152
 30
0.0
 40
30.816531
 41
0.0
 46
0.0
 71
     1
 72
     2
  1
\W1.00;\fMyriad Roman|b0|i0;310
  7
STD
 73
     1
 44
1.0
  0
MTEXT
  5
10E
330
A
100
AcDbEntity
  8
LAYER_1
 62
     7
100
AcDbMText
 10
-677.162629
 20
1063.530756
 30
0.0
 40
30.816531
 41
0.0
 46
0.0
 71
     1
 72
     2
  1
\W1.00;\fMyriad Roman|b0|i0;320
  7
STD
 73
     1
 44
1.0
  0
MTEXT
  5
10D
330
A
100
AcDbEntity
  8
LAYER_1
 62
     7
100
AcDbMText
 10
-581.331613
 20
1149.449715
 30
0.0
 40
30.816531
 41
0.0
 46
0.0
 71
     1
 72
     2
  1
\W1.00;\fMyriad Roman|b0|i0;730
  7
STD
 73
     1
 44
1.0
  0
MTEXT
  5
10C
330
A
100
AcDbEntity
  8
LAYER_1
 62
     7
100
AcDbMText
 10
-425.078619
 20
1149.449715
 30
0.0
 40
30.816531
 41
0.0
 46
0.0
 71
     1
 72
     2
  1
\W1.00;\fMyriad Roman|b0|i0;740
  7
STD
 73
     1
 44
1.0
  0
MTEXT
  5
10B
330
A
100
AcDbEntity
  8
LAYER_1
 62
     7
100
AcDbMText
 10
-268.828725
 20
1149.449715
 30
0.0
 40
30.816531
 41
0.0
 46
0.0
 71
     1
 72
     2
  1
\W1.00;\fMyriad Roman|b0|i0;750
  7
STD
 73
     1
 44
1.0
  0
MTEXT
  5
10A
330
A
100
AcDbEntity
  8
LAYER_1
 62
     7
100
AcDbMText
 10
-112.575385
 20
1149.449715
 30
0.0
 40
30.816531
 41
0.0
 46
0.0
 71
     1
 72
     2
  1
\W1.00;\fMyriad Roman|b0|i0;760
  7
STD
 73
     1
 44
1.0
  0
MTEXT
  5
109
330
A
100
AcDbEntity
  8
LAYER_1
 62
     7
100
AcDbMText
 10
43.674509
 20
1149.446614
 30
0.0
 40
30.816531
 41
0.0
 46
0.0
 71
     1
 72
     2
  1
\W1.00;\fMyriad Roman|b0|i0;770
  7
STD
 73
     1
 44
1.0
  0
MTEXT
  5
108
330
A
100
AcDbEntity
  8
LAYER_1
 62
     7
100
AcDbMText
 10
199.929226
 20
1149.446614
 30
0.0
 40
30.816531
 41
0.0
 46
0.0
 71
     1
 72
     2
  1
\W1.00;\fMyriad Roman|b0|i0;780
  7
STD
 73
     1
 44
1.0
  0
MTEXT
  5
107
330
A
100
AcDbEntity
  8
LAYER_1
 62
     7
100
AcDbMText
 10
356.180843
 20
1149.446614
 30
0.0
 40
30.816531
 41
0.0
 46
0.0
 71
     1
 72
     2
  1
\W1.00;\fMyriad Roman|b0|i0;790
  7
STD
 73
     1
 44
1.0
  0
MTEXT
  5
106
330
A
100
AcDbEntity
  8
LAYER_1
 62
     7
100
AcDbMText
 10
512.43556
 20
1149.446614
 30
0.0
 40
30.816531
 41
0.0
 46
0.0
 71
     1
 72
     2
  1
\W1.00;\fMyriad Roman|b0|i0;800
  7
STD
 73
     1
 44
1.0
  0
MTEXT
  5
105
330
A
100
AcDbEntity
  8
LAYER_1
 62
     7
100
AcDbMText
 10
668.687177
 20
1149.446614
 30
0.0
 40
30.816531
 41
0.0
 46
0.0
 71
     1
 72
     2
  1
\W1.00;\fMyriad Roman|b0|i0;810
  7
STD
 73
     1
 44
1.0
  0
MTEXT
  5
104
330
A
100
AcDbEntity
  8
LAYER_1
 62
     7
100
AcDbMText
 10
824.942239
 20
1149.446614
 30
0.0
 40
30.816531
 41
0.0
 46
0.0
 71
     1
 72
     2
  1
\W1.00;\fMyriad Roman|b0|i0;820
  7
STD
 73
     1
 44
1.0
  0
SPLINE
  5
103
330
A
100
AcDbEntity
  8
LAYER_1
 62
     7
100
AcDbSpline
210
0.0
220
0.0
230
1.0
 70
     8
 71
     3
 72
    32
 73
    28
 74
     0
 42
0.000000001
 43
0.00000001
 40
0.0
 40
0.0
 40
0.0
 40
0.0
 40
1.0
 40
1.0
 40
1.0
 40
2.0
 40
2.0
 40
2.0
 40
3.0
 40
3.0
 40
3.0
 40
4.0
 40
4.0
 40
4.0
 40
5.0
 40
5.0
 40
5.0
 40
6.0
 40
6.0
 40
6.0
 40
7.0
 40
7.0
 40
7.0
 40
8.0
 40
8.0
 40
8.0
 40
9.0
 40
9.0
 40
9.0
 40
9.0
 10
419.3566596137152
 20
627.3136474609374
 30
0.0
 10
419.1971516927083
 20
627.0235704210069
 30
0.0
 10
419.0472900390625
 20
626.7241916232638
 30
0.0
 10
418.8977728949652
 20
626.4244683159721
 30
0.0
 10
418.5088216145833
 20
625.6438096788194
 30
0.0
 10
418.1426079644097
 20
624.8473036024305
 30
0.0
 10
417.7949978298611
 20
624.0439073350694
 30
0.0
 10
417.3044162326389
 20
622.903236219618
 30
0.0
 10
416.8548312717014
 20
621.7494737413194
 30
0.0
 10
416.4534776475694
 20
620.5740071614583
 30
0.0
 10
415.9880452473958
 20
619.2193956163194
 30
0.0
 10
415.5835910373264
 20
617.8365342881943
 30
0.0
 10
415.2776665581597
 20
616.4343804253472
 30
0.0
 10
414.9558946397569
 20
614.9874403211805
 30
0.0
 10
414.7295518663194
 20
613.5184516059027
 30
0.0
 10
414.6689181857639
 20
612.0301703559027
 30
0.0
 10
414.6082845052083
 20
610.6156141493055
 30
0.0
 10
414.6975124782986
 20
609.1783203125
 30
0.0
 10
415.0385769314236
 20
607.7920138888888
 30
0.0
 10
415.1532986111111
 20
607.3203803168402
 30
0.0
 10
415.3031602647569
 20
606.8552924262152
 30
0.0
 10
415.4816162109375
 20
606.4029513888888
 30
0.0
 10
415.5708441840277
 20
606.1797092013888
 30
0.0
 10
415.666273328993
 20
605.959912109375
 30
0.0
 10
415.7682481553819
 20
605.752517361111
 30
0.0
 10
415.8512749565972
 20
605.5806070963541
 30
0.0
 10
416.0104383680555
 20
605.3384168836805
 30
0.0
 10
416.0169840494791
 20
605.1503146701389
 30
0.0
  0
SPLINE
  5
102
330
A
100
AcDbEntity
  8
LAYER_1
 62
     7
100
AcDbSpline
210
0.0
220
0.0
230
1.0
 70
     8
 71
     3
 72
    44
 73
    40
 74
     0
 42
0.000000001
 43
0.00000001
 40
0.0
 40
0.0
 40
0.0
 40
0.0
 40
1.0
 40
1.0
 40
1.0
 40
2.0
 40
2.0
 40
2.0
 40
3.0
 40
3.0
 40
3.0
 40
4.0
 40
4.0
 40
4.0
 40
5.0
 40
5.0
 40
5.0
 40
6.0
 40
6.0
 40
6.0
 40
7.0
 40
7.0
 40
7.0
 40
8.0
 40
8.0
 40
8.0
 40
9.0
 40
9.0
 40
9.0
 40
10.0
 40
10.0
 40
10.0
 40
11.0
 40
11.0
 40
11.0
 40
12.0
 40
12.0
 40
12.0
 40
13.0
 40
13.0
 40
13.0
 40
13.0
 10
414.4425754123263
 20
600.2110812717013
 30
0.0
 10
414.3660942925347
 20
600.1377007378471
 30
0.0
 10
414.2610188802083
 20
600.1122070312499
 30
0.0
 10
414.1621446397569
 20
600.0836127387153
 30
0.0
 10
413.5537407769097
 20
599.8889648437499
 30
0.0
 10
412.9577392578125
 20
599.4907118055555
 30
0.0
 10
412.3937771267361
 20
599.188232421875
 30
0.0
 10
411.5810791015625
 20
598.7548394097222
 30
0.0
 10
410.7714816623263
 20
598.3149007161458
 30
0.0
 10
409.978076171875
 20
597.8529134114583
 30
0.0
 10
408.3051378038194
 20
596.8683051215277
 30
0.0
 10
407.4703911675347
 20
596.5430881076388
 30
0.0
 10
405.1918050130208
 20
596.0111653645832
 30
0.0
 10
402.916663953993
 20
595.4788981119791
 30
0.0
 10
402.0753716362847
 20
594.7681749131943
 30
0.0
 10
401.6771185980903
 20
593.7198323567708
 30
0.0
 10
401.2785210503472
 20
592.668044704861
 30
0.0
 10
401.3581027560763
 20
589.1754069010416
 30
0.0
 10
401.5685980902778
 20
588.4491807725694
 30
0.0
 10
401.7852945963541
 20
587.7257107204861
 30
0.0
 10
402.4288384331597
 20
585.6703667534722
 30
0.0
 10
405.4274495442708
 20
585.8612250434027
 30
0.0
 10
405.4274495442708
 20
585.8612250434027
 30
0.0
 10
407.5341254340277
 20
585.8963650173611
 30
0.0
 10
409.0923421223958
 20
586.3841905381944
 30
0.0
 10
410.6505588107639
 20
586.8651258680555
 30
0.0
 10
412.5339925130208
 20
586.6835693359375
 30
0.0
 10
412.9770317925347
 20
586.7314561631944
 30
0.0
 10
413.4228271484375
 20
586.7855441623263
 30
0.0
 10
417.8587320963541
 20
587.2954182942708
 30
0.0
 10
419.1971516927083
 20
587.7257107204861
 30
0.0
 10
420.5324707031249
 20
588.1556586371527
 30
0.0
 10
424.7516791449652
 20
589.1692057291666
 30
0.0
 10
425.3666286892361
 20
589.1630045572916
 30
0.0
 10
425.9753770616319
 20
589.156458875868
 30
0.0
 10
427.250062391493
 20
589.0865234375
 30
0.0
 10
427.5239474826388
 20
588.9204698350694
 30
0.0
 10
427.8012776692708
 20
588.755105251736
 30
0.0
 10
432.7594590928819
 20
585.5428982204861
 30
0.0
 10
433.9831570095486
 20
585.8677707248263
 30
0.0
  0
SPLINE
  5
101
330
A
100
AcDbEntity
  8
LAYER_1
 62
     7
100
AcDbSpline
210
0.0
220
0.0
230
1.0
 70
     8
 71
     3
 72
    11
 73
     7
 74
     0
 42
0.000000001
 43
0.00000001
 40
0.0
 40
0.0
 40
0.0
 40
0.0
 40
1.0
 40
1.0
 40
1.0
 40
2.0
 40
2.0
 40
2.0
 40
2.0
 10
403.5826009114583
 20
584.3829345703125
 30
0.0
 10
403.5826009114583
 20
584.3829345703125
 30
0.0
 10
400.5392035590277
 20
585.020277235243
 30
0.0
 10
398.9427463107639
 20
580.6033203124999
 30
0.0
 10
397.3493896484375
 20
576.1805067274305
 30
0.0
 10
396.8205674913194
 20
572.9682996961805
 30
0.0
 10
396.9287434895833
 20
572.7450575086805
 30
0.0
  0
SPLINE
  5
100
330
A
100
AcDbEntity
  8
LAYER_1
 62
     7
100
AcDbSpline
210
0.0
220
0.0
230
1.0
 70
     8
 71
     3
 72
    17
 73
    13
 74
     0
 42
0.000000001
 43
0.00000001
 40
0.0
 40
0.0
 40
0.0
 40
0.0
 40
1.0
 40
1.0
 40
1.0
 40
2.0
 40
2.0
 40
2.0
 40
3.0
 40
3.0
 40
3.0
 40
4.0
 40
4.0
 40
4.0
 40
4.0
 10
345.7732096354167
 20
644.2700629340277
 30
0.0
 10
345.7732096354167
 20
644.2700629340277
 30
0.0
 10
345.0466389973958
 20
638.122634548611
 30
0.0
 10
345.0466389973958
 20
638.122634548611
 30
0.0
 10
345.0466389973958
 20
638.122634548611
 30
0.0
 10
343.1091172960069
 20
632.7627549913194
 30
0.0
 10
343.1060167100694
 20
632.4857693142361
 30
0.0
 10
343.1060167100694
 20
632.2080946180555
 30
0.0
 10
340.4005832248263
 20
621.921728515625
 30
0.0
 10
340.5025580512153
 20
620.9212727864583
 30
0.0
 10
339.5751383463542
 20
621.0294487847221
 30
0.0
 10
338.6225694444444
 20
621.0866373697916
 30
0.0
 10
337.717542860243
 20
621.3036783854166
 30
0.0
  0
SPLINE
  5
FF
330
A
100
AcDbEntity
  8
LAYER_1
 62
     7
100
AcDbSpline
210
0.0
220
0.0
230
1.0
 70
     8
 71
     3
 72
    11
 73
     7
 74
     0
 42
0.000000001
 43
0.00000001
 40
0.0
 40
0.0
 40
0.0
 40
0.0
 40
1.0
 40
1.0
 40
1.0
 40
2.0
 40
2.0
 40
2.0
 40
2.0
 10
338.5650363498264
 20
621.0611436631943
 30
0.0
 10
338.5650363498264
 20
621.0611436631943
 30
0.0
 10
338.0169216579861
 20
618.1293674045138
 30
0.0
 10
337.7812771267361
 20
617.791748046875
 30
0.0
 10
337.5518337673611
 20
617.4444824218749
 30
0.0
 10
336.7870225694444
 20
617.3363064236111
 30
0.0
 10
336.7870225694444
 20
617.3363064236111
 30
0.0
  0
SPLINE
  5
FE
330
A
100
AcDbEntity
  8
LAYER_1
 62
     7
100
AcDbSpline
210
0.0
220
0.0
230
1.0
 70
     8
 71
     3
 72
    17
 73
    13
 74
     0
 42
0.000000001
 43
0.00000001
 40
0.0
 40
0.0
 40
0.0
 40
0.0
 40
1.0
 40
1.0
 40
1.0
 40
2.0
 40
2.0
 40
2.0
 40
3.0
 40
3.0
 40
3.0
 40
4.0
 40
4.0
 40
4.0
 40
4.0
 10
337.4498589409722
 20
617.4892686631944
 30
0.0
 10
337.5931749131944
 20
617.2150390625
 30
0.0
 10
337.6631103515625
 20
616.8963677300346
 30
0.0
 10
337.7109971788194
 20
616.5969889322917
 30
0.0
 10
337.7619845920138
 20
616.2304307725694
 30
0.0
 10
337.7685302734375
 20
615.8607720269097
 30
0.0
 10
337.7492377387152
 20
615.4942138671875
 30
0.0
 10
337.7333902994791
 20
615.2582248263889
 30
0.0
 10
337.7047960069444
 20
615.0194797092013
 30
0.0
 10
337.6631103515625
 20
614.7834906684027
 30
0.0
 10
337.6186686197917
 20
614.5161512586805
 30
0.0
 10
337.5197943793402
 20
614.2801622178819
 30
0.0
 10
337.5166937934027
 20
613.9997314453125
 30
0.0
  0
SPLINE
  5
FD
330
A
100
AcDbEntity
  8
LAYER_1
 62
     7
100
AcDbSpline
210
0.0
220
0.0
230
1.0
 70
     8
 71
     3
 72
    11
 73
     7
 74
     0
 42
0.000000001
 43
0.00000001
 40
0.0
 40
0.0
 40
0.0
 40
0.0
 40
1.0
 40
1.0
 40
1.0
 40
2.0
 40
2.0
 40
2.0
 40
2.0
 10
340.4867106119792
 20
607.8175075954861
 30
0.0
 10
340.7702419704861
 20
607.4096082899305
 30
0.0
 10
340.5597466362847
 20
606.4473931206596
 30
0.0
 10
340.4674180772569
 20
605.9854058159722
 30
0.0
 10
340.3495958116319
 20
605.39560546875
 30
0.0
 10
340.0405707465277
 20
604.8030490451388
 30
0.0
 10
339.5021023220486
 20
605.4720865885416
 30
0.0
  0
SPLINE
  5
FC
330
A
100
AcDbEntity
  8
LAYER_1
 62
     7
100
AcDbSpline
210
0.0
220
0.0
230
1.0
 70
     8
 71
     3
 72
    23
 73
    19
 74
     0
 42
0.000000001
 43
0.00000001
 40
0.0
 40
0.0
 40
0.0
 40
0.0
 40
1.0
 40
1.0
 40
1.0
 40
2.0
 40
2.0
 40
2.0
 40
3.0
 40
3.0
 40
3.0
 40
4.0
 40
4.0
 40
4.0
 40
5.0
 40
5.0
 40
5.0
 40
6.0
 40
6.0
 40
6.0
 40
6.0
 10
339.0590630425347
 20
604.7458604600694
 30
0.0
 10
339.4221761067708
 20
604.5767062717014
 30
0.0
 10
339.9447970920139
 20
604.4778320312499
 30
0.0
 10
340.18388671875
 20
604.1367675781249
 30
0.0
 10
340.3878363715277
 20
603.8535807291667
 30
0.0
 10
340.2028347439236
 20
603.094970703125
 30
0.0
 10
340.1649386935763
 20
602.75390625
 30
0.0
 10
340.1043050130208
 20
602.1389567057291
 30
0.0
 10
339.8555691189236
 20
601.5591471354167
 30
0.0
 10
339.7601399739583
 20
600.9503987630208
 30
0.0
 10
339.6805582682292
 20
600.4243326822916
 30
0.0
 10
339.6516194661458
 20
599.8955105251736
 30
0.0
 10
338.9157470703125
 20
600.0646647135416
 30
0.0
 10
338.4599609374999
 20
600.1693956163194
 30
0.0
 10
338.1443901909722
 20
600.6413736979166
 30
0.0
 10
337.723744032118
 20
600.8453233506943
 30
0.0
 10
337.7047960069444
 20
600.8832194010416
 30
0.0
 10
337.717542860243
 20
600.9152587890625
 30
0.0
 10
337.7619845920138
 20
600.9376519097221
 30
0.0
  0
SPLINE
  5
FB
330
A
100
AcDbEntity
  8
LAYER_1
 62
     7
100
AcDbSpline
210
0.0
220
0.0
230
1.0
 70
     8
 71
     3
 72
    26
 73
    22
 74
     0
 42
0.000000001
 43
0.00000001
 40
0.0
 40
0.0
 40
0.0
 40
0.0
 40
1.0
 40
1.0
 40
1.0
 40
2.0
 40
2.0
 40
2.0
 40
3.0
 40
3.0
 40
3.0
 40
4.0
 40
4.0
 40
4.0
 40
5.0
 40
5.0
 40
5.0
 40
6.0
 40
6.0
 40
6.0
 40
7.0
 40
7.0
 40
7.0
 40
7.0
 10
337.7747314453125
 20
591.9418185763889
 30
0.0
 10
338.0041748046875
 20
591.6834364149305
 30
0.0
 10
338.3676323784722
 20
591.6420952690971
 30
0.0
 10
338.5843288845486
 20
591.3647650824652
 30
0.0
 10
338.9250488281249
 20
590.9313720703125
 30
0.0
 10
338.7307454427083
 20
590.3291693793402
 30
0.0
 10
338.6863037109375
 20
589.8161946614583
 30
0.0
 10
338.6480631510416
 20
589.4337890625
 30
0.0
 10
338.759339735243
 20
588.7358127170138
 30
0.0
 10
338.5044026692708
 20
588.4426350911458
 30
0.0
 10
338.2494656032986
 20
588.1432562934027
 30
0.0
 10
337.9245930989583
 20
588.40439453125
 30
0.0
 10
337.6665554470486
 20
588.1942437065971
 30
0.0
 10
337.7685302734375
 20
587.9933946397568
 30
0.0
 10
337.9149468315972
 20
588.0188883463541
 30
0.0
 10
338.0234673394097
 20
587.891419813368
 30
0.0
 10
338.3293918185764
 20
587.550355360243
 30
0.0
 10
338.3259467230902
 20
586.9894938151041
 30
0.0
 10
338.3228461371527
 20
586.5626464843749
 30
0.0
 10
338.3166449652778
 20
586.055872938368
 30
0.0
 10
338.1412896050347
 20
585.421630859375
 30
0.0
 10
337.9404405381944
 20
585.0647189670138
 30
0.0
  0
SPLINE
  5
FA
330
A
100
AcDbEntity
  8
LAYER_1
 62
     7
100
AcDbSpline
210
0.0
220
0.0
230
1.0
 70
     8
 71
     3
 72
    38
 73
    34
 74
     0
 42
0.000000001
 43
0.00000001
 40
0.0
 40
0.0
 40
0.0
 40
0.0
 40
1.0
 40
1.0
 40
1.0
 40
2.0
 40
2.0
 40
2.0
 40
3.0
 40
3.0
 40
3.0
 40
4.0
 40
4.0
 40
4.0
 40
5.0
 40
5.0
 40
5.0
 40
6.0
 40
6.0
 40
6.0
 40
7.0
 40
7.0
 40
7.0
 40
8.0
 40
8.0
 40
8.0
 40
9.0
 40
9.0
 40
9.0
 40
10.0
 40
10.0
 40
10.0
 40
11.0
 40
11.0
 40
11.0
 40
11.0
 10
336.452503797743
 20
585.3451497395832
 30
0.0
 10
336.452503797743
 20
585.3451497395832
 30
0.0
 10
339.100404188368
 20
584.5934299045139
 30
0.0
 10
341.2897623697916
 20
584.7078070746527
 30
0.0
 10
343.4853217230902
 20
584.8163275824652
 30
0.0
 10
344.1161187065972
 20
584.9437961154514
 30
0.0
 10
344.148158094618
 20
584.7780870225694
 30
0.0
 10
344.1798529730902
 20
584.6058322482638
 30
0.0
 10
344.0110432942708
 20
584.1789849175346
 30
0.0
 10
344.0079427083333
 20
583.8124267578124
 30
0.0
 10
344.0048421223958
 20
583.4462131076389
 30
0.0
 10
343.1728515624999
 20
580.0362575954861
 30
0.0
 10
343.2686252170138
 20
579.6411051432291
 30
0.0
 10
343.2686252170138
 20
579.6411051432291
 30
0.0
 10
343.625537109375
 20
579.0037624782985
 30
0.0
 10
342.5293077256944
 20
578.8508002387152
 30
0.0
 10
342.2774712456597
 20
578.8125596788194
 30
0.0
 10
341.9556993272569
 20
578.7998128255208
 30
0.0
 10
341.5987874348958
 20
578.7998128255208
 30
0.0
 10
340.3943820529514
 20
578.8063585069444
 30
0.0
 10
338.8423665364583
 20
578.9527750651041
 30
0.0
 10
338.7117974175347
 20
578.8508002387152
 30
0.0
 10
338.5460883246528
 20
578.7233317057292
 30
0.0
 10
342.5992431640624
 20
578.9782687717013
 30
0.0
 10
341.6911159939236
 20
577.8947862413194
 30
0.0
 10
340.7860894097222
 20
576.808203125
 30
0.0
 10
338.3548855251736
 20
576.2025553385416
 30
0.0
 10
338.3548855251736
 20
576.2025553385416
 30
0.0
 10
338.3548855251736
 20
576.2025553385416
 30
0.0
 10
336.1241861979166
 20
575.7595160590278
 30
0.0
 10
336.1241861979166
 20
575.7595160590278
 30
0.0
 10
336.1241861979166
 20
575.7595160590278
 30
0.0
 10
335.4548041449652
 20
574.8992757161458
 30
0.0
 10
336.2165147569444
 20
574.924769422743
 30
0.0
  0
SPLINE
  5
F9
330
A
100
AcDbEntity
  8
LAYER_1
 62
     7
100
AcDbSpline
210
0.0
220
0.0
230
1.0
 70
     8
 71
     3
 72
    20
 73
    16
 74
     0
 42
0.000000001
 43
0.00000001
 40
0.0
 40
0.0
 40
0.0
 40
0.0
 40
1.0
 40
1.0
 40
1.0
 40
2.0
 40
2.0
 40
2.0
 40
3.0
 40
3.0
 40
3.0
 40
4.0
 40
4.0
 40
4.0
 40
5.0
 40
5.0
 40
5.0
 40
5.0
 10
338.9505425347222
 20
575.6258463541666
 30
0.0
 10
338.9505425347222
 20
575.6258463541666
 30
0.0
 10
341.442724609375
 20
576.3334689670138
 30
0.0
 10
341.9749918619792
 20
576.3269232855902
 30
0.0
 10
342.5069146050347
 20
576.3269232855902
 30
0.0
 10
343.2400309244791
 20
576.5818603515625
 30
0.0
 10
342.8989664713541
 20
575.5590115017361
 30
0.0
 10
342.5548014322916
 20
574.5330620659722
 30
0.0
 10
342.0800672743055
 20
573.541908094618
 30
0.0
 10
342.1692952473958
 20
572.1142605251736
 30
0.0
 10
342.1692952473958
 20
572.1142605251736
 30
0.0
 10
342.5196614583333
 20
570.7503472222222
 30
0.0
 10
342.1851426866319
 20
570.4189290364583
 30
0.0
 10
341.847523328993
 20
570.0906114366319
 30
0.0
 10
340.8849636501736
 20
570.100257703993
 30
0.0
 10
340.7192545572917
 20
570.0651177300347
 30
0.0
  0
SPLINE
  5
F8
330
A
100
AcDbEntity
  8
LAYER_1
 62
     7
100
AcDbSpline
210
0.0
220
0.0
230
1.0
 70
     8
 71
     3
 72
    53
 73
    49
 74
     0
 42
0.000000001
 43
0.00000001
 40
0.0
 40
0.0
 40
0.0
 40
0.0
 40
1.0
 40
1.0
 40
1.0
 40
2.0
 40
2.0
 40
2.0
 40
3.0
 40
3.0
 40
3.0
 40
4.0
 40
4.0
 40
4.0
 40
5.0
 40
5.0
 40
5.0
 40
6.0
 40
6.0
 40
6.0
 40
7.0
 40
7.0
 40
7.0
 40
8.0
 40
8.0
 40
8.0
 40
9.0
 40
9.0
 40
9.0
 40
10.0
 40
10.0
 40
10.0
 40
11.0
 40
11.0
 40
11.0
 40
12.0
 40
12.0
 40
12.0
 40
13.0
 40
13.0
 40
13.0
 40
14.0
 40
14.0
 40
14.0
 40
15.0
 40
15.0
 40
15.0
 40
16.0
 40
16.0
 40
16.0
 40
16.0
 10
337.4050726996527
 20
614.0920600043402
 30
0.0
 10
337.4050726996527
 20
614.0920600043402
 30
0.0
 10
340.5535454644097
 20
613.6555664062499
 30
0.0
 10
340.5535454644097
 20
613.6555664062499
 30
0.0
 10
340.5535454644097
 20
613.6555664062499
 30
0.0
 10
344.3235134548611
 20
613.2762613932291
 30
0.0
 10
344.3235134548611
 20
613.2762613932291
 30
0.0
 10
344.3235134548611
 20
613.2762613932291
 30
0.0
 10
354.9096028645833
 20
612.0046766493055
 30
0.0
 10
354.9096028645833
 20
612.0046766493055
 30
0.0
 10
354.9096028645833
 20
612.0046766493055
 30
0.0
 10
366.2636040581597
 20
610.6855495876736
 30
0.0
 10
366.2636040581597
 20
610.6855495876736
 30
0.0
 10
366.2636040581597
 20
610.6855495876736
 30
0.0
 10
374.2207411024305
 20
609.7743218315971
 30
0.0
 10
374.2207411024305
 20
609.7743218315971
 30
0.0
 10
374.2207411024305
 20
609.7743218315971
 30
0.0
 10
380.7212917751736
 20
609.0508517795138
 30
0.0
 10
380.7212917751736
 20
609.0508517795138
 30
0.0
 10
380.7212917751736
 20
609.0508517795138
 30
0.0
 10
389.267884657118
 20
608.1296332465278
 30
0.0
 10
389.267884657118
 20
608.0851915147568
 30
0.0
 10
389.267884657118
 20
608.046950954861
 30
0.0
 10
394.9657280815972
 20
607.4733425564235
 30
0.0
 10
394.9657280815972
 20
607.4733425564235
 30
0.0
 10
394.9657280815972
 20
607.4733425564235
 30
0.0
 10
401.9189643012152
 20
606.7150770399305
 30
0.0
 10
401.9189643012152
 20
606.7150770399305
 30
0.0
 10
401.9189643012152
 20
606.7150770399305
 30
0.0
 10
407.1961615668403
 20
606.1287217881944
 30
0.0
 10
407.1961615668403
 20
606.1287217881944
 30
0.0
 10
407.1961615668403
 20
606.1287217881944
 30
0.0
 10
415.6566270616319
 20
605.112074110243
 30
0.0
 10
415.6566270616319
 20
605.112074110243
 30
0.0
 10
415.6566270616319
 20
605.112074110243
 30
0.0
 10
420.6216986762153
 20
604.5736056857638
 30
0.0
 10
420.6216986762153
 20
604.5736056857638
 30
0.0
 10
420.6216986762153
 20
604.5736056857638
 30
0.0
 10
426.50419921875
 20
603.9838053385416
 30
0.0
 10
426.50419921875
 20
603.9838053385416
 30
0.0
 10
426.50419921875
 20
603.9838053385416
 30
0.0
 10
431.2522298177083
 20
603.4201877170138
 30
0.0
 10
431.2522298177083
 20
603.4201877170138
 30
0.0
 10
431.2522298177083
 20
603.4201877170138
 30
0.0
 10
436.6889350043402
 20
602.7346137152778
 30
0.0
 10
436.6889350043402
 20
602.7346137152778
 30
0.0
 10
436.6889350043402
 20
602.7346137152778
 30
0.0
 10
436.7492241753472
 20
602.7318576388889
 30
0.0
 10
436.7492241753472
 20
602.7318576388889
 30
0.0
  0
SPLINE
  5
F7
330
A
100
AcDbEntity
  8
LAYER_1
 62
     7
100
AcDbSpline
210
0.0
220
0.0
230
1.0
 70
     8
 71
     3
 72
    53
 73
    49
 74
     0
 42
0.000000001
 43
0.00000001
 40
0.0
 40
0.0
 40
0.0
 40
0.0
 40
1.0
 40
1.0
 40
1.0
 40
2.0
 40
2.0
 40
2.0
 40
3.0
 40
3.0
 40
3.0
 40
4.0
 40
4.0
 40
4.0
 40
5.0
 40
5.0
 40
5.0
 40
6.0
 40
6.0
 40
6.0
 40
7.0
 40
7.0
 40
7.0
 40
8.0
 40
8.0
 40
8.0
 40
9.0
 40
9.0
 40
9.0
 40
10.0
 40
10.0
 40
10.0
 40
11.0
 40
11.0
 40
11.0
 40
12.0
 40
12.0
 40
12.0
 40
13.0
 40
13.0
 40
13.0
 40
14.0
 40
14.0
 40
14.0
 40
15.0
 40
15.0
 40
15.0
 40
16.0
 40
16.0
 40
16.0
 40
16.0
 10
436.3575168185764
 20
598.0279242621527
 30
0.0
 10
436.3575168185764
 20
598.0279242621527
 30
0.0
 10
431.392445203993
 20
598.5377983940972
 30
0.0
 10
431.392445203993
 20
598.5377983940972
 30
0.0
 10
431.392445203993
 20
598.5377983940972
 30
0.0
 10
421.8515977647569
 20
599.4045844184027
 30
0.0
 10
421.3482693142361
 20
599.4972574869792
 30
0.0
 10
420.8445963541666
 20
599.5895860460068
 30
0.0
 10
413.8817138671874
 20
600.2906629774305
 30
0.0
 10
413.8817138671874
 20
600.2906629774305
 30
0.0
 10
413.8817138671874
 20
600.2906629774305
 30
0.0
 10
411.5204454210069
 20
600.5583468967013
 30
0.0
 10
411.5204454210069
 20
600.5583468967013
 30
0.0
 10
411.5204454210069
 20
600.5583468967013
 30
0.0
 10
408.2128092447916
 20
600.9183593749999
 30
0.0
 10
408.2128092447916
 20
600.9183593749999
 30
0.0
 10
408.2128092447916
 20
600.9183593749999
 30
0.0
 10
402.4288384331597
 20
601.5398546006944
 30
0.0
 10
402.4288384331597
 20
601.5398546006944
 30
0.0
 10
402.4288384331597
 20
601.5398546006944
 30
0.0
 10
395.1441840277777
 20
602.2853732638888
 30
0.0
 10
395.1441840277777
 20
602.2853732638888
 30
0.0
 10
395.1441840277777
 20
602.2853732638888
 30
0.0
 10
387.6810736762152
 20
603.094970703125
 30
0.0
 10
387.6810736762152
 20
603.094970703125
 30
0.0
 10
387.6810736762152
 20
603.094970703125
 30
0.0
 10
380.8904459635417
 20
603.789501953125
 30
0.0
 10
380.8904459635417
 20
603.789501953125
 30
0.0
 10
380.8904459635417
 20
603.789501953125
 30
0.0
 10
375.5081732855903
 20
604.3634548611111
 30
0.0
 10
375.5081732855903
 20
604.3634548611111
 30
0.0
 10
375.5081732855903
 20
604.3634548611111
 30
0.0
 10
368.6407199435764
 20
605.0452392578125
 30
0.0
 10
368.6407199435764
 20
605.0452392578125
 30
0.0
 10
368.6407199435764
 20
605.0452392578125
 30
0.0
 10
361.2764838324653
 20
605.8386447482638
 30
0.0
 10
361.2764838324653
 20
605.8386447482638
 30
0.0
 10
361.2764838324653
 20
605.8386447482638
 30
0.0
 10
353.9694363064236
 20
606.6323947482638
 30
0.0
 10
353.9694363064236
 20
606.6323947482638
 30
0.0
 10
353.9694363064236
 20
606.6323947482638
 30
0.0
 10
347.8922878689236
 20
607.2504448784722
 30
0.0
 10
347.8922878689236
 20
607.2504448784722
 30
0.0
 10
347.8922878689236
 20
607.2504448784722
 30
0.0
 10
340.9135579427083
 20
607.8175075954861
 30
0.0
 10
340.9135579427083
 20
607.8175075954861
 30
0.0
 10
340.9135579427083
 20
607.8175075954861
 30
0.0
 10
335.764173719618
 20
608.37216796875
 30
0.0
 10
335.764173719618
 20
608.37216796875
 30
0.0
  0
SPLINE
  5
F6
330
A
100
AcDbEntity
  8
LAYER_1
 62
     7
100
AcDbSpline
210
0.0
220
0.0
230
1.0
 70
    11
 71
     3
 72
    26
 73
    22
 74
     0
 42
0.000000001
 43
0.00000001
 40
0.0
 40
0.0
 40
0.0
 40
0.0
 40
1.0
 40
1.0
 40
1.0
 40
2.0
 40
2.0
 40
2.0
 40
3.0
 40
3.0
 40
3.0
 40
4.0
 40
4.0
 40
4.0
 40
5.0
 40
5.0
 40
5.0
 40
6.0
 40
6.0
 40
6.0
 40
7.0
 40
7.0
 40
7.0
 40
7.0
 10
440.2577094184027
 20
618.8783311631944
 30
0.0
 10
439.9200900607639
 20
617.8172417534722
 30
0.0
 10
440.2515082465277
 20
616.7785454644097
 30
0.0
 10
441.4814073350694
 20
617.6291395399305
 30
0.0
 10
442.0839545355902
 20
618.0466851128472
 30
0.0
 10
442.3833333333333
 20
618.6712809244791
 30
0.0
 10
442.8932074652777
 20
619.1842556423611
 30
0.0
 10
443.4637152777777
 20
619.7675103081597
 30
0.0
 10
443.906410047743
 20
620.0131456163194
 30
0.0
 10
443.3393473307291
 20
620.7938042534722
 30
0.0
 10
443.0527153862847
 20
621.1951578776041
 30
0.0
 10
442.7116509331597
 20
621.3705132378471
 30
0.0
 10
442.2782579210069
 20
621.5520697699652
 30
0.0
 10
441.9819797092014
 20
621.6826388888888
 30
0.0
 10
441.4624593098958
 20
621.7749674479167
 30
0.0
 10
441.1978759765624
 20
621.526576063368
 30
0.0
 10
440.9842800564236
 20
621.3353732638889
 30
0.0
 10
440.8568115234374
 20
620.908181423611
 30
0.0
 10
440.7613823784722
 20
620.6470431857638
 30
0.0
 10
440.5543321397569
 20
620.0668891059028
 30
0.0
 10
440.4427110460069
 20
619.4646864149305
 30
0.0
 10
440.2577094184027
 20
618.8783311631944
 30
0.0
  0
SPLINE
  5
F5
330
A
100
AcDbEntity
  8
LAYER_1
 62
     7
100
AcDbSpline
210
0.0
220
0.0
230
1.0
 70
    11
 71
     3
 72
    29
 73
    25
 74
     0
 42
0.000000001
 43
0.00000001
 40
0.0
 40
0.0
 40
0.0
 40
0.0
 40
1.0
 40
1.0
 40
1.0
 40
2.0
 40
2.0
 40
2.0
 40
3.0
 40
3.0
 40
3.0
 40
4.0
 40
4.0
 40
4.0
 40
5.0
 40
5.0
 40
5.0
 40
6.0
 40
6.0
 40
6.0
 40
7.0
 40
7.0
 40
7.0
 40
8.0
 40
8.0
 40
8.0
 40
8.0
 10
451.7426242404513
 20
618.4035970052083
 30
0.0
 10
451.713685438368
 20
618.7288140190972
 30
0.0
 10
451.5448757595486
 20
619.0281928168403
 30
0.0
 10
451.2038113064236
 20
619.2066487630208
 30
0.0
 10
450.8152045355902
 20
619.4074978298611
 30
0.0
 10
450.2543429904513
 20
619.5635606553819
 30
0.0
 10
449.8209499782986
 20
619.5797526041666
 30
0.0
 10
449.578759765625
 20
619.5890543619792
 30
0.0
 10
449.2187472873263
 20
619.5508138020833
 30
0.0
 10
449.0340901692708
 20
619.3785590277777
 30
0.0
 10
448.8012017144097
 20
619.1653076171874
 30
0.0
 10
448.5176703559027
 20
618.7222683376735
 30
0.0
 10
448.4732286241319
 20
618.3973958333332
 30
0.0
 10
448.4442898220486
 20
618.1803548177082
 30
0.0
 10
448.5462646484374
 20
618.1038736979166
 30
0.0
 10
448.7343668619791
 20
618.02119140625
 30
0.0
 10
448.9255696614583
 20
617.9385091145833
 30
0.0
 10
449.059583875868
 20
617.8744303385416
 30
0.0
 10
449.2249484592014
 20
617.7504069010416
 30
0.0
 10
449.7031277126736
 20
617.3776475694444
 30
0.0
 10
450.9426730685764
 20
616.7912923177083
 30
0.0
 10
451.4332546657986
 20
617.4158881293403
 30
0.0
 10
451.6533962673611
 20
617.7028645833333
 30
0.0
 10
451.7743191189236
 20
618.0625325520833
 30
0.0
 10
451.7426242404513
 20
618.4035970052083
 30
0.0
  0
SPLINE
  5
F4
330
A
100
AcDbEntity
  8
LAYER_1
 62
     7
100
AcDbSpline
210
0.0
220
0.0
230
1.0
 70
    11
 71
     3
 72
    23
 73
    19
 74
     0
 42
0.000000001
 43
0.00000001
 40
0.0
 40
0.0
 40
0.0
 40
0.0
 40
1.0
 40
1.0
 40
1.0
 40
2.0
 40
2.0
 40
2.0
 40
3.0
 40
3.0
 40
3.0
 40
4.0
 40
4.0
 40
4.0
 40
5.0
 40
5.0
 40
5.0
 40
6.0
 40
6.0
 40
6.0
 40
6.0
 10
443.2725124782986
 20
617.791748046875
 30
0.0
 10
443.1099039713541
 20
617.6356852213542
 30
0.0
 10
442.8549669053819
 20
617.4699761284721
 30
0.0
 10
442.7784857855902
 20
617.2563802083333
 30
0.0
 10
442.5521430121527
 20
616.6510769314235
 30
0.0
 10
443.676966688368
 20
616.4598741319444
 30
0.0
 10
444.0848659939236
 20
616.3799479166667
 30
0.0
 10
444.41318359375
 20
616.3227593315971
 30
0.0
 10
444.9516520182291
 20
616.2049370659722
 30
0.0
 10
445.1142605251736
 20
616.6348849826388
 30
0.0
 10
445.2162353515624
 20
616.9060139973958
 30
0.0
 10
444.9836914062499
 20
617.1767985026041
 30
0.0
 10
444.8338297526041
 20
617.3776475694444
 30
0.0
 10
444.6522732204861
 20
617.6132921006944
 30
0.0
 10
444.5726915147569
 20
617.9991427951388
 30
0.0
 10
444.3081081814236
 20
618.1614067925346
 30
0.0
 10
443.9863362630208
 20
618.3526095920138
 30
0.0
 10
443.4954101562499
 20
617.9991427951388
 30
0.0
 10
443.2725124782986
 20
617.791748046875
 30
0.0
  0
SPLINE
  5
F3
330
A
100
AcDbEntity
  8
LAYER_1
 62
     7
100
AcDbSpline
210
0.0
220
0.0
230
1.0
 70
    11
 71
     3
 72
    26
 73
    22
 74
     0
 42
0.000000001
 43
0.00000001
 40
0.0
 40
0.0
 40
0.0
 40
0.0
 40
1.0
 40
1.0
 40
1.0
 40
2.0
 40
2.0
 40
2.0
 40
3.0
 40
3.0
 40
3.0
 40
4.0
 40
4.0
 40
4.0
 40
5.0
 40
5.0
 40
5.0
 40
6.0
 40
6.0
 40
6.0
 40
7.0
 40
7.0
 40
7.0
 40
7.0
 10
441.5038004557291
 20
616.06162109375
 30
0.0
 10
441.4975992838541
 20
616.1921902126736
 30
0.0
 10
441.4624593098958
 20
616.3227593315971
 30
0.0
 10
441.42421875
 20
616.4216335720486
 30
0.0
 10
441.2457628038194
 20
616.9060139973958
 30
0.0
 10
440.8347629123264
 20
616.9125596788194
 30
0.0
 10
440.4013699001736
 20
617.0145345052083
 30
0.0
 10
440.1812282986111
 20
617.0655219184027
 30
0.0
 10
440.0220648871527
 20
617.1544053819443
 30
0.0
 10
439.8212158203124
 20
616.9952419704861
 30
0.0
 10
439.6651529947916
 20
616.8677734375
 30
0.0
 10
439.5917724609375
 20
616.6479763454861
 30
0.0
 10
439.534583875868
 20
616.4660753038194
 30
0.0
 10
439.4581027560764
 20
616.2304307725694
 30
0.0
 10
439.3526828342013
 20
615.9117594401041
 30
0.0
 10
439.429163953993
 20
615.6633680555555
 30
0.0
 10
439.5983181423611
 20
615.0770128038193
 30
0.0
 10
441.0896999782986
 20
615.2933648003471
 30
0.0
 10
441.3956244574653
 20
615.6406304253471
 30
0.0
 10
441.4910536024305
 20
615.7460503472222
 30
0.0
 10
441.5165473090277
 20
615.9052137586805
 30
0.0
 10
441.5038004557291
 20
616.06162109375
 30
0.0
  0
SPLINE
  5
F2
330
A
100
AcDbEntity
  8
LAYER_1
 62
     7
100
AcDbSpline
210
0.0
220
0.0
230
1.0
 70
    11
 71
     3
 72
    23
 73
    19
 74
     0
 42
0.000000001
 43
0.00000001
 40
0.0
 40
0.0
 40
0.0
 40
0.0
 40
1.0
 40
1.0
 40
1.0
 40
2.0
 40
2.0
 40
2.0
 40
3.0
 40
3.0
 40
3.0
 40
4.0
 40
4.0
 40
4.0
 40
5.0
 40
5.0
 40
5.0
 40
6.0
 40
6.0
 40
6.0
 40
6.0
 10
442.1793836805555
 20
615.2265299479166
 30
0.0
 10
441.9020534939236
 20
614.9047580295138
 30
0.0
 10
442.0295220269097
 20
614.7390489366319
 30
0.0
 10
442.3578396267361
 20
614.5223524305555
 30
0.0
 10
442.5841824001736
 20
614.3821370442707
 30
0.0
 10
442.8932074652777
 20
614.3056559244791
 30
0.0
 10
443.1546902126736
 20
614.2674153645833
 30
0.0
 10
443.8395751953125
 20
614.1716417100694
 30
0.0
 10
443.8461208767361
 20
614.8379231770833
 30
0.0
 10
443.9257025824652
 20
615.3508978949652
 30
0.0
 10
443.9573974609374
 20
615.5613932291666
 30
0.0
 10
444.0435248480902
 20
615.9692925347222
 30
0.0
 10
443.8237277560763
 20
616.0995171440971
 30
0.0
 10
443.5784369574652
 20
616.2497233072916
 30
0.0
 10
443.2311713324652
 20
615.8928114149305
 30
0.0
 10
443.0175754123263
 20
615.7873914930555
 30
0.0
 10
442.7243977864583
 20
615.6440755208333
 30
0.0
 10
442.3898790147569
 20
615.4752658420139
 30
0.0
 10
442.1793836805555
 20
615.2265299479166
 30
0.0
  0
SPLINE
  5
F1
330
A
100
AcDbEntity
  8
LAYER_1
 62
     7
100
AcDbSpline
210
0.0
220
0.0
230
1.0
 70
    11
 71
     3
 72
    26
 73
    22
 74
     0
 42
0.000000001
 43
0.00000001
 40
0.0
 40
0.0
 40
0.0
 40
0.0
 40
1.0
 40
1.0
 40
1.0
 40
2.0
 40
2.0
 40
2.0
 40
3.0
 40
3.0
 40
3.0
 40
4.0
 40
4.0
 40
4.0
 40
5.0
 40
5.0
 40
5.0
 40
6.0
 40
6.0
 40
6.0
 40
7.0
 40
7.0
 40
7.0
 40
7.0
 10
443.7059054904514
 20
620.379359266493
 30
0.0
 10
443.8554226345486
 20
620.7362711588542
 30
0.0
 10
444.1964870876736
 20
620.8764865451388
 30
0.0
 10
444.5630452473958
 20
620.8223985460069
 30
0.0
 10
444.8372748480903
 20
620.77451171875
 30
0.0
 10
445.1080593532986
 20
620.7617648654514
 30
0.0
 10
445.3340576171875
 20
620.5864095052083
 30
0.0
 10
445.5762478298611
 20
620.3983072916666
 30
0.0
 10
445.4680718315972
 20
620.1943576388888
 30
0.0
 10
445.3151095920139
 20
619.9525119357638
 30
0.0
 10
445.1938422309028
 20
619.7740559895833
 30
0.0
 10
445.0439805772569
 20
619.6465874565972
 30
0.0
 10
444.8720703124999
 20
619.5060275607639
 30
0.0
 10
444.6808675130208
 20
619.3530653211805
 30
0.0
 10
444.5120578342014
 20
619.1332682291666
 30
0.0
 10
444.2984619140624
 20
619.0281928168403
 30
0.0
 10
443.8685139973958
 20
618.830788845486
 30
0.0
 10
443.8461208767361
 20
619.4936252170138
 30
0.0
 10
443.7665391710069
 20
619.7864583333333
 30
0.0
 10
443.7121066623263
 20
619.9938530815972
 30
0.0
 10
443.6166775173611
 20
620.1626627604167
 30
0.0
 10
443.7059054904514
 20
620.379359266493
 30
0.0
  0
SPLINE
  5
F0
330
A
100
AcDbEntity
  8
LAYER_1
 62
     7
100
AcDbSpline
210
0.0
220
0.0
230
1.0
 70
    11
 71
     3
 72
    32
 73
    28
 74
     0
 42
0.000000001
 43
0.00000001
 40
0.0
 40
0.0
 40
0.0
 40
0.0
 40
1.0
 40
1.0
 40
1.0
 40
2.0
 40
2.0
 40
2.0
 40
3.0
 40
3.0
 40
3.0
 40
4.0
 40
4.0
 40
4.0
 40
5.0
 40
5.0
 40
5.0
 40
6.0
 40
6.0
 40
6.0
 40
7.0
 40
7.0
 40
7.0
 40
8.0
 40
8.0
 40
8.0
 40
9.0
 40
9.0
 40
9.0
 40
9.0
 10
451.7998128255208
 20
618.3050672743055
 30
0.0
 10
451.6372043185763
 20
617.7790011935763
 30
0.0
 10
451.9562201605902
 20
617.1354573567708
 30
0.0
 10
452.395814344618
 20
616.8677734375
 30
0.0
 10
452.8801947699652
 20
616.5745958116319
 30
0.0
 10
453.3869683159722
 20
616.702064344618
 30
0.0
 10
453.9126898871527
 20
616.7368598090277
 30
0.0
 10
454.4480577256944
 20
616.7719997829861
 30
0.0
 10
455.1363878038194
 20
616.6031901041666
 30
0.0
 10
455.6462619357638
 20
616.8229871961805
 30
0.0
 10
455.8980984157986
 20
616.9346082899305
 30
0.0
 10
456.1144504123263
 20
617.4093424479166
 30
0.0
 10
456.0700086805555
 20
617.6773708767361
 30
0.0
 10
456.009375
 20
618.024636501736
 30
0.0
 10
455.6686550564236
 20
618.2795735677083
 30
0.0
 10
455.3434380425347
 20
618.371902126736
 30
0.0
 10
455.1267415364583
 20
618.4352918836805
 30
0.0
 10
454.8718044704861
 20
618.4097981770833
 30
0.0
 10
454.6489067925347
 20
618.4418375651042
 30
0.0
 10
454.4067165798611
 20
618.473876953125
 30
0.0
 10
454.167626953125
 20
618.5372667100694
 30
0.0
 10
453.9223361545139
 20
618.5882541232638
 30
0.0
 10
453.5878173828124
 20
618.6523328993055
 30
0.0
 10
453.1988661024305
 20
618.7605088975694
 30
0.0
 10
452.854701063368
 20
618.7222683376735
 30
0.0
 10
452.4595486111111
 20
618.6840277777777
 30
0.0
 10
451.9496744791666
 20
618.7798014322916
 30
0.0
 10
451.7998128255208
 20
618.3050672743055
 30
0.0
  0
SPLINE
  5
EF
330
A
100
AcDbEntity
  8
LAYER_1
 62
     7
100
AcDbSpline
210
0.0
220
0.0
230
1.0
 70
    11
 71
     3
 72
    29
 73
    25
 74
     0
 42
0.000000001
 43
0.00000001
 40
0.0
 40
0.0
 40
0.0
 40
0.0
 40
1.0
 40
1.0
 40
1.0
 40
2.0
 40
2.0
 40
2.0
 40
3.0
 40
3.0
 40
3.0
 40
4.0
 40
4.0
 40
4.0
 40
5.0
 40
5.0
 40
5.0
 40
6.0
 40
6.0
 40
6.0
 40
7.0
 40
7.0
 40
7.0
 40
8.0
 40
8.0
 40
8.0
 40
8.0
 10
445.7199083116319
 20
618.8176974826388
 30
0.0
 10
445.9107666015624
 20
618.2633816189235
 30
0.0
 10
446.8350857204861
 20
618.0976725260416
 30
0.0
 10
447.3322129991319
 20
618.1169650607638
 30
0.0
 10
447.5998969184027
 20
618.1293674045138
 30
0.0
 10
447.9378607855903
 20
618.2444335937499
 30
0.0
 10
448.1673041449652
 20
618.3781032986111
 30
0.0
 10
448.4284423828125
 20
618.5310655381944
 30
0.0
 10
448.5400634765625
 20
618.8659288194444
 30
0.0
 10
448.6992268880208
 20
619.1112196180555
 30
0.0
 10
448.830140516493
 20
619.3151692708333
 30
0.0
 10
449.1391655815972
 20
619.7006754557291
 30
0.0
 10
448.836341688368
 20
619.9139268663193
 30
0.0
 10
448.5783040364583
 20
620.0989284939236
 30
0.0
 10
448.0746310763889
 20
620.1244222005208
 30
0.0
 10
447.7625054253472
 20
620.1371690538194
 30
0.0
 10
447.3735541449652
 20
620.149915907118
 30
0.0
 10
446.9753011067708
 20
620.1116753472222
 30
0.0
 10
446.5801486545138
 20
620.149915907118
 30
0.0
 10
446.4206407335069
 20
620.1688639322916
 30
0.0
 10
446.2900716145833
 20
620.2391438802083
 30
0.0
 10
446.1212619357639
 20
620.1881564670139
 30
0.0
 10
445.4615261501736
 20
619.9938530815972
 30
0.0
 10
445.5349066840278
 20
619.3406629774305
 30
0.0
 10
445.7199083116319
 20
618.8176974826388
 30
0.0
  0
SPLINE
  5
EE
330
A
100
AcDbEntity
  8
LAYER_1
 62
     7
100
AcDbSpline
210
0.0
220
0.0
230
1.0
 70
    11
 71
     3
 72
    29
 73
    25
 74
     0
 42
0.000000001
 43
0.00000001
 40
0.0
 40
0.0
 40
0.0
 40
0.0
 40
1.0
 40
1.0
 40
1.0
 40
2.0
 40
2.0
 40
2.0
 40
3.0
 40
3.0
 40
3.0
 40
4.0
 40
4.0
 40
4.0
 40
5.0
 40
5.0
 40
5.0
 40
6.0
 40
6.0
 40
6.0
 40
7.0
 40
7.0
 40
7.0
 40
8.0
 40
8.0
 40
8.0
 40
8.0
 10
439.5504313151041
 20
613.8085286458332
 30
0.0
 10
439.470849609375
 20
613.5184516059027
 30
0.0
 10
439.4260633680555
 20
613.2507676866319
 30
0.0
 10
439.2985948350694
 20
612.9830837673611
 30
0.0
 10
439.187318250868
 20
612.7505398220486
 30
0.0
 10
439.0119628906249
 20
612.4890570746527
 30
0.0
 10
439.1807725694444
 20
612.2472113715277
 30
0.0
 10
439.2507080078125
 20
612.1514377170138
 30
0.0
 10
439.359228515625
 20
612.0942491319444
 30
0.0
 10
439.429163953993
 20
611.9984754774305
 30
0.0
 10
439.5187364366319
 20
611.8710069444444
 30
0.0
 10
439.6045193142361
 20
611.7373372395833
 30
0.0
 10
439.6937472873263
 20
611.6222710503472
 30
0.0
 10
440.2546088324652
 20
610.8863986545139
 30
0.0
 10
440.7103949652777
 20
611.9412868923611
 30
0.0
 10
440.8950520833333
 20
612.4573621961805
 30
0.0
 10
441.1117485894097
 20
613.0564643012152
 30
0.0
 10
441.6185221354166
 20
613.719300672743
 30
0.0
 10
440.9780788845486
 20
614.2129828559027
 30
0.0
 10
440.7548366970486
 20
614.3821370442707
 30
0.0
 10
440.4616590711805
 20
614.6401746961805
 30
0.0
 10
440.1622802734374
 20
614.6243272569444
 30
0.0
 10
439.7895209418402
 20
614.6050347222222
 30
0.0
 10
439.6300130208333
 20
614.1110080295139
 30
0.0
 10
439.5504313151041
 20
613.8085286458332
 30
0.0
  0
SPLINE
  5
ED
330
A
100
AcDbEntity
  8
LAYER_1
 62
     7
100
AcDbSpline
210
0.0
220
0.0
230
1.0
 70
    11
 71
     3
 72
    20
 73
    16
 74
     0
 42
0.000000001
 43
0.00000001
 40
0.0
 40
0.0
 40
0.0
 40
0.0
 40
1.0
 40
1.0
 40
1.0
 40
2.0
 40
2.0
 40
2.0
 40
3.0
 40
3.0
 40
3.0
 40
4.0
 40
4.0
 40
4.0
 40
5.0
 40
5.0
 40
5.0
 40
5.0
 10
443.0048285590277
 20
606.4663411458333
 30
0.0
 10
443.3806884765625
 20
606.6957845052083
 30
0.0
 10
443.8619683159722
 20
606.4983805338541
 30
0.0
 10
443.9797905815972
 20
606.0649875217014
 30
0.0
 10
444.0690185546874
 20
605.7590630425346
 30
0.0
 10
444.0690185546874
 20
604.930517578125
 30
0.0
 10
443.6421712239583
 20
604.9498101128472
 30
0.0
 10
443.4127278645833
 20
604.9622124565972
 30
0.0
 10
443.1801839192708
 20
605.0452392578125
 30
0.0
 10
442.9631429036458
 20
605.112074110243
 30
0.0
 10
442.6637641059027
 20
605.2047471788194
 30
0.0
 10
442.4787624782986
 20
605.3001763237846
 30
0.0
 10
442.5617892795138
 20
605.6443413628472
 30
0.0
 10
442.6224229600694
 20
605.8799858940972
 30
0.0
 10
442.7815863715277
 20
606.3326714409721
 30
0.0
 10
443.0048285590277
 20
606.4663411458333
 30
0.0
  0
SPLINE
  5
EC
330
A
100
AcDbEntity
  8
LAYER_1
 62
     7
100
AcDbSpline
210
0.0
220
0.0
230
1.0
 70
    11
 71
     3
 72
    35
 73
    31
 74
     0
 42
0.000000001
 43
0.00000001
 40
0.0
 40
0.0
 40
0.0
 40
0.0
 40
1.0
 40
1.0
 40
1.0
 40
2.0
 40
2.0
 40
2.0
 40
3.0
 40
3.0
 40
3.0
 40
4.0
 40
4.0
 40
4.0
 40
5.0
 40
5.0
 40
5.0
 40
6.0
 40
6.0
 40
6.0
 40
7.0
 40
7.0
 40
7.0
 40
8.0
 40
8.0
 40
8.0
 40
9.0
 40
9.0
 40
9.0
 40
10.0
 40
10.0
 40
10.0
 40
10.0
 10
438.0015163845486
 20
608.5506239149305
 30
0.0
 10
437.8933403862847
 20
608.2509006076389
 30
0.0
 10
437.823060438368
 20
607.9608235677083
 30
0.0
 10
437.7755181206597
 20
607.6486979166666
 30
0.0
 10
437.7403781467013
 20
607.4158094618055
 30
0.0
 10
437.6766438802083
 20
607.1929117838541
 30
0.0
 10
437.8964409722222
 20
607.0210015190971
 30
0.0
 10
438.0876437717013
 20
606.8873318142361
 30
0.0
 10
438.3777208116319
 20
606.8201524522569
 30
0.0
 10
438.6102647569444
 20
606.8328993055555
 30
0.0
 10
439.3464816623264
 20
606.8618381076388
 30
0.0
 10
439.9614312065972
 20
607.0940375434027
 30
0.0
 10
440.5860270182291
 20
607.4922905815972
 30
0.0
 10
440.9398383246527
 20
607.7155327690972
 30
0.0
 10
440.8761040581597
 20
607.9704698350694
 30
0.0
 10
440.8154703776041
 20
608.3466742621528
 30
0.0
 10
440.7706841362847
 20
608.5981662326388
 30
0.0
 10
440.7517361111111
 20
609.1114854600694
 30
0.0
 10
440.512646484375
 20
609.2644476996527
 30
0.0
 10
440.340736219618
 20
609.3853705512153
 30
0.0
 10
440.0282660590277
 20
609.2899414062499
 30
0.0
 10
439.8339626736111
 20
609.311990017361
 30
0.0
 10
439.6396592881944
 20
609.3374837239583
 30
0.0
 10
439.4102159288194
 20
609.3664225260416
 30
0.0
 10
439.2190131293402
 20
609.4236111111111
 30
0.0
 10
438.9926703559028
 20
609.4938910590278
 30
0.0
 10
438.9034423828124
 20
609.5448784722222
 30
0.0
 10
438.6643527560764
 20
609.4683973524305
 30
0.0
 10
438.2309597439236
 20
609.3312825520833
 30
0.0
 10
438.1355305989583
 20
608.9426757812499
 30
0.0
 10
438.0015163845486
 20
608.5506239149305
 30
0.0
  0
SPLINE
  5
EB
330
A
100
AcDbEntity
  8
LAYER_1
 62
     7
100
AcDbSpline
210
0.0
220
0.0
230
1.0
 70
    11
 71
     3
 72
    23
 73
    19
 74
     0
 42
0.000000001
 43
0.00000001
 40
0.0
 40
0.0
 40
0.0
 40
0.0
 40
1.0
 40
1.0
 40
1.0
 40
2.0
 40
2.0
 40
2.0
 40
3.0
 40
3.0
 40
3.0
 40
4.0
 40
4.0
 40
4.0
 40
5.0
 40
5.0
 40
5.0
 40
6.0
 40
6.0
 40
6.0
 40
6.0
 10
438.5785698784722
 20
611.3738796657985
 30
0.0
 10
438.6519504123264
 20
611.1633843315972
 30
0.0
 10
438.7856201171875
 20
610.9945746527777
 30
0.0
 10
438.8621012369791
 20
610.7875244140624
 30
0.0
 10
438.9289360894097
 20
610.5901204427083
 30
0.0
 10
438.9544297960069
 20
610.33173828125
 30
0.0
 10
439.1807725694444
 20
610.2649034288194
 30
0.0
 10
439.6875461154514
 20
610.1119411892361
 30
0.0
 10
439.8436089409722
 20
610.8512586805555
 30
0.0
 10
439.770228407118
 20
611.1888780381944
 30
0.0
 10
439.7254421657986
 20
611.4121202256944
 30
0.0
 10
439.6141655815972
 20
611.6415635850694
 30
0.0
 10
439.4357096354166
 20
611.7817789713541
 30
0.0
 10
439.2700005425347
 20
611.9157931857638
 30
0.0
 10
439.0054172092014
 20
612.1417914496527
 30
0.0
 10
438.7697726779513
 20
612.0622097439235
 30
0.0
 10
438.505189344618
 20
611.9667805989583
 30
0.0
 10
438.5020887586805
 20
611.5874755859375
 30
0.0
 10
438.5785698784722
 20
611.3738796657985
 30
0.0
  0
SPLINE
  5
EA
330
A
100
AcDbEntity
  8
LAYER_1
 62
     7
100
AcDbSpline
210
0.0
220
0.0
230
1.0
 70
    11
 71
     3
 72
    26
 73
    22
 74
     0
 42
0.000000001
 43
0.00000001
 40
0.0
 40
0.0
 40
0.0
 40
0.0
 40
1.0
 40
1.0
 40
1.0
 40
2.0
 40
2.0
 40
2.0
 40
3.0
 40
3.0
 40
3.0
 40
4.0
 40
4.0
 40
4.0
 40
5.0
 40
5.0
 40
5.0
 40
6.0
 40
6.0
 40
6.0
 40
7.0
 40
7.0
 40
7.0
 40
7.0
 10
441.8831054687499
 20
603.0567301432291
 30
0.0
 10
441.8831054687499
 20
602.8620822482638
 30
0.0
 10
442.0839545355902
 20
602.6488308376736
 30
0.0
 10
442.2207248263888
 20
602.5024142795138
 30
0.0
 10
442.3037516276041
 20
602.4066406249999
 30
0.0
 10
442.3929796006944
 20
602.3332600911458
 30
0.0
 10
442.4663601345486
 20
602.2281846788194
 30
0.0
 10
442.5108018663194
 20
602.1644504123263
 30
0.0
 10
442.5586886935764
 20
601.9987413194444
 30
0.0
 10
442.6286241319444
 20
601.953955078125
 30
0.0
 10
442.9028537326388
 20
601.782044813368
 30
0.0
 10
443.1322970920139
 20
602.2536783854166
 30
0.0
 10
443.1925862630208
 20
602.4448811848957
 30
0.0
 10
443.2852593315972
 20
602.7318576388889
 30
0.0
 10
443.3806884765625
 20
603.0057427300346
 30
0.0
 10
443.4699164496527
 20
603.2861735026041
 30
0.0
 10
443.5370958116319
 20
603.5090711805555
 30
0.0
 10
443.6259792751736
 20
603.7640082465277
 30
0.0
 10
443.4699164496527
 20
603.9679578993055
 30
0.0
 10
442.9472954644097
 20
604.6373399522569
 30
0.0
 10
441.8638129340277
 20
603.6685791015625
 30
0.0
 10
441.8831054687499
 20
603.0567301432291
 30
0.0
  0
SPLINE
  5
E9
330
A
100
AcDbEntity
  8
LAYER_1
 62
     7
100
AcDbSpline
210
0.0
220
0.0
230
1.0
 70
    11
 71
     3
 72
    20
 73
    16
 74
     0
 42
0.000000001
 43
0.00000001
 40
0.0
 40
0.0
 40
0.0
 40
0.0
 40
1.0
 40
1.0
 40
1.0
 40
2.0
 40
2.0
 40
2.0
 40
3.0
 40
3.0
 40
3.0
 40
4.0
 40
4.0
 40
4.0
 40
5.0
 40
5.0
 40
5.0
 40
5.0
 10
437.2432508680555
 20
606.0460394965277
 30
0.0
 10
437.1922634548611
 20
605.7015299479166
 30
0.0
 10
437.1478217230903
 20
605.3577094184027
 30
0.0
 10
437.1795166015625
 20
605.0166449652777
 30
0.0
 10
437.2019097222222
 20
604.7265679253471
 30
0.0
 10
437.4344536675347
 20
604.5164171006944
 30
0.0
 10
437.7086832682292
 20
604.4144422743055
 30
0.0
 10
437.9412272135417
 20
604.3248697916666
 30
0.0
 10
438.2471516927083
 20
604.1912000868055
 30
0.0
 10
438.4924424913194
 20
604.1622612847221
 30
0.0
 10
439.3337348090278
 20
604.0699327256943
 30
0.0
 10
438.9385823567708
 20
605.3797580295138
 30
0.0
 10
438.9192898220486
 20
605.8227973090277
 30
0.0
 10
438.8875949435763
 20
606.8012044270832
 30
0.0
 10
437.4186062282986
 20
607.1801649305555
 30
0.0
 10
437.2432508680555
 20
606.0460394965277
 30
0.0
  0
SPLINE
  5
E8
330
A
100
AcDbEntity
  8
LAYER_1
 62
     7
100
AcDbSpline
210
0.0
220
0.0
230
1.0
 70
    11
 71
     3
 72
    35
 73
    31
 74
     0
 42
0.000000001
 43
0.00000001
 40
0.0
 40
0.0
 40
0.0
 40
0.0
 40
1.0
 40
1.0
 40
1.0
 40
2.0
 40
2.0
 40
2.0
 40
3.0
 40
3.0
 40
3.0
 40
4.0
 40
4.0
 40
4.0
 40
5.0
 40
5.0
 40
5.0
 40
6.0
 40
6.0
 40
6.0
 40
7.0
 40
7.0
 40
7.0
 40
8.0
 40
8.0
 40
8.0
 40
9.0
 40
9.0
 40
9.0
 40
10.0
 40
10.0
 40
10.0
 40
10.0
 10
441.0673068576389
 20
600.4119303385417
 30
0.0
 10
441.0418131510417
 20
600.1569932725694
 30
0.0
 10
441.2457628038194
 20
599.9051567925346
 30
0.0
 10
441.494154188368
 20
599.8097276475694
 30
0.0
 10
441.6312689887152
 20
599.7490939670138
 30
0.0
 10
441.7683837890625
 20
599.7360026041666
 30
0.0
 10
441.9054985894097
 20
599.6757134331597
 30
0.0
 10
441.9881808810763
 20
599.6405734592013
 30
0.0
 10
442.0839545355902
 20
599.6023328993055
 30
0.0
 10
442.1728379991319
 20
599.5768391927082
 30
0.0
 10
442.3674858940972
 20
599.5100043402778
 30
0.0
 10
442.5776367187499
 20
599.5100043402778
 30
0.0
 10
442.7305989583333
 20
599.6726128472221
 30
0.0
 10
442.9314480251736
 20
599.8955105251736
 30
0.0
 10
442.9028537326388
 20
600.2779161241319
 30
0.0
 10
442.9441948784722
 20
600.5583468967013
 30
0.0
 10
442.976234266493
 20
600.7943359374999
 30
0.0
 10
443.0620171440972
 20
601.1192084418402
 30
0.0
 10
442.7433458116319
 20
601.1732964409722
 30
0.0
 10
442.6224229600694
 20
601.1925889756944
 30
0.0
 10
442.5077012803819
 20
601.1064615885416
 30
0.0
 10
442.3929796006944
 20
601.0871690538194
 30
0.0
 10
442.2369167751736
 20
601.0651204427082
 30
0.0
 10
442.1218505859375
 20
601.1126627604166
 30
0.0
 10
441.9819797092014
 20
601.157449001736
 30
0.0
 10
441.8159261067708
 20
601.2180826822917
 30
0.0
 10
441.6026746961805
 20
601.2976643880207
 30
0.0
 10
441.42421875
 20
601.2242838541666
 30
0.0
 10
441.1596354166666
 20
601.1064615885416
 30
0.0
 10
441.0959011501736
 20
600.6572211371528
 30
0.0
 10
441.0673068576389
 20
600.4119303385417
 30
0.0
  0
SPLINE
  5
E7
330
A
100
AcDbEntity
  8
LAYER_1
 62
     7
100
AcDbSpline
210
0.0
220
0.0
230
1.0
 70
    11
 71
     3
 72
    41
 73
    37
 74
     0
 42
0.000000001
 43
0.00000001
 40
0.0
 40
0.0
 40
0.0
 40
0.0
 40
1.0
 40
1.0
 40
1.0
 40
2.0
 40
2.0
 40
2.0
 40
3.0
 40
3.0
 40
3.0
 40
4.0
 40
4.0
 40
4.0
 40
5.0
 40
5.0
 40
5.0
 40
6.0
 40
6.0
 40
6.0
 40
7.0
 40
7.0
 40
7.0
 40
8.0
 40
8.0
 40
8.0
 40
9.0
 40
9.0
 40
9.0
 40
10.0
 40
10.0
 40
10.0
 40
11.0
 40
11.0
 40
11.0
 40
12.0
 40
12.0
 40
12.0
 40
12.0
 10
439.2541531032986
 20
603.3626546223958
 30
0.0
 10
439.2190131293402
 20
603.3816026475694
 30
0.0
 10
439.193519422743
 20
603.4008951822916
 30
0.0
 10
439.1618245442708
 20
603.4229437934027
 30
0.0
 10
438.7759738498264
 20
603.6685791015625
 30
0.0
 10
438.3460259331597
 20
603.8025933159722
 30
0.0
 10
437.8871392144097
 20
603.8501356336805
 30
0.0
 10
437.4503011067708
 20
603.8980224609375
 30
0.0
 10
437.0203531901041
 20
603.7481608072916
 30
0.0
 10
436.8766927083333
 20
603.2927191840278
 30
0.0
 10
436.8129584418402
 20
603.094970703125
 30
0.0
 10
436.8226047092014
 20
602.8875759548611
 30
0.0
 10
436.7619710286458
 20
602.6870713975694
 30
0.0
 10
436.6951361762152
 20
602.4576280381943
 30
0.0
 10
436.5835150824652
 20
602.1899441189236
 30
0.0
 10
436.6379475911458
 20
601.94775390625
 30
0.0
 10
436.7078830295138
 20
601.6514756944443
 30
0.0
 10
437.1478217230903
 20
601.5460557725694
 30
0.0
 10
437.3772650824652
 20
601.4061848958332
 30
0.0
 10
437.6322021484374
 20
601.2532226562499
 30
0.0
 10
437.8519992404513
 20
600.9727918836805
 30
0.0
 10
438.1227837456597
 20
600.8453233506943
 30
0.0
 10
438.511390516493
 20
600.6668674045138
 30
0.0
 10
438.9737223307291
 20
601.0106879340277
 30
0.0
 10
439.3526828342013
 20
601.1257541232638
 30
0.0
 10
439.5952175564236
 20
601.1987901475694
 30
0.0
 10
439.8019232855902
 20
601.3421061197917
 30
0.0
 10
440.0251654730902
 20
601.4506266276042
 30
0.0
 10
440.1939751519097
 20
601.5271077473958
 30
0.0
 10
440.4458116319444
 20
601.5780951605902
 30
0.0
 10
440.4936984592014
 20
601.8009928385416
 30
0.0
 10
440.5543321397569
 20
602.0945149739583
 30
0.0
 10
440.0699517144097
 20
602.6743245442708
 30
0.0
 10
439.881849500868
 20
602.8751736111111
 30
0.0
 10
439.6968478732638
 20
603.0694769965277
 30
0.0
 10
439.4677490234375
 20
603.1969455295139
 30
0.0
 10
439.2541531032986
 20
603.3626546223958
 30
0.0
  0
SPLINE
  5
E6
330
A
100
AcDbEntity
  8
LAYER_1
 62
     7
100
AcDbSpline
210
0.0
220
0.0
230
1.0
 70
    11
 71
     3
 72
    14
 73
    10
 74
     0
 42
0.000000001
 43
0.00000001
 40
0.0
 40
0.0
 40
0.0
 40
0.0
 40
1.0
 40
1.0
 40
1.0
 40
2.0
 40
2.0
 40
2.0
 40
3.0
 40
3.0
 40
3.0
 40
3.0
 10
441.2998508029514
 20
599.0414713541666
 30
0.0
 10
441.2743570963542
 20
598.799281141493
 30
0.0
 10
441.3666856553819
 20
598.6880045572916
 30
0.0
 10
441.5833821614583
 20
598.5667371961805
 30
0.0
 10
441.8576117621527
 20
598.4199761284722
 30
0.0
 10
442.4184733072916
 20
598.0885579427082
 30
0.0
 10
442.6923583984375
 20
598.3531412760416
 30
0.0
 10
443.3934353298611
 20
599.0352701822916
 30
0.0
 10
441.4466118706597
 20
600.2844618055555
 30
0.0
 10
441.2998508029514
 20
599.0414713541666
 30
0.0
  0
SPLINE
  5
E5
330
A
100
AcDbEntity
  8
LAYER_1
 62
     7
100
AcDbSpline
210
0.0
220
0.0
230
1.0
 70
    11
 71
     3
 72
    50
 73
    46
 74
     0
 42
0.000000001
 43
0.00000001
 40
0.0
 40
0.0
 40
0.0
 40
0.0
 40
1.0
 40
1.0
 40
1.0
 40
2.0
 40
2.0
 40
2.0
 40
3.0
 40
3.0
 40
3.0
 40
4.0
 40
4.0
 40
4.0
 40
5.0
 40
5.0
 40
5.0
 40
6.0
 40
6.0
 40
6.0
 40
7.0
 40
7.0
 40
7.0
 40
8.0
 40
8.0
 40
8.0
 40
9.0
 40
9.0
 40
9.0
 40
10.0
 40
10.0
 40
10.0
 40
11.0
 40
11.0
 40
11.0
 40
12.0
 40
12.0
 40
12.0
 40
13.0
 40
13.0
 40
13.0
 40
14.0
 40
14.0
 40
14.0
 40
15.0
 40
15.0
 40
15.0
 40
15.0
 10
439.8019232855902
 20
599.1241536458333
 30
0.0
 10
439.7957221137152
 20
599.5640923394096
 30
0.0
 10
439.9073432074653
 20
600.0515733506944
 30
0.0
 10
439.5631781684027
 20
600.405384657118
 30
0.0
 10
439.3781765407986
 20
600.5965874565971
 30
0.0
 10
439.1552788628472
 20
600.564892578125
 30
0.0
 10
438.9161892361111
 20
600.6379286024305
 30
0.0
 10
438.728431532118
 20
600.692361111111
 30
0.0
 10
438.5878716362847
 20
600.7495496961805
 30
0.0
 10
438.3777208116319
 20
600.7433485243055
 30
0.0
 10
437.9250352647569
 20
600.7240559895832
 30
0.0
 10
437.2814914279513
 20
600.7812445746528
 30
0.0
 10
437.0265543619792
 20
600.3034098307292
 30
0.0
 10
436.8832383897569
 20
600.0453721788194
 30
0.0
 10
436.8195041232639
 20
599.6533203125
 30
0.0
 10
436.7364773220486
 20
599.3601426866319
 30
0.0
 10
436.6314019097222
 20
598.9873833550347
 30
0.0
 10
436.5294270833333
 20
598.6142795138888
 30
0.0
 10
436.433997938368
 20
598.2415201822917
 30
0.0
 10
436.3065294053819
 20
597.7350911458333
 30
0.0
 10
436.0674397786458
 20
597.1487358940972
 30
0.0
 10
436.1118815104167
 20
596.6195692274305
 30
0.0
 10
436.1404758029514
 20
596.3391384548611
 30
0.0
 10
436.2011094835069
 20
596.0972927517361
 30
0.0
 10
436.4560465494791
 20
595.9377848307291
 30
0.0
 10
436.7175292968749
 20
595.7782769097222
 30
0.0
 10
436.9755669487847
 20
595.9312391493055
 30
0.0
 10
437.2112114800347
 20
596.0780002170138
 30
0.0
 10
437.4726942274305
 20
596.2371636284722
 30
0.0
 10
437.7086832682292
 20
596.3839246961805
 30
0.0
 10
437.9984157986111
 20
596.4858995225694
 30
0.0
 10
438.1961642795138
 20
596.5558349609374
 30
0.0
 10
438.4063151041667
 20
596.6133680555555
 30
0.0
 10
438.6071641710069
 20
596.6833034939235
 30
0.0
 10
438.7697726779513
 20
596.734290907118
 30
0.0
 10
438.9544297960069
 20
596.7249891493055
 30
0.0
 10
439.1139377170139
 20
596.7980251736111
 30
0.0
 10
439.3688747829861
 20
596.9
 30
0.0
 10
439.5697238498263
 20
597.1804307725694
 30
0.0
 10
439.6110649956597
 20
597.4481146918403
 30
0.0
 10
439.652406141493
 20
597.6841037326388
 30
0.0
 10
439.6999484592013
 20
597.9135470920138
 30
0.0
 10
439.7254421657986
 20
598.1491916232638
 30
0.0
 10
439.764027235243
 20
598.4613172743055
 30
0.0
 10
439.8019232855902
 20
598.8216742621527
 30
0.0
 10
439.8019232855902
 20
599.1241536458333
 30
0.0
  0
SPLINE
  5
E4
330
A
100
AcDbEntity
  8
LAYER_1
 62
     7
100
AcDbSpline
210
0.0
220
0.0
230
1.0
 70
    11
 71
     3
 72
    11
 73
     7
 74
     0
 42
0.000000001
 43
0.00000001
 40
0.0
 40
0.0
 40
0.0
 40
0.0
 40
1.0
 40
1.0
 40
1.0
 40
2.0
 40
2.0
 40
2.0
 40
2.0
 10
442.2844590928819
 20
596.8490125868055
 30
0.0
 10
442.6796115451389
 20
596.9988742404513
 30
0.0
 10
442.6096761067708
 20
598.041015625
 30
0.0
 10
442.1380425347222
 20
597.9996744791666
 30
0.0
 10
441.6440158420139
 20
597.9579888237847
 30
0.0
 10
441.7332438151041
 20
596.6388617621527
 30
0.0
 10
442.2844590928819
 20
596.8490125868055
 30
0.0
  0
SPLINE
  5
E3
330
A
100
AcDbEntity
  8
LAYER_1
 62
     7
100
AcDbSpline
210
0.0
220
0.0
230
1.0
 70
    11
 71
     3
 72
    29
 73
    25
 74
     0
 42
0.000000001
 43
0.00000001
 40
0.0
 40
0.0
 40
0.0
 40
0.0
 40
1.0
 40
1.0
 40
1.0
 40
2.0
 40
2.0
 40
2.0
 40
3.0
 40
3.0
 40
3.0
 40
4.0
 40
4.0
 40
4.0
 40
5.0
 40
5.0
 40
5.0
 40
6.0
 40
6.0
 40
6.0
 40
7.0
 40
7.0
 40
7.0
 40
8.0
 40
8.0
 40
8.0
 40
8.0
 10
441.0480143229166
 20
592.6745903862846
 30
0.0
 10
441.0607611762152
 20
592.5119818793402
 30
0.0
 10
441.0225206163194
 20
592.3621202256944
 30
0.0
 10
440.9332926432292
 20
592.1647162543402
 30
0.0
 10
440.8347629123264
 20
591.9673122829861
 30
0.0
 10
440.6687093098958
 20
591.638650173611
 30
0.0
 10
440.8251166449652
 20
591.4319444444444
 30
0.0
 10
440.9780788845486
 20
591.221449110243
 30
0.0
 10
441.3956244574653
 20
591.3361707899305
 30
0.0
 10
441.5771809895833
 20
591.4574381510416
 30
0.0
 10
442.1029025607638
 20
591.7950575086805
 30
0.0
 10
441.8448649088541
 20
592.598109266493
 30
0.0
 10
442.1094482421875
 20
593.0855902777777
 30
0.0
 10
442.3037516276041
 20
593.4394015842014
 30
0.0
 10
442.3388916015625
 20
594.0447048611111
 30
0.0
 10
441.8958523220486
 20
594.2806939019097
 30
0.0
 10
441.6026746961805
 20
594.4367567274305
 30
0.0
 10
441.2616102430555
 20
594.1659722222222
 30
0.0
 10
441.0990017361111
 20
593.9268825954861
 30
0.0
 10
440.911244032118
 20
593.6526529947917
 30
0.0
 10
440.8857503255208
 20
593.3053873697916
 30
0.0
 10
440.9811794704861
 20
592.99326171875
 30
0.0
 10
441.0163194444444
 20
592.8719943576389
 30
0.0
 10
441.0418131510417
 20
592.7734646267361
 30
0.0
 10
441.0480143229166
 20
592.6745903862846
 30
0.0
  0
SPLINE
  5
E2
330
A
100
AcDbEntity
  8
LAYER_1
 62
     7
100
AcDbSpline
210
0.0
220
0.0
230
1.0
 70
    11
 71
     3
 72
    44
 73
    40
 74
     0
 42
0.000000001
 43
0.00000001
 40
0.0
 40
0.0
 40
0.0
 40
0.0
 40
1.0
 40
1.0
 40
1.0
 40
2.0
 40
2.0
 40
2.0
 40
3.0
 40
3.0
 40
3.0
 40
4.0
 40
4.0
 40
4.0
 40
5.0
 40
5.0
 40
5.0
 40
6.0
 40
6.0
 40
6.0
 40
7.0
 40
7.0
 40
7.0
 40
8.0
 40
8.0
 40
8.0
 40
9.0
 40
9.0
 40
9.0
 40
10.0
 40
10.0
 40
10.0
 40
11.0
 40
11.0
 40
11.0
 40
12.0
 40
12.0
 40
12.0
 40
13.0
 40
13.0
 40
13.0
 40
13.0
 10
436.8735921223958
 20
595.6638997395833
 30
0.0
 10
436.5421739366319
 20
595.7975694444444
 30
0.0
 10
436.2138563368055
 20
595.8389105902777
 30
0.0
 10
435.9110324435763
 20
595.5109375
 30
0.0
 10
435.7201741536458
 20
595.3097439236111
 30
0.0
 10
435.6912353515625
 20
595.0134657118055
 30
0.0
 10
435.634046766493
 20
594.7554280598957
 30
0.0
 10
435.5575656467013
 20
594.4367567274305
 30
0.0
 10
435.3949571397569
 20
594.1787190755208
 30
0.0
 10
435.3632622612847
 20
593.8538465711805
 30
0.0
 10
435.3246771918402
 20
593.4838433159722
 30
0.0
 10
435.3281222873263
 20
593.1207302517361
 30
0.0
 10
435.3949571397569
 20
592.7541720920138
 30
0.0
 10
435.5000325520833
 20
592.2060574001736
 30
0.0
 10
436.0705403645833
 20
591.3902587890625
 30
0.0
 10
436.6951361762152
 20
591.450892469618
 30
0.0
 10
436.8797932942708
 20
591.4636393229166
 30
0.0
 10
437.1061360677083
 20
591.4574381510416
 30
0.0
 10
437.2814914279513
 20
591.5242730034722
 30
0.0
 10
437.5267822265625
 20
591.6166015624999
 30
0.0
 10
437.699037000868
 20
591.85224609375
 30
0.0
 10
437.8995415581597
 20
592.0117540147569
 30
0.0
 10
438.2564534505208
 20
592.304931640625
 30
0.0
 10
438.5754692925347
 20
592.5054361979167
 30
0.0
 10
438.7759738498264
 20
592.9295274522569
 30
0.0
 10
438.8779486762152
 20
593.1524251302083
 30
0.0
 10
438.964076063368
 20
593.3563747829861
 30
0.0
 10
439.0278103298611
 20
593.5858181423611
 30
0.0
 10
439.1394314236111
 20
593.9620225694443
 30
0.0
 10
439.4739501953125
 20
594.7364800347221
 30
0.0
 10
439.1649251302083
 20
595.064453125
 30
0.0
 10
439.0502034505208
 20
595.1857204861111
 30
0.0
 10
438.8972412109375
 20
595.2780490451388
 30
0.0
 10
438.7377332899305
 20
595.297341579861
 30
0.0
 10
438.4858968098958
 20
595.3352376302083
 30
0.0
 10
438.2598985460069
 20
595.2494547526042
 30
0.0
 10
438.0177083333333
 20
595.2429090711805
 30
0.0
 10
437.64150390625
 20
595.2305067274305
 30
0.0
 10
437.2559977213541
 20
595.5109375
 30
0.0
 10
436.8735921223958
 20
595.6638997395833
 30
0.0
  0
SPLINE
  5
E1
330
A
100
AcDbEntity
  8
LAYER_1
 62
     7
100
AcDbSpline
210
0.0
220
0.0
230
1.0
 70
    11
 71
     3
 72
    17
 73
    13
 74
     0
 42
0.000000001
 43
0.00000001
 40
0.0
 40
0.0
 40
0.0
 40
0.0
 40
1.0
 40
1.0
 40
1.0
 40
2.0
 40
2.0
 40
2.0
 40
3.0
 40
3.0
 40
3.0
 40
4.0
 40
4.0
 40
4.0
 40
4.0
 10
441.1213948567708
 20
595.3769232855902
 30
0.0
 10
440.9587863498264
 20
594.9307834201388
 30
0.0
 10
441.3732313368055
 20
594.4429578993055
 30
0.0
 10
441.829017469618
 20
594.4591498480902
 30
0.0
 10
442.3960801866319
 20
594.48154296875
 30
0.0
 10
442.5938286675347
 20
595.1030381944444
 30
0.0
 10
442.6224229600694
 20
595.5712266710069
 30
0.0
 10
442.641370985243
 20
595.8168619791666
 30
0.0
 10
442.6734103732638
 20
596.1162407769096
 30
0.0
 10
442.5969292534722
 20
596.3518853081597
 30
0.0
 10
442.3419921875
 20
597.1101508246527
 30
0.0
 10
441.2264702690972
 20
595.6638997395833
 30
0.0
 10
441.1213948567708
 20
595.3769232855902
 30
0.0
  0
SPLINE
  5
E0
330
A
100
AcDbEntity
  8
LAYER_1
 62
     7
100
AcDbSpline
210
0.0
220
0.0
230
1.0
 70
    11
 71
     3
 72
    23
 73
    19
 74
     0
 42
0.000000001
 43
0.00000001
 40
0.0
 40
0.0
 40
0.0
 40
0.0
 40
1.0
 40
1.0
 40
1.0
 40
2.0
 40
2.0
 40
2.0
 40
3.0
 40
3.0
 40
3.0
 40
4.0
 40
4.0
 40
4.0
 40
5.0
 40
5.0
 40
5.0
 40
6.0
 40
6.0
 40
6.0
 40
6.0
 10
439.2190131293402
 20
589.5261176215278
 30
0.0
 10
439.1742268880208
 20
589.2966742621527
 30
0.0
 10
438.7918212890625
 20
588.0219889322916
 30
0.0
 10
439.3082411024305
 20
588.1876980251735
 30
0.0
 10
439.5983181423611
 20
588.28037109375
 30
0.0
 10
439.8914957682291
 20
588.697572157118
 30
0.0
 10
440.0761528862847
 20
588.927015516493
 30
0.0
 10
440.2704562717013
 20
589.1595594618055
 30
0.0
 10
440.4616590711805
 20
589.4368896484375
 30
0.0
 10
440.5922281901042
 20
589.7204210069444
 30
0.0
 10
440.7358886718749
 20
590.0297905815971
 30
0.0
 10
440.8378634982639
 20
590.2240939670138
 30
0.0
 10
440.7741292317708
 20
590.5617133246527
 30
0.0
 10
440.7103949652777
 20
590.8834852430555
 30
0.0
 10
440.4998996310763
 20
591.0174994574652
 30
0.0
 10
440.2194688585069
 20
591.1449679904514
 30
0.0
 10
439.2637993706597
 20
591.5718153211805
 30
0.0
 10
439.3147867838541
 20
590.0297905815971
 30
0.0
 10
439.2190131293402
 20
589.5261176215278
 30
0.0
  0
SPLINE
  5
DF
330
A
100
AcDbEntity
  8
LAYER_1
 62
     7
100
AcDbSpline
210
0.0
220
0.0
230
1.0
 70
    11
 71
     3
 72
    26
 73
    22
 74
     0
 42
0.000000001
 43
0.00000001
 40
0.0
 40
0.0
 40
0.0
 40
0.0
 40
1.0
 40
1.0
 40
1.0
 40
2.0
 40
2.0
 40
2.0
 40
3.0
 40
3.0
 40
3.0
 40
4.0
 40
4.0
 40
4.0
 40
5.0
 40
5.0
 40
5.0
 40
6.0
 40
6.0
 40
6.0
 40
7.0
 40
7.0
 40
7.0
 40
7.0
 10
436.5228814019097
 20
590.6829806857638
 30
0.0
 10
436.3733642578125
 20
591.0174994574652
 30
0.0
 10
435.5127794053819
 20
591.5849066840277
 30
0.0
 10
435.299183485243
 20
591.0653862847222
 30
0.0
 10
435.1879069010416
 20
590.8039035373264
 30
0.0
 10
435.2802354600694
 20
590.4948784722221
 30
0.0
 10
435.2068549262152
 20
590.2240939670138
 30
0.0
 10
435.1303738064236
 20
589.9498643663194
 30
0.0
 10
435.0029052734375
 20
589.6535861545138
 30
0.0
 10
435.0349446614583
 20
589.3604085286457
 30
0.0
 10
435.0604383680555
 20
589.0799777560763
 30
0.0
 10
435.3822102864583
 20
588.8474338107638
 30
0.0
 10
435.5958062065972
 20
588.6848253038194
 30
0.0
 10
435.863490125868
 20
588.468128797743
 30
0.0
 10
436.1790608723958
 20
588.1591037326389
 30
0.0
 10
436.4753390842013
 20
588.4426350911458
 30
0.0
 10
436.7716172960069
 20
588.7296115451388
 30
0.0
 10
436.8863389756944
 20
589.1819525824652
 30
0.0
 10
436.8863389756944
 20
589.5771050347222
 30
0.0
 10
436.8863389756944
 20
590.01669921875
 30
0.0
 10
436.6951361762152
 20
590.303675672743
 30
0.0
 10
436.5228814019097
 20
590.6829806857638
 30
0.0
  0
SPLINE
  5
DE
330
A
100
AcDbEntity
  8
LAYER_1
 62
     7
100
AcDbSpline
210
0.0
220
0.0
230
1.0
 70
    11
 71
     3
 72
    26
 73
    22
 74
     0
 42
0.000000001
 43
0.00000001
 40
0.0
 40
0.0
 40
0.0
 40
0.0
 40
1.0
 40
1.0
 40
1.0
 40
2.0
 40
2.0
 40
2.0
 40
3.0
 40
3.0
 40
3.0
 40
4.0
 40
4.0
 40
4.0
 40
5.0
 40
5.0
 40
5.0
 40
6.0
 40
6.0
 40
6.0
 40
7.0
 40
7.0
 40
7.0
 40
7.0
 10
440.1209391276041
 20
587.6905707465277
 30
0.0
 10
439.8467095269097
 20
587.4197862413193
 30
0.0
 10
439.7192409939236
 20
586.9640001085069
 30
0.0
 10
439.6810004340277
 20
586.5977864583333
 30
0.0
 10
439.6300130208333
 20
586.1864420572916
 30
0.0
 10
439.4677490234375
 20
585.7372016059027
 30
0.0
 10
439.5056450737847
 20
585.319656032986
 30
0.0
 10
439.5442301432291
 20
584.8800618489582
 30
0.0
 10
439.8405083550347
 20
584.7718858506944
 30
0.0
 10
440.2577094184027
 20
584.8066813151041
 30
0.0
 10
440.681800672743
 20
584.8418212890624
 30
0.0
 10
440.9015977647569
 20
584.8800618489582
 30
0.0
 10
441.1055474175347
 20
585.2752143012152
 30
0.0
 10
441.2840033637152
 20
585.6193793402778
 30
0.0
 10
441.4528130425347
 20
585.9886935763889
 30
0.0
 10
441.611976453993
 20
586.3521511501735
 30
0.0
 10
441.7525363498264
 20
586.6770236545138
 30
0.0
 10
441.9275472005208
 20
587.0215332031249
 30
0.0
 10
441.9626871744791
 20
587.3718994140625
 30
0.0
 10
442.0453694661458
 20
588.1556586371527
 30
0.0
 10
440.4809516059028
 20
588.0443820529514
 30
0.0
 10
440.1209391276041
 20
587.6905707465277
 30
0.0
  0
SPLINE
  5
DD
330
A
100
AcDbEntity
  8
LAYER_1
 62
     7
100
AcDbSpline
210
0.0
220
0.0
230
1.0
 70
    11
 71
     3
 72
    35
 73
    31
 74
     0
 42
0.000000001
 43
0.00000001
 40
0.0
 40
0.0
 40
0.0
 40
0.0
 40
1.0
 40
1.0
 40
1.0
 40
2.0
 40
2.0
 40
2.0
 40
3.0
 40
3.0
 40
3.0
 40
4.0
 40
4.0
 40
4.0
 40
5.0
 40
5.0
 40
5.0
 40
6.0
 40
6.0
 40
6.0
 40
7.0
 40
7.0
 40
7.0
 40
8.0
 40
8.0
 40
8.0
 40
9.0
 40
9.0
 40
9.0
 40
10.0
 40
10.0
 40
10.0
 40
10.0
 10
436.8353515625
 20
586.0493272569444
 30
0.0
 10
436.9597195095486
 20
586.2119357638888
 30
0.0
 10
437.064794921875
 20
586.3965928819443
 30
0.0
 10
437.1509223090277
 20
586.5977864583333
 30
0.0
 10
437.3962131076389
 20
587.1648491753472
 30
0.0
 10
436.4019585503472
 20
587.716064453125
 30
0.0
 10
435.9399712456597
 20
587.6588758680555
 30
0.0
 10
435.7711615668402
 20
587.6395833333332
 30
0.0
 10
435.6306016710069
 20
587.614089626736
 30
0.0
 10
435.4617919921874
 20
587.6268364800346
 30
0.0
 10
435.3122748480902
 20
587.6395833333332
 30
0.0
 10
435.1527669270833
 20
587.7002170138888
 30
0.0
 10
434.9967041015624
 20
587.6712782118055
 30
0.0
 10
434.5760579427083
 20
587.607888454861
 30
0.0
 10
434.6332465277777
 20
587.203089735243
 30
0.0
 10
434.5729573567708
 20
586.9037109374999
 30
0.0
 10
434.486829969618
 20
586.460671657986
 30
0.0
 10
434.4389431423611
 20
586.0079861111111
 30
0.0
 10
434.375208875868
 20
585.5618462456597
 30
0.0
 10
434.3211208767361
 20
585.2114800347222
 30
0.0
 10
434.2925265842014
 20
584.7463921440972
 30
0.0
 10
434.4578911675347
 20
584.4273763020833
 30
0.0
 10
434.7321207682292
 20
583.8796061197916
 30
0.0
 10
435.2736897786458
 20
584.2268717447917
 30
0.0
 10
435.5193250868055
 20
584.6058322482638
 30
0.0
 10
435.6815890842013
 20
584.854568142361
 30
0.0
 10
435.8824381510416
 20
585.2080349392361
 30
0.0
 10
436.0960340711805
 20
585.4088840060764
 30
0.0
 10
436.3413248697916
 20
585.6383273654513
 30
0.0
 10
436.6217556423611
 20
585.7754421657986
 30
0.0
 10
436.8353515625
 20
586.0493272569444
 30
0.0
  0
SPLINE
  5
DC
330
A
100
AcDbEntity
  8
LAYER_1
 62
     7
100
AcDbSpline
210
0.0
220
0.0
230
1.0
 70
     8
 71
     3
 72
    32
 73
    28
 74
     0
 42
0.000000001
 43
0.00000001
 40
0.0
 40
0.0
 40
0.0
 40
0.0
 40
1.0
 40
1.0
 40
1.0
 40
2.0
 40
2.0
 40
2.0
 40
3.0
 40
3.0
 40
3.0
 40
4.0
 40
4.0
 40
4.0
 40
5.0
 40
5.0
 40
5.0
 40
6.0
 40
6.0
 40
6.0
 40
7.0
 40
7.0
 40
7.0
 40
8.0
 40
8.0
 40
8.0
 40
9.0
 40
9.0
 40
9.0
 40
9.0
 10
439.4515570746527
 20
590.9027777777777
 30
0.0
 10
439.5090901692708
 20
591.1225748697916
 30
0.0
 10
439.5473307291666
 20
591.3361707899305
 30
0.0
 10
439.5855712890624
 20
591.5594129774305
 30
0.0
 10
439.646204969618
 20
591.8715386284722
 30
0.0
 10
439.7798746744791
 20
591.8908311631944
 30
0.0
 10
440.0792534722222
 20
591.8205512152778
 30
0.0
 10
440.2163682725694
 20
591.7950575086805
 30
0.0
 10
440.4936984592014
 20
591.7185763888889
 30
0.0
 10
440.5956732855902
 20
591.5911078559027
 30
0.0
 10
440.74208984375
 20
591.4319444444444
 30
0.0
 10
440.7327880859374
 20
591.3106770833333
 30
0.0
 10
441.0001274956597
 20
591.2658908420138
 30
0.0
 10
441.2075222439236
 20
591.2341959635417
 30
0.0
 10
441.3890787760416
 20
591.2979302300347
 30
0.0
 10
441.5740804036458
 20
591.1894097222222
 30
0.0
 10
441.7714843749999
 20
591.0777886284721
 30
0.0
 10
441.8035237630208
 20
590.9027777777777
 30
0.0
 10
441.8448649088541
 20
590.698828125
 30
0.0
 10
441.9085991753472
 20
590.367409939236
 30
0.0
 10
441.9688883463541
 20
590.0904242621527
 30
0.0
 10
441.9499403211805
 20
589.7493598090277
 30
0.0
 10
441.9340928819444
 20
589.4751302083333
 30
0.0
 10
441.9085991753472
 20
589.2009006076388
 30
0.0
 10
441.9054985894097
 20
588.927015516493
 30
0.0
 10
441.9020534939236
 20
588.6910264756943
 30
0.0
 10
441.9943820529513
 20
587.9806477864582
 30
0.0
 10
441.6884575737847
 20
587.9200141059027
 30
0.0
  0
SPLINE
  5
DB
330
A
100
AcDbEntity
  8
LAYER_1
 62
     7
100
AcDbSpline
210
0.0
220
0.0
230
1.0
 70
     8
 71
     3
 72
    14
 73
    10
 74
     0
 42
0.000000001
 43
0.00000001
 40
0.0
 40
0.0
 40
0.0
 40
0.0
 40
1.0
 40
1.0
 40
1.0
 40
2.0
 40
2.0
 40
2.0
 40
3.0
 40
3.0
 40
3.0
 40
3.0
 10
439.9548855251736
 20
587.5438096788193
 30
0.0
 10
439.6682535807291
 20
587.550355360243
 30
0.0
 10
439.429163953993
 20
587.2316840277778
 30
0.0
 10
439.1487331814236
 20
587.203089735243
 30
0.0
 10
438.9671766493055
 20
587.1841417100694
 30
0.0
 10
438.9192898220486
 20
587.257177734375
 30
0.0
 10
438.9258355034722
 20
587.4452799479166
 30
0.0
 10
438.9447835286458
 20
587.7670518663194
 30
0.0
 10
439.1011908637153
 20
588.0922688802083
 30
0.0
 10
438.9957709418402
 20
588.4171413845486
 30
0.0
  0
SPLINE
  5
DA
330
A
100
AcDbEntity
  8
LAYER_1
 62
     7
100
AcDbSpline
210
0.0
220
0.0
230
1.0
 70
    11
 71
     3
 72
    38
 73
    34
 74
     0
 42
0.000000001
 43
0.00000001
 40
0.0
 40
0.0
 40
0.0
 40
0.0
 40
1.0
 40
1.0
 40
1.0
 40
2.0
 40
2.0
 40
2.0
 40
3.0
 40
3.0
 40
3.0
 40
4.0
 40
4.0
 40
4.0
 40
5.0
 40
5.0
 40
5.0
 40
6.0
 40
6.0
 40
6.0
 40
7.0
 40
7.0
 40
7.0
 40
8.0
 40
8.0
 40
8.0
 40
9.0
 40
9.0
 40
9.0
 40
10.0
 40
10.0
 40
10.0
 40
11.0
 40
11.0
 40
11.0
 40
11.0
 10
436.9948594835069
 20
583.0986029730902
 30
0.0
 10
436.8067572699653
 20
583.4172743055555
 30
0.0
 10
436.5263264973958
 20
583.6691107855902
 30
0.0
 10
436.1087809244791
 20
583.7934787326388
 30
0.0
 10
435.7742621527777
 20
583.8920084635416
 30
0.0
 10
435.3501708984375
 20
583.9495415581597
 30
0.0
 10
434.9998046875
 20
583.9939832899305
 30
0.0
 10
434.7097276475694
 20
584.0260226779513
 30
0.0
 10
434.251185438368
 20
584.0673638237847
 30
0.0
 10
434.0310438368055
 20
583.831374782986
 30
0.0
 10
433.7761067708333
 20
583.5671359592013
 30
0.0
 10
433.9483615451388
 20
583.0317681206596
 30
0.0
 10
433.9831570095486
 20
582.7034505208333
 30
0.0
 10
434.0151963975694
 20
582.3561848958333
 30
0.0
 10
434.021742078993
 20
582.0120198567707
 30
0.0
 10
434.0310438368055
 20
581.6678548177083
 30
0.0
 10
434.0437906901041
 20
581.4322102864583
 30
0.0
 10
434.075830078125
 20
581.1386881510416
 30
0.0
 10
434.311474609375
 20
581.0112196180555
 30
0.0
 10
434.5026774088541
 20
580.9092447916667
 30
0.0
 10
434.7576144748264
 20
580.947829861111
 30
0.0
 10
434.9646647135417
 20
580.8582573784722
 30
0.0
 10
435.4776394314236
 20
580.6288140190971
 30
0.0
 10
435.745667860243
 20
580.2402072482638
 30
0.0
 10
436.3254774305555
 20
580.5523328993055
 30
0.0
 10
436.5008327907986
 20
580.6419053819444
 30
0.0
 10
436.6090087890624
 20
580.7948676215277
 30
0.0
 10
436.7461235894097
 20
580.9285373263889
 30
0.0
 10
436.9021864149305
 20
581.0877007378472
 30
0.0
 10
437.1157823350694
 20
581.1834743923611
 30
0.0
 10
437.2559977213541
 20
581.3557291666666
 30
0.0
 10
437.6446044921875
 20
581.7953233506944
 30
0.0
 10
437.2367051866319
 20
582.677956814236
 30
0.0
 10
436.9948594835069
 20
583.0986029730902
 30
0.0
  0
SPLINE
  5
D9
330
A
100
AcDbEntity
  8
LAYER_1
 62
     7
100
AcDbSpline
210
0.0
220
0.0
230
1.0
 70
    11
 71
     3
 72
    29
 73
    25
 74
     0
 42
0.000000001
 43
0.00000001
 40
0.0
 40
0.0
 40
0.0
 40
0.0
 40
1.0
 40
1.0
 40
1.0
 40
2.0
 40
2.0
 40
2.0
 40
3.0
 40
3.0
 40
3.0
 40
4.0
 40
4.0
 40
4.0
 40
5.0
 40
5.0
 40
5.0
 40
6.0
 40
6.0
 40
6.0
 40
7.0
 40
7.0
 40
7.0
 40
8.0
 40
8.0
 40
8.0
 40
8.0
 10
439.6238118489583
 20
581.6168674045139
 30
0.0
 10
439.8339626736111
 20
581.4160183376736
 30
0.0
 10
440.2322157118055
 20
581.1262858072917
 30
0.0
 10
440.5033447265624
 20
581.3426378038193
 30
0.0
 10
440.7103949652777
 20
581.5086914062499
 30
0.0
 10
440.7486355251736
 20
581.8590576171874
 30
0.0
 10
440.7231418185763
 20
582.0978027343749
 30
0.0
 10
440.6911024305555
 20
582.4643608940971
 30
0.0
 10
440.688001844618
 20
582.8405653211805
 30
0.0
 10
440.6594075520833
 20
583.2036783854167
 30
0.0
 10
440.6308132595486
 20
583.6181233723958
 30
0.0
 10
441.1341417100694
 20
584.4149739583332
 30
0.0
 10
440.7930772569444
 20
584.6954047309027
 30
0.0
 10
440.5987738715277
 20
584.848366970486
 30
0.0
 10
440.2897488064236
 20
584.7718858506944
 30
0.0
 10
440.0761528862847
 20
584.7078070746527
 30
0.0
 10
439.8115695529514
 20
584.6282253689236
 30
0.0
 10
439.6875461154514
 20
584.4404676649305
 30
0.0
 10
439.5662787543403
 20
584.1917317708333
 30
0.0
 10
439.3209879557292
 20
583.6946044921874
 30
0.0
 10
439.3147867838541
 20
583.127197265625
 30
0.0
 10
439.311341688368
 20
582.5856282552082
 30
0.0
 10
439.3082411024305
 20
582.2735026041667
 30
0.0
 10
439.3719753689236
 20
581.8590576171874
 30
0.0
 10
439.6238118489583
 20
581.6168674045139
 30
0.0
  0
SPLINE
  5
D8
330
A
100
AcDbEntity
  8
LAYER_1
 62
     7
100
AcDbSpline
210
0.0
220
0.0
230
1.0
 70
    11
 71
     3
 72
    11
 73
     7
 74
     0
 42
0.000000001
 43
0.00000001
 40
0.0
 40
0.0
 40
0.0
 40
0.0
 40
1.0
 40
1.0
 40
1.0
 40
2.0
 40
2.0
 40
2.0
 40
2.0
 10
435.6529947916666
 20
584.03876953125
 30
0.0
 10
435.8379964192708
 20
584.0194769965277
 30
0.0
 10
436.0450466579861
 20
584.1279975043402
 30
0.0
 10
436.0322998046875
 20
584.3254014756944
 30
0.0
 10
435.9844129774305
 20
584.9758355034721
 30
0.0
 10
435.0221978081597
 20
584.1118055555555
 30
0.0
 10
435.6529947916666
 20
584.03876953125
 30
0.0
  0
SPLINE
  5
D7
330
A
100
AcDbEntity
  8
LAYER_1
 62
     7
100
AcDbSpline
210
0.0
220
0.0
230
1.0
 70
     8
 71
     3
 72
    47
 73
    43
 74
     0
 42
0.000000001
 43
0.00000001
 40
0.0
 40
0.0
 40
0.0
 40
0.0
 40
1.0
 40
1.0
 40
1.0
 40
2.0
 40
2.0
 40
2.0
 40
3.0
 40
3.0
 40
3.0
 40
4.0
 40
4.0
 40
4.0
 40
5.0
 40
5.0
 40
5.0
 40
6.0
 40
6.0
 40
6.0
 40
7.0
 40
7.0
 40
7.0
 40
8.0
 40
8.0
 40
8.0
 40
9.0
 40
9.0
 40
9.0
 40
10.0
 40
10.0
 40
10.0
 40
11.0
 40
11.0
 40
11.0
 40
12.0
 40
12.0
 40
12.0
 40
13.0
 40
13.0
 40
13.0
 40
14.0
 40
14.0
 40
14.0
 40
14.0
 10
362.9494222005208
 20
677.599294704861
 30
0.0
 10
362.9494222005208
 20
677.599294704861
 30
0.0
 10
367.9778835720486
 20
675.4385308159722
 30
0.0
 10
368.1435926649305
 20
675.6042399088541
 30
0.0
 10
368.3127468532986
 20
675.769949001736
 30
0.0
 10
374.1091200086805
 20
673.2143771701388
 30
0.0
 10
374.1632080078124
 20
673.2750108506943
 30
0.0
 10
374.2207411024305
 20
673.3259982638888
 30
0.0
 10
386.5435031467014
 20
668.7750271267361
 30
0.0
 10
386.5435031467014
 20
668.7750271267361
 30
0.0
 10
386.5435031467014
 20
668.7750271267361
 30
0.0
 10
401.0204833984375
 20
663.8643880208333
 30
0.0
 10
401.0204833984375
 20
663.8643880208333
 30
0.0
 10
401.0204833984375
 20
663.8643880208333
 30
0.0
 10
404.7267171223958
 20
662.8322374131944
 30
0.0
 10
404.7267171223958
 20
662.8322374131944
 30
0.0
 10
404.7267171223958
 20
662.8322374131944
 30
0.0
 10
408.435706922743
 20
662.2968695746528
 30
0.0
 10
410.1565321180555
 20
662.7237169053819
 30
0.0
 10
411.8839029947916
 20
663.150564236111
 30
0.0
 10
413.3177517361111
 20
662.3602593315971
 30
0.0
 10
413.8689670138888
 20
662.1883490668403
 30
0.0
 10
414.4236273871527
 20
662.0164388020833
 30
0.0
 10
419.8854817708333
 20
659.1356499565971
 30
0.0
 10
419.8854817708333
 20
659.1356499565971
 30
0.0
 10
419.8854817708333
 20
659.1356499565971
 30
0.0
 10
422.7473225911458
 20
657.0548122829861
 30
0.0
 10
425.3473361545139
 20
656.478103298611
 30
0.0
 10
427.9476942274305
 20
655.8979492187499
 30
0.0
 10
428.1006564670138
 20
654.5660753038194
 30
0.0
 10
427.7599365234375
 20
653.5718207465277
 30
0.0
 10
427.4154269748263
 20
652.5775661892361
 30
0.0
 10
425.9529839409722
 20
649.9868543836805
 30
0.0
 10
424.9969699435763
 20
648.9447129991319
 30
0.0
 10
424.044056532118
 20
647.8994710286457
 30
0.0
 10
422.6005615234375
 20
647.631787109375
 30
0.0
 10
422.8076117621528
 20
646.1882921006944
 30
0.0
 10
423.0181070963541
 20
644.7509982638888
 30
0.0
 10
424.0058159722222
 20
643.6837076822916
 30
0.0
 10
426.0453125
 20
642.2781087239583
 30
0.0
 10
428.0782633463541
 20
640.8728542751736
 30
0.0
 10
427.3613389756944
 20
641.0447645399305
 30
0.0
 10
427.3613389756944
 20
640.9841308593749
 30
0.0
  0
INSERT
  5
D3
330
A
100
AcDbEntity
  8
LAYER_1
 62
     7
100
AcDbBlockReference
  2
AI9-BLK24
 10
350.902268
 20
633.314143
 30
0.0
  0
INSERT
  5
CE
330
A
100
AcDbEntity
  8
LAYER_1
 62
     7
100
AcDbBlockReference
  2
AI9-BLK23
 10
349.182993
 20
623.776223
 30
0.0
  0
INSERT
  5
C9
330
A
100
AcDbEntity
  8
LAYER_1
 62
     7
100
AcDbBlockReference
  2
AI9-BLK22
 10
349.071544
 20
616.772344
 30
0.0
  0
INSERT
  5
C4
330
A
100
AcDbEntity
  8
LAYER_1
 62
     7
100
AcDbBlockReference
  2
AI9-BLK21
 10
349.229157
 20
604.065282
 30
0.0
  0
INSERT
  5
BF
330
A
100
AcDbEntity
  8
LAYER_1
 62
     7
100
AcDbBlockReference
  2
AI9-BLK20
 10
349.050873
 20
598.592231
 30
0.0
  0
INSERT
  5
BA
330
A
100
AcDbEntity
  8
LAYER_1
 62
     7
100
AcDbBlockReference
  2
AI9-BLK19
 10
349.076367
 20
592.20778
 30
0.0
  0
INSERT
  5
B5
330
A
100
AcDbEntity
  8
LAYER_1
 62
     7
100
AcDbBlockReference
  2
AI9-BLK18
 10
349.127355
 20
586.654975
 30
0.0
  0
INSERT
  5
B0
330
A
100
AcDbEntity
  8
LAYER_1
 62
     7
100
AcDbBlockReference
  2
AI9-BLK17
 10
348.948899
 20
578.836503
 30
0.0
  0
INSERT
  5
AB
330
A
100
AcDbEntity
  8
LAYER_1
 62
     7
100
AcDbBlockReference
  2
AI9-BLK16
 10
348.620581
 20
572.726109
 30
0.0
  0
INSERT
  5
A6
330
A
100
AcDbEntity
  8
LAYER_1
 62
     7
100
AcDbBlockReference
  2
AI9-BLK15
 10
370.380838
 20
662.597971
 30
0.0
  0
INSERT
  5
A1
330
A
100
AcDbEntity
  8
LAYER_1
 62
     7
100
AcDbBlockReference
  2
AI9-BLK14
 10
377.97934
 20
656.409201
 30
0.0
  0
INSERT
  5
9C
330
A
100
AcDbEntity
  8
LAYER_1
 62
     7
100
AcDbBlockReference
  2
AI9-BLK13
 10
385.338926
 20
651.97812
 30
0.0
  0
INSERT
  5
97
330
A
100
AcDbEntity
  8
LAYER_1
 62
     7
100
AcDbBlockReference
  2
AI9-BLK12
 10
352.286852
 20
641.248714
 30
0.0
  0
INSERT
  5
92
330
A
100
AcDbEntity
  8
LAYER_1
 62
     7
100
AcDbBlockReference
  2
AI9-BLK11
 10
361.238243
 20
666.982716
 30
0.0
  0
INSERT
  5
7B
330
A
100
AcDbEntity
  8
LAYER_1
 62
     7
100
AcDbBlockReference
  2
AI9-BLK6
 10
390.485554
 20
576.148467
 30
0.0
  0
INSERT
  5
64
330
A
100
AcDbEntity
  8
LAYER_1
 62
     7
100
AcDbBlockReference
  2
AI9-BLK1
 10
390.428365
 20
654.336632
 30
0.0
  0
MTEXT
  5
62
330
A
100
AcDbEntity
  8
LAYER_1
 62
     7
100
AcDbMText
 10
392.359169
 20
654.998799
 30
0.0
 40
1.232675
 41
0.0
 46
0.0
 71
     1
 72
     2
  1
\W1.00;\fHelvetica|b1|i0;790/295
  7
STD
 73
     1
 44
1.0
  0
MTEXT
  5
61
330
A
100
AcDbEntity
  8
LAYER_1
 62
     7
100
AcDbMText
 10
382.547192
 20
576.893661
 30
0.0
 40
1.232675
 41
0.0
 46
0.0
 71
     1
 72
     2
  1
\W1.00;\fHelvetica|b1|i0;790/290
  7
STD
 73
     1
 44
1.0
  0
SPLINE
  5
60
330
A
100
AcDbEntity
  8
LAYER_1
 62
     7
100
AcDbSpline
210
0.0
220
0.0
230
1.0
 70
     8
 71
     3
 72
    35
 73
    31
 74
     0
 42
0.000000001
 43
0.00000001
 40
0.0
 40
0.0
 40
0.0
 40
0.0
 40
1.0
 40
1.0
 40
1.0
 40
2.0
 40
2.0
 40
2.0
 40
3.0
 40
3.0
 40
3.0
 40
4.0
 40
4.0
 40
4.0
 40
5.0
 40
5.0
 40
5.0
 40
6.0
 40
6.0
 40
6.0
 40
7.0
 40
7.0
 40
7.0
 40
8.0
 40
8.0
 40
8.0
 40
9.0
 40
9.0
 40
9.0
 40
10.0
 40
10.0
 40
10.0
 40
10.0
 10
445.2224365234375
 20
574.4152398003472
 30
0.0
 10
445.2224365234375
 20
574.4152398003472
 30
0.0
 10
438.0686957465277
 20
574.058327907986
 30
0.0
 10
435.4428439670139
 20
573.8988199869791
 30
0.0
 10
432.8138916015625
 20
573.7393120659722
 30
0.0
 10
427.1894287109375
 20
573.5512098524305
 30
0.0
 10
425.1085910373263
 20
573.2680230034722
 30
0.0
 10
423.0277533637152
 20
572.9810465494791
 30
0.0
 10
415.4495768229166
 20
572.9300591362846
 30
0.0
 10
414.165589735243
 20
572.8821723090277
 30
0.0
 10
412.8812581380208
 20
572.8280843098958
 30
0.0
 10
404.6247422960069
 20
572.3020182291666
 30
0.0
 10
404.6247422960069
 20
572.3020182291666
 30
0.0
 10
404.6247422960069
 20
572.3020182291666
 30
0.0
 10
399.7395968967014
 20
572.5955403645833
 30
0.0
 10
398.4552652994792
 20
572.4839192708333
 30
0.0
 10
397.1740342881944
 20
572.3757432725694
 30
0.0
 10
387.1488064236111
 20
572.2861707899305
 30
0.0
 10
387.1488064236111
 20
572.2861707899305
 30
0.0
 10
387.1488064236111
 20
572.2861707899305
 30
0.0
 10
379.8672526041667
 20
571.5024115668402
 30
0.0
 10
379.0738471137153
 20
571.3239556206597
 30
0.0
 10
378.2773410373264
 20
571.1486002604166
 30
0.0
 10
373.076624891493
 20
570.5271050347221
 30
0.0
 10
368.0033772786458
 20
570.265966796875
 30
0.0
 10
362.9301296657986
 20
570.0110297309027
 30
0.0
 10
353.8195746527778
 20
569.8580674913194
 30
0.0
 10
353.5136501736111
 20
569.8580674913194
 30
0.0
 10
353.2077256944444
 20
569.8642686631944
 30
0.0
 10
341.7135091145833
 20
569.5459418402777
 30
0.0
 10
340.4898111979167
 20
568.8831054687499
 30
0.0
  0
SPLINE
  5
5F
330
A
100
AcDbEntity
  8
LAYER_1
 62
     7
100
AcDbSpline
210
0.0
220
0.0
230
1.0
 70
     8
 71
     3
 72
    11
 73
     7
 74
     0
 42
0.000000001
 43
0.00000001
 40
0.0
 40
0.0
 40
0.0
 40
0.0
 40
1.0
 40
1.0
 40
1.0
 40
2.0
 40
2.0
 40
2.0
 40
2.0
 10
347.2680365668402
 20
677.2868245442708
 30
0.0
 10
348.4373019748264
 20
677.1083685980902
 30
0.0
 10
347.7362250434027
 20
676.2991156684027
 30
0.0
 10
347.3093777126736
 20
675.7189615885416
 30
0.0
 10
347.1340223524305
 20
675.4833170572916
 30
0.0
 10
346.1366672092013
 20
674.0046820746527
 30
0.0
 10
346.1397677951389
 20
675.0433783637152
 30
0.0
  0
SPLINE
  5
5E
330
A
100
AcDbEntity
  8
LAYER_1
 62
     7
100
AcDbSpline
210
0.0
220
0.0
230
1.0
 70
     8
 71
     3
 72
    11
 73
     7
 74
     0
 42
0.000000001
 43
0.00000001
 40
0.0
 40
0.0
 40
0.0
 40
0.0
 40
1.0
 40
1.0
 40
1.0
 40
2.0
 40
2.0
 40
2.0
 40
2.0
 10
346.2830837673611
 20
670.7573350694444
 30
0.0
 10
346.9714138454861
 20
670.81796875
 30
0.0
 10
346.9714138454861
 20
670.7573350694444
 30
0.0
 10
346.7485161675347
 20
670.1423855251735
 30
0.0
 10
346.6272488064236
 20
669.8140679253472
 30
0.0
 10
346.3916042751736
 20
669.5880696614582
 30
0.0
 10
346.2703369140625
 20
669.2821451822916
 30
0.0
  0
SPLINE
  5
5D
330
A
100
AcDbEntity
  8
LAYER_1
 62
     7
100
AcDbSpline
210
0.0
220
0.0
230
1.0
 70
     8
 71
     3
 72
    17
 73
    13
 74
     0
 42
0.000000001
 43
0.00000001
 40
0.0
 40
0.0
 40
0.0
 40
0.0
 40
1.0
 40
1.0
 40
1.0
 40
2.0
 40
2.0
 40
2.0
 40
3.0
 40
3.0
 40
3.0
 40
4.0
 40
4.0
 40
4.0
 40
4.0
 10
345.4386908637152
 20
668.880447048611
 30
0.0
 10
345.6298936631944
 20
668.5683213975694
 30
0.0
 10
346.0760335286458
 20
668.6382568359375
 30
0.0
 10
346.2737820095486
 20
668.3133843315971
 30
0.0
 10
346.5063259548611
 20
667.9116861979167
 30
0.0
 10
346.2737820095486
 20
667.6440022786458
 30
0.0
 10
346.1142740885417
 20
667.3446234809027
 30
0.0
 10
345.9933512369792
 20
667.1117350260416
 30
0.0
 10
345.9327175564236
 20
666.6053059895833
 30
0.0
 10
345.5978542751736
 20
666.5732666015624
 30
0.0
 10
345.4641845703125
 20
666.5605197482638
 30
0.0
 10
344.9446641710069
 20
666.8440511067707
 30
0.0
 10
344.9098687065972
 20
666.8567979600693
 30
0.0
  0
SPLINE
  5
5C
330
A
100
AcDbEntity
  8
LAYER_1
 62
     7
100
AcDbSpline
210
0.0
220
0.0
230
1.0
 70
     8
 71
     3
 72
    14
 73
    10
 74
     0
 42
0.000000001
 43
0.00000001
 40
0.0
 40
0.0
 40
0.0
 40
0.0
 40
1.0
 40
1.0
 40
1.0
 40
2.0
 40
2.0
 40
2.0
 40
3.0
 40
3.0
 40
3.0
 40
3.0
 10
344.6962727864583
 20
663.4564887152777
 30
0.0
 10
345.0149441189236
 20
663.2718315972222
 30
0.0
 10
345.5599582248263
 20
662.9851996527777
 30
0.0
 10
345.5565131293403
 20
662.5518066406249
 30
0.0
 10
345.5503119574652
 20
661.8379828559027
 30
0.0
 10
344.8716281467014
 20
662.0929199218749
 30
0.0
 10
344.4509819878472
 20
662.0832736545138
 30
0.0
 10
344.4475368923611
 20
662.1308159722222
 30
0.0
 10
344.4637288411458
 20
662.1756022135417
 30
0.0
 10
344.4985243055555
 20
662.2138427734375
 30
0.0
  0
SPLINE
  5
5B
330
A
100
AcDbEntity
  8
LAYER_1
 62
     7
100
AcDbSpline
210
0.0
220
0.0
230
1.0
 70
     8
 71
     3
 72
     8
 73
     4
 74
     0
 42
0.000000001
 43
0.00000001
 40
0.0
 40
0.0
 40
0.0
 40
0.0
 40
1.0
 40
1.0
 40
1.0
 40
1.0
 10
343.5332085503472
 20
652.9279324001735
 30
0.0
 10
343.4150417751736
 20
652.3415771484374
 30
0.0
 10
343.4057400173611
 20
651.2897894965278
 30
0.0
 10
342.4655734592014
 20
651.8826904296874
 30
0.0
  0
SPLINE
  5
5A
330
A
100
AcDbEntity
  8
LAYER_1
 62
     7
100
AcDbSpline
210
0.0
220
0.0
230
1.0
 70
     8
 71
     3
 72
    11
 73
     7
 74
     0
 42
0.000000001
 43
0.00000001
 40
0.0
 40
0.0
 40
0.0
 40
0.0
 40
1.0
 40
1.0
 40
1.0
 40
2.0
 40
2.0
 40
2.0
 40
2.0
 10
343.6096896701388
 20
651.1340711805555
 30
0.0
 10
343.7626519097222
 20
650.8791341145833
 30
0.0
 10
344.3490071614583
 20
650.1618652343749
 30
0.0
 10
344.1991455078125
 20
649.8369927300347
 30
0.0
 10
344.0110432942708
 20
649.4383951822916
 30
0.0
 10
343.4088406032986
 20
649.7319173177083
 30
0.0
 10
343.2272840711805
 20
649.9868543836805
 30
0.0
  0
SPLINE
  5
59
330
A
100
AcDbEntity
  8
LAYER_1
 62
     7
100
AcDbSpline
210
0.0
220
0.0
230
1.0
 70
     8
 71
     3
 72
    11
 73
     7
 74
     0
 42
0.000000001
 43
0.00000001
 40
0.0
 40
0.0
 40
0.0
 40
0.0
 40
1.0
 40
1.0
 40
1.0
 40
2.0
 40
2.0
 40
2.0
 40
2.0
 10
344.1226643880208
 20
661.5286132812499
 30
0.0
 10
344.836488172743
 20
661.3215630425346
 30
0.0
 10
345.0531846788194
 20
661.4362847222221
 30
0.0
 10
345.0338921440972
 20
660.5440049913194
 30
0.0
 10
345.0180447048611
 20
659.820534939236
 30
0.0
 10
344.4668294270833
 20
659.9641954210069
 30
0.0
 10
343.8773735894097
 20
659.9641954210069
 30
0.0
  0
SPLINE
  5
58
330
A
100
AcDbEntity
  8
LAYER_1
 62
     7
100
AcDbSpline
210
0.0
220
0.0
230
1.0
 70
     8
 71
     3
 72
    38
 73
    34
 74
     0
 42
0.000000001
 43
0.00000001
 40
0.0
 40
0.0
 40
0.0
 40
0.0
 40
1.0
 40
1.0
 40
1.0
 40
2.0
 40
2.0
 40
2.0
 40
3.0
 40
3.0
 40
3.0
 40
4.0
 40
4.0
 40
4.0
 40
5.0
 40
5.0
 40
5.0
 40
6.0
 40
6.0
 40
6.0
 40
7.0
 40
7.0
 40
7.0
 40
8.0
 40
8.0
 40
8.0
 40
9.0
 40
9.0
 40
9.0
 40
10.0
 40
10.0
 40
10.0
 40
11.0
 40
11.0
 40
11.0
 40
11.0
 10
344.5112711588541
 20
659.5593967013888
 30
0.0
 10
344.7758544921875
 20
659.2948133680555
 30
0.0
 10
344.7569064670138
 20
659.173890516493
 30
0.0
 10
344.6325385199652
 20
658.8200792100694
 30
0.0
 10
344.5112711588541
 20
658.4790147569444
 30
0.0
 10
344.4571831597222
 20
658.1351942274305
 30
0.0
 10
344.3521077473958
 20
657.7906846788194
 30
0.0
 10
344.2435872395833
 20
657.4468641493055
 30
0.0
 10
344.1385118272569
 20
657.0961534288194
 30
0.0
 10
343.9569552951389
 20
656.7840277777777
 30
0.0
 10
343.8101942274305
 20
656.5352918836805
 30
0.0
 10
343.5872965494792
 20
656.4619113498263
 30
0.0
 10
343.3640543619791
 20
656.3251410590277
 30
0.0
 10
343.6444851345486
 20
656.2996473524305
 30
0.0
 10
343.8549804687499
 20
656.2900010850694
 30
0.0
 10
344.0048421223958
 20
656.019216579861
 30
0.0
 10
344.1033718532986
 20
655.8342149522568
 30
0.0
 10
344.1099175347222
 20
655.6271647135416
 30
0.0
 10
344.0492838541666
 20
655.4390625
 30
0.0
 10
343.9982964409722
 20
655.2798990885416
 30
0.0
 10
343.918714735243
 20
655.0470106336805
 30
0.0
 10
343.8167399088541
 20
654.9164415147569
 30
0.0
 10
343.689271375868
 20
654.766579861111
 30
0.0
 10
343.571449110243
 20
654.8465060763888
 30
0.0
 10
343.402294921875
 20
654.8527072482639
 30
0.0
 10
343.3513075086805
 20
654.642556423611
 30
0.0
 10
343.3258138020833
 20
654.4926947699652
 30
0.0
 10
343.1824978298611
 20
654.3173394097222
 30
0.0
 10
343.1218641493055
 20
654.2505045572916
 30
0.0
 10
343.0391818576389
 20
654.1581759982638
 30
0.0
 10
342.943408203125
 20
654.1450846354167
 30
0.0
 10
342.7046630859375
 20
654.1006429036457
 30
0.0
 10
342.7205105251736
 20
654.2663519965278
 30
0.0
 10
342.7522054036458
 20
654.4386067708333
 30
0.0
  0
SPLINE
  5
57
330
A
100
AcDbEntity
  8
LAYER_1
 62
     7
100
AcDbSpline
210
0.0
220
0.0
230
1.0
 70
     8
 71
     3
 72
    17
 73
    13
 74
     0
 42
0.000000001
 43
0.00000001
 40
0.0
 40
0.0
 40
0.0
 40
0.0
 40
1.0
 40
1.0
 40
1.0
 40
2.0
 40
2.0
 40
2.0
 40
3.0
 40
3.0
 40
3.0
 40
4.0
 40
4.0
 40
4.0
 40
4.0
 10
344.6611328124999
 20
665.9293782552082
 30
0.0
 10
344.8809299045138
 20
665.9838107638889
 30
0.0
 10
345.301576063368
 20
666.0823404947917
 30
0.0
 10
345.4579833984375
 20
665.8849365234374
 30
0.0
 10
345.6522867838542
 20
665.6489474826388
 30
0.0
 10
345.5089708116319
 20
665.0880859375
 30
0.0
 10
345.5024251302083
 20
664.7821614583332
 30
0.0
 10
345.5024251302083
 20
664.5337700737847
 30
0.0
 10
345.4386908637152
 20
664.3232747395833
 30
0.0
 10
345.1902994791666
 20
664.2088975694444
 30
0.0
 10
345.0976264105902
 20
664.1703124999999
 30
0.0
 10
344.6004991319444
 20
664.1069227430555
 30
0.0
 10
344.6452853732638
 20
664.2722873263888
 30
0.0
  0
SPLINE
  5
56
330
A
100
AcDbEntity
  8
LAYER_1
 62
     7
100
AcDbSpline
210
0.0
220
0.0
230
1.0
 70
     8
 71
     3
 72
    20
 73
    16
 74
     0
 42
0.000000001
 43
0.00000001
 40
0.0
 40
0.0
 40
0.0
 40
0.0
 40
1.0
 40
1.0
 40
1.0
 40
2.0
 40
2.0
 40
2.0
 40
3.0
 40
3.0
 40
3.0
 40
4.0
 40
4.0
 40
4.0
 40
5.0
 40
5.0
 40
5.0
 40
5.0
 10
346.1749077690972
 20
674.3009602864582
 30
0.0
 10
346.2927300347222
 20
674.0556694878471
 30
0.0
 10
346.7740098741319
 20
673.928200954861
 30
0.0
 10
346.7995035807292
 20
673.6667182074652
 30
0.0
 10
346.8122504340278
 20
673.5072102864583
 30
0.0
 10
346.6337944878472
 20
673.3990342881943
 30
0.0
 10
346.6017550998263
 20
673.246072048611
 30
0.0
 10
346.5445665147569
 20
672.9911349826389
 30
0.0
 10
346.7450710720486
 20
673.0421223958333
 30
0.0
 10
346.8918321397569
 20
672.895361328125
 30
0.0
 10
347.1274766710069
 20
672.6597167968749
 30
0.0
 10
346.9907063802083
 20
671.7164496527777
 30
0.0
 10
346.7230224609374
 20
671.4808051215277
 30
0.0
 10
346.5252739800347
 20
671.3150960286458
 30
0.0
 10
345.9389187282986
 20
671.4043240017361
 30
0.0
 10
345.6743353949652
 20
671.4043240017361
 30
0.0
  0
SPLINE
  5
55
330
A
100
AcDbEntity
  8
LAYER_1
 62
     7
100
AcDbSpline
210
0.0
220
0.0
230
1.0
 70
     8
 71
     3
 72
    11
 73
     7
 74
     0
 42
0.000000001
 43
0.00000001
 40
0.0
 40
0.0
 40
0.0
 40
0.0
 40
1.0
 40
1.0
 40
1.0
 40
2.0
 40
2.0
 40
2.0
 40
2.0
 10
347.1340223524305
 20
677.9431152343749
 30
0.0
 10
347.4750868055555
 20
677.9114203559027
 30
0.0
 10
348.8166069878472
 20
678.0071940104166
 30
0.0
 10
348.507581922743
 20
677.369851345486
 30
0.0
 10
348.3801133897569
 20
677.1018229166666
 30
0.0
 10
347.9880615234375
 20
677.0063937717014
 30
0.0
 10
347.7203776041666
 20
677.1338623046875
 30
0.0
  0
SPLINE
  5
54
330
A
100
AcDbEntity
  8
LAYER_1
 62
     7
100
AcDbSpline
210
0.0
220
0.0
230
1.0
 70
     8
 71
     3
 72
    53
 73
    49
 74
     0
 42
0.000000001
 43
0.00000001
 40
0.0
 40
0.0
 40
0.0
 40
0.0
 40
1.0
 40
1.0
 40
1.0
 40
2.0
 40
2.0
 40
2.0
 40
3.0
 40
3.0
 40
3.0
 40
4.0
 40
4.0
 40
4.0
 40
5.0
 40
5.0
 40
5.0
 40
6.0
 40
6.0
 40
6.0
 40
7.0
 40
7.0
 40
7.0
 40
8.0
 40
8.0
 40
8.0
 40
9.0
 40
9.0
 40
9.0
 40
10.0
 40
10.0
 40
10.0
 40
11.0
 40
11.0
 40
11.0
 40
12.0
 40
12.0
 40
12.0
 40
13.0
 40
13.0
 40
13.0
 40
14.0
 40
14.0
 40
14.0
 40
15.0
 40
15.0
 40
15.0
 40
16.0
 40
16.0
 40
16.0
 40
16.0
 10
339.6485188802083
 20
632.9859971788194
 30
0.0
 10
339.6805582682292
 20
632.9539577907985
 30
0.0
 10
340.18388671875
 20
632.9794514973958
 30
0.0
 10
340.2955078125
 20
632.9983995225693
 30
0.0
 10
340.5438991970486
 20
633.0335394965277
 30
0.0
 10
340.5376980251736
 20
633.2216417100694
 30
0.0
 10
340.594886610243
 20
633.4352376302082
 30
0.0
 10
340.6937608506944
 20
633.7763020833332
 30
0.0
 10
340.8115831163194
 20
634.1077202690972
 30
0.0
 10
340.8656711154513
 20
634.4580864800347
 30
0.0
 10
340.8977105034722
 20
634.6492892795138
 30
0.0
 10
340.9328504774305
 20
634.8752875434027
 30
0.0
 10
340.8339762369791
 20
635.0509874131944
 30
0.0
 10
340.7382025824652
 20
635.229443359375
 30
0.0
 10
340.6841145833333
 20
635.1908582899305
 30
0.0
 10
340.7382025824652
 20
635.4044542100694
 30
0.0
 10
340.7829888237847
 20
635.5608615451388
 30
0.0
 10
340.8277750651042
 20
635.704177517361
 30
0.0
 10
340.7320014105903
 20
635.8602403428819
 30
0.0
 10
340.6172797309027
 20
636.0641899956597
 30
0.0
 10
340.3557969835069
 20
636.0386962890624
 30
0.0
 10
340.1552924262152
 20
636.1086317274305
 30
0.0
 10
340.3878363715277
 20
636.2329996744791
 30
0.0
 10
340.6396728515625
 20
636.2457465277777
 30
0.0
 10
340.7447482638889
 20
636.5134304470486
 30
0.0
 10
340.872216796875
 20
636.8383029513889
 30
0.0
 10
340.9869384765624
 20
637.2369004991319
 30
0.0
 10
341.0186333550347
 20
637.5872667100693
 30
0.0
 10
341.0506727430555
 20
637.8807888454861
 30
0.0
 10
341.0827121310763
 20
638.1929144965277
 30
0.0
 10
341.0634195963542
 20
638.4891927083332
 30
0.0
 10
341.0506727430555
 20
638.6325086805555
 30
0.0
 10
340.935951063368
 20
638.798562282986
 30
0.0
 10
341.0124321831597
 20
638.9260308159721
 30
0.0
 10
341.0858127170139
 20
639.0469536675347
 30
0.0
 10
341.3245578342014
 20
639.136181640625
 30
0.0
 10
341.4299777560764
 20
639.2347113715277
 30
0.0
 10
341.5446994357638
 20
639.3432318793402
 30
0.0
 10
341.678369140625
 20
639.4961941189235
 30
0.0
 10
341.7486490885416
 20
639.6329644097221
 30
0.0
 10
341.8950656467014
 20
639.9133951822917
 30
0.0
 10
341.9684461805555
 20
640.2833984375
 30
0.0
 10
342.0097873263888
 20
640.5955240885417
 30
0.0
 10
342.0352810329861
 20
640.7708794487846
 30
0.0
 10
342.0704210069444
 20
640.9524359809027
 30
0.0
 10
342.076966688368
 20
641.1308919270833
 30
0.0
 10
342.0800672743055
 20
641.2521592881944
 30
0.0
 10
342.0097873263888
 20
641.4240695529513
 30
0.0
 10
342.0352810329861
 20
641.5387912326388
 30
0.0
  0
SPLINE
  5
53
330
A
100
AcDbEntity
  8
LAYER_1
 62
     7
100
AcDbSpline
210
0.0
220
0.0
230
1.0
 70
     8
 71
     3
 72
    23
 73
    19
 74
     0
 42
0.000000001
 43
0.00000001
 40
0.0
 40
0.0
 40
0.0
 40
0.0
 40
1.0
 40
1.0
 40
1.0
 40
2.0
 40
2.0
 40
2.0
 40
3.0
 40
3.0
 40
3.0
 40
4.0
 40
4.0
 40
4.0
 40
5.0
 40
5.0
 40
5.0
 40
6.0
 40
6.0
 40
6.0
 40
6.0
 10
339.782533094618
 20
632.4568305121527
 30
0.0
 10
340.1518473307291
 20
632.0458306206597
 30
0.0
 10
340.253822157118
 20
631.1628526475694
 30
0.0
 10
339.9227484809027
 20
630.6977647569444
 30
0.0
 10
339.6867594401041
 20
630.3697916666666
 30
0.0
 10
339.4063286675347
 20
630.2168294270833
 30
0.0
 10
339.0270236545139
 20
630.1623969184027
 30
0.0
 10
339.0142768012153
 20
629.8692192925347
 30
0.0
 10
339.2023790147569
 20
629.6142822265624
 30
0.0
 10
339.1896321614583
 20
629.3083577473958
 30
0.0
 10
339.1834309895833
 20
629.0723687065972
 30
0.0
 10
339.036669921875
 20
628.7285481770833
 30
0.0
 10
338.8806070963541
 20
628.5624945746528
 30
0.0
 10
338.7307454427083
 20
628.4002305772569
 30
0.0
 10
338.4823540581597
 20
628.3588894314236
 30
0.0
 10
338.3100992838541
 20
628.2314208984375
 30
0.0
 10
338.1540364583333
 20
628.1132541232638
 30
0.0
 10
338.0296685112847
 20
627.9575358072916
 30
0.0
 10
337.8322645399305
 20
627.9065483940972
 30
0.0
  0
SPLINE
  5
52
330
A
100
AcDbEntity
  8
LAYER_1
 62
     7
100
AcDbSpline
210
0.0
220
0.0
230
1.0
 70
     8
 71
     3
 72
    32
 73
    28
 74
     0
 42
0.000000001
 43
0.00000001
 40
0.0
 40
0.0
 40
0.0
 40
0.0
 40
1.0
 40
1.0
 40
1.0
 40
2.0
 40
2.0
 40
2.0
 40
3.0
 40
3.0
 40
3.0
 40
4.0
 40
4.0
 40
4.0
 40
5.0
 40
5.0
 40
5.0
 40
6.0
 40
6.0
 40
6.0
 40
7.0
 40
7.0
 40
7.0
 40
8.0
 40
8.0
 40
8.0
 40
9.0
 40
9.0
 40
9.0
 40
9.0
 10
336.5734266493055
 20
620.5609157986111
 30
0.0
 10
336.8507568359375
 20
620.6215494791666
 30
0.0
 10
337.08330078125
 20
620.6277506510417
 30
0.0
 10
337.3061984592014
 20
620.8034505208333
 30
0.0
 10
337.548388671875
 20
620.9912082248263
 30
0.0
 10
337.5993760850694
 20
621.1631184895833
 30
0.0
 10
337.6345160590278
 20
621.462841796875
 30
0.0
 10
337.7013509114583
 20
622.0109564887152
 30
0.0
 10
337.9435411241319
 20
622.4123101128472
 30
0.0
 10
338.1698838975694
 20
622.903236219618
 30
0.0
 10
338.6287706163194
 20
623.9067925347222
 30
0.0
 10
338.3131998697916
 20
625.0767469618055
 30
0.0
 10
338.5970757378472
 20
626.115443250868
 30
0.0
 10
338.6828586154514
 20
626.4244683159721
 30
0.0
 10
338.7500379774305
 20
626.7462402343749
 30
0.0
 10
338.7848334418402
 20
627.0714572482639
 30
0.0
 10
338.8072265625
 20
627.2371663411458
 30
0.0
 10
338.8454671223958
 20
627.3932291666666
 30
0.0
 10
338.8775065104167
 20
627.5558376736111
 30
0.0
 10
338.9250488281249
 20
627.791482204861
 30
0.0
 10
338.864759657118
 20
628.0402180989582
 30
0.0
 10
338.8613145616319
 20
628.2758626302083
 30
0.0
 10
338.8582139756944
 20
628.3874837239583
 30
0.0
 10
338.8582139756944
 20
628.5115071614583
 30
0.0
 10
338.9030002170139
 20
628.6134819878472
 30
0.0
 10
338.9505425347222
 20
628.7127007378472
 30
0.0
 10
339.0525173611111
 20
628.7857367621527
 30
0.0
 10
339.0845567491319
 20
628.9004584418402
 30
0.0
  0
SPLINE
  5
51
330
A
100
AcDbEntity
  8
LAYER_1
 62
     7
100
AcDbSpline
210
0.0
220
0.0
230
1.0
 70
     8
 71
     3
 72
    35
 73
    31
 74
     0
 42
0.000000001
 43
0.00000001
 40
0.0
 40
0.0
 40
0.0
 40
0.0
 40
1.0
 40
1.0
 40
1.0
 40
2.0
 40
2.0
 40
2.0
 40
3.0
 40
3.0
 40
3.0
 40
4.0
 40
4.0
 40
4.0
 40
5.0
 40
5.0
 40
5.0
 40
6.0
 40
6.0
 40
6.0
 40
7.0
 40
7.0
 40
7.0
 40
8.0
 40
8.0
 40
8.0
 40
9.0
 40
9.0
 40
9.0
 40
10.0
 40
10.0
 40
10.0
 40
10.0
 10
336.7167426215278
 20
620.5960557725693
 30
0.0
 10
337.2807047526042
 20
620.5292209201389
 30
0.0
 10
337.08330078125
 20
619.8281439887152
 30
0.0
 10
336.9971733940972
 20
619.4805338541667
 30
0.0
 10
336.8762505425347
 20
619.0057996961805
 30
0.0
 10
336.8762505425347
 20
618.1231662326388
 30
0.0
 10
336.1751736111111
 20
618.4035970052083
 30
0.0
 10
336.2898952907986
 20
618.3588107638889
 30
0.0
 10
336.5096923828125
 20
618.3240152994791
 30
0.0
 10
336.5892740885416
 20
618.2123942057291
 30
0.0
 10
336.7549831814236
 20
617.9702039930555
 30
0.0
 10
336.3791232638889
 20
617.9385091145833
 30
0.0
 10
336.3694769965277
 20
617.791748046875
 30
0.0
 10
336.3629313151042
 20
617.6963189019096
 30
0.0
 10
336.5734266493055
 20
617.6132921006944
 30
0.0
 10
336.6178683810763
 20
617.5433566623263
 30
0.0
 10
336.6912489149305
 20
617.4158881293403
 30
0.0
 10
336.6657552083333
 20
617.2694715711805
 30
0.0
 10
336.6595540364583
 20
617.1354573567708
 30
0.0
 10
336.6433620876736
 20
616.7785454644097
 30
0.0
 10
336.6244140625
 20
616.4216335720486
 30
0.0
 10
336.5861735026041
 20
616.06162109375
 30
0.0
 10
336.5382866753472
 20
615.6058349609375
 30
0.0
 10
336.4903998480902
 20
615.1596950954861
 30
0.0
 10
336.4108181423611
 20
614.7135552300347
 30
0.0
 10
336.3281358506944
 20
614.2102267795138
 30
0.0
 10
336.2929958767361
 20
613.6555664062499
 30
0.0
 10
336.0411593967013
 20
613.2094265407985
 30
0.0
 10
336.0570068359374
 20
613.2318196614583
 30
0.0
 10
336.0349582248264
 20
613.2380208333333
 30
0.0
 10
336.0315131293402
 20
613.2635145399305
 30
0.0
  0
SPLINE
  5
50
330
A
100
AcDbEntity
  8
LAYER_1
 62
     7
100
AcDbSpline
210
0.0
220
0.0
230
1.0
 70
     8
 71
     3
 72
    59
 73
    55
 74
     0
 42
0.000000001
 43
0.00000001
 40
0.0
 40
0.0
 40
0.0
 40
0.0
 40
1.0
 40
1.0
 40
1.0
 40
2.0
 40
2.0
 40
2.0
 40
3.0
 40
3.0
 40
3.0
 40
4.0
 40
4.0
 40
4.0
 40
5.0
 40
5.0
 40
5.0
 40
6.0
 40
6.0
 40
6.0
 40
7.0
 40
7.0
 40
7.0
 40
8.0
 40
8.0
 40
8.0
 40
9.0
 40
9.0
 40
9.0
 40
10.0
 40
10.0
 40
10.0
 40
11.0
 40
11.0
 40
11.0
 40
12.0
 40
12.0
 40
12.0
 40
13.0
 40
13.0
 40
13.0
 40
14.0
 40
14.0
 40
14.0
 40
15.0
 40
15.0
 40
15.0
 40
16.0
 40
16.0
 40
16.0
 40
17.0
 40
17.0
 40
17.0
 40
18.0
 40
18.0
 40
18.0
 40
18.0
 10
336.0666531032986
 20
613.2828070746527
 30
0.0
 10
336.0825005425347
 20
612.9989312065971
 30
0.0
 10
335.7224880642361
 20
612.5786295572916
 30
0.0
 10
335.4675509982638
 20
612.4828559027777
 30
0.0
 10
335.6556532118055
 20
612.2981987847222
 30
0.0
 10
335.8850965711805
 20
612.342640516493
 30
0.0
 10
336.0253119574652
 20
612.0749565972221
 30
0.0
 10
336.2068684895833
 20
611.7307915581597
 30
0.0
 10
336.1048936631944
 20
611.2880967881944
 30
0.0
 10
336.0666531032986
 20
610.908447265625
 30
0.0
 10
336.0411593967013
 20
610.6920952690972
 30
0.0
 10
335.9901719835069
 20
610.0926486545138
 30
0.0
 10
335.652552625868
 20
610.159828016493
 30
0.0
 10
335.429310438368
 20
610.2042697482639
 30
0.0
 10
335.2605007595486
 20
610.4178656684027
 30
0.0
 10
335.1361328125
 20
610.5963216145833
 30
0.0
 10
335.1044379340278
 20
610.6411078559028
 30
0.0
 10
334.8939425998263
 20
610.965980360243
 30
0.0
 10
334.8749945746528
 20
610.7141438802083
 30
0.0
 10
334.8684488932291
 20
610.6345621744791
 30
0.0
 10
335.1778184678819
 20
610.335183376736
 30
0.0
 10
335.2350070529513
 20
610.2711046006943
 30
0.0
 10
335.2987413194444
 20
610.1946234809027
 30
0.0
 10
335.3783230251736
 20
610.0926486545138
 30
0.0
 10
335.3721218532986
 20
609.990673828125
 30
0.0
 10
335.365576171875
 20
609.9176378038194
 30
0.0
 10
335.2636013454861
 20
609.8315104166666
 30
0.0
 10
335.2828938802083
 20
609.7805230034721
 30
0.0
 10
335.3083875868055
 20
609.7167887369791
 30
0.0
 10
335.5981201171875
 20
609.63720703125
 30
0.0
 10
335.6621988932291
 20
609.5448784722222
 30
0.0
 10
335.8437554253472
 20
609.2899414062499
 30
0.0
 10
335.770374891493
 20
609.0825466579861
 30
0.0
 10
335.7448811848958
 20
608.7959147135416
 30
0.0
 10
335.6969943576389
 20
608.3308268229166
 30
0.0
 10
335.6938937717014
 20
607.8684950086805
 30
0.0
 10
335.5919189453124
 20
607.4158094618055
 30
0.0
 10
335.547132703993
 20
607.2184054904513
 30
0.0
 10
335.4165635850694
 20
607.0144558376736
 30
0.0
 10
335.199867078993
 20
606.9955078124999
 30
0.0
 10
335.1233859592014
 20
606.9889621310763
 30
0.0
 10
335.0503499348958
 20
607.065443250868
 30
0.0
 10
334.9738688151041
 20
607.0144558376736
 30
0.0
 10
334.9035888671875
 20
606.9634684244791
 30
0.0
 10
334.9097900390624
 20
606.8873318142361
 30
0.0
 10
334.9800699869791
 20
606.8391004774305
 30
0.0
 10
335.0565511067708
 20
606.7946587456597
 30
0.0
 10
335.1013373480902
 20
606.8742404513888
 30
0.0
 10
335.1778184678819
 20
606.8680392795138
 30
0.0
 10
335.3497287326389
 20
606.8487467447916
 30
0.0
 10
335.5026909722222
 20
606.6447970920138
 30
0.0
 10
335.4740966796875
 20
606.4728868272568
 30
0.0
 10
335.429310438368
 20
606.2148491753471
 30
0.0
 10
335.1268310546874
 20
606.1604166666666
 30
0.0
 10
334.9163357204861
 20
606.1669623480902
 30
0.0
  0
SPLINE
  5
4F
330
A
100
AcDbEntity
  8
LAYER_1
 62
     7
100
AcDbSpline
210
0.0
220
0.0
230
1.0
 70
     8
 71
     3
 72
    71
 73
    67
 74
     0
 42
0.000000001
 43
0.00000001
 40
0.0
 40
0.0
 40
0.0
 40
0.0
 40
1.0
 40
1.0
 40
1.0
 40
2.0
 40
2.0
 40
2.0
 40
3.0
 40
3.0
 40
3.0
 40
4.0
 40
4.0
 40
4.0
 40
5.0
 40
5.0
 40
5.0
 40
6.0
 40
6.0
 40
6.0
 40
7.0
 40
7.0
 40
7.0
 40
8.0
 40
8.0
 40
8.0
 40
9.0
 40
9.0
 40
9.0
 40
10.0
 40
10.0
 40
10.0
 40
11.0
 40
11.0
 40
11.0
 40
12.0
 40
12.0
 40
12.0
 40
13.0
 40
13.0
 40
13.0
 40
14.0
 40
14.0
 40
14.0
 40
15.0
 40
15.0
 40
15.0
 40
16.0
 40
16.0
 40
16.0
 40
17.0
 40
17.0
 40
17.0
 40
18.0
 40
18.0
 40
18.0
 40
19.0
 40
19.0
 40
19.0
 40
20.0
 40
20.0
 40
20.0
 40
21.0
 40
21.0
 40
21.0
 40
22.0
 40
22.0
 40
22.0
 40
22.0
 10
334.629359266493
 20
605.4720865885416
 30
0.0
 10
335.0503499348958
 20
605.3322157118055
 30
0.0
 10
335.1647271050347
 20
604.9177707248264
 30
0.0
 10
335.1616265190972
 20
604.5033257378471
 30
0.0
 10
335.1585259331597
 20
604.1147189670138
 30
0.0
 10
335.2253607855902
 20
603.6303385416666
 30
0.0
 10
334.970423719618
 20
603.2989203559027
 30
0.0
 10
334.8398546006944
 20
603.1204644097222
 30
0.0
 10
334.6073106553819
 20
603.0215901692708
 30
0.0
 10
334.4192084418402
 20
602.9227159288193
 30
0.0
 10
334.6486518012152
 20
602.8083387586805
 30
0.0
 10
334.7919677734375
 20
602.7253119574652
 30
0.0
 10
334.7761203342014
 20
602.4321343315971
 30
0.0
 10
334.7633734809028
 20
602.2154378255208
 30
0.0
 10
334.7154866536458
 20
602.0207899305555
 30
0.0
 10
334.6135118272569
 20
601.839577907986
 30
0.0
 10
334.559423828125
 20
601.7534505208333
 30
0.0
 10
334.5370307074652
 20
601.6866156684027
 30
0.0
 10
334.4605495876736
 20
601.6163357204861
 30
0.0
 10
334.3968153211805
 20
601.5591471354167
 30
0.0
 10
334.3172336154514
 20
601.5271077473958
 30
0.0
 10
334.2727918836805
 20
601.4537272135416
 30
0.0
 10
334.2152587890625
 20
601.3551974826388
 30
0.0
 10
334.2121582031249
 20
601.1925889756944
 30
0.0
 10
334.1866644965277
 20
601.0778672960068
 30
0.0
 10
334.1387776692708
 20
600.8928656684027
 30
0.0
 10
334.0943359375
 20
600.7877902560763
 30
0.0
 10
333.9668674045138
 20
600.6379286024305
 30
0.0
 10
333.8424994574652
 20
600.5008138020833
 30
0.0
 10
333.5141818576388
 20
600.5139051649305
 30
0.0
 10
333.4824869791667
 20
600.2968641493055
 30
0.0
 10
333.6702446831597
 20
600.2458767361111
 30
0.0
 10
333.8328531901041
 20
600.118408203125
 30
0.0
 10
333.7915120442708
 20
599.8700168185763
 30
0.0
 10
333.7722195095486
 20
599.7552951388889
 30
0.0
 10
333.4249538845486
 20
599.4845106336805
 30
0.0
 10
333.6829915364583
 20
599.5162055121527
 30
0.0
 10
333.8679931640625
 20
599.54169921875
 30
0.0
 10
334.1291314019097
 20
599.7776882595485
 30
0.0
 10
334.2056125217014
 20
599.4300781249999
 30
0.0
 10
334.2280056423611
 20
599.3091552734375
 30
0.0
 10
334.1963107638888
 20
599.1052056206597
 30
0.0
 10
334.1673719618055
 20
598.9808376736111
 30
0.0
 10
334.0815890842014
 20
598.6749131944443
 30
0.0
 10
333.7915120442708
 20
598.3658881293402
 30
0.0
 10
333.4824869791667
 20
598.2639133029513
 30
0.0
 10
333.3260796440972
 20
598.2194715711805
 30
0.0
 10
333.0043077256944
 20
598.270458984375
 30
0.0
 10
332.9374728732639
 20
598.0823567708333
 30
0.0
 10
333.0521945529513
 20
597.9900282118055
 30
0.0
 10
333.2847384982638
 20
598.1395453559027
 30
0.0
 10
333.4314995659722
 20
598.1395453559027
 30
0.0
 10
333.6227023654513
 20
598.1460910373263
 30
0.0
 10
333.7722195095486
 20
598.0854573567708
 30
0.0
 10
333.8042588975694
 20
597.881507703993
 30
0.0
 10
333.8393988715277
 20
597.6903049045138
 30
0.0
 10
333.7467258029513
 20
597.4608615451389
 30
0.0
 10
333.7246771918403
 20
597.2727593315972
 30
0.0
 10
333.7022840711805
 20
597.0912027994791
 30
0.0
 10
333.7563720703125
 20
596.9
 30
0.0
 10
333.7022840711805
 20
596.7153428819444
 30
0.0
 10
333.63544921875
 20
596.4793538411458
 30
0.0
 10
333.4662950303819
 20
596.3997721354166
 30
0.0
 10
333.3422715928819
 20
596.2309624565971
 30
0.0
 10
333.3198784722222
 20
596.2499104817708
 30
0.0
 10
333.294384765625
 20
596.2723036024305
 30
0.0
 10
333.2816379123263
 20
596.2943522135416
 30
0.0
  0
SPLINE
  5
4E
330
A
100
AcDbEntity
  8
LAYER_1
 62
     7
100
AcDbSpline
210
0.0
220
0.0
230
1.0
 70
     8
 71
     3
 72
    20
 73
    16
 74
     0
 42
0.000000001
 43
0.00000001
 40
0.0
 40
0.0
 40
0.0
 40
0.0
 40
1.0
 40
1.0
 40
1.0
 40
2.0
 40
2.0
 40
2.0
 40
3.0
 40
3.0
 40
3.0
 40
4.0
 40
4.0
 40
4.0
 40
5.0
 40
5.0
 40
5.0
 40
5.0
 10
332.8385986328125
 20
595.5839735243055
 30
0.0
 10
333.0521945529513
 20
595.6191134982638
 30
0.0
 10
333.3453721788194
 20
595.6955946180555
 30
0.0
 10
333.5396755642361
 20
595.5967203776041
 30
0.0
 10
333.7308783637152
 20
595.4916449652777
 30
0.0
 10
333.6926378038194
 20
595.3097439236111
 30
0.0
 10
333.6895372178819
 20
595.121986219618
 30
0.0
 10
333.6895372178819
 20
594.8481011284722
 30
0.0
 10
333.7119303385417
 20
594.5545789930555
 30
0.0
 10
333.6829915364583
 20
594.2806939019097
 30
0.0
 10
333.641650390625
 20
593.8820963541666
 30
0.0
 10
333.5141818576388
 20
593.7008843315972
 30
0.0
 10
333.1572699652777
 20
593.5668701171875
 30
0.0
 10
332.9884602864583
 20
593.5062364366319
 30
0.0
 10
332.7652180989583
 20
593.4521484375
 30
0.0
 10
332.6091552734375
 20
593.458349609375
 30
0.0
  0
SPLINE
  5
4D
330
A
100
AcDbEntity
  8
LAYER_1
 62
     7
100
AcDbSpline
210
0.0
220
0.0
230
1.0
 70
     8
 71
     3
 72
    20
 73
    16
 74
     0
 42
0.000000001
 43
0.00000001
 40
0.0
 40
0.0
 40
0.0
 40
0.0
 40
1.0
 40
1.0
 40
1.0
 40
2.0
 40
2.0
 40
2.0
 40
3.0
 40
3.0
 40
3.0
 40
4.0
 40
4.0
 40
4.0
 40
5.0
 40
5.0
 40
5.0
 40
5.0
 10
332.2873833550347
 20
592.6714898003472
 30
0.0
 10
332.5774603949653
 20
592.7255777994791
 30
0.0
 10
332.9502197265625
 20
592.8595920138888
 30
0.0
 10
333.1510687934028
 20
592.5660698784721
 30
0.0
 10
333.3770670572916
 20
592.2380967881944
 30
0.0
 10
333.2179036458333
 20
591.6358940972221
 30
0.0
 10
333.0456488715278
 20
591.3234239366319
 30
0.0
 10
332.9533203125
 20
591.163916015625
 30
0.0
 10
332.8131049262153
 20
590.762562391493
 30
0.0
 10
332.6411946614583
 20
590.6795355902777
 30
0.0
 10
332.3893581814236
 20
590.5617133246527
 30
0.0
 10
332.1823079427083
 20
590.7753092447916
 30
0.0
 10
332.0548394097222
 20
590.9537651909721
 30
0.0
 10
332.0834337022569
 20
590.9854600694443
 30
0.0
 10
332.1216742621527
 20
591.0047526041666
 30
0.0
 10
332.1661159939236
 20
590.9985514322916
 30
0.0
  0
SPLINE
  5
4C
330
A
100
AcDbEntity
  8
LAYER_1
 62
     7
100
AcDbSpline
210
0.0
220
0.0
230
1.0
 70
     8
 71
     3
 72
    20
 73
    16
 74
     0
 42
0.000000001
 43
0.00000001
 40
0.0
 40
0.0
 40
0.0
 40
0.0
 40
1.0
 40
1.0
 40
1.0
 40
2.0
 40
2.0
 40
2.0
 40
3.0
 40
3.0
 40
3.0
 40
4.0
 40
4.0
 40
4.0
 40
5.0
 40
5.0
 40
5.0
 40
5.0
 10
331.9304714626736
 20
589.9884494357639
 30
0.0
 10
332.2587890624999
 20
590.0297905815971
 30
0.0
 10
332.5867621527777
 20
590.010498046875
 30
0.0
 10
332.9119791666666
 20
589.9753580729166
 30
0.0
 10
332.9598659939236
 20
589.6632324218749
 30
0.0
 10
332.9405734592013
 20
589.3414605034721
 30
0.0
 10
332.9884602864583
 20
589.0289903428819
 30
0.0
 10
333.0201551649305
 20
588.8346869574652
 30
0.0
 10
333.1031819661458
 20
588.7041178385416
 30
0.0
 10
333.0012071397569
 20
588.5063693576388
 30
0.0
 10
332.8196506076388
 20
588.1463568793403
 30
0.0
 10
332.2680908203125
 20
588.1367106119791
 30
0.0
 10
331.9080783420139
 20
588.0857231987846
 30
0.0
 10
331.9718126085069
 20
588.0857231987846
 30
0.0
 10
332.0386474609375
 20
588.0857231987846
 30
0.0
 10
332.1058268229166
 20
588.0984700520833
 30
0.0
  0
SPLINE
  5
4B
330
A
100
AcDbEntity
  8
LAYER_1
 62
     7
100
AcDbSpline
210
0.0
220
0.0
230
1.0
 70
     8
 71
     3
 72
    14
 73
    10
 74
     0
 42
0.000000001
 43
0.00000001
 40
0.0
 40
0.0
 40
0.0
 40
0.0
 40
1.0
 40
1.0
 40
1.0
 40
2.0
 40
2.0
 40
2.0
 40
3.0
 40
3.0
 40
3.0
 40
3.0
 10
331.3441162109374
 20
587.2861165364583
 30
0.0
 10
331.5832058376736
 20
587.2699245876736
 30
0.0
 10
331.7933566623263
 20
587.2316840277778
 30
0.0
 10
331.8732828776041
 20
586.9894938151041
 30
0.0
 10
331.9494194878472
 20
586.7535047743055
 30
0.0
 10
331.8953314887153
 20
586.5371527777777
 30
0.0
 10
331.7072292751736
 20
586.3903917100694
 30
0.0
 10
331.4939778645833
 20
586.2246826171875
 30
0.0
 10
331.063685438368
 20
585.9507975260416
 30
0.0
 10
330.7736083984375
 20
585.9253038194444
 30
0.0
  0
SPLINE
  5
4A
330
A
100
AcDbEntity
  8
LAYER_1
 62
     7
100
AcDbSpline
210
0.0
220
0.0
230
1.0
 70
     8
 71
     3
 72
    20
 73
    16
 74
     0
 42
0.000000001
 43
0.00000001
 40
0.0
 40
0.0
 40
0.0
 40
0.0
 40
1.0
 40
1.0
 40
1.0
 40
2.0
 40
2.0
 40
2.0
 40
3.0
 40
3.0
 40
3.0
 40
4.0
 40
4.0
 40
4.0
 40
5.0
 40
5.0
 40
5.0
 40
5.0
 10
331.3248236762153
 20
585.1542914496528
 30
0.0
 10
331.5194715711805
 20
585.1095052083333
 30
0.0
 10
331.7361680772569
 20
585.0902126736111
 30
0.0
 10
331.9111789279514
 20
585.0268229166666
 30
0.0
 10
332.1726616753472
 20
584.9276041666666
 30
0.0
 10
332.0896348741319
 20
584.679212782118
 30
0.0
 10
332.0865342881944
 20
584.4273763020833
 30
0.0
 10
332.0834337022569
 20
583.9815809461805
 30
0.0
 10
332.1023817274305
 20
583.5254503038194
 30
0.0
 10
332.0165988498264
 20
583.0858561197916
 30
0.0
 10
331.9845594618055
 20
582.9108452690972
 30
0.0
 10
331.8891303168402
 20
582.5983751085068
 30
0.0
 10
331.6724338107638
 20
582.5983751085068
 30
0.0
 10
331.5322184244791
 20
582.5983751085068
 30
0.0
 10
331.1849527994792
 20
582.8088704427083
 30
0.0
 10
331.1625596788194
 20
582.9521864149305
 30
0.0
  0
SPLINE
  5
49
330
A
100
AcDbEntity
  8
LAYER_1
 62
     7
100
AcDbSpline
210
0.0
220
0.0
230
1.0
 70
     8
 71
     3
 72
    20
 73
    16
 74
     0
 42
0.000000001
 43
0.00000001
 40
0.0
 40
0.0
 40
0.0
 40
0.0
 40
1.0
 40
1.0
 40
1.0
 40
2.0
 40
2.0
 40
2.0
 40
3.0
 40
3.0
 40
3.0
 40
4.0
 40
4.0
 40
4.0
 40
5.0
 40
5.0
 40
5.0
 40
5.0
 10
331.0509385850694
 20
582.1715277777777
 30
0.0
 10
331.1305202907986
 20
582.0440592447916
 30
0.0
 10
331.4619384765625
 20
582.1839301215277
 30
0.0
 10
331.5928521050347
 20
582.1298421223958
 30
0.0
 10
331.7203206380208
 20
582.0757541232639
 30
0.0
 10
331.7968017578125
 20
581.9355387369791
 30
0.0
 10
331.8381429036458
 20
581.7953233506944
 30
0.0
 10
331.9942057291667
 20
581.2758029513889
 30
0.0
 10
331.9718126085069
 20
580.6990939670138
 30
0.0
 10
331.8477891710069
 20
580.1733723958333
 30
0.0
 10
331.6724338107638
 20
579.4182074652778
 30
0.0
 10
331.1973551432291
 20
577.8754937065971
 30
0.0
 10
330.1204182942708
 20
578.6279025607638
 30
0.0
 10
330.1490125868055
 20
578.6657986111111
 30
0.0
 10
330.1841525607638
 20
578.6850911458333
 30
0.0
 10
330.2285942925347
 20
578.6850911458333
 30
0.0
  0
SPLINE
  5
48
330
A
100
AcDbEntity
  8
LAYER_1
 62
     7
100
AcDbSpline
210
0.0
220
0.0
230
1.0
 70
     8
 71
     3
 72
    32
 73
    28
 74
     0
 42
0.000000001
 43
0.00000001
 40
0.0
 40
0.0
 40
0.0
 40
0.0
 40
1.0
 40
1.0
 40
1.0
 40
2.0
 40
2.0
 40
2.0
 40
3.0
 40
3.0
 40
3.0
 40
4.0
 40
4.0
 40
4.0
 40
5.0
 40
5.0
 40
5.0
 40
6.0
 40
6.0
 40
6.0
 40
7.0
 40
7.0
 40
7.0
 40
8.0
 40
8.0
 40
8.0
 40
9.0
 40
9.0
 40
9.0
 40
9.0
 10
330.4201416015625
 20
577.94921875
 30
0.0
 10
330.6750786675347
 20
578.0859890407986
 30
0.0
 10
331.1718614366319
 20
578.1435221354166
 30
0.0
 10
331.3186225043402
 20
577.8183051215277
 30
0.0
 10
331.4236979166666
 20
577.5761149088542
 30
0.0
 10
331.2517876519097
 20
577.3084309895833
 30
0.0
 10
331.1463677300347
 20
577.101380750868
 30
0.0
 10
331.0319905598958
 20
576.8750379774305
 30
0.0
 10
330.9841037326389
 20
576.6745334201388
 30
0.0
 10
330.9107231987847
 20
576.4223524305555
 30
0.0
 10
330.8566351996528
 20
576.2411404079861
 30
0.0
 10
330.7705078124999
 20
576.0654405381944
 30
0.0
 10
330.7195203993055
 20
575.8745822482639
 30
0.0
 10
330.6685329861111
 20
575.676833767361
 30
0.0
 10
330.6685329861111
 20
575.4666829427083
 30
0.0
 10
330.6399386935764
 20
575.2592881944444
 30
0.0
 10
330.5507107204861
 20
574.5998969184027
 30
0.0
 10
330.5283175998264
 20
573.9370605468749
 30
0.0
 10
330.4614827473958
 20
573.2804253472221
 30
0.0
 10
330.4263427734375
 20
572.8949191623263
 30
0.0
 10
330.3912027994791
 20
572.5287055121527
 30
0.0
 10
330.263734266493
 20
572.165247938368
 30
0.0
 10
330.1173177083333
 20
571.76044921875
 30
0.0
 10
330.028089735243
 20
571.5978407118055
 30
0.0
 10
329.6518853081597
 20
571.3876898871528
 30
0.0
 10
329.6298366970486
 20
571.4738172743055
 30
0.0
 10
329.6422390407986
 20
571.5599446614583
 30
0.0
 10
329.6742784288194
 20
571.6488281249999
 30
0.0
  0
SPLINE
  5
47
330
A
100
AcDbEntity
  8
LAYER_1
 62
     7
100
AcDbSpline
210
0.0
220
0.0
230
1.0
 70
     8
 71
     3
 72
    41
 73
    37
 74
     0
 42
0.000000001
 43
0.00000001
 40
0.0
 40
0.0
 40
0.0
 40
0.0
 40
1.0
 40
1.0
 40
1.0
 40
2.0
 40
2.0
 40
2.0
 40
3.0
 40
3.0
 40
3.0
 40
4.0
 40
4.0
 40
4.0
 40
5.0
 40
5.0
 40
5.0
 40
6.0
 40
6.0
 40
6.0
 40
7.0
 40
7.0
 40
7.0
 40
8.0
 40
8.0
 40
8.0
 40
9.0
 40
9.0
 40
9.0
 40
10.0
 40
10.0
 40
10.0
 40
11.0
 40
11.0
 40
11.0
 40
12.0
 40
12.0
 40
12.0
 40
12.0
 10
342.0383816189236
 20
641.3858289930555
 30
0.0
 10
342.0449273003472
 20
641.8481608072916
 30
0.0
 10
342.3157118055555
 20
641.8829562717013
 30
0.0
 10
342.5103597005208
 20
642.246413845486
 30
0.0
 10
342.7012179904514
 20
642.5967800564235
 30
0.0
 10
342.8224853515625
 20
643.1386935763888
 30
0.0
 10
342.5548014322916
 20
643.4635660807292
 30
0.0
 10
342.4273328993055
 20
643.6230740017361
 30
0.0
 10
342.318812391493
 20
643.7822374131944
 30
0.0
 10
342.542054578993
 20
643.9159071180555
 30
0.0
 10
342.6664225260416
 20
643.9923882378472
 30
0.0
 10
342.8734727647569
 20
643.9544921874999
 30
0.0
 10
342.9785481770833
 20
644.0499213324653
 30
0.0
 10
343.0836235894097
 20
644.1425944010416
 30
0.0
 10
343.0805230034722
 20
644.3048583984374
 30
0.0
 10
343.112562391493
 20
644.4292263454861
 30
0.0
 10
343.1697509765625
 20
644.655224609375
 30
0.0
 10
343.3037651909722
 20
644.8402262369791
 30
0.0
 10
343.3196126302083
 20
645.0727701822916
 30
0.0
 10
343.3354600694444
 20
645.2736192491319
 30
0.0
 10
343.3196126302083
 20
645.5605957031249
 30
0.0
 10
343.2176378038194
 20
645.7452528211805
 30
0.0
 10
343.1508029513889
 20
645.8727213541666
 30
0.0
 10
342.9530544704861
 20
645.9457573784722
 30
0.0
 10
343.1635498046875
 20
646.0797715928819
 30
0.0
 10
343.3165120442708
 20
646.1724446614583
 30
0.0
 10
343.4629286024305
 20
646.1052652994791
 30
0.0
 10
343.5297634548611
 20
646.3378092447916
 30
0.0
 10
343.6224365234374
 20
646.6340874565972
 30
0.0
 10
343.4787760416667
 20
647.1601535373263
 30
0.0
 10
343.1952446831597
 20
647.3065700954861
 30
0.0
 10
342.8383327907986
 20
647.4819254557291
 30
0.0
 10
342.535853407118
 20
647.4471299913193
 30
0.0
 10
342.6757242838542
 20
647.9122178819443
 30
0.0
 10
342.8703721788194
 20
648.5178656684027
 30
0.0
 10
343.0488281249999
 20
649.1645100911458
 30
0.0
 10
342.3987386067708
 20
649.5631076388888
 30
0.0
  0
SPLINE
  5
46
330
A
100
AcDbEntity
  8
LAYER_1
  6
AI9-LType2
 62
     7
100
AcDbSpline
210
0.0
220
0.0
230
1.0
 70
     8
 71
     3
 72
     8
 73
     4
 74
     0
 42
0.000000001
 43
0.00000001
 40
0.0
 40
0.0
 40
0.0
 40
0.0
 40
1.0
 40
1.0
 40
1.0
 40
1.0
 10
418.1295166015624
 20
599.8159288194444
 30
0.0
 10
418.1295166015624
 20
599.8159288194444
 30
0.0
 10
421.3034830729166
 20
592.534375
 30
0.0
 10
427.138441297743
 20
589.1661051432291
 30
0.0
  0
SPLINE
  5
45
330
A
100
AcDbEntity
  8
LAYER_1
  6
AI9-LType2
 62
     7
100
AcDbSpline
210
0.0
220
0.0
230
1.0
 70
     8
 71
     3
 72
    17
 73
    13
 74
     0
 42
0.000000001
 43
0.00000001
 40
0.0
 40
0.0
 40
0.0
 40
0.0
 40
1.0
 40
1.0
 40
1.0
 40
2.0
 40
2.0
 40
2.0
 40
3.0
 40
3.0
 40
3.0
 40
4.0
 40
4.0
 40
4.0
 40
4.0
 10
403.4868272569444
 20
584.491455078125
 30
0.0
 10
403.4868272569444
 20
584.491455078125
 30
0.0
 10
413.0852077907986
 20
585.020277235243
 30
0.0
 10
413.3621934678819
 20
585.020277235243
 30
0.0
 10
413.6395236545138
 20
585.0137315538194
 30
0.0
 10
419.9843560112847
 20
584.5389973958332
 30
0.0
 10
420.8828369140625
 20
584.5293511284722
 30
0.0
 10
421.7785617404513
 20
584.5231499565972
 30
0.0
 10
427.6417697482639
 20
584.1917317708333
 30
0.0
 10
428.056214735243
 20
584.0449707031249
 30
0.0
 10
428.4703152126736
 20
583.9050998263889
 30
0.0
 10
433.9897026909722
 20
583.7838324652777
 30
0.0
 10
433.9897026909722
 20
583.7838324652777
 30
0.0
  0
SPLINE
  5
44
330
A
100
AcDbEntity
  8
LAYER_1
  6
AI9-LType2
 62
     7
100
AcDbSpline
210
0.0
220
0.0
230
1.0
 70
     8
 71
     3
 72
     8
 73
     4
 74
     0
 42
0.000000001
 43
0.00000001
 40
0.0
 40
0.0
 40
0.0
 40
0.0
 40
1.0
 40
1.0
 40
1.0
 40
1.0
 10
440.2484076605903
 20
581.1707275390625
 30
0.0
 10
440.2484076605903
 20
581.1707275390625
 30
0.0
 10
442.3388916015625
 20
576.0399468315971
 30
0.0
 10
442.5331949869791
 20
574.7273654513889
 30
0.0
  0
SPLINE
  5
43
330
A
100
AcDbEntity
  8
LAYER_1
  6
AI9-LType2
 62
     7
100
AcDbSpline
210
0.0
220
0.0
230
1.0
 70
     8
 71
     3
 72
    29
 73
    25
 74
     0
 42
0.000000001
 43
0.00000001
 40
0.0
 40
0.0
 40
0.0
 40
0.0
 40
1.0
 40
1.0
 40
1.0
 40
2.0
 40
2.0
 40
2.0
 40
3.0
 40
3.0
 40
3.0
 40
4.0
 40
4.0
 40
4.0
 40
5.0
 40
5.0
 40
5.0
 40
6.0
 40
6.0
 40
6.0
 40
7.0
 40
7.0
 40
7.0
 40
8.0
 40
8.0
 40
8.0
 40
8.0
 10
381.2855984157986
 20
652.0800944010416
 30
0.0
 10
381.2855984157986
 20
652.0800944010416
 30
0.0
 10
377.8821885850694
 20
649.8369927300347
 30
0.0
 10
377.2958333333333
 20
646.2551269531249
 30
0.0
 10
376.7094780815972
 20
642.6667154947916
 30
0.0
 10
376.3587673611111
 20
635.2163519965277
 30
0.0
 10
376.6202501085069
 20
633.5592610677082
 30
0.0
 10
376.8813883463541
 20
631.8959689670138
 30
0.0
 10
378.2931884765625
 20
628.0850043402777
 30
0.0
 10
380.8267116970486
 20
625.714089626736
 30
0.0
 10
383.3567898220486
 20
623.3459309895833
 30
0.0
 10
386.6485785590277
 20
620.9657145182291
 30
0.0
 10
389.0608344184027
 20
620.8764865451388
 30
0.0
 10
391.4765353732639
 20
620.780712890625
 30
0.0
 10
391.7538655598958
 20
620.6408420138888
 30
0.0
 10
391.9798638237847
 20
622.6417534722221
 30
0.0
 10
392.2031060112847
 20
624.6368082682291
 30
0.0
 10
392.527978515625
 20
629.2604709201388
 30
0.0
 10
392.6681939019097
 20
629.6077365451388
 30
0.0
 10
392.8115098741319
 20
629.95224609375
 30
0.0
 10
393.3279296875
 20
633.8782769097222
 30
0.0
 10
392.8848904079861
 20
637.6795952690971
 30
0.0
 10
392.4356499565972
 20
641.4816026475694
 30
0.0
 10
391.1706108940972
 20
646.1214572482638
 30
0.0
 10
391.1706108940972
 20
646.1214572482638
 30
0.0
  0
SPLINE
  5
42
330
A
100
AcDbEntity
  8
LAYER_1
  6
AI9-LType2
 62
     7
100
AcDbSpline
210
0.0
220
0.0
230
1.0
 70
     8
 71
     3
 72
     8
 73
     4
 74
     0
 42
0.000000001
 43
0.00000001
 40
0.0
 40
0.0
 40
0.0
 40
0.0
 40
1.0
 40
1.0
 40
1.0
 40
1.0
 10
427.4347195095486
 20
641.1436387803819
 30
0.0
 10
427.4347195095486
 20
641.1436387803819
 30
0.0
 10
426.8101236979167
 20
633.9671603732638
 30
0.0
 10
419.3659613715278
 20
627.9000027126735
 30
0.0
  0
SPLINE
  5
41
330
A
100
AcDbEntity
  8
LAYER_1
  6
AI9-LType2
 62
     7
100
AcDbSpline
210
0.0
220
0.0
230
1.0
 70
     8
 71
     3
 72
    17
 73
    13
 74
     0
 42
0.000000001
 43
0.00000001
 40
0.0
 40
0.0
 40
0.0
 40
0.0
 40
1.0
 40
1.0
 40
1.0
 40
2.0
 40
2.0
 40
2.0
 40
3.0
 40
3.0
 40
3.0
 40
4.0
 40
4.0
 40
4.0
 40
4.0
 10
348.8100613064236
 20
677.382253689236
 30
0.0
 10
348.8100613064236
 20
677.382253689236
 30
0.0
 10
352.1531819661458
 20
673.2777669270832
 30
0.0
 10
352.1531819661458
 20
673.2777669270832
 30
0.0
 10
352.1531819661458
 20
673.2777669270832
 30
0.0
 10
353.6476643880208
 20
670.9836778428819
 30
0.0
 10
353.6476643880208
 20
670.9836778428819
 30
0.0
 10
353.6476643880208
 20
670.9836778428819
 30
0.0
 10
354.1764865451389
 20
668.357826063368
 30
0.0
 10
356.7162109375
 20
667.0194064670138
 30
0.0
 10
359.2559353298611
 20
665.6875325520833
 30
0.0
 10
359.9442654079861
 20
665.4005560980902
 30
0.0
 10
359.9442654079861
 20
665.4005560980902
 30
0.0
  0
LINE
  5
40
330
A
100
AcDbEntity
  8
LAYER_1
  6
AI9-LType2
 62
     7
100
AcDbLine
 10
339.387381
 20
600.083613
 30
0.0
 11
338.724544
 21
591.246943
 31
0.0
  0
POLYLINE
  5
3A
330
A
100
AcDbEntity
  8
LAYER_1
  6
AI9-LType1
 62
     7
100
AcDb2dPolyline
 66
     1
 10
0.0
 20
0.0
 30
0.0
  0
VERTEX
  5
3B
330
3A
100
AcDbEntity
  8
LAYER_1
  6
AI9-LType1
 62
     7
100
AcDbVertex
100
AcDb2dVertex
 10
361.575863
 20
664.339467
 30
0.0
  0
VERTEX
  5
3C
330
3A
100
AcDbEntity
  8
LAYER_1
  6
AI9-LType1
 62
     7
100
AcDbVertex
100
AcDb2dVertex
 10
358.762253
 20
642.794184
 30
0.0
  0
VERTEX
  5
3D
330
3A
100
AcDbEntity
  8
LAYER_1
  6
AI9-LType1
 62
     7
100
AcDbVertex
100
AcDb2dVertex
 10
343.631738
 20
644.782693
 30
0.0
  0
SEQEND
  5
3E
330
3A
100
AcDbEntity
  8
LAYER_1
  6
AI9-LType1
 62
     7
  0
SPLINE
  5
39
330
A
100
AcDbEntity
  8
LAYER_1
  6
AI9-LType1
 62
     7
100
AcDbSpline
210
0.0
220
0.0
230
1.0
 70
     8
 71
     3
 72
    35
 73
    31
 74
     0
 42
0.000000001
 43
0.00000001
 40
0.0
 40
0.0
 40
0.0
 40
0.0
 40
1.0
 40
1.0
 40
1.0
 40
2.0
 40
2.0
 40
2.0
 40
3.0
 40
3.0
 40
3.0
 40
4.0
 40
4.0
 40
4.0
 40
5.0
 40
5.0
 40
5.0
 40
6.0
 40
6.0
 40
6.0
 40
7.0
 40
7.0
 40
7.0
 40
8.0
 40
8.0
 40
8.0
 40
9.0
 40
9.0
 40
9.0
 40
10.0
 40
10.0
 40
10.0
 40
10.0
 10
360.3173692491319
 20
665.1363172743055
 30
0.0
 10
360.3173692491319
 20
665.1363172743055
 30
0.0
 10
370.0683675130208
 20
660.7830946180555
 30
0.0
 10
370.9510009765625
 20
659.8877143012152
 30
0.0
 10
371.8339789496528
 20
658.9857883029513
 30
0.0
 10
378.2136067708333
 20
654.1581759982638
 30
0.0
 10
378.2136067708333
 20
654.1581759982638
 30
0.0
 10
378.2136067708333
 20
654.1581759982638
 30
0.0
 10
383.3312961154514
 20
650.866042751736
 30
0.0
 10
383.3312961154514
 20
650.866042751736
 30
0.0
 10
383.3312961154514
 20
650.866042751736
 30
0.0
 10
390.6638373480902
 20
646.089417860243
 30
0.0
 10
390.8550401475694
 20
646.0863172743055
 30
0.0
 10
391.0462429470486
 20
646.0863172743055
 30
0.0
 10
394.7173366970486
 20
644.4643663194444
 30
0.0
 10
395.0294623480902
 20
644.1425944010416
 30
0.0
 10
395.3481336805555
 20
643.8204779730902
 30
0.0
 10
399.2772650824652
 20
635.704177517361
 30
0.0
 10
399.2772650824652
 20
635.704177517361
 30
0.0
 10
399.2772650824652
 20
635.704177517361
 30
0.0
 10
400.975697157118
 20
633.6550347222221
 30
0.0
 10
403.958460828993
 20
633.2471354166667
 30
0.0
 10
406.9446695963541
 20
632.8330349392361
 30
0.0
 10
406.7438205295139
 20
631.6920193142361
 30
0.0
 10
406.7438205295139
 20
631.6920193142361
 30
0.0
 10
406.7438205295139
 20
631.6920193142361
 30
0.0
 10
411.3578369140625
 20
628.7857367621527
 30
0.0
 10
411.3578369140625
 20
628.7857367621527
 30
0.0
 10
411.3578369140625
 20
628.7857367621527
 30
0.0
 10
414.5001085069444
 20
625.1339355468749
 30
0.0
 10
419.4265950520833
 20
627.9444444444443
 30
0.0
  0
LINE
  5
38
330
A
100
AcDbEntity
  8
LAYER_1
  6
AI9-LType1
 62
     7
100
AcDbLine
 10
419.388354
 20
627.441116
 30
0.0
 11
439.566279
 21
614.713555
 31
0.0
  0
MTEXT
  5
36
330
A
100
AcDbEntity
  8
LAYER_1
 62
     7
100
AcDbMText
 10
449.173961
 20
579.407679
 30
0.0
 40
1.643461
 41
0.0
 46
0.0
 71
     1
 72
     2
  1
\W1.00;\fHelvetica|b1|i0;755
  7
STD
 73
     1
 44
1.0
  0
MTEXT
  5
35
330
A
100
AcDbEntity
  8
LAYER_1
 62
     7
100
AcDbMText
 10
444.821083
 20
599.709971
 30
0.0
 40
1.643461
 41
0.0
 46
0.0
 71
     1
 72
     2
  1
\W1.00;\fHelvetica|b1|i0;538
  7
STD
 73
     1
 44
1.0
  0
MTEXT
  5
34
330
A
100
AcDbEntity
  8
LAYER_1
 62
     7
100
AcDbMText
 10
424.518791
 20
611.9752
 30
0.0
 40
1.643461
 41
0.0
 46
0.0
 71
     1
 72
     2
  1
\W1.00;\fHelvetica|b1|i0;1147
  7
STD
 73
     1
 44
1.0
  0
MTEXT
  5
33
330
A
100
AcDbEntity
  8
LAYER_1
 62
     7
100
AcDbMText
 10
417.199341
 20
578.881613
 30
0.0
 40
1.643461
 41
0.0
 46
0.0
 71
     1
 72
     2
  1
\W1.00;\fHelvetica|b1|i0;1109
  7
STD
 73
     1
 44
1.0
  0
MTEXT
  5
32
330
A
100
AcDbEntity
  8
LAYER_1
 62
     7
100
AcDbMText
 10
412.651815
 20
594.044167
 30
0.0
 40
1.643461
 41
0.0
 46
0.0
 71
     1
 72
     2
  1
\W1.00;\fHelvetica|b1|i0;1146
  7
STD
 73
     1
 44
1.0
  0
LINE
  5
31
330
A
100
AcDbEntity
  8
LAYER_1
 62
     7
100
AcDbLine
 10
444.559945
 20
598.796181
 30
0.0
 11
440.340736
 21
599.914459
 31
0.0
  0
MTEXT
  5
30
330
A
100
AcDbEntity
  8
LAYER_1
 62
     7
100
AcDbMText
 10
382.343587
 20
636.547688
 30
0.0
 40
1.643461
 41
0.0
 46
0.0
 71
     1
 72
     2
  1
\W1.00;\fHelvetica|b1|i0;1163
  7
STD
 73
     1
 44
1.0
  0
MTEXT
  5
2F
330
A
100
AcDbEntity
  8
LAYER_1
 62
     7
100
AcDbMText
 10
344.791702
 20
630.330668
 30
0.0
 40
1.643461
 41
0.0
 46
0.0
 71
     1
 72
     2
  1
\W1.00;\fHelvetica|b1|i0;1143
  7
STD
 73
     1
 44
1.0
  0
LINE
  5
2E
330
A
100
AcDbEntity
  8
LAYER_1
 62
     7
100
AcDbLine
 10
344.237386
 20
629.655968
 30
0.0
 11
341.34075
 21
630.481068
 31
0.0
  0
MTEXT
  5
2D
330
A
100
AcDbEntity
  8
LAYER_1
 62
     7
100
AcDbMText
 10
362.047496
 20
631.576415
 30
0.0
 40
1.643461
 41
0.0
 46
0.0
 71
     1
 72
     2
  1
\W1.00;\fHelvetica|b1|i0;1142
  7
STD
 73
     1
 44
1.0
  0
MTEXT
  5
2C
330
A
100
AcDbEntity
  8
LAYER_1
 62
     7
100
AcDbMText
 10
366.881654
 20
589.882147
 30
0.0
 40
1.643461
 41
0.0
 46
0.0
 71
     1
 72
     2
  1
\W1.00;\fHelvetica|b1|i0;1142
  7
STD
 73
     1
 44
1.0
  0
MTEXT
  5
2B
330
A
100
AcDbEntity
  8
LAYER_1
 62
     7
100
AcDbMText
 10
345.285729
 20
657.076323
 30
0.0
 40
1.643461
 41
0.0
 46
0.0
 71
     1
 72
     2
  1
\W1.00;\fHelvetica|b0|i0;As plan XXXIX
  7
STD
 73
     1
 44
1.0
  0
MTEXT
  5
2A
330
A
100
AcDbEntity
  8
LAYER_1
 62
     7
100
AcDbMText
 10
425.81897
 20
627.166004
 30
0.0
 40
1.643461
 41
0.0
 46
0.0
 71
     1
 72
     2
  1
\W1.00;\fHelvetica|b0|i0;As plan XXXIX
  7
STD
 73
     1
 44
1.0
  0
MTEXT
  5
29
330
A
100
AcDbEntity
  8
LAYER_1
 62
     7
100
AcDbMText
 10
382.357982
 20
607.144627
 30
0.0
 40
1.643488
 41
0.0
 46
0.0
 71
     1
 72
     2
  1
\fHelvetica|b0|i0;Baulk
  7
STD
 11
0.9941836309012747
 21
-0.1076982267632944
 31
0.0
 73
     1
 44
1.0
  0
ENDSEC
  0
SECTION
  2
OBJECTS
  0
DICTIONARY
  5
19
330
0
100
AcDbDictionary
281
     1
  3
ACAD_DETAILVIEWSTYLE
350
1AD
  3
ACAD_GROUP
350
1A
  3
ACAD_LAYOUT
350
1E
  3
ACAD_MATERIAL
350
16D
  3
ACAD_MLEADERSTYLE
350
173
  3
ACAD_MLINESTYLE
350
1B
  3
ACAD_PLOTSETTINGS
350
22
  3
ACAD_PLOTSTYLENAME
350
1F
  3
ACAD_SCALELIST
350
132
  3
ACAD_SECTIONVIEWSTYLE
350
1AE
  3
ACAD_TABLESTYLE
350
171
  3
ACAD_VISUALSTYLE
350
154
  3
ACAD_WIPEOUT_VARS
350
23
  3
ACDB_RECOMPOSE_DATA
350
1A9
  3
AcDbVariableDictionary
350
175
  0
DICTIONARY
  5
1AD
102
{ACAD_REACTORS
330
19
102
}
330
19
100
AcDbDictionary
281
     1
  0
DICTIONARY
  5
1A
102
{ACAD_REACTORS
330
19
102
}
330
19
100
AcDbDictionary
281
     1
  0
DICTIONARY
  5
1E
102
{ACAD_REACTORS
330
19
102
}
330
19
100
AcDbDictionary
281
     1
  3
Layout1
350
21
  3
Model
350
20
  0
DICTIONARY
  5
16D
102
{ACAD_REACTORS
330
19
102
}
330
19
100
AcDbDictionary
281
     1
  3
ByBlock
350
16F
  3
ByLayer
350
16E
  3
Global
350
170
  0
DICTIONARY
  5
173
102
{ACAD_REACTORS
330
19
102
}
330
19
100
AcDbDictionary
281
     1
  3
Standard
350
174
  0
DICTIONARY
  5
1B
102
{ACAD_REACTORS
330
19
102
}
330
19
100
AcDbDictionary
281
     1
  3
Standard
350
1C
  0
DICTIONARY
  5
22
102
{ACAD_REACTORS
330
19
102
}
330
19
100
AcDbDictionary
281
     1
  0
ACDBDICTIONARYWDFLT
  5
1F
102
{ACAD_REACTORS
330
19
102
}
330
19
100
AcDbDictionary
281
     1
  3
Normal
350
1D
100
AcDbDictionaryWithDefault
340
1D
  0
DICTIONARY
  5
132
102
{ACAD_REACTORS
330
19
102
}
330
19
100
AcDbDictionary
281
     1
  3
A0
350
133
  3
A1
350
134
  3
A2
350
135
  3
A3
350
136
  3
A4
350
137
  3
A5
350
138
  3
A6
350
139
  3
A7
350
13A
  3
A8
350
13B
  3
A9
350
13C
  3
B0
350
13D
  3
B1
350
13E
  3
B2
350
13F
  3
B3
350
140
  3
B4
350
141
  3
B5
350
142
  3
B6
350
143
  3
B7
350
144
  3
B8
350
145
  3
B9
350
146
  3
C0
350
147
  3
C1
350
148
  3
C2
350
149
  3
C3
350
14A
  3
C4
350
14B
  3
C5
350
14C
  3
C6
350
14D
  3
C7
350
14E
  3
C8
350
14F
  3
C9
350
150
  3
D0
350
151
  3
D1
350
152
  3
D2
350
153
  0
DICTIONARY
  5
1AE
102
{ACAD_REACTORS
330
19
102
}
330
19
100
AcDbDictionary
281
     1
  0
DICTIONARY
  5
171
102
{ACAD_REACTORS
330
19
102
}
330
19
100
AcDbDictionary
281
     1
  3
Standard
350
172
  0
DICTIONARY
  5
154
102
{ACAD_REACTORS
330
19
102
}
330
19
100
AcDbDictionary
281
     1
  3
2dWireframe
350
159
  3
Basic
350
15C
  3
Brighten
350
160
  3
ColorChange
350
164
  3
Conceptual
350
15E
  3
Dim
350
15F
  3
EdgeColorOff
350
167
  3
Facepattern
350
163
  3
Flat
350
155
  3
FlatWithEdges
350
156
  3
Gouraud
350
157
  3
GouraudWithEdges
350
158
  3
Hidden
350
15B
  3
JitterOff
350
165
  3
Linepattern
350
162
  3
OverhangOff
350
166
  3
Realistic
350
15D
  3
Shaded
350
16C
  3
Shaded with edges
350
16B
  3
Shades of Gray
350
168
  3
Sketchy
350
169
  3
Thicken
350
161
  3
Wireframe
350
15A
  3
X-Ray
350
16A
  0
WIPEOUTVARIABLES
  5
23
330
19
100
AcDbWipeoutVariables
 70
     1
  0
XRECORD
  5
1A9
102
{ACAD_REACTORS
330
19
102
}
330
19
100
AcDbXrecord
280
     1
 90
        1
330
172
  0
DICTIONARY
  5
175
102
{ACAD_REACTORS
330
19
102
}
330
19
100
AcDbDictionary
281
     1
  3
CANNOSCALE
350
176
  3
CMLEADERSTYLE
350
1AB
  3
CTABLESTYLE
350
1AA
  3
MSLTSCALE
350
1AC
  0
LAYOUT
  5
21
102
{ACAD_REACTORS
330
1E
102
}
330
1E
100
AcDbPlotSettings
  1

  2

  4

  6

 40
0.0
 41
0.0
 42
0.0
 43
0.0
 44
0.0
 45
0.0
 46
0.0
 47
0.0
 48
0.0
 49
0.0
140
0.0
141
0.0
142
1.0
143
1.0
 70
     0
 72
     0
 73
     0
 74
     0
  7

 75
     0
 76
     0
 77
     2
 78
   300
147
1.0
148
0.0
149
0.0
100
AcDbLayout
  1
Layout1
 70
     0
 71
     0
 10
0.0
 20
0.0
 11
0.0
 21
0.0
 12
0.0
 22
0.0
 32
0.0
 14
0.0
 24
0.0
 34
0.0
 15
0.0
 25
0.0
 35
0.0
146
0.0
 13
0.0
 23
0.0
 33
0.0
 16
0.0
 26
0.0
 36
0.0
 17
0.0
 27
0.0
 37
0.0
 76
     0
330
B
  0
LAYOUT
  5
20
102
{ACAD_REACTORS
330
1E
102
}
330
1E
100
AcDbPlotSettings
  1

  2

  4

  6

 40
0.0
 41
0.0
 42
0.0
 43
0.0
 44
0.0
 45
0.0
 46
0.0
 47
0.0
 48
0.0
 49
0.0
140
0.0
141
0.0
142
1.0
143
1.0
 70
  1024
 72
     0
 73
     0
 74
     0
  7

 75
     0
 76
     0
 77
     2
 78
   300
147
1.0
148
0.0
149
0.0
100
AcDbLayout
  1
Model
 70
     0
 71
     1
 10
0.0
 20
0.0
 11
0.0
 21
0.0
 12
0.0
 22
0.0
 32
0.0
 14
0.0
 24
0.0
 34
0.0
 15
0.0
 25
0.0
 35
0.0
146
0.0
 13
0.0
 23
0.0
 33
0.0
 16
0.0
 26
0.0
 36
0.0
 17
0.0
 27
0.0
 37
0.0
 76
     0
330
A
331
15
  0
MATERIAL
  5
16F
102
{ACAD_REACTORS
330
16D
102
}
330
16D
100
AcDbMaterial
  1
ByBlock
 72
     1
 94
      127
  0
MATERIAL
  5
16E
102
{ACAD_REACTORS
330
16D
102
}
330
16D
100
AcDbMaterial
  1
ByLayer
 72
     1
 94
      127
  0
MATERIAL
  5
170
102
{ACAD_REACTORS
330
16D
102
}
330
16D
100
AcDbMaterial
  1
Global
 72
     1
 94
      127
  0
MLEADERSTYLE
  5
174
102
{ACAD_REACTORS
330
173
102
}
330
173
100
AcDbMLeaderStyle
179
     2
170
     2
171
     1
172
     0
 90
        2
 40
0.0
 41
0.0
173
     1
 91
-1056964608
340
11
 92
       -2
290
     1
 42
0.09
291
     1
 43
0.36
  3
Standard
341
0
 44
0.18
300

342
17
174
     1
178
     6
175
     1
176
     0
 93
-1056964608
 45
0.18
292
     0
297
     0
 46
0.18
343
0
 94
-1056964608
 47
1.0
 49
1.0
140
1.0
293
     1
141
0.0
294
     1
177
     0
142
1.0
295
     0
296
     0
143
0.125
271
     0
272
     9
273
     9
  0
MLINESTYLE
  5
1C
102
{ACAD_REACTORS
330
1B
102
}
330
1B
100
AcDbMlineStyle
  2
Standard
 70
     0
  3

 62
     0
 51
90.0
 52
90.0
 71
     2
 49
0.5
 62
   256
  6
BYLAYER
 49
-0.5
 62
   256
  6
BYLAYER
  0
ACDBPLACEHOLDER
  5
1D
102
{ACAD_REACTORS
330
1F
102
}
330
1F
  0
SCALE
  5
133
102
{ACAD_REACTORS
330
132
102
}
330
132
100
AcDbScale
 70
     0
300
1:1
140
1.0
141
1.0
290
     1
  0
SCALE
  5
134
102
{ACAD_REACTORS
330
132
102
}
330
132
100
AcDbScale
 70
     0
300
1:2
140
1.0
141
2.0
290
     0
  0
SCALE
  5
135
102
{ACAD_REACTORS
330
132
102
}
330
132
100
AcDbScale
 70
     0
300
1:4
140
1.0
141
4.0
290
     0
  0
SCALE
  5
136
102
{ACAD_REACTORS
330
132
102
}
330
132
100
AcDbScale
 70
     0
300
1:5
140
1.0
141
5.0
290
     0
  0
SCALE
  5
137
102
{ACAD_REACTORS
330
132
102
}
330
132
100
AcDbScale
 70
     0
300
1:8
140
1.0
141
8.0
290
     0
  0
SCALE
  5
138
102
{ACAD_REACTORS
330
132
102
}
330
132
100
AcDbScale
 70
     0
300
1:10
140
1.0
141
10.0
290
     0
  0
SCALE
  5
139
102
{ACAD_REACTORS
330
132
102
}
330
132
100
AcDbScale
 70
     0
300
1:16
140
1.0
141
16.0
290
     0
  0
SCALE
  5
13A
102
{ACAD_REACTORS
330
132
102
}
330
132
100
AcDbScale
 70
     0
300
1:20
140
1.0
141
20.0
290
     0
  0
SCALE
  5
13B
102
{ACAD_REACTORS
330
132
102
}
330
132
100
AcDbScale
 70
     0
300
1:30
140
1.0
141
30.0
290
     0
  0
SCALE
  5
13C
102
{ACAD_REACTORS
330
132
102
}
330
132
100
AcDbScale
 70
     0
300
1:40
140
1.0
141
40.0
290
     0
  0
SCALE
  5
13D
102
{ACAD_REACTORS
330
132
102
}
330
132
100
AcDbScale
 70
     0
300
1:50
140
1.0
141
50.0
290
     0
  0
SCALE
  5
13E
102
{ACAD_REACTORS
330
132
102
}
330
132
100
AcDbScale
 70
     0
300
1:100
140
1.0
141
100.0
290
     0
  0
SCALE
  5
13F
102
{ACAD_REACTORS
330
132
102
}
330
132
100
AcDbScale
 70
     0
300
2:1
140
2.0
141
1.0
290
     0
  0
SCALE
  5
140
102
{ACAD_REACTORS
330
132
102
}
330
132
100
AcDbScale
 70
     0
300
4:1
140
4.0
141
1.0
290
     0
  0
SCALE
  5
141
102
{ACAD_REACTORS
330
132
102
}
330
132
100
AcDbScale
 70
     0
300
8:1
140
8.0
141
1.0
290
     0
  0
SCALE
  5
142
102
{ACAD_REACTORS
330
132
102
}
330
132
100
AcDbScale
 70
     0
300
10:1
140
10.0
141
1.0
290
     0
  0
SCALE
  5
143
102
{ACAD_REACTORS
330
132
102
}
330
132
100
AcDbScale
 70
     0
300
100:1
140
100.0
141
1.0
290
     0
  0
SCALE
  5
144
102
{ACAD_REACTORS
330
132
102
}
330
132
100
AcDbScale
 70
     0
300
1/128" = 1'-0"
140
0.0078125
141
12.0
290
     0
  0
SCALE
  5
145
102
{ACAD_REACTORS
330
132
102
}
330
132
100
AcDbScale
 70
     0
300
1/64" = 1'-0"
140
0.015625
141
12.0
290
     0
  0
SCALE
  5
146
102
{ACAD_REACTORS
330
132
102
}
330
132
100
AcDbScale
 70
     0
300
1/32" = 1'-0"
140
0.03125
141
12.0
290
     0
  0
SCALE
  5
147
102
{ACAD_REACTORS
330
132
102
}
330
132
100
AcDbScale
 70
     0
300
1/16" = 1'-0"
140
0.0625
141
12.0
290
     0
  0
SCALE
  5
148
102
{ACAD_REACTORS
330
132
102
}
330
132
100
AcDbScale
 70
     0
300
3/32" = 1'-0"
140
0.09375
141
12.0
290
     0
  0
SCALE
  5
149
102
{ACAD_REACTORS
330
132
102
}
330
132
100
AcDbScale
 70
     0
300
1/8" = 1'-0"
140
0.125
141
12.0
290
     0
  0
SCALE
  5
14A
102
{ACAD_REACTORS
330
132
102
}
330
132
100
AcDbScale
 70
     0
300
3/16" = 1'-0"
140
0.1875
141
12.0
290
     0
  0
SCALE
  5
14B
102
{ACAD_REACTORS
330
132
102
}
330
132
100
AcDbScale
 70
     0
300
1/4" = 1'-0"
140
0.25
141
12.0
290
     0
  0
SCALE
  5
14C
102
{ACAD_REACTORS
330
132
102
}
330
132
100
AcDbScale
 70
     0
300
3/8" = 1'-0"
140
0.375
141
12.0
290
     0
  0
SCALE
  5
14D
102
{ACAD_REACTORS
330
132
102
}
330
132
100
AcDbScale
 70
     0
300
1/2" = 1'-0"
140
0.5
141
12.0
290
     0
  0
SCALE
  5
14E
102
{ACAD_REACTORS
330
132
102
}
330
132
100
AcDbScale
 70
     0
300
3/4" = 1'-0"
140
0.75
141
12.0
290
     0
  0
SCALE
  5
14F
102
{ACAD_REACTORS
330
132
102
}
330
132
100
AcDbScale
 70
     0
300
1" = 1'-0"
140
1.0
141
12.0
290
     0
  0
SCALE
  5
150
102
{ACAD_REACTORS
330
132
102
}
330
132
100
AcDbScale
 70
     0
300
1-1/2" = 1'-0"
140
1.5
141
12.0
290
     0
  0
SCALE
  5
151
102
{ACAD_REACTORS
330
132
102
}
330
132
100
AcDbScale
 70
     0
300
3" = 1'-0"
140
3.0
141
12.0
290
     0
  0
SCALE
  5
152
102
{ACAD_REACTORS
330
132
102
}
330
132
100
AcDbScale
 70
     0
300
6" = 1'-0"
140
6.0
141
12.0
290
     0
  0
SCALE
  5
153
102
{ACAD_REACTORS
330
132
102
}
330
132
100
AcDbScale
 70
     0
300
1'-0" = 1'-0"
140
12.0
141
12.0
290
     0
  0
TABLESTYLE
  5
172
102
{ACAD_REACTORS
330
171
102
}
102
{ACAD_XDICTIONARY
360
1A7
102
}
330
171
100
AcDbTableStyle
  3
Standard
 70
     0
 71
     0
 40
0.06
 41
0.06
280
     0
281
     0
  7
Standard
140
0.18
170
     2
 62
     0
 63
   257
283
     0
 90
        4
 91
        0
  1

274
    -2
284
     1
 64
     0
275
    -2
285
     1
 65
     0
276
    -2
286
     1
 66
     0
277
    -2
287
     1
 67
     0
278
    -2
288
     1
 68
     0
279
    -2
289
     1
 69
     0
  7
Standard
140
0.25
170
     5
 62
     0
 63
   257
283
     0
 90
        4
 91
        0
  1

274
    -2
284
     1
 64
     0
275
    -2
285
     1
 65
     0
276
    -2
286
     1
 66
     0
277
    -2
287
     1
 67
     0
278
    -2
288
     1
 68
     0
279
    -2
289
     1
 69
     0
  7
Standard
140
0.18
170
     5
 62
     0
 63
   257
283
     0
 90
        4
 91
        0
  1

274
    -2
284
     1
 64
     0
275
    -2
285
     1
 65
     0
276
    -2
286
     1
 66
     0
277
    -2
287
     1
 67
     0
278
    -2
288
     1
 68
     0
279
    -2
289
     1
 69
     0
  0
VISUALSTYLE
  5
159
102
{ACAD_REACTORS
330
154
102
}
102
{ACAD_XDICTIONARY
360
17F
102
}
330
154
100
AcDbVisualStyle
  2
2dWireframe
 70
     4
177
     2
291
     0
 71
     0
176
     1
 72
     2
176
     1
 73
     0
176
     1
 90
        0
176
     1
 40
0.6
176
     1
 41
30.0
176
     1
 62
     5
 63
     7
421
 16777215
176
     1
 74
     1
176
     1
 91
        4
176
     1
 64
     7
176
     1
 65
   257
176
     1
 75
     1
176
     1
175
     1
176
     1
 42
1.0
176
     1
 92
        0
176
     1
 66
   257
176
     1
 43
1.0
176
     1
 76
     1
176
     1
 77
     6
176
     1
 78
     2
176
     1
 67
     7
176
     1
 79
     5
176
     1
170
     0
176
     1
171
     0
176
     1
290
     0
176
     1
 93
        1
176
     1
 44
0.0
176
     1
173
     0
176
     1
  0
VISUALSTYLE
  5
15C
102
{ACAD_REACTORS
330
154
102
}
102
{ACAD_XDICTIONARY
360
185
102
}
330
154
100
AcDbVisualStyle
  2
Basic
 70
     7
177
     2
291
     1
 71
     1
176
     1
 72
     0
176
     1
 73
     1
176
     1
 90
        0
176
     1
 40
0.6
176
     1
 41
30.0
176
     1
 62
     5
 63
     7
421
 16777215
176
     1
 74
     0
176
     1
 91
        4
176
     1
 64
     7
176
     1
 65
   257
176
     1
 75
     1
176
     1
175
     1
176
     1
 42
1.0
176
     1
 92
        8
176
     1
 66
     7
176
     1
 43
1.0
176
     1
 76
     1
176
     1
 77
     6
176
     1
 78
     2
176
     1
 67
     7
176
     1
 79
     5
176
     1
170
     0
176
     1
171
     0
176
     1
290
     0
176
     1
 93
        1
176
     1
 44
0.0
176
     1
173
     0
176
     1
  0
VISUALSTYLE
  5
160
102
{ACAD_REACTORS
330
154
102
}
102
{ACAD_XDICTIONARY
360
18D
102
}
330
154
100
AcDbVisualStyle
  2
Brighten
 70
    12
177
     2
291
     1
 71
     2
176
     1
 72
     2
176
     1
 73
     0
176
     1
 90
        0
176
     1
 40
0.6
176
     1
 41
30.0
176
     1
 62
     5
 63
     7
421
 16777215
176
     1
 74
     1
176
     1
 91
        4
176
     1
 64
     7
176
     1
 65
   257
176
     1
 75
     1
176
     1
175
     1
176
     1
 42
1.0
176
     1
 92
        8
176
     1
 66
     7
176
     1
 43
1.0
176
     1
 76
     1
176
     1
 77
     6
176
     1
 78
     2
176
     1
 67
     7
176
     1
 79
     5
176
     1
170
     0
176
     1
171
     0
176
     1
290
     0
176
     1
 93
        1
176
     1
 44
50.0
176
     1
173
     0
176
     1
  0
VISUALSTYLE
  5
164
102
{ACAD_REACTORS
330
154
102
}
102
{ACAD_XDICTIONARY
360
195
102
}
330
154
100
AcDbVisualStyle
  2
ColorChange
 70
    16
177
     2
291
     1
 71
     2
176
     1
 72
     2
176
     1
 73
     3
176
     1
 90
        0
176
     1
 40
0.6
176
     1
 41
30.0
176
     1
 62
     5
 63
     8
421
  8421504
176
     1
 74
     1
176
     1
 91
        4
176
     1
 64
     7
176
     1
 65
   257
176
     1
 75
     1
176
     1
175
     1
176
     1
 42
1.0
176
     1
 92
        8
176
     1
 66
     8
424
  8421504
176
     1
 43
1.0
176
     1
 76
     1
176
     1
 77
     6
176
     1
 78
     2
176
     1
 67
     7
176
     1
 79
     5
176
     1
170
     0
176
     1
171
     0
176
     1
290
     0
176
     1
 93
        1
176
     1
 44
0.0
176
     1
173
     0
176
     1
  0
VISUALSTYLE
  5
15E
102
{ACAD_REACTORS
330
154
102
}
102
{ACAD_XDICTIONARY
360
189
102
}
330
154
100
AcDbVisualStyle
  2
Conceptual
 70
     9
177
     2
291
     0
 71
     3
176
     1
 72
     2
176
     1
 73
     0
176
     1
 90
        0
176
     1
 40
0.6
176
     1
 41
30.0
176
     1
 62
     5
 63
     7
421
 16777215
176
     1
 74
     2
176
     1
 91
        2
176
     1
 64
     7
176
     1
 65
   257
176
     1
 75
     1
176
     1
175
     1
176
     1
 42
179.0
176
     1
 92
        8
176
     1
 66
     7
176
     1
 43
1.0
176
     1
 76
     1
176
     1
 77
     6
176
     1
 78
     2
176
     1
 67
     7
176
     1
 79
     3
176
     1
170
     0
176
     1
171
     0
176
     1
290
     0
176
     1
 93
        1
176
     1
 44
0.0
176
     1
173
     0
176
     1
  0
VISUALSTYLE
  5
15F
102
{ACAD_REACTORS
330
154
102
}
102
{ACAD_XDICTIONARY
360
18B
102
}
330
154
100
AcDbVisualStyle
  2
Dim
 70
    11
177
     2
291
     1
 71
     2
176
     1
 72
     2
176
     1
 73
     0
176
     1
 90
        0
176
     1
 40
0.6
176
     1
 41
30.0
176
     1
 62
     5
 63
     7
421
 16777215
176
     1
 74
     1
176
     1
 91
        4
176
     1
 64
     7
176
     1
 65
   257
176
     1
 75
     1
176
     1
175
     1
176
     1
 42
1.0
176
     1
 92
        8
176
     1
 66
     7
176
     1
 43
1.0
176
     1
 76
     1
176
     1
 77
     6
176
     1
 78
     2
176
     1
 67
     7
176
     1
 79
     5
176
     1
170
     0
176
     1
171
     0
176
     1
290
     0
176
     1
 93
        1
176
     1
 44
-50.0
176
     1
173
     0
176
     1
  0
VISUALSTYLE
  5
167
102
{ACAD_REACTORS
330
154
102
}
102
{ACAD_XDICTIONARY
360
19B
102
}
330
154
100
AcDbVisualStyle
  2
EdgeColorOff
 70
    22
177
     2
291
     1
 71
     2
176
     0
 72
     2
176
     0
 73
     0
176
     0
 90
        0
176
     0
 40
0.6
176
     0
 41
30.0
176
     0
 62
     5
 63
     7
421
 16777215
176
     0
 74
     1
176
     0
 91
        4
176
     0
 64
     7
176
     0
 65
   257
176
     0
 75
     1
176
     0
175
     1
176
     0
 42
1.0
176
     0
 92
        8
176
     2
 66
     7
176
     0
 43
1.0
176
     0
 76
     1
176
     0
 77
     6
176
     0
 78
     2
176
     0
 67
     7
176
     0
 79
     5
176
     0
170
     0
176
     0
171
     0
176
     0
290
     0
176
     0
 93
        1
176
     0
 44
0.0
176
     0
173
     0
176
     0
  0
VISUALSTYLE
  5
163
102
{ACAD_REACTORS
330
154
102
}
102
{ACAD_XDICTIONARY
360
193
102
}
330
154
100
AcDbVisualStyle
  2
Facepattern
 70
    15
177
     2
291
     1
 71
     2
176
     1
 72
     2
176
     1
 73
     0
176
     1
 90
        0
176
     1
 40
0.6
176
     1
 41
30.0
176
     1
 62
     5
 63
     7
421
 16777215
176
     1
 74
     1
176
     1
 91
        4
176
     1
 64
     7
176
     1
 65
   257
176
     1
 75
     1
176
     1
175
     1
176
     1
 42
1.0
176
     1
 92
        8
176
     1
 66
     7
176
     1
 43
1.0
176
     1
 76
     1
176
     1
 77
     6
176
     1
 78
     2
176
     1
 67
     7
176
     1
 79
     5
176
     1
170
     0
176
     1
171
     0
176
     1
290
     0
176
     1
 93
        1
176
     1
 44
0.0
176
     1
173
     0
176
     1
  0
VISUALSTYLE
  5
155
102
{ACAD_REACTORS
330
154
102
}
102
{ACAD_XDICTIONARY
360
177
102
}
330
154
100
AcDbVisualStyle
  2
Flat
 70
     0
177
     2
291
     1
 71
     2
176
     1
 72
     1
176
     1
 73
     1
176
     1
 90
        2
176
     1
 40
0.6
176
     1
 41
30.0
176
     1
 62
     5
 63
     7
421
 16777215
176
     1
 74
     0
176
     1
 91
        0
176
     1
 64
     7
176
     1
 65
   257
176
     1
 75
     1
176
     1
175
     1
176
     1
 42
1.0
176
     1
 92
        8
176
     1
 66
     7
176
     1
 43
1.0
176
     1
 76
     1
176
     1
 77
     6
176
     1
 78
     2
176
     1
 67
     7
176
     1
 79
     5
176
     1
170
     0
176
     1
171
     0
176
     1
290
     0
176
     1
 93
       13
176
     1
 44
0.0
176
     1
173
     0
176
     1
  0
VISUALSTYLE
  5
156
102
{ACAD_REACTORS
330
154
102
}
102
{ACAD_XDICTIONARY
360
179
102
}
330
154
100
AcDbVisualStyle
  2
FlatWithEdges
 70
     1
177
     2
291
     1
 71
     2
176
     1
 72
     1
176
     1
 73
     1
176
     1
 90
        2
176
     1
 40
0.6
176
     1
 41
30.0
176
     1
 62
     5
 63
     7
421
 16777215
176
     1
 74
     1
176
     1
 91
        0
176
     1
 64
     7
176
     1
 65
   257
176
     1
 75
     1
176
     1
175
     1
176
     1
 42
1.0
176
     1
 92
        0
176
     1
 66
   257
176
     1
 43
1.0
176
     1
 76
     1
176
     1
 77
     6
176
     1
 78
     2
176
     1
 67
     7
176
     1
 79
     5
176
     1
170
     0
176
     1
171
     0
176
     1
290
     0
176
     1
 93
       13
176
     1
 44
0.0
176
     1
173
     0
176
     1
  0
VISUALSTYLE
  5
157
102
{ACAD_REACTORS
330
154
102
}
102
{ACAD_XDICTIONARY
360
17B
102
}
330
154
100
AcDbVisualStyle
  2
Gouraud
 70
     2
177
     2
291
     1
 71
     2
176
     1
 72
     2
176
     1
 73
     1
176
     1
 90
        2
176
     1
 40
0.6
176
     1
 41
30.0
176
     1
 62
     5
 63
     7
421
 16777215
176
     1
 74
     0
176
     1
 91
        0
176
     1
 64
     7
176
     1
 65
   257
176
     1
 75
     1
176
     1
175
     1
176
     1
 42
1.0
176
     1
 92
        0
176
     1
 66
     7
176
     1
 43
1.0
176
     1
 76
     1
176
     1
 77
     6
176
     1
 78
     2
176
     1
 67
     7
176
     1
 79
     5
176
     1
170
     0
176
     1
171
     0
176
     1
290
     0
176
     1
 93
       13
176
     1
 44
0.0
176
     1
173
     0
176
     1
  0
VISUALSTYLE
  5
158
102
{ACAD_REACTORS
330
154
102
}
102
{ACAD_XDICTIONARY
360
17D
102
}
330
154
100
AcDbVisualStyle
  2
GouraudWithEdges
 70
     3
177
     2
291
     1
 71
     2
176
     1
 72
     2
176
     1
 73
     1
176
     1
 90
        2
176
     1
 40
0.6
176
     1
 41
30.0
176
     1
 62
     5
 63
     7
421
 16777215
176
     1
 74
     1
176
     1
 91
        0
176
     1
 64
     7
176
     1
 65
   257
176
     1
 75
     1
176
     1
175
     1
176
     1
 42
1.0
176
     1
 92
        0
176
     1
 66
   257
176
     1
 43
1.0
176
     1
 76
     1
176
     1
 77
     6
176
     1
 78
     2
176
     1
 67
     7
176
     1
 79
     5
176
     1
170
     0
176
     1
171
     0
176
     1
290
     0
176
     1
 93
       13
176
     1
 44
0.0
176
     1
173
     0
176
     1
  0
VISUALSTYLE
  5
15B
102
{ACAD_REACTORS
330
154
102
}
102
{ACAD_XDICTIONARY
360
183
102
}
330
154
100
AcDbVisualStyle
  2
Hidden
 70
     6
177
     2
291
     0
 71
     1
176
     1
 72
     2
176
     1
 73
     2
176
     1
 90
        0
176
     1
 40
0.6
176
     1
 41
30.0
176
     1
 62
     5
 63
     7
421
 16777215
176
     1
 74
     2
176
     1
 91
        2
176
     1
 64
     7
176
     1
 65
   257
176
     1
 75
     2
176
     1
175
     1
176
     1
 42
40.0
176
     1
 92
        0
176
     1
 66
   257
176
     1
 43
1.0
176
     1
 76
     1
176
     1
 77
     6
176
     1
 78
     2
176
     1
 67
     7
176
     1
 79
     3
176
     1
170
     0
176
     1
171
     0
176
     1
290
     0
176
     1
 93
        1
176
     1
 44
0.0
176
     1
173
     0
176
     1
  0
VISUALSTYLE
  5
165
102
{ACAD_REACTORS
330
154
102
}
102
{ACAD_XDICTIONARY
360
197
102
}
330
154
100
AcDbVisualStyle
  2
JitterOff
 70
    20
177
     2
291
     1
 71
     2
176
     0
 72
     2
176
     0
 73
     0
176
     0
 90
        0
176
     0
 40
0.6
176
     0
 41
30.0
176
     0
 62
     5
 63
     7
421
 16777215
176
     0
 74
     1
176
     0
 91
        4
176
     0
 64
     7
176
     0
 65
   257
176
     0
 75
     1
176
     0
175
     1
176
     0
 42
1.0
176
     0
 92
       10
176
     2
 66
     7
176
     0
 43
1.0
176
     0
 76
     1
176
     0
 77
     6
176
     0
 78
     2
176
     0
 67
     7
176
     0
 79
     5
176
     0
170
     0
176
     0
171
     0
176
     0
290
     0
176
     0
 93
        1
176
     0
 44
0.0
176
     0
173
     0
176
     0
  0
VISUALSTYLE
  5
162
102
{ACAD_REACTORS
330
154
102
}
102
{ACAD_XDICTIONARY
360
191
102
}
330
154
100
AcDbVisualStyle
  2
Linepattern
 70
    14
177
     2
291
     1
 71
     2
176
     1
 72
     2
176
     1
 73
     0
176
     1
 90
        0
176
     1
 40
0.6
176
     1
 41
30.0
176
     1
 62
     5
 63
     7
421
 16777215
176
     1
 74
     1
176
     1
 91
        4
176
     1
 64
     7
176
     1
 65
   257
176
     1
 75
     7
176
     1
175
     7
176
     1
 42
1.0
176
     1
 92
        8
176
     1
 66
     7
176
     1
 43
1.0
176
     1
 76
     1
176
     1
 77
     6
176
     1
 78
     2
176
     1
 67
     7
176
     1
 79
     5
176
     1
170
     0
176
     1
171
     0
176
     1
290
     0
176
     1
 93
        1
176
     1
 44
0.0
176
     1
173
     0
176
     1
  0
VISUALSTYLE
  5
166
102
{ACAD_REACTORS
330
154
102
}
102
{ACAD_XDICTIONARY
360
199
102
}
330
154
100
AcDbVisualStyle
  2
OverhangOff
 70
    21
177
     2
291
     1
 71
     2
176
     0
 72
     2
176
     0
 73
     0
176
     0
 90
        0
176
     0
 40
0.6
176
     0
 41
30.0
176
     0
 62
     5
 63
     7
421
 16777215
176
     0
 74
     1
176
     0
 91
        4
176
     0
 64
     7
176
     0
 65
   257
176
     0
 75
     1
176
     0
175
     1
176
     0
 42
1.0
176
     0
 92
        9
176
     2
 66
     7
176
     0
 43
1.0
176
     0
 76
     1
176
     0
 77
     6
176
     0
 78
     2
176
     0
 67
     7
176
     0
 79
     5
176
     0
170
     0
176
     0
171
     0
176
     0
290
     0
176
     0
 93
        1
176
     0
 44
0.0
176
     0
173
     0
176
     0
  0
VISUALSTYLE
  5
15D
102
{ACAD_REACTORS
330
154
102
}
102
{ACAD_XDICTIONARY
360
187
102
}
330
154
100
AcDbVisualStyle
  2
Realistic
 70
     8
177
     2
291
     0
 71
     2
176
     1
 72
     3
176
     1
 73
     0
176
     1
 90
        2
176
     1
 40
0.6
176
     1
 41
30.0
176
     1
 62
     5
 63
     7
421
 16777215
176
     1
 74
     0
176
     1
 91
        0
176
     1
 64
     7
176
     1
 65
   257
176
     1
 75
     1
176
     1
175
     1
176
     1
 42
1.0
176
     1
 92
        8
176
     1
 66
   257
176
     1
 43
1.0
176
     1
 76
     1
176
     1
 77
     6
176
     1
 78
     2
176
     1
 67
     7
176
     1
 79
     3
176
     1
170
     0
176
     1
171
     0
176
     1
290
     0
176
     1
 93
       13
176
     1
 44
0.0
176
     1
173
     0
176
     1
  0
VISUALSTYLE
  5
16C
102
{ACAD_REACTORS
330
154
102
}
102
{ACAD_XDICTIONARY
360
1A5
102
}
330
154
100
AcDbVisualStyle
  2
Shaded
 70
    27
177
     2
291
     0
 71
     2
176
     1
 72
     2
176
     1
 73
     1
176
     1
 90
        2
176
     1
 40
0.6
176
     1
 41
30.0
176
     1
 62
     5
 63
     7
421
 16777215
176
     1
 74
     0
176
     1
 91
        4
176
     1
 64
     7
176
     1
 65
   257
176
     1
 75
     1
176
     1
175
     1
176
     1
 42
1.0
176
     1
 92
        8
176
     1
 66
   257
176
     1
 43
1.0
176
     1
 76
     1
176
     1
 77
     6
176
     1
 78
     2
176
     1
 67
     8
425
  7895160
176
     1
 79
     3
176
     1
170
     0
176
     1
171
     0
176
     1
290
     0
176
     1
 93
        5
176
     1
 44
0.0
176
     1
173
     0
176
     1
  0
VISUALSTYLE
  5
16B
102
{ACAD_REACTORS
330
154
102
}
102
{ACAD_XDICTIONARY
360
1A3
102
}
330
154
100
AcDbVisualStyle
  2
Shaded with edges
 70
    26
177
     2
291
     0
 71
     2
176
     1
 72
     2
176
     1
 73
     1
176
     1
 90
        2
176
     1
 40
0.6
176
     1
 41
30.0
176
     1
 62
     5
 63
     7
421
 16777215
176
     1
 74
     1
176
     1
 91
       10
176
     1
 64
     7
176
     1
 65
   257
176
     1
 75
     2
176
     1
175
     1
176
     1
 42
1.0
176
     1
 92
        8
176
     1
 66
   257
176
     1
 43
1.0
176
     1
 76
     1
176
     1
 77
     6
176
     1
 78
     2
176
     1
 67
     7
176
     1
 79
     3
176
     1
170
     0
176
     1
171
     0
176
     1
290
     0
176
     1
 93
        5
176
     1
 44
0.0
176
     1
173
     0
176
     1
  0
VISUALSTYLE
  5
168
102
{ACAD_REACTORS
330
154
102
}
102
{ACAD_XDICTIONARY
360
19D
102
}
330
154
100
AcDbVisualStyle
  2
Shades of Gray
 70
    23
177
     2
291
     0
 71
     2
176
     1
 72
     2
176
     1
 73
     3
176
     1
 90
        0
176
     1
 40
0.6
176
     1
 41
30.0
176
     1
 62
     5
 63
     7
421
 16777215
176
     1
 74
     2
176
     1
 91
        2
176
     1
 64
     7
176
     1
 65
     7
176
     1
 75
     1
176
     1
175
     1
176
     1
 42
40.0
176
     1
 92
        8
176
     1
 66
     7
176
     1
 43
1.0
176
     1
 76
     1
176
     1
 77
     6
176
     1
 78
     2
176
     1
 67
     7
176
     1
 79
     3
176
     1
170
     0
176
     1
171
     0
176
     1
290
     0
176
     1
 93
        1
176
     1
 44
0.0
176
     1
173
     0
176
     1
  0
VISUALSTYLE
  5
169
102
{ACAD_REACTORS
330
154
102
}
102
{ACAD_XDICTIONARY
360
19F
102
}
330
154
100
AcDbVisualStyle
  2
Sketchy
 70
    24
177
     2
291
     0
 71
     1
176
     1
 72
     2
176
     1
 73
     2
176
     1
 90
        0
176
     1
 40
0.6
176
     1
 41
30.0
176
     1
 62
     5
 63
     7
421
 16777215
176
     1
 74
     2
176
     1
 91
        2
176
     1
 64
     7
176
     1
 65
     7
176
     1
 75
     1
176
     1
175
     1
176
     1
 42
40.0
176
     1
 92
       11
176
     1
 66
     7
176
     1
 43
1.0
176
     1
 76
     1
176
     1
 77
     6
176
     1
 78
     2
176
     1
 67
     7
176
     1
 79
     6
176
     1
170
     0
176
     1
171
     0
176
     1
290
     0
176
     1
 93
        1
176
     1
 44
0.0
176
     1
173
     0
176
     1
  0
VISUALSTYLE
  5
161
102
{ACAD_REACTORS
330
154
102
}
102
{ACAD_XDICTIONARY
360
18F
102
}
330
154
100
AcDbVisualStyle
  2
Thicken
 70
    13
177
     2
291
     1
 71
     2
176
     1
 72
     2
176
     1
 73
     0
176
     1
 90
        0
176
     1
 40
0.6
176
     1
 41
30.0
176
     1
 62
     5
 63
     7
421
 16777215
176
     1
 74
     1
176
     1
 91
        4
176
     1
 64
     7
176
     1
 65
   257
176
     1
 75
     1
176
     1
175
     1
176
     1
 42
1.0
176
     1
 92
       12
176
     1
 66
     7
176
     1
 43
1.0
176
     1
 76
     1
176
     1
 77
     6
176
     1
 78
     2
176
     1
 67
     7
176
     1
 79
     5
176
     1
170
     0
176
     1
171
     0
176
     1
290
     0
176
     1
 93
        1
176
     1
 44
0.0
176
     1
173
     0
176
     1
  0
VISUALSTYLE
  5
15A
102
{ACAD_REACTORS
330
154
102
}
102
{ACAD_XDICTIONARY
360
181
102
}
330
154
100
AcDbVisualStyle
  2
Wireframe
 70
     5
177
     2
291
     0
 71
     0
176
     1
 72
     2
176
     1
 73
     0
176
     1
 90
        0
176
     1
 40
0.6
176
     1
 41
30.0
176
     1
 62
     5
 63
     7
421
 16777215
176
     1
 74
     1
176
     1
 91
        4
176
     1
 64
     7
176
     1
 65
   257
176
     1
 75
     1
176
     1
175
     1
176
     1
 42
1.0
176
     1
 92
        0
176
     1
 66
   257
176
     1
 43
1.0
176
     1
 76
     1
176
     1
 77
     6
176
     1
 78
     2
176
     1
 67
     7
176
     1
 79
     3
176
     1
170
     0
176
     1
171
     0
176
     1
290
     0
176
     1
 93
        1
176
     1
 44
0.0
176
     1
173
     0
176
     1
  0
VISUALSTYLE
  5
16A
102
{ACAD_REACTORS
330
154
102
}
102
{ACAD_XDICTIONARY
360
1A1
102
}
330
154
100
AcDbVisualStyle
  2
X-Ray
 70
    25
177
     2
291
     0
 71
     2
176
     1
 72
     2
176
     1
 73
     1
176
     1
 90
        1
176
     1
 40
0.5
176
     1
 41
30.0
176
     1
 62
     5
 63
     7
421
 16777215
176
     1
 74
     1
176
     1
 91
        0
176
     1
 64
     7
176
     1
 65
   257
176
     1
 75
     1
176
     1
175
     1
176
     1
 42
1.0
176
     1
 92
        8
176
     1
 66
     7
176
     1
 43
1.0
176
     1
 76
     1
176
     1
 77
     6
176
     1
 78
     2
176
     1
 67
     7
176
     1
 79
     3
176
     1
170
     0
176
     1
171
     0
176
     1
290
     0
176
     1
 93
       13
176
     1
 44
0.0
176
     1
173
     0
176
     1
  0
DICTIONARYVAR
  5
176
102
{ACAD_REACTORS
330
175
102
}
330
175
100
DictionaryVariables
280
     0
  1
1:1
  0
DICTIONARYVAR
  5
1AB
102
{ACAD_REACTORS
330
175
102
}
330
175
100
DictionaryVariables
280
     0
  1
Standard
  0
DICTIONARYVAR
  5
1AA
102
{ACAD_REACTORS
330
175
102
}
330
175
100
DictionaryVariables
280
     0
  1
Standard
  0
DICTIONARYVAR
  5
1AC
102
{ACAD_REACTORS
330
175
102
}
330
175
100
DictionaryVariables
280
     0
  1
0
  0
DICTIONARY
  5
1A7
330
172
100
AcDbDictionary
280
     1
281
     1
  3
ACAD_ROUNDTRIP_2008_TABLESTYLE_CELLSTYLEMAP
360
1A8
  0
DICTIONARY
  5
17F
330
159
100
AcDbDictionary
280
     1
281
     1
  3
ACAD_XREC_ROUNDTRIP
360
180
  0
DICTIONARY
  5
185
330
15C
100
AcDbDictionary
280
     1
281
     1
  3
ACAD_XREC_ROUNDTRIP
360
186
  0
DICTIONARY
  5
18D
330
160
100
AcDbDictionary
280
     1
281
     1
  3
ACAD_XREC_ROUNDTRIP
360
18E
  0
DICTIONARY
  5
195
330
164
100
AcDbDictionary
280
     1
281
     1
  3
ACAD_XREC_ROUNDTRIP
360
196
  0
DICTIONARY
  5
189
330
15E
100
AcDbDictionary
280
     1
281
     1
  3
ACAD_XREC_ROUNDTRIP
360
18A
  0
DICTIONARY
  5
18B
330
15F
100
AcDbDictionary
280
     1
281
     1
  3
ACAD_XREC_ROUNDTRIP
360
18C
  0
DICTIONARY
  5
19B
330
167
100
AcDbDictionary
280
     1
281
     1
  3
ACAD_XREC_ROUNDTRIP
360
19C
  0
DICTIONARY
  5
193
330
163
100
AcDbDictionary
280
     1
281
     1
  3
ACAD_XREC_ROUNDTRIP
360
194
  0
DICTIONARY
  5
177
330
155
100
AcDbDictionary
280
     1
281
     1
  3
ACAD_XREC_ROUNDTRIP
360
178
  0
DICTIONARY
  5
179
330
156
100
AcDbDictionary
280
     1
281
     1
  3
ACAD_XREC_ROUNDTRIP
360
17A
  0
DICTIONARY
  5
17B
330
157
100
AcDbDictionary
280
     1
281
     1
  3
ACAD_XREC_ROUNDTRIP
360
17C
  0
DICTIONARY
  5
17D
330
158
100
AcDbDictionary
280
     1
281
     1
  3
ACAD_XREC_ROUNDTRIP
360
17E
  0
DICTIONARY
  5
183
330
15B
100
AcDbDictionary
280
     1
281
     1
  3
ACAD_XREC_ROUNDTRIP
360
184
  0
DICTIONARY
  5
197
330
165
100
AcDbDictionary
280
     1
281
     1
  3
ACAD_XREC_ROUNDTRIP
360
198
  0
DICTIONARY
  5
191
330
162
100
AcDbDictionary
280
     1
281
     1
  3
ACAD_XREC_ROUNDTRIP
360
192
  0
DICTIONARY
  5
199
330
166
100
AcDbDictionary
280
     1
281
     1
  3
ACAD_XREC_ROUNDTRIP
360
19A
  0
DICTIONARY
  5
187
330
15D
100
AcDbDictionary
280
     1
281
     1
  3
ACAD_XREC_ROUNDTRIP
360
188
  0
DICTIONARY
  5
1A5
330
16C
100
AcDbDictionary
280
     1
281
     1
  3
ACAD_XREC_ROUNDTRIP
360
1A6
  0
DICTIONARY
  5
1A3
330
16B
100
AcDbDictionary
280
     1
281
     1
  3
ACAD_XREC_ROUNDTRIP
360
1A4
  0
DICTIONARY
  5
19D
330
168
100
AcDbDictionary
280
     1
281
     1
  3
ACAD_XREC_ROUNDTRIP
360
19E
  0
DICTIONARY
  5
19F
330
169
100
AcDbDictionary
280
     1
281
     1
  3
ACAD_XREC_ROUNDTRIP
360
1A0
  0
DICTIONARY
  5
18F
330
161
100
AcDbDictionary
280
     1
281
     1
  3
ACAD_XREC_ROUNDTRIP
360
190
  0
DICTIONARY
  5
181
330
15A
100
AcDbDictionary
280
     1
281
     1
  3
ACAD_XREC_ROUNDTRIP
360
182
  0
DICTIONARY
  5
1A1
330
16A
100
AcDbDictionary
280
     1
281
     1
  3
ACAD_XREC_ROUNDTRIP
360
1A2
  0
CELLSTYLEMAP
  5
1A8
102
{ACAD_REACTORS
330
1A7
102
}
330
1A7
100
AcDbCellStyleMap
 90
        3
300
CELLSTYLE
  1
TABLEFORMAT_BEGIN
 90
        5
170
     1
 91
        0
 92
    32768
 62
   257
 93
        1
300
CONTENTFORMAT
  1
CONTENTFORMAT_BEGIN
 90
        0
 91
        0
 92
        4
 93
        0
300

 40
0.0
140
1.0
 94
        5
 62
     0
340
17
144
0.25
309
CONTENTFORMAT_END
171
     1
301
MARGIN
  1
CELLMARGIN_BEGIN
 40
0.06
 40
0.06
 40
0.06
 40
0.06
 40
0.06
 40
0.06
309
CELLMARGIN_END
 94
        6
 95
        1
302
GRIDFORMAT
  1
GRIDFORMAT_BEGIN
 90
        0
 91
        1
 62
     0
 92
       -2
340
11
 93
        0
 40
0.045
309
GRIDFORMAT_END
 95
        2
302
GRIDFORMAT
  1
GRIDFORMAT_BEGIN
 90
        0
 91
        1
 62
     0
 92
       -2
340
11
 93
        0
 40
0.045
309
GRIDFORMAT_END
 95
        4
302
GRIDFORMAT
  1
GRIDFORMAT_BEGIN
 90
        0
 91
        1
 62
     0
 92
       -2
340
11
 93
        0
 40
0.045
309
GRIDFORMAT_END
 95
        8
302
GRIDFORMAT
  1
GRIDFORMAT_BEGIN
 90
        0
 91
        1
 62
     0
 92
       -2
340
11
 93
        0
 40
0.045
309
GRIDFORMAT_END
 95
       16
302
GRIDFORMAT
  1
GRIDFORMAT_BEGIN
 90
        0
 91
        1
 62
     0
 92
       -2
340
11
 93
        0
 40
0.045
309
GRIDFORMAT_END
 95
       32
302
GRIDFORMAT
  1
GRIDFORMAT_BEGIN
 90
        0
 91
        1
 62
     0
 92
       -2
340
11
 93
        0
 40
0.045
309
GRIDFORMAT_END
309
TABLEFORMAT_END
  1
CELLSTYLE_BEGIN
 90
        1
 91
        1
300
_TITLE
309
CELLSTYLE_END
300
CELLSTYLE
  1
TABLEFORMAT_BEGIN
 90
        5
170
     1
 91
        0
 92
        0
 62
   257
 93
        1
300
CONTENTFORMAT
  1
CONTENTFORMAT_BEGIN
 90
        0
 91
        0
 92
        4
 93
        0
300

 40
0.0
140
1.0
 94
        5
 62
     0
340
17
144
0.18
309
CONTENTFORMAT_END
171
     1
301
MARGIN
  1
CELLMARGIN_BEGIN
 40
0.06
 40
0.06
 40
0.06
 40
0.06
 40
0.06
 40
0.06
309
CELLMARGIN_END
 94
        6
 95
        1
302
GRIDFORMAT
  1
GRIDFORMAT_BEGIN
 90
        0
 91
        1
 62
     0
 92
       -2
340
11
 93
        0
 40
0.045
309
GRIDFORMAT_END
 95
        2
302
GRIDFORMAT
  1
GRIDFORMAT_BEGIN
 90
        0
 91
        1
 62
     0
 92
       -2
340
11
 93
        0
 40
0.045
309
GRIDFORMAT_END
 95
        4
302
GRIDFORMAT
  1
GRIDFORMAT_BEGIN
 90
        0
 91
        1
 62
     0
 92
       -2
340
11
 93
        0
 40
0.045
309
GRIDFORMAT_END
 95
        8
302
GRIDFORMAT
  1
GRIDFORMAT_BEGIN
 90
        0
 91
        1
 62
     0
 92
       -2
340
11
 93
        0
 40
0.045
309
GRIDFORMAT_END
 95
       16
302
GRIDFORMAT
  1
GRIDFORMAT_BEGIN
 90
        0
 91
        1
 62
     0
 92
       -2
340
11
 93
        0
 40
0.045
309
GRIDFORMAT_END
 95
       32
302
GRIDFORMAT
  1
GRIDFORMAT_BEGIN
 90
        0
 91
        1
 62
     0
 92
       -2
340
11
 93
        0
 40
0.045
309
GRIDFORMAT_END
309
TABLEFORMAT_END
  1
CELLSTYLE_BEGIN
 90
        2
 91
        1
300
_HEADER
309
CELLSTYLE_END
300
CELLSTYLE
  1
TABLEFORMAT_BEGIN
 90
        5
170
     1
 91
        0
 92
        0
 62
   257
 93
        1
300
CONTENTFORMAT
  1
CONTENTFORMAT_BEGIN
 90
        0
 91
        0
 92
        4
 93
        0
300

 40
0.0
140
1.0
 94
        2
 62
     0
340
17
144
0.18
309
CONTENTFORMAT_END
171
     1
301
MARGIN
  1
CELLMARGIN_BEGIN
 40
0.06
 40
0.06
 40
0.06
 40
0.06
 40
0.06
 40
0.06
309
CELLMARGIN_END
 94
        6
 95
        1
302
GRIDFORMAT
  1
GRIDFORMAT_BEGIN
 90
        0
 91
        1
 62
     0
 92
       -2
340
11
 93
        0
 40
0.045
309
GRIDFORMAT_END
 95
        2
302
GRIDFORMAT
  1
GRIDFORMAT_BEGIN
 90
        0
 91
        1
 62
     0
 92
       -2
340
11
 93
        0
 40
0.045
309
GRIDFORMAT_END
 95
        4
302
GRIDFORMAT
  1
GRIDFORMAT_BEGIN
 90
        0
 91
        1
 62
     0
 92
       -2
340
11
 93
        0
 40
0.045
309
GRIDFORMAT_END
 95
        8
302
GRIDFORMAT
  1
GRIDFORMAT_BEGIN
 90
        0
 91
        1
 62
     0
 92
       -2
340
11
 93
        0
 40
0.045
309
GRIDFORMAT_END
 95
       16
302
GRIDFORMAT
  1
GRIDFORMAT_BEGIN
 90
        0
 91
        1
 62
     0
 92
       -2
340
11
 93
        0
 40
0.045
309
GRIDFORMAT_END
 95
       32
302
GRIDFORMAT
  1
GRIDFORMAT_BEGIN
 90
        0
 91
        1
 62
     0
 92
       -2
340
11
 93
        0
 40
0.045
309
GRIDFORMAT_END
309
TABLEFORMAT_END
  1
CELLSTYLE_BEGIN
 90
        3
 91
        2
300
_DATA
309
CELLSTYLE_END
  0
XRECORD
  5
180
102
{ACAD_REACTORS
330
17F
102
}
330
17F
100
AcDbXrecord
280
     1
102
RTVSPost2010Prop28
280
     1
102
RTVSPost2010PropOp28
 70
     1
102
RTVSPost2010Prop29
280
     1
102
RTVSPost2010PropOp29
 70
     1
102
RTVSPost2010Prop30
280
     0
102
RTVSPost2010PropOp30
 70
     1
102
RTVSPost2010Prop31
280
     0
102
RTVSPost2010PropOp31
 70
     1
102
RTVSPost2010Prop32
280
     0
102
RTVSPost2010PropOp32
 70
     1
102
RTVSPost2010Prop33
280
     0
102
RTVSPost2010PropOp33
 70
     1
102
RTVSPost2010Prop34
280
     0
102
RTVSPost2010PropOp34
 70
     1
102
RTVSPost2010Prop35
280
     0
102
RTVSPost2010PropOp35
 70
     1
102
RTVSPost2010Prop36
280
     0
102
RTVSPost2010PropOp36
 70
     1
102
RTVSPost2010Prop37
 90
       50
102
RTVSPost2010PropOp37
 70
     1
102
RTVSPost2010Prop38
140
0.0
102
RTVSPost2010PropOp38
 70
     1
102
RTVSPost2010Prop39
140
1.0
102
RTVSPost2010PropOp39
 70
     1
102
RTVSPost2010Prop40
 90
        0
102
RTVSPost2010PropOp40
 70
     1
102
RTVSPost2010Prop41ColorIndex
 90
       18
102
RTVSPost2010Prop41ColorRGB
 90
        0
102
RTVSPost2010PropOp41
 70
     1
102
RTVSPost2010Prop42
 90
       50
102
RTVSPost2010PropOp42
 70
     1
102
RTVSPost2010Prop43
 90
        3
102
RTVSPost2010PropOp43
 70
     1
102
RTVSPost2010Prop44ColorIndex
 90
        5
102
RTVSPost2010Prop44ColorRGB
 90
      255
102
RTVSPost2010PropOp44
 70
     1
102
RTVSPost2010Prop45
280
     0
102
RTVSPost2010PropOp45
 70
     1
102
RTVSPost2010Prop46
 90
       50
102
RTVSPost2010PropOp46
 70
     1
102
RTVSPost2010Prop47
 90
       50
102
RTVSPost2010PropOp47
 70
     1
102
RTVSPost2010Prop48
 90
       50
102
RTVSPost2010PropOp48
 70
     1
102
RTVSPost2010Prop49
280
     0
102
RTVSPost2010PropOp49
 70
     1
102
RTVSPost2010Prop50
 90
       50
102
RTVSPost2010PropOp50
 70
     1
102
RTVSPost2010Prop51ColorIndex
 90
      256
102
RTVSPost2010Prop51ColorRGB
 90
-16777216
102
RTVSPost2010PropOp51
 70
     0
102
RTVSPost2010Prop52
140
1.0
102
RTVSPost2010PropOp52
 70
     0
102
RTVSPost2010Prop53
 90
        2
102
RTVSPost2010PropOp53
 70
     1
102
RTVSPost2010Prop54
  1
strokes_ogs.tif
102
RTVSPost2010PropOp54
 70
     1
102
RTVSPost2010Prop55
280
     0
102
RTVSPost2010PropOp55
 70
     1
102
RTVSPost2010Prop56
140
1.0
102
RTVSPost2010PropOp56
 70
     1
102
RTVSPost2010Prop57
140
1.0
102
RTVSPost2010PropOp57
 70
     1
  0
XRECORD
  5
186
102
{ACAD_REACTORS
330
185
102
}
330
185
100
AcDbXrecord
280
     1
102
RTVSPost2010Prop28
280
     0
102
RTVSPost2010PropOp28
 70
     1
102
RTVSPost2010Prop29
280
     1
102
RTVSPost2010PropOp29
 70
     1
102
RTVSPost2010Prop30
280
     1
102
RTVSPost2010PropOp30
 70
     1
102
RTVSPost2010Prop31
280
     0
102
RTVSPost2010PropOp31
 70
     1
102
RTVSPost2010Prop32
280
     0
102
RTVSPost2010PropOp32
 70
     1
102
RTVSPost2010Prop33
280
     0
102
RTVSPost2010PropOp33
 70
     1
102
RTVSPost2010Prop34
280
     0
102
RTVSPost2010PropOp34
 70
     1
102
RTVSPost2010Prop35
280
     0
102
RTVSPost2010PropOp35
 70
     1
102
RTVSPost2010Prop36
280
     0
102
RTVSPost2010PropOp36
 70
     1
102
RTVSPost2010Prop37
 90
       50
102
RTVSPost2010PropOp37
 70
     1
102
RTVSPost2010Prop38
140
0.0
102
RTVSPost2010PropOp38
 70
     1
102
RTVSPost2010Prop39
140
1.0
102
RTVSPost2010PropOp39
 70
     1
102
RTVSPost2010Prop40
 90
        0
102
RTVSPost2010PropOp40
 70
     1
102
RTVSPost2010Prop41ColorIndex
 90
       18
102
RTVSPost2010Prop41ColorRGB
 90
        0
102
RTVSPost2010PropOp41
 70
     1
102
RTVSPost2010Prop42
 90
       50
102
RTVSPost2010PropOp42
 70
     1
102
RTVSPost2010Prop43
 90
        3
102
RTVSPost2010PropOp43
 70
     1
102
RTVSPost2010Prop44ColorIndex
 90
        5
102
RTVSPost2010Prop44ColorRGB
 90
      255
102
RTVSPost2010PropOp44
 70
     1
102
RTVSPost2010Prop45
280
     0
102
RTVSPost2010PropOp45
 70
     1
102
RTVSPost2010Prop46
 90
       50
102
RTVSPost2010PropOp46
 70
     1
102
RTVSPost2010Prop47
 90
       50
102
RTVSPost2010PropOp47
 70
     1
102
RTVSPost2010Prop48
 90
       50
102
RTVSPost2010PropOp48
 70
     1
102
RTVSPost2010Prop49
280
     0
102
RTVSPost2010PropOp49
 70
     1
102
RTVSPost2010Prop50
 90
       50
102
RTVSPost2010PropOp50
 70
     1
102
RTVSPost2010Prop51ColorIndex
 90
      256
102
RTVSPost2010Prop51ColorRGB
 90
-16777216
102
RTVSPost2010PropOp51
 70
     0
102
RTVSPost2010Prop52
140
1.0
102
RTVSPost2010PropOp52
 70
     0
102
RTVSPost2010Prop53
 90
        2
102
RTVSPost2010PropOp53
 70
     1
102
RTVSPost2010Prop54
  1
strokes_ogs.tif
102
RTVSPost2010PropOp54
 70
     1
102
RTVSPost2010Prop55
280
     0
102
RTVSPost2010PropOp55
 70
     1
102
RTVSPost2010Prop56
140
1.0
102
RTVSPost2010PropOp56
 70
     1
102
RTVSPost2010Prop57
140
1.0
102
RTVSPost2010PropOp57
 70
     1
  0
XRECORD
  5
18E
102
{ACAD_REACTORS
330
18D
102
}
330
18D
100
AcDbXrecord
280
     1
102
RTVSPost2010Prop28
280
     0
102
RTVSPost2010PropOp28
 70
     1
102
RTVSPost2010Prop29
280
     1
102
RTVSPost2010PropOp29
 70
     1
102
RTVSPost2010Prop30
280
     1
102
RTVSPost2010PropOp30
 70
     1
102
RTVSPost2010Prop31
280
     0
102
RTVSPost2010PropOp31
 70
     1
102
RTVSPost2010Prop32
280
     0
102
RTVSPost2010PropOp32
 70
     1
102
RTVSPost2010Prop33
280
     0
102
RTVSPost2010PropOp33
 70
     1
102
RTVSPost2010Prop34
280
     0
102
RTVSPost2010PropOp34
 70
     1
102
RTVSPost2010Prop35
280
     0
102
RTVSPost2010PropOp35
 70
     1
102
RTVSPost2010Prop36
280
     0
102
RTVSPost2010PropOp36
 70
     1
102
RTVSPost2010Prop37
 90
       50
102
RTVSPost2010PropOp37
 70
     1
102
RTVSPost2010Prop38
140
0.0
102
RTVSPost2010PropOp38
 70
     1
102
RTVSPost2010Prop39
140
1.0
102
RTVSPost2010PropOp39
 70
     1
102
RTVSPost2010Prop40
 90
        0
102
RTVSPost2010PropOp40
 70
     1
102
RTVSPost2010Prop41ColorIndex
 90
       18
102
RTVSPost2010Prop41ColorRGB
 90
        0
102
RTVSPost2010PropOp41
 70
     1
102
RTVSPost2010Prop42
 90
       50
102
RTVSPost2010PropOp42
 70
     1
102
RTVSPost2010Prop43
 90
        3
102
RTVSPost2010PropOp43
 70
     1
102
RTVSPost2010Prop44ColorIndex
 90
        5
102
RTVSPost2010Prop44ColorRGB
 90
      255
102
RTVSPost2010PropOp44
 70
     1
102
RTVSPost2010Prop45
280
     0
102
RTVSPost2010PropOp45
 70
     1
102
RTVSPost2010Prop46
 90
       50
102
RTVSPost2010PropOp46
 70
     1
102
RTVSPost2010Prop47
 90
       50
102
RTVSPost2010PropOp47
 70
     1
102
RTVSPost2010Prop48
 90
       50
102
RTVSPost2010PropOp48
 70
     1
102
RTVSPost2010Prop49
280
     0
102
RTVSPost2010PropOp49
 70
     1
102
RTVSPost2010Prop50
 90
       50
102
RTVSPost2010PropOp50
 70
     1
102
RTVSPost2010Prop51ColorIndex
 90
      256
102
RTVSPost2010Prop51ColorRGB
 90
-16777216
102
RTVSPost2010PropOp51
 70
     0
102
RTVSPost2010Prop52
140
1.0
102
RTVSPost2010PropOp52
 70
     0
102
RTVSPost2010Prop53
 90
        2
102
RTVSPost2010PropOp53
 70
     1
102
RTVSPost2010Prop54
  1
strokes_ogs.tif
102
RTVSPost2010PropOp54
 70
     1
102
RTVSPost2010Prop55
280
     0
102
RTVSPost2010PropOp55
 70
     1
102
RTVSPost2010Prop56
140
1.0
102
RTVSPost2010PropOp56
 70
     1
102
RTVSPost2010Prop57
140
1.0
102
RTVSPost2010PropOp57
 70
     1
  0
XRECORD
  5
196
102
{ACAD_REACTORS
330
195
102
}
330
195
100
AcDbXrecord
280
     1
102
RTVSPost2010Prop28
280
     0
102
RTVSPost2010PropOp28
 70
     1
102
RTVSPost2010Prop29
280
     1
102
RTVSPost2010PropOp29
 70
     1
102
RTVSPost2010Prop30
280
     1
102
RTVSPost2010PropOp30
 70
     1
102
RTVSPost2010Prop31
280
     0
102
RTVSPost2010PropOp31
 70
     1
102
RTVSPost2010Prop32
280
     0
102
RTVSPost2010PropOp32
 70
     1
102
RTVSPost2010Prop33
280
     0
102
RTVSPost2010PropOp33
 70
     1
102
RTVSPost2010Prop34
280
     0
102
RTVSPost2010PropOp34
 70
     1
102
RTVSPost2010Prop35
280
     0
102
RTVSPost2010PropOp35
 70
     1
102
RTVSPost2010Prop36
280
     0
102
RTVSPost2010PropOp36
 70
     1
102
RTVSPost2010Prop37
 90
       50
102
RTVSPost2010PropOp37
 70
     1
102
RTVSPost2010Prop38
140
0.0
102
RTVSPost2010PropOp38
 70
     1
102
RTVSPost2010Prop39
140
1.0
102
RTVSPost2010PropOp39
 70
     1
102
RTVSPost2010Prop40
 90
        0
102
RTVSPost2010PropOp40
 70
     1
102
RTVSPost2010Prop41ColorIndex
 90
       18
102
RTVSPost2010Prop41ColorRGB
 90
        0
102
RTVSPost2010PropOp41
 70
     1
102
RTVSPost2010Prop42
 90
       50
102
RTVSPost2010PropOp42
 70
     1
102
RTVSPost2010Prop43
 90
        3
102
RTVSPost2010PropOp43
 70
     1
102
RTVSPost2010Prop44ColorIndex
 90
        5
102
RTVSPost2010Prop44ColorRGB
 90
      255
102
RTVSPost2010PropOp44
 70
     1
102
RTVSPost2010Prop45
280
     0
102
RTVSPost2010PropOp45
 70
     1
102
RTVSPost2010Prop46
 90
       50
102
RTVSPost2010PropOp46
 70
     1
102
RTVSPost2010Prop47
 90
       50
102
RTVSPost2010PropOp47
 70
     1
102
RTVSPost2010Prop48
 90
       50
102
RTVSPost2010PropOp48
 70
     1
102
RTVSPost2010Prop49
280
     0
102
RTVSPost2010PropOp49
 70
     1
102
RTVSPost2010Prop50
 90
       50
102
RTVSPost2010PropOp50
 70
     1
102
RTVSPost2010Prop51ColorIndex
 90
      256
102
RTVSPost2010Prop51ColorRGB
 90
-16777216
102
RTVSPost2010PropOp51
 70
     0
102
RTVSPost2010Prop52
140
1.0
102
RTVSPost2010PropOp52
 70
     0
102
RTVSPost2010Prop53
 90
        2
102
RTVSPost2010PropOp53
 70
     1
102
RTVSPost2010Prop54
  1
strokes_ogs.tif
102
RTVSPost2010PropOp54
 70
     1
102
RTVSPost2010Prop55
280
     0
102
RTVSPost2010PropOp55
 70
     1
102
RTVSPost2010Prop56
140
1.0
102
RTVSPost2010PropOp56
 70
     1
102
RTVSPost2010Prop57
140
1.0
102
RTVSPost2010PropOp57
 70
     1
  0
XRECORD
  5
18A
102
{ACAD_REACTORS
330
189
102
}
330
189
100
AcDbXrecord
280
     1
102
RTVSPost2010Prop28
280
     0
102
RTVSPost2010PropOp28
 70
     1
102
RTVSPost2010Prop29
280
     1
102
RTVSPost2010PropOp29
 70
     1
102
RTVSPost2010Prop30
280
     1
102
RTVSPost2010PropOp30
 70
     1
102
RTVSPost2010Prop31
280
     0
102
RTVSPost2010PropOp31
 70
     1
102
RTVSPost2010Prop32
280
     0
102
RTVSPost2010PropOp32
 70
     1
102
RTVSPost2010Prop33
280
     0
102
RTVSPost2010PropOp33
 70
     1
102
RTVSPost2010Prop34
280
     0
102
RTVSPost2010PropOp34
 70
     1
102
RTVSPost2010Prop35
280
     0
102
RTVSPost2010PropOp35
 70
     1
102
RTVSPost2010Prop36
280
     0
102
RTVSPost2010PropOp36
 70
     1
102
RTVSPost2010Prop37
 90
       50
102
RTVSPost2010PropOp37
 70
     1
102
RTVSPost2010Prop38
140
0.0
102
RTVSPost2010PropOp38
 70
     1
102
RTVSPost2010Prop39
140
1.0
102
RTVSPost2010PropOp39
 70
     1
102
RTVSPost2010Prop40
 90
        0
102
RTVSPost2010PropOp40
 70
     1
102
RTVSPost2010Prop41ColorIndex
 90
       18
102
RTVSPost2010Prop41ColorRGB
 90
        0
102
RTVSPost2010PropOp41
 70
     1
102
RTVSPost2010Prop42
 90
       50
102
RTVSPost2010PropOp42
 70
     1
102
RTVSPost2010Prop43
 90
        3
102
RTVSPost2010PropOp43
 70
     1
102
RTVSPost2010Prop44ColorIndex
 90
        5
102
RTVSPost2010Prop44ColorRGB
 90
      255
102
RTVSPost2010PropOp44
 70
     1
102
RTVSPost2010Prop45
280
     0
102
RTVSPost2010PropOp45
 70
     1
102
RTVSPost2010Prop46
 90
       50
102
RTVSPost2010PropOp46
 70
     1
102
RTVSPost2010Prop47
 90
       50
102
RTVSPost2010PropOp47
 70
     1
102
RTVSPost2010Prop48
 90
       50
102
RTVSPost2010PropOp48
 70
     1
102
RTVSPost2010Prop49
280
     0
102
RTVSPost2010PropOp49
 70
     1
102
RTVSPost2010Prop50
 90
       50
102
RTVSPost2010PropOp50
 70
     1
102
RTVSPost2010Prop51ColorIndex
 90
      256
102
RTVSPost2010Prop51ColorRGB
 90
-16777216
102
RTVSPost2010PropOp51
 70
     0
102
RTVSPost2010Prop52
140
1.0
102
RTVSPost2010PropOp52
 70
     0
102
RTVSPost2010Prop53
 90
        2
102
RTVSPost2010PropOp53
 70
     1
102
RTVSPost2010Prop54
  1
strokes_ogs.tif
102
RTVSPost2010PropOp54
 70
     1
102
RTVSPost2010Prop55
280
     0
102
RTVSPost2010PropOp55
 70
     1
102
RTVSPost2010Prop56
140
1.0
102
RTVSPost2010PropOp56
 70
     1
102
RTVSPost2010Prop57
140
1.0
102
RTVSPost2010PropOp57
 70
     1
  0
XRECORD
  5
18C
102
{ACAD_REACTORS
330
18B
102
}
330
18B
100
AcDbXrecord
280
     1
102
RTVSPost2010Prop28
280
     0
102
RTVSPost2010PropOp28
 70
     1
102
RTVSPost2010Prop29
280
     1
102
RTVSPost2010PropOp29
 70
     1
102
RTVSPost2010Prop30
280
     1
102
RTVSPost2010PropOp30
 70
     1
102
RTVSPost2010Prop31
280
     0
102
RTVSPost2010PropOp31
 70
     1
102
RTVSPost2010Prop32
280
     0
102
RTVSPost2010PropOp32
 70
     1
102
RTVSPost2010Prop33
280
     0
102
RTVSPost2010PropOp33
 70
     1
102
RTVSPost2010Prop34
280
     0
102
RTVSPost2010PropOp34
 70
     1
102
RTVSPost2010Prop35
280
     0
102
RTVSPost2010PropOp35
 70
     1
102
RTVSPost2010Prop36
280
     0
102
RTVSPost2010PropOp36
 70
     1
102
RTVSPost2010Prop37
 90
       50
102
RTVSPost2010PropOp37
 70
     1
102
RTVSPost2010Prop38
140
0.0
102
RTVSPost2010PropOp38
 70
     1
102
RTVSPost2010Prop39
140
1.0
102
RTVSPost2010PropOp39
 70
     1
102
RTVSPost2010Prop40
 90
        0
102
RTVSPost2010PropOp40
 70
     1
102
RTVSPost2010Prop41ColorIndex
 90
       18
102
RTVSPost2010Prop41ColorRGB
 90
        0
102
RTVSPost2010PropOp41
 70
     1
102
RTVSPost2010Prop42
 90
       50
102
RTVSPost2010PropOp42
 70
     1
102
RTVSPost2010Prop43
 90
        3
102
RTVSPost2010PropOp43
 70
     1
102
RTVSPost2010Prop44ColorIndex
 90
        5
102
RTVSPost2010Prop44ColorRGB
 90
      255
102
RTVSPost2010PropOp44
 70
     1
102
RTVSPost2010Prop45
280
     0
102
RTVSPost2010PropOp45
 70
     1
102
RTVSPost2010Prop46
 90
       50
102
RTVSPost2010PropOp46
 70
     1
102
RTVSPost2010Prop47
 90
       50
102
RTVSPost2010PropOp47
 70
     1
102
RTVSPost2010Prop48
 90
       50
102
RTVSPost2010PropOp48
 70
     1
102
RTVSPost2010Prop49
280
     0
102
RTVSPost2010PropOp49
 70
     1
102
RTVSPost2010Prop50
 90
       50
102
RTVSPost2010PropOp50
 70
     1
102
RTVSPost2010Prop51ColorIndex
 90
      256
102
RTVSPost2010Prop51ColorRGB
 90
-16777216
102
RTVSPost2010PropOp51
 70
     0
102
RTVSPost2010Prop52
140
1.0
102
RTVSPost2010PropOp52
 70
     0
102
RTVSPost2010Prop53
 90
        2
102
RTVSPost2010PropOp53
 70
     1
102
RTVSPost2010Prop54
  1
strokes_ogs.tif
102
RTVSPost2010PropOp54
 70
     1
102
RTVSPost2010Prop55
280
     0
102
RTVSPost2010PropOp55
 70
     1
102
RTVSPost2010Prop56
140
1.0
102
RTVSPost2010PropOp56
 70
     1
102
RTVSPost2010Prop57
140
1.0
102
RTVSPost2010PropOp57
 70
     1
  0
XRECORD
  5
19C
102
{ACAD_REACTORS
330
19B
102
}
330
19B
100
AcDbXrecord
280
     1
102
RTVSPost2010Prop28
280
     0
102
RTVSPost2010PropOp28
 70
     0
102
RTVSPost2010Prop29
280
     1
102
RTVSPost2010PropOp29
 70
     0
102
RTVSPost2010Prop30
280
     1
102
RTVSPost2010PropOp30
 70
     0
102
RTVSPost2010Prop31
280
     0
102
RTVSPost2010PropOp31
 70
     0
102
RTVSPost2010Prop32
280
     0
102
RTVSPost2010PropOp32
 70
     0
102
RTVSPost2010Prop33
280
     0
102
RTVSPost2010PropOp33
 70
     0
102
RTVSPost2010Prop34
280
     0
102
RTVSPost2010PropOp34
 70
     0
102
RTVSPost2010Prop35
280
     0
102
RTVSPost2010PropOp35
 70
     0
102
RTVSPost2010Prop36
280
     0
102
RTVSPost2010PropOp36
 70
     0
102
RTVSPost2010Prop37
 90
       50
102
RTVSPost2010PropOp37
 70
     0
102
RTVSPost2010Prop38
140
0.0
102
RTVSPost2010PropOp38
 70
     0
102
RTVSPost2010Prop39
140
1.0
102
RTVSPost2010PropOp39
 70
     0
102
RTVSPost2010Prop40
 90
        0
102
RTVSPost2010PropOp40
 70
     0
102
RTVSPost2010Prop41ColorIndex
 90
       18
102
RTVSPost2010Prop41ColorRGB
 90
        0
102
RTVSPost2010PropOp41
 70
     0
102
RTVSPost2010Prop42
 90
       50
102
RTVSPost2010PropOp42
 70
     0
102
RTVSPost2010Prop43
 90
        3
102
RTVSPost2010PropOp43
 70
     0
102
RTVSPost2010Prop44ColorIndex
 90
        5
102
RTVSPost2010Prop44ColorRGB
 90
      255
102
RTVSPost2010PropOp44
 70
     0
102
RTVSPost2010Prop45
280
     0
102
RTVSPost2010PropOp45
 70
     0
102
RTVSPost2010Prop46
 90
       50
102
RTVSPost2010PropOp46
 70
     0
102
RTVSPost2010Prop47
 90
       50
102
RTVSPost2010PropOp47
 70
     0
102
RTVSPost2010Prop48
 90
       50
102
RTVSPost2010PropOp48
 70
     0
102
RTVSPost2010Prop49
280
     0
102
RTVSPost2010PropOp49
 70
     0
102
RTVSPost2010Prop50
 90
       50
102
RTVSPost2010PropOp50
 70
     0
102
RTVSPost2010Prop51ColorIndex
 90
      256
102
RTVSPost2010Prop51ColorRGB
 90
-16777216
102
RTVSPost2010PropOp51
 70
     0
102
RTVSPost2010Prop52
140
1.0
102
RTVSPost2010PropOp52
 70
     0
102
RTVSPost2010Prop53
 90
        2
102
RTVSPost2010PropOp53
 70
     0
102
RTVSPost2010Prop54
  1
strokes_ogs.tif
102
RTVSPost2010PropOp54
 70
     0
102
RTVSPost2010Prop55
280
     0
102
RTVSPost2010PropOp55
 70
     0
102
RTVSPost2010Prop56
140
1.0
102
RTVSPost2010PropOp56
 70
     0
102
RTVSPost2010Prop57
140
1.0
102
RTVSPost2010PropOp57
 70
     0
  0
XRECORD
  5
194
102
{ACAD_REACTORS
330
193
102
}
330
193
100
AcDbXrecord
280
     1
102
RTVSPost2010Prop28
280
     0
102
RTVSPost2010PropOp28
 70
     1
102
RTVSPost2010Prop29
280
     1
102
RTVSPost2010PropOp29
 70
     1
102
RTVSPost2010Prop30
280
     1
102
RTVSPost2010PropOp30
 70
     1
102
RTVSPost2010Prop31
280
     0
102
RTVSPost2010PropOp31
 70
     1
102
RTVSPost2010Prop32
280
     0
102
RTVSPost2010PropOp32
 70
     1
102
RTVSPost2010Prop33
280
     0
102
RTVSPost2010PropOp33
 70
     1
102
RTVSPost2010Prop34
280
     0
102
RTVSPost2010PropOp34
 70
     1
102
RTVSPost2010Prop35
280
     0
102
RTVSPost2010PropOp35
 70
     1
102
RTVSPost2010Prop36
280
     0
102
RTVSPost2010PropOp36
 70
     1
102
RTVSPost2010Prop37
 90
       50
102
RTVSPost2010PropOp37
 70
     1
102
RTVSPost2010Prop38
140
0.0
102
RTVSPost2010PropOp38
 70
     1
102
RTVSPost2010Prop39
140
1.0
102
RTVSPost2010PropOp39
 70
     1
102
RTVSPost2010Prop40
 90
        0
102
RTVSPost2010PropOp40
 70
     1
102
RTVSPost2010Prop41ColorIndex
 90
       18
102
RTVSPost2010Prop41ColorRGB
 90
        0
102
RTVSPost2010PropOp41
 70
     1
102
RTVSPost2010Prop42
 90
       50
102
RTVSPost2010PropOp42
 70
     1
102
RTVSPost2010Prop43
 90
        3
102
RTVSPost2010PropOp43
 70
     1
102
RTVSPost2010Prop44ColorIndex
 90
        5
102
RTVSPost2010Prop44ColorRGB
 90
      255
102
RTVSPost2010PropOp44
 70
     1
102
RTVSPost2010Prop45
280
     0
102
RTVSPost2010PropOp45
 70
     1
102
RTVSPost2010Prop46
 90
       50
102
RTVSPost2010PropOp46
 70
     1
102
RTVSPost2010Prop47
 90
       50
102
RTVSPost2010PropOp47
 70
     1
102
RTVSPost2010Prop48
 90
       50
102
RTVSPost2010PropOp48
 70
     1
102
RTVSPost2010Prop49
280
     0
102
RTVSPost2010PropOp49
 70
     1
102
RTVSPost2010Prop50
 90
       50
102
RTVSPost2010PropOp50
 70
     1
102
RTVSPost2010Prop51ColorIndex
 90
      256
102
RTVSPost2010Prop51ColorRGB
 90
-16777216
102
RTVSPost2010PropOp51
 70
     0
102
RTVSPost2010Prop52
140
1.0
102
RTVSPost2010PropOp52
 70
     0
102
RTVSPost2010Prop53
 90
        2
102
RTVSPost2010PropOp53
 70
     1
102
RTVSPost2010Prop54
  1
strokes_ogs.tif
102
RTVSPost2010PropOp54
 70
     1
102
RTVSPost2010Prop55
280
     0
102
RTVSPost2010PropOp55
 70
     1
102
RTVSPost2010Prop56
140
1.0
102
RTVSPost2010PropOp56
 70
     1
102
RTVSPost2010Prop57
140
1.0
102
RTVSPost2010PropOp57
 70
     1
  0
XRECORD
  5
178
102
{ACAD_REACTORS
330
177
102
}
330
177
100
AcDbXrecord
280
     1
102
RTVSPost2010Prop28
280
     0
102
RTVSPost2010PropOp28
 70
     1
102
RTVSPost2010Prop29
280
     1
102
RTVSPost2010PropOp29
 70
     1
102
RTVSPost2010Prop30
280
     1
102
RTVSPost2010PropOp30
 70
     1
102
RTVSPost2010Prop31
280
     0
102
RTVSPost2010PropOp31
 70
     1
102
RTVSPost2010Prop32
280
     0
102
RTVSPost2010PropOp32
 70
     1
102
RTVSPost2010Prop33
280
     0
102
RTVSPost2010PropOp33
 70
     1
102
RTVSPost2010Prop34
280
     0
102
RTVSPost2010PropOp34
 70
     1
102
RTVSPost2010Prop35
280
     0
102
RTVSPost2010PropOp35
 70
     1
102
RTVSPost2010Prop36
280
     0
102
RTVSPost2010PropOp36
 70
     1
102
RTVSPost2010Prop37
 90
       50
102
RTVSPost2010PropOp37
 70
     1
102
RTVSPost2010Prop38
140
0.0
102
RTVSPost2010PropOp38
 70
     1
102
RTVSPost2010Prop39
140
1.0
102
RTVSPost2010PropOp39
 70
     1
102
RTVSPost2010Prop40
 90
        0
102
RTVSPost2010PropOp40
 70
     1
102
RTVSPost2010Prop41ColorIndex
 90
       18
102
RTVSPost2010Prop41ColorRGB
 90
        0
102
RTVSPost2010PropOp41
 70
     1
102
RTVSPost2010Prop42
 90
       50
102
RTVSPost2010PropOp42
 70
     1
102
RTVSPost2010Prop43
 90
        3
102
RTVSPost2010PropOp43
 70
     1
102
RTVSPost2010Prop44ColorIndex
 90
        5
102
RTVSPost2010Prop44ColorRGB
 90
      255
102
RTVSPost2010PropOp44
 70
     1
102
RTVSPost2010Prop45
280
     0
102
RTVSPost2010PropOp45
 70
     1
102
RTVSPost2010Prop46
 90
       50
102
RTVSPost2010PropOp46
 70
     1
102
RTVSPost2010Prop47
 90
       50
102
RTVSPost2010PropOp47
 70
     1
102
RTVSPost2010Prop48
 90
       50
102
RTVSPost2010PropOp48
 70
     1
102
RTVSPost2010Prop49
280
     0
102
RTVSPost2010PropOp49
 70
     1
102
RTVSPost2010Prop50
 90
       50
102
RTVSPost2010PropOp50
 70
     1
102
RTVSPost2010Prop51ColorIndex
 90
      256
102
RTVSPost2010Prop51ColorRGB
 90
-16777216
102
RTVSPost2010PropOp51
 70
     0
102
RTVSPost2010Prop52
140
1.0
102
RTVSPost2010PropOp52
 70
     0
102
RTVSPost2010Prop53
 90
        2
102
RTVSPost2010PropOp53
 70
     1
102
RTVSPost2010Prop54
  1
strokes_ogs.tif
102
RTVSPost2010PropOp54
 70
     1
102
RTVSPost2010Prop55
280
     0
102
RTVSPost2010PropOp55
 70
     1
102
RTVSPost2010Prop56
140
1.0
102
RTVSPost2010PropOp56
 70
     1
102
RTVSPost2010Prop57
140
1.0
102
RTVSPost2010PropOp57
 70
     1
  0
XRECORD
  5
17A
102
{ACAD_REACTORS
330
179
102
}
330
179
100
AcDbXrecord
280
     1
102
RTVSPost2010Prop28
280
     0
102
RTVSPost2010PropOp28
 70
     1
102
RTVSPost2010Prop29
280
     1
102
RTVSPost2010PropOp29
 70
     1
102
RTVSPost2010Prop30
280
     1
102
RTVSPost2010PropOp30
 70
     1
102
RTVSPost2010Prop31
280
     0
102
RTVSPost2010PropOp31
 70
     1
102
RTVSPost2010Prop32
280
     0
102
RTVSPost2010PropOp32
 70
     1
102
RTVSPost2010Prop33
280
     0
102
RTVSPost2010PropOp33
 70
     1
102
RTVSPost2010Prop34
280
     0
102
RTVSPost2010PropOp34
 70
     1
102
RTVSPost2010Prop35
280
     0
102
RTVSPost2010PropOp35
 70
     1
102
RTVSPost2010Prop36
280
     0
102
RTVSPost2010PropOp36
 70
     1
102
RTVSPost2010Prop37
 90
       50
102
RTVSPost2010PropOp37
 70
     1
102
RTVSPost2010Prop38
140
0.0
102
RTVSPost2010PropOp38
 70
     1
102
RTVSPost2010Prop39
140
1.0
102
RTVSPost2010PropOp39
 70
     1
102
RTVSPost2010Prop40
 90
        0
102
RTVSPost2010PropOp40
 70
     1
102
RTVSPost2010Prop41ColorIndex
 90
       18
102
RTVSPost2010Prop41ColorRGB
 90
        0
102
RTVSPost2010PropOp41
 70
     1
102
RTVSPost2010Prop42
 90
       50
102
RTVSPost2010PropOp42
 70
     1
102
RTVSPost2010Prop43
 90
        3
102
RTVSPost2010PropOp43
 70
     1
102
RTVSPost2010Prop44ColorIndex
 90
        5
102
RTVSPost2010Prop44ColorRGB
 90
      255
102
RTVSPost2010PropOp44
 70
     1
102
RTVSPost2010Prop45
280
     0
102
RTVSPost2010PropOp45
 70
     1
102
RTVSPost2010Prop46
 90
       50
102
RTVSPost2010PropOp46
 70
     1
102
RTVSPost2010Prop47
 90
       50
102
RTVSPost2010PropOp47
 70
     1
102
RTVSPost2010Prop48
 90
       50
102
RTVSPost2010PropOp48
 70
     1
102
RTVSPost2010Prop49
280
     0
102
RTVSPost2010PropOp49
 70
     1
102
RTVSPost2010Prop50
 90
       50
102
RTVSPost2010PropOp50
 70
     1
102
RTVSPost2010Prop51ColorIndex
 90
      256
102
RTVSPost2010Prop51ColorRGB
 90
-16777216
102
RTVSPost2010PropOp51
 70
     0
102
RTVSPost2010Prop52
140
1.0
102
RTVSPost2010PropOp52
 70
     0
102
RTVSPost2010Prop53
 90
        2
102
RTVSPost2010PropOp53
 70
     1
102
RTVSPost2010Prop54
  1
strokes_ogs.tif
102
RTVSPost2010PropOp54
 70
     1
102
RTVSPost2010Prop55
280
     0
102
RTVSPost2010PropOp55
 70
     1
102
RTVSPost2010Prop56
140
1.0
102
RTVSPost2010PropOp56
 70
     1
102
RTVSPost2010Prop57
140
1.0
102
RTVSPost2010PropOp57
 70
     1
  0
XRECORD
  5
17C
102
{ACAD_REACTORS
330
17B
102
}
330
17B
100
AcDbXrecord
280
     1
102
RTVSPost2010Prop28
280
     0
102
RTVSPost2010PropOp28
 70
     1
102
RTVSPost2010Prop29
280
     1
102
RTVSPost2010PropOp29
 70
     1
102
RTVSPost2010Prop30
280
     1
102
RTVSPost2010PropOp30
 70
     1
102
RTVSPost2010Prop31
280
     0
102
RTVSPost2010PropOp31
 70
     1
102
RTVSPost2010Prop32
280
     0
102
RTVSPost2010PropOp32
 70
     1
102
RTVSPost2010Prop33
280
     0
102
RTVSPost2010PropOp33
 70
     1
102
RTVSPost2010Prop34
280
     0
102
RTVSPost2010PropOp34
 70
     1
102
RTVSPost2010Prop35
280
     0
102
RTVSPost2010PropOp35
 70
     1
102
RTVSPost2010Prop36
280
     0
102
RTVSPost2010PropOp36
 70
     1
102
RTVSPost2010Prop37
 90
       50
102
RTVSPost2010PropOp37
 70
     1
102
RTVSPost2010Prop38
140
0.0
102
RTVSPost2010PropOp38
 70
     1
102
RTVSPost2010Prop39
140
1.0
102
RTVSPost2010PropOp39
 70
     1
102
RTVSPost2010Prop40
 90
        0
102
RTVSPost2010PropOp40
 70
     1
102
RTVSPost2010Prop41ColorIndex
 90
       18
102
RTVSPost2010Prop41ColorRGB
 90
        0
102
RTVSPost2010PropOp41
 70
     1
102
RTVSPost2010Prop42
 90
       50
102
RTVSPost2010PropOp42
 70
     1
102
RTVSPost2010Prop43
 90
        3
102
RTVSPost2010PropOp43
 70
     1
102
RTVSPost2010Prop44ColorIndex
 90
        5
102
RTVSPost2010Prop44ColorRGB
 90
      255
102
RTVSPost2010PropOp44
 70
     1
102
RTVSPost2010Prop45
280
     0
102
RTVSPost2010PropOp45
 70
     1
102
RTVSPost2010Prop46
 90
       50
102
RTVSPost2010PropOp46
 70
     1
102
RTVSPost2010Prop47
 90
       50
102
RTVSPost2010PropOp47
 70
     1
102
RTVSPost2010Prop48
 90
       50
102
RTVSPost2010PropOp48
 70
     1
102
RTVSPost2010Prop49
280
     0
102
RTVSPost2010PropOp49
 70
     1
102
RTVSPost2010Prop50
 90
       50
102
RTVSPost2010PropOp50
 70
     1
102
RTVSPost2010Prop51ColorIndex
 90
      256
102
RTVSPost2010Prop51ColorRGB
 90
-16777216
102
RTVSPost2010PropOp51
 70
     0
102
RTVSPost2010Prop52
140
1.0
102
RTVSPost2010PropOp52
 70
     0
102
RTVSPost2010Prop53
 90
        2
102
RTVSPost2010PropOp53
 70
     1
102
RTVSPost2010Prop54
  1
strokes_ogs.tif
102
RTVSPost2010PropOp54
 70
     1
102
RTVSPost2010Prop55
280
     0
102
RTVSPost2010PropOp55
 70
     1
102
RTVSPost2010Prop56
140
1.0
102
RTVSPost2010PropOp56
 70
     1
102
RTVSPost2010Prop57
140
1.0
102
RTVSPost2010PropOp57
 70
     1
  0
XRECORD
  5
17E
102
{ACAD_REACTORS
330
17D
102
}
330
17D
100
AcDbXrecord
280
     1
102
RTVSPost2010Prop28
280
     0
102
RTVSPost2010PropOp28
 70
     1
102
RTVSPost2010Prop29
280
     1
102
RTVSPost2010PropOp29
 70
     1
102
RTVSPost2010Prop30
280
     1
102
RTVSPost2010PropOp30
 70
     1
102
RTVSPost2010Prop31
280
     0
102
RTVSPost2010PropOp31
 70
     1
102
RTVSPost2010Prop32
280
     0
102
RTVSPost2010PropOp32
 70
     1
102
RTVSPost2010Prop33
280
     0
102
RTVSPost2010PropOp33
 70
     1
102
RTVSPost2010Prop34
280
     0
102
RTVSPost2010PropOp34
 70
     1
102
RTVSPost2010Prop35
280
     0
102
RTVSPost2010PropOp35
 70
     1
102
RTVSPost2010Prop36
280
     0
102
RTVSPost2010PropOp36
 70
     1
102
RTVSPost2010Prop37
 90
       50
102
RTVSPost2010PropOp37
 70
     1
102
RTVSPost2010Prop38
140
0.0
102
RTVSPost2010PropOp38
 70
     1
102
RTVSPost2010Prop39
140
1.0
102
RTVSPost2010PropOp39
 70
     1
102
RTVSPost2010Prop40
 90
        0
102
RTVSPost2010PropOp40
 70
     1
102
RTVSPost2010Prop41ColorIndex
 90
       18
102
RTVSPost2010Prop41ColorRGB
 90
        0
102
RTVSPost2010PropOp41
 70
     1
102
RTVSPost2010Prop42
 90
       50
102
RTVSPost2010PropOp42
 70
     1
102
RTVSPost2010Prop43
 90
        3
102
RTVSPost2010PropOp43
 70
     1
102
RTVSPost2010Prop44ColorIndex
 90
        5
102
RTVSPost2010Prop44ColorRGB
 90
      255
102
RTVSPost2010PropOp44
 70
     1
102
RTVSPost2010Prop45
280
     0
102
RTVSPost2010PropOp45
 70
     1
102
RTVSPost2010Prop46
 90
       50
102
RTVSPost2010PropOp46
 70
     1
102
RTVSPost2010Prop47
 90
       50
102
RTVSPost2010PropOp47
 70
     1
102
RTVSPost2010Prop48
 90
       50
102
RTVSPost2010PropOp48
 70
     1
102
RTVSPost2010Prop49
280
     0
102
RTVSPost2010PropOp49
 70
     1
102
RTVSPost2010Prop50
 90
       50
102
RTVSPost2010PropOp50
 70
     1
102
RTVSPost2010Prop51ColorIndex
 90
      256
102
RTVSPost2010Prop51ColorRGB
 90
-16777216
102
RTVSPost2010PropOp51
 70
     0
102
RTVSPost2010Prop52
140
1.0
102
RTVSPost2010PropOp52
 70
     0
102
RTVSPost2010Prop53
 90
        2
102
RTVSPost2010PropOp53
 70
     1
102
RTVSPost2010Prop54
  1
strokes_ogs.tif
102
RTVSPost2010PropOp54
 70
     1
102
RTVSPost2010Prop55
280
     0
102
RTVSPost2010PropOp55
 70
     1
102
RTVSPost2010Prop56
140
1.0
102
RTVSPost2010PropOp56
 70
     1
102
RTVSPost2010Prop57
140
1.0
102
RTVSPost2010PropOp57
 70
     1
  0
XRECORD
  5
184
102
{ACAD_REACTORS
330
183
102
}
330
183
100
AcDbXrecord
280
     1
102
RTVSPost2010Prop28
280
     0
102
RTVSPost2010PropOp28
 70
     1
102
RTVSPost2010Prop29
280
     1
102
RTVSPost2010PropOp29
 70
     1
102
RTVSPost2010Prop30
280
     1
102
RTVSPost2010PropOp30
 70
     1
102
RTVSPost2010Prop31
280
     0
102
RTVSPost2010PropOp31
 70
     1
102
RTVSPost2010Prop32
280
     0
102
RTVSPost2010PropOp32
 70
     1
102
RTVSPost2010Prop33
280
     0
102
RTVSPost2010PropOp33
 70
     1
102
RTVSPost2010Prop34
280
     0
102
RTVSPost2010PropOp34
 70
     1
102
RTVSPost2010Prop35
280
     0
102
RTVSPost2010PropOp35
 70
     1
102
RTVSPost2010Prop36
280
     0
102
RTVSPost2010PropOp36
 70
     1
102
RTVSPost2010Prop37
 90
       50
102
RTVSPost2010PropOp37
 70
     1
102
RTVSPost2010Prop38
140
0.0
102
RTVSPost2010PropOp38
 70
     1
102
RTVSPost2010Prop39
140
1.0
102
RTVSPost2010PropOp39
 70
     1
102
RTVSPost2010Prop40
 90
        0
102
RTVSPost2010PropOp40
 70
     1
102
RTVSPost2010Prop41ColorIndex
 90
       18
102
RTVSPost2010Prop41ColorRGB
 90
        0
102
RTVSPost2010PropOp41
 70
     1
102
RTVSPost2010Prop42
 90
       50
102
RTVSPost2010PropOp42
 70
     1
102
RTVSPost2010Prop43
 90
        3
102
RTVSPost2010PropOp43
 70
     1
102
RTVSPost2010Prop44ColorIndex
 90
        5
102
RTVSPost2010Prop44ColorRGB
 90
      255
102
RTVSPost2010PropOp44
 70
     1
102
RTVSPost2010Prop45
280
     0
102
RTVSPost2010PropOp45
 70
     1
102
RTVSPost2010Prop46
 90
       50
102
RTVSPost2010PropOp46
 70
     1
102
RTVSPost2010Prop47
 90
       50
102
RTVSPost2010PropOp47
 70
     1
102
RTVSPost2010Prop48
 90
       50
102
RTVSPost2010PropOp48
 70
     1
102
RTVSPost2010Prop49
280
     0
102
RTVSPost2010PropOp49
 70
     1
102
RTVSPost2010Prop50
 90
       50
102
RTVSPost2010PropOp50
 70
     1
102
RTVSPost2010Prop51ColorIndex
 90
      256
102
RTVSPost2010Prop51ColorRGB
 90
-16777216
102
RTVSPost2010PropOp51
 70
     0
102
RTVSPost2010Prop52
140
1.0
102
RTVSPost2010PropOp52
 70
     0
102
RTVSPost2010Prop53
 90
        2
102
RTVSPost2010PropOp53
 70
     1
102
RTVSPost2010Prop54
  1
strokes_ogs.tif
102
RTVSPost2010PropOp54
 70
     1
102
RTVSPost2010Prop55
280
     0
102
RTVSPost2010PropOp55
 70
     1
102
RTVSPost2010Prop56
140
1.0
102
RTVSPost2010PropOp56
 70
     1
102
RTVSPost2010Prop57
140
1.0
102
RTVSPost2010PropOp57
 70
     1
  0
XRECORD
  5
198
102
{ACAD_REACTORS
330
197
102
}
330
197
100
AcDbXrecord
280
     1
102
RTVSPost2010Prop28
280
     0
102
RTVSPost2010PropOp28
 70
     0
102
RTVSPost2010Prop29
280
     1
102
RTVSPost2010PropOp29
 70
     0
102
RTVSPost2010Prop30
280
     1
102
RTVSPost2010PropOp30
 70
     0
102
RTVSPost2010Prop31
280
     0
102
RTVSPost2010PropOp31
 70
     0
102
RTVSPost2010Prop32
280
     0
102
RTVSPost2010PropOp32
 70
     0
102
RTVSPost2010Prop33
280
     0
102
RTVSPost2010PropOp33
 70
     0
102
RTVSPost2010Prop34
280
     0
102
RTVSPost2010PropOp34
 70
     0
102
RTVSPost2010Prop35
280
     0
102
RTVSPost2010PropOp35
 70
     0
102
RTVSPost2010Prop36
280
     0
102
RTVSPost2010PropOp36
 70
     0
102
RTVSPost2010Prop37
 90
       50
102
RTVSPost2010PropOp37
 70
     0
102
RTVSPost2010Prop38
140
0.0
102
RTVSPost2010PropOp38
 70
     0
102
RTVSPost2010Prop39
140
1.0
102
RTVSPost2010PropOp39
 70
     0
102
RTVSPost2010Prop40
 90
        0
102
RTVSPost2010PropOp40
 70
     0
102
RTVSPost2010Prop41ColorIndex
 90
       18
102
RTVSPost2010Prop41ColorRGB
 90
        0
102
RTVSPost2010PropOp41
 70
     0
102
RTVSPost2010Prop42
 90
       50
102
RTVSPost2010PropOp42
 70
     0
102
RTVSPost2010Prop43
 90
        3
102
RTVSPost2010PropOp43
 70
     0
102
RTVSPost2010Prop44ColorIndex
 90
        5
102
RTVSPost2010Prop44ColorRGB
 90
      255
102
RTVSPost2010PropOp44
 70
     0
102
RTVSPost2010Prop45
280
     0
102
RTVSPost2010PropOp45
 70
     0
102
RTVSPost2010Prop46
 90
       50
102
RTVSPost2010PropOp46
 70
     0
102
RTVSPost2010Prop47
 90
       50
102
RTVSPost2010PropOp47
 70
     0
102
RTVSPost2010Prop48
 90
       50
102
RTVSPost2010PropOp48
 70
     0
102
RTVSPost2010Prop49
280
     0
102
RTVSPost2010PropOp49
 70
     0
102
RTVSPost2010Prop50
 90
       50
102
RTVSPost2010PropOp50
 70
     0
102
RTVSPost2010Prop51ColorIndex
 90
      256
102
RTVSPost2010Prop51ColorRGB
 90
-16777216
102
RTVSPost2010PropOp51
 70
     0
102
RTVSPost2010Prop52
140
1.0
102
RTVSPost2010PropOp52
 70
     0
102
RTVSPost2010Prop53
 90
        2
102
RTVSPost2010PropOp53
 70
     0
102
RTVSPost2010Prop54
  1
strokes_ogs.tif
102
RTVSPost2010PropOp54
 70
     0
102
RTVSPost2010Prop55
280
     0
102
RTVSPost2010PropOp55
 70
     0
102
RTVSPost2010Prop56
140
1.0
102
RTVSPost2010PropOp56
 70
     0
102
RTVSPost2010Prop57
140
1.0
102
RTVSPost2010PropOp57
 70
     0
  0
XRECORD
  5
192
102
{ACAD_REACTORS
330
191
102
}
330
191
100
AcDbXrecord
280
     1
102
RTVSPost2010Prop28
280
     0
102
RTVSPost2010PropOp28
 70
     1
102
RTVSPost2010Prop29
280
     1
102
RTVSPost2010PropOp29
 70
     1
102
RTVSPost2010Prop30
280
     1
102
RTVSPost2010PropOp30
 70
     1
102
RTVSPost2010Prop31
280
     0
102
RTVSPost2010PropOp31
 70
     1
102
RTVSPost2010Prop32
280
     0
102
RTVSPost2010PropOp32
 70
     1
102
RTVSPost2010Prop33
280
     0
102
RTVSPost2010PropOp33
 70
     1
102
RTVSPost2010Prop34
280
     0
102
RTVSPost2010PropOp34
 70
     1
102
RTVSPost2010Prop35
280
     0
102
RTVSPost2010PropOp35
 70
     1
102
RTVSPost2010Prop36
280
     0
102
RTVSPost2010PropOp36
 70
     1
102
RTVSPost2010Prop37
 90
       50
102
RTVSPost2010PropOp37
 70
     1
102
RTVSPost2010Prop38
140
0.0
102
RTVSPost2010PropOp38
 70
     1
102
RTVSPost2010Prop39
140
1.0
102
RTVSPost2010PropOp39
 70
     1
102
RTVSPost2010Prop40
 90
        0
102
RTVSPost2010PropOp40
 70
     1
102
RTVSPost2010Prop41ColorIndex
 90
       18
102
RTVSPost2010Prop41ColorRGB
 90
        0
102
RTVSPost2010PropOp41
 70
     1
102
RTVSPost2010Prop42
 90
       50
102
RTVSPost2010PropOp42
 70
     1
102
RTVSPost2010Prop43
 90
        3
102
RTVSPost2010PropOp43
 70
     1
102
RTVSPost2010Prop44ColorIndex
 90
        5
102
RTVSPost2010Prop44ColorRGB
 90
      255
102
RTVSPost2010PropOp44
 70
     1
102
RTVSPost2010Prop45
280
     0
102
RTVSPost2010PropOp45
 70
     1
102
RTVSPost2010Prop46
 90
       50
102
RTVSPost2010PropOp46
 70
     1
102
RTVSPost2010Prop47
 90
       50
102
RTVSPost2010PropOp47
 70
     1
102
RTVSPost2010Prop48
 90
       50
102
RTVSPost2010PropOp48
 70
     1
102
RTVSPost2010Prop49
280
     0
102
RTVSPost2010PropOp49
 70
     1
102
RTVSPost2010Prop50
 90
       50
102
RTVSPost2010PropOp50
 70
     1
102
RTVSPost2010Prop51ColorIndex
 90
      256
102
RTVSPost2010Prop51ColorRGB
 90
-16777216
102
RTVSPost2010PropOp51
 70
     0
102
RTVSPost2010Prop52
140
1.0
102
RTVSPost2010PropOp52
 70
     0
102
RTVSPost2010Prop53
 90
        2
102
RTVSPost2010PropOp53
 70
     1
102
RTVSPost2010Prop54
  1
strokes_ogs.tif
102
RTVSPost2010PropOp54
 70
     1
102
RTVSPost2010Prop55
280
     0
102
RTVSPost2010PropOp55
 70
     1
102
RTVSPost2010Prop56
140
1.0
102
RTVSPost2010PropOp56
 70
     1
102
RTVSPost2010Prop57
140
1.0
102
RTVSPost2010PropOp57
 70
     1
  0
XRECORD
  5
19A
102
{ACAD_REACTORS
330
199
102
}
330
199
100
AcDbXrecord
280
     1
102
RTVSPost2010Prop28
280
     0
102
RTVSPost2010PropOp28
 70
     0
102
RTVSPost2010Prop29
280
     1
102
RTVSPost2010PropOp29
 70
     0
102
RTVSPost2010Prop30
280
     1
102
RTVSPost2010PropOp30
 70
     0
102
RTVSPost2010Prop31
280
     0
102
RTVSPost2010PropOp31
 70
     0
102
RTVSPost2010Prop32
280
     0
102
RTVSPost2010PropOp32
 70
     0
102
RTVSPost2010Prop33
280
     0
102
RTVSPost2010PropOp33
 70
     0
102
RTVSPost2010Prop34
280
     0
102
RTVSPost2010PropOp34
 70
     0
102
RTVSPost2010Prop35
280
     0
102
RTVSPost2010PropOp35
 70
     0
102
RTVSPost2010Prop36
280
     0
102
RTVSPost2010PropOp36
 70
     0
102
RTVSPost2010Prop37
 90
       50
102
RTVSPost2010PropOp37
 70
     0
102
RTVSPost2010Prop38
140
0.0
102
RTVSPost2010PropOp38
 70
     0
102
RTVSPost2010Prop39
140
1.0
102
RTVSPost2010PropOp39
 70
     0
102
RTVSPost2010Prop40
 90
        0
102
RTVSPost2010PropOp40
 70
     0
102
RTVSPost2010Prop41ColorIndex
 90
       18
102
RTVSPost2010Prop41ColorRGB
 90
        0
102
RTVSPost2010PropOp41
 70
     0
102
RTVSPost2010Prop42
 90
       50
102
RTVSPost2010PropOp42
 70
     0
102
RTVSPost2010Prop43
 90
        3
102
RTVSPost2010PropOp43
 70
     0
102
RTVSPost2010Prop44ColorIndex
 90
        5
102
RTVSPost2010Prop44ColorRGB
 90
      255
102
RTVSPost2010PropOp44
 70
     0
102
RTVSPost2010Prop45
280
     0
102
RTVSPost2010PropOp45
 70
     0
102
RTVSPost2010Prop46
 90
       50
102
RTVSPost2010PropOp46
 70
     0
102
RTVSPost2010Prop47
 90
       50
102
RTVSPost2010PropOp47
 70
     0
102
RTVSPost2010Prop48
 90
       50
102
RTVSPost2010PropOp48
 70
     0
102
RTVSPost2010Prop49
280
     0
102
RTVSPost2010PropOp49
 70
     0
102
RTVSPost2010Prop50
 90
       50
102
RTVSPost2010PropOp50
 70
     0
102
RTVSPost2010Prop51ColorIndex
 90
      256
102
RTVSPost2010Prop51ColorRGB
 90
-16777216
102
RTVSPost2010PropOp51
 70
     0
102
RTVSPost2010Prop52
140
1.0
102
RTVSPost2010PropOp52
 70
     0
102
RTVSPost2010Prop53
 90
        2
102
RTVSPost2010PropOp53
 70
     0
102
RTVSPost2010Prop54
  1
strokes_ogs.tif
102
RTVSPost2010PropOp54
 70
     0
102
RTVSPost2010Prop55
280
     0
102
RTVSPost2010PropOp55
 70
     0
102
RTVSPost2010Prop56
140
1.0
102
RTVSPost2010PropOp56
 70
     0
102
RTVSPost2010Prop57
140
1.0
102
RTVSPost2010PropOp57
 70
     0
  0
XRECORD
  5
188
102
{ACAD_REACTORS
330
187
102
}
330
187
100
AcDbXrecord
280
     1
102
RTVSPost2010Prop28
280
     0
102
RTVSPost2010PropOp28
 70
     1
102
RTVSPost2010Prop29
280
     1
102
RTVSPost2010PropOp29
 70
     1
102
RTVSPost2010Prop30
280
     1
102
RTVSPost2010PropOp30
 70
     1
102
RTVSPost2010Prop31
280
     0
102
RTVSPost2010PropOp31
 70
     1
102
RTVSPost2010Prop32
280
     0
102
RTVSPost2010PropOp32
 70
     1
102
RTVSPost2010Prop33
280
     0
102
RTVSPost2010PropOp33
 70
     1
102
RTVSPost2010Prop34
280
     0
102
RTVSPost2010PropOp34
 70
     1
102
RTVSPost2010Prop35
280
     0
102
RTVSPost2010PropOp35
 70
     1
102
RTVSPost2010Prop36
280
     0
102
RTVSPost2010PropOp36
 70
     1
102
RTVSPost2010Prop37
 90
       50
102
RTVSPost2010PropOp37
 70
     1
102
RTVSPost2010Prop38
140
0.0
102
RTVSPost2010PropOp38
 70
     1
102
RTVSPost2010Prop39
140
1.0
102
RTVSPost2010PropOp39
 70
     1
102
RTVSPost2010Prop40
 90
        0
102
RTVSPost2010PropOp40
 70
     1
102
RTVSPost2010Prop41ColorIndex
 90
       18
102
RTVSPost2010Prop41ColorRGB
 90
        0
102
RTVSPost2010PropOp41
 70
     1
102
RTVSPost2010Prop42
 90
       50
102
RTVSPost2010PropOp42
 70
     1
102
RTVSPost2010Prop43
 90
        3
102
RTVSPost2010PropOp43
 70
     1
102
RTVSPost2010Prop44ColorIndex
 90
        5
102
RTVSPost2010Prop44ColorRGB
 90
      255
102
RTVSPost2010PropOp44
 70
     1
102
RTVSPost2010Prop45
280
     0
102
RTVSPost2010PropOp45
 70
     1
102
RTVSPost2010Prop46
 90
       50
102
RTVSPost2010PropOp46
 70
     1
102
RTVSPost2010Prop47
 90
       50
102
RTVSPost2010PropOp47
 70
     1
102
RTVSPost2010Prop48
 90
       50
102
RTVSPost2010PropOp48
 70
     1
102
RTVSPost2010Prop49
280
     0
102
RTVSPost2010PropOp49
 70
     1
102
RTVSPost2010Prop50
 90
       50
102
RTVSPost2010PropOp50
 70
     1
102
RTVSPost2010Prop51ColorIndex
 90
      256
102
RTVSPost2010Prop51ColorRGB
 90
-16777216
102
RTVSPost2010PropOp51
 70
     0
102
RTVSPost2010Prop52
140
1.0
102
RTVSPost2010PropOp52
 70
     0
102
RTVSPost2010Prop53
 90
        2
102
RTVSPost2010PropOp53
 70
     1
102
RTVSPost2010Prop54
  1
strokes_ogs.tif
102
RTVSPost2010PropOp54
 70
     1
102
RTVSPost2010Prop55
280
     0
102
RTVSPost2010PropOp55
 70
     1
102
RTVSPost2010Prop56
140
1.0
102
RTVSPost2010PropOp56
 70
     1
102
RTVSPost2010Prop57
140
1.0
102
RTVSPost2010PropOp57
 70
     1
  0
XRECORD
  5
1A6
102
{ACAD_REACTORS
330
1A5
102
}
330
1A5
100
AcDbXrecord
280
     1
102
RTVSPost2010Prop28
280
     0
102
RTVSPost2010PropOp28
 70
     1
102
RTVSPost2010Prop29
280
     1
102
RTVSPost2010PropOp29
 70
     1
102
RTVSPost2010Prop30
280
     1
102
RTVSPost2010PropOp30
 70
     1
102
RTVSPost2010Prop31
280
     0
102
RTVSPost2010PropOp31
 70
     1
102
RTVSPost2010Prop32
280
     0
102
RTVSPost2010PropOp32
 70
     1
102
RTVSPost2010Prop33
280
     0
102
RTVSPost2010PropOp33
 70
     1
102
RTVSPost2010Prop34
280
     0
102
RTVSPost2010PropOp34
 70
     1
102
RTVSPost2010Prop35
280
     0
102
RTVSPost2010PropOp35
 70
     1
102
RTVSPost2010Prop36
280
     0
102
RTVSPost2010PropOp36
 70
     1
102
RTVSPost2010Prop37
 90
       50
102
RTVSPost2010PropOp37
 70
     1
102
RTVSPost2010Prop38
140
0.0
102
RTVSPost2010PropOp38
 70
     1
102
RTVSPost2010Prop39
140
1.0
102
RTVSPost2010PropOp39
 70
     1
102
RTVSPost2010Prop40
 90
        0
102
RTVSPost2010PropOp40
 70
     1
102
RTVSPost2010Prop41ColorIndex
 90
       18
102
RTVSPost2010Prop41ColorRGB
 90
        0
102
RTVSPost2010PropOp41
 70
     1
102
RTVSPost2010Prop42
 90
       50
102
RTVSPost2010PropOp42
 70
     1
102
RTVSPost2010Prop43
 90
        3
102
RTVSPost2010PropOp43
 70
     1
102
RTVSPost2010Prop44ColorIndex
 90
        5
102
RTVSPost2010Prop44ColorRGB
 90
      255
102
RTVSPost2010PropOp44
 70
     1
102
RTVSPost2010Prop45
280
     0
102
RTVSPost2010PropOp45
 70
     1
102
RTVSPost2010Prop46
 90
       50
102
RTVSPost2010PropOp46
 70
     1
102
RTVSPost2010Prop47
 90
       50
102
RTVSPost2010PropOp47
 70
     1
102
RTVSPost2010Prop48
 90
       50
102
RTVSPost2010PropOp48
 70
     1
102
RTVSPost2010Prop49
280
     0
102
RTVSPost2010PropOp49
 70
     1
102
RTVSPost2010Prop50
 90
       50
102
RTVSPost2010PropOp50
 70
     1
102
RTVSPost2010Prop51ColorIndex
 90
      256
102
RTVSPost2010Prop51ColorRGB
 90
-16777216
102
RTVSPost2010PropOp51
 70
     0
102
RTVSPost2010Prop52
140
1.0
102
RTVSPost2010PropOp52
 70
     0
102
RTVSPost2010Prop53
 90
        2
102
RTVSPost2010PropOp53
 70
     1
102
RTVSPost2010Prop54
  1
strokes_ogs.tif
102
RTVSPost2010PropOp54
 70
     1
102
RTVSPost2010Prop55
280
     0
102
RTVSPost2010PropOp55
 70
     1
102
RTVSPost2010Prop56
140
1.0
102
RTVSPost2010PropOp56
 70
     1
102
RTVSPost2010Prop57
140
1.0
102
RTVSPost2010PropOp57
 70
     1
  0
XRECORD
  5
1A4
102
{ACAD_REACTORS
330
1A3
102
}
330
1A3
100
AcDbXrecord
280
     1
102
RTVSPost2010Prop28
280
     0
102
RTVSPost2010PropOp28
 70
     1
102
RTVSPost2010Prop29
280
     1
102
RTVSPost2010PropOp29
 70
     1
102
RTVSPost2010Prop30
280
     1
102
RTVSPost2010PropOp30
 70
     1
102
RTVSPost2010Prop31
280
     0
102
RTVSPost2010PropOp31
 70
     1
102
RTVSPost2010Prop32
280
     0
102
RTVSPost2010PropOp32
 70
     1
102
RTVSPost2010Prop33
280
     0
102
RTVSPost2010PropOp33
 70
     1
102
RTVSPost2010Prop34
280
     0
102
RTVSPost2010PropOp34
 70
     1
102
RTVSPost2010Prop35
280
     0
102
RTVSPost2010PropOp35
 70
     1
102
RTVSPost2010Prop36
280
     0
102
RTVSPost2010PropOp36
 70
     1
102
RTVSPost2010Prop37
 90
       50
102
RTVSPost2010PropOp37
 70
     1
102
RTVSPost2010Prop38
140
0.0
102
RTVSPost2010PropOp38
 70
     1
102
RTVSPost2010Prop39
140
1.0
102
RTVSPost2010PropOp39
 70
     1
102
RTVSPost2010Prop40
 90
        0
102
RTVSPost2010PropOp40
 70
     1
102
RTVSPost2010Prop41ColorIndex
 90
       18
102
RTVSPost2010Prop41ColorRGB
 90
        0
102
RTVSPost2010PropOp41
 70
     1
102
RTVSPost2010Prop42
 90
       50
102
RTVSPost2010PropOp42
 70
     1
102
RTVSPost2010Prop43
 90
        3
102
RTVSPost2010PropOp43
 70
     1
102
RTVSPost2010Prop44ColorIndex
 90
        5
102
RTVSPost2010Prop44ColorRGB
 90
      255
102
RTVSPost2010PropOp44
 70
     1
102
RTVSPost2010Prop45
280
     0
102
RTVSPost2010PropOp45
 70
     1
102
RTVSPost2010Prop46
 90
       50
102
RTVSPost2010PropOp46
 70
     1
102
RTVSPost2010Prop47
 90
       50
102
RTVSPost2010PropOp47
 70
     1
102
RTVSPost2010Prop48
 90
       50
102
RTVSPost2010PropOp48
 70
     1
102
RTVSPost2010Prop49
280
     0
102
RTVSPost2010PropOp49
 70
     1
102
RTVSPost2010Prop50
 90
       50
102
RTVSPost2010PropOp50
 70
     1
102
RTVSPost2010Prop51ColorIndex
 90
      256
102
RTVSPost2010Prop51ColorRGB
 90
-16777216
102
RTVSPost2010PropOp51
 70
     0
102
RTVSPost2010Prop52
140
1.0
102
RTVSPost2010PropOp52
 70
     0
102
RTVSPost2010Prop53
 90
        2
102
RTVSPost2010PropOp53
 70
     1
102
RTVSPost2010Prop54
  1
strokes_ogs.tif
102
RTVSPost2010PropOp54
 70
     1
102
RTVSPost2010Prop55
280
     0
102
RTVSPost2010PropOp55
 70
     1
102
RTVSPost2010Prop56
140
1.0
102
RTVSPost2010PropOp56
 70
     1
102
RTVSPost2010Prop57
140
1.0
102
RTVSPost2010PropOp57
 70
     1
  0
XRECORD
  5
19E
102
{ACAD_REACTORS
330
19D
102
}
330
19D
100
AcDbXrecord
280
     1
102
RTVSPost2010Prop28
280
     0
102
RTVSPost2010PropOp28
 70
     1
102
RTVSPost2010Prop29
280
     1
102
RTVSPost2010PropOp29
 70
     1
102
RTVSPost2010Prop30
280
     1
102
RTVSPost2010PropOp30
 70
     1
102
RTVSPost2010Prop31
280
     0
102
RTVSPost2010PropOp31
 70
     1
102
RTVSPost2010Prop32
280
     0
102
RTVSPost2010PropOp32
 70
     1
102
RTVSPost2010Prop33
280
     0
102
RTVSPost2010PropOp33
 70
     1
102
RTVSPost2010Prop34
280
     0
102
RTVSPost2010PropOp34
 70
     1
102
RTVSPost2010Prop35
280
     0
102
RTVSPost2010PropOp35
 70
     1
102
RTVSPost2010Prop36
280
     0
102
RTVSPost2010PropOp36
 70
     1
102
RTVSPost2010Prop37
 90
       50
102
RTVSPost2010PropOp37
 70
     1
102
RTVSPost2010Prop38
140
0.0
102
RTVSPost2010PropOp38
 70
     1
102
RTVSPost2010Prop39
140
1.0
102
RTVSPost2010PropOp39
 70
     1
102
RTVSPost2010Prop40
 90
        0
102
RTVSPost2010PropOp40
 70
     1
102
RTVSPost2010Prop41ColorIndex
 90
       18
102
RTVSPost2010Prop41ColorRGB
 90
        0
102
RTVSPost2010PropOp41
 70
     1
102
RTVSPost2010Prop42
 90
       50
102
RTVSPost2010PropOp42
 70
     1
102
RTVSPost2010Prop43
 90
        3
102
RTVSPost2010PropOp43
 70
     1
102
RTVSPost2010Prop44ColorIndex
 90
        5
102
RTVSPost2010Prop44ColorRGB
 90
      255
102
RTVSPost2010PropOp44
 70
     1
102
RTVSPost2010Prop45
280
     0
102
RTVSPost2010PropOp45
 70
     1
102
RTVSPost2010Prop46
 90
       50
102
RTVSPost2010PropOp46
 70
     1
102
RTVSPost2010Prop47
 90
       50
102
RTVSPost2010PropOp47
 70
     1
102
RTVSPost2010Prop48
 90
       50
102
RTVSPost2010PropOp48
 70
     1
102
RTVSPost2010Prop49
280
     0
102
RTVSPost2010PropOp49
 70
     1
102
RTVSPost2010Prop50
 90
       50
102
RTVSPost2010PropOp50
 70
     1
102
RTVSPost2010Prop51ColorIndex
 90
      256
102
RTVSPost2010Prop51ColorRGB
 90
-16777216
102
RTVSPost2010PropOp51
 70
     0
102
RTVSPost2010Prop52
140
1.0
102
RTVSPost2010PropOp52
 70
     0
102
RTVSPost2010Prop53
 90
        2
102
RTVSPost2010PropOp53
 70
     1
102
RTVSPost2010Prop54
  1
strokes_ogs.tif
102
RTVSPost2010PropOp54
 70
     1
102
RTVSPost2010Prop55
280
     0
102
RTVSPost2010PropOp55
 70
     1
102
RTVSPost2010Prop56
140
1.0
102
RTVSPost2010PropOp56
 70
     1
102
RTVSPost2010Prop57
140
1.0
102
RTVSPost2010PropOp57
 70
     1
  0
XRECORD
  5
1A0
102
{ACAD_REACTORS
330
19F
102
}
330
19F
100
AcDbXrecord
280
     1
102
RTVSPost2010Prop28
280
     0
102
RTVSPost2010PropOp28
 70
     1
102
RTVSPost2010Prop29
280
     1
102
RTVSPost2010PropOp29
 70
     1
102
RTVSPost2010Prop30
280
     1
102
RTVSPost2010PropOp30
 70
     1
102
RTVSPost2010Prop31
280
     0
102
RTVSPost2010PropOp31
 70
     1
102
RTVSPost2010Prop32
280
     0
102
RTVSPost2010PropOp32
 70
     1
102
RTVSPost2010Prop33
280
     0
102
RTVSPost2010PropOp33
 70
     1
102
RTVSPost2010Prop34
280
     0
102
RTVSPost2010PropOp34
 70
     1
102
RTVSPost2010Prop35
280
     0
102
RTVSPost2010PropOp35
 70
     1
102
RTVSPost2010Prop36
280
     0
102
RTVSPost2010PropOp36
 70
     1
102
RTVSPost2010Prop37
 90
       50
102
RTVSPost2010PropOp37
 70
     1
102
RTVSPost2010Prop38
140
0.0
102
RTVSPost2010PropOp38
 70
     1
102
RTVSPost2010Prop39
140
1.0
102
RTVSPost2010PropOp39
 70
     1
102
RTVSPost2010Prop40
 90
        0
102
RTVSPost2010PropOp40
 70
     1
102
RTVSPost2010Prop41ColorIndex
 90
       18
102
RTVSPost2010Prop41ColorRGB
 90
        0
102
RTVSPost2010PropOp41
 70
     1
102
RTVSPost2010Prop42
 90
       50
102
RTVSPost2010PropOp42
 70
     1
102
RTVSPost2010Prop43
 90
        3
102
RTVSPost2010PropOp43
 70
     1
102
RTVSPost2010Prop44ColorIndex
 90
        5
102
RTVSPost2010Prop44ColorRGB
 90
      255
102
RTVSPost2010PropOp44
 70
     1
102
RTVSPost2010Prop45
280
     0
102
RTVSPost2010PropOp45
 70
     1
102
RTVSPost2010Prop46
 90
       50
102
RTVSPost2010PropOp46
 70
     1
102
RTVSPost2010Prop47
 90
       50
102
RTVSPost2010PropOp47
 70
     1
102
RTVSPost2010Prop48
 90
       50
102
RTVSPost2010PropOp48
 70
     1
102
RTVSPost2010Prop49
280
     0
102
RTVSPost2010PropOp49
 70
     1
102
RTVSPost2010Prop50
 90
       50
102
RTVSPost2010PropOp50
 70
     1
102
RTVSPost2010Prop51ColorIndex
 90
      256
102
RTVSPost2010Prop51ColorRGB
 90
-16777216
102
RTVSPost2010PropOp51
 70
     0
102
RTVSPost2010Prop52
140
1.0
102
RTVSPost2010PropOp52
 70
     0
102
RTVSPost2010Prop53
 90
        2
102
RTVSPost2010PropOp53
 70
     1
102
RTVSPost2010Prop54
  1
strokes_ogs.tif
102
RTVSPost2010PropOp54
 70
     1
102
RTVSPost2010Prop55
280
     0
102
RTVSPost2010PropOp55
 70
     1
102
RTVSPost2010Prop56
140
1.0
102
RTVSPost2010PropOp56
 70
     1
102
RTVSPost2010Prop57
140
1.0
102
RTVSPost2010PropOp57
 70
     1
  0
XRECORD
  5
190
102
{ACAD_REACTORS
330
18F
102
}
330
18F
100
AcDbXrecord
280
     1
102
RTVSPost2010Prop28
280
     0
102
RTVSPost2010PropOp28
 70
     1
102
RTVSPost2010Prop29
280
     1
102
RTVSPost2010PropOp29
 70
     1
102
RTVSPost2010Prop30
280
     1
102
RTVSPost2010PropOp30
 70
     1
102
RTVSPost2010Prop31
280
     0
102
RTVSPost2010PropOp31
 70
     1
102
RTVSPost2010Prop32
280
     0
102
RTVSPost2010PropOp32
 70
     1
102
RTVSPost2010Prop33
280
     0
102
RTVSPost2010PropOp33
 70
     1
102
RTVSPost2010Prop34
280
     0
102
RTVSPost2010PropOp34
 70
     1
102
RTVSPost2010Prop35
280
     0
102
RTVSPost2010PropOp35
 70
     1
102
RTVSPost2010Prop36
280
     0
102
RTVSPost2010PropOp36
 70
     1
102
RTVSPost2010Prop37
 90
       50
102
RTVSPost2010PropOp37
 70
     1
102
RTVSPost2010Prop38
140
0.0
102
RTVSPost2010PropOp38
 70
     1
102
RTVSPost2010Prop39
140
1.0
102
RTVSPost2010PropOp39
 70
     1
102
RTVSPost2010Prop40
 90
        0
102
RTVSPost2010PropOp40
 70
     1
102
RTVSPost2010Prop41ColorIndex
 90
       18
102
RTVSPost2010Prop41ColorRGB
 90
        0
102
RTVSPost2010PropOp41
 70
     1
102
RTVSPost2010Prop42
 90
       50
102
RTVSPost2010PropOp42
 70
     1
102
RTVSPost2010Prop43
 90
        3
102
RTVSPost2010PropOp43
 70
     1
102
RTVSPost2010Prop44ColorIndex
 90
        5
102
RTVSPost2010Prop44ColorRGB
 90
      255
102
RTVSPost2010PropOp44
 70
     1
102
RTVSPost2010Prop45
280
     0
102
RTVSPost2010PropOp45
 70
     1
102
RTVSPost2010Prop46
 90
       50
102
RTVSPost2010PropOp46
 70
     1
102
RTVSPost2010Prop47
 90
       50
102
RTVSPost2010PropOp47
 70
     1
102
RTVSPost2010Prop48
 90
       50
102
RTVSPost2010PropOp48
 70
     1
102
RTVSPost2010Prop49
280
     0
102
RTVSPost2010PropOp49
 70
     1
102
RTVSPost2010Prop50
 90
       50
102
RTVSPost2010PropOp50
 70
     1
102
RTVSPost2010Prop51ColorIndex
 90
      256
102
RTVSPost2010Prop51ColorRGB
 90
-16777216
102
RTVSPost2010PropOp51
 70
     0
102
RTVSPost2010Prop52
140
1.0
102
RTVSPost2010PropOp52
 70
     0
102
RTVSPost2010Prop53
 90
        2
102
RTVSPost2010PropOp53
 70
     1
102
RTVSPost2010Prop54
  1
strokes_ogs.tif
102
RTVSPost2010PropOp54
 70
     1
102
RTVSPost2010Prop55
280
     0
102
RTVSPost2010PropOp55
 70
     1
102
RTVSPost2010Prop56
140
1.0
102
RTVSPost2010PropOp56
 70
     1
102
RTVSPost2010Prop57
140
1.0
102
RTVSPost2010PropOp57
 70
     1
  0
XRECORD
  5
182
102
{ACAD_REACTORS
330
181
102
}
330
181
100
AcDbXrecord
280
     1
102
RTVSPost2010Prop28
280
     0
102
RTVSPost2010PropOp28
 70
     1
102
RTVSPost2010Prop29
280
     1
102
RTVSPost2010PropOp29
 70
     1
102
RTVSPost2010Prop30
280
     1
102
RTVSPost2010PropOp30
 70
     1
102
RTVSPost2010Prop31
280
     0
102
RTVSPost2010PropOp31
 70
     1
102
RTVSPost2010Prop32
280
     0
102
RTVSPost2010PropOp32
 70
     1
102
RTVSPost2010Prop33
280
     0
102
RTVSPost2010PropOp33
 70
     1
102
RTVSPost2010Prop34
280
     0
102
RTVSPost2010PropOp34
 70
     1
102
RTVSPost2010Prop35
280
     0
102
RTVSPost2010PropOp35
 70
     1
102
RTVSPost2010Prop36
280
     0
102
RTVSPost2010PropOp36
 70
     1
102
RTVSPost2010Prop37
 90
       50
102
RTVSPost2010PropOp37
 70
     1
102
RTVSPost2010Prop38
140
0.0
102
RTVSPost2010PropOp38
 70
     1
102
RTVSPost2010Prop39
140
1.0
102
RTVSPost2010PropOp39
 70
     1
102
RTVSPost2010Prop40
 90
        0
102
RTVSPost2010PropOp40
 70
     1
102
RTVSPost2010Prop41ColorIndex
 90
       18
102
RTVSPost2010Prop41ColorRGB
 90
        0
102
RTVSPost2010PropOp41
 70
     1
102
RTVSPost2010Prop42
 90
       50
102
RTVSPost2010PropOp42
 70
     1
102
RTVSPost2010Prop43
 90
        3
102
RTVSPost2010PropOp43
 70
     1
102
RTVSPost2010Prop44ColorIndex
 90
        5
102
RTVSPost2010Prop44ColorRGB
 90
      255
102
RTVSPost2010PropOp44
 70
     1
102
RTVSPost2010Prop45
280
     0
102
RTVSPost2010PropOp45
 70
     1
102
RTVSPost2010Prop46
 90
       50
102
RTVSPost2010PropOp46
 70
     1
102
RTVSPost2010Prop47
 90
       50
102
RTVSPost2010PropOp47
 70
     1
102
RTVSPost2010Prop48
 90
       50
102
RTVSPost2010PropOp48
 70
     1
102
RTVSPost2010Prop49
280
     0
102
RTVSPost2010PropOp49
 70
     1
102
RTVSPost2010Prop50
 90
       50
102
RTVSPost2010PropOp50
 70
     1
102
RTVSPost2010Prop51ColorIndex
 90
      256
102
RTVSPost2010Prop51ColorRGB
 90
-16777216
102
RTVSPost2010PropOp51
 70
     0
102
RTVSPost2010Prop52
140
1.0
102
RTVSPost2010PropOp52
 70
     0
102
RTVSPost2010Prop53
 90
        2
102
RTVSPost2010PropOp53
 70
     1
102
RTVSPost2010Prop54
  1
strokes_ogs.tif
102
RTVSPost2010PropOp54
 70
     1
102
RTVSPost2010Prop55
280
     0
102
RTVSPost2010PropOp55
 70
     1
102
RTVSPost2010Prop56
140
1.0
102
RTVSPost2010PropOp56
 70
     1
102
RTVSPost2010Prop57
140
1.0
102
RTVSPost2010PropOp57
 70
     1
  0
XRECORD
  5
1A2
102
{ACAD_REACTORS
330
1A1
102
}
330
1A1
100
AcDbXrecord
280
     1
102
RTVSPost2010Prop28
280
     0
102
RTVSPost2010PropOp28
 70
     1
102
RTVSPost2010Prop29
280
     1
102
RTVSPost2010PropOp29
 70
     1
102
RTVSPost2010Prop30
280
     1
102
RTVSPost2010PropOp30
 70
     1
102
RTVSPost2010Prop31
280
     0
102
RTVSPost2010PropOp31
 70
     1
102
RTVSPost2010Prop32
280
     0
102
RTVSPost2010PropOp32
 70
     1
102
RTVSPost2010Prop33
280
     0
102
RTVSPost2010PropOp33
 70
     1
102
RTVSPost2010Prop34
280
     0
102
RTVSPost2010PropOp34
 70
     1
102
RTVSPost2010Prop35
280
     0
102
RTVSPost2010PropOp35
 70
     1
102
RTVSPost2010Prop36
280
     0
102
RTVSPost2010PropOp36
 70
     1
102
RTVSPost2010Prop37
 90
       50
102
RTVSPost2010PropOp37
 70
     1
102
RTVSPost2010Prop38
140
0.0
102
RTVSPost2010PropOp38
 70
     1
102
RTVSPost2010Prop39
140
1.0
102
RTVSPost2010PropOp39
 70
     1
102
RTVSPost2010Prop40
 90
        0
102
RTVSPost2010PropOp40
 70
     1
102
RTVSPost2010Prop41ColorIndex
 90
       18
102
RTVSPost2010Prop41ColorRGB
 90
        0
102
RTVSPost2010PropOp41
 70
     1
102
RTVSPost2010Prop42
 90
       50
102
RTVSPost2010PropOp42
 70
     1
102
RTVSPost2010Prop43
 90
        3
102
RTVSPost2010PropOp43
 70
     1
102
RTVSPost2010Prop44ColorIndex
 90
        5
102
RTVSPost2010Prop44ColorRGB
 90
      255
102
RTVSPost2010PropOp44
 70
     1
102
RTVSPost2010Prop45
280
     0
102
RTVSPost2010PropOp45
 70
     1
102
RTVSPost2010Prop46
 90
       50
102
RTVSPost2010PropOp46
 70
     1
102
RTVSPost2010Prop47
 90
       50
102
RTVSPost2010PropOp47
 70
     1
102
RTVSPost2010Prop48
 90
       50
102
RTVSPost2010PropOp48
 70
     1
102
RTVSPost2010Prop49
280
     0
102
RTVSPost2010PropOp49
 70
     1
102
RTVSPost2010Prop50
 90
       50
102
RTVSPost2010PropOp50
 70
     1
102
RTVSPost2010Prop51ColorIndex
 90
      256
102
RTVSPost2010Prop51ColorRGB
 90
-16777216
102
RTVSPost2010PropOp51
 70
     0
102
RTVSPost2010Prop52
140
1.0
102
RTVSPost2010PropOp52
 70
     0
102
RTVSPost2010Prop53
 90
        2
102
RTVSPost2010PropOp53
 70
     1
102
RTVSPost2010Prop54
  1
strokes_ogs.tif
102
RTVSPost2010PropOp54
 70
     1
102
RTVSPost2010Prop55
280
     0
102
RTVSPost2010PropOp55
 70
     1
102
RTVSPost2010Prop56
140
1.0
102
RTVSPost2010PropOp56
 70
     1
102
RTVSPost2010Prop57
140
1.0
102
RTVSPost2010PropOp57
 70
     1
  0
ENDSEC
  0
EOF
