  0
SECTION
  2
HEADER
  9
$ACADVER
  1
AC1024
  9
$ACADMAINTVER
 70
     6
  9
$DWGCODEPAGE
  3
ANSI_932
  9
$INSBASE
 10
0.0
 20
0.0
 30
0.0
  9
$EXTMIN
 10
-677.162629
 20
-856.68087
 30
1.000000000000000E+20
  9
$EXTMAX
 10
898.152585
 20
1153.050722
 30
-1.000000000000000E+20
  9
$LIMMIN
 10
-677.162629
 20
-856.68087
  9
$LIMMAX
 10
898.152585
 20
1153.050722
  9
$ORTHOMODE
 70
     0
  9
$REGENMODE
 70
     1
  9
$FILLMODE
 70
     1
  9
$QTEXTMODE
 70
     0
  9
$MIRRTEXT
 70
     1
  9
$LTSCALE
 40
1.0
  9
$ATTMODE
 70
     1
  9
$TEXTSIZE
 40
0.0
  9
$TRACEWID
 40
0.05
  9
$TEXTSTYLE
  7
Standard
  9
$CLAYER
  8
0
  9
$CELTYPE
  6
Continuous
  9
$CECOLOR
 62
   256
  9
$CELTSCALE
 40
1.0
  9
$DISPSILH
 70
     0
  9
$DIMSCALE
 40
1.0
  9
$DIMASZ
 40
0.18
  9
$DIMEXO
 40
0.0625
  9
$DIMDLI
 40
0.38
  9
$DIMRND
 40
0.0
  9
$DIMDLE
 40
0.0
  9
$DIMEXE
 40
0.18
  9
$DIMTP
 40
0.0
  9
$DIMTM
 40
0.0
  9
$DIMTXT
 40
0.18
  9
$DIMCEN
 40
0.09
  9
$DIMTSZ
 40
0.0
  9
$DIMTOL
 70
     0
  9
$DIMLIM
 70
     0
  9
$DIMTIH
 70
     1
  9
$DIMTOH
 70
     1
  9
$DIMSE1
 70
     0
  9
$DIMSE2
 70
     0
  9
$DIMTAD
 70
     0
  9
$DIMZIN
 70
     0
  9
$DIMBLK
  1

  9
$DIMASO
 70
     1
  9
$DIMSHO
 70
     1
  9
$DIMPOST
  1

  9
$DIMAPOST
  1

  9
$DIMALT
 70
     0
  9
$DIMALTD
 70
     2
  9
$DIMALTF
 40
25.4
  9
$DIMLFAC
 40
1.0
  9
$DIMTOFL
 70
     0
  9
$DIMTVP
 40
0.0
  9
$DIMTIX
 70
     0
  9
$DIMSOXD
 70
     0
  9
$DIMSAH
 70
     0
  9
$DIMBLK1
  1

  9
$DIMBLK2
  1

  9
$DIMSTYLE
  2
Standard
  9
$DIMCLRD
 70
     0
  9
$DIMCLRE
 70
     0
  9
$DIMCLRT
 70
     0
  9
$DIMTFAC
 40
1.0
  9
$DIMGAP
 40
0.09
  9
$DIMJUST
 70
     0
  9
$DIMSD1
 70
     0
  9
$DIMSD2
 70
     0
  9
$DIMTOLJ
 70
     1
  9
$DIMTZIN
 70
     0
  9
$DIMALTZ
 70
     0
  9
$DIMALTTZ
 70
     0
  9
$DIMUPT
 70
     0
  9
$DIMDEC
 70
     4
  9
$DIMTDEC
 70
     4
  9
$DIMALTU
 70
     2
  9
$DIMALTTD
 70
     2
  9
$DIMTXSTY
  7
Standard
  9
$DIMAUNIT
 70
     0
  9
$DIMADEC
 70
     0
  9
$DIMALTRND
 40
0.0
  9
$DIMAZIN
 70
     0
  9
$DIMDSEP
 70
     0
  9
$DIMATFIT
 70
     3
  9
$DIMFRAC
 70
     0
  9
$DIMLDRBLK
  1

  9
$DIMLUNIT
 70
     2
  9
$DIMLWD
 70
     0
  9
$DIMLWE
 70
     0
  9
$DIMTMOVE
 70
     0
  9
$DIMFXL
 40
1.0
  9
$DIMFXLON
 70
     0
  9
$DIMJOGANG
 40
0.7853981633974483
  9
$DIMTFILL
 70
     0
  9
$DIMTFILLCLR
 70
     0
  9
$DIMARCSYM
 70
     0
  9
$DIMLTYPE
  6

  9
$DIMLTEX1
  6

  9
$DIMLTEX2
  6

  9
$DIMTXTDIRECTION
 70
     0
  9
$LUNITS
 70
     2
  9
$LUPREC
 70
     4
  9
$SKETCHINC
 40
0.1
  9
$FILLETRAD
 40
0.0
  9
$AUNITS
 70
     0
  9
$AUPREC
 70
     0
  9
$MENU
  1
acad
  9
$ELEVATION
 40
0.0
  9
$PELEVATION
 40
0.0
  9
$THICKNESS
 40
0.0
  9
$LIMCHECK
 70
     0
  9
$CHAMFERA
 40
0.0
  9
$CHAMFERB
 40
0.0
  9
$CHAMFERC
 40
0.0
  9
$CHAMFERD
 40
0.0
  9
$SKPOLY
 70
     0
  9
$TDCREATE
 40
2447893.041666667
  9
$TDUCREATE
 40
0.0
  9
$TDUPDATE
 40
2457234.640822998
  9
$TDUUPDATE
 40
2457234.599156331
  9
$TDINDWG
 40
0.0
  9
$TDUSRTIMER
 40
0.0
  9
$USRTIMER
 70
     1
  9
$ANGBASE
 50
0.0
  9
$ANGDIR
 70
     0
  9
$PDMODE
 70
     0
  9
$PDSIZE
 40
0.0
  9
$PLINEWID
 40
0.0
  9
$SPLFRAME
 70
     0
  9
$SPLINETYPE
 70
     6
  9
$SPLINESEGS
 70
     8
  9
$HANDSEED
  5
169
  9
$SURFTAB1
 70
     6
  9
$SURFTAB2
 70
     6
  9
$SURFTYPE
 70
     6
  9
$SURFU
 70
     6
  9
$SURFV
 70
     6
  9
$UCSBASE
  2

  9
$UCSNAME
  2

  9
$UCSORG
 10
0.0
 20
0.0
 30
0.0
  9
$UCSXDIR
 10
1.0
 20
0.0
 30
0.0
  9
$UCSYDIR
 10
0.0
 20
1.0
 30
0.0
  9
$UCSORTHOREF
  2

  9
$UCSORTHOVIEW
 70
     0
  9
$UCSORGTOP
 10
0.0
 20
0.0
 30
0.0
  9
$UCSORGBOTTOM
 10
0.0
 20
0.0
 30
0.0
  9
$UCSORGLEFT
 10
0.0
 20
0.0
 30
0.0
  9
$UCSORGRIGHT
 10
0.0
 20
0.0
 30
0.0
  9
$UCSORGFRONT
 10
0.0
 20
0.0
 30
0.0
  9
$UCSORGBACK
 10
0.0
 20
0.0
 30
0.0
  9
$PUCSBASE
  2

  9
$PUCSNAME
  2

  9
$PUCSORG
 10
0.0
 20
0.0
 30
0.0
  9
$PUCSXDIR
 10
1.0
 20
0.0
 30
0.0
  9
$PUCSYDIR
 10
0.0
 20
1.0
 30
0.0
  9
$PUCSORTHOREF
  2

  9
$PUCSORTHOVIEW
 70
     0
  9
$PUCSORGTOP
 10
0.0
 20
0.0
 30
0.0
  9
$PUCSORGBOTTOM
 10
0.0
 20
0.0
 30
0.0
  9
$PUCSORGLEFT
 10
0.0
 20
0.0
 30
0.0
  9
$PUCSORGRIGHT
 10
0.0
 20
0.0
 30
0.0
  9
$PUCSORGFRONT
 10
0.0
 20
0.0
 30
0.0
  9
$PUCSORGBACK
 10
0.0
 20
0.0
 30
0.0
  9
$USERI1
 70
     0
  9
$USERI2
 70
     0
  9
$USERI3
 70
     0
  9
$USERI4
 70
     0
  9
$USERI5
 70
     0
  9
$USERR1
 40
0.0
  9
$USERR2
 40
0.0
  9
$USERR3
 40
0.0
  9
$USERR4
 40
0.0
  9
$USERR5
 40
0.0
  9
$WORLDVIEW
 70
     1
  9
$SHADEDGE
 70
     3
  9
$SHADEDIF
 70
    70
  9
$TILEMODE
 70
     1
  9
$MAXACTVP
 70
    16
  9
$PINSBASE
 10
0.0
 20
0.0
 30
0.0
  9
$PLIMCHECK
 70
     0
  9
$PEXTMIN
 10
1.000000000000000E+20
 20
1.000000000000000E+20
 30
1.000000000000000E+20
  9
$PEXTMAX
 10
-1.000000000000000E+20
 20
-1.000000000000000E+20
 30
-1.000000000000000E+20
  9
$PLIMMIN
 10
0.0
 20
0.0
  9
$PLIMMAX
 10
12.0
 20
9.0
  9
$UNITMODE
 70
     0
  9
$VISRETAIN
 70
     0
  9
$PLINEGEN
 70
     1
  9
$PSLTSCALE
 70
     0
  9
$TREEDEPTH
 70
  3020
  9
$CMLSTYLE
  2
Standard
  9
$CMLJUST
 70
     0
  9
$CMLSCALE
 40
1.0
  9
$PROXYGRAPHICS
 70
     0
  9
$MEASUREMENT
 70
     0
  9
$CELWEIGHT
370
     0
  9
$ENDCAPS
280
     0
  9
$JOINSTYLE
280
     0
  9
$LWDISPLAY
290
     0
  9
$INSUNITS
 70
     0
  9
$HYPERLINKBASE
  1

  9
$STYLESHEET
  1

  9
$XEDIT
290
     1
  9
$CEPSNTYPE
380
     0
  9
$PSTYLEMODE
290
     1
  9
$FINGERPRINTGUID
  2

  9
$VERSIONGUID
  2

  9
$EXTNAMES
290
     1
  9
$PSVPSCALE
 40
0.0
  9
$OLESTARTUP
290
     0
  9
$SORTENTS
280
   127
  9
$INDEXCTL
280
     0
  9
$HIDETEXT
280
     1
  9
$XCLIPFRAME
280
     2
  9
$HALOGAP
280
     0
  9
$OBSCOLOR
 70
   257
  9
$OBSLTYPE
280
     0
  9
$INTERSECTIONDISPLAY
280
     0
  9
$INTERSECTIONCOLOR
 70
   257
  9
$DIMASSOC
280
     2
  9
$PROJECTNAME
  1

  9
$CAMERADISPLAY
290
     0
  9
$LENSLENGTH
 40
50.0
  9
$CAMERAHEIGHT
 40
0.0
  9
$STEPSPERSEC
 40
2.0
  9
$STEPSIZE
 40
6.0
  9
$3DDWFPREC
 40
2.0
  9
$PSOLWIDTH
 40
0.25
  9
$PSOLHEIGHT
 40
4.0
  9
$LOFTANG1
 40
1.570796326794897
  9
$LOFTANG2
 40
1.570796326794897
  9
$LOFTMAG1
 40
0.0
  9
$LOFTMAG2
 40
0.0
  9
$LOFTPARAM
 70
     7
  9
$LOFTNORMALS
280
     1
  9
$LATITUDE
 40
37.795
  9
$LONGITUDE
 40
-122.394
  9
$NORTHDIRECTION
 40
0.0
  9
$TIMEZONE
 70
 -8000
  9
$LIGHTGLYPHDISPLAY
280
     1
  9
$TILEMODELIGHTSYNCH
280
     1
  9
$SOLIDHIST
280
     0
  9
$SHOWHIST
280
     1
  9
$DWFFRAME
280
     2
  9
$DGNFRAME
280
     2
  9
$REALWORLDSCALE
290
     1
  9
$INTERFERECOLOR
 62
   256
  9
$CSHADOW
280
     0
  9
$SHADOWPLANELOCATION
 40
0.0
  0
ENDSEC
  0
SECTION
  2
CLASSES
  0
CLASS
  1
LWPOLYLINE
  2
AcDbPolyline
  3
ObjectDBX Classes
 90
        0
 91
        1
280
     0
281
     1
  0
CLASS
  1
IMAGE
  2
AcDbRasterImage
  3
ISM
 90
      127
 91
        5
280
     0
281
     1
  0
CLASS
  1
OLE2FRAME
  2
AcDbOle2Frame
  3
ObjectDBX Classes
 90
        0
 91
        1
280
     0
281
     1
  0
CLASS
  1
HATCH
  2
AcDbHatch
  3
ObjectDBX Classes
 90
        0
 91
        1
280
     0
281
     1
  0
CLASS
  1
DICTIONARYVAR
  2
AcDbDictionaryVar
  3
ObjectDBX Classes
 90
        0
 91
        4
280
     0
281
     0
  0
CLASS
  1
RASTERVARIABLES
  2
AcDbRasterVariables
  3
ISM
 90
        0
 91
        4
280
     0
281
     0
  0
CLASS
  1
IMAGEDEF
  2
AcDbRasterImageDef
  3
ISM
 90
        0
 91
        4
280
     0
281
     0
  0
CLASS
  1
IMAGEDEF_REACTOR
  2
AcDbRasterImageDefReactor
  3
ISM
 90
        1
 91
        4
280
     0
281
     0
  0
CLASS
  1
IDBUFFER
  2
AcDbIdBuffer
  3
ObjectDBX Classes
 90
        0
 91
        4
280
     0
281
     0
  0
CLASS
  1
SPATIAL_FILTER
  2
AcDbSpatialFilter
  3
ObjectDBX Classes
 90
        0
 91
        4
280
     0
281
     0
  0
CLASS
  1
XRECORD
  2
AcDbXrecord
  3
ObjectDBX Classes
 90
        0
 91
        1
280
     0
281
     0
  0
CLASS
  1
SORTENTSTABLE
  2
AcDbSortentsTable
  3
ObjectDBX Classes
 90
        0
 91
        4
280
     0
281
     0
  0
CLASS
  1
LAYER_INDEX
  2
AcDbLayerIndex
  3
ObjectDBX Classes
 90
        0
 91
        4
280
     0
281
     0
  0
CLASS
  1
SPATIAL_INDEX
  2
AcDbSpatialIndex
  3
AutoCAD 2000
 90
        0
 91
        4
280
     0
281
     0
  0
CLASS
  1
OBJECT_PTR
  2
CAseDLPNTableRecord
  3
ASE-LPNTableRecord
 90
        1
 91
        4
280
     0
281
     0
  0
CLASS
  1
LAYOUT
  2
AcDbLayout
  3
ObjectDBX Classes
 90
        0
 91
        1
280
     0
281
     0
  0
CLASS
  1
PLOTSETTINGS
  2
AcDbPlotSettings
  3
ObjectDBX Classes
 90
        0
 91
        4
280
     0
281
     0
  0
CLASS
  1
ACDBDICTIONARYWDFLT
  2
AcDbDictionaryWithDefault
  3
ObjectDBX Classes
 90
        0
 91
        4
280
     0
281
     0
  0
CLASS
  1
ACDBPLACEHOLDER
  2
AcDbPlaceHolder
  3
ObjectDBX Classes
 90
        0
 91
        1
280
     0
281
     0
  0
CLASS
  1
VBA_PROJECT
  2
AcDbVbaProject
  3
ObjectDBX Classes
 90
        0
 91
        1
280
     0
281
     0
  0
CLASS
  1
WIPEOUT
  2
AcDbWipeout
  3
WipeOut|AutoCAD Express Tool|expresstools@autodesk.com
 90
      127
 91
        4
280
     0
281
     1
  0
CLASS
  1
WIPEOUTVARIABLES
  2
AcDbWipeoutVariables
  3
WipeOut|AutoCAD Express Tool|expresstools@autodesk.com
 90
        0
 91
        4
280
     0
281
     0
  0
CLASS
  1
RTEXT
  2
RText
  3
RText|AutoCAD Express Tool|expresstools@autodesk.com
 90
        0
 91
        4
280
     0
281
     1
  0
CLASS
  1
ARCALIGNEDTEXT
  2
AcDbArcAlignedText
  3
ATEXT|AutoCAD Express Tool|expresstools@autodesk.com
 90
        0
 91
        4
280
     0
281
     1
  0
CLASS
  1
SCALE
  2
AcDbScale
  3
ObjectDBX Classes
 90
     1153
 91
        4
280
     0
281
     0
  0
CLASS
  1
VISUALSTYLE
  2
AcDbVisualStyle
  3
ObjectDBX Classes
 90
     4095
 91
        4
280
     0
281
     0
  0
CLASS
  1
MATERIAL
  2
AcDbMaterial
  3
ObjectDBX Classes
 90
     1153
 91
        4
280
     0
281
     0
  0
CLASS
  1
TABLESTYLE
  2
AcDbTableStyle
  3
ObjectDBX Classes
 90
     4095
 91
        4
280
     0
281
     0
  0
CLASS
  1
MLEADERSTYLE
  2
AcDbMLeaderStyle
  3
ACDB_MLEADERSTYLE_CLASS
 90
     4095
 91
        4
280
     0
281
     0
  0
CLASS
  1
CELLSTYLEMAP
  2
AcDbCellStyleMap
  3
ObjectDBX Classes
 90
     1152
 91
        4
280
     0
281
     0
  0
ENDSEC
  0
SECTION
  2
TABLES
  0
TABLE
  2
VPORT
  5
7
330
0
100
AcDbSymbolTable
 70
     1
  0
VPORT
  5
15
330
7
100
AcDbSymbolTableRecord
100
AcDbViewportTableRecord
  2
*ACTIVE
 70
     0
 10
0.0
 20
0.0
 11
1.0
 21
1.0
 12
6.591288
 22
4.579184
 13
0.0
 23
0.0
 14
1.0
 24
1.0
 15
0.0
 25
0.0
 16
0.0
 26
0.0
 36
1.0
 17
0.0
 27
0.0
 37
0.0
 40
9.158369
 41
0.688564
 42
50.0
 43
0.0
 44
0.0
 50
0.0
 51
0.0
 71
     0
 72
   100
 73
     1
 74
     1
 75
     0
 76
     0
 77
     0
 78
     0
281
     0
 65
     0
110
0.0
120
0.0
130
0.0
111
1.0
121
0.0
131
0.0
112
0.0
122
1.0
132
0.0
 79
     0
146
0.0
348
113
 60
     3
 61
     5
292
     1
282
     1
141
0.0
142
0.0
 63
   256
  0
ENDTAB
  0
TABLE
  2
LTYPE
  5
4
330
0
100
AcDbSymbolTable
 70
     3
  0
LTYPE
  5
11
330
4
100
AcDbSymbolTableRecord
100
AcDbLinetypeTableRecord
  2
ByBlock
 70
     0
  3

 72
    65
 73
     0
 40
0.0
  0
LTYPE
  5
12
330
4
100
AcDbSymbolTableRecord
100
AcDbLinetypeTableRecord
  2
ByLayer
 70
     0
  3

 72
    65
 73
     0
 40
0.0
  0
LTYPE
  5
13
330
4
100
AcDbSymbolTableRecord
100
AcDbLinetypeTableRecord
  2
Continuous
 70
     0
  3
Solid line
 72
    65
 73
     0
 40
0.0
  0
LTYPE
  5
6C
330
4
100
AcDbSymbolTableRecord
100
AcDbLinetypeTableRecord
  2
AI9-LType1
 70
     0
  3
Illustrator Dash Style No.1
 72
    65
 73
     4
 40
3.175
 49
1.411111
 74
     0
 49
-0.705556
 74
     0
 49
0.352778
 74
     0
 49
-0.705556
 74
     0
  0
LTYPE
  5
74
330
4
100
AcDbSymbolTableRecord
100
AcDbLinetypeTableRecord
  2
AI9-LType2
 70
     0
  3
Illustrator Dash Style No.2
 72
    65
 73
     2
 40
2.116667
 49
1.411111
 74
     0
 49
-0.705556
 74
     0
  0
ENDTAB
  0
TABLE
  2
LAYER
  5
2
330
0
100
AcDbSymbolTable
 70
     2
  0
LAYER
  5
14
330
2
100
AcDbSymbolTableRecord
100
AcDbLayerTableRecord
  2
0
 70
     0
 62
     7
  6
Continuous
370
    -3
390
1D
347
12A
  0
LAYER
  5
28
330
2
100
AcDbSymbolTableRecord
100
AcDbLayerTableRecord
  2
LAYER_1
 70
     0
 62
   160
  6
Continuous
370
    -3
390
1D
347
12A
  0
ENDTAB
  0
TABLE
  2
STYLE
  5
3
330
0
100
AcDbSymbolTable
 70
     5
  0
STYLE
  5
17
330
3
100
AcDbSymbolTableRecord
100
AcDbTextStyleTableRecord
  2
Standard
 70
     0
 40
0.0
 41
1.0
 50
0.0
 71
     0
 42
0.0
  3
txt
  4

  0
STYLE
  5
24
330
3
100
AcDbSymbolTableRecord
100
AcDbTextStyleTableRecord
  2
STD
 70
     0
 40
0.0
 41
1.0
 50
0.0
 71
     0
 42
0.0
  3
txt
  4

  0
STYLE
  5
25
330
3
100
AcDbSymbolTableRecord
100
AcDbTextStyleTableRecord
  2
TATESTD
 70
     4
 40
0.0
 41
1.0
 50
0.0
 71
     0
 42
0.0
  3
txt
  4

  0
STYLE
  5
26
330
3
100
AcDbSymbolTableRecord
100
AcDbTextStyleTableRecord
  2
KANJISTD
 70
     0
 40
0.0
 41
1.0
 50
0.0
 71
     0
 42
0.0
  3
txt
  4
extfont
  0
STYLE
  5
27
330
3
100
AcDbSymbolTableRecord
100
AcDbTextStyleTableRecord
  2
KANJITATE
 70
     4
 40
0.0
 41
1.0
 50
0.0
 71
     0
 42
0.0
  3
txt
  4
extfont
  0
ENDTAB
  0
TABLE
  2
VIEW
  5
5
330
0
100
AcDbSymbolTable
 70
     0
  0
ENDTAB
  0
TABLE
  2
UCS
  5
6
330
0
100
AcDbSymbolTable
 70
     0
  0
ENDTAB
  0
TABLE
  2
APPID
  5
8
330
0
100
AcDbSymbolTable
 70
     1
  0
APPID
  5
16
330
8
100
AcDbSymbolTableRecord
100
AcDbRegAppTableRecord
  2
ACAD
 70
     0
  0
ENDTAB
  0
TABLE
  2
DIMSTYLE
  5
9
330
0
100
AcDbSymbolTable
 70
     1
100
AcDbDimStyleTable
  0
DIMSTYLE
105
18
330
9
100
AcDbSymbolTableRecord
100
AcDbDimStyleTableRecord
  2
Standard
 70
     0
178
     0
340
17
  0
ENDTAB
  0
TABLE
  2
BLOCK_RECORD
  5
1
330
0
100
AcDbSymbolTable
 70
     9
  0
BLOCK_RECORD
  5
A
330
1
100
AcDbSymbolTableRecord
100
AcDbBlockTableRecord
  2
*MODEL_SPACE
340
20
 70
     0
280
     1
281
     0
  0
BLOCK_RECORD
  5
B
330
1
100
AcDbSymbolTableRecord
100
AcDbBlockTableRecord
  2
*PAPER_SPACE
340
21
 70
     0
280
     1
281
     0
  0
BLOCK_RECORD
  5
35
330
1
100
AcDbSymbolTableRecord
100
AcDbBlockTableRecord
  2
AI9-BLK1
340
0
102
{BLKREFS
331
36
102
}
 70
     0
280
     1
281
     0
  0
BLOCK_RECORD
  5
45
330
1
100
AcDbSymbolTableRecord
100
AcDbBlockTableRecord
  2
AI9-BLK2
340
0
102
{BLKREFS
331
46
102
}
 70
     0
280
     1
281
     0
  0
BLOCK_RECORD
  5
48
330
1
100
AcDbSymbolTableRecord
100
AcDbBlockTableRecord
  2
AI9-BLK3
340
0
102
{BLKREFS
331
49
102
}
 70
     0
280
     1
281
     0
  0
BLOCK_RECORD
  5
4D
330
1
100
AcDbSymbolTableRecord
100
AcDbBlockTableRecord
  2
AI9-BLK4
340
0
102
{BLKREFS
331
4E
102
}
 70
     0
280
     1
281
     0
  0
BLOCK_RECORD
  5
52
330
1
100
AcDbSymbolTableRecord
100
AcDbBlockTableRecord
  2
AI9-BLK5
340
0
102
{BLKREFS
331
53
102
}
 70
     0
280
     1
281
     0
  0
BLOCK_RECORD
  5
57
330
1
100
AcDbSymbolTableRecord
100
AcDbBlockTableRecord
  2
AI9-BLK6
340
0
102
{BLKREFS
331
58
102
}
 70
     0
280
     1
281
     0
  0
BLOCK_RECORD
  5
5C
330
1
100
AcDbSymbolTableRecord
100
AcDbBlockTableRecord
  2
AI9-BLK7
340
0
102
{BLKREFS
331
5D
102
}
 70
     0
280
     1
281
     0
  0
BLOCK_RECORD
  5
61
330
1
100
AcDbSymbolTableRecord
100
AcDbBlockTableRecord
  2
AI9-BLK8
340
0
102
{BLKREFS
331
62
102
}
 70
     0
280
     1
281
     0
  0
BLOCK_RECORD
  5
66
330
1
100
AcDbSymbolTableRecord
100
AcDbBlockTableRecord
  2
AI9-BLK9
340
0
102
{BLKREFS
331
67
102
}
 70
     0
280
     1
281
     0
  0
ENDTAB
  0
ENDSEC
  0
SECTION
  2
BLOCKS
  0
BLOCK
  5
D
330
A
100
AcDbEntity
  8
0
100
AcDbBlockBegin
  2
*MODEL_SPACE
 70
     0
 10
0.0
 20
0.0
 30
0.0
  3
*MODEL_SPACE
  1

  0
ENDBLK
  5
E
330
A
100
AcDbEntity
  8
0
100
AcDbBlockEnd
  0
BLOCK
  5
F
330
B
100
AcDbEntity
 67
     1
  8
0
100
AcDbBlockBegin
  2
*PAPER_SPACE
 70
     0
 10
0.0
 20
0.0
 30
0.0
  3
*PAPER_SPACE
  1

  0
ENDBLK
  5
10
330
B
100
AcDbEntity
 67
     1
  8
0
100
AcDbBlockEnd
  0
BLOCK
  5
37
330
35
100
AcDbEntity
  8
LAYER_1
 62
     7
100
AcDbBlockBegin
  2
AI9-BLK1
 70
     0
 10
0.0
 20
0.0
 30
0.0
  3
AI9-BLK1
  1

  0
CIRCLE
  5
3A
330
35
100
AcDbEntity
  8
LAYER_1
 62
     7
100
AcDbCircle
 10
-0.00155
 20
0.0
 30
0.0
 40
0.780831
  0
LINE
  5
39
330
35
100
AcDbEntity
  8
LAYER_1
 62
     7
100
AcDbLine
 10
-0.001723
 20
1.564418
 30
0.0
 11
0.001723
 21
-1.564418
 31
0.0
  0
LINE
  5
38
330
35
100
AcDbEntity
  8
LAYER_1
 62
     7
100
AcDbLine
 10
-1.56614
 20
-0.006546
 30
0.0
 11
1.56614
 21
0.0
 31
0.0
  0
ENDBLK
  5
3B
330
35
100
AcDbEntity
  8
LAYER_1
100
AcDbBlockEnd
  0
BLOCK
  5
47
330
45
100
AcDbEntity
  8
LAYER_1
 62
     7
100
AcDbBlockBegin
  2
AI9-BLK2
 70
     0
 10
0.0
 20
0.0
 30
0.0
  3
AI9-BLK2
  1

  0
INSERT
  5
67
330
45
100
AcDbEntity
  8
LAYER_1
 62
     7
100
AcDbBlockReference
  2
AI9-BLK9
 10
22.073933
 20
-17.899338
 30
0.0
  0
INSERT
  5
62
330
45
100
AcDbEntity
  8
LAYER_1
 62
     7
100
AcDbBlockReference
  2
AI9-BLK8
 10
16.788812
 20
-14.204473
 30
0.0
  0
INSERT
  5
5D
330
45
100
AcDbEntity
  8
LAYER_1
 62
     7
100
AcDbBlockReference
  2
AI9-BLK7
 10
10.853601
 20
-5.073075
 30
0.0
  0
INSERT
  5
58
330
45
100
AcDbEntity
  8
LAYER_1
 62
     7
100
AcDbBlockReference
  2
AI9-BLK6
 10
2.19711
 20
1.219047
 30
0.0
  0
INSERT
  5
53
330
45
100
AcDbEntity
  8
LAYER_1
 62
     7
100
AcDbBlockReference
  2
AI9-BLK5
 10
-5.315438
 20
6.571003
 30
0.0
  0
INSERT
  5
4E
330
45
100
AcDbEntity
  8
LAYER_1
 62
     7
100
AcDbBlockReference
  2
AI9-BLK4
 10
-21.45416
 20
16.76504
 30
0.0
  0
INSERT
  5
49
330
45
100
AcDbEntity
  8
LAYER_1
 62
     7
100
AcDbBlockReference
  2
AI9-BLK3
 10
-13.031935
 20
11.841654
 30
0.0
  0
ENDBLK
  5
6B
330
45
100
AcDbEntity
  8
LAYER_1
100
AcDbBlockEnd
  0
BLOCK
  5
4A
330
48
100
AcDbEntity
  8
LAYER_1
 62
     7
100
AcDbBlockBegin
  2
AI9-BLK3
 70
     0
 10
0.0
 20
0.0
 30
0.0
  3
AI9-BLK3
  1

  0
HATCH
  5
4B
330
48
100
AcDbEntity
  8
LAYER_1
 62
     7
100
AcDbHatch
 10
0.0
 20
0.0
 30
0.0
210
0.0
220
0.0
230
1.0
  2
SOLID
 70
     1
 71
     0
 91
        1
 92
        1
 93
        1
 72
     4
 94
        3
 73
     0
 74
     0
 95
       14
 96
       10
 40
0.0
 40
0.0
 40
0.0
 40
0.0
 40
1.0
 40
1.0
 40
1.0
 40
2.0
 40
2.0
 40
2.0
 40
3.0
 40
3.0
 40
3.0
 40
3.0
 10
-1.056438530815972
 20
-1.472089301215278
 10
-1.056438530815972
 20
-1.472089301215278
 10
-0.8046020507812499
 20
-1.672938368055555
 10
1.056438530815972
 20
1.765266927083333
 10
-0.7887546115451388
 20
-1.672938368055555
 10
-0.5052232530381944
 20
-1.765266927083333
 10
-0.5052232530381944
 20
-1.765266927083333
 10
-0.5052232530381944
 20
-1.765266927083333
 10
-1.056438530815972
 20
-1.472089301215278
 10
-1.056438530815972
 20
-1.472089301215278
 97
        0
 97
        0
 75
     0
 76
     1
 98
        1
 10
0.0
 20
0.0
  0
ENDBLK
  5
4C
330
48
100
AcDbEntity
  8
LAYER_1
100
AcDbBlockEnd
  0
BLOCK
  5
4F
330
4D
100
AcDbEntity
  8
LAYER_1
 62
     7
100
AcDbBlockBegin
  2
AI9-BLK4
 70
     0
 10
0.0
 20
0.0
 30
0.0
  3
AI9-BLK4
  1

  0
HATCH
  5
50
330
4D
100
AcDbEntity
  8
LAYER_1
 62
     7
100
AcDbHatch
 10
0.0
 20
0.0
 30
0.0
210
0.0
220
0.0
230
1.0
  2
SOLID
 70
     1
 71
     0
 91
        1
 92
        1
 93
        1
 72
     4
 94
        3
 73
     0
 74
     0
 95
       14
 96
       10
 40
0.0
 40
0.0
 40
0.0
 40
0.0
 40
1.0
 40
1.0
 40
1.0
 40
2.0
 40
2.0
 40
2.0
 40
3.0
 40
3.0
 40
3.0
 40
3.0
 10
-1.056438530815972
 20
-1.468988715277778
 10
-1.056438530815972
 20
-1.468988715277778
 10
-0.80150146484375
 20
-1.672938368055555
 10
1.056438530815972
 20
1.762166341145833
 10
-0.7856540256076389
 20
-1.672938368055555
 10
-0.5052232530381944
 20
-1.762166341145833
 10
-0.5052232530381944
 20
-1.762166341145833
 10
-0.5052232530381944
 20
-1.762166341145833
 10
-1.056438530815972
 20
-1.468988715277778
 10
-1.056438530815972
 20
-1.468988715277778
 97
        0
 97
        0
 75
     0
 76
     1
 98
        1
 10
0.0
 20
0.0
  0
ENDBLK
  5
51
330
4D
100
AcDbEntity
  8
LAYER_1
100
AcDbBlockEnd
  0
BLOCK
  5
54
330
52
100
AcDbEntity
  8
LAYER_1
 62
     7
100
AcDbBlockBegin
  2
AI9-BLK5
 70
     0
 10
0.0
 20
0.0
 30
0.0
  3
AI9-BLK5
  1

  0
HATCH
  5
55
330
52
100
AcDbEntity
  8
LAYER_1
 62
     7
100
AcDbHatch
 10
0.0
 20
0.0
 30
0.0
210
0.0
220
0.0
230
1.0
  2
SOLID
 70
     1
 71
     0
 91
        1
 92
        1
 93
        1
 72
     4
 94
        3
 73
     0
 74
     0
 95
       14
 96
       10
 40
0.0
 40
0.0
 40
0.0
 40
0.0
 40
1.0
 40
1.0
 40
1.0
 40
2.0
 40
2.0
 40
2.0
 40
3.0
 40
3.0
 40
3.0
 40
3.0
 10
-1.188557942708333
 20
-1.354267035590278
 10
-1.188557942708333
 20
-1.354267035590278
 10
-0.9463677300347222
 20
-1.587155490451389
 10
1.188557942708333
 20
1.695331488715278
 10
-0.9401665581597222
 20
-1.580609809027778
 10
-0.6628363715277777
 20
-1.695331488715278
 10
-0.6628363715277777
 20
-1.695331488715278
 10
-0.6628363715277777
 20
-1.695331488715278
 10
-1.188557942708333
 20
-1.354267035590278
 10
-1.188557942708333
 20
-1.354267035590278
 97
        0
 97
        0
 75
     0
 76
     1
 98
        1
 10
0.0
 20
0.0
  0
ENDBLK
  5
56
330
52
100
AcDbEntity
  8
LAYER_1
100
AcDbBlockEnd
  0
BLOCK
  5
59
330
57
100
AcDbEntity
  8
LAYER_1
 62
     7
100
AcDbBlockBegin
  2
AI9-BLK6
 70
     0
 10
0.0
 20
0.0
 30
0.0
  3
AI9-BLK6
  1

  0
HATCH
  5
5A
330
57
100
AcDbEntity
  8
LAYER_1
 62
     7
100
AcDbHatch
 10
0.0
 20
0.0
 30
0.0
210
0.0
220
0.0
230
1.0
  2
SOLID
 70
     1
 71
     0
 91
        1
 92
        1
 93
        1
 72
     4
 94
        3
 73
     0
 74
     0
 95
       14
 96
       10
 40
0.0
 40
0.0
 40
0.0
 40
0.0
 40
1.0
 40
1.0
 40
1.0
 40
2.0
 40
2.0
 40
2.0
 40
3.0
 40
3.0
 40
3.0
 40
3.0
 10
-1.234894476996528
 20
-1.308102756076389
 10
-1.234894476996528
 20
-1.308102756076389
 10
-0.9958048502604165
 20
-1.544091796875
 10
1.234894476996528
 20
1.6650146484375
 10
-0.9927042643229166
 20
-1.537546115451389
 10
-0.7153740776909722
 20
-1.6650146484375
 10
-0.7153740776909722
 20
-1.6650146484375
 10
-0.7153740776909722
 20
-1.6650146484375
 10
-1.234894476996528
 20
-1.308102756076389
 10
-1.234894476996528
 20
-1.308102756076389
 97
        0
 97
        0
 75
     0
 76
     1
 98
        1
 10
0.0
 20
0.0
  0
ENDBLK
  5
5B
330
57
100
AcDbEntity
  8
LAYER_1
100
AcDbBlockEnd
  0
BLOCK
  5
5E
330
5C
100
AcDbEntity
  8
LAYER_1
 62
     7
100
AcDbBlockBegin
  2
AI9-BLK7
 70
     0
 10
0.0
 20
0.0
 30
0.0
  3
AI9-BLK7
  1

  0
HATCH
  5
5F
330
5C
100
AcDbEntity
  8
LAYER_1
 62
     7
100
AcDbHatch
 10
0.0
 20
0.0
 30
0.0
210
0.0
220
0.0
230
1.0
  2
SOLID
 70
     1
 71
     0
 91
        1
 92
        1
 93
        1
 72
     4
 94
        3
 73
     0
 74
     0
 95
       14
 96
       10
 40
0.0
 40
0.0
 40
0.0
 40
0.0
 40
1.0
 40
1.0
 40
1.0
 40
2.0
 40
2.0
 40
2.0
 40
3.0
 40
3.0
 40
3.0
 40
3.0
 10
-0.4494127061631944
 20
-0.4206461588541666
 10
-0.4494127061631944
 20
-0.4206461588541666
 10
-0.16898193359375
 20
-0.5291666666666666
 10
0.4494127061631944
 20
0.7076226128472222
 10
-0.16898193359375
 20
-0.5736083984375
 10
0.1114488389756944
 20
-0.7076226128472222
 10
0.1052476671006944
 20
-0.7076226128472222
 10
0.1052476671006944
 20
-0.7076226128472222
 10
-0.4494127061631944
 20
-0.4206461588541666
 10
-0.4494127061631944
 20
-0.4206461588541666
 97
        0
 97
        0
 75
     0
 76
     1
 98
        1
 10
0.0
 20
0.0
  0
ENDBLK
  5
60
330
5C
100
AcDbEntity
  8
LAYER_1
100
AcDbBlockEnd
  0
BLOCK
  5
63
330
61
100
AcDbEntity
  8
LAYER_1
 62
     7
100
AcDbBlockBegin
  2
AI9-BLK8
 70
     0
 10
0.0
 20
0.0
 30
0.0
  3
AI9-BLK8
  1

  0
HATCH
  5
64
330
61
100
AcDbEntity
  8
LAYER_1
 62
     7
100
AcDbHatch
 10
0.0
 20
0.0
 30
0.0
210
0.0
220
0.0
230
1.0
  2
SOLID
 70
     1
 71
     0
 91
        1
 92
        1
 93
        1
 72
     4
 94
        3
 73
     0
 74
     0
 95
       14
 96
       10
 40
0.0
 40
0.0
 40
0.0
 40
0.0
 40
1.0
 40
1.0
 40
1.0
 40
2.0
 40
2.0
 40
2.0
 40
3.0
 40
3.0
 40
3.0
 40
3.0
 10
-0.5817043728298611
 20
-0.0780314127604167
 10
-0.584804958767361
 20
-0.0780314127604167
 10
-0.4125501844618055
 20
-0.2819810655381944
 10
0.5817043728298611
 20
0.5496649848090277
 10
-0.3901570638020833
 20
-0.3522610134548611
 10
-0.1703599717881944
 20
-0.5562106662326388
 10
-0.1703599717881944
 20
-0.5496649848090277
 10
-0.1703599717881944
 20
-0.5496649848090277
 10
-0.5817043728298611
 20
-0.0780314127604167
 10
-0.5817043728298611
 20
-0.0780314127604167
 97
        0
 97
        0
 75
     0
 76
     1
 98
        1
 10
0.0
 20
0.0
  0
ENDBLK
  5
65
330
61
100
AcDbEntity
  8
LAYER_1
100
AcDbBlockEnd
  0
BLOCK
  5
68
330
66
100
AcDbEntity
  8
LAYER_1
 62
     7
100
AcDbBlockBegin
  2
AI9-BLK9
 70
     0
 10
0.0
 20
0.0
 30
0.0
  3
AI9-BLK9
  1

  0
HATCH
  5
69
330
66
100
AcDbEntity
  8
LAYER_1
 62
     7
100
AcDbHatch
 10
0.0
 20
0.0
 30
0.0
210
0.0
220
0.0
230
1.0
  2
SOLID
 70
     1
 71
     0
 91
        1
 92
        1
 93
        1
 72
     4
 94
        3
 73
     0
 74
     0
 95
       14
 96
       10
 40
0.0
 40
0.0
 40
0.0
 40
0.0
 40
1.0
 40
1.0
 40
1.0
 40
2.0
 40
2.0
 40
2.0
 40
3.0
 40
3.0
 40
3.0
 40
3.0
 10
-0.4366658528645833
 20
-0.40772705078125
 10
-0.4397664388020833
 20
-0.4111721462673611
 10
-0.1848293728298611
 20
-0.51934814453125
 10
0.4366658528645833
 20
0.6278686523437499
 10
-0.1403876410590278
 20
-0.5834269205729166
 10
0.1944756401909722
 20
-0.634414333767361
 10
0.1910305447048611
 20
-0.6278686523437499
 10
0.1910305447048611
 20
-0.6278686523437499
 10
-0.4366658528645833
 20
-0.40772705078125
 10
-0.4366658528645833
 20
-0.40772705078125
 97
        0
 97
        0
 75
     0
 76
     1
 98
        1
 10
0.0
 20
0.0
  0
ENDBLK
  5
6A
330
66
100
AcDbEntity
  8
LAYER_1
100
AcDbBlockEnd
  0
ENDSEC
  0
SECTION
  2
ENTITIES
  0
LINE
  5
EB
330
A
100
AcDbEntity
  8
LAYER_1
 62
   230
100
AcDbLine
 10
-548.856421
 20
1090.272125
 30
0.0
 11
-548.856421
 21
-832.796023
 31
0.0
  0
LINE
  5
EA
330
A
100
AcDbEntity
  8
LAYER_1
 62
   230
100
AcDbLine
 10
-392.305425
 20
1090.272125
 30
0.0
 11
-392.305425
 21
-832.796023
 31
0.0
  0
LINE
  5
E9
330
A
100
AcDbEntity
  8
LAYER_1
 62
   230
100
AcDbLine
 10
-235.75753
 20
1090.272125
 30
0.0
 11
-235.75753
 21
-832.796023
 31
0.0
  0
LINE
  5
E8
330
A
100
AcDbEntity
  8
LAYER_1
 62
   230
100
AcDbLine
 10
-79.20619
 20
1090.272125
 30
0.0
 11
-79.20619
 21
-832.796023
 31
0.0
  0
LINE
  5
E7
330
A
100
AcDbEntity
  8
LAYER_1
 62
   230
100
AcDbLine
 10
77.344805
 20
1090.272125
 30
0.0
 11
77.344805
 21
-832.796023
 31
0.0
  0
LINE
  5
E6
330
A
100
AcDbEntity
  8
LAYER_1
 62
   230
100
AcDbLine
 10
233.899246
 20
1090.272125
 30
0.0
 11
233.899246
 21
-832.796023
 31
0.0
  0
LINE
  5
E5
330
A
100
AcDbEntity
  8
LAYER_1
 62
   230
100
AcDbLine
 10
390.450241
 20
1090.272125
 30
0.0
 11
390.450241
 21
-832.796023
 31
0.0
  0
LINE
  5
E4
330
A
100
AcDbEntity
  8
LAYER_1
 62
   230
100
AcDbLine
 10
547.001581
 20
1090.272125
 30
0.0
 11
547.001581
 21
-832.796023
 31
0.0
  0
LINE
  5
E3
330
A
100
AcDbEntity
  8
LAYER_1
 62
   230
100
AcDbLine
 10
703.552577
 20
1090.272125
 30
0.0
 11
703.552577
 21
-832.796023
 31
0.0
  0
LINE
  5
E2
330
A
100
AcDbEntity
  8
LAYER_1
 62
   230
100
AcDbLine
 10
860.103573
 20
1090.272125
 30
0.0
 11
860.103573
 21
-832.796023
 31
0.0
  0
LINE
  5
E1
330
A
100
AcDbEntity
  8
LAYER_1
 62
   230
100
AcDbLine
 10
-595.826164
 20
-833.05096
 30
0.0
 11
898.152585
 21
-833.057161
 31
0.0
  0
LINE
  5
E0
330
A
100
AcDbEntity
  8
LAYER_1
 62
   230
100
AcDbLine
 10
-595.826164
 20
-676.503065
 30
0.0
 11
898.152585
 21
-676.503065
 31
0.0
  0
LINE
  5
DF
330
A
100
AcDbEntity
  8
LAYER_1
 62
   230
100
AcDbLine
 10
-595.826164
 20
-519.948625
 30
0.0
 11
898.152585
 21
-519.948625
 31
0.0
  0
LINE
  5
DE
330
A
100
AcDbEntity
  8
LAYER_1
 62
   230
100
AcDbLine
 10
-595.826164
 20
-363.397285
 30
0.0
 11
898.152585
 21
-363.40073
 31
0.0
  0
LINE
  5
DD
330
A
100
AcDbEntity
  8
LAYER_1
 62
   230
100
AcDbLine
 10
-595.826164
 20
-206.846289
 30
0.0
 11
898.152585
 21
-206.84939
 31
0.0
  0
LINE
  5
DC
330
A
100
AcDbEntity
  8
LAYER_1
 62
   230
100
AcDbLine
 10
-595.826164
 20
-50.291848
 30
0.0
 11
898.152585
 21
-50.298394
 31
0.0
  0
LINE
  5
DB
330
A
100
AcDbEntity
  8
LAYER_1
 62
   230
100
AcDbLine
 10
-595.826164
 20
106.256047
 30
0.0
 11
898.152585
 21
106.249501
 31
0.0
  0
LINE
  5
DA
330
A
100
AcDbEntity
  8
LAYER_1
 62
   230
100
AcDbLine
 10
-595.826164
 20
262.810487
 30
0.0
 11
898.152585
 21
262.803942
 31
0.0
  0
LINE
  5
D9
330
A
100
AcDbEntity
  8
LAYER_1
 62
   230
100
AcDbLine
 10
-595.826164
 20
419.358382
 30
0.0
 11
898.152585
 21
419.358382
 31
0.0
  0
LINE
  5
D8
330
A
100
AcDbEntity
  8
LAYER_1
 62
   230
100
AcDbLine
 10
-595.826164
 20
575.912478
 30
0.0
 11
898.152585
 21
575.906277
 31
0.0
  0
LINE
  5
D7
330
A
100
AcDbEntity
  8
LAYER_1
 62
   230
100
AcDbLine
 10
-595.826164
 20
732.463818
 30
0.0
 11
898.152585
 21
732.463818
 31
0.0
  0
LINE
  5
D6
330
A
100
AcDbEntity
  8
LAYER_1
 62
   230
100
AcDbLine
 10
-595.826164
 20
889.018259
 30
0.0
 11
898.152585
 21
889.011713
 31
0.0
  0
LINE
  5
D5
330
A
100
AcDbEntity
  8
LAYER_1
 62
   230
100
AcDbLine
 10
-595.826164
 20
1045.566154
 30
0.0
 11
898.152585
 21
1045.563053
 31
0.0
  0
MTEXT
  5
D4
330
A
100
AcDbEntity
  8
LAYER_1
 62
     7
100
AcDbMText
 10
-677.162629
 20
-815.510105
 30
0.0
 40
30.816531
 41
0.0
 46
0.0
 71
     1
 72
     2
  1
\W1.00;\fMyriad Roman|b0|i0;200
  7
STD
 73
     1
 44
1.0
  0
MTEXT
  5
D3
330
A
100
AcDbEntity
  8
LAYER_1
 62
     7
100
AcDbMText
 10
-677.162629
 20
-658.92397
 30
0.0
 40
30.816531
 41
0.0
 46
0.0
 71
     1
 72
     2
  1
\W1.00;\fMyriad Roman|b0|i0;210
  7
STD
 73
     1
 44
1.0
  0
MTEXT
  5
D2
330
A
100
AcDbEntity
  8
LAYER_1
 62
     7
100
AcDbMText
 10
-677.162629
 20
-502.33749
 30
0.0
 40
30.816531
 41
0.0
 46
0.0
 71
     1
 72
     2
  1
\W1.00;\fMyriad Roman|b0|i0;220
  7
STD
 73
     1
 44
1.0
  0
MTEXT
  5
D1
330
A
100
AcDbEntity
  8
LAYER_1
 62
     7
100
AcDbMText
 10
-677.162629
 20
-345.748254
 30
0.0
 40
30.816531
 41
0.0
 46
0.0
 71
     1
 72
     2
  1
\W1.00;\fMyriad Roman|b0|i0;230
  7
STD
 73
     1
 44
1.0
  0
MTEXT
  5
D0
330
A
100
AcDbEntity
  8
LAYER_1
 62
     7
100
AcDbMText
 10
-677.162629
 20
-189.165219
 30
0.0
 40
30.816531
 41
0.0
 46
0.0
 71
     1
 72
     2
  1
\W1.00;\fMyriad Roman|b0|i0;240
  7
STD
 73
     1
 44
1.0
  0
MTEXT
  5
CF
330
A
100
AcDbEntity
  8
LAYER_1
 62
     7
100
AcDbMText
 10
-677.162629
 20
-32.575638
 30
0.0
 40
30.816531
 41
0.0
 46
0.0
 71
     1
 72
     2
  1
\W1.00;\fMyriad Roman|b0|i0;250
  7
STD
 73
     1
 44
1.0
  0
MTEXT
  5
CE
330
A
100
AcDbEntity
  8
LAYER_1
 62
     7
100
AcDbMText
 10
-677.162629
 20
124.010498
 30
0.0
 40
30.816531
 41
0.0
 46
0.0
 71
     1
 72
     2
  1
\W1.00;\fMyriad Roman|b0|i0;260
  7
STD
 73
     1
 44
1.0
  0
MTEXT
  5
CD
330
A
100
AcDbEntity
  8
LAYER_1
 62
     7
100
AcDbMText
 10
-677.162629
 20
280.599734
 30
0.0
 40
30.816531
 41
0.0
 46
0.0
 71
     1
 72
     2
  1
\W1.00;\fMyriad Roman|b0|i0;270
  7
STD
 73
     1
 44
1.0
  0
MTEXT
  5
CC
330
A
100
AcDbEntity
  8
LAYER_1
 62
     7
100
AcDbMText
 10
-677.162629
 20
437.186214
 30
0.0
 40
30.816531
 41
0.0
 46
0.0
 71
     1
 72
     2
  1
\W1.00;\fMyriad Roman|b0|i0;280
  7
STD
 73
     1
 44
1.0
  0
MTEXT
  5
CB
330
A
100
AcDbEntity
  8
LAYER_1
 62
     7
100
AcDbMText
 10
-677.162629
 20
593.772349
 30
0.0
 40
30.816531
 41
0.0
 46
0.0
 71
     1
 72
     2
  1
\W1.00;\fMyriad Roman|b0|i0;290
  7
STD
 73
     1
 44
1.0
  0
MTEXT
  5
CA
330
A
100
AcDbEntity
  8
LAYER_1
 62
     7
100
AcDbMText
 10
-677.162629
 20
750.352284
 30
0.0
 40
30.816531
 41
0.0
 46
0.0
 71
     1
 72
     2
  1
\W1.00;\fMyriad Roman|b0|i0;300
  7
STD
 73
     1
 44
1.0
  0
MTEXT
  5
C9
330
A
100
AcDbEntity
  8
LAYER_1
 62
     7
100
AcDbMText
 10
-677.162629
 20
906.94152
 30
0.0
 40
30.816531
 41
0.0
 46
0.0
 71
     1
 72
     2
  1
\W1.00;\fMyriad Roman|b0|i0;310
  7
STD
 73
     1
 44
1.0
  0
MTEXT
  5
C8
330
A
100
AcDbEntity
  8
LAYER_1
 62
     7
100
AcDbMText
 10
-677.162629
 20
1063.530756
 30
0.0
 40
30.816531
 41
0.0
 46
0.0
 71
     1
 72
     2
  1
\W1.00;\fMyriad Roman|b0|i0;320
  7
STD
 73
     1
 44
1.0
  0
MTEXT
  5
C7
330
A
100
AcDbEntity
  8
LAYER_1
 62
     7
100
AcDbMText
 10
-581.331613
 20
1149.449715
 30
0.0
 40
30.816531
 41
0.0
 46
0.0
 71
     1
 72
     2
  1
\W1.00;\fMyriad Roman|b0|i0;730
  7
STD
 73
     1
 44
1.0
  0
MTEXT
  5
C6
330
A
100
AcDbEntity
  8
LAYER_1
 62
     7
100
AcDbMText
 10
-425.078619
 20
1149.449715
 30
0.0
 40
30.816531
 41
0.0
 46
0.0
 71
     1
 72
     2
  1
\W1.00;\fMyriad Roman|b0|i0;740
  7
STD
 73
     1
 44
1.0
  0
MTEXT
  5
C5
330
A
100
AcDbEntity
  8
LAYER_1
 62
     7
100
AcDbMText
 10
-268.828725
 20
1149.449715
 30
0.0
 40
30.816531
 41
0.0
 46
0.0
 71
     1
 72
     2
  1
\W1.00;\fMyriad Roman|b0|i0;750
  7
STD
 73
     1
 44
1.0
  0
MTEXT
  5
C4
330
A
100
AcDbEntity
  8
LAYER_1
 62
     7
100
AcDbMText
 10
-112.575385
 20
1149.449715
 30
0.0
 40
30.816531
 41
0.0
 46
0.0
 71
     1
 72
     2
  1
\W1.00;\fMyriad Roman|b0|i0;760
  7
STD
 73
     1
 44
1.0
  0
MTEXT
  5
C3
330
A
100
AcDbEntity
  8
LAYER_1
 62
     7
100
AcDbMText
 10
43.674509
 20
1149.446614
 30
0.0
 40
30.816531
 41
0.0
 46
0.0
 71
     1
 72
     2
  1
\W1.00;\fMyriad Roman|b0|i0;770
  7
STD
 73
     1
 44
1.0
  0
MTEXT
  5
C2
330
A
100
AcDbEntity
  8
LAYER_1
 62
     7
100
AcDbMText
 10
199.929226
 20
1149.446614
 30
0.0
 40
30.816531
 41
0.0
 46
0.0
 71
     1
 72
     2
  1
\W1.00;\fMyriad Roman|b0|i0;780
  7
STD
 73
     1
 44
1.0
  0
MTEXT
  5
C1
330
A
100
AcDbEntity
  8
LAYER_1
 62
     7
100
AcDbMText
 10
356.180843
 20
1149.446614
 30
0.0
 40
30.816531
 41
0.0
 46
0.0
 71
     1
 72
     2
  1
\W1.00;\fMyriad Roman|b0|i0;790
  7
STD
 73
     1
 44
1.0
  0
MTEXT
  5
C0
330
A
100
AcDbEntity
  8
LAYER_1
 62
     7
100
AcDbMText
 10
512.43556
 20
1149.446614
 30
0.0
 40
30.816531
 41
0.0
 46
0.0
 71
     1
 72
     2
  1
\W1.00;\fMyriad Roman|b0|i0;800
  7
STD
 73
     1
 44
1.0
  0
MTEXT
  5
BF
330
A
100
AcDbEntity
  8
LAYER_1
 62
     7
100
AcDbMText
 10
668.687177
 20
1149.446614
 30
0.0
 40
30.816531
 41
0.0
 46
0.0
 71
     1
 72
     2
  1
\W1.00;\fMyriad Roman|b0|i0;810
  7
STD
 73
     1
 44
1.0
  0
MTEXT
  5
BE
330
A
100
AcDbEntity
  8
LAYER_1
 62
     7
100
AcDbMText
 10
824.942239
 20
1149.446614
 30
0.0
 40
30.816531
 41
0.0
 46
0.0
 71
     1
 72
     2
  1
\W1.00;\fMyriad Roman|b0|i0;820
  7
STD
 73
     1
 44
1.0
  0
SPLINE
  5
BD
330
A
100
AcDbEntity
  8
LAYER_1
 62
     7
100
AcDbSpline
210
0.0
220
0.0
230
1.0
 70
     8
 71
     3
 72
    11
 73
     7
 74
     0
 42
0.000000001
 43
0.00000001
 40
0.0
 40
0.0
 40
0.0
 40
0.0
 40
1.0
 40
1.0
 40
1.0
 40
2.0
 40
2.0
 40
2.0
 40
2.0
 10
342.3284586588541
 20
643.5369466145833
 30
0.0
 10
342.3319037543403
 20
642.6412217881943
 30
0.0
 10
342.1913438585069
 20
642.1540852864583
 30
0.0
 10
342.1913438585069
 20
641.2583604600694
 30
0.0
 10
342.0004855685764
 20
641.2583604600694
 30
0.0
 10
341.8985107421875
 20
641.2966010199652
 30
0.0
 10
341.7007622612847
 20
641.3286404079861
 30
0.0
  0
SPLINE
  5
BC
330
A
100
AcDbEntity
  8
LAYER_1
 62
     7
100
AcDbSpline
210
0.0
220
0.0
230
1.0
 70
     8
 71
     3
 72
    14
 73
    10
 74
     0
 42
0.000000001
 43
0.00000001
 40
0.0
 40
0.0
 40
0.0
 40
0.0
 40
1.0
 40
1.0
 40
1.0
 40
2.0
 40
2.0
 40
2.0
 40
3.0
 40
3.0
 40
3.0
 40
3.0
 10
340.5473442925347
 20
638.9770182291666
 30
0.0
 10
341.0186333550347
 20
639.0280056423611
 30
0.0
 10
341.3183566623264
 20
639.0628011067707
 30
0.0
 10
341.7710422092014
 20
638.9770182291666
 30
0.0
 10
341.7675971137152
 20
639.6777506510416
 30
0.0
 10
341.9780924479167
 20
640.06015625
 30
0.0
 10
341.9749918619792
 20
640.758132595486
 30
0.0
 10
341.9749918619792
 20
641.0737033420138
 30
0.0
 10
341.6273817274305
 20
641.1246907552082
 30
0.0
 10
341.3469509548611
 20
641.2456136067708
 30
0.0
  0
SPLINE
  5
BB
330
A
100
AcDbEntity
  8
LAYER_1
 62
     7
100
AcDbSpline
210
0.0
220
0.0
230
1.0
 70
     8
 71
     3
 72
    26
 73
    22
 74
     0
 42
0.000000001
 43
0.00000001
 40
0.0
 40
0.0
 40
0.0
 40
0.0
 40
1.0
 40
1.0
 40
1.0
 40
2.0
 40
2.0
 40
2.0
 40
3.0
 40
3.0
 40
3.0
 40
4.0
 40
4.0
 40
4.0
 40
5.0
 40
5.0
 40
5.0
 40
6.0
 40
6.0
 40
6.0
 40
7.0
 40
7.0
 40
7.0
 40
7.0
 10
342.2585232204861
 20
642.2781087239583
 30
0.0
 10
342.6791693793402
 20
642.2781087239583
 30
0.0
 10
343.0488281249999
 20
642.5075520833333
 30
0.0
 10
343.3451063368055
 20
642.2078287760417
 30
0.0
 10
343.9411078559028
 20
641.612171766493
 30
0.0
 10
343.39609375
 20
640.9141954210069
 30
0.0
 10
343.4884223090277
 20
640.0729031032986
 30
0.0
 10
343.5934977213541
 20
639.0438530815971
 30
0.0
 10
344.1226643880208
 20
638.5208875868055
 30
0.0
 10
344.1226643880208
 20
637.4918375651041
 30
0.0
 10
344.1226643880208
 20
637.2434461805555
 30
0.0
 10
344.1226643880208
 20
637.1221788194443
 30
0.0
 10
344.1226643880208
 20
636.8799886067708
 30
0.0
 10
343.3196126302083
 20
636.8575954861111
 30
0.0
 10
342.8669270833333
 20
636.8734429253471
 30
0.0
 10
342.0607747395833
 20
636.8734429253471
 30
0.0
 10
341.9205593532986
 20
636.8734429253471
 30
0.0
 10
341.8854193793402
 20
637.0456976996527
 30
0.0
 10
341.7486490885416
 20
637.0456976996527
 30
0.0
 10
341.624281141493
 20
637.0456976996527
 30
0.0
 10
341.5350531684027
 20
636.9437228732638
 30
0.0
 10
341.4299777560764
 20
636.905482313368
 30
0.0
  0
SPLINE
  5
BA
330
A
100
AcDbEntity
  8
LAYER_1
 62
     7
100
AcDbSpline
210
0.0
220
0.0
230
1.0
 70
     8
 71
     3
 72
    23
 73
    19
 74
     0
 42
0.000000001
 43
0.00000001
 40
0.0
 40
0.0
 40
0.0
 40
0.0
 40
1.0
 40
1.0
 40
1.0
 40
2.0
 40
2.0
 40
2.0
 40
3.0
 40
3.0
 40
3.0
 40
4.0
 40
4.0
 40
4.0
 40
5.0
 40
5.0
 40
5.0
 40
6.0
 40
6.0
 40
6.0
 40
6.0
 10
340.4643174913194
 20
638.6614474826388
 30
0.0
 10
340.6968614366319
 20
638.6359537760416
 30
0.0
 10
340.818128797743
 20
638.6518012152777
 30
0.0
 10
341.053773328993
 20
638.6614474826388
 30
0.0
 10
341.0951144748263
 20
638.3841172960069
 30
0.0
 10
341.053773328993
 20
638.240456814236
 30
0.0
 10
341.053773328993
 20
637.9634711371527
 30
0.0
 10
341.0572184244791
 20
637.3929633246527
 30
0.0
 10
341.0251790364583
 20
637.0329508463541
 30
0.0
 10
340.7798882378472
 20
636.5230767144096
 30
0.0
 10
340.6779134114583
 20
636.3063802083333
 30
0.0
 10
340.6779134114583
 20
636.0035563151041
 30
0.0
 10
340.4357231987847
 20
636.0035563151041
 30
0.0
 10
340.3210015190972
 20
636.0035563151041
 30
0.0
 10
340.2700141059028
 20
636.105531141493
 30
0.0
 10
340.1583930121528
 20
636.105531141493
 30
0.0
 10
340.0977593315972
 20
636.105531141493
 30
0.0
 10
340.0819118923611
 20
636.045241970486
 30
0.0
 10
340.0212782118055
 20
636.0386962890624
 30
0.0
  0
SPLINE
  5
B9
330
A
100
AcDbEntity
  8
LAYER_1
 62
     7
100
AcDbSpline
210
0.0
220
0.0
230
1.0
 70
     8
 71
     3
 72
    11
 73
     7
 74
     0
 42
0.000000001
 43
0.00000001
 40
0.0
 40
0.0
 40
0.0
 40
0.0
 40
1.0
 40
1.0
 40
1.0
 40
2.0
 40
2.0
 40
2.0
 40
2.0
 10
341.8409776475694
 20
639.9774739583332
 30
0.0
 10
341.9460530598958
 20
639.8689534505207
 30
0.0
 10
342.01943359375
 20
639.7797254774305
 30
0.0
 10
342.01943359375
 20
639.6302083333333
 30
0.0
 10
342.01943359375
 20
638.8302571614582
 30
0.0
 10
341.8792182074653
 20
638.1291802300346
 30
0.0
 10
341.1557481553819
 20
637.76572265625
 30
0.0
  0
SPLINE
  5
B8
330
A
100
AcDbEntity
  8
LAYER_1
 62
     7
100
AcDbSpline
210
0.0
220
0.0
230
1.0
 70
     8
 71
     3
 72
    20
 73
    16
 74
     0
 42
0.000000001
 43
0.00000001
 40
0.0
 40
0.0
 40
0.0
 40
0.0
 40
1.0
 40
1.0
 40
1.0
 40
2.0
 40
2.0
 40
2.0
 40
3.0
 40
3.0
 40
3.0
 40
4.0
 40
4.0
 40
4.0
 40
5.0
 40
5.0
 40
5.0
 40
5.0
 10
339.8493679470486
 20
634.8628851996527
 30
0.0
 10
340.0850124782986
 20
634.9235188802082
 30
0.0
 10
340.2159261067708
 20
634.9679606119792
 30
0.0
 10
340.4546712239583
 20
634.9679606119792
 30
0.0
 10
340.4546712239583
 20
634.9679606119792
 30
0.0
 10
340.4515706380208
 20
635.4843804253471
 30
0.0
 10
340.4515706380208
 20
635.4843804253471
 30
0.0
 10
340.1773410373264
 20
635.4843804253471
 30
0.0
 10
340.0212782118055
 20
635.5446695963541
 30
0.0
 10
339.7442925347222
 20
635.5863552517361
 30
0.0
 10
340.0212782118055
 20
635.5798095703125
 30
0.0
 10
340.253822157118
 20
635.5222764756944
 30
0.0
 10
340.53115234375
 20
635.5222764756944
 30
0.0
 10
341.5829399956597
 20
635.5222764756944
 30
0.0
 10
341.1206081814236
 20
637.0649902343749
 30
0.0
 10
341.5350531684027
 20
638.0399522569444
 30
0.0
  0
SPLINE
  5
B7
330
A
100
AcDbEntity
  8
LAYER_1
 62
     7
100
AcDbSpline
210
0.0
220
0.0
230
1.0
 70
     8
 71
     3
 72
    17
 73
    13
 74
     0
 42
0.000000001
 43
0.00000001
 40
0.0
 40
0.0
 40
0.0
 40
0.0
 40
1.0
 40
1.0
 40
1.0
 40
2.0
 40
2.0
 40
2.0
 40
3.0
 40
3.0
 40
3.0
 40
4.0
 40
4.0
 40
4.0
 40
4.0
 10
339.8845079210069
 20
634.6237955729166
 30
0.0
 10
339.8845079210069
 20
634.6237955729166
 30
0.0
 10
340.3368489583333
 20
634.6299967447916
 30
0.0
 10
340.3368489583333
 20
634.6299967447916
 30
0.0
 10
340.3433946397569
 20
634.5345675998263
 30
0.0
 10
340.3688883463541
 20
634.4739339192707
 30
0.0
 10
340.3688883463541
 20
634.381605360243
 30
0.0
 10
340.3688883463541
 20
633.865185546875
 30
0.0
 10
340.2986083984375
 20
633.5592610677082
 30
0.0
 10
340.2669135199653
 20
633.0431857638888
 30
0.0
 10
340.024378797743
 20
633.068679470486
 30
0.0
 10
339.8876085069444
 20
633.0493869357638
 30
0.0
 10
339.6485188802083
 20
633.0335394965277
 30
0.0
  0
SPLINE
  5
B6
330
A
100
AcDbEntity
  8
LAYER_1
 62
     7
100
AcDbSpline
210
0.0
220
0.0
230
1.0
 70
    11
 71
     3
 72
    23
 73
    19
 74
     0
 42
0.000000001
 43
0.00000001
 40
0.0
 40
0.0
 40
0.0
 40
0.0
 40
1.0
 40
1.0
 40
1.0
 40
2.0
 40
2.0
 40
2.0
 40
3.0
 40
3.0
 40
3.0
 40
4.0
 40
4.0
 40
4.0
 40
5.0
 40
5.0
 40
5.0
 40
6.0
 40
6.0
 40
6.0
 40
6.0
 10
341.9205593532986
 20
636.0769368489583
 30
0.0
 10
341.789990234375
 20
636.0927842881944
 30
0.0
 10
341.7104085286458
 20
636.1086317274305
 30
0.0
 10
341.5829399956597
 20
636.1086317274305
 30
0.0
 10
341.1240532769097
 20
636.1086317274305
 30
0.0
 10
340.8498236762152
 20
635.6435438368055
 30
0.0
 10
340.8498236762152
 20
635.1846571180555
 30
0.0
 10
340.8532687717014
 20
634.5886555989583
 30
0.0
 10
340.8691162109375
 20
634.2475911458333
 30
0.0
 10
340.8691162109375
 20
633.6550347222221
 30
0.0
 10
340.9390516493055
 20
633.6677815755207
 30
0.0
 10
340.983837890625
 20
633.6550347222221
 30
0.0
 10
341.053773328993
 20
633.6550347222221
 30
0.0
 10
341.8919650607639
 20
633.6550347222221
 30
0.0
 10
342.6471299913194
 20
634.2730848524305
 30
0.0
 10
342.6440294053819
 20
635.1112765842013
 30
0.0
 10
342.6440294053819
 20
635.4967827690972
 30
0.0
 10
342.1500027126736
 20
635.7648111979166
 30
0.0
 10
341.9205593532986
 20
636.0769368489583
 30
0.0
  0
SPLINE
  5
B5
330
A
100
AcDbEntity
  8
LAYER_1
 62
     7
100
AcDbSpline
210
0.0
220
0.0
230
1.0
 70
     8
 71
     3
 72
    23
 73
    19
 74
     0
 42
0.000000001
 43
0.00000001
 40
0.0
 40
0.0
 40
0.0
 40
0.0
 40
1.0
 40
1.0
 40
1.0
 40
2.0
 40
2.0
 40
2.0
 40
3.0
 40
3.0
 40
3.0
 40
4.0
 40
4.0
 40
4.0
 40
5.0
 40
5.0
 40
5.0
 40
6.0
 40
6.0
 40
6.0
 40
6.0
 10
342.4018391927083
 20
635.7296712239582
 30
0.0
 10
342.4559271918403
 20
636.0514431423611
 30
0.0
 10
342.4879665798611
 20
636.2329996744791
 30
0.0
 10
342.6088894314236
 20
636.5261773003472
 30
0.0
 10
342.9275607638888
 20
636.3446207682291
 30
0.0
 10
343.1697509765625
 20
636.3125813802083
 30
0.0
 10
343.4374348958333
 20
636.045241970486
 30
0.0
 10
343.4374348958333
 20
635.6435438368055
 30
0.0
 10
343.4405354817708
 20
635.4299479166666
 30
0.0
 10
343.4405354817708
 20
635.0316948784722
 30
0.0
 10
343.4405354817708
 20
634.8628851996527
 30
0.0
 10
343.5618028428819
 20
634.7640109592013
 30
0.0
 10
343.6444851345486
 20
634.6299967447916
 30
0.0
 10
343.571449110243
 20
634.6014024522569
 30
0.0
 10
343.5266628689236
 20
634.556960720486
 30
0.0
 10
343.4405354817708
 20
634.556960720486
 30
0.0
 10
343.0519287109375
 20
634.556960720486
 30
0.0
 10
342.8510796440972
 20
634.8022515190971
 30
0.0
 10
342.5737494574652
 20
635.0764811197917
 30
0.0
  0
SPLINE
  5
B4
330
A
100
AcDbEntity
  8
LAYER_1
 62
     7
100
AcDbSpline
210
0.0
220
0.0
230
1.0
 70
    11
 71
     3
 72
    20
 73
    16
 74
     0
 42
0.000000001
 43
0.00000001
 40
0.0
 40
0.0
 40
0.0
 40
0.0
 40
1.0
 40
1.0
 40
1.0
 40
2.0
 40
2.0
 40
2.0
 40
3.0
 40
3.0
 40
3.0
 40
4.0
 40
4.0
 40
4.0
 40
5.0
 40
5.0
 40
5.0
 40
5.0
 10
341.2005343967014
 20
633.0369845920138
 30
0.0
 10
341.0155327690972
 20
633.1834011501736
 30
0.0
 10
340.8880642361111
 20
633.3108696831597
 30
0.0
 10
340.6493191189236
 20
633.3108696831597
 30
0.0
 10
340.2348741319444
 20
633.3108696831597
 30
0.0
 10
340.4419243706597
 20
632.6862738715278
 30
0.0
 10
340.4419243706597
 20
632.2656277126736
 30
0.0
 10
340.4419243706597
 20
632.0172363281249
 30
0.0
 10
340.4674180772569
 20
631.8704752604166
 30
0.0
 10
340.4577718098958
 20
631.6217393663194
 30
0.0
 10
341.0282796223958
 20
631.6727267795138
 30
0.0
 10
341.789990234375
 20
631.6727267795138
 30
0.0
 10
341.789990234375
 20
632.2401340060763
 30
0.0
 10
341.789990234375
 20
632.5650065104167
 30
0.0
 10
341.4299777560764
 20
632.8264892578125
 30
0.0
 10
341.2005343967014
 20
633.0369845920138
 30
0.0
  0
SPLINE
  5
B3
330
A
100
AcDbEntity
  8
LAYER_1
 62
     7
100
AcDbSpline
210
0.0
220
0.0
230
1.0
 70
    11
 71
     3
 72
    23
 73
    19
 74
     0
 42
0.000000001
 43
0.00000001
 40
0.0
 40
0.0
 40
0.0
 40
0.0
 40
1.0
 40
1.0
 40
1.0
 40
2.0
 40
2.0
 40
2.0
 40
3.0
 40
3.0
 40
3.0
 40
4.0
 40
4.0
 40
4.0
 40
5.0
 40
5.0
 40
5.0
 40
6.0
 40
6.0
 40
6.0
 40
6.0
 10
343.1697509765625
 20
632.5205647786457
 30
0.0
 10
343.0646755642361
 20
632.5205647786457
 30
0.0
 10
343.0391818576389
 20
632.6321858723958
 30
0.0
 10
342.9596001519097
 20
632.6990207248264
 30
0.0
 10
342.3828911675347
 20
632.2273871527777
 30
0.0
 10
342.0990152994792
 20
631.7430067274305
 30
0.0
 10
342.0990152994792
 20
631.0036892361111
 30
0.0
 10
342.1024603949652
 20
630.6309299045138
 30
0.0
 10
342.1117621527778
 20
630.1431043836805
 30
0.0
 10
342.4814208984375
 20
630.1431043836805
 30
0.0
 10
342.9816487630208
 20
630.1431043836805
 30
0.0
 10
343.0360812717013
 20
630.7360053168402
 30
0.0
 10
343.2048909505208
 20
631.2110839843749
 30
0.0
 10
343.3513075086805
 20
631.6348307291667
 30
0.0
 10
343.6510308159722
 20
631.8322347005208
 30
0.0
 10
343.6510308159722
 20
632.2783745659722
 30
0.0
 10
343.6510308159722
 20
632.4885253906249
 30
0.0
 10
343.3737006293402
 20
632.5205647786457
 30
0.0
 10
343.1697509765625
 20
632.5205647786457
 30
0.0
  0
SPLINE
  5
B2
330
A
100
AcDbEntity
  8
LAYER_1
 62
     7
100
AcDbSpline
210
0.0
220
0.0
230
1.0
 70
     8
 71
     3
 72
    26
 73
    22
 74
     0
 42
0.000000001
 43
0.00000001
 40
0.0
 40
0.0
 40
0.0
 40
0.0
 40
1.0
 40
1.0
 40
1.0
 40
2.0
 40
2.0
 40
2.0
 40
3.0
 40
3.0
 40
3.0
 40
4.0
 40
4.0
 40
4.0
 40
5.0
 40
5.0
 40
5.0
 40
6.0
 40
6.0
 40
6.0
 40
7.0
 40
7.0
 40
7.0
 40
7.0
 10
339.9575439453125
 20
633.0335394965277
 30
0.0
 10
340.1201524522569
 20
632.9539577907985
 30
0.0
 10
340.2348741319444
 20
632.8330349392361
 30
0.0
 10
340.2348741319444
 20
632.6607801649305
 30
0.0
 10
340.2348741319444
 20
632.4568305121527
 30
0.0
 10
340.1552924262152
 20
632.3517550998263
 30
0.0
 10
340.1328993055555
 20
632.1571072048611
 30
0.0
 10
339.9416965060764
 20
632.1126654730903
 30
0.0
 10
339.83662109375
 20
632.039284939236
 30
0.0
 10
339.6485188802083
 20
632.0682237413193
 30
0.0
 10
339.8621148003472
 20
631.9276638454861
 30
0.0
 10
339.9926839192708
 20
631.7368055555555
 30
0.0
 10
339.9957845052083
 20
631.4818684895832
 30
0.0
 10
339.9957845052083
 20
631.1504503038194
 30
0.0
 10
339.8300754123264
 20
630.9719943576388
 30
0.0
 10
339.7918348524305
 20
630.6529785156249
 30
0.0
 10
339.7535942925347
 20
630.3821940104166
 30
0.0
 10
339.7218994140625
 20
630.0287272135416
 30
0.0
 10
339.4445692274305
 20
630.0287272135416
 30
0.0
 10
339.329847547743
 20
630.0287272135416
 30
0.0
 10
339.2726589626736
 20
630.0893608940971
 30
0.0
 10
339.1672390407986
 20
630.1369032118055
 30
0.0
  0
SPLINE
  5
B1
330
A
100
AcDbEntity
  8
LAYER_1
 62
     7
100
AcDbSpline
210
0.0
220
0.0
230
1.0
 70
     8
 71
     3
 72
    11
 73
     7
 74
     0
 42
0.000000001
 43
0.00000001
 40
0.0
 40
0.0
 40
0.0
 40
0.0
 40
1.0
 40
1.0
 40
1.0
 40
2.0
 40
2.0
 40
2.0
 40
2.0
 10
339.9609890407986
 20
631.239333767361
 30
0.0
 10
340.3688883463541
 20
631.0419297960069
 30
0.0
 10
340.9263047960069
 20
631.0929172092013
 30
0.0
 10
340.9263047960069
 20
630.6529785156249
 30
0.0
 10
340.929749891493
 20
629.7606987847222
 30
0.0
 10
340.3082546657986
 20
629.3527994791666
 30
0.0
 10
339.6550645616319
 20
628.7540418836805
 30
0.0
  0
SPLINE
  5
B0
330
A
100
AcDbEntity
  8
LAYER_1
 62
     7
100
AcDbSpline
210
0.0
220
0.0
230
1.0
 70
     8
 71
     3
 72
    14
 73
    10
 74
     0
 42
0.000000001
 43
0.00000001
 40
0.0
 40
0.0
 40
0.0
 40
0.0
 40
1.0
 40
1.0
 40
1.0
 40
2.0
 40
2.0
 40
2.0
 40
3.0
 40
3.0
 40
3.0
 40
3.0
 10
339.2726589626736
 20
629.7162570529513
 30
0.0
 10
339.1865315755208
 20
629.104408094618
 30
0.0
 10
339.4797092013889
 20
628.5370008680555
 30
0.0
 10
338.9984293619792
 20
628.1676866319444
 30
0.0
 10
338.7720865885416
 20
627.9923312717013
 30
0.0
 10
338.5588351779514
 20
628.0943060980902
 30
0.0
 10
338.2749593098958
 20
628.0943060980902
 30
0.0
 10
338.1540364583333
 20
628.0943060980902
 30
0.0
 10
338.0744547526041
 20
628.138747829861
 30
0.0
 10
337.9659342447916
 20
628.1676866319444
 30
0.0
  0
SPLINE
  5
AF
330
A
100
AcDbEntity
  8
LAYER_1
 62
     7
100
AcDbSpline
210
0.0
220
0.0
230
1.0
 70
     8
 71
     3
 72
    11
 73
     7
 74
     0
 42
0.000000001
 43
0.00000001
 40
0.0
 40
0.0
 40
0.0
 40
0.0
 40
1.0
 40
1.0
 40
1.0
 40
2.0
 40
2.0
 40
2.0
 40
2.0
 10
339.6867594401041
 20
630.4111328124999
 30
0.0
 10
339.7601399739583
 20
630.2836642795138
 30
0.0
 10
339.7918348524305
 20
630.1878906249999
 30
0.0
 10
339.7918348524305
 20
630.0287272135416
 30
0.0
 10
339.7918348524305
 20
628.8494710286458
 30
0.0
 10
339.6898600260416
 20
627.7725341796875
 30
0.0
 10
338.6191243489583
 20
627.2306206597221
 30
0.0
  0
SPLINE
  5
AE
330
A
100
AcDbEntity
  8
LAYER_1
 62
     7
100
AcDbSpline
210
0.0
220
0.0
230
1.0
 70
     8
 71
     3
 72
    11
 73
     7
 74
     0
 42
0.000000001
 43
0.00000001
 40
0.0
 40
0.0
 40
0.0
 40
0.0
 40
1.0
 40
1.0
 40
1.0
 40
2.0
 40
2.0
 40
2.0
 40
2.0
 10
337.8608588324652
 20
627.7470404730902
 30
0.0
 10
337.8608588324652
 20
627.7470404730902
 30
0.0
 10
338.5522894965277
 20
627.7659884982638
 30
0.0
 10
338.5522894965277
 20
627.7659884982638
 30
0.0
 10
338.6990505642361
 20
626.8103190104166
 30
0.0
 10
338.4344672309027
 20
625.8415581597221
 30
0.0
 10
337.5197943793402
 20
625.5356336805555
 30
0.0
  0
SPLINE
  5
AD
330
A
100
AcDbEntity
  8
LAYER_1
 62
     7
100
AcDbSpline
210
0.0
220
0.0
230
1.0
 70
     8
 71
     3
 72
    11
 73
     7
 74
     0
 42
0.000000001
 43
0.00000001
 40
0.0
 40
0.0
 40
0.0
 40
0.0
 40
1.0
 40
1.0
 40
1.0
 40
2.0
 40
2.0
 40
2.0
 40
2.0
 10
339.4128743489583
 20
627.7852810329861
 30
0.0
 10
338.8964545355902
 20
627.1734320746527
 30
0.0
 10
339.3680881076389
 20
626.4913031684027
 30
0.0
 10
339.0015299479167
 20
625.7840250651041
 30
0.0
 10
338.7372911241319
 20
625.255202907986
 30
0.0
 10
338.1857313368055
 20
625.2297092013888
 30
0.0
 10
337.5900743272569
 20
625.2297092013888
 30
0.0
  0
SPLINE
  5
AC
330
A
100
AcDbEntity
  8
LAYER_1
 62
     7
100
AcDbSpline
210
0.0
220
0.0
230
1.0
 70
     8
 71
     3
 72
    26
 73
    22
 74
     0
 42
0.000000001
 43
0.00000001
 40
0.0
 40
0.0
 40
0.0
 40
0.0
 40
1.0
 40
1.0
 40
1.0
 40
2.0
 40
2.0
 40
2.0
 40
3.0
 40
3.0
 40
3.0
 40
4.0
 40
4.0
 40
4.0
 40
5.0
 40
5.0
 40
5.0
 40
6.0
 40
6.0
 40
6.0
 40
7.0
 40
7.0
 40
7.0
 40
7.0
 10
339.7570393880208
 20
628.6134819878472
 30
0.0
 10
340.0054307725694
 20
629.0406738281249
 30
0.0
 10
340.5153049045139
 20
628.7919379340277
 30
0.0
 10
340.9996853298611
 20
628.8939127604166
 30
0.0
 10
341.5446994357638
 20
629.0089789496527
 30
0.0
 10
341.6625217013889
 20
629.4423719618055
 30
0.0
 10
342.137255859375
 20
629.7228027343749
 30
0.0
 10
342.4497260199652
 20
629.9074598524305
 30
0.0
 10
342.7046630859375
 20
629.8819661458333
 30
0.0
 10
342.9658013237847
 20
630.1431043836805
 30
0.0
 10
342.9658013237847
 20
629.2129286024305
 30
0.0
 10
342.7522054036458
 20
628.6996093749999
 30
0.0
 10
342.4528266059028
 20
627.8266221788194
 30
0.0
 10
342.2998643663194
 20
627.3835828993055
 30
0.0
 10
342.3666992187499
 20
626.7558865017361
 30
0.0
 10
341.9016113281249
 20
626.7558865017361
 30
0.0
 10
341.4585720486111
 20
626.7558865017361
 30
0.0
 10
341.2546223958333
 20
627.0652560763888
 30
0.0
 10
340.8115831163194
 20
627.0652560763888
 30
0.0
 10
340.4419243706597
 20
627.0652560763888
 30
0.0
 10
340.2283284505208
 20
626.9501898871528
 30
0.0
 10
339.8972547743055
 20
626.7848253038194
 30
0.0
  0
SPLINE
  5
AB
330
A
100
AcDbEntity
  8
LAYER_1
 62
     7
100
AcDbSpline
210
0.0
220
0.0
230
1.0
 70
     8
 71
     3
 72
    14
 73
    10
 74
     0
 42
0.000000001
 43
0.00000001
 40
0.0
 40
0.0
 40
0.0
 40
0.0
 40
1.0
 40
1.0
 40
1.0
 40
2.0
 40
2.0
 40
2.0
 40
3.0
 40
3.0
 40
3.0
 40
3.0
 10
337.7268446180555
 20
625.2996446397569
 30
0.0
 10
338.0041748046875
 20
625.197669813368
 30
0.0
 10
338.3834798177083
 20
625.2135172526041
 30
0.0
 10
338.3834798177083
 20
624.9172390407986
 30
0.0
 10
338.3865804036458
 20
624.0948947482639
 30
0.0
 10
338.0393147786458
 20
623.6425537109375
 30
0.0
 10
338.0424153645833
 20
622.8140082465277
 30
0.0
 10
337.7492377387152
 20
622.7981608072917
 30
0.0
 10
337.5773274739583
 20
622.8140082465277
 30
0.0
 10
337.2841498480902
 20
622.8140082465277
 30
0.0
  0
SPLINE
  5
AA
330
A
100
AcDbEntity
  8
LAYER_1
 62
     7
100
AcDbSpline
210
0.0
220
0.0
230
1.0
 70
     8
 71
     3
 72
    32
 73
    28
 74
     0
 42
0.000000001
 43
0.00000001
 40
0.0
 40
0.0
 40
0.0
 40
0.0
 40
1.0
 40
1.0
 40
1.0
 40
2.0
 40
2.0
 40
2.0
 40
3.0
 40
3.0
 40
3.0
 40
4.0
 40
4.0
 40
4.0
 40
5.0
 40
5.0
 40
5.0
 40
6.0
 40
6.0
 40
6.0
 40
7.0
 40
7.0
 40
7.0
 40
8.0
 40
8.0
 40
8.0
 40
9.0
 40
9.0
 40
9.0
 40
9.0
 10
339.3808349609375
 20
626.6508110894097
 30
0.0
 10
339.553089735243
 20
626.6063693576389
 30
0.0
 10
339.6678114149305
 20
626.5422905815972
 30
0.0
 10
339.8493679470486
 20
626.5422905815972
 30
0.0
 10
340.2221272786458
 20
626.5422905815972
 30
0.0
 10
340.4260769314236
 20
626.6508110894097
 30
0.0
 10
340.7988362630208
 20
626.6508110894097
 30
0.0
 10
341.5285074869792
 20
626.6508110894097
 30
0.0
 10
341.5223063151041
 20
625.6341634114583
 30
0.0
 10
341.5254069010417
 20
624.898291015625
 30
0.0
 10
341.5254069010417
 20
624.6240614149305
 30
0.0
 10
341.5254069010417
 20
624.4741997612847
 30
0.0
 10
341.5254069010417
 20
624.2003146701388
 30
0.0
 10
341.5254069010417
 20
624.2003146701388
 30
0.0
 10
341.1526475694444
 20
620.608802625868
 30
0.0
 10
341.1526475694444
 20
620.608802625868
 30
0.0
 10
341.0317247178819
 20
620.608802625868
 30
0.0
 10
340.9710910373263
 20
620.608802625868
 30
0.0
 10
340.8498236762152
 20
620.608802625868
 30
0.0
 10
340.5566460503472
 20
620.608802625868
 30
0.0
 10
340.4419243706597
 20
620.8892333984375
 30
0.0
 10
340.1518473307291
 20
620.8892333984375
 30
0.0
 10
339.8238742404513
 20
620.8892333984375
 30
0.0
 10
339.6423177083333
 20
620.7428168402777
 30
0.0
 10
339.3140001085069
 20
620.7428168402777
 30
0.0
 10
338.9953287760416
 20
620.7428168402777
 30
0.0
 10
338.8137722439236
 20
620.7173231336805
 30
0.0
 10
338.4951009114583
 20
620.7107774522569
 30
0.0
  0
SPLINE
  5
A9
330
A
100
AcDbEntity
  8
LAYER_1
 62
     7
100
AcDbSpline
210
0.0
220
0.0
230
1.0
 70
     8
 71
     3
 72
    14
 73
    10
 74
     0
 42
0.000000001
 43
0.00000001
 40
0.0
 40
0.0
 40
0.0
 40
0.0
 40
1.0
 40
1.0
 40
1.0
 40
2.0
 40
2.0
 40
2.0
 40
3.0
 40
3.0
 40
3.0
 40
3.0
 10
337.2841498480902
 20
622.5049831814235
 30
0.0
 10
337.4402126736111
 20
622.4378038194444
 30
0.0
 10
337.5228949652778
 20
622.396462673611
 30
0.0
 10
337.6982503255208
 20
622.3678683810763
 30
0.0
 10
337.6472629123264
 20
621.7239800347222
 30
0.0
 10
337.6727566189236
 20
621.3643120659722
 30
0.0
 10
337.5962754991319
 20
620.7235243055555
 30
0.0
 10
337.2617567274305
 20
620.7235243055555
 30
0.0
 10
337.0705539279514
 20
620.7042317708333
 30
0.0
 10
336.7329345703125
 20
620.7042317708333
 30
0.0
  0
SPLINE
  5
A8
330
A
100
AcDbEntity
  8
LAYER_1
 62
     7
100
AcDbSpline
210
0.0
220
0.0
230
1.0
 70
     8
 71
     3
 72
    20
 73
    16
 74
     0
 42
0.000000001
 43
0.00000001
 40
0.0
 40
0.0
 40
0.0
 40
0.0
 40
1.0
 40
1.0
 40
1.0
 40
2.0
 40
2.0
 40
2.0
 40
3.0
 40
3.0
 40
3.0
 40
4.0
 40
4.0
 40
4.0
 40
5.0
 40
5.0
 40
5.0
 40
5.0
 10
338.34833984375
 20
625.3027452256944
 30
0.0
 10
338.4854546440972
 20
625.1277343749999
 30
0.0
 10
338.523695203993
 20
624.968226453993
 30
0.0
 10
338.523695203993
 20
624.7480848524305
 30
0.0
 10
338.523695203993
 20
624.7480848524305
 30
0.0
 10
338.2494656032986
 20
622.3678683810763
 30
0.0
 10
338.2494656032986
 20
622.3678683810763
 30
0.0
 10
338.2529106987847
 20
622.0364501953125
 30
0.0
 10
338.2529106987847
 20
621.8579942491319
 30
0.0
 10
338.2529106987847
 20
621.526576063368
 30
0.0
 10
338.2529106987847
 20
621.2368435329861
 30
0.0
 10
338.3738335503472
 20
620.9912082248263
 30
0.0
 10
338.182630750868
 20
620.77451171875
 30
0.0
 10
338.0520616319444
 20
620.6215494791666
 30
0.0
 10
337.8481119791666
 20
620.7235243055555
 30
0.0
 10
337.6314154730903
 20
620.7428168402777
 30
0.0
  0
SPLINE
  5
A7
330
A
100
AcDbEntity
  8
LAYER_1
 62
     7
100
AcDbSpline
210
0.0
220
0.0
230
1.0
 70
     8
 71
     3
 72
    23
 73
    19
 74
     0
 42
0.000000001
 43
0.00000001
 40
0.0
 40
0.0
 40
0.0
 40
0.0
 40
1.0
 40
1.0
 40
1.0
 40
2.0
 40
2.0
 40
2.0
 40
3.0
 40
3.0
 40
3.0
 40
4.0
 40
4.0
 40
4.0
 40
5.0
 40
5.0
 40
5.0
 40
6.0
 40
6.0
 40
6.0
 40
6.0
 10
336.8028700086805
 20
620.5674614800347
 30
0.0
 10
337.1501356336805
 20
620.5674614800347
 30
0.0
 10
337.3444390190972
 20
620.5674614800347
 30
0.0
 10
337.6920491536458
 20
620.5674614800347
 30
0.0
 10
338.0393147786458
 20
620.5674614800347
 30
0.0
 10
338.2177707248264
 20
620.7269694010416
 30
0.0
 10
338.5650363498264
 20
620.780712890625
 30
0.0
 10
338.57158203125
 20
620.7014756944444
 30
0.0
 10
338.5905300564236
 20
620.6470431857638
 30
0.0
 10
338.5970757378472
 20
620.5740071614583
 30
0.0
 10
338.5970757378472
 20
620.5740071614583
 30
0.0
 10
338.0169216579861
 20
617.5368109809027
 30
0.0
 10
338.0169216579861
 20
617.5368109809027
 30
0.0
 10
337.6345160590278
 20
617.5368109809027
 30
0.0
 10
337.43056640625
 20
617.390394422743
 30
0.0
 10
337.0481608072917
 20
617.390394422743
 30
0.0
 10
336.6275146484375
 20
617.390394422743
 30
0.0
 10
336.394970703125
 20
617.4286349826389
 30
0.0
 10
335.9774251302083
 20
617.5306098090277
 30
0.0
  0
SPLINE
  5
A6
330
A
100
AcDbEntity
  8
LAYER_1
 62
     7
100
AcDbSpline
210
0.0
220
0.0
230
1.0
 70
     8
 71
     3
 72
    17
 73
    13
 74
     0
 42
0.000000001
 43
0.00000001
 40
0.0
 40
0.0
 40
0.0
 40
0.0
 40
1.0
 40
1.0
 40
1.0
 40
2.0
 40
2.0
 40
2.0
 40
3.0
 40
3.0
 40
3.0
 40
4.0
 40
4.0
 40
4.0
 40
4.0
 10
336.5637803819444
 20
620.1881564670139
 30
0.0
 10
336.5637803819444
 20
620.1881564670139
 30
0.0
 10
336.9079454210069
 20
620.1881564670139
 30
0.0
 10
336.9079454210069
 20
620.1881564670139
 30
0.0
 10
336.9492865668403
 20
619.8119520399305
 30
0.0
 10
337.0802001953124
 20
619.6018012152778
 30
0.0
 10
337.08330078125
 20
619.2255967881944
 30
0.0
 10
337.08330078125
 20
618.8593831380208
 30
0.0
 10
337.0226671006944
 20
618.6523328993055
 30
0.0
 10
336.9813259548611
 20
618.2919759114583
 30
0.0
 10
336.5989203559027
 20
618.2506347656249
 30
0.0
 10
336.3822238498263
 20
618.1775987413193
 30
0.0
 10
336.047705078125
 20
618.0115451388888
 30
0.0
  0
SPLINE
  5
A5
330
A
100
AcDbEntity
  8
LAYER_1
 62
     7
100
AcDbSpline
210
0.0
220
0.0
230
1.0
 70
     8
 71
     3
 72
    17
 73
    13
 74
     0
 42
0.000000001
 43
0.00000001
 40
0.0
 40
0.0
 40
0.0
 40
0.0
 40
1.0
 40
1.0
 40
1.0
 40
2.0
 40
2.0
 40
2.0
 40
3.0
 40
3.0
 40
3.0
 40
4.0
 40
4.0
 40
4.0
 40
4.0
 10
337.9180474175347
 20
613.8788085937499
 30
0.0
 10
338.5588351779514
 20
614.0855143229167
 30
0.0
 10
338.4630615234375
 20
614.7834906684027
 30
0.0
 10
338.6797580295138
 20
615.4273790147569
 30
0.0
 10
338.8392659505208
 20
615.9307074652777
 30
0.0
 10
339.2278727213541
 20
616.2242296006943
 30
0.0
 10
339.7442925347222
 20
616.2242296006943
 30
0.0
 10
340.5566460503472
 20
616.2269856770832
 30
0.0
 10
340.5759385850694
 20
615.1118082682291
 30
0.0
 10
340.5759385850694
 20
614.2991102430555
 30
0.0
 10
340.5759385850694
 20
613.9997314453125
 30
0.0
 10
340.5759385850694
 20
613.8340223524305
 30
0.0
 10
340.5759385850694
 20
613.5377441406249
 30
0.0
  0
SPLINE
  5
A4
330
A
100
AcDbEntity
  8
LAYER_1
 62
     7
100
AcDbSpline
210
0.0
220
0.0
230
1.0
 70
     8
 71
     3
 72
    14
 73
    10
 74
     0
 42
0.000000001
 43
0.00000001
 40
0.0
 40
0.0
 40
0.0
 40
0.0
 40
1.0
 40
1.0
 40
1.0
 40
2.0
 40
2.0
 40
2.0
 40
3.0
 40
3.0
 40
3.0
 40
3.0
 10
336.6371609157986
 20
617.0462293836805
 30
0.0
 10
336.6371609157986
 20
617.0462293836805
 30
0.0
 10
337.6217692057292
 20
617.0589762369791
 30
0.0
 10
337.6217692057292
 20
617.0589762369791
 30
0.0
 10
337.6217692057292
 20
616.5745958116319
 30
0.0
 10
337.6217692057292
 20
616.3007107204861
 30
0.0
 10
337.6217692057292
 20
615.8163302951389
 30
0.0
 10
337.6248697916666
 20
615.0894151475694
 30
0.0
 10
337.7302897135417
 20
614.579541015625
 30
0.0
 10
337.3316921657986
 20
613.9773383246527
 30
0.0
  0
SPLINE
  5
A3
330
A
100
AcDbEntity
  8
LAYER_1
 62
     7
100
AcDbSpline
210
0.0
220
0.0
230
1.0
 70
     8
 71
     3
 72
    14
 73
    10
 74
     0
 42
0.000000001
 43
0.00000001
 40
0.0
 40
0.0
 40
0.0
 40
0.0
 40
1.0
 40
1.0
 40
1.0
 40
2.0
 40
2.0
 40
2.0
 40
3.0
 40
3.0
 40
3.0
 40
3.0
 10
338.6318712022569
 20
620.6408420138888
 30
0.0
 10
338.6225694444444
 20
620.5485134548611
 30
0.0
 10
338.5970757378472
 20
620.4878797743055
 30
0.0
 10
338.5970757378472
 20
620.3921061197916
 30
0.0
 10
338.6001763237847
 20
619.1811550564236
 30
0.0
 10
340.4994574652778
 20
619.1939019097222
 30
0.0
 10
340.5438991970486
 20
617.9829508463541
 30
0.0
 10
340.5566460503472
 20
616.8360785590277
 30
0.0
 10
340.8146837022569
 20
616.179443359375
 30
0.0
 10
340.5407986111111
 20
615.0515190972221
 30
0.0
  0
SPLINE
  5
A2
330
A
100
AcDbEntity
  8
LAYER_1
 62
     7
100
AcDbSpline
210
0.0
220
0.0
230
1.0
 70
     8
 71
     3
 72
    17
 73
    13
 74
     0
 42
0.000000001
 43
0.00000001
 40
0.0
 40
0.0
 40
0.0
 40
0.0
 40
1.0
 40
1.0
 40
1.0
 40
2.0
 40
2.0
 40
2.0
 40
3.0
 40
3.0
 40
3.0
 40
4.0
 40
4.0
 40
4.0
 40
4.0
 10
335.9457302517361
 20
617.4954698350693
 30
0.0
 10
336.1813747829861
 20
617.3838487413194
 30
0.0
 10
336.340882703993
 20
617.3232150607638
 30
0.0
 10
336.6020209418402
 20
617.3232150607638
 30
0.0
 10
336.6054660373264
 20
616.2049370659722
 30
0.0
 10
336.6054660373264
 20
615.5737955729167
 30
0.0
 10
336.6085666232639
 20
614.4520724826389
 30
0.0
 10
336.6085666232639
 20
613.7447943793402
 30
0.0
 10
336.3694769965277
 20
612.9100477430555
 30
0.0
 10
335.6621988932291
 20
612.9035020616319
 30
0.0
 10
335.4196641710069
 20
612.9035020616319
 30
0.0
 10
335.2701470269097
 20
612.9892849392361
 30
0.0
 10
335.0565511067708
 20
613.0754123263888
 30
0.0
  0
SPLINE
  5
A1
330
A
100
AcDbEntity
  8
LAYER_1
 62
     7
100
AcDbSpline
210
0.0
220
0.0
230
1.0
 70
     8
 71
     3
 72
    17
 73
    13
 74
     0
 42
0.000000001
 43
0.00000001
 40
0.0
 40
0.0
 40
0.0
 40
0.0
 40
1.0
 40
1.0
 40
1.0
 40
2.0
 40
2.0
 40
2.0
 40
3.0
 40
3.0
 40
3.0
 40
4.0
 40
4.0
 40
4.0
 40
4.0
 10
335.3338812934027
 20
612.5276421440972
 30
0.0
 10
335.6684000651042
 20
612.2472113715277
 30
0.0
 10
335.9901719835069
 20
612.0301703559027
 30
0.0
 10
335.9901719835069
 20
611.5940212673611
 30
0.0
 10
335.9901719835069
 20
610.9339409722222
 30
0.0
 10
335.9646782769097
 20
610.5580810546875
 30
0.0
 10
335.8916422526041
 20
609.9017903645832
 30
0.0
 10
335.8117160373263
 20
609.8921440972222
 30
0.0
 10
335.770374891493
 20
609.866650390625
 30
0.0
 10
335.6907931857639
 20
609.866650390625
 30
0.0
 10
335.365576171875
 20
609.866650390625
 30
0.0
 10
335.2191596137152
 20
610.1246880425347
 30
0.0
 10
335.0279568142361
 20
610.3861707899305
 30
0.0
  0
SPLINE
  5
A0
330
A
100
AcDbEntity
  8
LAYER_1
 62
     7
100
AcDbSpline
210
0.0
220
0.0
230
1.0
 70
     8
 71
     3
 72
    32
 73
    28
 74
     0
 42
0.000000001
 43
0.00000001
 40
0.0
 40
0.0
 40
0.0
 40
0.0
 40
1.0
 40
1.0
 40
1.0
 40
2.0
 40
2.0
 40
2.0
 40
3.0
 40
3.0
 40
3.0
 40
4.0
 40
4.0
 40
4.0
 40
5.0
 40
5.0
 40
5.0
 40
6.0
 40
6.0
 40
6.0
 40
7.0
 40
7.0
 40
7.0
 40
8.0
 40
8.0
 40
8.0
 40
9.0
 40
9.0
 40
9.0
 40
9.0
 10
335.0279568142361
 20
609.76123046875
 30
0.0
 10
335.365576171875
 20
609.6244601779513
 30
0.0
 10
335.7545274522569
 20
609.5383327907986
 30
0.0
 10
335.7545274522569
 20
609.1783203125
 30
0.0
 10
335.7545274522569
 20
608.6842936197916
 30
0.0
 10
335.3400824652778
 20
608.4772433810763
 30
0.0
 10
335.3400824652778
 20
607.9897623697916
 30
0.0
 10
335.3431830512152
 20
607.696240234375
 30
0.0
 10
335.4486029730903
 20
607.5212293836805
 30
0.0
 10
335.4486029730903
 20
607.224951171875
 30
0.0
 10
335.4486029730903
 20
607.0878363715277
 30
0.0
 10
335.4389567057291
 20
606.9955078124999
 30
0.0
 10
335.3783230251736
 20
606.8618381076388
 30
0.0
 10
335.1712727864583
 20
606.9155815972222
 30
0.0
 10
335.0438042534722
 20
606.9507215711805
 30
0.0
 10
334.8240071614583
 20
606.9665690104166
 30
0.0
 10
334.8240071614583
 20
606.9665690104166
 30
0.0
 10
334.8271077473958
 20
606.7278238932291
 30
0.0
 10
334.8271077473958
 20
606.7278238932291
 30
0.0
 10
335.0851453993055
 20
606.6737358940971
 30
0.0
 10
335.3593749999999
 20
606.5683159722222
 30
0.0
 10
335.3593749999999
 20
606.3071777343749
 30
0.0
 10
335.3624755859375
 20
606.1032280815972
 30
0.0
 10
335.3528293185764
 20
605.9916069878471
 30
0.0
 10
335.3624755859375
 20
605.7973036024305
 30
0.0
 10
335.0534505208333
 20
605.7973036024305
 30
0.0
 10
334.8112603081597
 20
605.5871527777778
 30
0.0
 10
334.7602728949652
 20
605.2746826171874
 30
0.0
  0
SPLINE
  5
9F
330
A
100
AcDbEntity
  8
LAYER_1
 62
     7
100
AcDbSpline
210
0.0
220
0.0
230
1.0
 70
     8
 71
     3
 72
    14
 73
    10
 74
     0
 42
0.000000001
 43
0.00000001
 40
0.0
 40
0.0
 40
0.0
 40
0.0
 40
1.0
 40
1.0
 40
1.0
 40
2.0
 40
2.0
 40
2.0
 40
3.0
 40
3.0
 40
3.0
 40
3.0
 10
339.9671902126736
 20
607.8684950086805
 30
0.0
 10
339.7759874131944
 20
607.3014322916666
 30
0.0
 10
339.6199245876736
 20
607.00791015625
 30
0.0
 10
339.4190755208333
 20
606.4601399739582
 30
0.0
 10
339.1768853081597
 20
605.7938585069444
 30
0.0
 10
338.8168728298611
 20
605.2109483506944
 30
0.0
 10
338.1092502170139
 20
605.2109483506944
 30
0.0
 10
337.0037190755208
 20
605.2109483506944
 30
0.0
 10
336.4235649956597
 20
605.6250488281249
 30
0.0
 10
335.3466281467013
 20
605.8610378689235
 30
0.0
  0
SPLINE
  5
9E
330
A
100
AcDbEntity
  8
LAYER_1
 62
     7
100
AcDbSpline
210
0.0
220
0.0
230
1.0
 70
     8
 71
     3
 72
    14
 73
    10
 74
     0
 42
0.000000001
 43
0.00000001
 40
0.0
 40
0.0
 40
0.0
 40
0.0
 40
1.0
 40
1.0
 40
1.0
 40
2.0
 40
2.0
 40
2.0
 40
3.0
 40
3.0
 40
3.0
 40
3.0
 10
334.6548529730903
 20
605.4465928819444
 30
0.0
 10
335.0183105468749
 20
605.3256700303818
 30
0.0
 10
335.1233859592014
 20
604.9753038194444
 30
0.0
 10
335.1233859592014
 20
604.595654296875
 30
0.0
 10
335.1233859592014
 20
604.264236111111
 30
0.0
 10
335.1233859592014
 20
604.076478407118
 30
0.0
 10
335.1233859592014
 20
603.7481608072916
 30
0.0
 10
335.1233859592014
 20
603.3692003038194
 30
0.0
 10
334.7282335069444
 20
603.1618055555555
 30
0.0
 10
334.3492730034722
 20
603.1363118489583
 30
0.0
  0
SPLINE
  5
9D
330
A
100
AcDbEntity
  8
LAYER_1
 62
     7
100
AcDbSpline
210
0.0
220
0.0
230
1.0
 70
     8
 71
     3
 72
    20
 73
    16
 74
     0
 42
0.000000001
 43
0.00000001
 40
0.0
 40
0.0
 40
0.0
 40
0.0
 40
1.0
 40
1.0
 40
1.0
 40
2.0
 40
2.0
 40
2.0
 40
3.0
 40
3.0
 40
3.0
 40
4.0
 40
4.0
 40
4.0
 40
5.0
 40
5.0
 40
5.0
 40
5.0
 10
334.4161078559027
 20
602.8207411024305
 30
0.0
 10
334.6104112413194
 20
602.769753689236
 30
0.0
 10
334.740980360243
 20
602.7635525173611
 30
0.0
 10
334.9352837456597
 20
602.7890462239583
 30
0.0
 10
334.9449300130208
 20
602.699818250868
 30
0.0
 10
334.970423719618
 20
602.6326388888888
 30
0.0
 10
334.970423719618
 20
602.5403103298611
 30
0.0
 10
334.970423719618
 20
602.0655761718749
 30
0.0
 10
334.7919677734375
 20
601.5908420138888
 30
0.0
 10
334.3172336154514
 20
601.5112603081596
 30
0.0
 10
334.3268798828125
 20
601.3741455078125
 30
0.0
 10
334.3523735894097
 20
601.2976643880207
 30
0.0
 10
334.3523735894097
 20
601.157449001736
 30
0.0
 10
334.3523735894097
 20
600.7368028428818
 30
0.0
 10
333.98271484375
 20
600.3385498046874
 30
0.0
 10
333.5589680989583
 20
600.405384657118
 30
0.0
  0
SPLINE
  5
9C
330
A
100
AcDbEntity
  8
LAYER_1
 62
     7
100
AcDbSpline
210
0.0
220
0.0
230
1.0
 70
    11
 71
     3
 72
    29
 73
    25
 74
     0
 42
0.000000001
 43
0.00000001
 40
0.0
 40
0.0
 40
0.0
 40
0.0
 40
1.0
 40
1.0
 40
1.0
 40
2.0
 40
2.0
 40
2.0
 40
3.0
 40
3.0
 40
3.0
 40
4.0
 40
4.0
 40
4.0
 40
5.0
 40
5.0
 40
5.0
 40
6.0
 40
6.0
 40
6.0
 40
7.0
 40
7.0
 40
7.0
 40
8.0
 40
8.0
 40
8.0
 40
8.0
 10
335.2126139322916
 20
602.0655761718749
 30
0.0
 10
335.2126139322916
 20
601.8519802517361
 30
0.0
 10
335.4196641710069
 20
601.7789442274305
 30
0.0
 10
335.4899441189236
 20
601.5846408420139
 30
0.0
 10
335.776576063368
 20
600.8453233506943
 30
0.0
 10
336.111439344618
 20
600.0994601779513
 30
0.0
 10
336.9079454210069
 20
600.0994601779513
 30
0.0
 10
337.5900743272569
 20
600.1025607638888
 30
0.0
 10
337.9180474175347
 20
600.6634223090277
 30
0.0
 10
338.5970757378472
 20
600.5903862847222
 30
0.0
 10
338.5970757378472
 20
601.1257541232638
 30
0.0
 10
338.5970757378472
 20
601.4251329210069
 30
0.0
 10
338.5970757378472
 20
601.9605007595486
 30
0.0
 10
338.5936306423611
 20
602.6264377170138
 30
0.0
 10
338.9760362413194
 20
602.9613009982638
 30
0.0
 10
338.9760362413194
 20
603.6241373697916
 30
0.0
 10
338.9729356553819
 20
603.916970486111
 30
0.0
 10
338.7817328559028
 20
604.2104926215277
 30
0.0
 10
338.4885552300347
 20
604.2104926215277
 30
0.0
 10
337.2903510199653
 20
604.2104926215277
 30
0.0
 10
336.4459581163194
 20
603.789501953125
 30
0.0
 10
335.764173719618
 20
602.7890462239583
 30
0.0
 10
335.5695258246528
 20
602.5024142795138
 30
0.0
 10
335.2126139322916
 20
602.4193874782985
 30
0.0
 10
335.2126139322916
 20
602.0655761718749
 30
0.0
  0
SPLINE
  5
9B
330
A
100
AcDbEntity
  8
LAYER_1
 62
     7
100
AcDbSpline
210
0.0
220
0.0
230
1.0
 70
     8
 71
     3
 72
    14
 73
    10
 74
     0
 42
0.000000001
 43
0.00000001
 40
0.0
 40
0.0
 40
0.0
 40
0.0
 40
1.0
 40
1.0
 40
1.0
 40
2.0
 40
2.0
 40
2.0
 40
3.0
 40
3.0
 40
3.0
 40
3.0
 10
333.6289035373264
 20
599.717054578993
 30
0.0
 10
333.7691189236111
 20
599.3728895399305
 30
0.0
 10
334.2855387369792
 20
599.4238769531249
 30
0.0
 10
334.2855387369792
 20
599.0607638888888
 30
0.0
 10
334.2886393229167
 20
598.7672417534721
 30
0.0
 10
334.323779296875
 20
598.5284966362847
 30
0.0
 10
334.1132839626736
 20
598.3338487413193
 30
0.0
 10
333.63544921875
 20
597.8880533854166
 30
0.0
 10
333.0552951388889
 20
598.2129258897569
 30
0.0
 10
332.4561930338542
 20
597.9197482638888
 30
0.0
  0
SPLINE
  5
9A
330
A
100
AcDbEntity
  8
LAYER_1
 62
     7
100
AcDbSpline
210
0.0
220
0.0
230
1.0
 70
     8
 71
     3
 72
    11
 73
     7
 74
     0
 42
0.000000001
 43
0.00000001
 40
0.0
 40
0.0
 40
0.0
 40
0.0
 40
1.0
 40
1.0
 40
1.0
 40
2.0
 40
2.0
 40
2.0
 40
2.0
 10
333.358119032118
 20
597.9579888237847
 30
0.0
 10
333.5396755642361
 20
597.8336208767361
 30
0.0
 10
333.6702446831597
 20
597.721999782986
 30
0.0
 10
333.6702446831597
 20
597.5056477864583
 30
0.0
 10
333.6702446831597
 20
597.033669704861
 30
0.0
 10
333.6447509765625
 20
596.7118977864583
 30
0.0
 10
333.3612196180555
 20
596.3329372829861
 30
0.0
  0
SPLINE
  5
99
330
A
100
AcDbEntity
  8
LAYER_1
 62
     7
100
AcDbSpline
210
0.0
220
0.0
230
1.0
 70
    11
 71
     3
 72
    29
 73
    25
 74
     0
 42
0.000000001
 43
0.00000001
 40
0.0
 40
0.0
 40
0.0
 40
0.0
 40
1.0
 40
1.0
 40
1.0
 40
2.0
 40
2.0
 40
2.0
 40
3.0
 40
3.0
 40
3.0
 40
4.0
 40
4.0
 40
4.0
 40
5.0
 40
5.0
 40
5.0
 40
6.0
 40
6.0
 40
6.0
 40
7.0
 40
7.0
 40
7.0
 40
8.0
 40
8.0
 40
8.0
 40
8.0
 10
335.7035400390625
 20
597.2538113064236
 30
0.0
 10
335.7035400390625
 20
596.7597846137152
 30
0.0
 10
336.0284125434027
 20
596.5465332031249
 30
0.0
 10
336.3281358506944
 20
596.1641276041667
 30
0.0
 10
336.6213134765625
 20
595.8037706163194
 30
0.0
 10
336.7870225694444
 20
595.3769232855902
 30
0.0
 10
337.2617567274305
 20
595.3769232855902
 30
0.0
 10
337.8577582465277
 20
595.3769232855902
 30
0.0
 10
338.2239718967014
 20
595.9632785373263
 30
0.0
 10
338.2239718967014
 20
596.558935546875
 30
0.0
 10
338.2239718967014
 20
596.8173177083332
 30
0.0
 10
338.2146701388888
 20
596.9733805338541
 30
0.0
 10
338.2146701388888
 20
597.2314181857638
 30
0.0
 10
338.2112250434027
 20
598.2063802083333
 30
0.0
 10
338.6032769097222
 20
598.735546875
 30
0.0
 10
338.6001763237847
 20
599.7043077256944
 30
0.0
 10
338.6001763237847
 20
599.9654459635416
 30
0.0
 10
338.5140489366319
 20
600.2779161241319
 30
0.0
 10
338.2560112847222
 20
600.2779161241319
 30
0.0
 10
337.953187391493
 20
600.2779161241319
 30
0.0
 10
337.841566297743
 20
600.0357259114583
 30
0.0
 10
337.5645806206597
 20
599.9275499131944
 30
0.0
 10
336.3760226779514
 20
599.4907118055555
 30
0.0
 10
335.7000949435763
 20
598.5188503689236
 30
0.0
 10
335.7035400390625
 20
597.2538113064236
 30
0.0
  0
SPLINE
  5
98
330
A
100
AcDbEntity
  8
LAYER_1
 62
     7
100
AcDbSpline
210
0.0
220
0.0
230
1.0
 70
     8
 71
     3
 72
    26
 73
    22
 74
     0
 42
0.000000001
 43
0.00000001
 40
0.0
 40
0.0
 40
0.0
 40
0.0
 40
1.0
 40
1.0
 40
1.0
 40
2.0
 40
2.0
 40
2.0
 40
3.0
 40
3.0
 40
3.0
 40
4.0
 40
4.0
 40
4.0
 40
5.0
 40
5.0
 40
5.0
 40
6.0
 40
6.0
 40
6.0
 40
7.0
 40
7.0
 40
7.0
 40
7.0
 10
338.1602376302083
 20
595.2050130208332
 30
0.0
 10
338.1412896050347
 20
595.3228352864583
 30
0.0
 10
338.1347439236111
 20
595.3896701388888
 30
0.0
 10
338.1254421657986
 20
595.5109375
 30
0.0
 10
338.1254421657986
 20
595.5109375
 30
0.0
 10
337.9852267795139
 20
595.5488335503471
 30
0.0
 10
337.9852267795139
 20
595.5488335503471
 30
0.0
 10
337.7364908854166
 20
595.297341579861
 30
0.0
 10
337.5135932074652
 20
595.2050130208332
 30
0.0
 10
337.1566813151042
 20
595.2050130208332
 30
0.0
 10
336.9971733940972
 20
595.2050130208332
 30
0.0
 10
336.9079454210069
 20
595.2684027777777
 30
0.0
 10
336.7453369140625
 20
595.2684027777777
 30
0.0
 10
336.2420084635417
 20
595.2684027777777
 30
0.0
 10
335.9329833984374
 20
594.956277126736
 30
0.0
 10
335.7097412109375
 20
594.5101372612846
 30
0.0
 10
336.2609564887152
 20
594.0956922743055
 30
0.0
 10
336.6433620876736
 20
593.7835666232638
 30
0.0
 10
337.3316921657986
 20
593.7866672092014
 30
0.0
 10
337.4719075520833
 20
593.7866672092014
 30
0.0
 10
337.5676812065972
 20
593.8538465711805
 30
0.0
 10
337.6410617404513
 20
593.9620225694443
 30
0.0
  0
SPLINE
  5
97
330
A
100
AcDbEntity
  8
LAYER_1
 62
     7
100
AcDbSpline
210
0.0
220
0.0
230
1.0
 70
     8
 71
     3
 72
    14
 73
    10
 74
     0
 42
0.000000001
 43
0.00000001
 40
0.0
 40
0.0
 40
0.0
 40
0.0
 40
1.0
 40
1.0
 40
1.0
 40
2.0
 40
2.0
 40
2.0
 40
3.0
 40
3.0
 40
3.0
 40
3.0
 10
335.2636013454861
 20
591.8143500434027
 30
0.0
 10
335.4802978515625
 20
591.8143500434027
 30
0.0
 10
335.6112114800347
 20
591.7757649739583
 30
0.0
 10
335.81826171875
 20
591.7123752170138
 30
0.0
 10
336.0921468098958
 20
592.2666910807291
 30
0.0
 10
336.6785020616319
 20
592.4131076388888
 30
0.0
 10
336.6785020616319
 20
593.0249565972222
 30
0.0
 10
336.6785020616319
 20
593.515882703993
 30
0.0
 10
336.2261610243055
 20
593.681591796875
 30
0.0
 10
335.8151611328125
 20
593.9558213975694
 30
0.0
  0
SPLINE
  5
96
330
A
100
AcDbEntity
  8
LAYER_1
 62
     7
100
AcDbSpline
210
0.0
220
0.0
230
1.0
 70
    11
 71
     3
 72
    20
 73
    16
 74
     0
 42
0.000000001
 43
0.00000001
 40
0.0
 40
0.0
 40
0.0
 40
0.0
 40
1.0
 40
1.0
 40
1.0
 40
2.0
 40
2.0
 40
2.0
 40
3.0
 40
3.0
 40
3.0
 40
4.0
 40
4.0
 40
4.0
 40
5.0
 40
5.0
 40
5.0
 40
5.0
 10
337.6824028862847
 20
592.6490966796874
 30
0.0
 10
337.6824028862847
 20
593.0346028645832
 30
0.0
 10
337.7078965928819
 20
593.2609456380208
 30
0.0
 10
337.6886040581597
 20
593.6464518229166
 30
0.0
 10
337.2042236328124
 20
593.3722222222221
 30
0.0
 10
336.7487820095486
 20
593.1462239583333
 30
0.0
 10
336.7487820095486
 20
592.5915635850694
 30
0.0
 10
336.7487820095486
 20
592.1836642795139
 30
0.0
 10
336.9940728081597
 20
591.9383734809027
 30
0.0
 10
337.3699327256944
 20
591.7502712673611
 30
0.0
 10
337.5166937934027
 20
592.0437934027777
 30
0.0
 10
337.6538085937499
 20
592.1712619357638
 30
0.0
 10
337.7492377387152
 20
592.4771864149305
 30
0.0
 10
337.7492377387152
 20
592.4771864149305
 30
0.0
 10
337.6824028862847
 20
592.6490966796874
 30
0.0
 10
337.6824028862847
 20
592.6490966796874
 30
0.0
  0
SPLINE
  5
95
330
A
100
AcDbEntity
  8
LAYER_1
 62
     7
100
AcDbSpline
210
0.0
220
0.0
230
1.0
 70
    11
 71
     3
 72
    41
 73
    37
 74
     0
 42
0.000000001
 43
0.00000001
 40
0.0
 40
0.0
 40
0.0
 40
0.0
 40
1.0
 40
1.0
 40
1.0
 40
2.0
 40
2.0
 40
2.0
 40
3.0
 40
3.0
 40
3.0
 40
4.0
 40
4.0
 40
4.0
 40
5.0
 40
5.0
 40
5.0
 40
6.0
 40
6.0
 40
6.0
 40
7.0
 40
7.0
 40
7.0
 40
8.0
 40
8.0
 40
8.0
 40
9.0
 40
9.0
 40
9.0
 40
10.0
 40
10.0
 40
10.0
 40
11.0
 40
11.0
 40
11.0
 40
12.0
 40
12.0
 40
12.0
 40
12.0
 10
336.9206922743055
 20
591.6104003906249
 30
0.0
 10
336.6309597439236
 20
591.6104003906249
 30
0.0
 10
336.5224392361111
 20
591.8842854817708
 30
0.0
 10
336.2323621961805
 20
591.8842854817708
 30
0.0
 10
335.8627034505208
 20
591.8842854817708
 30
0.0
 10
335.5791720920138
 20
591.5656141493055
 30
0.0
 10
335.5791720920138
 20
591.1959554036458
 30
0.0
 10
335.5791720920138
 20
591.0240451388888
 30
0.0
 10
335.6811469184028
 20
590.9344726562499
 30
0.0
 10
335.6811469184028
 20
590.762562391493
 30
0.0
 10
335.6811469184028
 20
589.9212700737846
 30
0.0
 10
334.8209065755208
 20
589.6280924479166
 30
0.0
 10
334.8209065755208
 20
588.7930013020833
 30
0.0
 10
334.8209065755208
 20
588.5256618923611
 30
0.0
 10
335.0407036675347
 20
588.296218532986
 30
0.0
 10
335.3083875868055
 20
588.296218532986
 30
0.0
 10
335.6746012369791
 20
588.296218532986
 30
0.0
 10
335.8785508897569
 20
588.3661539713542
 30
0.0
 10
336.2485541449652
 20
588.3661539713542
 30
0.0
 10
336.5034912109375
 20
588.3661539713542
 30
0.0
 10
336.6433620876736
 20
588.3341145833333
 30
0.0
 10
336.9017442491319
 20
588.3341145833333
 30
0.0
 10
337.1277425130208
 20
588.3341145833333
 30
0.0
 10
337.3413384331597
 20
588.4870768229166
 30
0.0
 10
337.3413384331597
 20
588.7137641059027
 30
0.0
 10
337.3413384331597
 20
588.9811035156249
 30
0.0
 10
337.0991482204861
 20
589.0799777560763
 30
0.0
 10
337.0991482204861
 20
589.3476616753471
 30
0.0
 10
337.0960476345486
 20
590.2557888454861
 30
0.0
 10
337.6569091796875
 20
590.6540418836805
 30
0.0
 10
338.0617078993055
 20
591.4763861762152
 30
0.0
 10
337.8481119791666
 20
591.5084255642361
 30
0.0
 10
337.7364908854166
 20
591.4763861762152
 30
0.0
 10
337.5166937934027
 20
591.4763861762152
 30
0.0
 10
337.2872504340277
 20
591.4698404947916
 30
0.0
 10
337.1566813151042
 20
591.6104003906249
 30
0.0
 10
336.9206922743055
 20
591.6104003906249
 30
0.0
  0
SPLINE
  5
94
330
A
100
AcDbEntity
  8
LAYER_1
 62
     7
100
AcDbSpline
210
0.0
220
0.0
230
1.0
 70
     8
 71
     3
 72
    14
 73
    10
 74
     0
 42
0.000000001
 43
0.00000001
 40
0.0
 40
0.0
 40
0.0
 40
0.0
 40
1.0
 40
1.0
 40
1.0
 40
2.0
 40
2.0
 40
2.0
 40
3.0
 40
3.0
 40
3.0
 40
3.0
 10
332.9119791666666
 20
595.8836968315971
 30
0.0
 10
333.0236002604166
 20
595.7975694444444
 30
0.0
 10
333.1128282335069
 20
595.7114420572916
 30
0.0
 10
333.2592447916666
 20
595.7114420572916
 30
0.0
 10
333.3198784722222
 20
594.8990885416666
 30
0.0
 10
333.3963595920139
 20
594.4526041666666
 30
0.0
 10
333.3994601779514
 20
593.6402506510416
 30
0.0
 10
333.1221299913194
 20
593.6402506510416
 30
0.0
 10
332.9436740451388
 20
593.5603244357638
 30
0.0
 10
332.7080295138888
 20
593.4328559027778
 30
0.0
  0
SPLINE
  5
93
330
A
100
AcDbEntity
  8
LAYER_1
 62
     7
100
AcDbSpline
210
0.0
220
0.0
230
1.0
 70
     8
 71
     3
 72
    11
 73
     7
 74
     0
 42
0.000000001
 43
0.00000001
 40
0.0
 40
0.0
 40
0.0
 40
0.0
 40
1.0
 40
1.0
 40
1.0
 40
2.0
 40
2.0
 40
2.0
 40
2.0
 10
331.9590657552083
 20
589.5323187934027
 30
0.0
 10
332.5009792751736
 20
589.2649793836805
 30
0.0
 10
332.3032307942708
 20
588.6465847439235
 30
0.0
 10
332.3032307942708
 20
588.0536838107638
 30
0.0
 10
332.3032307942708
 20
587.8118381076389
 30
0.0
 10
332.0100531684027
 20
587.7732530381944
 30
0.0
 10
331.7871554904514
 20
587.7033175998264
 30
0.0
  0
SPLINE
  5
92
330
A
100
AcDbEntity
  8
LAYER_1
 62
     7
100
AcDbSpline
210
0.0
220
0.0
230
1.0
 70
     8
 71
     3
 72
    17
 73
    13
 74
     0
 42
0.000000001
 43
0.00000001
 40
0.0
 40
0.0
 40
0.0
 40
0.0
 40
1.0
 40
1.0
 40
1.0
 40
2.0
 40
2.0
 40
2.0
 40
3.0
 40
3.0
 40
3.0
 40
4.0
 40
4.0
 40
4.0
 40
4.0
 10
331.9242702907986
 20
589.7428141276041
 30
0.0
 10
332.0865342881944
 20
589.7938015407985
 30
0.0
 10
332.1950547960069
 20
589.7938015407985
 30
0.0
 10
332.3700656467013
 20
589.774853515625
 30
0.0
 10
332.3638644748264
 20
589.9212700737846
 30
0.0
 10
332.3352701822917
 20
589.9977511935764
 30
0.0
 10
332.3352701822917
 20
590.1441677517361
 30
0.0
 10
332.3318250868055
 20
590.6350938585069
 30
0.0
 10
332.4689398871528
 20
590.9027777777777
 30
0.0
 10
332.4689398871528
 20
591.396804470486
 30
0.0
 10
332.4689398871528
 20
591.6038547092013
 30
0.0
 10
332.3159776475694
 20
591.7123752170138
 30
0.0
 10
332.1247748480902
 20
591.8078043619792
 30
0.0
  0
SPLINE
  5
91
330
A
100
AcDbEntity
  8
LAYER_1
 62
     7
100
AcDbSpline
210
0.0
220
0.0
230
1.0
 70
     8
 71
     3
 72
    14
 73
    10
 74
     0
 42
0.000000001
 43
0.00000001
 40
0.0
 40
0.0
 40
0.0
 40
0.0
 40
1.0
 40
1.0
 40
1.0
 40
2.0
 40
2.0
 40
2.0
 40
3.0
 40
3.0
 40
3.0
 40
3.0
 10
332.1916097005208
 20
592.1519694010416
 30
0.0
 10
332.3128770616319
 20
592.0372477213541
 30
0.0
 10
332.4021050347222
 20
591.9163248697917
 30
0.0
 10
332.5709147135416
 20
591.9163248697917
 30
0.0
 10
332.9436740451388
 20
591.9163248697917
 30
0.0
 10
332.9181803385416
 20
592.4386013454861
 30
0.0
 10
332.9181803385416
 20
592.8113606770833
 30
0.0
 10
332.9181803385416
 20
593.0473497178818
 30
0.0
 10
332.787611219618
 20
593.1910101996527
 30
0.0
 10
332.5709147135416
 20
593.2929850260416
 30
0.0
  0
SPLINE
  5
90
330
A
100
AcDbEntity
  8
LAYER_1
 62
     7
100
AcDbSpline
210
0.0
220
0.0
230
1.0
 70
     8
 71
     3
 72
    17
 73
    13
 74
     0
 42
0.000000001
 43
0.00000001
 40
0.0
 40
0.0
 40
0.0
 40
0.0
 40
1.0
 40
1.0
 40
1.0
 40
2.0
 40
2.0
 40
2.0
 40
3.0
 40
3.0
 40
3.0
 40
4.0
 40
4.0
 40
4.0
 40
4.0
 10
335.8596028645833
 20
588.0188883463541
 30
0.0
 10
336.2547553168403
 20
587.9072672526041
 30
0.0
 10
336.4969455295139
 20
587.9868489583333
 30
0.0
 10
336.9144911024305
 20
587.9200141059027
 30
0.0
 10
336.9206922743055
 20
587.6843695746527
 30
0.0
 10
336.9144911024305
 20
587.5631022135416
 30
0.0
 10
336.9144911024305
 20
587.3305582682291
 30
0.0
 10
336.9144911024305
 20
586.798291015625
 30
0.0
 10
337.0037190755208
 20
586.4861653645833
 30
0.0
 10
337.0037190755208
 20
585.9507975260416
 30
0.0
 10
337.0037190755208
 20
585.3389485677083
 30
0.0
 10
336.2706027560764
 20
585.1987331814236
 30
0.0
 10
335.6556532118055
 20
585.1542914496528
 30
0.0
  0
SPLINE
  5
8F
330
A
100
AcDbEntity
  8
LAYER_1
 62
     7
100
AcDbSpline
210
0.0
220
0.0
230
1.0
 70
     8
 71
     3
 72
    11
 73
     7
 74
     0
 42
0.000000001
 43
0.00000001
 40
0.0
 40
0.0
 40
0.0
 40
0.0
 40
1.0
 40
1.0
 40
1.0
 40
2.0
 40
2.0
 40
2.0
 40
2.0
 10
331.6851806640624
 20
587.390847439236
 30
0.0
 10
331.7168755425347
 20
587.13935546875
 30
0.0
 10
332.029345703125
 20
587.091468641493
 30
0.0
 10
332.029345703125
 20
586.8365315755208
 30
0.0
 10
332.0324462890625
 20
586.2884168836805
 30
0.0
 10
331.8922309027777
 20
585.6000868055555
 30
0.0
 10
331.341015625
 20
585.596986219618
 30
0.0
  0
SPLINE
  5
8E
330
A
100
AcDbEntity
  8
LAYER_1
 62
     7
100
AcDbSpline
210
0.0
220
0.0
230
1.0
 70
     8
 71
     3
 72
    17
 73
    13
 74
     0
 42
0.000000001
 43
0.00000001
 40
0.0
 40
0.0
 40
0.0
 40
0.0
 40
1.0
 40
1.0
 40
1.0
 40
2.0
 40
2.0
 40
2.0
 40
3.0
 40
3.0
 40
3.0
 40
4.0
 40
4.0
 40
4.0
 40
4.0
 10
331.410951063368
 20
585.249720594618
 30
0.0
 10
332.0706868489583
 20
585.1666937934027
 30
0.0
 10
332.0004069010416
 20
584.3192003038193
 30
0.0
 10
332.0004069010416
 20
583.6625651041666
 30
0.0
 10
332.0004069010416
 20
583.3535400390624
 30
0.0
 10
331.9335720486111
 20
583.1781846788194
 30
0.0
 10
331.8987765842014
 20
582.8722601996527
 30
0.0
 10
331.7265218098958
 20
582.8722601996527
 30
0.0
 10
331.6214463975694
 20
582.8853515625
 30
0.0
 10
331.4491916232639
 20
582.8853515625
 30
0.0
 10
331.3920030381944
 20
582.8853515625
 30
0.0
 10
331.3758110894097
 20
582.8405653211805
 30
0.0
 10
331.3124213324652
 20
582.8343641493055
 30
0.0
  0
SPLINE
  5
8D
330
A
100
AcDbEntity
  8
LAYER_1
 62
     7
100
AcDbSpline
210
0.0
220
0.0
230
1.0
 70
     8
 71
     3
 72
    20
 73
    16
 74
     0
 42
0.000000001
 43
0.00000001
 40
0.0
 40
0.0
 40
0.0
 40
0.0
 40
1.0
 40
1.0
 40
1.0
 40
2.0
 40
2.0
 40
2.0
 40
3.0
 40
3.0
 40
3.0
 40
4.0
 40
4.0
 40
4.0
 40
5.0
 40
5.0
 40
5.0
 40
5.0
 10
331.1401665581597
 20
582.0054741753472
 30
0.0
 10
331.3823567708333
 20
581.9034993489582
 30
0.0
 10
331.6948269314236
 20
581.8845513237846
 30
0.0
 10
331.6948269314236
 20
581.6296142578125
 30
0.0
 10
331.6948269314236
 20
581.4542588975694
 30
0.0
 10
331.6245469835069
 20
581.3619303385416
 30
0.0
 10
331.6245469835069
 20
581.189675564236
 30
0.0
 10
331.6245469835069
 20
580.59091796875
 30
0.0
 10
331.6276475694444
 20
580.2464084201389
 30
0.0
 10
331.6276475694444
 20
579.6538519965277
 30
0.0
 10
331.6276475694444
 20
579.2332058376736
 30
0.0
 10
331.5639133029513
 20
578.6912923177083
 30
0.0
 10
331.1463677300347
 20
578.6912923177083
 30
0.0
 10
330.9586100260416
 20
578.6912923177083
 30
0.0
 10
330.8566351996528
 20
578.6341037326389
 30
0.0
 10
330.6654324001736
 20
578.6213568793402
 30
0.0
  0
SPLINE
  5
8C
330
A
100
AcDbEntity
  8
LAYER_1
 62
     7
100
AcDbSpline
210
0.0
220
0.0
230
1.0
 70
    11
 71
     3
 72
    71
 73
    67
 74
     0
 42
0.000000001
 43
0.00000001
 40
0.0
 40
0.0
 40
0.0
 40
0.0
 40
1.0
 40
1.0
 40
1.0
 40
2.0
 40
2.0
 40
2.0
 40
3.0
 40
3.0
 40
3.0
 40
4.0
 40
4.0
 40
4.0
 40
5.0
 40
5.0
 40
5.0
 40
6.0
 40
6.0
 40
6.0
 40
7.0
 40
7.0
 40
7.0
 40
8.0
 40
8.0
 40
8.0
 40
9.0
 40
9.0
 40
9.0
 40
10.0
 40
10.0
 40
10.0
 40
11.0
 40
11.0
 40
11.0
 40
12.0
 40
12.0
 40
12.0
 40
13.0
 40
13.0
 40
13.0
 40
14.0
 40
14.0
 40
14.0
 40
15.0
 40
15.0
 40
15.0
 40
16.0
 40
16.0
 40
16.0
 40
17.0
 40
17.0
 40
17.0
 40
18.0
 40
18.0
 40
18.0
 40
19.0
 40
19.0
 40
19.0
 40
20.0
 40
20.0
 40
20.0
 40
21.0
 40
21.0
 40
21.0
 40
22.0
 40
22.0
 40
22.0
 40
22.0
 10
335.7290337456597
 20
584.9820366753472
 30
0.0
 10
335.6907931857639
 20
584.7270996093749
 30
0.0
 10
335.6236138237847
 20
584.5868842230902
 30
0.0
 10
335.6236138237847
 20
584.3254014756944
 30
0.0
 10
335.6270589192708
 20
583.9113009982639
 30
0.0
 10
335.8310085720486
 20
583.707351345486
 30
0.0
 10
335.8310085720486
 20
583.2932508680555
 30
0.0
 10
335.8341091579861
 20
582.6652099609374
 30
0.0
 10
335.1778184678819
 20
582.4357666015625
 30
0.0
 10
335.1809190538194
 20
581.8015245225694
 30
0.0
 10
335.1809190538194
 20
580.9285373263889
 30
0.0
 10
335.8275634765625
 20
580.59091796875
 30
0.0
 10
336.2196153428819
 20
579.8068142361111
 30
0.0
 10
336.5224392361111
 20
579.2011664496528
 30
0.0
 10
336.6116672092014
 20
578.4239529079861
 30
0.0
 10
337.2934516059028
 20
578.4239529079861
 30
0.0
 10
338.300453016493
 20
578.4239529079861
 30
0.0
 10
338.7465928819444
 20
579.1887641059027
 30
0.0
 10
339.7570393880208
 20
579.1918646918402
 30
0.0
 10
340.8625705295138
 20
579.1918646918402
 30
0.0
 10
341.4299777560764
 20
578.6723442925347
 30
0.0
 10
342.535853407118
 20
578.6788899739582
 30
0.0
 10
342.8989664713541
 20
578.6788899739582
 30
0.0
 10
343.2017903645833
 20
578.653396267361
 30
0.0
 10
343.4343343098958
 20
578.9207356770833
 30
0.0
 10
343.5459554036458
 20
579.0516493055555
 30
0.0
 10
343.4343343098958
 20
579.1949652777777
 30
0.0
 10
343.4343343098958
 20
579.3734212239583
 30
0.0
 10
343.4343343098958
 20
579.8195610894097
 30
0.0
 10
343.5521565755208
 20
580.0617513020833
 30
0.0
 10
343.6062445746527
 20
580.5144368489583
 30
0.0
 10
343.6382839626736
 20
580.8296630859375
 30
0.0
 10
343.8325873480903
 20
580.9540310329861
 30
0.0
 10
343.9121690538194
 20
581.2696017795139
 30
0.0
 10
344.1450575086805
 20
582.155335828993
 30
0.0
 10
344.1354112413194
 20
582.7034505208333
 30
0.0
 10
344.1354112413194
 20
583.6181233723958
 30
0.0
 10
344.1323106553819
 20
583.8603135850694
 30
0.0
 10
344.1323106553819
 20
583.9939832899305
 30
0.0
 10
344.1323106553819
 20
584.2365180121527
 30
0.0
 10
344.1323106553819
 20
584.6347710503471
 30
0.0
 10
343.6479302300347
 20
584.7556939019097
 30
0.0
 10
343.2493326822917
 20
584.7556939019097
 30
0.0
 10
342.7938910590278
 20
584.7556939019097
 30
0.0
 10
342.535853407118
 20
584.5803385416666
 30
0.0
 10
342.0800672743055
 20
584.5803385416666
 30
0.0
 10
341.7675971137152
 20
584.5803385416666
 30
0.0
 10
341.5860405815972
 20
584.679212782118
 30
0.0
 10
341.277015516493
 20
584.679212782118
 30
0.0
 10
340.9807373046875
 20
584.679212782118
 30
0.0
 10
340.8277750651042
 20
584.679212782118
 30
0.0
 10
340.5342529296875
 20
584.679212782118
 30
0.0
 10
340.2221272786458
 20
584.679212782118
 30
0.0
 10
340.0564181857638
 20
584.848366970486
 30
0.0
 10
339.7473931206597
 20
584.848366970486
 30
0.0
 10
339.377734375
 20
584.848366970486
 30
0.0
 10
339.1706841362847
 20
584.7811876085069
 30
0.0
 10
338.8010253906249
 20
584.7811876085069
 30
0.0
 10
338.2911512586805
 20
584.7811876085069
 30
0.0
 10
338.0296685112847
 20
585.020277235243
 30
0.0
 10
337.5197943793402
 20
585.020277235243
 30
0.0
 10
337.4019721137153
 20
585.020277235243
 30
0.0
 10
337.3316921657986
 20
584.9758355034721
 30
0.0
 10
337.2107693142361
 20
584.9758355034721
 30
0.0
 10
336.6309597439236
 20
584.9758355034721
 30
0.0
 10
336.3057427300347
 20
585.0523166232639
 30
0.0
 10
335.7290337456597
 20
584.9820366753472
 30
0.0
  0
SPLINE
  5
8B
330
A
100
AcDbEntity
  8
LAYER_1
 62
     7
100
AcDbSpline
210
0.0
220
0.0
230
1.0
 70
     8
 71
     3
 72
    17
 73
    13
 74
     0
 42
0.000000001
 43
0.00000001
 40
0.0
 40
0.0
 40
0.0
 40
0.0
 40
1.0
 40
1.0
 40
1.0
 40
2.0
 40
2.0
 40
2.0
 40
3.0
 40
3.0
 40
3.0
 40
4.0
 40
4.0
 40
4.0
 40
4.0
 10
330.7353678385417
 20
578.2771918402777
 30
0.0
 10
330.8724826388889
 20
578.0635959201388
 30
0.0
 10
331.0443929036458
 20
577.94921875
 30
0.0
 10
331.0443929036458
 20
577.6908365885416
 30
0.0
 10
331.0478379991319
 20
575.9827582465277
 30
0.0
 10
330.8087483723958
 20
575.0139973958333
 30
0.0
 10
330.8118489583333
 20
573.3059190538194
 30
0.0
 10
330.8149495442708
 20
572.576247829861
 30
0.0
 10
330.5314181857639
 20
571.7191080729166
 30
0.0
 10
329.7952012803819
 20
571.7191080729166
 30
0.0
 10
329.4927218967014
 20
571.7191080729166
 30
0.0
 10
329.3142659505208
 20
571.754248046875
 30
0.0
 10
329.0179877387152
 20
571.8210828993055
 30
0.0
  0
SPLINE
  5
8A
330
A
100
AcDbEntity
  8
LAYER_1
 62
     7
100
AcDbSpline
210
0.0
220
0.0
230
1.0
 70
     8
 71
     3
 72
    26
 73
    22
 74
     0
 42
0.000000001
 43
0.00000001
 40
0.0
 40
0.0
 40
0.0
 40
0.0
 40
1.0
 40
1.0
 40
1.0
 40
2.0
 40
2.0
 40
2.0
 40
3.0
 40
3.0
 40
3.0
 40
4.0
 40
4.0
 40
4.0
 40
5.0
 40
5.0
 40
5.0
 40
6.0
 40
6.0
 40
6.0
 40
7.0
 40
7.0
 40
7.0
 40
7.0
 10
337.8067708333333
 20
578.3250786675346
 30
0.0
 10
338.2687581380208
 20
578.1945095486111
 30
0.0
 10
338.5460883246528
 20
578.1497233072917
 30
0.0
 10
339.0177218967013
 20
578.1559244791666
 30
0.0
 10
339.5689371744791
 20
578.1559244791666
 30
0.0
 10
339.8524685329861
 20
578.430154079861
 30
0.0
 10
340.4067843967014
 20
578.430154079861
 30
0.0
 10
340.6968614366319
 20
578.430154079861
 30
0.0
 10
340.8532687717014
 20
578.430154079861
 30
0.0
 10
341.1461018880208
 20
578.430154079861
 30
0.0
 10
341.6911159939236
 20
578.436355251736
 30
0.0
 10
342.1245090060764
 20
577.9774685329861
 30
0.0
 10
342.1245090060764
 20
577.4358995225693
 30
0.0
 10
342.1245090060764
 20
577.1747612847222
 30
0.0
 10
341.7390028211805
 20
577.2381510416666
 30
0.0
 10
341.5732937282986
 20
577.0534939236111
 30
0.0
 10
341.0920138888889
 20
576.5339735243055
 30
0.0
 10
340.588685438368
 20
576.4478461371527
 30
0.0
 10
339.8810628255208
 20
576.3968587239583
 30
0.0
 10
339.2151258680555
 20
576.3458713107639
 30
0.0
 10
338.9061008029514
 20
576.00205078125
 30
0.0
 10
338.2622124565972
 20
575.8394422743055
 30
0.0
  0
SPLINE
  5
89
330
A
100
AcDbEntity
  8
LAYER_1
 62
     7
100
AcDbSpline
210
0.0
220
0.0
230
1.0
 70
     8
 71
     3
 72
    26
 73
    22
 74
     0
 42
0.000000001
 43
0.00000001
 40
0.0
 40
0.0
 40
0.0
 40
0.0
 40
1.0
 40
1.0
 40
1.0
 40
2.0
 40
2.0
 40
2.0
 40
3.0
 40
3.0
 40
3.0
 40
4.0
 40
4.0
 40
4.0
 40
5.0
 40
5.0
 40
5.0
 40
6.0
 40
6.0
 40
6.0
 40
7.0
 40
7.0
 40
7.0
 40
7.0
 10
339.329847547743
 20
576.0144531249999
 30
0.0
 10
339.4511149088542
 20
576.00205078125
 30
0.0
 10
339.5148491753472
 20
575.9796576605902
 30
0.0
 10
339.6357720269097
 20
575.9796576605902
 30
0.0
 10
340.4198757595486
 20
575.9827582465277
 30
0.0
 10
340.8594699435764
 20
576.1929090711805
 30
0.0
 10
341.6435736762152
 20
576.1929090711805
 30
0.0
 10
342.1596489800347
 20
576.1929090711805
 30
0.0
 10
342.9213595920139
 20
576.3334689670138
 30
0.0
 10
342.9213595920139
 20
575.8139485677083
 30
0.0
 10
342.9244601779513
 20
574.7845540364583
 30
0.0
 10
342.6154351128472
 20
574.230238172743
 30
0.0
 10
342.6185356987847
 20
573.2104899088541
 30
0.0
 10
342.6185356987847
 20
572.4584255642361
 30
0.0
 10
342.5293077256944
 20
572.0408799913193
 30
0.0
 10
342.4814208984375
 20
571.2919162326389
 30
0.0
 10
342.2137369791666
 20
570.489208984375
 30
0.0
 10
341.9078125
 20
569.6668646918403
 30
0.0
 10
341.0696207682291
 20
569.6668646918403
 30
0.0
 10
340.8691162109375
 20
569.6668646918403
 30
0.0
 10
340.7478488498264
 20
569.7113064236111
 30
0.0
 10
340.5504448784722
 20
569.7368001302083
 30
0.0
  0
SPLINE
  5
88
330
A
100
AcDbEntity
  8
LAYER_1
 62
     7
100
AcDbSpline
210
0.0
220
0.0
230
1.0
 70
     8
 71
     3
 72
    17
 73
    13
 74
     0
 42
0.000000001
 43
0.00000001
 40
0.0
 40
0.0
 40
0.0
 40
0.0
 40
1.0
 40
1.0
 40
1.0
 40
2.0
 40
2.0
 40
2.0
 40
3.0
 40
3.0
 40
3.0
 40
4.0
 40
4.0
 40
4.0
 40
4.0
 10
340.7957356770833
 20
568.4621148003472
 30
0.0
 10
341.1206081814236
 20
568.7301432291666
 30
0.0
 10
341.2928629557292
 20
569.0484700520833
 30
0.0
 10
341.7262559678819
 20
569.0484700520833
 30
0.0
 10
342.0004855685764
 20
569.0484700520833
 30
0.0
 10
342.2423312717013
 20
568.8510660807291
 30
0.0
 10
342.2423312717013
 20
568.5706353081597
 30
0.0
 10
342.2457763671875
 20
568.2457628038194
 30
0.0
 10
342.2264838324652
 20
568.0638617621528
 30
0.0
 10
342.2264838324652
 20
567.7358886718749
 30
0.0
 10
342.2264838324652
 20
567.7358886718749
 30
0.0
 10
342.2137369791666
 20
565.8397081163193
 30
0.0
 10
342.2137369791666
 20
565.8397081163193
 30
0.0
  0
SPLINE
  5
87
330
A
100
AcDbEntity
  8
LAYER_1
 62
     7
100
AcDbSpline
210
0.0
220
0.0
230
1.0
 70
    11
 71
     3
 72
    26
 73
    22
 74
     0
 42
0.000000001
 43
0.00000001
 40
0.0
 40
0.0
 40
0.0
 40
0.0
 40
1.0
 40
1.0
 40
1.0
 40
2.0
 40
2.0
 40
2.0
 40
3.0
 40
3.0
 40
3.0
 40
4.0
 40
4.0
 40
4.0
 40
5.0
 40
5.0
 40
5.0
 40
6.0
 40
6.0
 40
6.0
 40
7.0
 40
7.0
 40
7.0
 40
7.0
 10
433.910120985243
 20
582.5983751085068
 30
0.0
 10
433.910120985243
 20
582.1649820963542
 30
0.0
 10
433.910120985243
 20
581.9165907118055
 30
0.0
 10
433.910120985243
 20
581.4831976996527
 30
0.0
 10
433.910120985243
 20
581.0752983940972
 30
0.0
 10
434.4261962890625
 20
581.0752983940972
 30
0.0
 10
434.8244493272569
 20
580.9412841796875
 30
0.0
 10
435.3184760199653
 20
580.7817762586805
 30
0.0
 10
435.516224500868
 20
580.3549289279514
 30
0.0
 10
436.0354003906249
 20
580.3614746093749
 30
0.0
 10
436.8639458550347
 20
580.3614746093749
 30
0.0
 10
437.0999348958333
 20
581.3812228732638
 30
0.0
 10
437.0999348958333
 20
582.209423828125
 30
0.0
 10
437.0999348958333
 20
583.1974772135416
 30
0.0
 10
436.2520968967013
 20
583.6563639322916
 30
0.0
 10
435.3377685546874
 20
584.0515163845486
 30
0.0
 10
434.9329698350694
 20
584.2234266493055
 30
0.0
 10
434.604652235243
 20
584.0863118489583
 30
0.0
 10
434.2001980251736
 20
583.9113009982639
 30
0.0
 10
433.7220187717014
 20
583.707351345486
 30
0.0
 10
433.9066758897569
 20
583.1147949218749
 30
0.0
 10
433.910120985243
 20
582.5983751085068
 30
0.0
  0
SPLINE
  5
86
330
A
100
AcDbEntity
  8
LAYER_1
 62
     7
100
AcDbSpline
210
0.0
220
0.0
230
1.0
 70
    11
 71
     3
 72
    26
 73
    22
 74
     0
 42
0.000000001
 43
0.00000001
 40
0.0
 40
0.0
 40
0.0
 40
0.0
 40
1.0
 40
1.0
 40
1.0
 40
2.0
 40
2.0
 40
2.0
 40
3.0
 40
3.0
 40
3.0
 40
4.0
 40
4.0
 40
4.0
 40
5.0
 40
5.0
 40
5.0
 40
6.0
 40
6.0
 40
6.0
 40
7.0
 40
7.0
 40
7.0
 40
7.0
 10
434.951917860243
 20
587.6395833333332
 30
0.0
 10
434.7545138888888
 20
587.6395833333332
 30
0.0
 10
434.6780327690972
 20
587.3973931206597
 30
0.0
 10
434.6780327690972
 20
587.203089735243
 30
0.0
 10
434.6780327690972
 20
586.7507486979166
 30
0.0
 10
434.6780327690972
 20
586.4923665364582
 30
0.0
 10
434.6780327690972
 20
586.0431260850694
 30
0.0
 10
434.6780327690972
 20
585.3961371527777
 30
0.0
 10
434.2670328776042
 20
585.0743652343749
 30
0.0
 10
434.2670328776042
 20
584.4273763020833
 30
0.0
 10
434.2670328776042
 20
584.2044786241319
 30
0.0
 10
434.5088785807291
 20
584.0863118489583
 30
0.0
 10
434.7321207682292
 20
584.0863118489583
 30
0.0
 10
435.404603407118
 20
584.0863118489583
 30
0.0
 10
435.7136284722222
 20
584.5868842230902
 30
0.0
 10
436.1280734592013
 20
585.1222520616319
 30
0.0
 10
436.4656928168403
 20
585.5618462456597
 30
0.0
 10
436.8863389756944
 20
585.7819878472221
 30
0.0
 10
436.8863389756944
 20
586.3297580295139
 30
0.0
 10
436.8863389756944
 20
587.2378851996527
 30
0.0
 10
435.8538438585069
 20
587.6395833333332
 30
0.0
 10
434.951917860243
 20
587.6395833333332
 30
0.0
  0
SPLINE
  5
85
330
A
100
AcDbEntity
  8
LAYER_1
 62
     7
100
AcDbSpline
210
0.0
220
0.0
230
1.0
 70
    11
 71
     3
 72
    26
 73
    22
 74
     0
 42
0.000000001
 43
0.00000001
 40
0.0
 40
0.0
 40
0.0
 40
0.0
 40
1.0
 40
1.0
 40
1.0
 40
2.0
 40
2.0
 40
2.0
 40
3.0
 40
3.0
 40
3.0
 40
4.0
 40
4.0
 40
4.0
 40
5.0
 40
5.0
 40
5.0
 40
6.0
 40
6.0
 40
6.0
 40
7.0
 40
7.0
 40
7.0
 40
7.0
 10
435.634046766493
 20
591.4030056423611
 30
0.0
 10
435.4459445529513
 20
590.9220703125
 30
0.0
 10
435.5637668185764
 20
590.6030544704861
 30
0.0
 10
435.3949571397569
 20
590.1252197265625
 30
0.0
 10
435.2674886067708
 20
589.7810546874999
 30
0.0
 10
434.9136773003472
 20
589.66943359375
 30
0.0
 10
434.9136773003472
 20
589.2966742621527
 30
0.0
 10
434.9136773003472
 20
588.9525092230903
 30
0.0
 10
435.2612874348958
 20
588.8856743706597
 30
0.0
 10
435.4683376736111
 20
588.6052435980902
 30
0.0
 10
435.7711615668402
 20
588.2197374131944
 30
0.0
 10
435.9430718315972
 20
587.779798719618
 30
0.0
 10
436.4370985243055
 20
587.779798719618
 30
0.0
 10
436.8766927083333
 20
587.779798719618
 30
0.0
 10
436.6472493489583
 20
588.4426350911458
 30
0.0
 10
436.675843641493
 20
588.8856743706597
 30
0.0
 10
436.7013373480902
 20
589.3604085286457
 30
0.0
 10
436.8480984157986
 20
589.6218912760417
 30
0.0
 10
436.8449978298611
 20
590.0931803385416
 30
0.0
 10
436.8449978298611
 20
590.7849555121527
 30
0.0
 10
436.328578016493
 20
591.2341959635417
 30
0.0
 10
435.634046766493
 20
591.4030056423611
 30
0.0
  0
SPLINE
  5
84
330
A
100
AcDbEntity
  8
LAYER_1
 62
     7
100
AcDbSpline
210
0.0
220
0.0
230
1.0
 70
    11
 71
     3
 72
    38
 73
    34
 74
     0
 42
0.000000001
 43
0.00000001
 40
0.0
 40
0.0
 40
0.0
 40
0.0
 40
1.0
 40
1.0
 40
1.0
 40
2.0
 40
2.0
 40
2.0
 40
3.0
 40
3.0
 40
3.0
 40
4.0
 40
4.0
 40
4.0
 40
5.0
 40
5.0
 40
5.0
 40
6.0
 40
6.0
 40
6.0
 40
7.0
 40
7.0
 40
7.0
 40
8.0
 40
8.0
 40
8.0
 40
9.0
 40
9.0
 40
9.0
 40
10.0
 40
10.0
 40
10.0
 40
11.0
 40
11.0
 40
11.0
 40
11.0
 10
436.9755669487847
 20
595.8230631510417
 30
0.0
 10
436.8002115885416
 20
595.8898980034721
 30
0.0
 10
436.6889350043402
 20
595.8898980034721
 30
0.0
 10
436.5070339626736
 20
595.8898980034721
 30
0.0
 10
435.9716661241319
 20
595.8898980034721
 30
0.0
 10
435.9241238064236
 20
595.2305067274305
 30
0.0
 10
435.7677164713541
 20
594.7171874999999
 30
0.0
 10
435.5734130859375
 20
594.0767442491319
 30
0.0
 10
435.3567165798611
 20
593.7008843315972
 30
0.0
 10
435.3567165798611
 20
593.0249565972222
 30
0.0
 10
435.3567165798611
 20
592.1519694010416
 30
0.0
 10
435.9365261501736
 20
591.3361707899305
 30
0.0
 10
436.8098578559027
 20
591.3361707899305
 30
0.0
 10
436.9438720703125
 20
591.3361707899305
 30
0.0
 10
437.016908094618
 20
591.2658908420138
 30
0.0
 10
437.1540228949652
 20
591.2693359374999
 30
0.0
 10
437.7341769748264
 20
591.2693359374999
 30
0.0
 10
437.593617078993
 20
592.1040825737847
 30
0.0
 10
438.0494032118055
 20
592.4386013454861
 30
0.0
 10
438.3236328125
 20
592.6490966796874
 30
0.0
 10
438.6963921440972
 20
592.6301486545138
 30
0.0
 10
438.8111138237847
 20
592.9615668402777
 30
0.0
 10
439.0405571831597
 20
593.6622992621527
 30
0.0
 10
439.1170383029514
 20
594.0956922743055
 30
0.0
 10
439.1139377170139
 20
594.82880859375
 30
0.0
 10
439.1139377170139
 20
595.1092393663193
 30
0.0
 10
438.8049126519097
 20
595.2050130208332
 30
0.0
 10
438.5275824652778
 20
595.2749484592014
 30
0.0
 10
437.9570746527777
 20
595.4279106987847
 30
0.0
 10
437.587415907118
 20
595.5298855251735
 30
0.0
 10
437.0424018012152
 20
595.752783203125
 30
0.0
 10
437.0424018012152
 20
595.752783203125
 30
0.0
 10
436.9755669487847
 20
595.8230631510417
 30
0.0
 10
436.9755669487847
 20
595.8230631510417
 30
0.0
  0
SPLINE
  5
83
330
A
100
AcDbEntity
  8
LAYER_1
 62
     7
100
AcDbSpline
210
0.0
220
0.0
230
1.0
 70
    11
 71
     3
 72
    32
 73
    28
 74
     0
 42
0.000000001
 43
0.00000001
 40
0.0
 40
0.0
 40
0.0
 40
0.0
 40
1.0
 40
1.0
 40
1.0
 40
2.0
 40
2.0
 40
2.0
 40
3.0
 40
3.0
 40
3.0
 40
4.0
 40
4.0
 40
4.0
 40
5.0
 40
5.0
 40
5.0
 40
6.0
 40
6.0
 40
6.0
 40
7.0
 40
7.0
 40
7.0
 40
8.0
 40
8.0
 40
8.0
 40
9.0
 40
9.0
 40
9.0
 40
9.0
 10
437.0678955078125
 20
600.2396755642361
 30
0.0
 10
437.0713406032986
 20
598.8182291666666
 30
0.0
 10
436.3127305772569
 20
598.0823567708333
 30
0.0
 10
436.3158311631944
 20
596.6578097873263
 30
0.0
 10
436.3158311631944
 20
596.4728081597221
 30
0.0
 10
436.3413248697916
 20
596.3584309895833
 30
0.0
 10
436.3540717230902
 20
596.1703287760416
 30
0.0
 10
436.4753390842013
 20
596.157581922743
 30
0.0
 10
436.5325276692708
 20
596.1320882161458
 30
0.0
 10
436.6537950303819
 20
596.1320882161458
 30
0.0
 10
437.1733154296875
 20
596.1351888020832
 30
0.0
 10
437.405859375
 20
596.4728081597221
 30
0.0
 10
437.9029866536458
 20
596.6195692274305
 30
0.0
 10
438.553076171875
 20
596.8107720269097
 30
0.0
 10
439.1201388888888
 20
596.5237955729166
 30
0.0
 10
439.5952175564236
 20
597.0054199218749
 30
0.0
 10
439.9038981119791
 20
597.3141004774305
 30
0.0
 10
439.646204969618
 20
597.7095974392361
 30
0.0
 10
439.7319878472222
 20
598.1395453559027
 30
0.0
 10
439.8181152343749
 20
598.5887858072916
 30
0.0
 10
440.0410129123263
 20
598.8216742621527
 30
0.0
 10
440.0379123263888
 20
599.2771158854166
 30
0.0
 10
440.0348117404513
 20
600.1569932725694
 30
0.0
 10
439.2507080078125
 20
600.800537109375
 30
0.0
 10
438.3777208116319
 20
600.7943359374999
 30
0.0
 10
437.8296061197916
 20
600.7943359374999
 30
0.0
 10
437.0678955078125
 20
600.7943359374999
 30
0.0
 10
437.0678955078125
 20
600.2396755642361
 30
0.0
  0
SPLINE
  5
82
330
A
100
AcDbEntity
  8
LAYER_1
 62
     7
100
AcDbSpline
210
0.0
220
0.0
230
1.0
 70
    11
 71
     3
 72
    35
 73
    31
 74
     0
 42
0.000000001
 43
0.00000001
 40
0.0
 40
0.0
 40
0.0
 40
0.0
 40
1.0
 40
1.0
 40
1.0
 40
2.0
 40
2.0
 40
2.0
 40
3.0
 40
3.0
 40
3.0
 40
4.0
 40
4.0
 40
4.0
 40
5.0
 40
5.0
 40
5.0
 40
6.0
 40
6.0
 40
6.0
 40
7.0
 40
7.0
 40
7.0
 40
8.0
 40
8.0
 40
8.0
 40
9.0
 40
9.0
 40
9.0
 40
10.0
 40
10.0
 40
10.0
 40
10.0
 10
437.6862901475694
 20
603.6241373697916
 30
0.0
 10
437.475794813368
 20
603.6496310763888
 30
0.0
 10
437.3738199869791
 20
603.7288682725693
 30
0.0
 10
437.1667697482638
 20
603.7288682725693
 30
0.0
 10
436.9087320963541
 20
603.7288682725693
 30
0.0
 10
436.9659206814236
 20
603.3499077690972
 30
0.0
 10
436.892884657118
 20
603.1077175564236
 30
0.0
 10
436.787464735243
 20
602.8083387586805
 30
0.0
 10
436.6823893229166
 20
602.64228515625
 30
0.0
 10
436.6854899088542
 20
602.3267144097222
 30
0.0
 10
436.6854899088542
 20
601.7183105468749
 30
0.0
 10
437.3262776692708
 20
601.5271077473958
 30
0.0
 10
437.8933403862847
 20
601.3138563368055
 30
0.0
 10
438.2660997178819
 20
601.1798421223958
 30
0.0
 10
438.3904676649305
 20
600.7943359374999
 30
0.0
 10
438.7918212890625
 20
600.7943359374999
 30
0.0
 10
439.1552788628472
 20
600.800537109375
 30
0.0
 10
439.2128119574652
 20
601.2308295355903
 30
0.0
 10
439.5535319010417
 20
601.3486518012152
 30
0.0
 10
439.9838243272569
 20
601.504714626736
 30
0.0
 10
440.6563069661458
 20
601.3675998263889
 30
0.0
 10
440.6563069661458
 20
601.839577907986
 30
0.0
 10
440.6563069661458
 20
602.1964898003472
 30
0.0
 10
440.2067220052083
 20
602.1802978515625
 30
0.0
 10
439.9645317925347
 20
602.4576280381943
 30
0.0
 10
439.7223415798611
 20
602.7411593967013
 30
0.0
 10
439.7926215277777
 20
603.101171875
 30
0.0
 10
439.4801513671874
 20
603.318212890625
 30
0.0
 10
438.9258355034722
 20
603.6971733940971
 30
0.0
 10
438.3584282769097
 20
603.575906032986
 30
0.0
 10
437.6862901475694
 20
603.6241373697916
 30
0.0
  0
SPLINE
  5
81
330
A
100
AcDbEntity
  8
LAYER_1
 62
     7
100
AcDbSpline
210
0.0
220
0.0
230
1.0
 70
    11
 71
     3
 72
    29
 73
    25
 74
     0
 42
0.000000001
 43
0.00000001
 40
0.0
 40
0.0
 40
0.0
 40
0.0
 40
1.0
 40
1.0
 40
1.0
 40
2.0
 40
2.0
 40
2.0
 40
3.0
 40
3.0
 40
3.0
 40
4.0
 40
4.0
 40
4.0
 40
5.0
 40
5.0
 40
5.0
 40
6.0
 40
6.0
 40
6.0
 40
7.0
 40
7.0
 40
7.0
 40
8.0
 40
8.0
 40
8.0
 40
8.0
 10
437.4726942274305
 20
606.6323947482638
 30
0.0
 10
437.240150282118
 20
606.6258490668403
 30
0.0
 10
437.2305040147569
 20
606.3199245876735
 30
0.0
 10
437.2305040147569
 20
606.083935546875
 30
0.0
 10
437.2305040147569
 20
605.6601888020833
 30
0.0
 10
437.2336046006944
 20
605.4179985894096
 30
0.0
 10
437.2336046006944
 20
604.9973524305555
 30
0.0
 10
437.2336046006944
 20
604.8760850694443
 30
0.0
 10
437.1316297743055
 20
604.8157958984375
 30
0.0
 10
437.1316297743055
 20
604.6948730468749
 30
0.0
 10
437.134730360243
 20
604.0575303819444
 30
0.0
 10
437.9505289713541
 20
603.9362630208333
 30
0.0
 10
438.5878716362847
 20
603.9362630208333
 30
0.0
 10
438.7442789713541
 20
603.9362630208333
 30
0.0
 10
438.8238606770833
 20
603.9617567274305
 30
0.0
 10
438.9799235026042
 20
603.9745035807291
 30
0.0
 10
438.9799235026042
 20
604.6883273654513
 30
0.0
 10
438.9768229166666
 20
605.0834798177083
 30
0.0
 10
438.9768229166666
 20
605.8035047743055
 30
0.0
 10
438.9737223307291
 20
606.1735080295139
 30
0.0
 10
438.5337836371527
 20
606.259290907118
 30
0.0
 10
438.164124891493
 20
606.3199245876735
 30
0.0
 10
437.8678466796874
 20
606.3612657335069
 30
0.0
 10
437.7658718532986
 20
606.6323947482638
 30
0.0
 10
437.4726942274305
 20
606.6323947482638
 30
0.0
  0
SPLINE
  5
80
330
A
100
AcDbEntity
  8
LAYER_1
 62
     7
100
AcDbSpline
210
0.0
220
0.0
230
1.0
 70
    11
 71
     3
 72
    26
 73
    22
 74
     0
 42
0.000000001
 43
0.00000001
 40
0.0
 40
0.0
 40
0.0
 40
0.0
 40
1.0
 40
1.0
 40
1.0
 40
2.0
 40
2.0
 40
2.0
 40
3.0
 40
3.0
 40
3.0
 40
4.0
 40
4.0
 40
4.0
 40
5.0
 40
5.0
 40
5.0
 40
6.0
 40
6.0
 40
6.0
 40
7.0
 40
7.0
 40
7.0
 40
7.0
 10
438.5403293185764
 20
609.4587510850694
 30
0.0
 10
438.1768717447916
 20
609.4587510850694
 30
0.0
 10
438.2023654513889
 20
608.9840169270833
 30
0.0
 10
438.1258843315972
 20
608.6302056206597
 30
0.0
 10
437.9984157986111
 20
608.0342041015624
 30
0.0
 10
437.934681532118
 20
607.6900390625
 30
0.0
 10
437.7148844401041
 20
607.1133300781249
 30
0.0
 10
437.7148844401041
 20
607.1133300781249
 30
0.0
 10
437.7465793185763
 20
606.8742404513888
 30
0.0
 10
437.7465793185763
 20
606.8742404513888
 30
0.0
 10
438.4287082248263
 20
606.8328993055555
 30
0.0
 10
438.8111138237847
 20
606.766064453125
 30
0.0
 10
439.4897976345486
 20
606.766064453125
 30
0.0
 10
439.8274169921875
 20
606.766064453125
 30
0.0
 10
439.8945963541667
 20
607.10712890625
 30
0.0
 10
440.1939751519097
 20
607.2504448784722
 30
0.0
 10
440.5508870442708
 20
607.4289008246527
 30
0.0
 10
440.8857503255208
 20
607.6008110894097
 30
0.0
 10
440.8857503255208
 20
607.9959635416666
 30
0.0
 10
440.8823052300347
 20
609.0763454861111
 30
0.0
 10
439.6141655815972
 20
609.4618516710069
 30
0.0
 10
438.5403293185764
 20
609.4587510850694
 30
0.0
  0
SPLINE
  5
7F
330
A
100
AcDbEntity
  8
LAYER_1
 62
     7
100
AcDbSpline
210
0.0
220
0.0
230
1.0
 70
    11
 71
     3
 72
    29
 73
    25
 74
     0
 42
0.000000001
 43
0.00000001
 40
0.0
 40
0.0
 40
0.0
 40
0.0
 40
1.0
 40
1.0
 40
1.0
 40
2.0
 40
2.0
 40
2.0
 40
3.0
 40
3.0
 40
3.0
 40
4.0
 40
4.0
 40
4.0
 40
5.0
 40
5.0
 40
5.0
 40
6.0
 40
6.0
 40
6.0
 40
7.0
 40
7.0
 40
7.0
 40
8.0
 40
8.0
 40
8.0
 40
8.0
 10
440.2194688585069
 20
614.2612141927083
 30
0.0
 10
440.117494032118
 20
614.2612141927083
 30
0.0
 10
440.04755859375
 20
614.3246039496527
 30
0.0
 10
439.9455837673611
 20
614.3246039496527
 30
0.0
 10
439.6396592881944
 20
614.3246039496527
 30
0.0
 10
439.6875461154514
 20
613.8977566189236
 30
0.0
 10
439.6331136067708
 20
613.6045789930555
 30
0.0
 10
439.5504313151041
 20
613.094704861111
 30
0.0
 10
439.2572536892361
 20
612.8459689670138
 30
0.0
 10
439.2572536892361
 20
612.3298936631944
 30
0.0
 10
439.2572536892361
 20
611.8868543836805
 30
0.0
 10
439.6110649956597
 20
611.5333875868055
 30
0.0
 10
440.0506591796874
 20
611.5333875868055
 30
0.0
 10
440.3979248046875
 20
611.5333875868055
 30
0.0
 10
440.4392659505208
 20
611.9219943576388
 30
0.0
 10
440.6018744574652
 20
612.2279188368055
 30
0.0
 10
440.971533203125
 20
612.8969563802083
 30
0.0
 10
441.0862548828125
 20
613.3558430989583
 30
0.0
 10
441.0862548828125
 20
614.124099392361
 30
0.0
 10
441.083154296875
 20
614.241921657986
 30
0.0
 10
440.9970269097222
 20
614.365945095486
 30
0.0
 10
440.8761040581597
 20
614.365945095486
 30
0.0
 10
440.6146213107638
 20
614.365945095486
 30
0.0
 10
440.4809516059028
 20
614.2612141927083
 30
0.0
 10
440.2194688585069
 20
614.2612141927083
 30
0.0
  0
SPLINE
  5
7E
330
A
100
AcDbEntity
  8
LAYER_1
 62
     7
100
AcDbSpline
210
0.0
220
0.0
230
1.0
 70
     8
 71
     3
 72
    14
 73
    10
 74
     0
 42
0.000000001
 43
0.00000001
 40
0.0
 40
0.0
 40
0.0
 40
0.0
 40
1.0
 40
1.0
 40
1.0
 40
2.0
 40
2.0
 40
2.0
 40
3.0
 40
3.0
 40
3.0
 40
3.0
 10
439.1521782769097
 20
612.0494628906249
 30
0.0
 10
438.9034423828124
 20
611.7469835069444
 30
0.0
 10
438.740833875868
 20
611.5140950520832
 30
0.0
 10
438.740833875868
 20
611.1189425998264
 30
0.0
 10
438.740833875868
 20
610.7461832682291
 30
0.0
 10
438.7856201171875
 20
610.2521565755208
 30
0.0
 10
439.1583794487847
 20
610.2521565755208
 30
0.0
 10
439.7605821397569
 20
610.2587022569444
 30
0.0
 10
439.7671278211805
 20
611.0138671875
 30
0.0
 10
439.9135443793402
 20
611.6002224392361
 30
0.0
  0
SPLINE
  5
7D
330
A
100
AcDbEntity
  8
LAYER_1
 62
     7
100
AcDbSpline
210
0.0
220
0.0
230
1.0
 70
    11
 71
     3
 72
    26
 73
    22
 74
     0
 42
0.000000001
 43
0.00000001
 40
0.0
 40
0.0
 40
0.0
 40
0.0
 40
1.0
 40
1.0
 40
1.0
 40
2.0
 40
2.0
 40
2.0
 40
3.0
 40
3.0
 40
3.0
 40
4.0
 40
4.0
 40
4.0
 40
5.0
 40
5.0
 40
5.0
 40
6.0
 40
6.0
 40
6.0
 40
7.0
 40
7.0
 40
7.0
 40
7.0
 10
441.1820285373263
 20
616.472620985243
 30
0.0
 10
440.8888509114583
 20
616.8229871961805
 30
0.0
 10
440.6721544053819
 20
617.160951063368
 30
0.0
 10
440.2163682725694
 20
617.160951063368
 30
0.0
 10
440.0251654730902
 20
617.160951063368
 30
0.0
 10
439.999671766493
 20
616.9408094618055
 30
0.0
 10
439.9038981119791
 20
616.7785454644097
 30
0.0
 10
439.7161404079861
 20
616.4536729600694
 30
0.0
 10
439.5600775824652
 20
616.243177625868
 30
0.0
 10
439.5631781684027
 20
615.8673177083333
 30
0.0
 10
439.5631781684027
 20
615.4084309895833
 30
0.0
 10
439.9359375
 20
615.0194797092013
 30
0.0
 10
440.3917236328124
 20
615.0194797092013
 30
0.0
 10
440.6849012586805
 20
615.0194797092013
 30
0.0
 10
440.74208984375
 20
615.3319498697916
 30
0.0
 10
441.0097737630208
 20
615.4339246961805
 30
0.0
 10
441.2616102430555
 20
615.5293538411457
 30
0.0
 10
441.4975992838541
 20
615.5483018663194
 30
0.0
 10
441.6343695746527
 20
615.7811903211805
 30
0.0
 10
441.6343695746527
 20
615.7811903211805
 30
0.0
 10
441.1820285373263
 20
616.472620985243
 30
0.0
 10
441.1820285373263
 20
616.472620985243
 30
0.0
  0
SPLINE
  5
7C
330
A
100
AcDbEntity
  8
LAYER_1
 62
     7
100
AcDbSpline
210
0.0
220
0.0
230
1.0
 70
    11
 71
     3
 72
    29
 73
    25
 74
     0
 42
0.000000001
 43
0.00000001
 40
0.0
 40
0.0
 40
0.0
 40
0.0
 40
1.0
 40
1.0
 40
1.0
 40
2.0
 40
2.0
 40
2.0
 40
3.0
 40
3.0
 40
3.0
 40
4.0
 40
4.0
 40
4.0
 40
5.0
 40
5.0
 40
5.0
 40
6.0
 40
6.0
 40
6.0
 40
7.0
 40
7.0
 40
7.0
 40
8.0
 40
8.0
 40
8.0
 40
8.0
 10
441.4304199218749
 20
621.6826388888888
 30
0.0
 10
441.0704074435764
 20
621.6826388888888
 30
0.0
 10
441.0163194444444
 20
621.2333984375
 30
0.0
 10
440.9332926432292
 20
620.8892333984375
 30
0.0
 10
440.8216715494791
 20
620.4303466796874
 30
0.0
 10
440.8216715494791
 20
620.1371690538194
 30
0.0
 10
440.694203016493
 20
619.6817274305555
 30
0.0
 10
440.4713053385416
 20
618.9038248697916
 30
0.0
 10
440.111292860243
 20
618.486279296875
 30
0.0
 10
440.111292860243
 20
617.6773708767361
 30
0.0
 10
440.111292860243
 20
617.3838487413194
 30
0.0
 10
440.4044704861111
 20
617.1957465277777
 30
0.0
 10
440.6976481119791
 20
617.1957465277777
 30
0.0
 10
441.8607123480903
 20
617.1957465277777
 30
0.0
 10
442.5011555989583
 20
618.024636501736
 30
0.0
 10
443.0430691189236
 20
619.0602322048611
 30
0.0
 10
443.3872341579861
 20
619.7196234809027
 30
0.0
 10
443.7982340494791
 20
620.0544867621527
 30
0.0
 10
443.7982340494791
 20
620.7872585720486
 30
0.0
 10
443.7982340494791
 20
621.2017035590277
 30
0.0
 10
443.1925862630208
 20
621.0549424913194
 30
0.0
 10
442.7977783203124
 20
621.1696641710068
 30
0.0
 10
442.2527642144097
 20
621.3226264105903
 30
0.0
 10
442.000927734375
 20
621.6826388888888
 30
0.0
 10
441.4304199218749
 20
621.6826388888888
 30
0.0
  0
SPLINE
  5
7B
330
A
100
AcDbEntity
  8
LAYER_1
  6
AI9-LType2
 62
     7
100
AcDbSpline
210
0.0
220
0.0
230
1.0
 70
     8
 71
     3
 72
    17
 73
    13
 74
     0
 42
0.000000001
 43
0.00000001
 40
0.0
 40
0.0
 40
0.0
 40
0.0
 40
1.0
 40
1.0
 40
1.0
 40
2.0
 40
2.0
 40
2.0
 40
3.0
 40
3.0
 40
3.0
 40
4.0
 40
4.0
 40
4.0
 40
4.0
 10
409.7903184678819
 20
628.8081298828124
 30
0.0
 10
409.5446831597222
 20
628.0112792968749
 30
0.0
 10
409.1019883897569
 20
626.0069227430555
 30
0.0
 10
409.0730495876736
 20
623.1454264322916
 30
0.0
 10
409.0413547092014
 20
620.2804850260416
 30
0.0
 10
409.7072916666666
 20
614.8985568576388
 30
0.0
 10
410.0228624131944
 20
612.9989312065971
 30
0.0
 10
410.3380886501736
 20
611.0999945746527
 30
0.0
 10
411.2400146484375
 20
607.5115831163193
 30
0.0
 10
411.412269422743
 20
606.893532986111
 30
0.0
 10
411.5841796875
 20
606.2720377604167
 30
0.0
 10
412.0716606987847
 20
605.3384168836805
 30
0.0
 10
412.0716606987847
 20
605.3384168836805
 30
0.0
  0
SPLINE
  5
7A
330
A
100
AcDbEntity
  8
LAYER_1
  6
AI9-LType2
 62
     7
100
AcDbSpline
210
0.0
220
0.0
230
1.0
 70
     8
 71
     3
 72
    14
 73
    10
 74
     0
 42
0.000000001
 43
0.00000001
 40
0.0
 40
0.0
 40
0.0
 40
0.0
 40
1.0
 40
1.0
 40
1.0
 40
2.0
 40
2.0
 40
2.0
 40
3.0
 40
3.0
 40
3.0
 40
3.0
 10
412.5977267795138
 20
600.5073594835069
 30
0.0
 10
413.0500678168402
 20
598.6080783420139
 30
0.0
 10
414.8570203993055
 20
591.9542209201388
 30
0.0
 10
415.5515516493055
 20
590.0931803385416
 30
0.0
 10
416.2464274088541
 20
588.2259385850693
 30
0.0
 10
417.1066677517361
 20
587.1965440538194
 30
0.0
 10
417.4542778862847
 20
586.3710991753471
 30
0.0
 10
417.8015435112847
 20
585.5428982204861
 30
0.0
 10
418.0468343098958
 20
584.6058322482638
 30
0.0
 10
418.0468343098958
 20
584.6058322482638
 30
0.0
  0
SPLINE
  5
79
330
A
100
AcDbEntity
  8
LAYER_1
  6
AI9-LType2
 62
     7
100
AcDbSpline
210
0.0
220
0.0
230
1.0
 70
     8
 71
     3
 72
    20
 73
    16
 74
     0
 42
0.000000001
 43
0.00000001
 40
0.0
 40
0.0
 40
0.0
 40
0.0
 40
1.0
 40
1.0
 40
1.0
 40
2.0
 40
2.0
 40
2.0
 40
3.0
 40
3.0
 40
3.0
 40
4.0
 40
4.0
 40
4.0
 40
5.0
 40
5.0
 40
5.0
 40
5.0
 10
433.8556884765625
 20
581.6678548177083
 30
0.0
 10
432.5810031467013
 20
581.8366644965278
 30
0.0
 10
423.7763726128472
 20
583.2705132378471
 30
0.0
 10
422.256396484375
 20
583.5798828124999
 30
0.0
 10
420.7395209418402
 20
583.8920084635416
 30
0.0
 10
419.0090494791666
 20
584.2999077690972
 30
0.0
 10
417.9734537760417
 20
584.6409722222222
 30
0.0
 10
416.9409586588541
 20
584.9882378472222
 30
0.0
 10
410.2746988932291
 20
587.0084418402777
 30
0.0
 10
408.1680230034722
 20
587.5600016276042
 30
0.0
 10
406.0616916232639
 20
588.1046712239582
 30
0.0
 10
398.3946316189236
 20
590.0614854600694
 30
0.0
 10
396.944935438368
 20
590.4056504991319
 30
0.0
 10
395.4979953342013
 20
590.7436143663194
 30
0.0
 10
391.9385226779514
 20
591.4636393229166
 30
0.0
 10
391.9385226779514
 20
591.4636393229166
 30
0.0
  0
SPLINE
  5
78
330
A
100
AcDbEntity
  8
LAYER_1
  6
AI9-LType2
 62
     7
100
AcDbSpline
210
0.0
220
0.0
230
1.0
 70
     8
 71
     3
 72
    20
 73
    16
 74
     0
 42
0.000000001
 43
0.00000001
 40
0.0
 40
0.0
 40
0.0
 40
0.0
 40
1.0
 40
1.0
 40
1.0
 40
2.0
 40
2.0
 40
2.0
 40
3.0
 40
3.0
 40
3.0
 40
4.0
 40
4.0
 40
4.0
 40
5.0
 40
5.0
 40
5.0
 40
5.0
 10
382.2381673177083
 20
592.999462890625
 30
0.0
 10
380.5462809244791
 20
593.0346028645832
 30
0.0
 10
375.1988037109375
 20
593.0917914496528
 30
0.0
 10
373.6436876085069
 20
593.2609456380208
 30
0.0
 10
372.0885715060763
 20
593.4328559027778
 30
0.0
 10
368.1211995442708
 20
594.3954155815971
 30
0.0
 10
367.1176432291666
 20
594.6310601128472
 30
0.0
 10
366.1168429904513
 20
594.8735948350694
 30
0.0
 10
358.1056179470486
 20
596.3773790147569
 30
0.0
 10
356.2766167534722
 20
596.6512641059027
 30
0.0
 10
354.4472710503472
 20
596.9192925347222
 30
0.0
 10
342.777699110243
 20
599.6981065538193
 30
0.0
 10
341.6370279947917
 20
600.0419270833332
 30
0.0
 10
340.4963568793402
 20
600.3829915364582
 30
0.0
 10
339.4604166666666
 20
600.9727918836805
 30
0.0
 10
339.4604166666666
 20
600.9727918836805
 30
0.0
  0
SPLINE
  5
77
330
A
100
AcDbEntity
  8
LAYER_1
  6
AI9-LType2
 62
     7
100
AcDbSpline
210
0.0
220
0.0
230
1.0
 70
     8
 71
     3
 72
    20
 73
    16
 74
     0
 42
0.000000001
 43
0.00000001
 40
0.0
 40
0.0
 40
0.0
 40
0.0
 40
1.0
 40
1.0
 40
1.0
 40
2.0
 40
2.0
 40
2.0
 40
3.0
 40
3.0
 40
3.0
 40
4.0
 40
4.0
 40
4.0
 40
5.0
 40
5.0
 40
5.0
 40
5.0
 10
344.0141438802083
 20
582.891552734375
 30
0.0
 10
344.8461344401042
 20
582.4102728949653
 30
0.0
 10
362.5573703342014
 20
579.0578504774305
 30
0.0
 10
364.351576063368
 20
578.7167860243055
 30
0.0
 10
366.1423366970486
 20
578.3729654947916
 30
0.0
 10
378.3314290364583
 20
576.2218478732639
 30
0.0
 10
380.820166015625
 20
575.6737331814236
 30
0.0
 10
383.3058024088541
 20
575.1256184895833
 30
0.0
 10
389.8990261501736
 20
574.3132649739583
 30
0.0
 10
391.8331027560764
 20
574.1410101996527
 30
0.0
 10
393.7644232855902
 20
573.9687554253471
 30
0.0
 10
396.8012749565972
 20
573.3889458550346
 30
0.0
 10
398.493505859375
 20
573.1178168402777
 30
0.0
 10
400.1853922526041
 20
572.8439317491319
 30
0.0
 10
402.6741292317708
 20
572.1208062065972
 30
0.0
 10
402.6741292317708
 20
572.1208062065972
 30
0.0
  0
LINE
  5
76
330
A
100
AcDbEntity
  8
LAYER_1
  6
AI9-LType2
 62
     7
100
AcDbLine
 10
335.270147
 20
608.58852
 30
0.0
 11
328.641783
 21
609.130433
 31
0.0
  0
SPLINE
  5
75
330
A
100
AcDbEntity
  8
LAYER_1
  6
AI9-LType2
 62
     7
100
AcDbSpline
210
0.0
220
0.0
230
1.0
 70
     8
 71
     3
 72
    41
 73
    37
 74
     0
 42
0.000000001
 43
0.00000001
 40
0.0
 40
0.0
 40
0.0
 40
0.0
 40
1.0
 40
1.0
 40
1.0
 40
2.0
 40
2.0
 40
2.0
 40
3.0
 40
3.0
 40
3.0
 40
4.0
 40
4.0
 40
4.0
 40
5.0
 40
5.0
 40
5.0
 40
6.0
 40
6.0
 40
6.0
 40
7.0
 40
7.0
 40
7.0
 40
8.0
 40
8.0
 40
8.0
 40
9.0
 40
9.0
 40
9.0
 40
10.0
 40
10.0
 40
10.0
 40
11.0
 40
11.0
 40
11.0
 40
12.0
 40
12.0
 40
12.0
 40
12.0
 10
419.2481391059027
 20
627.6833062065972
 30
0.0
 10
417.9703531901041
 20
627.19892578125
 30
0.0
 10
415.9370578342014
 20
626.1950249565972
 30
0.0
 10
415.0034369574652
 20
626.3286946614583
 30
0.0
 10
414.0698160807291
 20
626.4658094618055
 30
0.0
 10
411.4439643012153
 20
627.6705593532986
 30
0.0
 10
409.9270887586805
 20
628.6679144965277
 30
0.0
 10
408.4071126302083
 20
629.6683702256944
 30
0.0
 10
406.3328206380208
 20
630.6660698784722
 30
0.0
 10
405.3640597873264
 20
630.7997395833332
 30
0.0
 10
404.3983995225694
 20
630.9368543836805
 30
0.0
 10
404.5034749348958
 20
630.9368543836805
 30
0.0
 10
403.1936496310764
 20
631.628285047743
 30
0.0
 10
401.8776231553819
 20
632.3135145399305
 30
0.0
 10
399.8064317491319
 20
632.8264892578125
 30
0.0
 10
397.5181993272569
 20
637.5173312717013
 30
0.0
 10
395.233412000868
 20
642.2078287760417
 30
0.0
 10
394.6088161892361
 20
643.3075032552083
 30
0.0
 10
393.7134358723958
 20
643.6230740017361
 30
0.0
 10
392.814954969618
 20
643.9289984809027
 30
0.0
 10
390.915673828125
 20
644.4450737847221
 30
0.0
 10
386.8718207465278
 20
647.1281141493055
 30
0.0
 10
382.8276231553819
 20
649.8114990234375
 30
0.0
 10
376.91962890625
 20
654.0114149305555
 30
0.0
 10
375.3645128038194
 20
655.2223659939235
 30
0.0
 10
373.8097412109375
 20
656.420570203993
 30
0.0
 10
366.5536810980902
 20
661.2102864583333
 30
0.0
 10
364.4821451822916
 20
662.2775770399305
 30
0.0
 10
362.4078531901041
 20
663.3421115451388
 30
0.0
 10
360.5051269531249
 20
664.5816569010416
 30
0.0
 10
358.9851508246527
 20
665.3368218315971
 30
0.0
 10
357.468275282118
 20
666.0954318576388
 30
0.0
 10
355.7763888888888
 20
667.1661675347221
 30
0.0
 10
354.4569173177083
 20
669.2628526475694
 30
0.0
 10
353.1439914279513
 20
671.3660834418403
 30
0.0
 10
352.4846001519097
 20
672.6087293836805
 30
0.0
 10
352.4846001519097
 20
672.6087293836805
 30
0.0
  0
LINE
  5
73
330
A
100
AcDbEntity
  8
LAYER_1
  6
AI9-LType1
 62
     7
100
AcDbLine
 10
341.968446
 20
568.70465
 30
0.0
 11
444.397336
 21
574.542708
 31
0.0
  0
LINE
  5
72
330
A
100
AcDbEntity
  8
LAYER_1
  6
AI9-LType1
 62
     7
100
AcDbLine
 10
419.041089
 20
627.651611
 30
0.0
 11
439.630013
 21
614.847569
 31
0.0
  0
POLYLINE
  5
6D
330
A
100
AcDbEntity
  8
LAYER_1
  6
AI9-LType1
 62
     7
100
AcDb2dPolyline
 66
     1
 10
0.0
 20
0.0
 30
0.0
  0
VERTEX
  5
6E
330
6D
100
AcDbEntity
  8
LAYER_1
  6
AI9-LType1
 62
     7
100
AcDbVertex
100
AcDb2dVertex
 10
361.129723
 20
664.272287
 30
0.0
  0
VERTEX
  5
6F
330
6D
100
AcDbEntity
  8
LAYER_1
  6
AI9-LType1
 62
     7
100
AcDbVertex
100
AcDb2dVertex
 10
358.679226
 20
642.453464
 30
0.0
  0
VERTEX
  5
70
330
6D
100
AcDbEntity
  8
LAYER_1
  6
AI9-LType1
 62
     7
100
AcDbVertex
100
AcDb2dVertex
 10
342.385992
 20
644.636277
 30
0.0
  0
SEQEND
  5
71
330
6D
100
AcDbEntity
  8
LAYER_1
  6
AI9-LType1
 62
     7
  0
INSERT
  5
46
330
A
100
AcDbEntity
  8
LAYER_1
 62
     7
100
AcDbBlockReference
  2
AI9-BLK2
 10
382.678106
 20
649.390681
 30
0.0
  0
SPLINE
  5
44
330
A
100
AcDbEntity
  8
LAYER_1
 62
     7
100
AcDbSpline
210
0.0
220
0.0
230
1.0
 70
     8
 71
     3
 72
    23
 73
    19
 74
     0
 42
0.000000001
 43
0.00000001
 40
0.0
 40
0.0
 40
0.0
 40
0.0
 40
1.0
 40
1.0
 40
1.0
 40
2.0
 40
2.0
 40
2.0
 40
3.0
 40
3.0
 40
3.0
 40
4.0
 40
4.0
 40
4.0
 40
5.0
 40
5.0
 40
5.0
 40
6.0
 40
6.0
 40
6.0
 40
6.0
 10
385.5936903211805
 20
647.3355088975694
 30
0.0
 10
384.3541449652777
 20
645.9492024739583
 30
0.0
 10
382.5664849175347
 20
644.4292263454861
 30
0.0
 10
381.6008246527778
 20
641.9466905381944
 30
0.0
 10
380.6386094835069
 20
639.4579535590277
 30
0.0
 10
378.7138346354166
 20
634.0691351996527
 30
0.0
 10
379.5454806857638
 20
632.6924750434027
 30
0.0
 10
380.3771267361111
 20
631.3096137152777
 30
0.0
 10
382.0376627604167
 20
629.2415228949652
 30
0.0
 10
382.7321940104166
 20
627.3105468749999
 30
0.0
 10
383.4270697699652
 20
625.3826714409722
 30
0.0
 10
384.6793619791666
 20
620.1371690538194
 30
0.0
 10
383.7137017144097
 20
617.7821017795138
 30
0.0
 10
382.7511420355902
 20
615.4401258680555
 30
0.0
 10
381.3779269748264
 20
611.1540825737846
 30
0.0
 10
380.9634819878472
 20
610.4657524956597
 30
0.0
 10
380.5493815104167
 20
609.7743218315971
 30
0.0
 10
380.1383816189236
 20
609.2196614583332
 30
0.0
 10
380.1383816189236
 20
609.2196614583332
 30
0.0
  0
SPLINE
  5
43
330
A
100
AcDbEntity
  8
LAYER_1
 62
     7
100
AcDbSpline
210
0.0
220
0.0
230
1.0
 70
     8
 71
     3
 72
    17
 73
    13
 74
     0
 42
0.000000001
 43
0.00000001
 40
0.0
 40
0.0
 40
0.0
 40
0.0
 40
1.0
 40
1.0
 40
1.0
 40
2.0
 40
2.0
 40
2.0
 40
3.0
 40
3.0
 40
3.0
 40
4.0
 40
4.0
 40
4.0
 40
4.0
 10
391.673939344618
 20
644.1708441840277
 30
0.0
 10
392.0945855034722
 20
641.959437391493
 30
0.0
 10
394.0352077907986
 20
634.7829589843749
 30
0.0
 10
394.315638563368
 20
632.4375379774305
 30
0.0
 10
394.5995144314236
 20
630.0893608940971
 30
0.0
 10
395.0198160807291
 20
624.8473036024305
 30
0.0
 10
394.886146375868
 20
622.4984374999999
 30
0.0
 10
394.7524766710069
 20
620.149915907118
 30
0.0
 10
395.0391086154514
 20
614.6305284288194
 30
0.0
 10
395.0453097873263
 20
612.9734374999999
 30
0.0
 10
395.0487548828125
 20
611.3163465711805
 30
0.0
 10
395.1920708550347
 20
607.3138346354166
 30
0.0
 10
395.1920708550347
 20
607.3138346354166
 30
0.0
  0
SPLINE
  5
42
330
A
100
AcDbEntity
  8
LAYER_1
 62
     7
100
AcDbSpline
210
0.0
220
0.0
230
1.0
 70
     8
 71
     3
 72
    26
 73
    22
 74
     0
 42
0.000000001
 43
0.00000001
 40
0.0
 40
0.0
 40
0.0
 40
0.0
 40
1.0
 40
1.0
 40
1.0
 40
2.0
 40
2.0
 40
2.0
 40
3.0
 40
3.0
 40
3.0
 40
4.0
 40
4.0
 40
4.0
 40
5.0
 40
5.0
 40
5.0
 40
6.0
 40
6.0
 40
6.0
 40
7.0
 40
7.0
 40
7.0
 40
7.0
 10
395.338831922743
 20
602.2026909722222
 30
0.0
 10
395.3419325086805
 20
599.9974853515624
 30
0.0
 10
395.7591335720486
 20
598.8885091145833
 30
0.0
 10
395.2079182942708
 20
596.9606336805555
 30
0.0
 10
394.6598036024305
 20
595.0265570746527
 30
0.0
 10
394.2488037109375
 20
593.6433512369791
 30
0.0
 10
393.2831434461805
 20
592.5405761718749
 30
0.0
 10
392.3174831814236
 20
591.4319444444444
 30
0.0
 10
391.7662679036458
 20
591.0174994574652
 30
0.0
 10
390.6638373480902
 20
591.2913845486111
 30
0.0
 10
389.5579616970486
 20
591.5656141493055
 30
0.0
 10
385.415234375
 20
591.8332980685764
 30
0.0
 10
383.7584879557292
 20
592.3814127604167
 30
0.0
 10
382.0979519314236
 20
592.9326280381944
 30
0.0
 10
379.4755452473958
 20
594.5866183810764
 30
0.0
 10
379.0579996744791
 20
596.791824001736
 30
0.0
 10
378.6404541015625
 20
599.0032307942707
 30
0.0
 10
378.6342529296875
 20
602.4514268663194
 30
0.0
 10
378.6342529296875
 20
602.4514268663194
 30
0.0
 10
378.6342529296875
 20
602.4514268663194
 30
0.0
 10
379.042152235243
 20
603.8342881944444
 30
0.0
 10
379.042152235243
 20
603.8342881944444
 30
0.0
  0
LINE
  5
41
330
A
100
AcDbEntity
  8
LAYER_1
 62
     7
100
AcDbLine
 10
436.79091
 20
581.014665
 30
0.0
 11
435.700882
 21
573.972201
 31
0.0
  0
LINE
  5
40
330
A
100
AcDbEntity
  8
LAYER_1
 62
     7
100
AcDbLine
 10
436.615554
 20
602.827287
 30
0.0
 11
336.366376
 21
613.974238
 31
0.0
  0
LINE
  5
3F
330
A
100
AcDbEntity
  8
LAYER_1
 62
     7
100
AcDbLine
 10
335.547133
 20
608.314635
 30
0.0
 11
436.624856
 21
597.996229
 31
0.0
  0
CIRCLE
  5
3E
330
A
100
AcDbEntity
  8
LAYER_1
 62
     7
100
AcDbCircle
 10
390.429571
 20
576.04322
 30
0.0
 40
0.782388
  0
LINE
  5
3D
330
A
100
AcDbEntity
  8
LAYER_1
 62
     7
100
AcDbLine
 10
390.428193
 20
577.611255
 30
0.0
 11
390.434394
 21
574.47863
 31
0.0
  0
LINE
  5
3C
330
A
100
AcDbEntity
  8
LAYER_1
 62
     7
100
AcDbLine
 10
388.86343
 20
576.039947
 30
0.0
 11
391.995711
 21
576.046493
 31
0.0
  0
INSERT
  5
36
330
A
100
AcDbEntity
  8
LAYER_1
 62
     7
100
AcDbBlockReference
  2
AI9-BLK1
 10
390.442318
 20
654.35558
 30
0.0
  0
MTEXT
  5
34
330
A
100
AcDbEntity
  8
LAYER_1
 62
     7
100
AcDbMText
 10
393.413713
 20
576.820281
 30
0.0
 40
1.232675
 41
0.0
 46
0.0
 71
     1
 72
     2
  1
\W1.00;\fHelvetica|b0|i0;790/290
  7
STD
 73
     1
 44
1.0
  0
MTEXT
  5
33
330
A
100
AcDbEntity
  8
LAYER_1
 62
     7
100
AcDbMText
 10
392.276142
 20
655.0019
 30
0.0
 40
1.232675
 41
0.0
 46
0.0
 71
     1
 72
     2
  1
\W1.00;\fHelvetica|b0|i0;790/295
  7
STD
 73
     1
 44
1.0
  0
MTEXT
  5
32
330
A
100
AcDbEntity
  8
LAYER_1
 62
     7
100
AcDbMText
 10
333.689537
 20
573.212921
 30
0.0
 40
1.232675
 41
0.0
 46
0.0
 71
     1
 72
     2
  1
\W1.00;\fHelvetica|b0|i0;620
  7
STD
 73
     1
 44
1.0
  0
MTEXT
  5
31
330
A
100
AcDbEntity
  8
LAYER_1
 62
     7
100
AcDbMText
 10
350.496091
 20
575.316496
 30
0.0
 40
1.232675
 41
0.0
 46
0.0
 71
     1
 72
     2
  1
\W1.00;\fHelvetica|b0|i0;1166
  7
STD
 73
     1
 44
1.0
  0
MTEXT
  5
30
330
A
100
AcDbEntity
  8
LAYER_1
 62
     7
100
AcDbMText
 10
376.120022
 20
586.577825
 30
0.0
 40
1.232675
 41
0.0
 46
0.0
 71
     1
 72
     2
  1
\W1.00;\fHelvetica|b0|i0;1084
  7
STD
 73
     1
 44
1.0
  0
MTEXT
  5
2F
330
A
100
AcDbEntity
  8
LAYER_1
 62
     7
100
AcDbMText
 10
355.317502
 20
626.341117
 30
0.0
 40
1.232675
 41
0.0
 46
0.0
 71
     1
 72
     2
  1
\W1.00;\fHelvetica|b0|i0;1166
  7
STD
 73
     1
 44
1.0
  0
MTEXT
  5
2E
330
A
100
AcDbEntity
  8
LAYER_1
 62
     7
100
AcDbMText
 10
333.778765
 20
633.887254
 30
0.0
 40
1.232675
 41
0.0
 46
0.0
 71
     1
 72
     2
  1
\W1.00;\fHelvetica|b0|i0;724
  7
STD
 73
     1
 44
1.0
  0
MTEXT
  5
2D
330
A
100
AcDbEntity
  8
LAYER_1
 62
     7
100
AcDbMText
 10
414.955895
 20
612.533174
 30
0.0
 40
1.232675
 41
0.0
 46
0.0
 71
     1
 72
     2
  1
\W1.00;\fHelvetica|b0|i0;1168 = 755
  7
STD
 73
     1
 44
1.0
  0
MTEXT
  5
2C
330
A
100
AcDbEntity
  8
LAYER_1
 62
     7
100
AcDbMText
 10
396.183225
 20
619.89741
 30
0.0
 40
1.232675
 41
0.0
 46
0.0
 71
     1
 72
     2
  1
\W1.00;\fHelvetica|b0|i0;1167
  7
STD
 73
     1
 44
1.0
  0
MTEXT
  5
2B
330
A
100
AcDbEntity
  8
LAYER_1
 62
     7
100
AcDbMText
 10
386.976896
 20
622.47572
 30
0.0
 40
1.232675
 41
0.0
 46
0.0
 71
     1
 72
     2
  1
\W1.00;\fHelvetica|b0|i0;1163
  7
STD
 73
     1
 44
1.0
  0
MTEXT
  5
2A
330
A
100
AcDbEntity
  8
LAYER_1
 62
     7
100
AcDbMText
 10
333.778765
 20
642.538922
 30
0.0
 40
1.232675
 41
0.0
 46
0.0
 71
     1
 72
     2
  1
\W1.00;\fHelvetica|b0|i0;1062
  7
STD
 73
     1
 44
1.0
  0
LINE
  5
29
330
A
100
AcDbEntity
  8
LAYER_1
 62
     7
100
AcDbLine
 10
338.434467
 20
641.758588
 30
0.0
 11
342.968902
 21
641.252159
 31
0.0
  0
ENDSEC
  0
SECTION
  2
OBJECTS
  0
DICTIONARY
  5
19
330
0
100
AcDbDictionary
281
     1
  3
ACAD_DETAILVIEWSTYLE
350
167
  3
ACAD_GROUP
350
1A
  3
ACAD_LAYOUT
350
1E
  3
ACAD_MATERIAL
350
127
  3
ACAD_MLEADERSTYLE
350
12D
  3
ACAD_MLINESTYLE
350
1B
  3
ACAD_PLOTSETTINGS
350
22
  3
ACAD_PLOTSTYLENAME
350
1F
  3
ACAD_SCALELIST
350
EC
  3
ACAD_SECTIONVIEWSTYLE
350
168
  3
ACAD_TABLESTYLE
350
12B
  3
ACAD_VISUALSTYLE
350
10E
  3
ACAD_WIPEOUT_VARS
350
23
  3
ACDB_RECOMPOSE_DATA
350
163
  3
AcDbVariableDictionary
350
12F
  0
DICTIONARY
  5
167
102
{ACAD_REACTORS
330
19
102
}
330
19
100
AcDbDictionary
281
     1
  0
DICTIONARY
  5
1A
102
{ACAD_REACTORS
330
19
102
}
330
19
100
AcDbDictionary
281
     1
  0
DICTIONARY
  5
1E
102
{ACAD_REACTORS
330
19
102
}
330
19
100
AcDbDictionary
281
     1
  3
Layout1
350
21
  3
Model
350
20
  0
DICTIONARY
  5
127
102
{ACAD_REACTORS
330
19
102
}
330
19
100
AcDbDictionary
281
     1
  3
ByBlock
350
129
  3
ByLayer
350
128
  3
Global
350
12A
  0
DICTIONARY
  5
12D
102
{ACAD_REACTORS
330
19
102
}
330
19
100
AcDbDictionary
281
     1
  3
Standard
350
12E
  0
DICTIONARY
  5
1B
102
{ACAD_REACTORS
330
19
102
}
330
19
100
AcDbDictionary
281
     1
  3
Standard
350
1C
  0
DICTIONARY
  5
22
102
{ACAD_REACTORS
330
19
102
}
330
19
100
AcDbDictionary
281
     1
  0
ACDBDICTIONARYWDFLT
  5
1F
102
{ACAD_REACTORS
330
19
102
}
330
19
100
AcDbDictionary
281
     1
  3
Normal
350
1D
100
AcDbDictionaryWithDefault
340
1D
  0
DICTIONARY
  5
EC
102
{ACAD_REACTORS
330
19
102
}
330
19
100
AcDbDictionary
281
     1
  3
A0
350
ED
  3
A1
350
EE
  3
A2
350
EF
  3
A3
350
F0
  3
A4
350
F1
  3
A5
350
F2
  3
A6
350
F3
  3
A7
350
F4
  3
A8
350
F5
  3
A9
350
F6
  3
B0
350
F7
  3
B1
350
F8
  3
B2
350
F9
  3
B3
350
FA
  3
B4
350
FB
  3
B5
350
FC
  3
B6
350
FD
  3
B7
350
FE
  3
B8
350
FF
  3
B9
350
100
  3
C0
350
101
  3
C1
350
102
  3
C2
350
103
  3
C3
350
104
  3
C4
350
105
  3
C5
350
106
  3
C6
350
107
  3
C7
350
108
  3
C8
350
109
  3
C9
350
10A
  3
D0
350
10B
  3
D1
350
10C
  3
D2
350
10D
  0
DICTIONARY
  5
168
102
{ACAD_REACTORS
330
19
102
}
330
19
100
AcDbDictionary
281
     1
  0
DICTIONARY
  5
12B
102
{ACAD_REACTORS
330
19
102
}
330
19
100
AcDbDictionary
281
     1
  3
Standard
350
12C
  0
DICTIONARY
  5
10E
102
{ACAD_REACTORS
330
19
102
}
330
19
100
AcDbDictionary
281
     1
  3
2dWireframe
350
113
  3
Basic
350
116
  3
Brighten
350
11A
  3
ColorChange
350
11E
  3
Conceptual
350
118
  3
Dim
350
119
  3
EdgeColorOff
350
121
  3
Facepattern
350
11D
  3
Flat
350
10F
  3
FlatWithEdges
350
110
  3
Gouraud
350
111
  3
GouraudWithEdges
350
112
  3
Hidden
350
115
  3
JitterOff
350
11F
  3
Linepattern
350
11C
  3
OverhangOff
350
120
  3
Realistic
350
117
  3
Shaded
350
126
  3
Shaded with edges
350
125
  3
Shades of Gray
350
122
  3
Sketchy
350
123
  3
Thicken
350
11B
  3
Wireframe
350
114
  3
X-Ray
350
124
  0
WIPEOUTVARIABLES
  5
23
330
19
100
AcDbWipeoutVariables
 70
     1
  0
XRECORD
  5
163
102
{ACAD_REACTORS
330
19
102
}
330
19
100
AcDbXrecord
280
     1
 90
        1
330
12C
  0
DICTIONARY
  5
12F
102
{ACAD_REACTORS
330
19
102
}
330
19
100
AcDbDictionary
281
     1
  3
CANNOSCALE
350
130
  3
CMLEADERSTYLE
350
165
  3
CTABLESTYLE
350
164
  3
MSLTSCALE
350
166
  0
LAYOUT
  5
21
102
{ACAD_REACTORS
330
1E
102
}
330
1E
100
AcDbPlotSettings
  1

  2

  4

  6

 40
0.0
 41
0.0
 42
0.0
 43
0.0
 44
0.0
 45
0.0
 46
0.0
 47
0.0
 48
0.0
 49
0.0
140
0.0
141
0.0
142
1.0
143
1.0
 70
     0
 72
     0
 73
     0
 74
     0
  7

 75
     0
 76
     0
 77
     2
 78
   300
147
1.0
148
0.0
149
0.0
100
AcDbLayout
  1
Layout1
 70
     0
 71
     0
 10
0.0
 20
0.0
 11
0.0
 21
0.0
 12
0.0
 22
0.0
 32
0.0
 14
0.0
 24
0.0
 34
0.0
 15
0.0
 25
0.0
 35
0.0
146
0.0
 13
0.0
 23
0.0
 33
0.0
 16
0.0
 26
0.0
 36
0.0
 17
0.0
 27
0.0
 37
0.0
 76
     0
330
B
  0
LAYOUT
  5
20
102
{ACAD_REACTORS
330
1E
102
}
330
1E
100
AcDbPlotSettings
  1

  2

  4

  6

 40
0.0
 41
0.0
 42
0.0
 43
0.0
 44
0.0
 45
0.0
 46
0.0
 47
0.0
 48
0.0
 49
0.0
140
0.0
141
0.0
142
1.0
143
1.0
 70
  1024
 72
     0
 73
     0
 74
     0
  7

 75
     0
 76
     0
 77
     2
 78
   300
147
1.0
148
0.0
149
0.0
100
AcDbLayout
  1
Model
 70
     0
 71
     1
 10
0.0
 20
0.0
 11
0.0
 21
0.0
 12
0.0
 22
0.0
 32
0.0
 14
0.0
 24
0.0
 34
0.0
 15
0.0
 25
0.0
 35
0.0
146
0.0
 13
0.0
 23
0.0
 33
0.0
 16
0.0
 26
0.0
 36
0.0
 17
0.0
 27
0.0
 37
0.0
 76
     0
330
A
331
15
  0
MATERIAL
  5
129
102
{ACAD_REACTORS
330
127
102
}
330
127
100
AcDbMaterial
  1
ByBlock
 72
     1
 94
      127
  0
MATERIAL
  5
128
102
{ACAD_REACTORS
330
127
102
}
330
127
100
AcDbMaterial
  1
ByLayer
 72
     1
 94
      127
  0
MATERIAL
  5
12A
102
{ACAD_REACTORS
330
127
102
}
330
127
100
AcDbMaterial
  1
Global
 72
     1
 94
      127
  0
MLEADERSTYLE
  5
12E
102
{ACAD_REACTORS
330
12D
102
}
330
12D
100
AcDbMLeaderStyle
179
     2
170
     2
171
     1
172
     0
 90
        2
 40
0.0
 41
0.0
173
     1
 91
-1056964608
340
11
 92
       -2
290
     1
 42
0.09
291
     1
 43
0.36
  3
Standard
341
0
 44
0.18
300

342
17
174
     1
178
     6
175
     1
176
     0
 93
-1056964608
 45
0.18
292
     0
297
     0
 46
0.18
343
0
 94
-1056964608
 47
1.0
 49
1.0
140
1.0
293
     1
141
0.0
294
     1
177
     0
142
1.0
295
     0
296
     0
143
0.125
271
     0
272
     9
273
     9
  0
MLINESTYLE
  5
1C
102
{ACAD_REACTORS
330
1B
102
}
330
1B
100
AcDbMlineStyle
  2
Standard
 70
     0
  3

 62
     0
 51
90.0
 52
90.0
 71
     2
 49
0.5
 62
   256
  6
BYLAYER
 49
-0.5
 62
   256
  6
BYLAYER
  0
ACDBPLACEHOLDER
  5
1D
102
{ACAD_REACTORS
330
1F
102
}
330
1F
  0
SCALE
  5
ED
102
{ACAD_REACTORS
330
EC
102
}
330
EC
100
AcDbScale
 70
     0
300
1:1
140
1.0
141
1.0
290
     1
  0
SCALE
  5
EE
102
{ACAD_REACTORS
330
EC
102
}
330
EC
100
AcDbScale
 70
     0
300
1:2
140
1.0
141
2.0
290
     0
  0
SCALE
  5
EF
102
{ACAD_REACTORS
330
EC
102
}
330
EC
100
AcDbScale
 70
     0
300
1:4
140
1.0
141
4.0
290
     0
  0
SCALE
  5
F0
102
{ACAD_REACTORS
330
EC
102
}
330
EC
100
AcDbScale
 70
     0
300
1:5
140
1.0
141
5.0
290
     0
  0
SCALE
  5
F1
102
{ACAD_REACTORS
330
EC
102
}
330
EC
100
AcDbScale
 70
     0
300
1:8
140
1.0
141
8.0
290
     0
  0
SCALE
  5
F2
102
{ACAD_REACTORS
330
EC
102
}
330
EC
100
AcDbScale
 70
     0
300
1:10
140
1.0
141
10.0
290
     0
  0
SCALE
  5
F3
102
{ACAD_REACTORS
330
EC
102
}
330
EC
100
AcDbScale
 70
     0
300
1:16
140
1.0
141
16.0
290
     0
  0
SCALE
  5
F4
102
{ACAD_REACTORS
330
EC
102
}
330
EC
100
AcDbScale
 70
     0
300
1:20
140
1.0
141
20.0
290
     0
  0
SCALE
  5
F5
102
{ACAD_REACTORS
330
EC
102
}
330
EC
100
AcDbScale
 70
     0
300
1:30
140
1.0
141
30.0
290
     0
  0
SCALE
  5
F6
102
{ACAD_REACTORS
330
EC
102
}
330
EC
100
AcDbScale
 70
     0
300
1:40
140
1.0
141
40.0
290
     0
  0
SCALE
  5
F7
102
{ACAD_REACTORS
330
EC
102
}
330
EC
100
AcDbScale
 70
     0
300
1:50
140
1.0
141
50.0
290
     0
  0
SCALE
  5
F8
102
{ACAD_REACTORS
330
EC
102
}
330
EC
100
AcDbScale
 70
     0
300
1:100
140
1.0
141
100.0
290
     0
  0
SCALE
  5
F9
102
{ACAD_REACTORS
330
EC
102
}
330
EC
100
AcDbScale
 70
     0
300
2:1
140
2.0
141
1.0
290
     0
  0
SCALE
  5
FA
102
{ACAD_REACTORS
330
EC
102
}
330
EC
100
AcDbScale
 70
     0
300
4:1
140
4.0
141
1.0
290
     0
  0
SCALE
  5
FB
102
{ACAD_REACTORS
330
EC
102
}
330
EC
100
AcDbScale
 70
     0
300
8:1
140
8.0
141
1.0
290
     0
  0
SCALE
  5
FC
102
{ACAD_REACTORS
330
EC
102
}
330
EC
100
AcDbScale
 70
     0
300
10:1
140
10.0
141
1.0
290
     0
  0
SCALE
  5
FD
102
{ACAD_REACTORS
330
EC
102
}
330
EC
100
AcDbScale
 70
     0
300
100:1
140
100.0
141
1.0
290
     0
  0
SCALE
  5
FE
102
{ACAD_REACTORS
330
EC
102
}
330
EC
100
AcDbScale
 70
     0
300
1/128" = 1'-0"
140
0.0078125
141
12.0
290
     0
  0
SCALE
  5
FF
102
{ACAD_REACTORS
330
EC
102
}
330
EC
100
AcDbScale
 70
     0
300
1/64" = 1'-0"
140
0.015625
141
12.0
290
     0
  0
SCALE
  5
100
102
{ACAD_REACTORS
330
EC
102
}
330
EC
100
AcDbScale
 70
     0
300
1/32" = 1'-0"
140
0.03125
141
12.0
290
     0
  0
SCALE
  5
101
102
{ACAD_REACTORS
330
EC
102
}
330
EC
100
AcDbScale
 70
     0
300
1/16" = 1'-0"
140
0.0625
141
12.0
290
     0
  0
SCALE
  5
102
102
{ACAD_REACTORS
330
EC
102
}
330
EC
100
AcDbScale
 70
     0
300
3/32" = 1'-0"
140
0.09375
141
12.0
290
     0
  0
SCALE
  5
103
102
{ACAD_REACTORS
330
EC
102
}
330
EC
100
AcDbScale
 70
     0
300
1/8" = 1'-0"
140
0.125
141
12.0
290
     0
  0
SCALE
  5
104
102
{ACAD_REACTORS
330
EC
102
}
330
EC
100
AcDbScale
 70
     0
300
3/16" = 1'-0"
140
0.1875
141
12.0
290
     0
  0
SCALE
  5
105
102
{ACAD_REACTORS
330
EC
102
}
330
EC
100
AcDbScale
 70
     0
300
1/4" = 1'-0"
140
0.25
141
12.0
290
     0
  0
SCALE
  5
106
102
{ACAD_REACTORS
330
EC
102
}
330
EC
100
AcDbScale
 70
     0
300
3/8" = 1'-0"
140
0.375
141
12.0
290
     0
  0
SCALE
  5
107
102
{ACAD_REACTORS
330
EC
102
}
330
EC
100
AcDbScale
 70
     0
300
1/2" = 1'-0"
140
0.5
141
12.0
290
     0
  0
SCALE
  5
108
102
{ACAD_REACTORS
330
EC
102
}
330
EC
100
AcDbScale
 70
     0
300
3/4" = 1'-0"
140
0.75
141
12.0
290
     0
  0
SCALE
  5
109
102
{ACAD_REACTORS
330
EC
102
}
330
EC
100
AcDbScale
 70
     0
300
1" = 1'-0"
140
1.0
141
12.0
290
     0
  0
SCALE
  5
10A
102
{ACAD_REACTORS
330
EC
102
}
330
EC
100
AcDbScale
 70
     0
300
1-1/2" = 1'-0"
140
1.5
141
12.0
290
     0
  0
SCALE
  5
10B
102
{ACAD_REACTORS
330
EC
102
}
330
EC
100
AcDbScale
 70
     0
300
3" = 1'-0"
140
3.0
141
12.0
290
     0
  0
SCALE
  5
10C
102
{ACAD_REACTORS
330
EC
102
}
330
EC
100
AcDbScale
 70
     0
300
6" = 1'-0"
140
6.0
141
12.0
290
     0
  0
SCALE
  5
10D
102
{ACAD_REACTORS
330
EC
102
}
330
EC
100
AcDbScale
 70
     0
300
1'-0" = 1'-0"
140
12.0
141
12.0
290
     0
  0
TABLESTYLE
  5
12C
102
{ACAD_REACTORS
330
12B
102
}
102
{ACAD_XDICTIONARY
360
161
102
}
330
12B
100
AcDbTableStyle
  3
Standard
 70
     0
 71
     0
 40
0.06
 41
0.06
280
     0
281
     0
  7
Standard
140
0.18
170
     2
 62
     0
 63
   257
283
     0
 90
        4
 91
        0
  1

274
    -2
284
     1
 64
     0
275
    -2
285
     1
 65
     0
276
    -2
286
     1
 66
     0
277
    -2
287
     1
 67
     0
278
    -2
288
     1
 68
     0
279
    -2
289
     1
 69
     0
  7
Standard
140
0.25
170
     5
 62
     0
 63
   257
283
     0
 90
        4
 91
        0
  1

274
    -2
284
     1
 64
     0
275
    -2
285
     1
 65
     0
276
    -2
286
     1
 66
     0
277
    -2
287
     1
 67
     0
278
    -2
288
     1
 68
     0
279
    -2
289
     1
 69
     0
  7
Standard
140
0.18
170
     5
 62
     0
 63
   257
283
     0
 90
        4
 91
        0
  1

274
    -2
284
     1
 64
     0
275
    -2
285
     1
 65
     0
276
    -2
286
     1
 66
     0
277
    -2
287
     1
 67
     0
278
    -2
288
     1
 68
     0
279
    -2
289
     1
 69
     0
  0
VISUALSTYLE
  5
113
102
{ACAD_REACTORS
330
10E
102
}
102
{ACAD_XDICTIONARY
360
139
102
}
330
10E
100
AcDbVisualStyle
  2
2dWireframe
 70
     4
177
     2
291
     0
 71
     0
176
     1
 72
     2
176
     1
 73
     0
176
     1
 90
        0
176
     1
 40
0.6
176
     1
 41
30.0
176
     1
 62
     5
 63
     7
421
 16777215
176
     1
 74
     1
176
     1
 91
        4
176
     1
 64
     7
176
     1
 65
   257
176
     1
 75
     1
176
     1
175
     1
176
     1
 42
1.0
176
     1
 92
        0
176
     1
 66
   257
176
     1
 43
1.0
176
     1
 76
     1
176
     1
 77
     6
176
     1
 78
     2
176
     1
 67
     7
176
     1
 79
     5
176
     1
170
     0
176
     1
171
     0
176
     1
290
     0
176
     1
 93
        1
176
     1
 44
0.0
176
     1
173
     0
176
     1
  0
VISUALSTYLE
  5
116
102
{ACAD_REACTORS
330
10E
102
}
102
{ACAD_XDICTIONARY
360
13F
102
}
330
10E
100
AcDbVisualStyle
  2
Basic
 70
     7
177
     2
291
     1
 71
     1
176
     1
 72
     0
176
     1
 73
     1
176
     1
 90
        0
176
     1
 40
0.6
176
     1
 41
30.0
176
     1
 62
     5
 63
     7
421
 16777215
176
     1
 74
     0
176
     1
 91
        4
176
     1
 64
     7
176
     1
 65
   257
176
     1
 75
     1
176
     1
175
     1
176
     1
 42
1.0
176
     1
 92
        8
176
     1
 66
     7
176
     1
 43
1.0
176
     1
 76
     1
176
     1
 77
     6
176
     1
 78
     2
176
     1
 67
     7
176
     1
 79
     5
176
     1
170
     0
176
     1
171
     0
176
     1
290
     0
176
     1
 93
        1
176
     1
 44
0.0
176
     1
173
     0
176
     1
  0
VISUALSTYLE
  5
11A
102
{ACAD_REACTORS
330
10E
102
}
102
{ACAD_XDICTIONARY
360
147
102
}
330
10E
100
AcDbVisualStyle
  2
Brighten
 70
    12
177
     2
291
     1
 71
     2
176
     1
 72
     2
176
     1
 73
     0
176
     1
 90
        0
176
     1
 40
0.6
176
     1
 41
30.0
176
     1
 62
     5
 63
     7
421
 16777215
176
     1
 74
     1
176
     1
 91
        4
176
     1
 64
     7
176
     1
 65
   257
176
     1
 75
     1
176
     1
175
     1
176
     1
 42
1.0
176
     1
 92
        8
176
     1
 66
     7
176
     1
 43
1.0
176
     1
 76
     1
176
     1
 77
     6
176
     1
 78
     2
176
     1
 67
     7
176
     1
 79
     5
176
     1
170
     0
176
     1
171
     0
176
     1
290
     0
176
     1
 93
        1
176
     1
 44
50.0
176
     1
173
     0
176
     1
  0
VISUALSTYLE
  5
11E
102
{ACAD_REACTORS
330
10E
102
}
102
{ACAD_XDICTIONARY
360
14F
102
}
330
10E
100
AcDbVisualStyle
  2
ColorChange
 70
    16
177
     2
291
     1
 71
     2
176
     1
 72
     2
176
     1
 73
     3
176
     1
 90
        0
176
     1
 40
0.6
176
     1
 41
30.0
176
     1
 62
     5
 63
     8
421
  8421504
176
     1
 74
     1
176
     1
 91
        4
176
     1
 64
     7
176
     1
 65
   257
176
     1
 75
     1
176
     1
175
     1
176
     1
 42
1.0
176
     1
 92
        8
176
     1
 66
     8
424
  8421504
176
     1
 43
1.0
176
     1
 76
     1
176
     1
 77
     6
176
     1
 78
     2
176
     1
 67
     7
176
     1
 79
     5
176
     1
170
     0
176
     1
171
     0
176
     1
290
     0
176
     1
 93
        1
176
     1
 44
0.0
176
     1
173
     0
176
     1
  0
VISUALSTYLE
  5
118
102
{ACAD_REACTORS
330
10E
102
}
102
{ACAD_XDICTIONARY
360
143
102
}
330
10E
100
AcDbVisualStyle
  2
Conceptual
 70
     9
177
     2
291
     0
 71
     3
176
     1
 72
     2
176
     1
 73
     0
176
     1
 90
        0
176
     1
 40
0.6
176
     1
 41
30.0
176
     1
 62
     5
 63
     7
421
 16777215
176
     1
 74
     2
176
     1
 91
        2
176
     1
 64
     7
176
     1
 65
   257
176
     1
 75
     1
176
     1
175
     1
176
     1
 42
179.0
176
     1
 92
        8
176
     1
 66
     7
176
     1
 43
1.0
176
     1
 76
     1
176
     1
 77
     6
176
     1
 78
     2
176
     1
 67
     7
176
     1
 79
     3
176
     1
170
     0
176
     1
171
     0
176
     1
290
     0
176
     1
 93
        1
176
     1
 44
0.0
176
     1
173
     0
176
     1
  0
VISUALSTYLE
  5
119
102
{ACAD_REACTORS
330
10E
102
}
102
{ACAD_XDICTIONARY
360
145
102
}
330
10E
100
AcDbVisualStyle
  2
Dim
 70
    11
177
     2
291
     1
 71
     2
176
     1
 72
     2
176
     1
 73
     0
176
     1
 90
        0
176
     1
 40
0.6
176
     1
 41
30.0
176
     1
 62
     5
 63
     7
421
 16777215
176
     1
 74
     1
176
     1
 91
        4
176
     1
 64
     7
176
     1
 65
   257
176
     1
 75
     1
176
     1
175
     1
176
     1
 42
1.0
176
     1
 92
        8
176
     1
 66
     7
176
     1
 43
1.0
176
     1
 76
     1
176
     1
 77
     6
176
     1
 78
     2
176
     1
 67
     7
176
     1
 79
     5
176
     1
170
     0
176
     1
171
     0
176
     1
290
     0
176
     1
 93
        1
176
     1
 44
-50.0
176
     1
173
     0
176
     1
  0
VISUALSTYLE
  5
121
102
{ACAD_REACTORS
330
10E
102
}
102
{ACAD_XDICTIONARY
360
155
102
}
330
10E
100
AcDbVisualStyle
  2
EdgeColorOff
 70
    22
177
     2
291
     1
 71
     2
176
     0
 72
     2
176
     0
 73
     0
176
     0
 90
        0
176
     0
 40
0.6
176
     0
 41
30.0
176
     0
 62
     5
 63
     7
421
 16777215
176
     0
 74
     1
176
     0
 91
        4
176
     0
 64
     7
176
     0
 65
   257
176
     0
 75
     1
176
     0
175
     1
176
     0
 42
1.0
176
     0
 92
        8
176
     2
 66
     7
176
     0
 43
1.0
176
     0
 76
     1
176
     0
 77
     6
176
     0
 78
     2
176
     0
 67
     7
176
     0
 79
     5
176
     0
170
     0
176
     0
171
     0
176
     0
290
     0
176
     0
 93
        1
176
     0
 44
0.0
176
     0
173
     0
176
     0
  0
VISUALSTYLE
  5
11D
102
{ACAD_REACTORS
330
10E
102
}
102
{ACAD_XDICTIONARY
360
14D
102
}
330
10E
100
AcDbVisualStyle
  2
Facepattern
 70
    15
177
     2
291
     1
 71
     2
176
     1
 72
     2
176
     1
 73
     0
176
     1
 90
        0
176
     1
 40
0.6
176
     1
 41
30.0
176
     1
 62
     5
 63
     7
421
 16777215
176
     1
 74
     1
176
     1
 91
        4
176
     1
 64
     7
176
     1
 65
   257
176
     1
 75
     1
176
     1
175
     1
176
     1
 42
1.0
176
     1
 92
        8
176
     1
 66
     7
176
     1
 43
1.0
176
     1
 76
     1
176
     1
 77
     6
176
     1
 78
     2
176
     1
 67
     7
176
     1
 79
     5
176
     1
170
     0
176
     1
171
     0
176
     1
290
     0
176
     1
 93
        1
176
     1
 44
0.0
176
     1
173
     0
176
     1
  0
VISUALSTYLE
  5
10F
102
{ACAD_REACTORS
330
10E
102
}
102
{ACAD_XDICTIONARY
360
131
102
}
330
10E
100
AcDbVisualStyle
  2
Flat
 70
     0
177
     2
291
     1
 71
     2
176
     1
 72
     1
176
     1
 73
     1
176
     1
 90
        2
176
     1
 40
0.6
176
     1
 41
30.0
176
     1
 62
     5
 63
     7
421
 16777215
176
     1
 74
     0
176
     1
 91
        0
176
     1
 64
     7
176
     1
 65
   257
176
     1
 75
     1
176
     1
175
     1
176
     1
 42
1.0
176
     1
 92
        8
176
     1
 66
     7
176
     1
 43
1.0
176
     1
 76
     1
176
     1
 77
     6
176
     1
 78
     2
176
     1
 67
     7
176
     1
 79
     5
176
     1
170
     0
176
     1
171
     0
176
     1
290
     0
176
     1
 93
       13
176
     1
 44
0.0
176
     1
173
     0
176
     1
  0
VISUALSTYLE
  5
110
102
{ACAD_REACTORS
330
10E
102
}
102
{ACAD_XDICTIONARY
360
133
102
}
330
10E
100
AcDbVisualStyle
  2
FlatWithEdges
 70
     1
177
     2
291
     1
 71
     2
176
     1
 72
     1
176
     1
 73
     1
176
     1
 90
        2
176
     1
 40
0.6
176
     1
 41
30.0
176
     1
 62
     5
 63
     7
421
 16777215
176
     1
 74
     1
176
     1
 91
        0
176
     1
 64
     7
176
     1
 65
   257
176
     1
 75
     1
176
     1
175
     1
176
     1
 42
1.0
176
     1
 92
        0
176
     1
 66
   257
176
     1
 43
1.0
176
     1
 76
     1
176
     1
 77
     6
176
     1
 78
     2
176
     1
 67
     7
176
     1
 79
     5
176
     1
170
     0
176
     1
171
     0
176
     1
290
     0
176
     1
 93
       13
176
     1
 44
0.0
176
     1
173
     0
176
     1
  0
VISUALSTYLE
  5
111
102
{ACAD_REACTORS
330
10E
102
}
102
{ACAD_XDICTIONARY
360
135
102
}
330
10E
100
AcDbVisualStyle
  2
Gouraud
 70
     2
177
     2
291
     1
 71
     2
176
     1
 72
     2
176
     1
 73
     1
176
     1
 90
        2
176
     1
 40
0.6
176
     1
 41
30.0
176
     1
 62
     5
 63
     7
421
 16777215
176
     1
 74
     0
176
     1
 91
        0
176
     1
 64
     7
176
     1
 65
   257
176
     1
 75
     1
176
     1
175
     1
176
     1
 42
1.0
176
     1
 92
        0
176
     1
 66
     7
176
     1
 43
1.0
176
     1
 76
     1
176
     1
 77
     6
176
     1
 78
     2
176
     1
 67
     7
176
     1
 79
     5
176
     1
170
     0
176
     1
171
     0
176
     1
290
     0
176
     1
 93
       13
176
     1
 44
0.0
176
     1
173
     0
176
     1
  0
VISUALSTYLE
  5
112
102
{ACAD_REACTORS
330
10E
102
}
102
{ACAD_XDICTIONARY
360
137
102
}
330
10E
100
AcDbVisualStyle
  2
GouraudWithEdges
 70
     3
177
     2
291
     1
 71
     2
176
     1
 72
     2
176
     1
 73
     1
176
     1
 90
        2
176
     1
 40
0.6
176
     1
 41
30.0
176
     1
 62
     5
 63
     7
421
 16777215
176
     1
 74
     1
176
     1
 91
        0
176
     1
 64
     7
176
     1
 65
   257
176
     1
 75
     1
176
     1
175
     1
176
     1
 42
1.0
176
     1
 92
        0
176
     1
 66
   257
176
     1
 43
1.0
176
     1
 76
     1
176
     1
 77
     6
176
     1
 78
     2
176
     1
 67
     7
176
     1
 79
     5
176
     1
170
     0
176
     1
171
     0
176
     1
290
     0
176
     1
 93
       13
176
     1
 44
0.0
176
     1
173
     0
176
     1
  0
VISUALSTYLE
  5
115
102
{ACAD_REACTORS
330
10E
102
}
102
{ACAD_XDICTIONARY
360
13D
102
}
330
10E
100
AcDbVisualStyle
  2
Hidden
 70
     6
177
     2
291
     0
 71
     1
176
     1
 72
     2
176
     1
 73
     2
176
     1
 90
        0
176
     1
 40
0.6
176
     1
 41
30.0
176
     1
 62
     5
 63
     7
421
 16777215
176
     1
 74
     2
176
     1
 91
        2
176
     1
 64
     7
176
     1
 65
   257
176
     1
 75
     2
176
     1
175
     1
176
     1
 42
40.0
176
     1
 92
        0
176
     1
 66
   257
176
     1
 43
1.0
176
     1
 76
     1
176
     1
 77
     6
176
     1
 78
     2
176
     1
 67
     7
176
     1
 79
     3
176
     1
170
     0
176
     1
171
     0
176
     1
290
     0
176
     1
 93
        1
176
     1
 44
0.0
176
     1
173
     0
176
     1
  0
VISUALSTYLE
  5
11F
102
{ACAD_REACTORS
330
10E
102
}
102
{ACAD_XDICTIONARY
360
151
102
}
330
10E
100
AcDbVisualStyle
  2
JitterOff
 70
    20
177
     2
291
     1
 71
     2
176
     0
 72
     2
176
     0
 73
     0
176
     0
 90
        0
176
     0
 40
0.6
176
     0
 41
30.0
176
     0
 62
     5
 63
     7
421
 16777215
176
     0
 74
     1
176
     0
 91
        4
176
     0
 64
     7
176
     0
 65
   257
176
     0
 75
     1
176
     0
175
     1
176
     0
 42
1.0
176
     0
 92
       10
176
     2
 66
     7
176
     0
 43
1.0
176
     0
 76
     1
176
     0
 77
     6
176
     0
 78
     2
176
     0
 67
     7
176
     0
 79
     5
176
     0
170
     0
176
     0
171
     0
176
     0
290
     0
176
     0
 93
        1
176
     0
 44
0.0
176
     0
173
     0
176
     0
  0
VISUALSTYLE
  5
11C
102
{ACAD_REACTORS
330
10E
102
}
102
{ACAD_XDICTIONARY
360
14B
102
}
330
10E
100
AcDbVisualStyle
  2
Linepattern
 70
    14
177
     2
291
     1
 71
     2
176
     1
 72
     2
176
     1
 73
     0
176
     1
 90
        0
176
     1
 40
0.6
176
     1
 41
30.0
176
     1
 62
     5
 63
     7
421
 16777215
176
     1
 74
     1
176
     1
 91
        4
176
     1
 64
     7
176
     1
 65
   257
176
     1
 75
     7
176
     1
175
     7
176
     1
 42
1.0
176
     1
 92
        8
176
     1
 66
     7
176
     1
 43
1.0
176
     1
 76
     1
176
     1
 77
     6
176
     1
 78
     2
176
     1
 67
     7
176
     1
 79
     5
176
     1
170
     0
176
     1
171
     0
176
     1
290
     0
176
     1
 93
        1
176
     1
 44
0.0
176
     1
173
     0
176
     1
  0
VISUALSTYLE
  5
120
102
{ACAD_REACTORS
330
10E
102
}
102
{ACAD_XDICTIONARY
360
153
102
}
330
10E
100
AcDbVisualStyle
  2
OverhangOff
 70
    21
177
     2
291
     1
 71
     2
176
     0
 72
     2
176
     0
 73
     0
176
     0
 90
        0
176
     0
 40
0.6
176
     0
 41
30.0
176
     0
 62
     5
 63
     7
421
 16777215
176
     0
 74
     1
176
     0
 91
        4
176
     0
 64
     7
176
     0
 65
   257
176
     0
 75
     1
176
     0
175
     1
176
     0
 42
1.0
176
     0
 92
        9
176
     2
 66
     7
176
     0
 43
1.0
176
     0
 76
     1
176
     0
 77
     6
176
     0
 78
     2
176
     0
 67
     7
176
     0
 79
     5
176
     0
170
     0
176
     0
171
     0
176
     0
290
     0
176
     0
 93
        1
176
     0
 44
0.0
176
     0
173
     0
176
     0
  0
VISUALSTYLE
  5
117
102
{ACAD_REACTORS
330
10E
102
}
102
{ACAD_XDICTIONARY
360
141
102
}
330
10E
100
AcDbVisualStyle
  2
Realistic
 70
     8
177
     2
291
     0
 71
     2
176
     1
 72
     3
176
     1
 73
     0
176
     1
 90
        2
176
     1
 40
0.6
176
     1
 41
30.0
176
     1
 62
     5
 63
     7
421
 16777215
176
     1
 74
     0
176
     1
 91
        0
176
     1
 64
     7
176
     1
 65
   257
176
     1
 75
     1
176
     1
175
     1
176
     1
 42
1.0
176
     1
 92
        8
176
     1
 66
   257
176
     1
 43
1.0
176
     1
 76
     1
176
     1
 77
     6
176
     1
 78
     2
176
     1
 67
     7
176
     1
 79
     3
176
     1
170
     0
176
     1
171
     0
176
     1
290
     0
176
     1
 93
       13
176
     1
 44
0.0
176
     1
173
     0
176
     1
  0
VISUALSTYLE
  5
126
102
{ACAD_REACTORS
330
10E
102
}
102
{ACAD_XDICTIONARY
360
15F
102
}
330
10E
100
AcDbVisualStyle
  2
Shaded
 70
    27
177
     2
291
     0
 71
     2
176
     1
 72
     2
176
     1
 73
     1
176
     1
 90
        2
176
     1
 40
0.6
176
     1
 41
30.0
176
     1
 62
     5
 63
     7
421
 16777215
176
     1
 74
     0
176
     1
 91
        4
176
     1
 64
     7
176
     1
 65
   257
176
     1
 75
     1
176
     1
175
     1
176
     1
 42
1.0
176
     1
 92
        8
176
     1
 66
   257
176
     1
 43
1.0
176
     1
 76
     1
176
     1
 77
     6
176
     1
 78
     2
176
     1
 67
     8
425
  7895160
176
     1
 79
     3
176
     1
170
     0
176
     1
171
     0
176
     1
290
     0
176
     1
 93
        5
176
     1
 44
0.0
176
     1
173
     0
176
     1
  0
VISUALSTYLE
  5
125
102
{ACAD_REACTORS
330
10E
102
}
102
{ACAD_XDICTIONARY
360
15D
102
}
330
10E
100
AcDbVisualStyle
  2
Shaded with edges
 70
    26
177
     2
291
     0
 71
     2
176
     1
 72
     2
176
     1
 73
     1
176
     1
 90
        2
176
     1
 40
0.6
176
     1
 41
30.0
176
     1
 62
     5
 63
     7
421
 16777215
176
     1
 74
     1
176
     1
 91
       10
176
     1
 64
     7
176
     1
 65
   257
176
     1
 75
     2
176
     1
175
     1
176
     1
 42
1.0
176
     1
 92
        8
176
     1
 66
   257
176
     1
 43
1.0
176
     1
 76
     1
176
     1
 77
     6
176
     1
 78
     2
176
     1
 67
     7
176
     1
 79
     3
176
     1
170
     0
176
     1
171
     0
176
     1
290
     0
176
     1
 93
        5
176
     1
 44
0.0
176
     1
173
     0
176
     1
  0
VISUALSTYLE
  5
122
102
{ACAD_REACTORS
330
10E
102
}
102
{ACAD_XDICTIONARY
360
157
102
}
330
10E
100
AcDbVisualStyle
  2
Shades of Gray
 70
    23
177
     2
291
     0
 71
     2
176
     1
 72
     2
176
     1
 73
     3
176
     1
 90
        0
176
     1
 40
0.6
176
     1
 41
30.0
176
     1
 62
     5
 63
     7
421
 16777215
176
     1
 74
     2
176
     1
 91
        2
176
     1
 64
     7
176
     1
 65
     7
176
     1
 75
     1
176
     1
175
     1
176
     1
 42
40.0
176
     1
 92
        8
176
     1
 66
     7
176
     1
 43
1.0
176
     1
 76
     1
176
     1
 77
     6
176
     1
 78
     2
176
     1
 67
     7
176
     1
 79
     3
176
     1
170
     0
176
     1
171
     0
176
     1
290
     0
176
     1
 93
        1
176
     1
 44
0.0
176
     1
173
     0
176
     1
  0
VISUALSTYLE
  5
123
102
{ACAD_REACTORS
330
10E
102
}
102
{ACAD_XDICTIONARY
360
159
102
}
330
10E
100
AcDbVisualStyle
  2
Sketchy
 70
    24
177
     2
291
     0
 71
     1
176
     1
 72
     2
176
     1
 73
     2
176
     1
 90
        0
176
     1
 40
0.6
176
     1
 41
30.0
176
     1
 62
     5
 63
     7
421
 16777215
176
     1
 74
     2
176
     1
 91
        2
176
     1
 64
     7
176
     1
 65
     7
176
     1
 75
     1
176
     1
175
     1
176
     1
 42
40.0
176
     1
 92
       11
176
     1
 66
     7
176
     1
 43
1.0
176
     1
 76
     1
176
     1
 77
     6
176
     1
 78
     2
176
     1
 67
     7
176
     1
 79
     6
176
     1
170
     0
176
     1
171
     0
176
     1
290
     0
176
     1
 93
        1
176
     1
 44
0.0
176
     1
173
     0
176
     1
  0
VISUALSTYLE
  5
11B
102
{ACAD_REACTORS
330
10E
102
}
102
{ACAD_XDICTIONARY
360
149
102
}
330
10E
100
AcDbVisualStyle
  2
Thicken
 70
    13
177
     2
291
     1
 71
     2
176
     1
 72
     2
176
     1
 73
     0
176
     1
 90
        0
176
     1
 40
0.6
176
     1
 41
30.0
176
     1
 62
     5
 63
     7
421
 16777215
176
     1
 74
     1
176
     1
 91
        4
176
     1
 64
     7
176
     1
 65
   257
176
     1
 75
     1
176
     1
175
     1
176
     1
 42
1.0
176
     1
 92
       12
176
     1
 66
     7
176
     1
 43
1.0
176
     1
 76
     1
176
     1
 77
     6
176
     1
 78
     2
176
     1
 67
     7
176
     1
 79
     5
176
     1
170
     0
176
     1
171
     0
176
     1
290
     0
176
     1
 93
        1
176
     1
 44
0.0
176
     1
173
     0
176
     1
  0
VISUALSTYLE
  5
114
102
{ACAD_REACTORS
330
10E
102
}
102
{ACAD_XDICTIONARY
360
13B
102
}
330
10E
100
AcDbVisualStyle
  2
Wireframe
 70
     5
177
     2
291
     0
 71
     0
176
     1
 72
     2
176
     1
 73
     0
176
     1
 90
        0
176
     1
 40
0.6
176
     1
 41
30.0
176
     1
 62
     5
 63
     7
421
 16777215
176
     1
 74
     1
176
     1
 91
        4
176
     1
 64
     7
176
     1
 65
   257
176
     1
 75
     1
176
     1
175
     1
176
     1
 42
1.0
176
     1
 92
        0
176
     1
 66
   257
176
     1
 43
1.0
176
     1
 76
     1
176
     1
 77
     6
176
     1
 78
     2
176
     1
 67
     7
176
     1
 79
     3
176
     1
170
     0
176
     1
171
     0
176
     1
290
     0
176
     1
 93
        1
176
     1
 44
0.0
176
     1
173
     0
176
     1
  0
VISUALSTYLE
  5
124
102
{ACAD_REACTORS
330
10E
102
}
102
{ACAD_XDICTIONARY
360
15B
102
}
330
10E
100
AcDbVisualStyle
  2
X-Ray
 70
    25
177
     2
291
     0
 71
     2
176
     1
 72
     2
176
     1
 73
     1
176
     1
 90
        1
176
     1
 40
0.5
176
     1
 41
30.0
176
     1
 62
     5
 63
     7
421
 16777215
176
     1
 74
     1
176
     1
 91
        0
176
     1
 64
     7
176
     1
 65
   257
176
     1
 75
     1
176
     1
175
     1
176
     1
 42
1.0
176
     1
 92
        8
176
     1
 66
     7
176
     1
 43
1.0
176
     1
 76
     1
176
     1
 77
     6
176
     1
 78
     2
176
     1
 67
     7
176
     1
 79
     3
176
     1
170
     0
176
     1
171
     0
176
     1
290
     0
176
     1
 93
       13
176
     1
 44
0.0
176
     1
173
     0
176
     1
  0
DICTIONARYVAR
  5
130
102
{ACAD_REACTORS
330
12F
102
}
330
12F
100
DictionaryVariables
280
     0
  1
1:1
  0
DICTIONARYVAR
  5
165
102
{ACAD_REACTORS
330
12F
102
}
330
12F
100
DictionaryVariables
280
     0
  1
Standard
  0
DICTIONARYVAR
  5
164
102
{ACAD_REACTORS
330
12F
102
}
330
12F
100
DictionaryVariables
280
     0
  1
Standard
  0
DICTIONARYVAR
  5
166
102
{ACAD_REACTORS
330
12F
102
}
330
12F
100
DictionaryVariables
280
     0
  1
0
  0
DICTIONARY
  5
161
330
12C
100
AcDbDictionary
280
     1
281
     1
  3
ACAD_ROUNDTRIP_2008_TABLESTYLE_CELLSTYLEMAP
360
162
  0
DICTIONARY
  5
139
330
113
100
AcDbDictionary
280
     1
281
     1
  3
ACAD_XREC_ROUNDTRIP
360
13A
  0
DICTIONARY
  5
13F
330
116
100
AcDbDictionary
280
     1
281
     1
  3
ACAD_XREC_ROUNDTRIP
360
140
  0
DICTIONARY
  5
147
330
11A
100
AcDbDictionary
280
     1
281
     1
  3
ACAD_XREC_ROUNDTRIP
360
148
  0
DICTIONARY
  5
14F
330
11E
100
AcDbDictionary
280
     1
281
     1
  3
ACAD_XREC_ROUNDTRIP
360
150
  0
DICTIONARY
  5
143
330
118
100
AcDbDictionary
280
     1
281
     1
  3
ACAD_XREC_ROUNDTRIP
360
144
  0
DICTIONARY
  5
145
330
119
100
AcDbDictionary
280
     1
281
     1
  3
ACAD_XREC_ROUNDTRIP
360
146
  0
DICTIONARY
  5
155
330
121
100
AcDbDictionary
280
     1
281
     1
  3
ACAD_XREC_ROUNDTRIP
360
156
  0
DICTIONARY
  5
14D
330
11D
100
AcDbDictionary
280
     1
281
     1
  3
ACAD_XREC_ROUNDTRIP
360
14E
  0
DICTIONARY
  5
131
330
10F
100
AcDbDictionary
280
     1
281
     1
  3
ACAD_XREC_ROUNDTRIP
360
132
  0
DICTIONARY
  5
133
330
110
100
AcDbDictionary
280
     1
281
     1
  3
ACAD_XREC_ROUNDTRIP
360
134
  0
DICTIONARY
  5
135
330
111
100
AcDbDictionary
280
     1
281
     1
  3
ACAD_XREC_ROUNDTRIP
360
136
  0
DICTIONARY
  5
137
330
112
100
AcDbDictionary
280
     1
281
     1
  3
ACAD_XREC_ROUNDTRIP
360
138
  0
DICTIONARY
  5
13D
330
115
100
AcDbDictionary
280
     1
281
     1
  3
ACAD_XREC_ROUNDTRIP
360
13E
  0
DICTIONARY
  5
151
330
11F
100
AcDbDictionary
280
     1
281
     1
  3
ACAD_XREC_ROUNDTRIP
360
152
  0
DICTIONARY
  5
14B
330
11C
100
AcDbDictionary
280
     1
281
     1
  3
ACAD_XREC_ROUNDTRIP
360
14C
  0
DICTIONARY
  5
153
330
120
100
AcDbDictionary
280
     1
281
     1
  3
ACAD_XREC_ROUNDTRIP
360
154
  0
DICTIONARY
  5
141
330
117
100
AcDbDictionary
280
     1
281
     1
  3
ACAD_XREC_ROUNDTRIP
360
142
  0
DICTIONARY
  5
15F
330
126
100
AcDbDictionary
280
     1
281
     1
  3
ACAD_XREC_ROUNDTRIP
360
160
  0
DICTIONARY
  5
15D
330
125
100
AcDbDictionary
280
     1
281
     1
  3
ACAD_XREC_ROUNDTRIP
360
15E
  0
DICTIONARY
  5
157
330
122
100
AcDbDictionary
280
     1
281
     1
  3
ACAD_XREC_ROUNDTRIP
360
158
  0
DICTIONARY
  5
159
330
123
100
AcDbDictionary
280
     1
281
     1
  3
ACAD_XREC_ROUNDTRIP
360
15A
  0
DICTIONARY
  5
149
330
11B
100
AcDbDictionary
280
     1
281
     1
  3
ACAD_XREC_ROUNDTRIP
360
14A
  0
DICTIONARY
  5
13B
330
114
100
AcDbDictionary
280
     1
281
     1
  3
ACAD_XREC_ROUNDTRIP
360
13C
  0
DICTIONARY
  5
15B
330
124
100
AcDbDictionary
280
     1
281
     1
  3
ACAD_XREC_ROUNDTRIP
360
15C
  0
CELLSTYLEMAP
  5
162
102
{ACAD_REACTORS
330
161
102
}
330
161
100
AcDbCellStyleMap
 90
        3
300
CELLSTYLE
  1
TABLEFORMAT_BEGIN
 90
        5
170
     1
 91
        0
 92
    32768
 62
   257
 93
        1
300
CONTENTFORMAT
  1
CONTENTFORMAT_BEGIN
 90
        0
 91
        0
 92
        4
 93
        0
300

 40
0.0
140
1.0
 94
        5
 62
     0
340
17
144
0.25
309
CONTENTFORMAT_END
171
     1
301
MARGIN
  1
CELLMARGIN_BEGIN
 40
0.06
 40
0.06
 40
0.06
 40
0.06
 40
0.06
 40
0.06
309
CELLMARGIN_END
 94
        6
 95
        1
302
GRIDFORMAT
  1
GRIDFORMAT_BEGIN
 90
        0
 91
        1
 62
     0
 92
       -2
340
11
 93
        0
 40
0.045
309
GRIDFORMAT_END
 95
        2
302
GRIDFORMAT
  1
GRIDFORMAT_BEGIN
 90
        0
 91
        1
 62
     0
 92
       -2
340
11
 93
        0
 40
0.045
309
GRIDFORMAT_END
 95
        4
302
GRIDFORMAT
  1
GRIDFORMAT_BEGIN
 90
        0
 91
        1
 62
     0
 92
       -2
340
11
 93
        0
 40
0.045
309
GRIDFORMAT_END
 95
        8
302
GRIDFORMAT
  1
GRIDFORMAT_BEGIN
 90
        0
 91
        1
 62
     0
 92
       -2
340
11
 93
        0
 40
0.045
309
GRIDFORMAT_END
 95
       16
302
GRIDFORMAT
  1
GRIDFORMAT_BEGIN
 90
        0
 91
        1
 62
     0
 92
       -2
340
11
 93
        0
 40
0.045
309
GRIDFORMAT_END
 95
       32
302
GRIDFORMAT
  1
GRIDFORMAT_BEGIN
 90
        0
 91
        1
 62
     0
 92
       -2
340
11
 93
        0
 40
0.045
309
GRIDFORMAT_END
309
TABLEFORMAT_END
  1
CELLSTYLE_BEGIN
 90
        1
 91
        1
300
_TITLE
309
CELLSTYLE_END
300
CELLSTYLE
  1
TABLEFORMAT_BEGIN
 90
        5
170
     1
 91
        0
 92
        0
 62
   257
 93
        1
300
CONTENTFORMAT
  1
CONTENTFORMAT_BEGIN
 90
        0
 91
        0
 92
        4
 93
        0
300

 40
0.0
140
1.0
 94
        5
 62
     0
340
17
144
0.18
309
CONTENTFORMAT_END
171
     1
301
MARGIN
  1
CELLMARGIN_BEGIN
 40
0.06
 40
0.06
 40
0.06
 40
0.06
 40
0.06
 40
0.06
309
CELLMARGIN_END
 94
        6
 95
        1
302
GRIDFORMAT
  1
GRIDFORMAT_BEGIN
 90
        0
 91
        1
 62
     0
 92
       -2
340
11
 93
        0
 40
0.045
309
GRIDFORMAT_END
 95
        2
302
GRIDFORMAT
  1
GRIDFORMAT_BEGIN
 90
        0
 91
        1
 62
     0
 92
       -2
340
11
 93
        0
 40
0.045
309
GRIDFORMAT_END
 95
        4
302
GRIDFORMAT
  1
GRIDFORMAT_BEGIN
 90
        0
 91
        1
 62
     0
 92
       -2
340
11
 93
        0
 40
0.045
309
GRIDFORMAT_END
 95
        8
302
GRIDFORMAT
  1
GRIDFORMAT_BEGIN
 90
        0
 91
        1
 62
     0
 92
       -2
340
11
 93
        0
 40
0.045
309
GRIDFORMAT_END
 95
       16
302
GRIDFORMAT
  1
GRIDFORMAT_BEGIN
 90
        0
 91
        1
 62
     0
 92
       -2
340
11
 93
        0
 40
0.045
309
GRIDFORMAT_END
 95
       32
302
GRIDFORMAT
  1
GRIDFORMAT_BEGIN
 90
        0
 91
        1
 62
     0
 92
       -2
340
11
 93
        0
 40
0.045
309
GRIDFORMAT_END
309
TABLEFORMAT_END
  1
CELLSTYLE_BEGIN
 90
        2
 91
        1
300
_HEADER
309
CELLSTYLE_END
300
CELLSTYLE
  1
TABLEFORMAT_BEGIN
 90
        5
170
     1
 91
        0
 92
        0
 62
   257
 93
        1
300
CONTENTFORMAT
  1
CONTENTFORMAT_BEGIN
 90
        0
 91
        0
 92
        4
 93
        0
300

 40
0.0
140
1.0
 94
        2
 62
     0
340
17
144
0.18
309
CONTENTFORMAT_END
171
     1
301
MARGIN
  1
CELLMARGIN_BEGIN
 40
0.06
 40
0.06
 40
0.06
 40
0.06
 40
0.06
 40
0.06
309
CELLMARGIN_END
 94
        6
 95
        1
302
GRIDFORMAT
  1
GRIDFORMAT_BEGIN
 90
        0
 91
        1
 62
     0
 92
       -2
340
11
 93
        0
 40
0.045
309
GRIDFORMAT_END
 95
        2
302
GRIDFORMAT
  1
GRIDFORMAT_BEGIN
 90
        0
 91
        1
 62
     0
 92
       -2
340
11
 93
        0
 40
0.045
309
GRIDFORMAT_END
 95
        4
302
GRIDFORMAT
  1
GRIDFORMAT_BEGIN
 90
        0
 91
        1
 62
     0
 92
       -2
340
11
 93
        0
 40
0.045
309
GRIDFORMAT_END
 95
        8
302
GRIDFORMAT
  1
GRIDFORMAT_BEGIN
 90
        0
 91
        1
 62
     0
 92
       -2
340
11
 93
        0
 40
0.045
309
GRIDFORMAT_END
 95
       16
302
GRIDFORMAT
  1
GRIDFORMAT_BEGIN
 90
        0
 91
        1
 62
     0
 92
       -2
340
11
 93
        0
 40
0.045
309
GRIDFORMAT_END
 95
       32
302
GRIDFORMAT
  1
GRIDFORMAT_BEGIN
 90
        0
 91
        1
 62
     0
 92
       -2
340
11
 93
        0
 40
0.045
309
GRIDFORMAT_END
309
TABLEFORMAT_END
  1
CELLSTYLE_BEGIN
 90
        3
 91
        2
300
_DATA
309
CELLSTYLE_END
  0
XRECORD
  5
13A
102
{ACAD_REACTORS
330
139
102
}
330
139
100
AcDbXrecord
280
     1
102
RTVSPost2010Prop28
280
     1
102
RTVSPost2010PropOp28
 70
     1
102
RTVSPost2010Prop29
280
     1
102
RTVSPost2010PropOp29
 70
     1
102
RTVSPost2010Prop30
280
     0
102
RTVSPost2010PropOp30
 70
     1
102
RTVSPost2010Prop31
280
     0
102
RTVSPost2010PropOp31
 70
     1
102
RTVSPost2010Prop32
280
     0
102
RTVSPost2010PropOp32
 70
     1
102
RTVSPost2010Prop33
280
     0
102
RTVSPost2010PropOp33
 70
     1
102
RTVSPost2010Prop34
280
     0
102
RTVSPost2010PropOp34
 70
     1
102
RTVSPost2010Prop35
280
     0
102
RTVSPost2010PropOp35
 70
     1
102
RTVSPost2010Prop36
280
     0
102
RTVSPost2010PropOp36
 70
     1
102
RTVSPost2010Prop37
 90
       50
102
RTVSPost2010PropOp37
 70
     1
102
RTVSPost2010Prop38
140
0.0
102
RTVSPost2010PropOp38
 70
     1
102
RTVSPost2010Prop39
140
1.0
102
RTVSPost2010PropOp39
 70
     1
102
RTVSPost2010Prop40
 90
        0
102
RTVSPost2010PropOp40
 70
     1
102
RTVSPost2010Prop41ColorIndex
 90
       18
102
RTVSPost2010Prop41ColorRGB
 90
        0
102
RTVSPost2010PropOp41
 70
     1
102
RTVSPost2010Prop42
 90
       50
102
RTVSPost2010PropOp42
 70
     1
102
RTVSPost2010Prop43
 90
        3
102
RTVSPost2010PropOp43
 70
     1
102
RTVSPost2010Prop44ColorIndex
 90
        5
102
RTVSPost2010Prop44ColorRGB
 90
      255
102
RTVSPost2010PropOp44
 70
     1
102
RTVSPost2010Prop45
280
     0
102
RTVSPost2010PropOp45
 70
     1
102
RTVSPost2010Prop46
 90
       50
102
RTVSPost2010PropOp46
 70
     1
102
RTVSPost2010Prop47
 90
       50
102
RTVSPost2010PropOp47
 70
     1
102
RTVSPost2010Prop48
 90
       50
102
RTVSPost2010PropOp48
 70
     1
102
RTVSPost2010Prop49
280
     0
102
RTVSPost2010PropOp49
 70
     1
102
RTVSPost2010Prop50
 90
       50
102
RTVSPost2010PropOp50
 70
     1
102
RTVSPost2010Prop51ColorIndex
 90
      256
102
RTVSPost2010Prop51ColorRGB
 90
-16777216
102
RTVSPost2010PropOp51
 70
     0
102
RTVSPost2010Prop52
140
1.0
102
RTVSPost2010PropOp52
 70
     0
102
RTVSPost2010Prop53
 90
        2
102
RTVSPost2010PropOp53
 70
     1
102
RTVSPost2010Prop54
  1
strokes_ogs.tif
102
RTVSPost2010PropOp54
 70
     1
102
RTVSPost2010Prop55
280
     0
102
RTVSPost2010PropOp55
 70
     1
102
RTVSPost2010Prop56
140
1.0
102
RTVSPost2010PropOp56
 70
     1
102
RTVSPost2010Prop57
140
1.0
102
RTVSPost2010PropOp57
 70
     1
  0
XRECORD
  5
140
102
{ACAD_REACTORS
330
13F
102
}
330
13F
100
AcDbXrecord
280
     1
102
RTVSPost2010Prop28
280
     0
102
RTVSPost2010PropOp28
 70
     1
102
RTVSPost2010Prop29
280
     1
102
RTVSPost2010PropOp29
 70
     1
102
RTVSPost2010Prop30
280
     1
102
RTVSPost2010PropOp30
 70
     1
102
RTVSPost2010Prop31
280
     0
102
RTVSPost2010PropOp31
 70
     1
102
RTVSPost2010Prop32
280
     0
102
RTVSPost2010PropOp32
 70
     1
102
RTVSPost2010Prop33
280
     0
102
RTVSPost2010PropOp33
 70
     1
102
RTVSPost2010Prop34
280
     0
102
RTVSPost2010PropOp34
 70
     1
102
RTVSPost2010Prop35
280
     0
102
RTVSPost2010PropOp35
 70
     1
102
RTVSPost2010Prop36
280
     0
102
RTVSPost2010PropOp36
 70
     1
102
RTVSPost2010Prop37
 90
       50
102
RTVSPost2010PropOp37
 70
     1
102
RTVSPost2010Prop38
140
0.0
102
RTVSPost2010PropOp38
 70
     1
102
RTVSPost2010Prop39
140
1.0
102
RTVSPost2010PropOp39
 70
     1
102
RTVSPost2010Prop40
 90
        0
102
RTVSPost2010PropOp40
 70
     1
102
RTVSPost2010Prop41ColorIndex
 90
       18
102
RTVSPost2010Prop41ColorRGB
 90
        0
102
RTVSPost2010PropOp41
 70
     1
102
RTVSPost2010Prop42
 90
       50
102
RTVSPost2010PropOp42
 70
     1
102
RTVSPost2010Prop43
 90
        3
102
RTVSPost2010PropOp43
 70
     1
102
RTVSPost2010Prop44ColorIndex
 90
        5
102
RTVSPost2010Prop44ColorRGB
 90
      255
102
RTVSPost2010PropOp44
 70
     1
102
RTVSPost2010Prop45
280
     0
102
RTVSPost2010PropOp45
 70
     1
102
RTVSPost2010Prop46
 90
       50
102
RTVSPost2010PropOp46
 70
     1
102
RTVSPost2010Prop47
 90
       50
102
RTVSPost2010PropOp47
 70
     1
102
RTVSPost2010Prop48
 90
       50
102
RTVSPost2010PropOp48
 70
     1
102
RTVSPost2010Prop49
280
     0
102
RTVSPost2010PropOp49
 70
     1
102
RTVSPost2010Prop50
 90
       50
102
RTVSPost2010PropOp50
 70
     1
102
RTVSPost2010Prop51ColorIndex
 90
      256
102
RTVSPost2010Prop51ColorRGB
 90
-16777216
102
RTVSPost2010PropOp51
 70
     0
102
RTVSPost2010Prop52
140
1.0
102
RTVSPost2010PropOp52
 70
     0
102
RTVSPost2010Prop53
 90
        2
102
RTVSPost2010PropOp53
 70
     1
102
RTVSPost2010Prop54
  1
strokes_ogs.tif
102
RTVSPost2010PropOp54
 70
     1
102
RTVSPost2010Prop55
280
     0
102
RTVSPost2010PropOp55
 70
     1
102
RTVSPost2010Prop56
140
1.0
102
RTVSPost2010PropOp56
 70
     1
102
RTVSPost2010Prop57
140
1.0
102
RTVSPost2010PropOp57
 70
     1
  0
XRECORD
  5
148
102
{ACAD_REACTORS
330
147
102
}
330
147
100
AcDbXrecord
280
     1
102
RTVSPost2010Prop28
280
     0
102
RTVSPost2010PropOp28
 70
     1
102
RTVSPost2010Prop29
280
     1
102
RTVSPost2010PropOp29
 70
     1
102
RTVSPost2010Prop30
280
     1
102
RTVSPost2010PropOp30
 70
     1
102
RTVSPost2010Prop31
280
     0
102
RTVSPost2010PropOp31
 70
     1
102
RTVSPost2010Prop32
280
     0
102
RTVSPost2010PropOp32
 70
     1
102
RTVSPost2010Prop33
280
     0
102
RTVSPost2010PropOp33
 70
     1
102
RTVSPost2010Prop34
280
     0
102
RTVSPost2010PropOp34
 70
     1
102
RTVSPost2010Prop35
280
     0
102
RTVSPost2010PropOp35
 70
     1
102
RTVSPost2010Prop36
280
     0
102
RTVSPost2010PropOp36
 70
     1
102
RTVSPost2010Prop37
 90
       50
102
RTVSPost2010PropOp37
 70
     1
102
RTVSPost2010Prop38
140
0.0
102
RTVSPost2010PropOp38
 70
     1
102
RTVSPost2010Prop39
140
1.0
102
RTVSPost2010PropOp39
 70
     1
102
RTVSPost2010Prop40
 90
        0
102
RTVSPost2010PropOp40
 70
     1
102
RTVSPost2010Prop41ColorIndex
 90
       18
102
RTVSPost2010Prop41ColorRGB
 90
        0
102
RTVSPost2010PropOp41
 70
     1
102
RTVSPost2010Prop42
 90
       50
102
RTVSPost2010PropOp42
 70
     1
102
RTVSPost2010Prop43
 90
        3
102
RTVSPost2010PropOp43
 70
     1
102
RTVSPost2010Prop44ColorIndex
 90
        5
102
RTVSPost2010Prop44ColorRGB
 90
      255
102
RTVSPost2010PropOp44
 70
     1
102
RTVSPost2010Prop45
280
     0
102
RTVSPost2010PropOp45
 70
     1
102
RTVSPost2010Prop46
 90
       50
102
RTVSPost2010PropOp46
 70
     1
102
RTVSPost2010Prop47
 90
       50
102
RTVSPost2010PropOp47
 70
     1
102
RTVSPost2010Prop48
 90
       50
102
RTVSPost2010PropOp48
 70
     1
102
RTVSPost2010Prop49
280
     0
102
RTVSPost2010PropOp49
 70
     1
102
RTVSPost2010Prop50
 90
       50
102
RTVSPost2010PropOp50
 70
     1
102
RTVSPost2010Prop51ColorIndex
 90
      256
102
RTVSPost2010Prop51ColorRGB
 90
-16777216
102
RTVSPost2010PropOp51
 70
     0
102
RTVSPost2010Prop52
140
1.0
102
RTVSPost2010PropOp52
 70
     0
102
RTVSPost2010Prop53
 90
        2
102
RTVSPost2010PropOp53
 70
     1
102
RTVSPost2010Prop54
  1
strokes_ogs.tif
102
RTVSPost2010PropOp54
 70
     1
102
RTVSPost2010Prop55
280
     0
102
RTVSPost2010PropOp55
 70
     1
102
RTVSPost2010Prop56
140
1.0
102
RTVSPost2010PropOp56
 70
     1
102
RTVSPost2010Prop57
140
1.0
102
RTVSPost2010PropOp57
 70
     1
  0
XRECORD
  5
150
102
{ACAD_REACTORS
330
14F
102
}
330
14F
100
AcDbXrecord
280
     1
102
RTVSPost2010Prop28
280
     0
102
RTVSPost2010PropOp28
 70
     1
102
RTVSPost2010Prop29
280
     1
102
RTVSPost2010PropOp29
 70
     1
102
RTVSPost2010Prop30
280
     1
102
RTVSPost2010PropOp30
 70
     1
102
RTVSPost2010Prop31
280
     0
102
RTVSPost2010PropOp31
 70
     1
102
RTVSPost2010Prop32
280
     0
102
RTVSPost2010PropOp32
 70
     1
102
RTVSPost2010Prop33
280
     0
102
RTVSPost2010PropOp33
 70
     1
102
RTVSPost2010Prop34
280
     0
102
RTVSPost2010PropOp34
 70
     1
102
RTVSPost2010Prop35
280
     0
102
RTVSPost2010PropOp35
 70
     1
102
RTVSPost2010Prop36
280
     0
102
RTVSPost2010PropOp36
 70
     1
102
RTVSPost2010Prop37
 90
       50
102
RTVSPost2010PropOp37
 70
     1
102
RTVSPost2010Prop38
140
0.0
102
RTVSPost2010PropOp38
 70
     1
102
RTVSPost2010Prop39
140
1.0
102
RTVSPost2010PropOp39
 70
     1
102
RTVSPost2010Prop40
 90
        0
102
RTVSPost2010PropOp40
 70
     1
102
RTVSPost2010Prop41ColorIndex
 90
       18
102
RTVSPost2010Prop41ColorRGB
 90
        0
102
RTVSPost2010PropOp41
 70
     1
102
RTVSPost2010Prop42
 90
       50
102
RTVSPost2010PropOp42
 70
     1
102
RTVSPost2010Prop43
 90
        3
102
RTVSPost2010PropOp43
 70
     1
102
RTVSPost2010Prop44ColorIndex
 90
        5
102
RTVSPost2010Prop44ColorRGB
 90
      255
102
RTVSPost2010PropOp44
 70
     1
102
RTVSPost2010Prop45
280
     0
102
RTVSPost2010PropOp45
 70
     1
102
RTVSPost2010Prop46
 90
       50
102
RTVSPost2010PropOp46
 70
     1
102
RTVSPost2010Prop47
 90
       50
102
RTVSPost2010PropOp47
 70
     1
102
RTVSPost2010Prop48
 90
       50
102
RTVSPost2010PropOp48
 70
     1
102
RTVSPost2010Prop49
280
     0
102
RTVSPost2010PropOp49
 70
     1
102
RTVSPost2010Prop50
 90
       50
102
RTVSPost2010PropOp50
 70
     1
102
RTVSPost2010Prop51ColorIndex
 90
      256
102
RTVSPost2010Prop51ColorRGB
 90
-16777216
102
RTVSPost2010PropOp51
 70
     0
102
RTVSPost2010Prop52
140
1.0
102
RTVSPost2010PropOp52
 70
     0
102
RTVSPost2010Prop53
 90
        2
102
RTVSPost2010PropOp53
 70
     1
102
RTVSPost2010Prop54
  1
strokes_ogs.tif
102
RTVSPost2010PropOp54
 70
     1
102
RTVSPost2010Prop55
280
     0
102
RTVSPost2010PropOp55
 70
     1
102
RTVSPost2010Prop56
140
1.0
102
RTVSPost2010PropOp56
 70
     1
102
RTVSPost2010Prop57
140
1.0
102
RTVSPost2010PropOp57
 70
     1
  0
XRECORD
  5
144
102
{ACAD_REACTORS
330
143
102
}
330
143
100
AcDbXrecord
280
     1
102
RTVSPost2010Prop28
280
     0
102
RTVSPost2010PropOp28
 70
     1
102
RTVSPost2010Prop29
280
     1
102
RTVSPost2010PropOp29
 70
     1
102
RTVSPost2010Prop30
280
     1
102
RTVSPost2010PropOp30
 70
     1
102
RTVSPost2010Prop31
280
     0
102
RTVSPost2010PropOp31
 70
     1
102
RTVSPost2010Prop32
280
     0
102
RTVSPost2010PropOp32
 70
     1
102
RTVSPost2010Prop33
280
     0
102
RTVSPost2010PropOp33
 70
     1
102
RTVSPost2010Prop34
280
     0
102
RTVSPost2010PropOp34
 70
     1
102
RTVSPost2010Prop35
280
     0
102
RTVSPost2010PropOp35
 70
     1
102
RTVSPost2010Prop36
280
     0
102
RTVSPost2010PropOp36
 70
     1
102
RTVSPost2010Prop37
 90
       50
102
RTVSPost2010PropOp37
 70
     1
102
RTVSPost2010Prop38
140
0.0
102
RTVSPost2010PropOp38
 70
     1
102
RTVSPost2010Prop39
140
1.0
102
RTVSPost2010PropOp39
 70
     1
102
RTVSPost2010Prop40
 90
        0
102
RTVSPost2010PropOp40
 70
     1
102
RTVSPost2010Prop41ColorIndex
 90
       18
102
RTVSPost2010Prop41ColorRGB
 90
        0
102
RTVSPost2010PropOp41
 70
     1
102
RTVSPost2010Prop42
 90
       50
102
RTVSPost2010PropOp42
 70
     1
102
RTVSPost2010Prop43
 90
        3
102
RTVSPost2010PropOp43
 70
     1
102
RTVSPost2010Prop44ColorIndex
 90
        5
102
RTVSPost2010Prop44ColorRGB
 90
      255
102
RTVSPost2010PropOp44
 70
     1
102
RTVSPost2010Prop45
280
     0
102
RTVSPost2010PropOp45
 70
     1
102
RTVSPost2010Prop46
 90
       50
102
RTVSPost2010PropOp46
 70
     1
102
RTVSPost2010Prop47
 90
       50
102
RTVSPost2010PropOp47
 70
     1
102
RTVSPost2010Prop48
 90
       50
102
RTVSPost2010PropOp48
 70
     1
102
RTVSPost2010Prop49
280
     0
102
RTVSPost2010PropOp49
 70
     1
102
RTVSPost2010Prop50
 90
       50
102
RTVSPost2010PropOp50
 70
     1
102
RTVSPost2010Prop51ColorIndex
 90
      256
102
RTVSPost2010Prop51ColorRGB
 90
-16777216
102
RTVSPost2010PropOp51
 70
     0
102
RTVSPost2010Prop52
140
1.0
102
RTVSPost2010PropOp52
 70
     0
102
RTVSPost2010Prop53
 90
        2
102
RTVSPost2010PropOp53
 70
     1
102
RTVSPost2010Prop54
  1
strokes_ogs.tif
102
RTVSPost2010PropOp54
 70
     1
102
RTVSPost2010Prop55
280
     0
102
RTVSPost2010PropOp55
 70
     1
102
RTVSPost2010Prop56
140
1.0
102
RTVSPost2010PropOp56
 70
     1
102
RTVSPost2010Prop57
140
1.0
102
RTVSPost2010PropOp57
 70
     1
  0
XRECORD
  5
146
102
{ACAD_REACTORS
330
145
102
}
330
145
100
AcDbXrecord
280
     1
102
RTVSPost2010Prop28
280
     0
102
RTVSPost2010PropOp28
 70
     1
102
RTVSPost2010Prop29
280
     1
102
RTVSPost2010PropOp29
 70
     1
102
RTVSPost2010Prop30
280
     1
102
RTVSPost2010PropOp30
 70
     1
102
RTVSPost2010Prop31
280
     0
102
RTVSPost2010PropOp31
 70
     1
102
RTVSPost2010Prop32
280
     0
102
RTVSPost2010PropOp32
 70
     1
102
RTVSPost2010Prop33
280
     0
102
RTVSPost2010PropOp33
 70
     1
102
RTVSPost2010Prop34
280
     0
102
RTVSPost2010PropOp34
 70
     1
102
RTVSPost2010Prop35
280
     0
102
RTVSPost2010PropOp35
 70
     1
102
RTVSPost2010Prop36
280
     0
102
RTVSPost2010PropOp36
 70
     1
102
RTVSPost2010Prop37
 90
       50
102
RTVSPost2010PropOp37
 70
     1
102
RTVSPost2010Prop38
140
0.0
102
RTVSPost2010PropOp38
 70
     1
102
RTVSPost2010Prop39
140
1.0
102
RTVSPost2010PropOp39
 70
     1
102
RTVSPost2010Prop40
 90
        0
102
RTVSPost2010PropOp40
 70
     1
102
RTVSPost2010Prop41ColorIndex
 90
       18
102
RTVSPost2010Prop41ColorRGB
 90
        0
102
RTVSPost2010PropOp41
 70
     1
102
RTVSPost2010Prop42
 90
       50
102
RTVSPost2010PropOp42
 70
     1
102
RTVSPost2010Prop43
 90
        3
102
RTVSPost2010PropOp43
 70
     1
102
RTVSPost2010Prop44ColorIndex
 90
        5
102
RTVSPost2010Prop44ColorRGB
 90
      255
102
RTVSPost2010PropOp44
 70
     1
102
RTVSPost2010Prop45
280
     0
102
RTVSPost2010PropOp45
 70
     1
102
RTVSPost2010Prop46
 90
       50
102
RTVSPost2010PropOp46
 70
     1
102
RTVSPost2010Prop47
 90
       50
102
RTVSPost2010PropOp47
 70
     1
102
RTVSPost2010Prop48
 90
       50
102
RTVSPost2010PropOp48
 70
     1
102
RTVSPost2010Prop49
280
     0
102
RTVSPost2010PropOp49
 70
     1
102
RTVSPost2010Prop50
 90
       50
102
RTVSPost2010PropOp50
 70
     1
102
RTVSPost2010Prop51ColorIndex
 90
      256
102
RTVSPost2010Prop51ColorRGB
 90
-16777216
102
RTVSPost2010PropOp51
 70
     0
102
RTVSPost2010Prop52
140
1.0
102
RTVSPost2010PropOp52
 70
     0
102
RTVSPost2010Prop53
 90
        2
102
RTVSPost2010PropOp53
 70
     1
102
RTVSPost2010Prop54
  1
strokes_ogs.tif
102
RTVSPost2010PropOp54
 70
     1
102
RTVSPost2010Prop55
280
     0
102
RTVSPost2010PropOp55
 70
     1
102
RTVSPost2010Prop56
140
1.0
102
RTVSPost2010PropOp56
 70
     1
102
RTVSPost2010Prop57
140
1.0
102
RTVSPost2010PropOp57
 70
     1
  0
XRECORD
  5
156
102
{ACAD_REACTORS
330
155
102
}
330
155
100
AcDbXrecord
280
     1
102
RTVSPost2010Prop28
280
     0
102
RTVSPost2010PropOp28
 70
     0
102
RTVSPost2010Prop29
280
     1
102
RTVSPost2010PropOp29
 70
     0
102
RTVSPost2010Prop30
280
     1
102
RTVSPost2010PropOp30
 70
     0
102
RTVSPost2010Prop31
280
     0
102
RTVSPost2010PropOp31
 70
     0
102
RTVSPost2010Prop32
280
     0
102
RTVSPost2010PropOp32
 70
     0
102
RTVSPost2010Prop33
280
     0
102
RTVSPost2010PropOp33
 70
     0
102
RTVSPost2010Prop34
280
     0
102
RTVSPost2010PropOp34
 70
     0
102
RTVSPost2010Prop35
280
     0
102
RTVSPost2010PropOp35
 70
     0
102
RTVSPost2010Prop36
280
     0
102
RTVSPost2010PropOp36
 70
     0
102
RTVSPost2010Prop37
 90
       50
102
RTVSPost2010PropOp37
 70
     0
102
RTVSPost2010Prop38
140
0.0
102
RTVSPost2010PropOp38
 70
     0
102
RTVSPost2010Prop39
140
1.0
102
RTVSPost2010PropOp39
 70
     0
102
RTVSPost2010Prop40
 90
        0
102
RTVSPost2010PropOp40
 70
     0
102
RTVSPost2010Prop41ColorIndex
 90
       18
102
RTVSPost2010Prop41ColorRGB
 90
        0
102
RTVSPost2010PropOp41
 70
     0
102
RTVSPost2010Prop42
 90
       50
102
RTVSPost2010PropOp42
 70
     0
102
RTVSPost2010Prop43
 90
        3
102
RTVSPost2010PropOp43
 70
     0
102
RTVSPost2010Prop44ColorIndex
 90
        5
102
RTVSPost2010Prop44ColorRGB
 90
      255
102
RTVSPost2010PropOp44
 70
     0
102
RTVSPost2010Prop45
280
     0
102
RTVSPost2010PropOp45
 70
     0
102
RTVSPost2010Prop46
 90
       50
102
RTVSPost2010PropOp46
 70
     0
102
RTVSPost2010Prop47
 90
       50
102
RTVSPost2010PropOp47
 70
     0
102
RTVSPost2010Prop48
 90
       50
102
RTVSPost2010PropOp48
 70
     0
102
RTVSPost2010Prop49
280
     0
102
RTVSPost2010PropOp49
 70
     0
102
RTVSPost2010Prop50
 90
       50
102
RTVSPost2010PropOp50
 70
     0
102
RTVSPost2010Prop51ColorIndex
 90
      256
102
RTVSPost2010Prop51ColorRGB
 90
-16777216
102
RTVSPost2010PropOp51
 70
     0
102
RTVSPost2010Prop52
140
1.0
102
RTVSPost2010PropOp52
 70
     0
102
RTVSPost2010Prop53
 90
        2
102
RTVSPost2010PropOp53
 70
     0
102
RTVSPost2010Prop54
  1
strokes_ogs.tif
102
RTVSPost2010PropOp54
 70
     0
102
RTVSPost2010Prop55
280
     0
102
RTVSPost2010PropOp55
 70
     0
102
RTVSPost2010Prop56
140
1.0
102
RTVSPost2010PropOp56
 70
     0
102
RTVSPost2010Prop57
140
1.0
102
RTVSPost2010PropOp57
 70
     0
  0
XRECORD
  5
14E
102
{ACAD_REACTORS
330
14D
102
}
330
14D
100
AcDbXrecord
280
     1
102
RTVSPost2010Prop28
280
     0
102
RTVSPost2010PropOp28
 70
     1
102
RTVSPost2010Prop29
280
     1
102
RTVSPost2010PropOp29
 70
     1
102
RTVSPost2010Prop30
280
     1
102
RTVSPost2010PropOp30
 70
     1
102
RTVSPost2010Prop31
280
     0
102
RTVSPost2010PropOp31
 70
     1
102
RTVSPost2010Prop32
280
     0
102
RTVSPost2010PropOp32
 70
     1
102
RTVSPost2010Prop33
280
     0
102
RTVSPost2010PropOp33
 70
     1
102
RTVSPost2010Prop34
280
     0
102
RTVSPost2010PropOp34
 70
     1
102
RTVSPost2010Prop35
280
     0
102
RTVSPost2010PropOp35
 70
     1
102
RTVSPost2010Prop36
280
     0
102
RTVSPost2010PropOp36
 70
     1
102
RTVSPost2010Prop37
 90
       50
102
RTVSPost2010PropOp37
 70
     1
102
RTVSPost2010Prop38
140
0.0
102
RTVSPost2010PropOp38
 70
     1
102
RTVSPost2010Prop39
140
1.0
102
RTVSPost2010PropOp39
 70
     1
102
RTVSPost2010Prop40
 90
        0
102
RTVSPost2010PropOp40
 70
     1
102
RTVSPost2010Prop41ColorIndex
 90
       18
102
RTVSPost2010Prop41ColorRGB
 90
        0
102
RTVSPost2010PropOp41
 70
     1
102
RTVSPost2010Prop42
 90
       50
102
RTVSPost2010PropOp42
 70
     1
102
RTVSPost2010Prop43
 90
        3
102
RTVSPost2010PropOp43
 70
     1
102
RTVSPost2010Prop44ColorIndex
 90
        5
102
RTVSPost2010Prop44ColorRGB
 90
      255
102
RTVSPost2010PropOp44
 70
     1
102
RTVSPost2010Prop45
280
     0
102
RTVSPost2010PropOp45
 70
     1
102
RTVSPost2010Prop46
 90
       50
102
RTVSPost2010PropOp46
 70
     1
102
RTVSPost2010Prop47
 90
       50
102
RTVSPost2010PropOp47
 70
     1
102
RTVSPost2010Prop48
 90
       50
102
RTVSPost2010PropOp48
 70
     1
102
RTVSPost2010Prop49
280
     0
102
RTVSPost2010PropOp49
 70
     1
102
RTVSPost2010Prop50
 90
       50
102
RTVSPost2010PropOp50
 70
     1
102
RTVSPost2010Prop51ColorIndex
 90
      256
102
RTVSPost2010Prop51ColorRGB
 90
-16777216
102
RTVSPost2010PropOp51
 70
     0
102
RTVSPost2010Prop52
140
1.0
102
RTVSPost2010PropOp52
 70
     0
102
RTVSPost2010Prop53
 90
        2
102
RTVSPost2010PropOp53
 70
     1
102
RTVSPost2010Prop54
  1
strokes_ogs.tif
102
RTVSPost2010PropOp54
 70
     1
102
RTVSPost2010Prop55
280
     0
102
RTVSPost2010PropOp55
 70
     1
102
RTVSPost2010Prop56
140
1.0
102
RTVSPost2010PropOp56
 70
     1
102
RTVSPost2010Prop57
140
1.0
102
RTVSPost2010PropOp57
 70
     1
  0
XRECORD
  5
132
102
{ACAD_REACTORS
330
131
102
}
330
131
100
AcDbXrecord
280
     1
102
RTVSPost2010Prop28
280
     0
102
RTVSPost2010PropOp28
 70
     1
102
RTVSPost2010Prop29
280
     1
102
RTVSPost2010PropOp29
 70
     1
102
RTVSPost2010Prop30
280
     1
102
RTVSPost2010PropOp30
 70
     1
102
RTVSPost2010Prop31
280
     0
102
RTVSPost2010PropOp31
 70
     1
102
RTVSPost2010Prop32
280
     0
102
RTVSPost2010PropOp32
 70
     1
102
RTVSPost2010Prop33
280
     0
102
RTVSPost2010PropOp33
 70
     1
102
RTVSPost2010Prop34
280
     0
102
RTVSPost2010PropOp34
 70
     1
102
RTVSPost2010Prop35
280
     0
102
RTVSPost2010PropOp35
 70
     1
102
RTVSPost2010Prop36
280
     0
102
RTVSPost2010PropOp36
 70
     1
102
RTVSPost2010Prop37
 90
       50
102
RTVSPost2010PropOp37
 70
     1
102
RTVSPost2010Prop38
140
0.0
102
RTVSPost2010PropOp38
 70
     1
102
RTVSPost2010Prop39
140
1.0
102
RTVSPost2010PropOp39
 70
     1
102
RTVSPost2010Prop40
 90
        0
102
RTVSPost2010PropOp40
 70
     1
102
RTVSPost2010Prop41ColorIndex
 90
       18
102
RTVSPost2010Prop41ColorRGB
 90
        0
102
RTVSPost2010PropOp41
 70
     1
102
RTVSPost2010Prop42
 90
       50
102
RTVSPost2010PropOp42
 70
     1
102
RTVSPost2010Prop43
 90
        3
102
RTVSPost2010PropOp43
 70
     1
102
RTVSPost2010Prop44ColorIndex
 90
        5
102
RTVSPost2010Prop44ColorRGB
 90
      255
102
RTVSPost2010PropOp44
 70
     1
102
RTVSPost2010Prop45
280
     0
102
RTVSPost2010PropOp45
 70
     1
102
RTVSPost2010Prop46
 90
       50
102
RTVSPost2010PropOp46
 70
     1
102
RTVSPost2010Prop47
 90
       50
102
RTVSPost2010PropOp47
 70
     1
102
RTVSPost2010Prop48
 90
       50
102
RTVSPost2010PropOp48
 70
     1
102
RTVSPost2010Prop49
280
     0
102
RTVSPost2010PropOp49
 70
     1
102
RTVSPost2010Prop50
 90
       50
102
RTVSPost2010PropOp50
 70
     1
102
RTVSPost2010Prop51ColorIndex
 90
      256
102
RTVSPost2010Prop51ColorRGB
 90
-16777216
102
RTVSPost2010PropOp51
 70
     0
102
RTVSPost2010Prop52
140
1.0
102
RTVSPost2010PropOp52
 70
     0
102
RTVSPost2010Prop53
 90
        2
102
RTVSPost2010PropOp53
 70
     1
102
RTVSPost2010Prop54
  1
strokes_ogs.tif
102
RTVSPost2010PropOp54
 70
     1
102
RTVSPost2010Prop55
280
     0
102
RTVSPost2010PropOp55
 70
     1
102
RTVSPost2010Prop56
140
1.0
102
RTVSPost2010PropOp56
 70
     1
102
RTVSPost2010Prop57
140
1.0
102
RTVSPost2010PropOp57
 70
     1
  0
XRECORD
  5
134
102
{ACAD_REACTORS
330
133
102
}
330
133
100
AcDbXrecord
280
     1
102
RTVSPost2010Prop28
280
     0
102
RTVSPost2010PropOp28
 70
     1
102
RTVSPost2010Prop29
280
     1
102
RTVSPost2010PropOp29
 70
     1
102
RTVSPost2010Prop30
280
     1
102
RTVSPost2010PropOp30
 70
     1
102
RTVSPost2010Prop31
280
     0
102
RTVSPost2010PropOp31
 70
     1
102
RTVSPost2010Prop32
280
     0
102
RTVSPost2010PropOp32
 70
     1
102
RTVSPost2010Prop33
280
     0
102
RTVSPost2010PropOp33
 70
     1
102
RTVSPost2010Prop34
280
     0
102
RTVSPost2010PropOp34
 70
     1
102
RTVSPost2010Prop35
280
     0
102
RTVSPost2010PropOp35
 70
     1
102
RTVSPost2010Prop36
280
     0
102
RTVSPost2010PropOp36
 70
     1
102
RTVSPost2010Prop37
 90
       50
102
RTVSPost2010PropOp37
 70
     1
102
RTVSPost2010Prop38
140
0.0
102
RTVSPost2010PropOp38
 70
     1
102
RTVSPost2010Prop39
140
1.0
102
RTVSPost2010PropOp39
 70
     1
102
RTVSPost2010Prop40
 90
        0
102
RTVSPost2010PropOp40
 70
     1
102
RTVSPost2010Prop41ColorIndex
 90
       18
102
RTVSPost2010Prop41ColorRGB
 90
        0
102
RTVSPost2010PropOp41
 70
     1
102
RTVSPost2010Prop42
 90
       50
102
RTVSPost2010PropOp42
 70
     1
102
RTVSPost2010Prop43
 90
        3
102
RTVSPost2010PropOp43
 70
     1
102
RTVSPost2010Prop44ColorIndex
 90
        5
102
RTVSPost2010Prop44ColorRGB
 90
      255
102
RTVSPost2010PropOp44
 70
     1
102
RTVSPost2010Prop45
280
     0
102
RTVSPost2010PropOp45
 70
     1
102
RTVSPost2010Prop46
 90
       50
102
RTVSPost2010PropOp46
 70
     1
102
RTVSPost2010Prop47
 90
       50
102
RTVSPost2010PropOp47
 70
     1
102
RTVSPost2010Prop48
 90
       50
102
RTVSPost2010PropOp48
 70
     1
102
RTVSPost2010Prop49
280
     0
102
RTVSPost2010PropOp49
 70
     1
102
RTVSPost2010Prop50
 90
       50
102
RTVSPost2010PropOp50
 70
     1
102
RTVSPost2010Prop51ColorIndex
 90
      256
102
RTVSPost2010Prop51ColorRGB
 90
-16777216
102
RTVSPost2010PropOp51
 70
     0
102
RTVSPost2010Prop52
140
1.0
102
RTVSPost2010PropOp52
 70
     0
102
RTVSPost2010Prop53
 90
        2
102
RTVSPost2010PropOp53
 70
     1
102
RTVSPost2010Prop54
  1
strokes_ogs.tif
102
RTVSPost2010PropOp54
 70
     1
102
RTVSPost2010Prop55
280
     0
102
RTVSPost2010PropOp55
 70
     1
102
RTVSPost2010Prop56
140
1.0
102
RTVSPost2010PropOp56
 70
     1
102
RTVSPost2010Prop57
140
1.0
102
RTVSPost2010PropOp57
 70
     1
  0
XRECORD
  5
136
102
{ACAD_REACTORS
330
135
102
}
330
135
100
AcDbXrecord
280
     1
102
RTVSPost2010Prop28
280
     0
102
RTVSPost2010PropOp28
 70
     1
102
RTVSPost2010Prop29
280
     1
102
RTVSPost2010PropOp29
 70
     1
102
RTVSPost2010Prop30
280
     1
102
RTVSPost2010PropOp30
 70
     1
102
RTVSPost2010Prop31
280
     0
102
RTVSPost2010PropOp31
 70
     1
102
RTVSPost2010Prop32
280
     0
102
RTVSPost2010PropOp32
 70
     1
102
RTVSPost2010Prop33
280
     0
102
RTVSPost2010PropOp33
 70
     1
102
RTVSPost2010Prop34
280
     0
102
RTVSPost2010PropOp34
 70
     1
102
RTVSPost2010Prop35
280
     0
102
RTVSPost2010PropOp35
 70
     1
102
RTVSPost2010Prop36
280
     0
102
RTVSPost2010PropOp36
 70
     1
102
RTVSPost2010Prop37
 90
       50
102
RTVSPost2010PropOp37
 70
     1
102
RTVSPost2010Prop38
140
0.0
102
RTVSPost2010PropOp38
 70
     1
102
RTVSPost2010Prop39
140
1.0
102
RTVSPost2010PropOp39
 70
     1
102
RTVSPost2010Prop40
 90
        0
102
RTVSPost2010PropOp40
 70
     1
102
RTVSPost2010Prop41ColorIndex
 90
       18
102
RTVSPost2010Prop41ColorRGB
 90
        0
102
RTVSPost2010PropOp41
 70
     1
102
RTVSPost2010Prop42
 90
       50
102
RTVSPost2010PropOp42
 70
     1
102
RTVSPost2010Prop43
 90
        3
102
RTVSPost2010PropOp43
 70
     1
102
RTVSPost2010Prop44ColorIndex
 90
        5
102
RTVSPost2010Prop44ColorRGB
 90
      255
102
RTVSPost2010PropOp44
 70
     1
102
RTVSPost2010Prop45
280
     0
102
RTVSPost2010PropOp45
 70
     1
102
RTVSPost2010Prop46
 90
       50
102
RTVSPost2010PropOp46
 70
     1
102
RTVSPost2010Prop47
 90
       50
102
RTVSPost2010PropOp47
 70
     1
102
RTVSPost2010Prop48
 90
       50
102
RTVSPost2010PropOp48
 70
     1
102
RTVSPost2010Prop49
280
     0
102
RTVSPost2010PropOp49
 70
     1
102
RTVSPost2010Prop50
 90
       50
102
RTVSPost2010PropOp50
 70
     1
102
RTVSPost2010Prop51ColorIndex
 90
      256
102
RTVSPost2010Prop51ColorRGB
 90
-16777216
102
RTVSPost2010PropOp51
 70
     0
102
RTVSPost2010Prop52
140
1.0
102
RTVSPost2010PropOp52
 70
     0
102
RTVSPost2010Prop53
 90
        2
102
RTVSPost2010PropOp53
 70
     1
102
RTVSPost2010Prop54
  1
strokes_ogs.tif
102
RTVSPost2010PropOp54
 70
     1
102
RTVSPost2010Prop55
280
     0
102
RTVSPost2010PropOp55
 70
     1
102
RTVSPost2010Prop56
140
1.0
102
RTVSPost2010PropOp56
 70
     1
102
RTVSPost2010Prop57
140
1.0
102
RTVSPost2010PropOp57
 70
     1
  0
XRECORD
  5
138
102
{ACAD_REACTORS
330
137
102
}
330
137
100
AcDbXrecord
280
     1
102
RTVSPost2010Prop28
280
     0
102
RTVSPost2010PropOp28
 70
     1
102
RTVSPost2010Prop29
280
     1
102
RTVSPost2010PropOp29
 70
     1
102
RTVSPost2010Prop30
280
     1
102
RTVSPost2010PropOp30
 70
     1
102
RTVSPost2010Prop31
280
     0
102
RTVSPost2010PropOp31
 70
     1
102
RTVSPost2010Prop32
280
     0
102
RTVSPost2010PropOp32
 70
     1
102
RTVSPost2010Prop33
280
     0
102
RTVSPost2010PropOp33
 70
     1
102
RTVSPost2010Prop34
280
     0
102
RTVSPost2010PropOp34
 70
     1
102
RTVSPost2010Prop35
280
     0
102
RTVSPost2010PropOp35
 70
     1
102
RTVSPost2010Prop36
280
     0
102
RTVSPost2010PropOp36
 70
     1
102
RTVSPost2010Prop37
 90
       50
102
RTVSPost2010PropOp37
 70
     1
102
RTVSPost2010Prop38
140
0.0
102
RTVSPost2010PropOp38
 70
     1
102
RTVSPost2010Prop39
140
1.0
102
RTVSPost2010PropOp39
 70
     1
102
RTVSPost2010Prop40
 90
        0
102
RTVSPost2010PropOp40
 70
     1
102
RTVSPost2010Prop41ColorIndex
 90
       18
102
RTVSPost2010Prop41ColorRGB
 90
        0
102
RTVSPost2010PropOp41
 70
     1
102
RTVSPost2010Prop42
 90
       50
102
RTVSPost2010PropOp42
 70
     1
102
RTVSPost2010Prop43
 90
        3
102
RTVSPost2010PropOp43
 70
     1
102
RTVSPost2010Prop44ColorIndex
 90
        5
102
RTVSPost2010Prop44ColorRGB
 90
      255
102
RTVSPost2010PropOp44
 70
     1
102
RTVSPost2010Prop45
280
     0
102
RTVSPost2010PropOp45
 70
     1
102
RTVSPost2010Prop46
 90
       50
102
RTVSPost2010PropOp46
 70
     1
102
RTVSPost2010Prop47
 90
       50
102
RTVSPost2010PropOp47
 70
     1
102
RTVSPost2010Prop48
 90
       50
102
RTVSPost2010PropOp48
 70
     1
102
RTVSPost2010Prop49
280
     0
102
RTVSPost2010PropOp49
 70
     1
102
RTVSPost2010Prop50
 90
       50
102
RTVSPost2010PropOp50
 70
     1
102
RTVSPost2010Prop51ColorIndex
 90
      256
102
RTVSPost2010Prop51ColorRGB
 90
-16777216
102
RTVSPost2010PropOp51
 70
     0
102
RTVSPost2010Prop52
140
1.0
102
RTVSPost2010PropOp52
 70
     0
102
RTVSPost2010Prop53
 90
        2
102
RTVSPost2010PropOp53
 70
     1
102
RTVSPost2010Prop54
  1
strokes_ogs.tif
102
RTVSPost2010PropOp54
 70
     1
102
RTVSPost2010Prop55
280
     0
102
RTVSPost2010PropOp55
 70
     1
102
RTVSPost2010Prop56
140
1.0
102
RTVSPost2010PropOp56
 70
     1
102
RTVSPost2010Prop57
140
1.0
102
RTVSPost2010PropOp57
 70
     1
  0
XRECORD
  5
13E
102
{ACAD_REACTORS
330
13D
102
}
330
13D
100
AcDbXrecord
280
     1
102
RTVSPost2010Prop28
280
     0
102
RTVSPost2010PropOp28
 70
     1
102
RTVSPost2010Prop29
280
     1
102
RTVSPost2010PropOp29
 70
     1
102
RTVSPost2010Prop30
280
     1
102
RTVSPost2010PropOp30
 70
     1
102
RTVSPost2010Prop31
280
     0
102
RTVSPost2010PropOp31
 70
     1
102
RTVSPost2010Prop32
280
     0
102
RTVSPost2010PropOp32
 70
     1
102
RTVSPost2010Prop33
280
     0
102
RTVSPost2010PropOp33
 70
     1
102
RTVSPost2010Prop34
280
     0
102
RTVSPost2010PropOp34
 70
     1
102
RTVSPost2010Prop35
280
     0
102
RTVSPost2010PropOp35
 70
     1
102
RTVSPost2010Prop36
280
     0
102
RTVSPost2010PropOp36
 70
     1
102
RTVSPost2010Prop37
 90
       50
102
RTVSPost2010PropOp37
 70
     1
102
RTVSPost2010Prop38
140
0.0
102
RTVSPost2010PropOp38
 70
     1
102
RTVSPost2010Prop39
140
1.0
102
RTVSPost2010PropOp39
 70
     1
102
RTVSPost2010Prop40
 90
        0
102
RTVSPost2010PropOp40
 70
     1
102
RTVSPost2010Prop41ColorIndex
 90
       18
102
RTVSPost2010Prop41ColorRGB
 90
        0
102
RTVSPost2010PropOp41
 70
     1
102
RTVSPost2010Prop42
 90
       50
102
RTVSPost2010PropOp42
 70
     1
102
RTVSPost2010Prop43
 90
        3
102
RTVSPost2010PropOp43
 70
     1
102
RTVSPost2010Prop44ColorIndex
 90
        5
102
RTVSPost2010Prop44ColorRGB
 90
      255
102
RTVSPost2010PropOp44
 70
     1
102
RTVSPost2010Prop45
280
     0
102
RTVSPost2010PropOp45
 70
     1
102
RTVSPost2010Prop46
 90
       50
102
RTVSPost2010PropOp46
 70
     1
102
RTVSPost2010Prop47
 90
       50
102
RTVSPost2010PropOp47
 70
     1
102
RTVSPost2010Prop48
 90
       50
102
RTVSPost2010PropOp48
 70
     1
102
RTVSPost2010Prop49
280
     0
102
RTVSPost2010PropOp49
 70
     1
102
RTVSPost2010Prop50
 90
       50
102
RTVSPost2010PropOp50
 70
     1
102
RTVSPost2010Prop51ColorIndex
 90
      256
102
RTVSPost2010Prop51ColorRGB
 90
-16777216
102
RTVSPost2010PropOp51
 70
     0
102
RTVSPost2010Prop52
140
1.0
102
RTVSPost2010PropOp52
 70
     0
102
RTVSPost2010Prop53
 90
        2
102
RTVSPost2010PropOp53
 70
     1
102
RTVSPost2010Prop54
  1
strokes_ogs.tif
102
RTVSPost2010PropOp54
 70
     1
102
RTVSPost2010Prop55
280
     0
102
RTVSPost2010PropOp55
 70
     1
102
RTVSPost2010Prop56
140
1.0
102
RTVSPost2010PropOp56
 70
     1
102
RTVSPost2010Prop57
140
1.0
102
RTVSPost2010PropOp57
 70
     1
  0
XRECORD
  5
152
102
{ACAD_REACTORS
330
151
102
}
330
151
100
AcDbXrecord
280
     1
102
RTVSPost2010Prop28
280
     0
102
RTVSPost2010PropOp28
 70
     0
102
RTVSPost2010Prop29
280
     1
102
RTVSPost2010PropOp29
 70
     0
102
RTVSPost2010Prop30
280
     1
102
RTVSPost2010PropOp30
 70
     0
102
RTVSPost2010Prop31
280
     0
102
RTVSPost2010PropOp31
 70
     0
102
RTVSPost2010Prop32
280
     0
102
RTVSPost2010PropOp32
 70
     0
102
RTVSPost2010Prop33
280
     0
102
RTVSPost2010PropOp33
 70
     0
102
RTVSPost2010Prop34
280
     0
102
RTVSPost2010PropOp34
 70
     0
102
RTVSPost2010Prop35
280
     0
102
RTVSPost2010PropOp35
 70
     0
102
RTVSPost2010Prop36
280
     0
102
RTVSPost2010PropOp36
 70
     0
102
RTVSPost2010Prop37
 90
       50
102
RTVSPost2010PropOp37
 70
     0
102
RTVSPost2010Prop38
140
0.0
102
RTVSPost2010PropOp38
 70
     0
102
RTVSPost2010Prop39
140
1.0
102
RTVSPost2010PropOp39
 70
     0
102
RTVSPost2010Prop40
 90
        0
102
RTVSPost2010PropOp40
 70
     0
102
RTVSPost2010Prop41ColorIndex
 90
       18
102
RTVSPost2010Prop41ColorRGB
 90
        0
102
RTVSPost2010PropOp41
 70
     0
102
RTVSPost2010Prop42
 90
       50
102
RTVSPost2010PropOp42
 70
     0
102
RTVSPost2010Prop43
 90
        3
102
RTVSPost2010PropOp43
 70
     0
102
RTVSPost2010Prop44ColorIndex
 90
        5
102
RTVSPost2010Prop44ColorRGB
 90
      255
102
RTVSPost2010PropOp44
 70
     0
102
RTVSPost2010Prop45
280
     0
102
RTVSPost2010PropOp45
 70
     0
102
RTVSPost2010Prop46
 90
       50
102
RTVSPost2010PropOp46
 70
     0
102
RTVSPost2010Prop47
 90
       50
102
RTVSPost2010PropOp47
 70
     0
102
RTVSPost2010Prop48
 90
       50
102
RTVSPost2010PropOp48
 70
     0
102
RTVSPost2010Prop49
280
     0
102
RTVSPost2010PropOp49
 70
     0
102
RTVSPost2010Prop50
 90
       50
102
RTVSPost2010PropOp50
 70
     0
102
RTVSPost2010Prop51ColorIndex
 90
      256
102
RTVSPost2010Prop51ColorRGB
 90
-16777216
102
RTVSPost2010PropOp51
 70
     0
102
RTVSPost2010Prop52
140
1.0
102
RTVSPost2010PropOp52
 70
     0
102
RTVSPost2010Prop53
 90
        2
102
RTVSPost2010PropOp53
 70
     0
102
RTVSPost2010Prop54
  1
strokes_ogs.tif
102
RTVSPost2010PropOp54
 70
     0
102
RTVSPost2010Prop55
280
     0
102
RTVSPost2010PropOp55
 70
     0
102
RTVSPost2010Prop56
140
1.0
102
RTVSPost2010PropOp56
 70
     0
102
RTVSPost2010Prop57
140
1.0
102
RTVSPost2010PropOp57
 70
     0
  0
XRECORD
  5
14C
102
{ACAD_REACTORS
330
14B
102
}
330
14B
100
AcDbXrecord
280
     1
102
RTVSPost2010Prop28
280
     0
102
RTVSPost2010PropOp28
 70
     1
102
RTVSPost2010Prop29
280
     1
102
RTVSPost2010PropOp29
 70
     1
102
RTVSPost2010Prop30
280
     1
102
RTVSPost2010PropOp30
 70
     1
102
RTVSPost2010Prop31
280
     0
102
RTVSPost2010PropOp31
 70
     1
102
RTVSPost2010Prop32
280
     0
102
RTVSPost2010PropOp32
 70
     1
102
RTVSPost2010Prop33
280
     0
102
RTVSPost2010PropOp33
 70
     1
102
RTVSPost2010Prop34
280
     0
102
RTVSPost2010PropOp34
 70
     1
102
RTVSPost2010Prop35
280
     0
102
RTVSPost2010PropOp35
 70
     1
102
RTVSPost2010Prop36
280
     0
102
RTVSPost2010PropOp36
 70
     1
102
RTVSPost2010Prop37
 90
       50
102
RTVSPost2010PropOp37
 70
     1
102
RTVSPost2010Prop38
140
0.0
102
RTVSPost2010PropOp38
 70
     1
102
RTVSPost2010Prop39
140
1.0
102
RTVSPost2010PropOp39
 70
     1
102
RTVSPost2010Prop40
 90
        0
102
RTVSPost2010PropOp40
 70
     1
102
RTVSPost2010Prop41ColorIndex
 90
       18
102
RTVSPost2010Prop41ColorRGB
 90
        0
102
RTVSPost2010PropOp41
 70
     1
102
RTVSPost2010Prop42
 90
       50
102
RTVSPost2010PropOp42
 70
     1
102
RTVSPost2010Prop43
 90
        3
102
RTVSPost2010PropOp43
 70
     1
102
RTVSPost2010Prop44ColorIndex
 90
        5
102
RTVSPost2010Prop44ColorRGB
 90
      255
102
RTVSPost2010PropOp44
 70
     1
102
RTVSPost2010Prop45
280
     0
102
RTVSPost2010PropOp45
 70
     1
102
RTVSPost2010Prop46
 90
       50
102
RTVSPost2010PropOp46
 70
     1
102
RTVSPost2010Prop47
 90
       50
102
RTVSPost2010PropOp47
 70
     1
102
RTVSPost2010Prop48
 90
       50
102
RTVSPost2010PropOp48
 70
     1
102
RTVSPost2010Prop49
280
     0
102
RTVSPost2010PropOp49
 70
     1
102
RTVSPost2010Prop50
 90
       50
102
RTVSPost2010PropOp50
 70
     1
102
RTVSPost2010Prop51ColorIndex
 90
      256
102
RTVSPost2010Prop51ColorRGB
 90
-16777216
102
RTVSPost2010PropOp51
 70
     0
102
RTVSPost2010Prop52
140
1.0
102
RTVSPost2010PropOp52
 70
     0
102
RTVSPost2010Prop53
 90
        2
102
RTVSPost2010PropOp53
 70
     1
102
RTVSPost2010Prop54
  1
strokes_ogs.tif
102
RTVSPost2010PropOp54
 70
     1
102
RTVSPost2010Prop55
280
     0
102
RTVSPost2010PropOp55
 70
     1
102
RTVSPost2010Prop56
140
1.0
102
RTVSPost2010PropOp56
 70
     1
102
RTVSPost2010Prop57
140
1.0
102
RTVSPost2010PropOp57
 70
     1
  0
XRECORD
  5
154
102
{ACAD_REACTORS
330
153
102
}
330
153
100
AcDbXrecord
280
     1
102
RTVSPost2010Prop28
280
     0
102
RTVSPost2010PropOp28
 70
     0
102
RTVSPost2010Prop29
280
     1
102
RTVSPost2010PropOp29
 70
     0
102
RTVSPost2010Prop30
280
     1
102
RTVSPost2010PropOp30
 70
     0
102
RTVSPost2010Prop31
280
     0
102
RTVSPost2010PropOp31
 70
     0
102
RTVSPost2010Prop32
280
     0
102
RTVSPost2010PropOp32
 70
     0
102
RTVSPost2010Prop33
280
     0
102
RTVSPost2010PropOp33
 70
     0
102
RTVSPost2010Prop34
280
     0
102
RTVSPost2010PropOp34
 70
     0
102
RTVSPost2010Prop35
280
     0
102
RTVSPost2010PropOp35
 70
     0
102
RTVSPost2010Prop36
280
     0
102
RTVSPost2010PropOp36
 70
     0
102
RTVSPost2010Prop37
 90
       50
102
RTVSPost2010PropOp37
 70
     0
102
RTVSPost2010Prop38
140
0.0
102
RTVSPost2010PropOp38
 70
     0
102
RTVSPost2010Prop39
140
1.0
102
RTVSPost2010PropOp39
 70
     0
102
RTVSPost2010Prop40
 90
        0
102
RTVSPost2010PropOp40
 70
     0
102
RTVSPost2010Prop41ColorIndex
 90
       18
102
RTVSPost2010Prop41ColorRGB
 90
        0
102
RTVSPost2010PropOp41
 70
     0
102
RTVSPost2010Prop42
 90
       50
102
RTVSPost2010PropOp42
 70
     0
102
RTVSPost2010Prop43
 90
        3
102
RTVSPost2010PropOp43
 70
     0
102
RTVSPost2010Prop44ColorIndex
 90
        5
102
RTVSPost2010Prop44ColorRGB
 90
      255
102
RTVSPost2010PropOp44
 70
     0
102
RTVSPost2010Prop45
280
     0
102
RTVSPost2010PropOp45
 70
     0
102
RTVSPost2010Prop46
 90
       50
102
RTVSPost2010PropOp46
 70
     0
102
RTVSPost2010Prop47
 90
       50
102
RTVSPost2010PropOp47
 70
     0
102
RTVSPost2010Prop48
 90
       50
102
RTVSPost2010PropOp48
 70
     0
102
RTVSPost2010Prop49
280
     0
102
RTVSPost2010PropOp49
 70
     0
102
RTVSPost2010Prop50
 90
       50
102
RTVSPost2010PropOp50
 70
     0
102
RTVSPost2010Prop51ColorIndex
 90
      256
102
RTVSPost2010Prop51ColorRGB
 90
-16777216
102
RTVSPost2010PropOp51
 70
     0
102
RTVSPost2010Prop52
140
1.0
102
RTVSPost2010PropOp52
 70
     0
102
RTVSPost2010Prop53
 90
        2
102
RTVSPost2010PropOp53
 70
     0
102
RTVSPost2010Prop54
  1
strokes_ogs.tif
102
RTVSPost2010PropOp54
 70
     0
102
RTVSPost2010Prop55
280
     0
102
RTVSPost2010PropOp55
 70
     0
102
RTVSPost2010Prop56
140
1.0
102
RTVSPost2010PropOp56
 70
     0
102
RTVSPost2010Prop57
140
1.0
102
RTVSPost2010PropOp57
 70
     0
  0
XRECORD
  5
142
102
{ACAD_REACTORS
330
141
102
}
330
141
100
AcDbXrecord
280
     1
102
RTVSPost2010Prop28
280
     0
102
RTVSPost2010PropOp28
 70
     1
102
RTVSPost2010Prop29
280
     1
102
RTVSPost2010PropOp29
 70
     1
102
RTVSPost2010Prop30
280
     1
102
RTVSPost2010PropOp30
 70
     1
102
RTVSPost2010Prop31
280
     0
102
RTVSPost2010PropOp31
 70
     1
102
RTVSPost2010Prop32
280
     0
102
RTVSPost2010PropOp32
 70
     1
102
RTVSPost2010Prop33
280
     0
102
RTVSPost2010PropOp33
 70
     1
102
RTVSPost2010Prop34
280
     0
102
RTVSPost2010PropOp34
 70
     1
102
RTVSPost2010Prop35
280
     0
102
RTVSPost2010PropOp35
 70
     1
102
RTVSPost2010Prop36
280
     0
102
RTVSPost2010PropOp36
 70
     1
102
RTVSPost2010Prop37
 90
       50
102
RTVSPost2010PropOp37
 70
     1
102
RTVSPost2010Prop38
140
0.0
102
RTVSPost2010PropOp38
 70
     1
102
RTVSPost2010Prop39
140
1.0
102
RTVSPost2010PropOp39
 70
     1
102
RTVSPost2010Prop40
 90
        0
102
RTVSPost2010PropOp40
 70
     1
102
RTVSPost2010Prop41ColorIndex
 90
       18
102
RTVSPost2010Prop41ColorRGB
 90
        0
102
RTVSPost2010PropOp41
 70
     1
102
RTVSPost2010Prop42
 90
       50
102
RTVSPost2010PropOp42
 70
     1
102
RTVSPost2010Prop43
 90
        3
102
RTVSPost2010PropOp43
 70
     1
102
RTVSPost2010Prop44ColorIndex
 90
        5
102
RTVSPost2010Prop44ColorRGB
 90
      255
102
RTVSPost2010PropOp44
 70
     1
102
RTVSPost2010Prop45
280
     0
102
RTVSPost2010PropOp45
 70
     1
102
RTVSPost2010Prop46
 90
       50
102
RTVSPost2010PropOp46
 70
     1
102
RTVSPost2010Prop47
 90
       50
102
RTVSPost2010PropOp47
 70
     1
102
RTVSPost2010Prop48
 90
       50
102
RTVSPost2010PropOp48
 70
     1
102
RTVSPost2010Prop49
280
     0
102
RTVSPost2010PropOp49
 70
     1
102
RTVSPost2010Prop50
 90
       50
102
RTVSPost2010PropOp50
 70
     1
102
RTVSPost2010Prop51ColorIndex
 90
      256
102
RTVSPost2010Prop51ColorRGB
 90
-16777216
102
RTVSPost2010PropOp51
 70
     0
102
RTVSPost2010Prop52
140
1.0
102
RTVSPost2010PropOp52
 70
     0
102
RTVSPost2010Prop53
 90
        2
102
RTVSPost2010PropOp53
 70
     1
102
RTVSPost2010Prop54
  1
strokes_ogs.tif
102
RTVSPost2010PropOp54
 70
     1
102
RTVSPost2010Prop55
280
     0
102
RTVSPost2010PropOp55
 70
     1
102
RTVSPost2010Prop56
140
1.0
102
RTVSPost2010PropOp56
 70
     1
102
RTVSPost2010Prop57
140
1.0
102
RTVSPost2010PropOp57
 70
     1
  0
XRECORD
  5
160
102
{ACAD_REACTORS
330
15F
102
}
330
15F
100
AcDbXrecord
280
     1
102
RTVSPost2010Prop28
280
     0
102
RTVSPost2010PropOp28
 70
     1
102
RTVSPost2010Prop29
280
     1
102
RTVSPost2010PropOp29
 70
     1
102
RTVSPost2010Prop30
280
     1
102
RTVSPost2010PropOp30
 70
     1
102
RTVSPost2010Prop31
280
     0
102
RTVSPost2010PropOp31
 70
     1
102
RTVSPost2010Prop32
280
     0
102
RTVSPost2010PropOp32
 70
     1
102
RTVSPost2010Prop33
280
     0
102
RTVSPost2010PropOp33
 70
     1
102
RTVSPost2010Prop34
280
     0
102
RTVSPost2010PropOp34
 70
     1
102
RTVSPost2010Prop35
280
     0
102
RTVSPost2010PropOp35
 70
     1
102
RTVSPost2010Prop36
280
     0
102
RTVSPost2010PropOp36
 70
     1
102
RTVSPost2010Prop37
 90
       50
102
RTVSPost2010PropOp37
 70
     1
102
RTVSPost2010Prop38
140
0.0
102
RTVSPost2010PropOp38
 70
     1
102
RTVSPost2010Prop39
140
1.0
102
RTVSPost2010PropOp39
 70
     1
102
RTVSPost2010Prop40
 90
        0
102
RTVSPost2010PropOp40
 70
     1
102
RTVSPost2010Prop41ColorIndex
 90
       18
102
RTVSPost2010Prop41ColorRGB
 90
        0
102
RTVSPost2010PropOp41
 70
     1
102
RTVSPost2010Prop42
 90
       50
102
RTVSPost2010PropOp42
 70
     1
102
RTVSPost2010Prop43
 90
        3
102
RTVSPost2010PropOp43
 70
     1
102
RTVSPost2010Prop44ColorIndex
 90
        5
102
RTVSPost2010Prop44ColorRGB
 90
      255
102
RTVSPost2010PropOp44
 70
     1
102
RTVSPost2010Prop45
280
     0
102
RTVSPost2010PropOp45
 70
     1
102
RTVSPost2010Prop46
 90
       50
102
RTVSPost2010PropOp46
 70
     1
102
RTVSPost2010Prop47
 90
       50
102
RTVSPost2010PropOp47
 70
     1
102
RTVSPost2010Prop48
 90
       50
102
RTVSPost2010PropOp48
 70
     1
102
RTVSPost2010Prop49
280
     0
102
RTVSPost2010PropOp49
 70
     1
102
RTVSPost2010Prop50
 90
       50
102
RTVSPost2010PropOp50
 70
     1
102
RTVSPost2010Prop51ColorIndex
 90
      256
102
RTVSPost2010Prop51ColorRGB
 90
-16777216
102
RTVSPost2010PropOp51
 70
     0
102
RTVSPost2010Prop52
140
1.0
102
RTVSPost2010PropOp52
 70
     0
102
RTVSPost2010Prop53
 90
        2
102
RTVSPost2010PropOp53
 70
     1
102
RTVSPost2010Prop54
  1
strokes_ogs.tif
102
RTVSPost2010PropOp54
 70
     1
102
RTVSPost2010Prop55
280
     0
102
RTVSPost2010PropOp55
 70
     1
102
RTVSPost2010Prop56
140
1.0
102
RTVSPost2010PropOp56
 70
     1
102
RTVSPost2010Prop57
140
1.0
102
RTVSPost2010PropOp57
 70
     1
  0
XRECORD
  5
15E
102
{ACAD_REACTORS
330
15D
102
}
330
15D
100
AcDbXrecord
280
     1
102
RTVSPost2010Prop28
280
     0
102
RTVSPost2010PropOp28
 70
     1
102
RTVSPost2010Prop29
280
     1
102
RTVSPost2010PropOp29
 70
     1
102
RTVSPost2010Prop30
280
     1
102
RTVSPost2010PropOp30
 70
     1
102
RTVSPost2010Prop31
280
     0
102
RTVSPost2010PropOp31
 70
     1
102
RTVSPost2010Prop32
280
     0
102
RTVSPost2010PropOp32
 70
     1
102
RTVSPost2010Prop33
280
     0
102
RTVSPost2010PropOp33
 70
     1
102
RTVSPost2010Prop34
280
     0
102
RTVSPost2010PropOp34
 70
     1
102
RTVSPost2010Prop35
280
     0
102
RTVSPost2010PropOp35
 70
     1
102
RTVSPost2010Prop36
280
     0
102
RTVSPost2010PropOp36
 70
     1
102
RTVSPost2010Prop37
 90
       50
102
RTVSPost2010PropOp37
 70
     1
102
RTVSPost2010Prop38
140
0.0
102
RTVSPost2010PropOp38
 70
     1
102
RTVSPost2010Prop39
140
1.0
102
RTVSPost2010PropOp39
 70
     1
102
RTVSPost2010Prop40
 90
        0
102
RTVSPost2010PropOp40
 70
     1
102
RTVSPost2010Prop41ColorIndex
 90
       18
102
RTVSPost2010Prop41ColorRGB
 90
        0
102
RTVSPost2010PropOp41
 70
     1
102
RTVSPost2010Prop42
 90
       50
102
RTVSPost2010PropOp42
 70
     1
102
RTVSPost2010Prop43
 90
        3
102
RTVSPost2010PropOp43
 70
     1
102
RTVSPost2010Prop44ColorIndex
 90
        5
102
RTVSPost2010Prop44ColorRGB
 90
      255
102
RTVSPost2010PropOp44
 70
     1
102
RTVSPost2010Prop45
280
     0
102
RTVSPost2010PropOp45
 70
     1
102
RTVSPost2010Prop46
 90
       50
102
RTVSPost2010PropOp46
 70
     1
102
RTVSPost2010Prop47
 90
       50
102
RTVSPost2010PropOp47
 70
     1
102
RTVSPost2010Prop48
 90
       50
102
RTVSPost2010PropOp48
 70
     1
102
RTVSPost2010Prop49
280
     0
102
RTVSPost2010PropOp49
 70
     1
102
RTVSPost2010Prop50
 90
       50
102
RTVSPost2010PropOp50
 70
     1
102
RTVSPost2010Prop51ColorIndex
 90
      256
102
RTVSPost2010Prop51ColorRGB
 90
-16777216
102
RTVSPost2010PropOp51
 70
     0
102
RTVSPost2010Prop52
140
1.0
102
RTVSPost2010PropOp52
 70
     0
102
RTVSPost2010Prop53
 90
        2
102
RTVSPost2010PropOp53
 70
     1
102
RTVSPost2010Prop54
  1
strokes_ogs.tif
102
RTVSPost2010PropOp54
 70
     1
102
RTVSPost2010Prop55
280
     0
102
RTVSPost2010PropOp55
 70
     1
102
RTVSPost2010Prop56
140
1.0
102
RTVSPost2010PropOp56
 70
     1
102
RTVSPost2010Prop57
140
1.0
102
RTVSPost2010PropOp57
 70
     1
  0
XRECORD
  5
158
102
{ACAD_REACTORS
330
157
102
}
330
157
100
AcDbXrecord
280
     1
102
RTVSPost2010Prop28
280
     0
102
RTVSPost2010PropOp28
 70
     1
102
RTVSPost2010Prop29
280
     1
102
RTVSPost2010PropOp29
 70
     1
102
RTVSPost2010Prop30
280
     1
102
RTVSPost2010PropOp30
 70
     1
102
RTVSPost2010Prop31
280
     0
102
RTVSPost2010PropOp31
 70
     1
102
RTVSPost2010Prop32
280
     0
102
RTVSPost2010PropOp32
 70
     1
102
RTVSPost2010Prop33
280
     0
102
RTVSPost2010PropOp33
 70
     1
102
RTVSPost2010Prop34
280
     0
102
RTVSPost2010PropOp34
 70
     1
102
RTVSPost2010Prop35
280
     0
102
RTVSPost2010PropOp35
 70
     1
102
RTVSPost2010Prop36
280
     0
102
RTVSPost2010PropOp36
 70
     1
102
RTVSPost2010Prop37
 90
       50
102
RTVSPost2010PropOp37
 70
     1
102
RTVSPost2010Prop38
140
0.0
102
RTVSPost2010PropOp38
 70
     1
102
RTVSPost2010Prop39
140
1.0
102
RTVSPost2010PropOp39
 70
     1
102
RTVSPost2010Prop40
 90
        0
102
RTVSPost2010PropOp40
 70
     1
102
RTVSPost2010Prop41ColorIndex
 90
       18
102
RTVSPost2010Prop41ColorRGB
 90
        0
102
RTVSPost2010PropOp41
 70
     1
102
RTVSPost2010Prop42
 90
       50
102
RTVSPost2010PropOp42
 70
     1
102
RTVSPost2010Prop43
 90
        3
102
RTVSPost2010PropOp43
 70
     1
102
RTVSPost2010Prop44ColorIndex
 90
        5
102
RTVSPost2010Prop44ColorRGB
 90
      255
102
RTVSPost2010PropOp44
 70
     1
102
RTVSPost2010Prop45
280
     0
102
RTVSPost2010PropOp45
 70
     1
102
RTVSPost2010Prop46
 90
       50
102
RTVSPost2010PropOp46
 70
     1
102
RTVSPost2010Prop47
 90
       50
102
RTVSPost2010PropOp47
 70
     1
102
RTVSPost2010Prop48
 90
       50
102
RTVSPost2010PropOp48
 70
     1
102
RTVSPost2010Prop49
280
     0
102
RTVSPost2010PropOp49
 70
     1
102
RTVSPost2010Prop50
 90
       50
102
RTVSPost2010PropOp50
 70
     1
102
RTVSPost2010Prop51ColorIndex
 90
      256
102
RTVSPost2010Prop51ColorRGB
 90
-16777216
102
RTVSPost2010PropOp51
 70
     0
102
RTVSPost2010Prop52
140
1.0
102
RTVSPost2010PropOp52
 70
     0
102
RTVSPost2010Prop53
 90
        2
102
RTVSPost2010PropOp53
 70
     1
102
RTVSPost2010Prop54
  1
strokes_ogs.tif
102
RTVSPost2010PropOp54
 70
     1
102
RTVSPost2010Prop55
280
     0
102
RTVSPost2010PropOp55
 70
     1
102
RTVSPost2010Prop56
140
1.0
102
RTVSPost2010PropOp56
 70
     1
102
RTVSPost2010Prop57
140
1.0
102
RTVSPost2010PropOp57
 70
     1
  0
XRECORD
  5
15A
102
{ACAD_REACTORS
330
159
102
}
330
159
100
AcDbXrecord
280
     1
102
RTVSPost2010Prop28
280
     0
102
RTVSPost2010PropOp28
 70
     1
102
RTVSPost2010Prop29
280
     1
102
RTVSPost2010PropOp29
 70
     1
102
RTVSPost2010Prop30
280
     1
102
RTVSPost2010PropOp30
 70
     1
102
RTVSPost2010Prop31
280
     0
102
RTVSPost2010PropOp31
 70
     1
102
RTVSPost2010Prop32
280
     0
102
RTVSPost2010PropOp32
 70
     1
102
RTVSPost2010Prop33
280
     0
102
RTVSPost2010PropOp33
 70
     1
102
RTVSPost2010Prop34
280
     0
102
RTVSPost2010PropOp34
 70
     1
102
RTVSPost2010Prop35
280
     0
102
RTVSPost2010PropOp35
 70
     1
102
RTVSPost2010Prop36
280
     0
102
RTVSPost2010PropOp36
 70
     1
102
RTVSPost2010Prop37
 90
       50
102
RTVSPost2010PropOp37
 70
     1
102
RTVSPost2010Prop38
140
0.0
102
RTVSPost2010PropOp38
 70
     1
102
RTVSPost2010Prop39
140
1.0
102
RTVSPost2010PropOp39
 70
     1
102
RTVSPost2010Prop40
 90
        0
102
RTVSPost2010PropOp40
 70
     1
102
RTVSPost2010Prop41ColorIndex
 90
       18
102
RTVSPost2010Prop41ColorRGB
 90
        0
102
RTVSPost2010PropOp41
 70
     1
102
RTVSPost2010Prop42
 90
       50
102
RTVSPost2010PropOp42
 70
     1
102
RTVSPost2010Prop43
 90
        3
102
RTVSPost2010PropOp43
 70
     1
102
RTVSPost2010Prop44ColorIndex
 90
        5
102
RTVSPost2010Prop44ColorRGB
 90
      255
102
RTVSPost2010PropOp44
 70
     1
102
RTVSPost2010Prop45
280
     0
102
RTVSPost2010PropOp45
 70
     1
102
RTVSPost2010Prop46
 90
       50
102
RTVSPost2010PropOp46
 70
     1
102
RTVSPost2010Prop47
 90
       50
102
RTVSPost2010PropOp47
 70
     1
102
RTVSPost2010Prop48
 90
       50
102
RTVSPost2010PropOp48
 70
     1
102
RTVSPost2010Prop49
280
     0
102
RTVSPost2010PropOp49
 70
     1
102
RTVSPost2010Prop50
 90
       50
102
RTVSPost2010PropOp50
 70
     1
102
RTVSPost2010Prop51ColorIndex
 90
      256
102
RTVSPost2010Prop51ColorRGB
 90
-16777216
102
RTVSPost2010PropOp51
 70
     0
102
RTVSPost2010Prop52
140
1.0
102
RTVSPost2010PropOp52
 70
     0
102
RTVSPost2010Prop53
 90
        2
102
RTVSPost2010PropOp53
 70
     1
102
RTVSPost2010Prop54
  1
strokes_ogs.tif
102
RTVSPost2010PropOp54
 70
     1
102
RTVSPost2010Prop55
280
     0
102
RTVSPost2010PropOp55
 70
     1
102
RTVSPost2010Prop56
140
1.0
102
RTVSPost2010PropOp56
 70
     1
102
RTVSPost2010Prop57
140
1.0
102
RTVSPost2010PropOp57
 70
     1
  0
XRECORD
  5
14A
102
{ACAD_REACTORS
330
149
102
}
330
149
100
AcDbXrecord
280
     1
102
RTVSPost2010Prop28
280
     0
102
RTVSPost2010PropOp28
 70
     1
102
RTVSPost2010Prop29
280
     1
102
RTVSPost2010PropOp29
 70
     1
102
RTVSPost2010Prop30
280
     1
102
RTVSPost2010PropOp30
 70
     1
102
RTVSPost2010Prop31
280
     0
102
RTVSPost2010PropOp31
 70
     1
102
RTVSPost2010Prop32
280
     0
102
RTVSPost2010PropOp32
 70
     1
102
RTVSPost2010Prop33
280
     0
102
RTVSPost2010PropOp33
 70
     1
102
RTVSPost2010Prop34
280
     0
102
RTVSPost2010PropOp34
 70
     1
102
RTVSPost2010Prop35
280
     0
102
RTVSPost2010PropOp35
 70
     1
102
RTVSPost2010Prop36
280
     0
102
RTVSPost2010PropOp36
 70
     1
102
RTVSPost2010Prop37
 90
       50
102
RTVSPost2010PropOp37
 70
     1
102
RTVSPost2010Prop38
140
0.0
102
RTVSPost2010PropOp38
 70
     1
102
RTVSPost2010Prop39
140
1.0
102
RTVSPost2010PropOp39
 70
     1
102
RTVSPost2010Prop40
 90
        0
102
RTVSPost2010PropOp40
 70
     1
102
RTVSPost2010Prop41ColorIndex
 90
       18
102
RTVSPost2010Prop41ColorRGB
 90
        0
102
RTVSPost2010PropOp41
 70
     1
102
RTVSPost2010Prop42
 90
       50
102
RTVSPost2010PropOp42
 70
     1
102
RTVSPost2010Prop43
 90
        3
102
RTVSPost2010PropOp43
 70
     1
102
RTVSPost2010Prop44ColorIndex
 90
        5
102
RTVSPost2010Prop44ColorRGB
 90
      255
102
RTVSPost2010PropOp44
 70
     1
102
RTVSPost2010Prop45
280
     0
102
RTVSPost2010PropOp45
 70
     1
102
RTVSPost2010Prop46
 90
       50
102
RTVSPost2010PropOp46
 70
     1
102
RTVSPost2010Prop47
 90
       50
102
RTVSPost2010PropOp47
 70
     1
102
RTVSPost2010Prop48
 90
       50
102
RTVSPost2010PropOp48
 70
     1
102
RTVSPost2010Prop49
280
     0
102
RTVSPost2010PropOp49
 70
     1
102
RTVSPost2010Prop50
 90
       50
102
RTVSPost2010PropOp50
 70
     1
102
RTVSPost2010Prop51ColorIndex
 90
      256
102
RTVSPost2010Prop51ColorRGB
 90
-16777216
102
RTVSPost2010PropOp51
 70
     0
102
RTVSPost2010Prop52
140
1.0
102
RTVSPost2010PropOp52
 70
     0
102
RTVSPost2010Prop53
 90
        2
102
RTVSPost2010PropOp53
 70
     1
102
RTVSPost2010Prop54
  1
strokes_ogs.tif
102
RTVSPost2010PropOp54
 70
     1
102
RTVSPost2010Prop55
280
     0
102
RTVSPost2010PropOp55
 70
     1
102
RTVSPost2010Prop56
140
1.0
102
RTVSPost2010PropOp56
 70
     1
102
RTVSPost2010Prop57
140
1.0
102
RTVSPost2010PropOp57
 70
     1
  0
XRECORD
  5
13C
102
{ACAD_REACTORS
330
13B
102
}
330
13B
100
AcDbXrecord
280
     1
102
RTVSPost2010Prop28
280
     0
102
RTVSPost2010PropOp28
 70
     1
102
RTVSPost2010Prop29
280
     1
102
RTVSPost2010PropOp29
 70
     1
102
RTVSPost2010Prop30
280
     1
102
RTVSPost2010PropOp30
 70
     1
102
RTVSPost2010Prop31
280
     0
102
RTVSPost2010PropOp31
 70
     1
102
RTVSPost2010Prop32
280
     0
102
RTVSPost2010PropOp32
 70
     1
102
RTVSPost2010Prop33
280
     0
102
RTVSPost2010PropOp33
 70
     1
102
RTVSPost2010Prop34
280
     0
102
RTVSPost2010PropOp34
 70
     1
102
RTVSPost2010Prop35
280
     0
102
RTVSPost2010PropOp35
 70
     1
102
RTVSPost2010Prop36
280
     0
102
RTVSPost2010PropOp36
 70
     1
102
RTVSPost2010Prop37
 90
       50
102
RTVSPost2010PropOp37
 70
     1
102
RTVSPost2010Prop38
140
0.0
102
RTVSPost2010PropOp38
 70
     1
102
RTVSPost2010Prop39
140
1.0
102
RTVSPost2010PropOp39
 70
     1
102
RTVSPost2010Prop40
 90
        0
102
RTVSPost2010PropOp40
 70
     1
102
RTVSPost2010Prop41ColorIndex
 90
       18
102
RTVSPost2010Prop41ColorRGB
 90
        0
102
RTVSPost2010PropOp41
 70
     1
102
RTVSPost2010Prop42
 90
       50
102
RTVSPost2010PropOp42
 70
     1
102
RTVSPost2010Prop43
 90
        3
102
RTVSPost2010PropOp43
 70
     1
102
RTVSPost2010Prop44ColorIndex
 90
        5
102
RTVSPost2010Prop44ColorRGB
 90
      255
102
RTVSPost2010PropOp44
 70
     1
102
RTVSPost2010Prop45
280
     0
102
RTVSPost2010PropOp45
 70
     1
102
RTVSPost2010Prop46
 90
       50
102
RTVSPost2010PropOp46
 70
     1
102
RTVSPost2010Prop47
 90
       50
102
RTVSPost2010PropOp47
 70
     1
102
RTVSPost2010Prop48
 90
       50
102
RTVSPost2010PropOp48
 70
     1
102
RTVSPost2010Prop49
280
     0
102
RTVSPost2010PropOp49
 70
     1
102
RTVSPost2010Prop50
 90
       50
102
RTVSPost2010PropOp50
 70
     1
102
RTVSPost2010Prop51ColorIndex
 90
      256
102
RTVSPost2010Prop51ColorRGB
 90
-16777216
102
RTVSPost2010PropOp51
 70
     0
102
RTVSPost2010Prop52
140
1.0
102
RTVSPost2010PropOp52
 70
     0
102
RTVSPost2010Prop53
 90
        2
102
RTVSPost2010PropOp53
 70
     1
102
RTVSPost2010Prop54
  1
strokes_ogs.tif
102
RTVSPost2010PropOp54
 70
     1
102
RTVSPost2010Prop55
280
     0
102
RTVSPost2010PropOp55
 70
     1
102
RTVSPost2010Prop56
140
1.0
102
RTVSPost2010PropOp56
 70
     1
102
RTVSPost2010Prop57
140
1.0
102
RTVSPost2010PropOp57
 70
     1
  0
XRECORD
  5
15C
102
{ACAD_REACTORS
330
15B
102
}
330
15B
100
AcDbXrecord
280
     1
102
RTVSPost2010Prop28
280
     0
102
RTVSPost2010PropOp28
 70
     1
102
RTVSPost2010Prop29
280
     1
102
RTVSPost2010PropOp29
 70
     1
102
RTVSPost2010Prop30
280
     1
102
RTVSPost2010PropOp30
 70
     1
102
RTVSPost2010Prop31
280
     0
102
RTVSPost2010PropOp31
 70
     1
102
RTVSPost2010Prop32
280
     0
102
RTVSPost2010PropOp32
 70
     1
102
RTVSPost2010Prop33
280
     0
102
RTVSPost2010PropOp33
 70
     1
102
RTVSPost2010Prop34
280
     0
102
RTVSPost2010PropOp34
 70
     1
102
RTVSPost2010Prop35
280
     0
102
RTVSPost2010PropOp35
 70
     1
102
RTVSPost2010Prop36
280
     0
102
RTVSPost2010PropOp36
 70
     1
102
RTVSPost2010Prop37
 90
       50
102
RTVSPost2010PropOp37
 70
     1
102
RTVSPost2010Prop38
140
0.0
102
RTVSPost2010PropOp38
 70
     1
102
RTVSPost2010Prop39
140
1.0
102
RTVSPost2010PropOp39
 70
     1
102
RTVSPost2010Prop40
 90
        0
102
RTVSPost2010PropOp40
 70
     1
102
RTVSPost2010Prop41ColorIndex
 90
       18
102
RTVSPost2010Prop41ColorRGB
 90
        0
102
RTVSPost2010PropOp41
 70
     1
102
RTVSPost2010Prop42
 90
       50
102
RTVSPost2010PropOp42
 70
     1
102
RTVSPost2010Prop43
 90
        3
102
RTVSPost2010PropOp43
 70
     1
102
RTVSPost2010Prop44ColorIndex
 90
        5
102
RTVSPost2010Prop44ColorRGB
 90
      255
102
RTVSPost2010PropOp44
 70
     1
102
RTVSPost2010Prop45
280
     0
102
RTVSPost2010PropOp45
 70
     1
102
RTVSPost2010Prop46
 90
       50
102
RTVSPost2010PropOp46
 70
     1
102
RTVSPost2010Prop47
 90
       50
102
RTVSPost2010PropOp47
 70
     1
102
RTVSPost2010Prop48
 90
       50
102
RTVSPost2010PropOp48
 70
     1
102
RTVSPost2010Prop49
280
     0
102
RTVSPost2010PropOp49
 70
     1
102
RTVSPost2010Prop50
 90
       50
102
RTVSPost2010PropOp50
 70
     1
102
RTVSPost2010Prop51ColorIndex
 90
      256
102
RTVSPost2010Prop51ColorRGB
 90
-16777216
102
RTVSPost2010PropOp51
 70
     0
102
RTVSPost2010Prop52
140
1.0
102
RTVSPost2010PropOp52
 70
     0
102
RTVSPost2010Prop53
 90
        2
102
RTVSPost2010PropOp53
 70
     1
102
RTVSPost2010Prop54
  1
strokes_ogs.tif
102
RTVSPost2010PropOp54
 70
     1
102
RTVSPost2010Prop55
280
     0
102
RTVSPost2010PropOp55
 70
     1
102
RTVSPost2010Prop56
140
1.0
102
RTVSPost2010PropOp56
 70
     1
102
RTVSPost2010Prop57
140
1.0
102
RTVSPost2010PropOp57
 70
     1
  0
ENDSEC
  0
EOF
