  0
SECTION
  2
HEADER
  9
$ACADVER
  1
AC1024
  9
$ACADMAINTVER
 70
     6
  9
$DWGCODEPAGE
  3
ANSI_932
  9
$INSBASE
 10
0.0
 20
0.0
 30
0.0
  9
$EXTMIN
 10
-677.162629
 20
-856.68087
 30
1.000000000000000E+20
  9
$EXTMAX
 10
898.152585
 20
1153.050722
 30
-1.000000000000000E+20
  9
$LIMMIN
 10
-677.162629
 20
-856.68087
  9
$LIMMAX
 10
898.152585
 20
1153.050722
  9
$ORTHOMODE
 70
     0
  9
$REGENMODE
 70
     1
  9
$FILLMODE
 70
     1
  9
$QTEXTMODE
 70
     0
  9
$MIRRTEXT
 70
     1
  9
$LTSCALE
 40
1.0
  9
$ATTMODE
 70
     1
  9
$TEXTSIZE
 40
0.0
  9
$TRACEWID
 40
0.05
  9
$TEXTSTYLE
  7
Standard
  9
$CLAYER
  8
0
  9
$CELTYPE
  6
Continuous
  9
$CECOLOR
 62
   256
  9
$CELTSCALE
 40
1.0
  9
$DISPSILH
 70
     0
  9
$DIMSCALE
 40
1.0
  9
$DIMASZ
 40
0.18
  9
$DIMEXO
 40
0.0625
  9
$DIMDLI
 40
0.38
  9
$DIMRND
 40
0.0
  9
$DIMDLE
 40
0.0
  9
$DIMEXE
 40
0.18
  9
$DIMTP
 40
0.0
  9
$DIMTM
 40
0.0
  9
$DIMTXT
 40
0.18
  9
$DIMCEN
 40
0.09
  9
$DIMTSZ
 40
0.0
  9
$DIMTOL
 70
     0
  9
$DIMLIM
 70
     0
  9
$DIMTIH
 70
     1
  9
$DIMTOH
 70
     1
  9
$DIMSE1
 70
     0
  9
$DIMSE2
 70
     0
  9
$DIMTAD
 70
     0
  9
$DIMZIN
 70
     0
  9
$DIMBLK
  1

  9
$DIMASO
 70
     1
  9
$DIMSHO
 70
     1
  9
$DIMPOST
  1

  9
$DIMAPOST
  1

  9
$DIMALT
 70
     0
  9
$DIMALTD
 70
     2
  9
$DIMALTF
 40
25.4
  9
$DIMLFAC
 40
1.0
  9
$DIMTOFL
 70
     0
  9
$DIMTVP
 40
0.0
  9
$DIMTIX
 70
     0
  9
$DIMSOXD
 70
     0
  9
$DIMSAH
 70
     0
  9
$DIMBLK1
  1

  9
$DIMBLK2
  1

  9
$DIMSTYLE
  2
Standard
  9
$DIMCLRD
 70
     0
  9
$DIMCLRE
 70
     0
  9
$DIMCLRT
 70
     0
  9
$DIMTFAC
 40
1.0
  9
$DIMGAP
 40
0.09
  9
$DIMJUST
 70
     0
  9
$DIMSD1
 70
     0
  9
$DIMSD2
 70
     0
  9
$DIMTOLJ
 70
     1
  9
$DIMTZIN
 70
     0
  9
$DIMALTZ
 70
     0
  9
$DIMALTTZ
 70
     0
  9
$DIMUPT
 70
     0
  9
$DIMDEC
 70
     4
  9
$DIMTDEC
 70
     4
  9
$DIMALTU
 70
     2
  9
$DIMALTTD
 70
     2
  9
$DIMTXSTY
  7
Standard
  9
$DIMAUNIT
 70
     0
  9
$DIMADEC
 70
     0
  9
$DIMALTRND
 40
0.0
  9
$DIMAZIN
 70
     0
  9
$DIMDSEP
 70
     0
  9
$DIMATFIT
 70
     3
  9
$DIMFRAC
 70
     0
  9
$DIMLDRBLK
  1

  9
$DIMLUNIT
 70
     2
  9
$DIMLWD
 70
     0
  9
$DIMLWE
 70
     0
  9
$DIMTMOVE
 70
     0
  9
$DIMFXL
 40
1.0
  9
$DIMFXLON
 70
     0
  9
$DIMJOGANG
 40
0.7853981633974483
  9
$DIMTFILL
 70
     0
  9
$DIMTFILLCLR
 70
     0
  9
$DIMARCSYM
 70
     0
  9
$DIMLTYPE
  6

  9
$DIMLTEX1
  6

  9
$DIMLTEX2
  6

  9
$DIMTXTDIRECTION
 70
     0
  9
$LUNITS
 70
     2
  9
$LUPREC
 70
     4
  9
$SKETCHINC
 40
0.1
  9
$FILLETRAD
 40
0.0
  9
$AUNITS
 70
     0
  9
$AUPREC
 70
     0
  9
$MENU
  1
acad
  9
$ELEVATION
 40
0.0
  9
$PELEVATION
 40
0.0
  9
$THICKNESS
 40
0.0
  9
$LIMCHECK
 70
     0
  9
$CHAMFERA
 40
0.0
  9
$CHAMFERB
 40
0.0
  9
$CHAMFERC
 40
0.0
  9
$CHAMFERD
 40
0.0
  9
$SKPOLY
 70
     0
  9
$TDCREATE
 40
2447893.041666667
  9
$TDUCREATE
 40
0.0
  9
$TDUPDATE
 40
2457234.640824155
  9
$TDUUPDATE
 40
2457234.599157488
  9
$TDINDWG
 40
0.0
  9
$TDUSRTIMER
 40
0.0
  9
$USRTIMER
 70
     1
  9
$ANGBASE
 50
0.0
  9
$ANGDIR
 70
     0
  9
$PDMODE
 70
     0
  9
$PDSIZE
 40
0.0
  9
$PLINEWID
 40
0.0
  9
$SPLFRAME
 70
     0
  9
$SPLINETYPE
 70
     6
  9
$SPLINESEGS
 70
     8
  9
$HANDSEED
  5
1C1
  9
$SURFTAB1
 70
     6
  9
$SURFTAB2
 70
     6
  9
$SURFTYPE
 70
     6
  9
$SURFU
 70
     6
  9
$SURFV
 70
     6
  9
$UCSBASE
  2

  9
$UCSNAME
  2

  9
$UCSORG
 10
0.0
 20
0.0
 30
0.0
  9
$UCSXDIR
 10
1.0
 20
0.0
 30
0.0
  9
$UCSYDIR
 10
0.0
 20
1.0
 30
0.0
  9
$UCSORTHOREF
  2

  9
$UCSORTHOVIEW
 70
     0
  9
$UCSORGTOP
 10
0.0
 20
0.0
 30
0.0
  9
$UCSORGBOTTOM
 10
0.0
 20
0.0
 30
0.0
  9
$UCSORGLEFT
 10
0.0
 20
0.0
 30
0.0
  9
$UCSORGRIGHT
 10
0.0
 20
0.0
 30
0.0
  9
$UCSORGFRONT
 10
0.0
 20
0.0
 30
0.0
  9
$UCSORGBACK
 10
0.0
 20
0.0
 30
0.0
  9
$PUCSBASE
  2

  9
$PUCSNAME
  2

  9
$PUCSORG
 10
0.0
 20
0.0
 30
0.0
  9
$PUCSXDIR
 10
1.0
 20
0.0
 30
0.0
  9
$PUCSYDIR
 10
0.0
 20
1.0
 30
0.0
  9
$PUCSORTHOREF
  2

  9
$PUCSORTHOVIEW
 70
     0
  9
$PUCSORGTOP
 10
0.0
 20
0.0
 30
0.0
  9
$PUCSORGBOTTOM
 10
0.0
 20
0.0
 30
0.0
  9
$PUCSORGLEFT
 10
0.0
 20
0.0
 30
0.0
  9
$PUCSORGRIGHT
 10
0.0
 20
0.0
 30
0.0
  9
$PUCSORGFRONT
 10
0.0
 20
0.0
 30
0.0
  9
$PUCSORGBACK
 10
0.0
 20
0.0
 30
0.0
  9
$USERI1
 70
     0
  9
$USERI2
 70
     0
  9
$USERI3
 70
     0
  9
$USERI4
 70
     0
  9
$USERI5
 70
     0
  9
$USERR1
 40
0.0
  9
$USERR2
 40
0.0
  9
$USERR3
 40
0.0
  9
$USERR4
 40
0.0
  9
$USERR5
 40
0.0
  9
$WORLDVIEW
 70
     1
  9
$SHADEDGE
 70
     3
  9
$SHADEDIF
 70
    70
  9
$TILEMODE
 70
     1
  9
$MAXACTVP
 70
    16
  9
$PINSBASE
 10
0.0
 20
0.0
 30
0.0
  9
$PLIMCHECK
 70
     0
  9
$PEXTMIN
 10
1.000000000000000E+20
 20
1.000000000000000E+20
 30
1.000000000000000E+20
  9
$PEXTMAX
 10
-1.000000000000000E+20
 20
-1.000000000000000E+20
 30
-1.000000000000000E+20
  9
$PLIMMIN
 10
0.0
 20
0.0
  9
$PLIMMAX
 10
12.0
 20
9.0
  9
$UNITMODE
 70
     0
  9
$VISRETAIN
 70
     0
  9
$PLINEGEN
 70
     1
  9
$PSLTSCALE
 70
     0
  9
$TREEDEPTH
 70
  3020
  9
$CMLSTYLE
  2
Standard
  9
$CMLJUST
 70
     0
  9
$CMLSCALE
 40
1.0
  9
$PROXYGRAPHICS
 70
     0
  9
$MEASUREMENT
 70
     0
  9
$CELWEIGHT
370
     0
  9
$ENDCAPS
280
     0
  9
$JOINSTYLE
280
     0
  9
$LWDISPLAY
290
     0
  9
$INSUNITS
 70
     0
  9
$HYPERLINKBASE
  1

  9
$STYLESHEET
  1

  9
$XEDIT
290
     1
  9
$CEPSNTYPE
380
     0
  9
$PSTYLEMODE
290
     1
  9
$FINGERPRINTGUID
  2

  9
$VERSIONGUID
  2

  9
$EXTNAMES
290
     1
  9
$PSVPSCALE
 40
0.0
  9
$OLESTARTUP
290
     0
  9
$SORTENTS
280
   127
  9
$INDEXCTL
280
     0
  9
$HIDETEXT
280
     1
  9
$XCLIPFRAME
280
     2
  9
$HALOGAP
280
     0
  9
$OBSCOLOR
 70
   257
  9
$OBSLTYPE
280
     0
  9
$INTERSECTIONDISPLAY
280
     0
  9
$INTERSECTIONCOLOR
 70
   257
  9
$DIMASSOC
280
     2
  9
$PROJECTNAME
  1

  9
$CAMERADISPLAY
290
     0
  9
$LENSLENGTH
 40
50.0
  9
$CAMERAHEIGHT
 40
0.0
  9
$STEPSPERSEC
 40
2.0
  9
$STEPSIZE
 40
6.0
  9
$3DDWFPREC
 40
2.0
  9
$PSOLWIDTH
 40
0.25
  9
$PSOLHEIGHT
 40
4.0
  9
$LOFTANG1
 40
1.570796326794897
  9
$LOFTANG2
 40
1.570796326794897
  9
$LOFTMAG1
 40
0.0
  9
$LOFTMAG2
 40
0.0
  9
$LOFTPARAM
 70
     7
  9
$LOFTNORMALS
280
     1
  9
$LATITUDE
 40
37.795
  9
$LONGITUDE
 40
-122.394
  9
$NORTHDIRECTION
 40
0.0
  9
$TIMEZONE
 70
 -8000
  9
$LIGHTGLYPHDISPLAY
280
     1
  9
$TILEMODELIGHTSYNCH
280
     1
  9
$SOLIDHIST
280
     0
  9
$SHOWHIST
280
     1
  9
$DWFFRAME
280
     2
  9
$DGNFRAME
280
     2
  9
$REALWORLDSCALE
290
     1
  9
$INTERFERECOLOR
 62
   256
  9
$CSHADOW
280
     0
  9
$SHADOWPLANELOCATION
 40
0.0
  0
ENDSEC
  0
SECTION
  2
CLASSES
  0
CLASS
  1
LWPOLYLINE
  2
AcDbPolyline
  3
ObjectDBX Classes
 90
        0
 91
        1
280
     0
281
     1
  0
CLASS
  1
IMAGE
  2
AcDbRasterImage
  3
ISM
 90
      127
 91
        5
280
     0
281
     1
  0
CLASS
  1
OLE2FRAME
  2
AcDbOle2Frame
  3
ObjectDBX Classes
 90
        0
 91
        1
280
     0
281
     1
  0
CLASS
  1
HATCH
  2
AcDbHatch
  3
ObjectDBX Classes
 90
        0
 91
        1
280
     0
281
     1
  0
CLASS
  1
DICTIONARYVAR
  2
AcDbDictionaryVar
  3
ObjectDBX Classes
 90
        0
 91
        4
280
     0
281
     0
  0
CLASS
  1
RASTERVARIABLES
  2
AcDbRasterVariables
  3
ISM
 90
        0
 91
        4
280
     0
281
     0
  0
CLASS
  1
IMAGEDEF
  2
AcDbRasterImageDef
  3
ISM
 90
        0
 91
        4
280
     0
281
     0
  0
CLASS
  1
IMAGEDEF_REACTOR
  2
AcDbRasterImageDefReactor
  3
ISM
 90
        1
 91
        4
280
     0
281
     0
  0
CLASS
  1
IDBUFFER
  2
AcDbIdBuffer
  3
ObjectDBX Classes
 90
        0
 91
        4
280
     0
281
     0
  0
CLASS
  1
SPATIAL_FILTER
  2
AcDbSpatialFilter
  3
ObjectDBX Classes
 90
        0
 91
        4
280
     0
281
     0
  0
CLASS
  1
XRECORD
  2
AcDbXrecord
  3
ObjectDBX Classes
 90
        0
 91
        1
280
     0
281
     0
  0
CLASS
  1
SORTENTSTABLE
  2
AcDbSortentsTable
  3
ObjectDBX Classes
 90
        0
 91
        4
280
     0
281
     0
  0
CLASS
  1
LAYER_INDEX
  2
AcDbLayerIndex
  3
ObjectDBX Classes
 90
        0
 91
        4
280
     0
281
     0
  0
CLASS
  1
SPATIAL_INDEX
  2
AcDbSpatialIndex
  3
AutoCAD 2000
 90
        0
 91
        4
280
     0
281
     0
  0
CLASS
  1
OBJECT_PTR
  2
CAseDLPNTableRecord
  3
ASE-LPNTableRecord
 90
        1
 91
        4
280
     0
281
     0
  0
CLASS
  1
LAYOUT
  2
AcDbLayout
  3
ObjectDBX Classes
 90
        0
 91
        1
280
     0
281
     0
  0
CLASS
  1
PLOTSETTINGS
  2
AcDbPlotSettings
  3
ObjectDBX Classes
 90
        0
 91
        4
280
     0
281
     0
  0
CLASS
  1
ACDBDICTIONARYWDFLT
  2
AcDbDictionaryWithDefault
  3
ObjectDBX Classes
 90
        0
 91
        4
280
     0
281
     0
  0
CLASS
  1
ACDBPLACEHOLDER
  2
AcDbPlaceHolder
  3
ObjectDBX Classes
 90
        0
 91
        1
280
     0
281
     0
  0
CLASS
  1
VBA_PROJECT
  2
AcDbVbaProject
  3
ObjectDBX Classes
 90
        0
 91
        1
280
     0
281
     0
  0
CLASS
  1
WIPEOUT
  2
AcDbWipeout
  3
WipeOut|AutoCAD Express Tool|expresstools@autodesk.com
 90
      127
 91
        4
280
     0
281
     1
  0
CLASS
  1
WIPEOUTVARIABLES
  2
AcDbWipeoutVariables
  3
WipeOut|AutoCAD Express Tool|expresstools@autodesk.com
 90
        0
 91
        4
280
     0
281
     0
  0
CLASS
  1
RTEXT
  2
RText
  3
RText|AutoCAD Express Tool|expresstools@autodesk.com
 90
        0
 91
        4
280
     0
281
     1
  0
CLASS
  1
ARCALIGNEDTEXT
  2
AcDbArcAlignedText
  3
ATEXT|AutoCAD Express Tool|expresstools@autodesk.com
 90
        0
 91
        4
280
     0
281
     1
  0
CLASS
  1
SCALE
  2
AcDbScale
  3
ObjectDBX Classes
 90
     1153
 91
        4
280
     0
281
     0
  0
CLASS
  1
VISUALSTYLE
  2
AcDbVisualStyle
  3
ObjectDBX Classes
 90
     4095
 91
        4
280
     0
281
     0
  0
CLASS
  1
MATERIAL
  2
AcDbMaterial
  3
ObjectDBX Classes
 90
     1153
 91
        4
280
     0
281
     0
  0
CLASS
  1
TABLESTYLE
  2
AcDbTableStyle
  3
ObjectDBX Classes
 90
     4095
 91
        4
280
     0
281
     0
  0
CLASS
  1
MLEADERSTYLE
  2
AcDbMLeaderStyle
  3
ACDB_MLEADERSTYLE_CLASS
 90
     4095
 91
        4
280
     0
281
     0
  0
CLASS
  1
CELLSTYLEMAP
  2
AcDbCellStyleMap
  3
ObjectDBX Classes
 90
     1152
 91
        4
280
     0
281
     0
  0
ENDSEC
  0
SECTION
  2
TABLES
  0
TABLE
  2
VPORT
  5
7
330
0
100
AcDbSymbolTable
 70
     1
  0
VPORT
  5
15
330
7
100
AcDbSymbolTableRecord
100
AcDbViewportTableRecord
  2
*ACTIVE
 70
     0
 10
0.0
 20
0.0
 11
1.0
 21
1.0
 12
6.591288
 22
4.579184
 13
0.0
 23
0.0
 14
1.0
 24
1.0
 15
0.0
 25
0.0
 16
0.0
 26
0.0
 36
1.0
 17
0.0
 27
0.0
 37
0.0
 40
9.158369
 41
0.688564
 42
50.0
 43
0.0
 44
0.0
 50
0.0
 51
0.0
 71
     0
 72
   100
 73
     1
 74
     1
 75
     0
 76
     0
 77
     0
 78
     0
281
     0
 65
     0
110
0.0
120
0.0
130
0.0
111
1.0
121
0.0
131
0.0
112
0.0
122
1.0
132
0.0
 79
     0
146
0.0
348
16B
 60
     3
 61
     5
292
     1
282
     1
141
0.0
142
0.0
 63
   256
  0
ENDTAB
  0
TABLE
  2
LTYPE
  5
4
330
0
100
AcDbSymbolTable
 70
     3
  0
LTYPE
  5
11
330
4
100
AcDbSymbolTableRecord
100
AcDbLinetypeTableRecord
  2
ByBlock
 70
     0
  3

 72
    65
 73
     0
 40
0.0
  0
LTYPE
  5
12
330
4
100
AcDbSymbolTableRecord
100
AcDbLinetypeTableRecord
  2
ByLayer
 70
     0
  3

 72
    65
 73
     0
 40
0.0
  0
LTYPE
  5
13
330
4
100
AcDbSymbolTableRecord
100
AcDbLinetypeTableRecord
  2
Continuous
 70
     0
  3
Solid line
 72
    65
 73
     0
 40
0.0
  0
LTYPE
  5
B6
330
4
100
AcDbSymbolTableRecord
100
AcDbLinetypeTableRecord
  2
AI9-LType1
 70
     0
  3
Illustrator Dash Style No.1
 72
    65
 73
     4
 40
4.586111
 49
2.116667
 74
     0
 49
-1.058333
 74
     0
 49
0.352778
 74
     0
 49
-1.058333
 74
     0
  0
LTYPE
  5
D4
330
4
100
AcDbSymbolTableRecord
100
AcDbLinetypeTableRecord
  2
AI9-LType2
 70
     0
  3
Illustrator Dash Style No.2
 72
    65
 73
     2
 40
2.116667
 49
1.411111
 74
     0
 49
-0.705556
 74
     0
  0
ENDTAB
  0
TABLE
  2
LAYER
  5
2
330
0
100
AcDbSymbolTable
 70
     2
  0
LAYER
  5
14
330
2
100
AcDbSymbolTableRecord
100
AcDbLayerTableRecord
  2
0
 70
     0
 62
     7
  6
Continuous
370
    -3
390
1D
347
182
  0
LAYER
  5
28
330
2
100
AcDbSymbolTableRecord
100
AcDbLayerTableRecord
  2
LAYER_1
 70
     0
 62
   160
  6
Continuous
370
    -3
390
1D
347
182
  0
ENDTAB
  0
TABLE
  2
STYLE
  5
3
330
0
100
AcDbSymbolTable
 70
     5
  0
STYLE
  5
17
330
3
100
AcDbSymbolTableRecord
100
AcDbTextStyleTableRecord
  2
Standard
 70
     0
 40
0.0
 41
1.0
 50
0.0
 71
     0
 42
0.0
  3
txt
  4

  0
STYLE
  5
24
330
3
100
AcDbSymbolTableRecord
100
AcDbTextStyleTableRecord
  2
STD
 70
     0
 40
0.0
 41
1.0
 50
0.0
 71
     0
 42
0.0
  3
txt
  4

  0
STYLE
  5
25
330
3
100
AcDbSymbolTableRecord
100
AcDbTextStyleTableRecord
  2
TATESTD
 70
     4
 40
0.0
 41
1.0
 50
0.0
 71
     0
 42
0.0
  3
txt
  4

  0
STYLE
  5
26
330
3
100
AcDbSymbolTableRecord
100
AcDbTextStyleTableRecord
  2
KANJISTD
 70
     0
 40
0.0
 41
1.0
 50
0.0
 71
     0
 42
0.0
  3
txt
  4
extfont
  0
STYLE
  5
27
330
3
100
AcDbSymbolTableRecord
100
AcDbTextStyleTableRecord
  2
KANJITATE
 70
     4
 40
0.0
 41
1.0
 50
0.0
 71
     0
 42
0.0
  3
txt
  4
extfont
  0
ENDTAB
  0
TABLE
  2
VIEW
  5
5
330
0
100
AcDbSymbolTable
 70
     0
  0
ENDTAB
  0
TABLE
  2
UCS
  5
6
330
0
100
AcDbSymbolTable
 70
     0
  0
ENDTAB
  0
TABLE
  2
APPID
  5
8
330
0
100
AcDbSymbolTable
 70
     1
  0
APPID
  5
16
330
8
100
AcDbSymbolTableRecord
100
AcDbRegAppTableRecord
  2
ACAD
 70
     0
  0
ENDTAB
  0
TABLE
  2
DIMSTYLE
  5
9
330
0
100
AcDbSymbolTable
 70
     1
100
AcDbDimStyleTable
  0
DIMSTYLE
105
18
330
9
100
AcDbSymbolTableRecord
100
AcDbDimStyleTableRecord
  2
Standard
 70
     0
178
     0
340
17
  0
ENDTAB
  0
TABLE
  2
BLOCK_RECORD
  5
1
330
0
100
AcDbSymbolTable
 70
    29
  0
BLOCK_RECORD
  5
A
330
1
100
AcDbSymbolTableRecord
100
AcDbBlockTableRecord
  2
*MODEL_SPACE
340
20
 70
     0
280
     1
281
     0
  0
BLOCK_RECORD
  5
B
330
1
100
AcDbSymbolTableRecord
100
AcDbBlockTableRecord
  2
*PAPER_SPACE
340
21
 70
     0
280
     1
281
     0
  0
BLOCK_RECORD
  5
2B
330
1
100
AcDbSymbolTableRecord
100
AcDbBlockTableRecord
  2
AI9-BLK1
340
0
102
{BLKREFS
331
2C
102
}
 70
     0
280
     1
281
     0
  0
BLOCK_RECORD
  5
2E
330
1
100
AcDbSymbolTableRecord
100
AcDbBlockTableRecord
  2
AI9-BLK2
340
0
102
{BLKREFS
331
2F
102
}
 70
     0
280
     1
281
     0
  0
BLOCK_RECORD
  5
31
330
1
100
AcDbSymbolTableRecord
100
AcDbBlockTableRecord
  2
AI9-BLK3
340
0
102
{BLKREFS
331
32
102
}
 70
     0
280
     1
281
     0
  0
BLOCK_RECORD
  5
34
330
1
100
AcDbSymbolTableRecord
100
AcDbBlockTableRecord
  2
AI9-BLK4
340
0
102
{BLKREFS
331
35
102
}
 70
     0
280
     1
281
     0
  0
BLOCK_RECORD
  5
3E
330
1
100
AcDbSymbolTableRecord
100
AcDbBlockTableRecord
  2
AI9-BLK5
340
0
102
{BLKREFS
331
3F
102
}
 70
     0
280
     1
281
     0
  0
BLOCK_RECORD
  5
41
330
1
100
AcDbSymbolTableRecord
100
AcDbBlockTableRecord
  2
AI9-BLK6
340
0
102
{BLKREFS
331
42
102
}
 70
     0
280
     1
281
     0
  0
BLOCK_RECORD
  5
44
330
1
100
AcDbSymbolTableRecord
100
AcDbBlockTableRecord
  2
AI9-BLK7
340
0
102
{BLKREFS
331
45
102
}
 70
     0
280
     1
281
     0
  0
BLOCK_RECORD
  5
47
330
1
100
AcDbSymbolTableRecord
100
AcDbBlockTableRecord
  2
AI9-BLK8
340
0
102
{BLKREFS
331
48
102
}
 70
     0
280
     1
281
     0
  0
BLOCK_RECORD
  5
5B
330
1
100
AcDbSymbolTableRecord
100
AcDbBlockTableRecord
  2
AI9-BLK9
340
0
102
{BLKREFS
331
5C
102
}
 70
     0
280
     1
281
     0
  0
BLOCK_RECORD
  5
5E
330
1
100
AcDbSymbolTableRecord
100
AcDbBlockTableRecord
  2
AI9-BLK10
340
0
102
{BLKREFS
331
5F
102
}
 70
     0
280
     1
281
     0
  0
BLOCK_RECORD
  5
61
330
1
100
AcDbSymbolTableRecord
100
AcDbBlockTableRecord
  2
AI9-BLK11
340
0
102
{BLKREFS
331
62
102
}
 70
     0
280
     1
281
     0
  0
BLOCK_RECORD
  5
68
330
1
100
AcDbSymbolTableRecord
100
AcDbBlockTableRecord
  2
AI9-BLK12
340
0
102
{BLKREFS
331
69
102
}
 70
     0
280
     1
281
     0
  0
BLOCK_RECORD
  5
6B
330
1
100
AcDbSymbolTableRecord
100
AcDbBlockTableRecord
  2
AI9-BLK13
340
0
102
{BLKREFS
331
6C
102
}
 70
     0
280
     1
281
     0
  0
BLOCK_RECORD
  5
6E
330
1
100
AcDbSymbolTableRecord
100
AcDbBlockTableRecord
  2
AI9-BLK14
340
0
102
{BLKREFS
331
6F
102
}
 70
     0
280
     1
281
     0
  0
BLOCK_RECORD
  5
75
330
1
100
AcDbSymbolTableRecord
100
AcDbBlockTableRecord
  2
AI9-BLK15
340
0
102
{BLKREFS
331
76
102
}
 70
     0
280
     1
281
     0
  0
BLOCK_RECORD
  5
78
330
1
100
AcDbSymbolTableRecord
100
AcDbBlockTableRecord
  2
AI9-BLK16
340
0
102
{BLKREFS
331
79
102
}
 70
     0
280
     1
281
     0
  0
BLOCK_RECORD
  5
7B
330
1
100
AcDbSymbolTableRecord
100
AcDbBlockTableRecord
  2
AI9-BLK17
340
0
102
{BLKREFS
331
7C
102
}
 70
     0
280
     1
281
     0
  0
BLOCK_RECORD
  5
82
330
1
100
AcDbSymbolTableRecord
100
AcDbBlockTableRecord
  2
AI9-BLK18
340
0
102
{BLKREFS
331
83
102
}
 70
     0
280
     1
281
     0
  0
BLOCK_RECORD
  5
85
330
1
100
AcDbSymbolTableRecord
100
AcDbBlockTableRecord
  2
AI9-BLK19
340
0
102
{BLKREFS
331
86
102
}
 70
     0
280
     1
281
     0
  0
BLOCK_RECORD
  5
88
330
1
100
AcDbSymbolTableRecord
100
AcDbBlockTableRecord
  2
AI9-BLK20
340
0
102
{BLKREFS
331
89
102
}
 70
     0
280
     1
281
     0
  0
BLOCK_RECORD
  5
8F
330
1
100
AcDbSymbolTableRecord
100
AcDbBlockTableRecord
  2
AI9-BLK21
340
0
102
{BLKREFS
331
90
102
}
 70
     0
280
     1
281
     0
  0
BLOCK_RECORD
  5
92
330
1
100
AcDbSymbolTableRecord
100
AcDbBlockTableRecord
  2
AI9-BLK22
340
0
102
{BLKREFS
331
93
102
}
 70
     0
280
     1
281
     0
  0
BLOCK_RECORD
  5
95
330
1
100
AcDbSymbolTableRecord
100
AcDbBlockTableRecord
  2
AI9-BLK23
340
0
102
{BLKREFS
331
96
102
}
 70
     0
280
     1
281
     0
  0
BLOCK_RECORD
  5
9C
330
1
100
AcDbSymbolTableRecord
100
AcDbBlockTableRecord
  2
AI9-BLK24
340
0
102
{BLKREFS
331
9D
102
}
 70
     0
280
     1
281
     0
  0
BLOCK_RECORD
  5
9F
330
1
100
AcDbSymbolTableRecord
100
AcDbBlockTableRecord
  2
AI9-BLK25
340
0
102
{BLKREFS
331
A0
102
}
 70
     0
280
     1
281
     0
  0
BLOCK_RECORD
  5
A2
330
1
100
AcDbSymbolTableRecord
100
AcDbBlockTableRecord
  2
AI9-BLK26
340
0
102
{BLKREFS
331
A3
102
}
 70
     0
280
     1
281
     0
  0
BLOCK_RECORD
  5
A9
330
1
100
AcDbSymbolTableRecord
100
AcDbBlockTableRecord
  2
AI9-BLK27
340
0
102
{BLKREFS
331
AA
102
}
 70
     0
280
     1
281
     0
  0
BLOCK_RECORD
  5
AC
330
1
100
AcDbSymbolTableRecord
100
AcDbBlockTableRecord
  2
AI9-BLK28
340
0
102
{BLKREFS
331
AD
102
}
 70
     0
280
     1
281
     0
  0
BLOCK_RECORD
  5
AF
330
1
100
AcDbSymbolTableRecord
100
AcDbBlockTableRecord
  2
AI9-BLK29
340
0
102
{BLKREFS
331
B0
102
}
 70
     0
280
     1
281
     0
  0
ENDTAB
  0
ENDSEC
  0
SECTION
  2
BLOCKS
  0
BLOCK
  5
D
330
A
100
AcDbEntity
  8
0
100
AcDbBlockBegin
  2
*MODEL_SPACE
 70
     0
 10
0.0
 20
0.0
 30
0.0
  3
*MODEL_SPACE
  1

  0
ENDBLK
  5
E
330
A
100
AcDbEntity
  8
0
100
AcDbBlockEnd
  0
BLOCK
  5
F
330
B
100
AcDbEntity
 67
     1
  8
0
100
AcDbBlockBegin
  2
*PAPER_SPACE
 70
     0
 10
0.0
 20
0.0
 30
0.0
  3
*PAPER_SPACE
  1

  0
ENDBLK
  5
10
330
B
100
AcDbEntity
 67
     1
  8
0
100
AcDbBlockEnd
  0
BLOCK
  5
2D
330
2B
100
AcDbEntity
  8
LAYER_1
 62
     7
100
AcDbBlockBegin
  2
AI9-BLK1
 70
     0
 10
0.0
 20
0.0
 30
0.0
  3
AI9-BLK1
  1

  0
INSERT
  5
2F
330
2B
100
AcDbEntity
  8
LAYER_1
 62
     7
100
AcDbBlockReference
  2
AI9-BLK2
 10
0.0
 20
0.0
 30
0.0
  0
ENDBLK
  5
3D
330
2B
100
AcDbEntity
  8
LAYER_1
100
AcDbBlockEnd
  0
BLOCK
  5
30
330
2E
100
AcDbEntity
  8
LAYER_1
 62
     7
100
AcDbBlockBegin
  2
AI9-BLK2
 70
     0
 10
0.0
 20
0.0
 30
0.0
  3
AI9-BLK2
  1

  0
INSERT
  5
32
330
2E
100
AcDbEntity
  8
LAYER_1
 62
     7
100
AcDbBlockReference
  2
AI9-BLK3
 10
0.0
 20
0.0
 30
0.0
  0
ENDBLK
  5
3C
330
2E
100
AcDbEntity
  8
LAYER_1
100
AcDbBlockEnd
  0
BLOCK
  5
33
330
31
100
AcDbEntity
  8
LAYER_1
 62
     7
100
AcDbBlockBegin
  2
AI9-BLK3
 70
     0
 10
0.0
 20
0.0
 30
0.0
  3
AI9-BLK3
  1

  0
INSERT
  5
35
330
31
100
AcDbEntity
  8
LAYER_1
 62
     7
100
AcDbBlockReference
  2
AI9-BLK4
 10
0.0
 20
0.0
 30
0.0
  0
ENDBLK
  5
3B
330
31
100
AcDbEntity
  8
LAYER_1
100
AcDbBlockEnd
  0
BLOCK
  5
36
330
34
100
AcDbEntity
  8
LAYER_1
 62
     7
100
AcDbBlockBegin
  2
AI9-BLK4
 70
     0
 10
0.0
 20
0.0
 30
0.0
  3
AI9-BLK4
  1

  0
CIRCLE
  5
39
330
34
100
AcDbEntity
  8
LAYER_1
 62
     7
100
AcDbCircle
 10
0.000172
 20
-0.000345
 30
0.0
 40
1.000111
  0
LINE
  5
38
330
34
100
AcDbEntity
  8
LAYER_1
 62
     7
100
AcDbLine
 10
-0.000172
 20
1.999878
 30
0.0
 11
-0.000172
 21
-1.999878
 31
0.0
  0
LINE
  5
37
330
34
100
AcDbEntity
  8
LAYER_1
 62
     7
100
AcDbLine
 10
-2.00005
 20
-0.000345
 30
0.0
 11
2.00005
 21
-0.000345
 31
0.0
  0
ENDBLK
  5
3A
330
34
100
AcDbEntity
  8
LAYER_1
100
AcDbBlockEnd
  0
BLOCK
  5
40
330
3E
100
AcDbEntity
  8
LAYER_1
 62
     7
100
AcDbBlockBegin
  2
AI9-BLK5
 70
     0
 10
0.0
 20
0.0
 30
0.0
  3
AI9-BLK5
  1

  0
INSERT
  5
42
330
3E
100
AcDbEntity
  8
LAYER_1
 62
     7
100
AcDbBlockReference
  2
AI9-BLK6
 10
0.0
 20
0.0
 30
0.0
  0
ENDBLK
  5
50
330
3E
100
AcDbEntity
  8
LAYER_1
100
AcDbBlockEnd
  0
BLOCK
  5
43
330
41
100
AcDbEntity
  8
LAYER_1
 62
     7
100
AcDbBlockBegin
  2
AI9-BLK6
 70
     0
 10
0.0
 20
0.0
 30
0.0
  3
AI9-BLK6
  1

  0
INSERT
  5
45
330
41
100
AcDbEntity
  8
LAYER_1
 62
     7
100
AcDbBlockReference
  2
AI9-BLK7
 10
0.0
 20
0.0
 30
0.0
  0
ENDBLK
  5
4F
330
41
100
AcDbEntity
  8
LAYER_1
100
AcDbBlockEnd
  0
BLOCK
  5
46
330
44
100
AcDbEntity
  8
LAYER_1
 62
     7
100
AcDbBlockBegin
  2
AI9-BLK7
 70
     0
 10
0.0
 20
0.0
 30
0.0
  3
AI9-BLK7
  1

  0
INSERT
  5
48
330
44
100
AcDbEntity
  8
LAYER_1
 62
     7
100
AcDbBlockReference
  2
AI9-BLK8
 10
0.0
 20
0.0
 30
0.0
  0
ENDBLK
  5
4E
330
44
100
AcDbEntity
  8
LAYER_1
100
AcDbBlockEnd
  0
BLOCK
  5
49
330
47
100
AcDbEntity
  8
LAYER_1
 62
     7
100
AcDbBlockBegin
  2
AI9-BLK8
 70
     0
 10
0.0
 20
0.0
 30
0.0
  3
AI9-BLK8
  1

  0
CIRCLE
  5
4C
330
47
100
AcDbEntity
  8
LAYER_1
 62
     7
100
AcDbCircle
 10
0.000172
 20
-0.000345
 30
0.0
 40
1.000111
  0
LINE
  5
4B
330
47
100
AcDbEntity
  8
LAYER_1
 62
     7
100
AcDbLine
 10
-0.000172
 20
1.999878
 30
0.0
 11
-0.000172
 21
-1.999878
 31
0.0
  0
LINE
  5
4A
330
47
100
AcDbEntity
  8
LAYER_1
 62
     7
100
AcDbLine
 10
-2.00005
 20
-0.000345
 30
0.0
 11
2.00005
 21
-0.000345
 31
0.0
  0
ENDBLK
  5
4D
330
47
100
AcDbEntity
  8
LAYER_1
100
AcDbBlockEnd
  0
BLOCK
  5
5D
330
5B
100
AcDbEntity
  8
LAYER_1
 62
     7
100
AcDbBlockBegin
  2
AI9-BLK9
 70
     0
 10
0.0
 20
0.0
 30
0.0
  3
AI9-BLK9
  1

  0
INSERT
  5
5F
330
5B
100
AcDbEntity
  8
LAYER_1
 62
     7
100
AcDbBlockReference
  2
AI9-BLK10
 10
0.042202
 20
0.077429
 30
0.0
  0
ENDBLK
  5
67
330
5B
100
AcDbEntity
  8
LAYER_1
100
AcDbBlockEnd
  0
BLOCK
  5
60
330
5E
100
AcDbEntity
  8
LAYER_1
 62
     7
100
AcDbBlockBegin
  2
AI9-BLK10
 70
     0
 10
0.0
 20
0.0
 30
0.0
  3
AI9-BLK10
  1

  0
INSERT
  5
62
330
5E
100
AcDbEntity
  8
LAYER_1
 62
     7
100
AcDbBlockReference
  2
AI9-BLK11
 10
0.243051
 20
0.134014
 30
0.0
  0
ENDBLK
  5
66
330
5E
100
AcDbEntity
  8
LAYER_1
100
AcDbBlockEnd
  0
BLOCK
  5
63
330
61
100
AcDbEntity
  8
LAYER_1
 62
     7
100
AcDbBlockBegin
  2
AI9-BLK11
 70
     0
 10
0.0
 20
0.0
 30
0.0
  3
AI9-BLK11
  1

  0
HATCH
  5
64
330
61
100
AcDbEntity
  8
LAYER_1
 62
     7
100
AcDbHatch
 10
0.0
 20
0.0
 30
0.0
210
0.0
220
0.0
230
1.0
  2
SOLID
 70
     1
 71
     0
 91
        1
 92
        1
 93
        1
 72
     4
 94
        3
 73
     0
 74
     0
 95
       14
 96
       10
 40
0.0
 40
0.0
 40
0.0
 40
0.0
 40
1.0
 40
1.0
 40
1.0
 40
2.0
 40
2.0
 40
2.0
 40
3.0
 40
3.0
 40
3.0
 40
3.0
 10
-0.9005479600694444
 20
-1.253756374782986
 10
-0.9002034505208333
 20
-1.253928629557292
 10
-0.6848849826388889
 20
-1.427216932508681
 10
0.9005479600694444
 20
1.501803249782986
 10
-0.6804063585069444
 20
-1.42256605360243
 10
-0.4416612413194444
 20
-1.501803249782986
 10
-0.4416612413194444
 20
-1.501803249782986
 10
-0.4416612413194444
 20
-1.501803249782986
 10
-0.9005479600694444
 20
-1.253756374782986
 10
-0.9005479600694444
 20
-1.253756374782986
 97
        0
 97
        0
 75
     0
 76
     1
 98
        1
 10
0.0
 20
0.0
  0
ENDBLK
  5
65
330
61
100
AcDbEntity
  8
LAYER_1
100
AcDbBlockEnd
  0
BLOCK
  5
6A
330
68
100
AcDbEntity
  8
LAYER_1
 62
     7
100
AcDbBlockBegin
  2
AI9-BLK12
 70
     0
 10
0.0
 20
0.0
 30
0.0
  3
AI9-BLK12
  1

  0
INSERT
  5
6C
330
68
100
AcDbEntity
  8
LAYER_1
 62
     7
100
AcDbBlockReference
  2
AI9-BLK13
 10
0.041513
 20
0.077859
 30
0.0
  0
ENDBLK
  5
74
330
68
100
AcDbEntity
  8
LAYER_1
100
AcDbBlockEnd
  0
BLOCK
  5
6D
330
6B
100
AcDbEntity
  8
LAYER_1
 62
     7
100
AcDbBlockBegin
  2
AI9-BLK13
 70
     0
 10
0.0
 20
0.0
 30
0.0
  3
AI9-BLK13
  1

  0
INSERT
  5
6F
330
6B
100
AcDbEntity
  8
LAYER_1
 62
     7
100
AcDbBlockReference
  2
AI9-BLK14
 10
0.311092
 20
0.165709
 30
0.0
  0
ENDBLK
  5
73
330
6B
100
AcDbEntity
  8
LAYER_1
100
AcDbBlockEnd
  0
BLOCK
  5
70
330
6E
100
AcDbEntity
  8
LAYER_1
 62
     7
100
AcDbBlockBegin
  2
AI9-BLK14
 70
     0
 10
0.0
 20
0.0
 30
0.0
  3
AI9-BLK14
  1

  0
HATCH
  5
71
330
6E
100
AcDbEntity
  8
LAYER_1
 62
     7
100
AcDbHatch
 10
0.0
 20
0.0
 30
0.0
210
0.0
220
0.0
230
1.0
  2
SOLID
 70
     1
 71
     0
 91
        1
 92
        1
 93
        1
 72
     4
 94
        3
 73
     0
 74
     0
 95
       14
 96
       10
 40
0.0
 40
0.0
 40
0.0
 40
0.0
 40
1.0
 40
1.0
 40
1.0
 40
2.0
 40
2.0
 40
2.0
 40
3.0
 40
3.0
 40
3.0
 40
3.0
 10
-0.925869411892361
 20
-1.208884006076389
 10
-0.92552490234375
 20
-1.208884006076389
 10
-0.6426825629340277
 20
-1.416623263888889
 10
0.925869411892361
 20
1.521698676215278
 10
-0.6382039388020833
 20
-1.411972384982639
 10
-0.3381361219618055
 20
-1.521698676215278
 10
-0.3381361219618055
 20
-1.521698676215278
 10
-0.3381361219618055
 20
-1.521698676215278
 10
-0.925869411892361
 20
-1.208884006076389
 10
-0.925869411892361
 20
-1.208884006076389
 97
        0
 97
        0
 75
     0
 76
     1
 98
        1
 10
0.0
 20
0.0
  0
ENDBLK
  5
72
330
6E
100
AcDbEntity
  8
LAYER_1
100
AcDbBlockEnd
  0
BLOCK
  5
77
330
75
100
AcDbEntity
  8
LAYER_1
 62
     7
100
AcDbBlockBegin
  2
AI9-BLK15
 70
     0
 10
0.0
 20
0.0
 30
0.0
  3
AI9-BLK15
  1

  0
INSERT
  5
79
330
75
100
AcDbEntity
  8
LAYER_1
 62
     7
100
AcDbBlockReference
  2
AI9-BLK16
 10
0.041341
 20
0.077945
 30
0.0
  0
ENDBLK
  5
81
330
75
100
AcDbEntity
  8
LAYER_1
100
AcDbBlockEnd
  0
BLOCK
  5
7A
330
78
100
AcDbEntity
  8
LAYER_1
 62
     7
100
AcDbBlockBegin
  2
AI9-BLK16
 70
     0
 10
0.0
 20
0.0
 30
0.0
  3
AI9-BLK16
  1

  0
INSERT
  5
7C
330
78
100
AcDbEntity
  8
LAYER_1
 62
     7
100
AcDbBlockReference
  2
AI9-BLK17
 10
0.285943
 20
0.152187
 30
0.0
  0
ENDBLK
  5
80
330
78
100
AcDbEntity
  8
LAYER_1
100
AcDbBlockEnd
  0
BLOCK
  5
7D
330
7B
100
AcDbEntity
  8
LAYER_1
 62
     7
100
AcDbBlockBegin
  2
AI9-BLK17
 70
     0
 10
0.0
 20
0.0
 30
0.0
  3
AI9-BLK17
  1

  0
HATCH
  5
7E
330
7B
100
AcDbEntity
  8
LAYER_1
 62
     7
100
AcDbHatch
 10
0.0
 20
0.0
 30
0.0
210
0.0
220
0.0
230
1.0
  2
SOLID
 70
     1
 71
     0
 91
        1
 92
        1
 93
        1
 72
     4
 94
        3
 73
     0
 74
     0
 95
       14
 96
       10
 40
0.0
 40
0.0
 40
0.0
 40
0.0
 40
1.0
 40
1.0
 40
1.0
 40
2.0
 40
2.0
 40
2.0
 40
3.0
 40
3.0
 40
3.0
 40
3.0
 10
-0.9124335394965277
 20
-1.229985215928819
 10
-0.9120890299479166
 20
-1.229985215928819
 10
-0.6540513780381944
 20
-1.423255072699653
 10
0.9124335394965277
 20
1.516100396050347
 10
-0.6495727539062499
 20
-1.418431939019097
 10
-0.3729315863715277
 20
-1.515928141276041
 10
-0.3725870768229166
 20
-1.516100396050347
 10
-0.3725870768229166
 20
-1.516100396050347
 10
-0.9124335394965277
 20
-1.229985215928819
 10
-0.9124335394965277
 20
-1.229985215928819
 97
        0
 97
        0
 75
     0
 76
     1
 98
        1
 10
0.0
 20
0.0
  0
ENDBLK
  5
7F
330
7B
100
AcDbEntity
  8
LAYER_1
100
AcDbBlockEnd
  0
BLOCK
  5
84
330
82
100
AcDbEntity
  8
LAYER_1
 62
     7
100
AcDbBlockBegin
  2
AI9-BLK18
 70
     0
 10
0.0
 20
0.0
 30
0.0
  3
AI9-BLK18
  1

  0
INSERT
  5
86
330
82
100
AcDbEntity
  8
LAYER_1
 62
     7
100
AcDbBlockReference
  2
AI9-BLK19
 10
0.038068
 20
0.079582
 30
0.0
  0
ENDBLK
  5
8E
330
82
100
AcDbEntity
  8
LAYER_1
100
AcDbBlockEnd
  0
BLOCK
  5
87
330
85
100
AcDbEntity
  8
LAYER_1
 62
     7
100
AcDbBlockBegin
  2
AI9-BLK19
 70
     0
 10
0.0
 20
0.0
 30
0.0
  3
AI9-BLK19
  1

  0
INSERT
  5
89
330
85
100
AcDbEntity
  8
LAYER_1
 62
     7
100
AcDbBlockReference
  2
AI9-BLK20
 10
0.340375
 20
0.163039
 30
0.0
  0
ENDBLK
  5
8D
330
85
100
AcDbEntity
  8
LAYER_1
100
AcDbBlockEnd
  0
BLOCK
  5
8A
330
88
100
AcDbEntity
  8
LAYER_1
 62
     7
100
AcDbBlockBegin
  2
AI9-BLK20
 70
     0
 10
0.0
 20
0.0
 30
0.0
  3
AI9-BLK20
  1

  0
HATCH
  5
8B
330
88
100
AcDbEntity
  8
LAYER_1
 62
     7
100
AcDbHatch
 10
0.0
 20
0.0
 30
0.0
210
0.0
220
0.0
230
1.0
  2
SOLID
 70
     1
 71
     0
 91
        1
 92
        1
 93
        1
 72
     4
 94
        3
 73
     0
 74
     0
 95
       14
 96
       10
 40
0.0
 40
0.0
 40
0.0
 40
0.0
 40
1.0
 40
1.0
 40
1.0
 40
2.0
 40
2.0
 40
2.0
 40
3.0
 40
3.0
 40
3.0
 40
3.0
 10
-0.8736762152777777
 20
-1.246435546875
 10
-0.8736762152777777
 20
-1.246435546875
 10
-0.5591389973958333
 20
-1.45262451171875
 10
0.8736762152777777
 20
1.554082573784722
 10
-0.555349392361111
 20
-1.447629123263889
 10
-0.2308213975694444
 20
-1.554082573784722
 10
-0.2308213975694444
 20
-1.554082573784722
 10
-0.2308213975694444
 20
-1.554082573784722
 10
-0.8736762152777777
 20
-1.246435546875
 10
-0.8736762152777777
 20
-1.246435546875
 97
        0
 97
        0
 75
     0
 76
     1
 98
        1
 10
0.0
 20
0.0
  0
ENDBLK
  5
8C
330
88
100
AcDbEntity
  8
LAYER_1
100
AcDbBlockEnd
  0
BLOCK
  5
91
330
8F
100
AcDbEntity
  8
LAYER_1
 62
     7
100
AcDbBlockBegin
  2
AI9-BLK21
 70
     0
 10
0.0
 20
0.0
 30
0.0
  3
AI9-BLK21
  1

  0
INSERT
  5
93
330
8F
100
AcDbEntity
  8
LAYER_1
 62
     7
100
AcDbBlockReference
  2
AI9-BLK22
 10
0.065457
 20
0.05917
 30
0.0
  0
ENDBLK
  5
9B
330
8F
100
AcDbEntity
  8
LAYER_1
100
AcDbBlockEnd
  0
BLOCK
  5
94
330
92
100
AcDbEntity
  8
LAYER_1
 62
     7
100
AcDbBlockBegin
  2
AI9-BLK22
 70
     0
 10
0.0
 20
0.0
 30
0.0
  3
AI9-BLK22
  1

  0
INSERT
  5
96
330
92
100
AcDbEntity
  8
LAYER_1
 62
     7
100
AcDbBlockReference
  2
AI9-BLK23
 10
0.199816
 20
0.220917
 30
0.0
  0
ENDBLK
  5
9A
330
92
100
AcDbEntity
  8
LAYER_1
100
AcDbBlockEnd
  0
BLOCK
  5
97
330
95
100
AcDbEntity
  8
LAYER_1
 62
     7
100
AcDbBlockBegin
  2
AI9-BLK23
 70
     0
 10
0.0
 20
0.0
 30
0.0
  3
AI9-BLK23
  1

  0
HATCH
  5
98
330
95
100
AcDbEntity
  8
LAYER_1
 62
     7
100
AcDbHatch
 10
0.0
 20
0.0
 30
0.0
210
0.0
220
0.0
230
1.0
  2
SOLID
 70
     1
 71
     0
 91
        1
 92
        1
 93
        1
 72
     4
 94
        3
 73
     0
 74
     0
 95
       14
 96
       10
 40
0.0
 40
0.0
 40
0.0
 40
0.0
 40
1.0
 40
1.0
 40
1.0
 40
2.0
 40
2.0
 40
2.0
 40
3.0
 40
3.0
 40
3.0
 40
3.0
 10
-1.316026475694444
 20
-0.7815199110243055
 10
-1.316026475694444
 20
-0.7815199110243055
 10
-1.156174045138889
 20
-1.033356391059028
 10
1.316026475694444
 20
1.198548719618056
 10
-1.151350911458333
 20
-1.029566786024305
 10
-0.9391330295138888
 20
-1.198548719618056
 10
-0.9391330295138888
 20
-1.198548719618056
 10
-0.9391330295138888
 20
-1.198548719618056
 10
-1.316026475694444
 20
-0.7815199110243055
 10
-1.316026475694444
 20
-0.7815199110243055
 97
        0
 97
        0
 75
     0
 76
     1
 98
        1
 10
0.0
 20
0.0
  0
ENDBLK
  5
99
330
95
100
AcDbEntity
  8
LAYER_1
100
AcDbBlockEnd
  0
BLOCK
  5
9E
330
9C
100
AcDbEntity
  8
LAYER_1
 62
     7
100
AcDbBlockBegin
  2
AI9-BLK24
 70
     0
 10
0.0
 20
0.0
 30
0.0
  3
AI9-BLK24
  1

  0
INSERT
  5
A0
330
9C
100
AcDbEntity
  8
LAYER_1
 62
     7
100
AcDbBlockReference
  2
AI9-BLK25
 10
0.043064
 20
0.076998
 30
0.0
  0
ENDBLK
  5
A8
330
9C
100
AcDbEntity
  8
LAYER_1
100
AcDbBlockEnd
  0
BLOCK
  5
A1
330
9F
100
AcDbEntity
  8
LAYER_1
 62
     7
100
AcDbBlockBegin
  2
AI9-BLK25
 70
     0
 10
0.0
 20
0.0
 30
0.0
  3
AI9-BLK25
  1

  0
INSERT
  5
A3
330
9F
100
AcDbEntity
  8
LAYER_1
 62
     7
100
AcDbBlockReference
  2
AI9-BLK26
 10
0.283015
 20
0.15813
 30
0.0
  0
ENDBLK
  5
A7
330
9F
100
AcDbEntity
  8
LAYER_1
100
AcDbBlockEnd
  0
BLOCK
  5
A4
330
A2
100
AcDbEntity
  8
LAYER_1
 62
     7
100
AcDbBlockBegin
  2
AI9-BLK26
 70
     0
 10
0.0
 20
0.0
 30
0.0
  3
AI9-BLK26
  1

  0
HATCH
  5
A5
330
A2
100
AcDbEntity
  8
LAYER_1
 62
     7
100
AcDbHatch
 10
0.0
 20
0.0
 30
0.0
210
0.0
220
0.0
230
1.0
  2
SOLID
 70
     1
 71
     0
 91
        1
 92
        1
 93
        1
 72
     4
 94
        3
 73
     0
 74
     0
 95
       14
 96
       10
 40
0.0
 40
0.0
 40
0.0
 40
0.0
 40
1.0
 40
1.0
 40
1.0
 40
2.0
 40
2.0
 40
2.0
 40
3.0
 40
3.0
 40
3.0
 40
3.0
 10
-0.9424058702256943
 20
-1.203285725911458
 10
-0.9424058702256943
 20
-1.203285725911458
 10
-0.687124294704861
 20
-1.403273518880208
 10
0.9424058702256943
 20
1.50163099500868
 10
-0.68367919921875
 20
-1.398105875651042
 10
-0.40772705078125
 20
-1.50163099500868
 10
-0.40772705078125
 20
-1.50163099500868
 10
-0.40772705078125
 20
-1.50163099500868
 10
-0.9424058702256943
 20
-1.203285725911458
 10
-0.9424058702256943
 20
-1.203285725911458
 97
        0
 97
        0
 75
     0
 76
     1
 98
        1
 10
0.0
 20
0.0
  0
ENDBLK
  5
A6
330
A2
100
AcDbEntity
  8
LAYER_1
100
AcDbBlockEnd
  0
BLOCK
  5
AB
330
A9
100
AcDbEntity
  8
LAYER_1
 62
     7
100
AcDbBlockBegin
  2
AI9-BLK27
 70
     0
 10
0.0
 20
0.0
 30
0.0
  3
AI9-BLK27
  1

  0
INSERT
  5
AD
330
A9
100
AcDbEntity
  8
LAYER_1
 62
     7
100
AcDbBlockReference
  2
AI9-BLK28
 10
0.035484
 20
0.080787
 30
0.0
  0
ENDBLK
  5
B5
330
A9
100
AcDbEntity
  8
LAYER_1
100
AcDbBlockEnd
  0
BLOCK
  5
AE
330
AC
100
AcDbEntity
  8
LAYER_1
 62
     7
100
AcDbBlockBegin
  2
AI9-BLK28
 70
     0
 10
0.0
 20
0.0
 30
0.0
  3
AI9-BLK28
  1

  0
INSERT
  5
B0
330
AC
100
AcDbEntity
  8
LAYER_1
 62
     7
100
AcDbBlockReference
  2
AI9-BLK29
 10
0.346749
 20
0.152273
 30
0.0
  0
ENDBLK
  5
B4
330
AC
100
AcDbEntity
  8
LAYER_1
100
AcDbBlockEnd
  0
BLOCK
  5
B1
330
AF
100
AcDbEntity
  8
LAYER_1
 62
     7
100
AcDbBlockBegin
  2
AI9-BLK29
 70
     0
 10
0.0
 20
0.0
 30
0.0
  3
AI9-BLK29
  1

  0
HATCH
  5
B2
330
AF
100
AcDbEntity
  8
LAYER_1
 62
     7
100
AcDbHatch
 10
0.0
 20
0.0
 30
0.0
210
0.0
220
0.0
230
1.0
  2
SOLID
 70
     1
 71
     0
 91
        1
 92
        1
 93
        1
 72
     4
 94
        3
 73
     0
 74
     0
 95
       14
 96
       10
 40
0.0
 40
0.0
 40
0.0
 40
0.0
 40
1.0
 40
1.0
 40
1.0
 40
2.0
 40
2.0
 40
2.0
 40
3.0
 40
3.0
 40
3.0
 40
3.0
 10
-0.8326795789930554
 20
-1.282264539930555
 10
-0.8323350694444444
 20
-1.282436794704861
 10
-0.5109076605902777
 20
-1.478118218315972
 10
0.8326795789930554
 20
1.569413248697916
 10
-0.5060845269097222
 20
-1.473467339409722
 10
-0.1774224175347222
 20
-1.569413248697916
 10
-0.1774224175347222
 20
-1.569413248697916
 10
-0.1774224175347222
 20
-1.569413248697916
 10
-0.8326795789930554
 20
-1.282264539930555
 10
-0.8326795789930554
 20
-1.282264539930555
 97
        0
 97
        0
 75
     0
 76
     1
 98
        1
 10
0.0
 20
0.0
  0
ENDBLK
  5
B3
330
AF
100
AcDbEntity
  8
LAYER_1
100
AcDbBlockEnd
  0
ENDSEC
  0
SECTION
  2
ENTITIES
  0
LINE
  5
143
330
A
100
AcDbEntity
  8
LAYER_1
 62
   230
100
AcDbLine
 10
-548.856421
 20
1090.272125
 30
0.0
 11
-548.856421
 21
-832.796023
 31
0.0
  0
LINE
  5
142
330
A
100
AcDbEntity
  8
LAYER_1
 62
   230
100
AcDbLine
 10
-392.305425
 20
1090.272125
 30
0.0
 11
-392.305425
 21
-832.796023
 31
0.0
  0
LINE
  5
141
330
A
100
AcDbEntity
  8
LAYER_1
 62
   230
100
AcDbLine
 10
-235.75753
 20
1090.272125
 30
0.0
 11
-235.75753
 21
-832.796023
 31
0.0
  0
LINE
  5
140
330
A
100
AcDbEntity
  8
LAYER_1
 62
   230
100
AcDbLine
 10
-79.20619
 20
1090.272125
 30
0.0
 11
-79.20619
 21
-832.796023
 31
0.0
  0
LINE
  5
13F
330
A
100
AcDbEntity
  8
LAYER_1
 62
   230
100
AcDbLine
 10
77.344805
 20
1090.272125
 30
0.0
 11
77.344805
 21
-832.796023
 31
0.0
  0
LINE
  5
13E
330
A
100
AcDbEntity
  8
LAYER_1
 62
   230
100
AcDbLine
 10
233.899246
 20
1090.272125
 30
0.0
 11
233.899246
 21
-832.796023
 31
0.0
  0
LINE
  5
13D
330
A
100
AcDbEntity
  8
LAYER_1
 62
   230
100
AcDbLine
 10
390.450241
 20
1090.272125
 30
0.0
 11
390.450241
 21
-832.796023
 31
0.0
  0
LINE
  5
13C
330
A
100
AcDbEntity
  8
LAYER_1
 62
   230
100
AcDbLine
 10
547.001581
 20
1090.272125
 30
0.0
 11
547.001581
 21
-832.796023
 31
0.0
  0
LINE
  5
13B
330
A
100
AcDbEntity
  8
LAYER_1
 62
   230
100
AcDbLine
 10
703.552577
 20
1090.272125
 30
0.0
 11
703.552577
 21
-832.796023
 31
0.0
  0
LINE
  5
13A
330
A
100
AcDbEntity
  8
LAYER_1
 62
   230
100
AcDbLine
 10
860.103573
 20
1090.272125
 30
0.0
 11
860.103573
 21
-832.796023
 31
0.0
  0
LINE
  5
139
330
A
100
AcDbEntity
  8
LAYER_1
 62
   230
100
AcDbLine
 10
-595.826164
 20
-833.05096
 30
0.0
 11
898.152585
 21
-833.057161
 31
0.0
  0
LINE
  5
138
330
A
100
AcDbEntity
  8
LAYER_1
 62
   230
100
AcDbLine
 10
-595.826164
 20
-676.503065
 30
0.0
 11
898.152585
 21
-676.503065
 31
0.0
  0
LINE
  5
137
330
A
100
AcDbEntity
  8
LAYER_1
 62
   230
100
AcDbLine
 10
-595.826164
 20
-519.948625
 30
0.0
 11
898.152585
 21
-519.948625
 31
0.0
  0
LINE
  5
136
330
A
100
AcDbEntity
  8
LAYER_1
 62
   230
100
AcDbLine
 10
-595.826164
 20
-363.397285
 30
0.0
 11
898.152585
 21
-363.40073
 31
0.0
  0
LINE
  5
135
330
A
100
AcDbEntity
  8
LAYER_1
 62
   230
100
AcDbLine
 10
-595.826164
 20
-206.846289
 30
0.0
 11
898.152585
 21
-206.84939
 31
0.0
  0
LINE
  5
134
330
A
100
AcDbEntity
  8
LAYER_1
 62
   230
100
AcDbLine
 10
-595.826164
 20
-50.291848
 30
0.0
 11
898.152585
 21
-50.298394
 31
0.0
  0
LINE
  5
133
330
A
100
AcDbEntity
  8
LAYER_1
 62
   230
100
AcDbLine
 10
-595.826164
 20
106.256047
 30
0.0
 11
898.152585
 21
106.249501
 31
0.0
  0
LINE
  5
132
330
A
100
AcDbEntity
  8
LAYER_1
 62
   230
100
AcDbLine
 10
-595.826164
 20
262.810487
 30
0.0
 11
898.152585
 21
262.803942
 31
0.0
  0
LINE
  5
131
330
A
100
AcDbEntity
  8
LAYER_1
 62
   230
100
AcDbLine
 10
-595.826164
 20
419.358382
 30
0.0
 11
898.152585
 21
419.358382
 31
0.0
  0
LINE
  5
130
330
A
100
AcDbEntity
  8
LAYER_1
 62
   230
100
AcDbLine
 10
-595.826164
 20
575.912478
 30
0.0
 11
898.152585
 21
575.906277
 31
0.0
  0
LINE
  5
12F
330
A
100
AcDbEntity
  8
LAYER_1
 62
   230
100
AcDbLine
 10
-595.826164
 20
732.463818
 30
0.0
 11
898.152585
 21
732.463818
 31
0.0
  0
LINE
  5
12E
330
A
100
AcDbEntity
  8
LAYER_1
 62
   230
100
AcDbLine
 10
-595.826164
 20
889.018259
 30
0.0
 11
898.152585
 21
889.011713
 31
0.0
  0
LINE
  5
12D
330
A
100
AcDbEntity
  8
LAYER_1
 62
   230
100
AcDbLine
 10
-595.826164
 20
1045.566154
 30
0.0
 11
898.152585
 21
1045.563053
 31
0.0
  0
MTEXT
  5
12C
330
A
100
AcDbEntity
  8
LAYER_1
 62
     7
100
AcDbMText
 10
-677.162629
 20
-815.510105
 30
0.0
 40
30.816531
 41
0.0
 46
0.0
 71
     1
 72
     2
  1
\W1.00;\fMyriad Roman|b0|i0;200
  7
STD
 73
     1
 44
1.0
  0
MTEXT
  5
12B
330
A
100
AcDbEntity
  8
LAYER_1
 62
     7
100
AcDbMText
 10
-677.162629
 20
-658.92397
 30
0.0
 40
30.816531
 41
0.0
 46
0.0
 71
     1
 72
     2
  1
\W1.00;\fMyriad Roman|b0|i0;210
  7
STD
 73
     1
 44
1.0
  0
MTEXT
  5
12A
330
A
100
AcDbEntity
  8
LAYER_1
 62
     7
100
AcDbMText
 10
-677.162629
 20
-502.33749
 30
0.0
 40
30.816531
 41
0.0
 46
0.0
 71
     1
 72
     2
  1
\W1.00;\fMyriad Roman|b0|i0;220
  7
STD
 73
     1
 44
1.0
  0
MTEXT
  5
129
330
A
100
AcDbEntity
  8
LAYER_1
 62
     7
100
AcDbMText
 10
-677.162629
 20
-345.748254
 30
0.0
 40
30.816531
 41
0.0
 46
0.0
 71
     1
 72
     2
  1
\W1.00;\fMyriad Roman|b0|i0;230
  7
STD
 73
     1
 44
1.0
  0
MTEXT
  5
128
330
A
100
AcDbEntity
  8
LAYER_1
 62
     7
100
AcDbMText
 10
-677.162629
 20
-189.165219
 30
0.0
 40
30.816531
 41
0.0
 46
0.0
 71
     1
 72
     2
  1
\W1.00;\fMyriad Roman|b0|i0;240
  7
STD
 73
     1
 44
1.0
  0
MTEXT
  5
127
330
A
100
AcDbEntity
  8
LAYER_1
 62
     7
100
AcDbMText
 10
-677.162629
 20
-32.575638
 30
0.0
 40
30.816531
 41
0.0
 46
0.0
 71
     1
 72
     2
  1
\W1.00;\fMyriad Roman|b0|i0;250
  7
STD
 73
     1
 44
1.0
  0
MTEXT
  5
126
330
A
100
AcDbEntity
  8
LAYER_1
 62
     7
100
AcDbMText
 10
-677.162629
 20
124.010498
 30
0.0
 40
30.816531
 41
0.0
 46
0.0
 71
     1
 72
     2
  1
\W1.00;\fMyriad Roman|b0|i0;260
  7
STD
 73
     1
 44
1.0
  0
MTEXT
  5
125
330
A
100
AcDbEntity
  8
LAYER_1
 62
     7
100
AcDbMText
 10
-677.162629
 20
280.599734
 30
0.0
 40
30.816531
 41
0.0
 46
0.0
 71
     1
 72
     2
  1
\W1.00;\fMyriad Roman|b0|i0;270
  7
STD
 73
     1
 44
1.0
  0
MTEXT
  5
124
330
A
100
AcDbEntity
  8
LAYER_1
 62
     7
100
AcDbMText
 10
-677.162629
 20
437.186214
 30
0.0
 40
30.816531
 41
0.0
 46
0.0
 71
     1
 72
     2
  1
\W1.00;\fMyriad Roman|b0|i0;280
  7
STD
 73
     1
 44
1.0
  0
MTEXT
  5
123
330
A
100
AcDbEntity
  8
LAYER_1
 62
     7
100
AcDbMText
 10
-677.162629
 20
593.772349
 30
0.0
 40
30.816531
 41
0.0
 46
0.0
 71
     1
 72
     2
  1
\W1.00;\fMyriad Roman|b0|i0;290
  7
STD
 73
     1
 44
1.0
  0
MTEXT
  5
122
330
A
100
AcDbEntity
  8
LAYER_1
 62
     7
100
AcDbMText
 10
-677.162629
 20
750.352284
 30
0.0
 40
30.816531
 41
0.0
 46
0.0
 71
     1
 72
     2
  1
\W1.00;\fMyriad Roman|b0|i0;300
  7
STD
 73
     1
 44
1.0
  0
MTEXT
  5
121
330
A
100
AcDbEntity
  8
LAYER_1
 62
     7
100
AcDbMText
 10
-677.162629
 20
906.94152
 30
0.0
 40
30.816531
 41
0.0
 46
0.0
 71
     1
 72
     2
  1
\W1.00;\fMyriad Roman|b0|i0;310
  7
STD
 73
     1
 44
1.0
  0
MTEXT
  5
120
330
A
100
AcDbEntity
  8
LAYER_1
 62
     7
100
AcDbMText
 10
-677.162629
 20
1063.530756
 30
0.0
 40
30.816531
 41
0.0
 46
0.0
 71
     1
 72
     2
  1
\W1.00;\fMyriad Roman|b0|i0;320
  7
STD
 73
     1
 44
1.0
  0
MTEXT
  5
11F
330
A
100
AcDbEntity
  8
LAYER_1
 62
     7
100
AcDbMText
 10
-581.331613
 20
1149.449715
 30
0.0
 40
30.816531
 41
0.0
 46
0.0
 71
     1
 72
     2
  1
\W1.00;\fMyriad Roman|b0|i0;730
  7
STD
 73
     1
 44
1.0
  0
MTEXT
  5
11E
330
A
100
AcDbEntity
  8
LAYER_1
 62
     7
100
AcDbMText
 10
-425.078619
 20
1149.449715
 30
0.0
 40
30.816531
 41
0.0
 46
0.0
 71
     1
 72
     2
  1
\W1.00;\fMyriad Roman|b0|i0;740
  7
STD
 73
     1
 44
1.0
  0
MTEXT
  5
11D
330
A
100
AcDbEntity
  8
LAYER_1
 62
     7
100
AcDbMText
 10
-268.828725
 20
1149.449715
 30
0.0
 40
30.816531
 41
0.0
 46
0.0
 71
     1
 72
     2
  1
\W1.00;\fMyriad Roman|b0|i0;750
  7
STD
 73
     1
 44
1.0
  0
MTEXT
  5
11C
330
A
100
AcDbEntity
  8
LAYER_1
 62
     7
100
AcDbMText
 10
-112.575385
 20
1149.449715
 30
0.0
 40
30.816531
 41
0.0
 46
0.0
 71
     1
 72
     2
  1
\W1.00;\fMyriad Roman|b0|i0;760
  7
STD
 73
     1
 44
1.0
  0
MTEXT
  5
11B
330
A
100
AcDbEntity
  8
LAYER_1
 62
     7
100
AcDbMText
 10
43.674509
 20
1149.446614
 30
0.0
 40
30.816531
 41
0.0
 46
0.0
 71
     1
 72
     2
  1
\W1.00;\fMyriad Roman|b0|i0;770
  7
STD
 73
     1
 44
1.0
  0
MTEXT
  5
11A
330
A
100
AcDbEntity
  8
LAYER_1
 62
     7
100
AcDbMText
 10
199.929226
 20
1149.446614
 30
0.0
 40
30.816531
 41
0.0
 46
0.0
 71
     1
 72
     2
  1
\W1.00;\fMyriad Roman|b0|i0;780
  7
STD
 73
     1
 44
1.0
  0
MTEXT
  5
119
330
A
100
AcDbEntity
  8
LAYER_1
 62
     7
100
AcDbMText
 10
356.180843
 20
1149.446614
 30
0.0
 40
30.816531
 41
0.0
 46
0.0
 71
     1
 72
     2
  1
\W1.00;\fMyriad Roman|b0|i0;790
  7
STD
 73
     1
 44
1.0
  0
MTEXT
  5
118
330
A
100
AcDbEntity
  8
LAYER_1
 62
     7
100
AcDbMText
 10
512.43556
 20
1149.446614
 30
0.0
 40
30.816531
 41
0.0
 46
0.0
 71
     1
 72
     2
  1
\W1.00;\fMyriad Roman|b0|i0;800
  7
STD
 73
     1
 44
1.0
  0
MTEXT
  5
117
330
A
100
AcDbEntity
  8
LAYER_1
 62
     7
100
AcDbMText
 10
668.687177
 20
1149.446614
 30
0.0
 40
30.816531
 41
0.0
 46
0.0
 71
     1
 72
     2
  1
\W1.00;\fMyriad Roman|b0|i0;810
  7
STD
 73
     1
 44
1.0
  0
MTEXT
  5
116
330
A
100
AcDbEntity
  8
LAYER_1
 62
     7
100
AcDbMText
 10
824.942239
 20
1149.446614
 30
0.0
 40
30.816531
 41
0.0
 46
0.0
 71
     1
 72
     2
  1
\W1.00;\fMyriad Roman|b0|i0;820
  7
STD
 73
     1
 44
1.0
  0
SPLINE
  5
115
330
A
100
AcDbEntity
  8
LAYER_1
 62
     7
100
AcDbSpline
210
0.0
220
0.0
230
1.0
 70
     8
 71
     3
 72
    47
 73
    43
 74
     0
 42
0.000000001
 43
0.00000001
 40
0.0
 40
0.0
 40
0.0
 40
0.0
 40
1.0
 40
1.0
 40
1.0
 40
2.0
 40
2.0
 40
2.0
 40
3.0
 40
3.0
 40
3.0
 40
4.0
 40
4.0
 40
4.0
 40
5.0
 40
5.0
 40
5.0
 40
6.0
 40
6.0
 40
6.0
 40
7.0
 40
7.0
 40
7.0
 40
8.0
 40
8.0
 40
8.0
 40
9.0
 40
9.0
 40
9.0
 40
10.0
 40
10.0
 40
10.0
 40
11.0
 40
11.0
 40
11.0
 40
12.0
 40
12.0
 40
12.0
 40
13.0
 40
13.0
 40
13.0
 40
14.0
 40
14.0
 40
14.0
 40
14.0
 10
342.2902180989583
 20
642.3194498697916
 30
0.0
 10
342.4752197265624
 20
642.2843098958333
 30
0.0
 10
342.7522054036458
 20
642.2209201388888
 30
0.0
 10
342.9086127387152
 20
642.1475396050347
 30
0.0
 10
342.9785481770833
 20
642.1123996310763
 30
0.0
 10
343.0646755642361
 20
642.0548665364582
 30
0.0
 10
343.1411566840277
 20
642.023171657986
 30
0.0
 10
343.2558783637152
 20
641.959437391493
 30
0.0
 10
343.3706000434028
 20
641.9528917100694
 30
0.0
 10
343.4915228949653
 20
641.899148220486
 30
0.0
 10
343.6668782552083
 20
641.8192220052083
 30
0.0
 10
343.6382839626736
 20
641.7045003255208
 30
0.0
 10
343.6351833767361
 20
641.5260443793402
 30
0.0
 10
343.6351833767361
 20
641.3220947265625
 30
0.0
 10
343.6541314019097
 20
641.1181450737847
 30
0.0
 10
343.6606770833333
 20
640.9141954210069
 30
0.0
 10
343.6734239366319
 20
640.3598795572916
 30
0.0
 10
343.689271375868
 20
639.8052191840277
 30
0.0
 10
343.7719536675347
 20
639.2574490017361
 30
0.0
 10
343.8484347873264
 20
638.741029188368
 30
0.0
 10
344.0747775607638
 20
638.2886881510416
 30
0.0
 10
344.1323106553819
 20
637.7788140190971
 30
0.0
 10
344.1640055338542
 20
637.5045844184027
 30
0.0
 10
344.1671061197916
 20
637.2558485243055
 30
0.0
 10
343.9028672960069
 20
637.0997856987847
 30
0.0
 10
343.6351833767361
 20
636.9375217013888
 30
0.0
 10
343.3003200954861
 20
637.1669650607638
 30
0.0
 10
343.0198893229166
 20
637.1793674045139
 30
0.0
 10
342.8607259114583
 20
637.192458767361
 30
0.0
 10
342.7046630859375
 20
637.1793674045139
 30
0.0
 10
342.548255750868
 20
637.2114067925347
 30
0.0
 10
342.3794460720486
 20
637.2496473524305
 30
0.0
 10
342.2075358072917
 20
637.3261284722222
 30
0.0
 10
342.0383816189236
 20
637.3388753255208
 30
0.0
 10
341.6945610894097
 20
637.3736707899305
 30
0.0
 10
341.6115342881944
 20
637.1187337239583
 30
0.0
 10
341.3500515407986
 20
636.9788628472222
 30
0.0
 10
341.2356743706597
 20
636.9182291666666
 30
0.0
 10
341.1526475694444
 20
636.905482313368
 30
0.0
 10
341.0634195963542
 20
636.8004069010416
 30
0.0
 10
341.0827121310763
 20
636.8128092447917
 30
0.0
 10
341.10166015625
 20
636.8193549262152
 30
0.0
 10
341.1206081814236
 20
636.8321017795138
 30
0.0
  0
SPLINE
  5
114
330
A
100
AcDbEntity
  8
LAYER_1
 62
     7
100
AcDbSpline
210
0.0
220
0.0
230
1.0
 70
     8
 71
     3
 72
    17
 73
    13
 74
     0
 42
0.000000001
 43
0.00000001
 40
0.0
 40
0.0
 40
0.0
 40
0.0
 40
1.0
 40
1.0
 40
1.0
 40
2.0
 40
2.0
 40
2.0
 40
3.0
 40
3.0
 40
3.0
 40
4.0
 40
4.0
 40
4.0
 40
4.0
 10
340.9741916232638
 20
636.0101019965277
 30
0.0
 10
341.0730658637153
 20
636.3732150607639
 30
0.0
 10
341.6528754340277
 20
636.3511664496527
 30
0.0
 10
341.9205593532986
 20
636.2395453559027
 30
0.0
 10
342.2774712456597
 20
636.0831380208333
 30
0.0
 10
342.4879665798611
 20
635.704177517361
 30
0.0
 10
342.4752197265624
 20
635.3248725043402
 30
0.0
 10
342.4559271918403
 20
634.9104275173611
 30
0.0
 10
342.1692952473958
 20
634.2220974392361
 30
0.0
 10
341.7324571397569
 20
634.0691351996527
 30
0.0
 10
341.4520263671874
 20
633.9671603732638
 30
0.0
 10
340.8467230902777
 20
633.9416666666666
 30
0.0
 10
340.6713677300347
 20
634.209695095486
 30
0.0
  0
SPLINE
  5
113
330
A
100
AcDbEntity
  8
LAYER_1
 62
     7
100
AcDbSpline
210
0.0
220
0.0
230
1.0
 70
     8
 71
     3
 72
    35
 73
    31
 74
     0
 42
0.000000001
 43
0.00000001
 40
0.0
 40
0.0
 40
0.0
 40
0.0
 40
1.0
 40
1.0
 40
1.0
 40
2.0
 40
2.0
 40
2.0
 40
3.0
 40
3.0
 40
3.0
 40
4.0
 40
4.0
 40
4.0
 40
5.0
 40
5.0
 40
5.0
 40
6.0
 40
6.0
 40
6.0
 40
7.0
 40
7.0
 40
7.0
 40
8.0
 40
8.0
 40
8.0
 40
9.0
 40
9.0
 40
9.0
 40
10.0
 40
10.0
 40
10.0
 40
10.0
 10
343.0488281249999
 20
633.062478298611
 30
0.0
 10
342.9148139105902
 20
633.062478298611
 30
0.0
 10
342.7491048177083
 20
632.7565538194444
 30
0.0
 10
342.6629774305555
 20
632.6607801649305
 30
0.0
 10
342.4941677517361
 20
632.4695773654513
 30
0.0
 10
342.3539523654513
 20
632.2845757378471
 30
0.0
 10
342.2774712456597
 20
632.039284939236
 30
0.0
 10
342.1596489800347
 20
631.6537787543402
 30
0.0
 10
342.1723958333333
 20
631.0098904079861
 30
0.0
 10
342.2933186848958
 20
630.6371310763889
 30
0.0
 10
342.3443060980903
 20
630.481068250868
 30
0.0
 10
342.3794460720486
 20
630.1940917968749
 30
0.0
 10
342.596142578125
 20
630.2547254774305
 30
0.0
 10
342.7618516710069
 20
630.3026123046874
 30
0.0
 10
342.8159396701388
 20
630.5448025173611
 30
0.0
 10
342.8607259114583
 20
630.6977647569444
 30
0.0
 10
342.9051676432292
 20
630.8569281684028
 30
0.0
 10
342.9306613498264
 20
631.0291829427083
 30
0.0
 10
343.000941297743
 20
631.1759440104166
 30
0.0
 10
343.0453830295139
 20
631.2841200086805
 30
0.0
 10
343.112562391493
 20
631.3668023003472
 30
0.0
 10
343.1570041232638
 20
631.4753228081597
 30
0.0
 10
343.2493326822917
 20
631.698220486111
 30
0.0
 10
343.3323594835069
 20
631.905615234375
 30
0.0
 10
343.3674994574653
 20
632.1509060329861
 30
0.0
 10
343.3991943359375
 20
632.3610568576388
 30
0.0
 10
343.5459554036458
 20
632.6321858723958
 30
0.0
 10
343.4088406032986
 20
632.8330349392361
 30
0.0
 10
343.3165120442708
 20
632.9667046440971
 30
0.0
 10
343.1473578559027
 20
632.9921983506944
 30
0.0
 10
343.0167887369792
 20
633.062478298611
 30
0.0
  0
SPLINE
  5
112
330
A
100
AcDbEntity
  8
LAYER_1
 62
     7
100
AcDbSpline
210
0.0
220
0.0
230
1.0
 70
     8
 71
     3
 72
    29
 73
    25
 74
     0
 42
0.000000001
 43
0.00000001
 40
0.0
 40
0.0
 40
0.0
 40
0.0
 40
1.0
 40
1.0
 40
1.0
 40
2.0
 40
2.0
 40
2.0
 40
3.0
 40
3.0
 40
3.0
 40
4.0
 40
4.0
 40
4.0
 40
5.0
 40
5.0
 40
5.0
 40
6.0
 40
6.0
 40
6.0
 40
7.0
 40
7.0
 40
7.0
 40
8.0
 40
8.0
 40
8.0
 40
8.0
 10
339.9162027994792
 20
631.3922960069444
 30
0.0
 10
339.8269748263888
 20
631.0739691840278
 30
0.0
 10
339.7856336805555
 20
630.774245876736
 30
0.0
 10
339.7408474392361
 20
630.4428276909722
 30
0.0
 10
339.6836588541667
 20
630.0349283854166
 30
0.0
 10
339.5306966145833
 20
629.6397759331596
 30
0.0
 10
339.5052029079861
 20
629.2253309461805
 30
0.0
 10
339.495556640625
 20
629.0661675347221
 30
0.0
 10
339.4700629340277
 20
628.7540418836805
 30
0.0
 10
339.7153537326388
 20
628.8367241753472
 30
0.0
 10
339.8717610677083
 20
628.8877115885416
 30
0.0
 10
340.0085313585069
 20
629.1488498263889
 30
0.0
 10
340.1170518663194
 20
629.2639160156249
 30
0.0
 10
340.4260769314236
 20
629.6077365451388
 30
0.0
 10
340.6586208767361
 20
630.0700683593749
 30
0.0
 10
340.7289008246527
 20
630.5289550781249
 30
0.0
 10
340.7671413845486
 20
630.7360053168402
 30
0.0
 10
340.7447482638889
 20
630.9909423828125
 30
0.0
 10
340.5693929036458
 20
631.1249565972222
 30
0.0
 10
340.4419243706597
 20
631.233132595486
 30
0.0
 10
340.2603678385416
 20
631.239333767361
 30
0.0
 10
340.1328993055555
 20
631.3413085937499
 30
0.0
 10
340.0691650390625
 20
631.3922960069444
 30
0.0
 10
339.9447970920139
 20
631.5328559027777
 30
0.0
 10
339.9162027994792
 20
631.3764485677083
 30
0.0
  0
SPLINE
  5
111
330
A
100
AcDbEntity
  8
LAYER_1
 62
     7
100
AcDbSpline
210
0.0
220
0.0
230
1.0
 70
    11
 71
     3
 72
    17
 73
    13
 74
     0
 42
0.000000001
 43
0.00000001
 40
0.0
 40
0.0
 40
0.0
 40
0.0
 40
1.0
 40
1.0
 40
1.0
 40
2.0
 40
2.0
 40
2.0
 40
3.0
 40
3.0
 40
3.0
 40
4.0
 40
4.0
 40
4.0
 40
4.0
 10
340.9390516493055
 20
633.5530598958333
 30
0.0
 10
340.9390516493055
 20
633.5530598958333
 30
0.0
 10
340.2603678385416
 20
632.3741482204861
 30
0.0
 10
340.4546712239583
 20
631.9469563802082
 30
0.0
 10
340.6493191189236
 20
631.5232096354166
 30
0.0
 10
341.3534966362847
 20
632.3355631510416
 30
0.0
 10
341.3534966362847
 20
632.3355631510416
 30
0.0
 10
341.3534966362847
 20
632.3355631510416
 30
0.0
 10
341.6911159939236
 20
632.8009955512152
 30
0.0
 10
341.5254069010417
 20
633.004945203993
 30
0.0
 10
341.3631429036458
 20
633.1995930989583
 30
0.0
 10
341.4520263671874
 20
633.4128445095486
 30
0.0
 10
340.9390516493055
 20
633.5530598958333
 30
0.0
  0
SPLINE
  5
110
330
A
100
AcDbEntity
  8
LAYER_1
 62
     7
100
AcDbSpline
210
0.0
220
0.0
230
1.0
 70
    11
 71
     3
 72
    17
 73
    13
 74
     0
 42
0.000000001
 43
0.00000001
 40
0.0
 40
0.0
 40
0.0
 40
0.0
 40
1.0
 40
1.0
 40
1.0
 40
2.0
 40
2.0
 40
2.0
 40
3.0
 40
3.0
 40
3.0
 40
4.0
 40
4.0
 40
4.0
 40
4.0
 10
342.9689019097222
 20
636.5134304470486
 30
0.0
 10
342.9689019097222
 20
636.5134304470486
 30
0.0
 10
342.3284586588541
 20
636.0641899956597
 30
0.0
 10
342.5227620442708
 20
635.6817843967013
 30
0.0
 10
342.71396484375
 20
635.299378797743
 30
0.0
 10
342.8479790581597
 20
634.7512641059027
 30
0.0
 10
343.4088406032986
 20
634.9297200520833
 30
0.0
 10
343.972802734375
 20
635.1081759982638
 30
0.0
 10
343.5235622829861
 20
635.7165798611111
 30
0.0
 10
343.5235622829861
 20
635.7165798611111
 30
0.0
 10
343.5235622829861
 20
635.7165798611111
 30
0.0
 10
343.1983452690972
 20
636.7080783420138
 30
0.0
 10
342.9689019097222
 20
636.5134304470486
 30
0.0
  0
SPLINE
  5
10F
330
A
100
AcDbEntity
  8
LAYER_1
 62
     7
100
AcDbSpline
210
0.0
220
0.0
230
1.0
 70
     8
 71
     3
 72
    29
 73
    25
 74
     0
 42
0.000000001
 43
0.00000001
 40
0.0
 40
0.0
 40
0.0
 40
0.0
 40
1.0
 40
1.0
 40
1.0
 40
2.0
 40
2.0
 40
2.0
 40
3.0
 40
3.0
 40
3.0
 40
4.0
 40
4.0
 40
4.0
 40
5.0
 40
5.0
 40
5.0
 40
6.0
 40
6.0
 40
6.0
 40
7.0
 40
7.0
 40
7.0
 40
8.0
 40
8.0
 40
8.0
 40
8.0
 10
342.4145860460069
 20
630.2450792100694
 30
0.0
 10
342.4145860460069
 20
630.2450792100694
 30
0.0
 10
340.6968614366319
 20
628.473611111111
 30
0.0
 10
340.1232530381944
 20
628.6710150824653
 30
0.0
 10
339.5465440538194
 20
628.874964735243
 30
0.0
 10
338.9953287760416
 20
628.0274712456596
 30
0.0
 10
338.9632893880208
 20
628.0402180989582
 30
0.0
 10
338.9346950954861
 20
628.0595106336805
 30
0.0
 10
338.69560546875
 20
627.0459635416667
 30
0.0
 10
338.9539876302083
 20
626.8895562065971
 30
0.0
 10
339.2089246961805
 20
626.733837890625
 30
0.0
 10
340.3368489583333
 20
627.0587103949653
 30
0.0
 10
340.3368489583333
 20
627.0587103949653
 30
0.0
 10
340.3368489583333
 20
627.0587103949653
 30
0.0
 10
340.9263047960069
 20
627.0235704210069
 30
0.0
 10
341.0634195963542
 20
626.8292670355902
 30
0.0
 10
341.1970893012153
 20
626.6253173828125
 30
0.0
 10
341.853724500868
 20
627.1096978081597
 30
0.0
 10
341.853724500868
 20
627.1096978081597
 30
0.0
 10
341.853724500868
 20
627.1096978081597
 30
0.0
 10
342.4752197265624
 20
628.58798828125
 30
0.0
 10
342.4624728732638
 20
628.7857367621527
 30
0.0
 10
342.4497260199652
 20
628.986585828993
 30
0.0
 10
342.8066379123264
 20
630.1685980902777
 30
0.0
 10
342.6281819661458
 20
630.2292317708333
 30
0.0
  0
SPLINE
  5
10E
330
A
100
AcDbEntity
  8
LAYER_1
 62
     7
100
AcDbSpline
210
0.0
220
0.0
230
1.0
 70
    11
 71
     3
 72
    35
 73
    31
 74
     0
 42
0.000000001
 43
0.00000001
 40
0.0
 40
0.0
 40
0.0
 40
0.0
 40
1.0
 40
1.0
 40
1.0
 40
2.0
 40
2.0
 40
2.0
 40
3.0
 40
3.0
 40
3.0
 40
4.0
 40
4.0
 40
4.0
 40
5.0
 40
5.0
 40
5.0
 40
6.0
 40
6.0
 40
6.0
 40
7.0
 40
7.0
 40
7.0
 40
8.0
 40
8.0
 40
8.0
 40
9.0
 40
9.0
 40
9.0
 40
10.0
 40
10.0
 40
10.0
 40
10.0
 10
340.5473442925347
 20
626.8165201822916
 30
0.0
 10
340.7767876519097
 20
626.4851019965278
 30
0.0
 10
341.2449761284722
 20
626.7176459418403
 30
0.0
 10
341.3596978081597
 20
626.0069227430555
 30
0.0
 10
341.4744194878472
 20
625.2899983723958
 30
0.0
 10
340.9645453559028
 20
624.2289089626736
 30
0.0
 10
341.0985595703125
 20
623.8465033637152
 30
0.0
 10
341.2322292751736
 20
623.4706434461805
 30
0.0
 10
341.3407497829861
 20
622.1001844618055
 30
0.0
 10
341.3724446614583
 20
621.9920084635417
 30
0.0
 10
341.3979383680555
 20
621.8900336371527
 30
0.0
 10
341.0251790364583
 20
620.8289442274305
 30
0.0
 10
340.5983317057292
 20
620.780712890625
 30
0.0
 10
340.1742404513889
 20
620.7428168402777
 30
0.0
 10
339.7377468532986
 20
621.249245876736
 30
0.0
 10
338.9505425347222
 20
621.1951578776041
 30
0.0
 10
338.1602376302083
 20
621.1410698784722
 30
0.0
 10
337.4147189670139
 20
621.0549424913194
 30
0.0
 10
337.4147189670139
 20
621.0549424913194
 30
0.0
 10
337.4147189670139
 20
621.0549424913194
 30
0.0
 10
338.064808485243
 20
622.4953369140625
 30
0.0
 10
337.8450113932291
 20
623.1040852864583
 30
0.0
 10
337.6186686197917
 20
623.7124891493055
 30
0.0
 10
338.0872016059027
 20
625.2104166666666
 30
0.0
 10
338.0872016059027
 20
625.2104166666666
 30
0.0
 10
338.0872016059027
 20
625.2104166666666
 30
0.0
 10
338.9539876302083
 20
626.7717339409721
 30
0.0
 10
338.9539876302083
 20
626.7717339409721
 30
0.0
 10
338.9539876302083
 20
626.7717339409721
 30
0.0
 10
340.4419243706597
 20
626.9632812499999
 30
0.0
 10
340.5473442925347
 20
626.8165201822916
 30
0.0
  0
SPLINE
  5
10D
330
A
100
AcDbEntity
  8
LAYER_1
 62
     7
100
AcDbSpline
210
0.0
220
0.0
230
1.0
 70
     8
 71
     3
 72
    20
 73
    16
 74
     0
 42
0.000000001
 43
0.00000001
 40
0.0
 40
0.0
 40
0.0
 40
0.0
 40
1.0
 40
1.0
 40
1.0
 40
2.0
 40
2.0
 40
2.0
 40
3.0
 40
3.0
 40
3.0
 40
4.0
 40
4.0
 40
4.0
 40
5.0
 40
5.0
 40
5.0
 40
5.0
 10
336.4872992621528
 20
621.125222439236
 30
0.0
 10
336.4872992621528
 20
621.125222439236
 30
0.0
 10
337.7619845920138
 20
621.0232476128472
 30
0.0
 10
338.064808485243
 20
620.77451171875
 30
0.0
 10
338.3641872829861
 20
620.5292209201389
 30
0.0
 10
338.8392659505208
 20
620.7552191840277
 30
0.0
 10
338.4696072048611
 20
620.0479410807291
 30
0.0
 10
338.0999484592014
 20
619.3341172960069
 30
0.0
 10
338.0327690972222
 20
618.6523328993055
 30
0.0
 10
338.0327690972222
 20
618.6523328993055
 30
0.0
 10
338.0327690972222
 20
618.6523328993055
 30
0.0
 10
337.9307942708333
 20
617.7407606336805
 30
0.0
 10
337.43056640625
 20
617.7311143663194
 30
0.0
 10
336.9272379557291
 20
617.7214680989583
 30
0.0
 10
335.81826171875
 20
617.7028645833333
 30
0.0
 10
335.81826171875
 20
617.7028645833333
 30
0.0
  0
SPLINE
  5
10C
330
A
100
AcDbEntity
  8
LAYER_1
 62
     7
100
AcDbSpline
210
0.0
220
0.0
230
1.0
 70
     8
 71
     3
 72
    11
 73
     7
 74
     0
 42
0.000000001
 43
0.00000001
 40
0.0
 40
0.0
 40
0.0
 40
0.0
 40
1.0
 40
1.0
 40
1.0
 40
2.0
 40
2.0
 40
2.0
 40
2.0
 10
338.6225694444444
 20
620.3955512152777
 30
0.0
 10
338.6225694444444
 20
620.3955512152777
 30
0.0
 10
340.3688883463541
 20
618.7253689236111
 30
0.0
 10
340.4546712239583
 20
618.084925672743
 30
0.0
 10
340.5407986111111
 20
617.4444824218749
 30
0.0
 10
340.5566460503472
 20
615.8066840277777
 30
0.0
 10
340.2093804253472
 20
615.5803412543402
 30
0.0
  0
SPLINE
  5
10B
330
A
100
AcDbEntity
  8
LAYER_1
 62
     7
100
AcDbSpline
210
0.0
220
0.0
230
1.0
 70
    11
 71
     3
 72
    20
 73
    16
 74
     0
 42
0.000000001
 43
0.00000001
 40
0.0
 40
0.0
 40
0.0
 40
0.0
 40
1.0
 40
1.0
 40
1.0
 40
2.0
 40
2.0
 40
2.0
 40
3.0
 40
3.0
 40
3.0
 40
4.0
 40
4.0
 40
4.0
 40
5.0
 40
5.0
 40
5.0
 40
5.0
 10
336.7263888888888
 20
617.2563802083333
 30
0.0
 10
336.7263888888888
 20
617.2563802083333
 30
0.0
 10
337.6855034722222
 20
617.3204589843749
 30
0.0
 10
337.6472629123264
 20
616.7561523437499
 30
0.0
 10
337.6472629123264
 20
616.7561523437499
 30
0.0
 10
337.3540852864583
 20
614.4203776041666
 30
0.0
 10
337.1883761935763
 20
614.407630750868
 30
0.0
 10
337.0226671006944
 20
614.3914388020833
 30
0.0
 10
336.3536295572916
 20
614.3376953124999
 30
0.0
 10
336.3374376085069
 20
614.4141764322916
 30
0.0
 10
336.3250352647569
 20
614.4906575520832
 30
0.0
 10
336.6657552083333
 20
615.4273790147569
 30
0.0
 10
336.6850477430555
 20
616.0550754123263
 30
0.0
 10
336.7074408637152
 20
616.6765706380207
 30
0.0
 10
336.7263888888888
 20
617.2563802083333
 30
0.0
 10
336.7263888888888
 20
617.2563802083333
 30
0.0
  0
SPLINE
  5
10A
330
A
100
AcDbEntity
  8
LAYER_1
 62
     7
100
AcDbSpline
210
0.0
220
0.0
230
1.0
 70
    11
 71
     3
 72
    23
 73
    19
 74
     0
 42
0.000000001
 43
0.00000001
 40
0.0
 40
0.0
 40
0.0
 40
0.0
 40
1.0
 40
1.0
 40
1.0
 40
2.0
 40
2.0
 40
2.0
 40
3.0
 40
3.0
 40
3.0
 40
4.0
 40
4.0
 40
4.0
 40
5.0
 40
5.0
 40
5.0
 40
6.0
 40
6.0
 40
6.0
 40
6.0
 10
338.2050238715278
 20
614.2164279513888
 30
0.0
 10
338.2050238715278
 20
614.2164279513888
 30
0.0
 10
337.9021999782986
 20
614.3852376302083
 30
0.0
 10
338.6384168836805
 20
615.3829372829861
 30
0.0
 10
339.3808349609375
 20
616.3799479166667
 30
0.0
 10
339.3456949869791
 20
616.3799479166667
 30
0.0
 10
339.3935818142361
 20
616.4216335720486
 30
0.0
 10
339.4383680555555
 20
616.4695203993055
 30
0.0
 10
340.1008599175347
 20
615.8287326388888
 30
0.0
 10
340.1008599175347
 20
615.8287326388888
 30
0.0
 10
340.1008599175347
 20
615.8287326388888
 30
0.0
 10
340.5184054904514
 20
614.8186306423611
 30
0.0
 10
340.4546712239583
 20
614.69736328125
 30
0.0
 10
340.3943820529514
 20
614.579541015625
 30
0.0
 10
340.4484700520833
 20
614.0252251519097
 30
0.0
 10
340.4484700520833
 20
614.0252251519097
 30
0.0
 10
340.4484700520833
 20
614.0252251519097
 30
0.0
 10
338.2050238715278
 20
614.2164279513888
 30
0.0
 10
338.2050238715278
 20
614.2164279513888
 30
0.0
  0
SPLINE
  5
109
330
A
100
AcDbEntity
  8
LAYER_1
 62
     7
100
AcDbSpline
210
0.0
220
0.0
230
1.0
 70
     8
 71
     3
 72
    32
 73
    28
 74
     0
 42
0.000000001
 43
0.00000001
 40
0.0
 40
0.0
 40
0.0
 40
0.0
 40
1.0
 40
1.0
 40
1.0
 40
2.0
 40
2.0
 40
2.0
 40
3.0
 40
3.0
 40
3.0
 40
4.0
 40
4.0
 40
4.0
 40
5.0
 40
5.0
 40
5.0
 40
6.0
 40
6.0
 40
6.0
 40
7.0
 40
7.0
 40
7.0
 40
8.0
 40
8.0
 40
8.0
 40
9.0
 40
9.0
 40
9.0
 40
9.0
 10
339.8397216796874
 20
608.4486490885416
 30
0.0
 10
339.8683159722222
 20
608.1361789279513
 30
0.0
 10
339.7759874131944
 20
607.8047607421875
 30
0.0
 10
339.7697862413194
 20
607.4860894097221
 30
0.0
 10
339.7663411458333
 20
607.1863661024305
 30
0.0
 10
339.788734266493
 20
606.8618381076388
 30
0.0
 10
339.7315456814236
 20
606.5683159722222
 30
0.0
 10
339.7060519748264
 20
606.4153537326388
 30
0.0
 10
339.5816840277777
 20
606.2878851996527
 30
0.0
 10
339.5179497612847
 20
606.141468641493
 30
0.0
 10
339.3904812282986
 20
605.8675835503471
 30
0.0
 10
339.2309733072917
 20
605.3129231770832
 30
0.0
 10
338.870960828993
 20
605.2650363498263
 30
0.0
 10
338.6925048828124
 20
605.2426432291666
 30
0.0
 10
338.5044026692708
 20
605.4245442708333
 30
0.0
 10
338.3259467230902
 20
605.4465928819444
 30
0.0
 10
338.1540364583333
 20
605.4596842447916
 30
0.0
 10
338.007275390625
 20
605.3925048828124
 30
0.0
 10
337.8384657118055
 20
605.3639105902777
 30
0.0
 10
337.3382378472222
 20
605.287429470486
 30
0.0
 10
336.9334391276041
 20
605.4179985894096
 30
0.0
 10
336.458704969618
 20
605.5423665364583
 30
0.0
 10
335.9646782769097
 20
605.6760362413194
 30
0.0
 10
335.4196641710069
 20
605.7973036024305
 30
0.0
 10
334.9831705729167
 20
606.0584418402777
 30
0.0
 10
334.9831705729167
 20
606.0584418402777
 30
0.0
 10
334.9959174262153
 20
606.0649875217014
 30
0.0
 10
335.0024631076388
 20
606.0742892795138
 30
0.0
  0
SPLINE
  5
108
330
A
100
AcDbEntity
  8
LAYER_1
 62
     7
100
AcDbSpline
210
0.0
220
0.0
230
1.0
 70
    11
 71
     3
 72
    32
 73
    28
 74
     0
 42
0.000000001
 43
0.00000001
 40
0.0
 40
0.0
 40
0.0
 40
0.0
 40
1.0
 40
1.0
 40
1.0
 40
2.0
 40
2.0
 40
2.0
 40
3.0
 40
3.0
 40
3.0
 40
4.0
 40
4.0
 40
4.0
 40
5.0
 40
5.0
 40
5.0
 40
6.0
 40
6.0
 40
6.0
 40
7.0
 40
7.0
 40
7.0
 40
8.0
 40
8.0
 40
8.0
 40
9.0
 40
9.0
 40
9.0
 40
9.0
 10
334.8495008680555
 20
602.2474772135416
 30
0.0
 10
334.8495008680555
 20
602.2474772135416
 30
0.0
 10
335.9105902777778
 20
603.8342881944444
 30
0.0
 10
336.1241861979166
 20
603.8790744357639
 30
0.0
 10
336.3374376085069
 20
603.9235161675347
 30
0.0
 10
337.6441623263889
 20
604.076478407118
 30
0.0
 10
337.6793023003472
 20
604.2738823784722
 30
0.0
 10
337.6793023003472
 20
604.2738823784722
 30
0.0
 10
338.6542643229166
 20
604.6914279513888
 30
0.0
 10
338.6797580295138
 20
604.4171983506944
 30
0.0
 10
338.7083523220486
 20
604.1433132595486
 30
0.0
 10
338.9505425347222
 20
603.8087944878472
 30
0.0
 10
338.6863037109375
 20
603.3692003038194
 30
0.0
 10
338.4248209635417
 20
602.9358072916666
 30
0.0
 10
338.5970757378472
 20
602.0497287326389
 30
0.0
 10
338.5970757378472
 20
602.0497287326389
 30
0.0
 10
338.5970757378472
 20
602.0497287326389
 30
0.0
 10
338.5746826171875
 20
600.9727918836805
 30
0.0
 10
338.5746826171875
 20
600.9727918836805
 30
0.0
 10
338.5746826171875
 20
600.9727918836805
 30
0.0
 10
337.946986219618
 20
600.5518012152777
 30
0.0
 10
337.5993760850694
 20
600.5838406032985
 30
0.0
 10
337.2521104600694
 20
600.6189805772569
 30
0.0
 10
336.5158935546875
 20
600.3385498046874
 30
0.0
 10
336.5158935546875
 20
600.3385498046874
 30
0.0
 10
336.5158935546875
 20
600.3385498046874
 30
0.0
 10
334.8495008680555
 20
602.2474772135416
 30
0.0
 10
334.8495008680555
 20
602.2474772135416
 30
0.0
  0
SPLINE
  5
107
330
A
100
AcDbEntity
  8
LAYER_1
 62
     7
100
AcDbSpline
210
0.0
220
0.0
230
1.0
 70
    11
 71
     3
 72
    29
 73
    25
 74
     0
 42
0.000000001
 43
0.00000001
 40
0.0
 40
0.0
 40
0.0
 40
0.0
 40
1.0
 40
1.0
 40
1.0
 40
2.0
 40
2.0
 40
2.0
 40
3.0
 40
3.0
 40
3.0
 40
4.0
 40
4.0
 40
4.0
 40
5.0
 40
5.0
 40
5.0
 40
6.0
 40
6.0
 40
6.0
 40
7.0
 40
7.0
 40
7.0
 40
8.0
 40
8.0
 40
8.0
 40
8.0
 10
336.5000461154514
 20
599.8379774305555
 30
0.0
 10
336.5000461154514
 20
599.8379774305555
 30
0.0
 10
337.7940239800347
 20
600.2779161241319
 30
0.0
 10
337.9786810980902
 20
600.4181315104166
 30
0.0
 10
338.1602376302083
 20
600.5456000434027
 30
0.0
 10
338.523695203993
 20
600.1824869791666
 30
0.0
 10
338.5364420572917
 20
599.8955105251736
 30
0.0
 10
338.5491889105903
 20
599.6023328993055
 30
0.0
 10
338.4151746961805
 20
598.0885579427082
 30
0.0
 10
338.4151746961805
 20
598.0885579427082
 30
0.0
 10
338.4151746961805
 20
598.0885579427082
 30
0.0
 10
338.6828586154514
 20
597.58212890625
 30
0.0
 10
338.5460883246528
 20
597.4481146918403
 30
0.0
 10
338.405872938368
 20
597.3141004774305
 30
0.0
 10
337.6283148871527
 20
596.7597846137152
 30
0.0
 10
337.6283148871527
 20
596.7597846137152
 30
0.0
 10
337.6283148871527
 20
596.7597846137152
 30
0.0
 10
335.8020697699653
 20
596.5303412543402
 30
0.0
 10
335.7479817708333
 20
597.0784559461805
 30
0.0
 10
335.6876925998263
 20
597.6265706380208
 30
0.0
 10
335.547132703993
 20
598.7038519965278
 30
0.0
 10
335.8244628906249
 20
599.188232421875
 30
0.0
 10
336.1017930772569
 20
599.6726128472221
 30
0.0
 10
336.5000461154514
 20
599.8379774305555
 30
0.0
 10
336.5000461154514
 20
599.8379774305555
 30
0.0
  0
SPLINE
  5
106
330
A
100
AcDbEntity
  8
LAYER_1
 62
     7
100
AcDbSpline
210
0.0
220
0.0
230
1.0
 70
    11
 71
     3
 72
    26
 73
    22
 74
     0
 42
0.000000001
 43
0.00000001
 40
0.0
 40
0.0
 40
0.0
 40
0.0
 40
1.0
 40
1.0
 40
1.0
 40
2.0
 40
2.0
 40
2.0
 40
3.0
 40
3.0
 40
3.0
 40
4.0
 40
4.0
 40
4.0
 40
5.0
 40
5.0
 40
5.0
 40
6.0
 40
6.0
 40
6.0
 40
7.0
 40
7.0
 40
7.0
 40
7.0
 10
335.7321343315972
 20
595.2429090711805
 30
0.0
 10
335.7321343315972
 20
595.2429090711805
 30
0.0
 10
336.4015163845486
 20
595.9057454427083
 30
0.0
 10
336.9334391276041
 20
595.8678493923611
 30
0.0
 10
337.4657063802083
 20
595.8358100043403
 30
0.0
 10
337.7971245659722
 20
595.6318603515624
 30
0.0
 10
337.7971245659722
 20
595.5364312065972
 30
0.0
 10
337.7940239800347
 20
595.4503038194443
 30
0.0
 10
337.835365125868
 20
594.4939453124999
 30
0.0
 10
337.6503634982639
 20
594.3571750217013
 30
0.0
 10
337.4657063802083
 20
594.2231608072916
 30
0.0
 10
337.1628824869791
 20
594.13427734375
 30
0.0
 10
336.8920979817708
 20
594.3189344618055
 30
0.0
 10
336.6178683810763
 20
594.5035915798611
 30
0.0
 10
336.1303873697917
 20
594.4939453124999
 30
0.0
 10
336.1303873697917
 20
594.4939453124999
 30
0.0
 10
336.1303873697917
 20
594.4939453124999
 30
0.0
 10
335.7097412109375
 20
594.4495035807291
 30
0.0
 10
335.6652994791667
 20
594.723388671875
 30
0.0
 10
335.6236138237847
 20
595.0010633680555
 30
0.0
 10
335.7321343315972
 20
595.2429090711805
 30
0.0
 10
335.7321343315972
 20
595.2429090711805
 30
0.0
  0
SPLINE
  5
105
330
A
100
AcDbEntity
  8
LAYER_1
 62
     7
100
AcDbSpline
210
0.0
220
0.0
230
1.0
 70
     8
 71
     3
 72
    14
 73
    10
 74
     0
 42
0.000000001
 43
0.00000001
 40
0.0
 40
0.0
 40
0.0
 40
0.0
 40
1.0
 40
1.0
 40
1.0
 40
2.0
 40
2.0
 40
2.0
 40
3.0
 40
3.0
 40
3.0
 40
3.0
 10
337.7557834201389
 20
592.5660698784721
 30
0.0
 10
337.5166937934027
 20
591.15771484375
 30
0.0
 10
338.0837565104167
 20
593.6877929687499
 30
0.0
 10
337.4657063802083
 20
593.7518717447916
 30
0.0
 10
336.8411105685764
 20
593.815261501736
 30
0.0
 10
336.3343370225694
 20
593.1145290798611
 30
0.0
 10
336.3343370225694
 20
593.1145290798611
 30
0.0
 10
336.3343370225694
 20
593.1145290798611
 30
0.0
 10
337.7812771267361
 20
591.8970323350694
 30
0.0
 10
337.6314154730903
 20
592.0947808159722
 30
0.0
  0
SPLINE
  5
104
330
A
100
AcDbEntity
  8
LAYER_1
 62
     7
100
AcDbSpline
210
0.0
220
0.0
230
1.0
 70
     8
 71
     3
 72
    26
 73
    22
 74
     0
 42
0.000000001
 43
0.00000001
 40
0.0
 40
0.0
 40
0.0
 40
0.0
 40
1.0
 40
1.0
 40
1.0
 40
2.0
 40
2.0
 40
2.0
 40
3.0
 40
3.0
 40
3.0
 40
4.0
 40
4.0
 40
4.0
 40
5.0
 40
5.0
 40
5.0
 40
6.0
 40
6.0
 40
6.0
 40
7.0
 40
7.0
 40
7.0
 40
7.0
 10
334.9163357204861
 20
588.6465847439235
 30
0.0
 10
334.9163357204861
 20
588.6465847439235
 30
0.0
 10
335.9712239583333
 20
591.5339192708333
 30
0.0
 10
335.8978434244792
 20
591.6868815104166
 30
0.0
 10
335.8213623046875
 20
591.83984375
 30
0.0
 10
337.5835286458333
 20
591.7823106553819
 30
0.0
 10
337.5835286458333
 20
591.7823106553819
 30
0.0
 10
337.5835286458333
 20
591.7823106553819
 30
0.0
 10
337.9307942708333
 20
591.4443467881944
 30
0.0
 10
337.8226182725694
 20
591.1832085503472
 30
0.0
 10
337.7140977647569
 20
590.9282714843749
 30
0.0
 10
337.1756293402777
 20
590.5841064453125
 30
0.0
 10
337.1597819010416
 20
590.2971299913194
 30
0.0
 10
337.1439344618055
 20
590.0042968749999
 30
0.0
 10
337.1184407552083
 20
588.8060926649305
 30
0.0
 10
337.1184407552083
 20
588.8060926649305
 30
0.0
 10
337.1184407552083
 20
588.8060926649305
 30
0.0
 10
336.8858968098958
 20
588.414040798611
 30
0.0
 10
336.5065917968749
 20
588.4746744791667
 30
0.0
 10
336.1241861979166
 20
588.5415093315971
 30
0.0
 10
335.4613498263889
 20
588.7868001302082
 30
0.0
 10
335.5216389973958
 20
588.8667263454861
 30
0.0
  0
SPLINE
  5
103
330
A
100
AcDbEntity
  8
LAYER_1
 62
     7
100
AcDbSpline
210
0.0
220
0.0
230
1.0
 70
    11
 71
     3
 72
    44
 73
    40
 74
     0
 42
0.000000001
 43
0.00000001
 40
0.0
 40
0.0
 40
0.0
 40
0.0
 40
1.0
 40
1.0
 40
1.0
 40
2.0
 40
2.0
 40
2.0
 40
3.0
 40
3.0
 40
3.0
 40
4.0
 40
4.0
 40
4.0
 40
5.0
 40
5.0
 40
5.0
 40
6.0
 40
6.0
 40
6.0
 40
7.0
 40
7.0
 40
7.0
 40
8.0
 40
8.0
 40
8.0
 40
9.0
 40
9.0
 40
9.0
 40
10.0
 40
10.0
 40
10.0
 40
11.0
 40
11.0
 40
11.0
 40
12.0
 40
12.0
 40
12.0
 40
13.0
 40
13.0
 40
13.0
 40
13.0
 10
336.0666531032986
 20
585.2145806206597
 30
0.0
 10
336.0666531032986
 20
585.2145806206597
 30
0.0
 10
339.0687093098958
 20
584.8097819010416
 30
0.0
 10
339.559290907118
 20
584.8673149956596
 30
0.0
 10
340.0436713324652
 20
584.9214029947916
 30
0.0
 10
341.2163818359375
 20
585.185986328125
 30
0.0
 10
341.4585720486111
 20
585.1349989149305
 30
0.0
 10
341.7007622612847
 20
585.0902126736111
 30
0.0
 10
342.777699110243
 20
584.6888590494791
 30
0.0
 10
342.883119032118
 20
584.5934299045139
 30
0.0
 10
342.9850938585069
 20
584.503857421875
 30
0.0
 10
344.0492838541666
 20
584.4466688368055
 30
0.0
 10
344.0492838541666
 20
584.4466688368055
 30
0.0
 10
344.0778781467014
 20
584.3574408637152
 30
0.0
 10
344.3617540147569
 20
583.7934787326388
 30
0.0
 10
343.9283610026042
 20
582.6238688151041
 30
0.0
 10
343.4915228949653
 20
581.4639051649305
 30
0.0
 10
343.50771484375
 20
579.7592719184028
 30
0.0
 10
343.50771484375
 20
579.7592719184028
 30
0.0
 10
343.50771484375
 20
579.7592719184028
 30
0.0
 10
343.5745496961805
 20
578.6341037326389
 30
0.0
 10
342.7267116970486
 20
578.7650173611111
 30
0.0
 10
341.8730170355902
 20
578.895241970486
 30
0.0
 10
341.6625217013889
 20
578.9272813585069
 30
0.0
 10
340.7512939453125
 20
578.825306532118
 30
0.0
 10
340.7512939453125
 20
578.825306532118
 30
0.0
 10
338.3641872829861
 20
578.6657986111111
 30
0.0
 10
338.3641872829861
 20
578.6657986111111
 30
0.0
 10
338.3641872829861
 20
578.6657986111111
 30
0.0
 10
337.2107693142361
 20
578.5576226128471
 30
0.0
 10
336.4173638237847
 20
579.6731445312499
 30
0.0
 10
335.6205132378472
 20
580.7883219401041
 30
0.0
 10
335.1268310546874
 20
581.8525119357638
 30
0.0
 10
335.1268310546874
 20
581.8525119357638
 30
0.0
 10
335.1268310546874
 20
581.8525119357638
 30
0.0
 10
335.8244628906249
 20
583.4269205729166
 30
0.0
 10
335.7927680121527
 20
583.3056532118055
 30
0.0
 10
335.764173719618
 20
583.184730360243
 30
0.0
 10
336.0666531032986
 20
585.2145806206597
 30
0.0
 10
336.0666531032986
 20
585.2145806206597
 30
0.0
  0
SPLINE
  5
102
330
A
100
AcDbEntity
  8
LAYER_1
 62
     7
100
AcDbSpline
210
0.0
220
0.0
230
1.0
 70
     8
 71
     3
 72
    41
 73
    37
 74
     0
 42
0.000000001
 43
0.00000001
 40
0.0
 40
0.0
 40
0.0
 40
0.0
 40
1.0
 40
1.0
 40
1.0
 40
2.0
 40
2.0
 40
2.0
 40
3.0
 40
3.0
 40
3.0
 40
4.0
 40
4.0
 40
4.0
 40
5.0
 40
5.0
 40
5.0
 40
6.0
 40
6.0
 40
6.0
 40
7.0
 40
7.0
 40
7.0
 40
8.0
 40
8.0
 40
8.0
 40
9.0
 40
9.0
 40
9.0
 40
10.0
 40
10.0
 40
10.0
 40
11.0
 40
11.0
 40
11.0
 40
12.0
 40
12.0
 40
12.0
 40
12.0
 10
337.9852267795139
 20
578.5193820529513
 30
0.0
 10
338.2401638454861
 20
578.5259277343749
 30
0.0
 10
338.5013020833333
 20
578.4969889322916
 30
0.0
 10
338.7689860026042
 20
578.5100802951389
 30
0.0
 10
339.0142768012153
 20
578.5259277343749
 30
0.0
 10
339.2247721354166
 20
578.6024088541666
 30
0.0
 10
339.4573160807291
 20
578.6279025607638
 30
0.0
 10
339.9100016276041
 20
578.6723442925347
 30
0.0
 10
340.365443250868
 20
578.5514214409721
 30
0.0
 10
340.8053819444444
 20
578.478040907118
 30
0.0
 10
341.1082058376736
 20
578.4239529079861
 30
0.0
 10
341.4299777560764
 20
578.4873426649305
 30
0.0
 10
341.7390028211805
 20
578.4460015190972
 30
0.0
 10
342.0449273003472
 20
578.3984592013888
 30
0.0
 10
342.137255859375
 20
578.1435221354166
 30
0.0
 10
342.0035861545139
 20
577.8916856553819
 30
0.0
 10
341.8854193793402
 20
577.6622422960069
 30
0.0
 10
341.8344319661458
 20
577.2415961371527
 30
0.0
 10
341.6466742621528
 20
577.0693413628471
 30
0.0
 10
341.5319525824652
 20
576.9642659505208
 30
0.0
 10
341.3245578342014
 20
576.9453179253471
 30
0.0
 10
341.1781412760416
 20
576.8943305121527
 30
0.0
 10
340.9965847439236
 20
576.8367974175346
 30
0.0
 10
340.8277750651042
 20
576.7827094184028
 30
0.0
 10
340.6713677300347
 20
576.6710883246527
 30
0.0
 10
340.5728379991319
 20
576.6073540581597
 30
0.0
 10
340.4963568793402
 20
576.5022786458333
 30
0.0
 10
340.3878363715277
 20
576.4478461371527
 30
0.0
 10
340.2317735460069
 20
576.3651638454861
 30
0.0
 10
340.0085313585069
 20
576.3396701388889
 30
0.0
 10
339.8300754123264
 20
576.3141764322916
 30
0.0
 10
339.4859103732638
 20
576.2693901909722
 30
0.0
 10
339.1386447482639
 20
576.3079752604166
 30
0.0
 10
338.7944797092014
 20
576.2824815538194
 30
0.0
 10
338.7179985894097
 20
576.2759358723957
 30
0.0
 10
338.5140489366319
 20
576.2535427517361
 30
0.0
 10
338.4951009114583
 20
576.2060004340277
 30
0.0
  0
SPLINE
  5
101
330
A
100
AcDbEntity
  8
LAYER_1
 62
     7
100
AcDbSpline
210
0.0
220
0.0
230
1.0
 70
     8
 71
     3
 72
    38
 73
    34
 74
     0
 42
0.000000001
 43
0.00000001
 40
0.0
 40
0.0
 40
0.0
 40
0.0
 40
1.0
 40
1.0
 40
1.0
 40
2.0
 40
2.0
 40
2.0
 40
3.0
 40
3.0
 40
3.0
 40
4.0
 40
4.0
 40
4.0
 40
5.0
 40
5.0
 40
5.0
 40
6.0
 40
6.0
 40
6.0
 40
7.0
 40
7.0
 40
7.0
 40
8.0
 40
8.0
 40
8.0
 40
9.0
 40
9.0
 40
9.0
 40
10.0
 40
10.0
 40
10.0
 40
11.0
 40
11.0
 40
11.0
 40
11.0
 10
339.3425944010417
 20
576.0144531249999
 30
0.0
 10
339.8876085069444
 20
576.0909342447916
 30
0.0
 10
340.4453694661458
 20
576.0626844618055
 30
0.0
 10
340.9869384765624
 20
576.2091010199653
 30
0.0
 10
341.3755452473958
 20
576.3141764322916
 30
0.0
 10
341.8027370876736
 20
576.4099500868055
 30
0.0
 10
342.2075358072917
 20
576.3079752604166
 30
0.0
 10
342.5706488715277
 20
576.2156467013889
 30
0.0
 10
342.8607259114583
 20
576.008251953125
 30
0.0
 10
342.8669270833333
 20
575.6065538194443
 30
0.0
 10
342.8669270833333
 20
575.3516167534722
 30
0.0
 10
342.7938910590278
 20
575.1001247829861
 30
0.0
 10
342.7394585503472
 20
574.8482883029513
 30
0.0
 10
342.6502305772569
 20
574.459681532118
 30
0.0
 10
342.5992431640624
 20
574.058327907986
 30
0.0
 10
342.5293077256944
 20
573.6628309461805
 30
0.0
 10
342.4049397786458
 20
572.9968939887152
 30
0.0
 10
342.3732449001736
 20
572.3020182291666
 30
0.0
 10
342.3157118055555
 20
571.6298800998263
 30
0.0
 10
342.2616238064236
 20
571.0562717013888
 30
0.0
 10
342.3859917534722
 20
570.4571695963541
 30
0.0
 10
342.2998643663194
 20
569.8835611979166
 30
0.0
 10
342.2392306857639
 20
569.4722167968749
 30
0.0
 10
341.7166097005208
 20
569.4853081597222
 30
0.0
 10
341.3820909288194
 20
569.529749891493
 30
0.0
 10
341.1526475694444
 20
569.5648898654514
 30
0.0
 10
340.9328504774305
 20
569.6348253038194
 30
0.0
 10
340.7034071180555
 20
569.6572184244791
 30
0.0
 10
340.5631917317708
 20
569.6734103732639
 30
0.0
 10
340.4322781032986
 20
569.641370985243
 30
0.0
 10
340.2889621310763
 20
569.6158772786458
 30
0.0
 10
340.2190266927083
 20
569.6031304253472
 30
0.0
 10
340.1074055989583
 20
569.5648898654514
 30
0.0
 10
340.1074055989583
 20
569.6317247178819
 30
0.0
  0
SPLINE
  5
100
330
A
100
AcDbEntity
  8
LAYER_1
 62
     7
100
AcDbSpline
210
0.0
220
0.0
230
1.0
 70
     8
 71
     3
 72
    32
 73
    28
 74
     0
 42
0.000000001
 43
0.00000001
 40
0.0
 40
0.0
 40
0.0
 40
0.0
 40
1.0
 40
1.0
 40
1.0
 40
2.0
 40
2.0
 40
2.0
 40
3.0
 40
3.0
 40
3.0
 40
4.0
 40
4.0
 40
4.0
 40
5.0
 40
5.0
 40
5.0
 40
6.0
 40
6.0
 40
6.0
 40
7.0
 40
7.0
 40
7.0
 40
8.0
 40
8.0
 40
8.0
 40
9.0
 40
9.0
 40
9.0
 40
9.0
 10
441.2840033637152
 20
621.8962348090278
 30
0.0
 10
441.2840033637152
 20
621.8962348090278
 30
0.0
 10
440.570179578993
 20
619.3851047092013
 30
0.0
 10
440.3820773654513
 20
618.9995985243055
 30
0.0
 10
440.1939751519097
 20
618.6075466579861
 30
0.0
 10
439.9838243272569
 20
618.1710530598958
 30
0.0
 10
439.9803792317708
 20
618.0783799913194
 30
0.0
 10
439.9803792317708
 20
617.9829508463541
 30
0.0
 10
439.8660020616319
 20
617.8234429253472
 30
0.0
 10
440.0730523003472
 20
617.6580783420138
 30
0.0
 10
440.277001953125
 20
617.4989149305555
 30
0.0
 10
440.8092692057292
 20
617.3552544487846
 30
0.0
 10
440.8506103515625
 20
617.2629258897568
 30
0.0
 10
440.8950520833333
 20
617.1702528211805
 30
0.0
 10
442.1793836805555
 20
618.2919759114583
 30
0.0
 10
442.1793836805555
 20
618.2919759114583
 30
0.0
 10
442.1793836805555
 20
618.2919759114583
 30
0.0
 10
443.2470187717013
 20
619.3661566840277
 30
0.0
 10
443.2470187717013
 20
619.3661566840277
 30
0.0
 10
443.2470187717013
 20
619.3661566840277
 30
0.0
 10
444.0659179687499
 20
620.5609157986111
 30
0.0
 10
443.9511962890625
 20
620.908181423611
 30
0.0
 10
443.8395751953125
 20
621.2526909722221
 30
0.0
 10
443.3362467447917
 20
621.3226264105903
 30
0.0
 10
442.459814453125
 20
621.4500949435763
 30
0.0
 10
441.5833821614583
 20
621.5710177951388
 30
0.0
 10
441.2616102430555
 20
621.9665147569444
 30
0.0
 10
441.2616102430555
 20
621.9665147569444
 30
0.0
  0
SPLINE
  5
FF
330
A
100
AcDbEntity
  8
LAYER_1
 62
     7
100
AcDbSpline
210
0.0
220
0.0
230
1.0
 70
    11
 71
     3
 72
    23
 73
    19
 74
     0
 42
0.000000001
 43
0.00000001
 40
0.0
 40
0.0
 40
0.0
 40
0.0
 40
1.0
 40
1.0
 40
1.0
 40
2.0
 40
2.0
 40
2.0
 40
3.0
 40
3.0
 40
3.0
 40
4.0
 40
4.0
 40
4.0
 40
5.0
 40
5.0
 40
5.0
 40
6.0
 40
6.0
 40
6.0
 40
6.0
 10
439.9359375
 20
617.7345594618055
 30
0.0
 10
439.9359375
 20
617.7345594618055
 30
0.0
 10
439.6682535807291
 20
616.3961398654513
 30
0.0
 10
439.4801513671874
 20
616.2366319444444
 30
0.0
 10
439.2954942491319
 20
616.077468532986
 30
0.0
 10
439.706494140625
 20
615.6568223741319
 30
0.0
 10
439.706494140625
 20
615.6568223741319
 30
0.0
 10
439.706494140625
 20
615.6568223741319
 30
0.0
 10
440.464759657118
 20
615.2809624565972
 30
0.0
 10
440.464759657118
 20
615.2809624565972
 30
0.0
 10
440.464759657118
 20
615.2809624565972
 30
0.0
 10
441.3284450954861
 20
616.0361273871528
 30
0.0
 10
441.3284450954861
 20
616.0361273871528
 30
0.0
 10
441.3284450954861
 20
616.0361273871528
 30
0.0
 10
441.5354953342014
 20
616.4757215711805
 30
0.0
 10
441.2616102430555
 20
616.7086100260416
 30
0.0
 10
440.9877251519097
 20
616.9408094618055
 30
0.0
 10
439.9359375
 20
617.7345594618055
 30
0.0
 10
439.9359375
 20
617.7345594618055
 30
0.0
  0
SPLINE
  5
FE
330
A
100
AcDbEntity
  8
LAYER_1
 62
     7
100
AcDbSpline
210
0.0
220
0.0
230
1.0
 70
    11
 71
     3
 72
    23
 73
    19
 74
     0
 42
0.000000001
 43
0.00000001
 40
0.0
 40
0.0
 40
0.0
 40
0.0
 40
1.0
 40
1.0
 40
1.0
 40
2.0
 40
2.0
 40
2.0
 40
3.0
 40
3.0
 40
3.0
 40
4.0
 40
4.0
 40
4.0
 40
5.0
 40
5.0
 40
5.0
 40
6.0
 40
6.0
 40
6.0
 40
6.0
 10
439.6747992621528
 20
614.3886827256944
 30
0.0
 10
439.6747992621528
 20
614.3886827256944
 30
0.0
 10
439.6076199001736
 20
614.8985568576388
 30
0.0
 10
440.1622802734374
 20
614.7325032552083
 30
0.0
 10
440.7134955512153
 20
614.567138671875
 30
0.0
 10
441.1754828559027
 20
614.7710883246527
 30
0.0
 10
440.9653320312499
 20
614.3790364583333
 30
0.0
 10
440.7548366970486
 20
613.9869845920139
 30
0.0
 10
440.2132676866319
 20
612.6485649956596
 30
0.0
 10
440.2132676866319
 20
612.6485649956596
 30
0.0
 10
440.2132676866319
 20
612.6485649956596
 30
0.0
 10
440.3693305121527
 20
612.0046766493055
 30
0.0
 10
439.999671766493
 20
612.0112223307291
 30
0.0
 10
439.6300130208333
 20
612.0112223307291
 30
0.0
 10
438.9130886501736
 20
612.0622097439235
 30
0.0
 10
439.0564046223958
 20
612.3870822482638
 30
0.0
 10
439.1966200086805
 20
612.7088541666666
 30
0.0
 10
439.6747992621528
 20
614.3886827256944
 30
0.0
 10
439.6747992621528
 20
614.3886827256944
 30
0.0
  0
SPLINE
  5
FD
330
A
100
AcDbEntity
  8
LAYER_1
 62
     7
100
AcDbSpline
210
0.0
220
0.0
230
1.0
 70
     8
 71
     3
 72
    23
 73
    19
 74
     0
 42
0.000000001
 43
0.00000001
 40
0.0
 40
0.0
 40
0.0
 40
0.0
 40
1.0
 40
1.0
 40
1.0
 40
2.0
 40
2.0
 40
2.0
 40
3.0
 40
3.0
 40
3.0
 40
4.0
 40
4.0
 40
4.0
 40
5.0
 40
5.0
 40
5.0
 40
6.0
 40
6.0
 40
6.0
 40
6.0
 10
439.24140625
 20
612.1100965711805
 30
0.0
 10
439.24140625
 20
612.1100965711805
 30
0.0
 10
439.1266845703125
 20
612.3615885416666
 30
0.0
 10
438.9099880642361
 20
611.8358669704861
 30
0.0
 10
438.7029378255208
 20
611.3039442274305
 30
0.0
 10
438.5337836371527
 20
610.7809787326388
 30
0.0
 10
438.5337836371527
 20
610.7809787326388
 30
0.0
 10
438.5337836371527
 20
610.7809787326388
 30
0.0
 10
438.9227349175347
 20
610.5646267361111
 30
0.0
 10
438.9227349175347
 20
610.5646267361111
 30
0.0
 10
438.9227349175347
 20
610.5646267361111
 30
0.0
 10
439.2476074218749
 20
610.2841959635416
 30
0.0
 10
439.4581027560764
 20
610.7206895616318
 30
0.0
 10
439.6716986762152
 20
611.1571831597222
 30
0.0
 10
439.9293918185763
 20
611.7118435329861
 30
0.0
 10
439.9293918185763
 20
611.7118435329861
 30
0.0
 10
439.9293918185763
 20
611.7118435329861
 30
0.0
 10
439.9548855251736
 20
612.0301703559027
 30
0.0
 10
439.8150146484375
 20
612.0112223307291
 30
0.0
  0
SPLINE
  5
FC
330
A
100
AcDbEntity
  8
LAYER_1
 62
     7
100
AcDbSpline
210
0.0
220
0.0
230
1.0
 70
    11
 71
     3
 72
    38
 73
    34
 74
     0
 42
0.000000001
 43
0.00000001
 40
0.0
 40
0.0
 40
0.0
 40
0.0
 40
1.0
 40
1.0
 40
1.0
 40
2.0
 40
2.0
 40
2.0
 40
3.0
 40
3.0
 40
3.0
 40
4.0
 40
4.0
 40
4.0
 40
5.0
 40
5.0
 40
5.0
 40
6.0
 40
6.0
 40
6.0
 40
7.0
 40
7.0
 40
7.0
 40
8.0
 40
8.0
 40
8.0
 40
9.0
 40
9.0
 40
9.0
 40
10.0
 40
10.0
 40
10.0
 40
11.0
 40
11.0
 40
11.0
 40
11.0
 10
438.5020887586805
 20
609.9238389756944
 30
0.0
 10
438.5020887586805
 20
609.9238389756944
 30
0.0
 10
438.4063151041667
 20
609.2513563368055
 30
0.0
 10
438.3329345703124
 20
609.0983940972221
 30
0.0
 10
438.2660997178819
 20
608.9330295138889
 30
0.0
 10
437.8392523871527
 20
607.7348253038194
 30
0.0
 10
437.8392523871527
 20
607.7348253038194
 30
0.0
 10
437.8392523871527
 20
607.7348253038194
 30
0.0
 10
437.4440999348958
 20
607.23115234375
 30
0.0
 10
437.9029866536458
 20
607.1133300781249
 30
0.0
 10
438.3618733723958
 20
606.9955078124999
 30
0.0
 10
439.24140625
 20
606.8012044270832
 30
0.0
 10
439.24140625
 20
606.8012044270832
 30
0.0
 10
439.24140625
 20
606.8012044270832
 30
0.0
 10
439.5600775824652
 20
606.6385959201389
 30
0.0
 10
439.7254421657986
 20
607.0974826388888
 30
0.0
 10
439.888050672743
 20
607.5563693576388
 30
0.0
 10
440.0537597656249
 20
607.807861328125
 30
0.0
 10
440.3086968315972
 20
607.8302544487847
 30
0.0
 10
440.5636338975694
 20
607.8492024739583
 30
0.0
 10
440.911244032118
 20
607.8430013020833
 30
0.0
 10
440.8633572048611
 20
608.14892578125
 30
0.0
 10
440.8216715494791
 20
608.4486490885416
 30
0.0
 10
440.6656087239583
 20
609.1431803385416
 30
0.0
 10
440.6656087239583
 20
609.1431803385416
 30
0.0
 10
440.6656087239583
 20
609.1431803385416
 30
0.0
 10
439.9328369140625
 20
609.4491048177083
 30
0.0
 10
439.9328369140625
 20
609.4491048177083
 30
0.0
 10
439.9328369140625
 20
609.4491048177083
 30
0.0
 10
439.470849609375
 20
609.7040418836805
 30
0.0
 10
439.0787977430555
 20
609.6403076171874
 30
0.0
 10
438.6867458767361
 20
609.5703721788194
 30
0.0
 10
438.5020887586805
 20
609.9238389756944
 30
0.0
 10
438.5020887586805
 20
609.9238389756944
 30
0.0
  0
SPLINE
  5
FB
330
A
100
AcDbEntity
  8
LAYER_1
 62
     7
100
AcDbSpline
210
0.0
220
0.0
230
1.0
 70
    11
 71
     3
 72
    29
 73
    25
 74
     0
 42
0.000000001
 43
0.00000001
 40
0.0
 40
0.0
 40
0.0
 40
0.0
 40
1.0
 40
1.0
 40
1.0
 40
2.0
 40
2.0
 40
2.0
 40
3.0
 40
3.0
 40
3.0
 40
4.0
 40
4.0
 40
4.0
 40
5.0
 40
5.0
 40
5.0
 40
6.0
 40
6.0
 40
6.0
 40
7.0
 40
7.0
 40
7.0
 40
8.0
 40
8.0
 40
8.0
 40
8.0
 10
437.5302273220486
 20
606.8618381076388
 30
0.0
 10
437.5302273220486
 20
606.8618381076388
 30
0.0
 10
437.475794813368
 20
605.8035047743055
 30
0.0
 10
437.4313530815972
 20
605.6381401909722
 30
0.0
 10
437.3803656684028
 20
605.4786322699653
 30
0.0
 10
437.1922634548611
 20
604.9753038194444
 30
0.0
 10
437.2336046006944
 20
604.7393147786457
 30
0.0
 10
437.2814914279513
 20
604.5098714192708
 30
0.0
 10
437.6700981987847
 20
604.3028211805555
 30
0.0
 10
437.6700981987847
 20
604.3028211805555
 30
0.0
 10
437.6700981987847
 20
604.3028211805555
 30
0.0
 10
438.3139865451388
 20
604.1784532335068
 30
0.0
 10
438.3139865451388
 20
604.1784532335068
 30
0.0
 10
438.3139865451388
 20
604.1784532335068
 30
0.0
 10
438.7504801432291
 20
604.0347927517361
 30
0.0
 10
438.7759738498264
 20
604.4492377387152
 30
0.0
 10
438.8080132378472
 20
604.8667833116319
 30
0.0
 10
438.8142144097222
 20
605.7656087239583
 30
0.0
 10
438.8142144097222
 20
605.7656087239583
 30
0.0
 10
438.8142144097222
 20
605.7656087239583
 30
0.0
 10
439.0247097439236
 20
606.3643663194443
 30
0.0
 10
438.7029378255208
 20
606.434646267361
 30
0.0
 10
438.3839219835069
 20
606.5076822916666
 30
0.0
 10
437.5302273220486
 20
606.8618381076388
 30
0.0
 10
437.5302273220486
 20
606.8618381076388
 30
0.0
  0
SPLINE
  5
FA
330
A
100
AcDbEntity
  8
LAYER_1
 62
     7
100
AcDbSpline
210
0.0
220
0.0
230
1.0
 70
    11
 71
     3
 72
    41
 73
    37
 74
     0
 42
0.000000001
 43
0.00000001
 40
0.0
 40
0.0
 40
0.0
 40
0.0
 40
1.0
 40
1.0
 40
1.0
 40
2.0
 40
2.0
 40
2.0
 40
3.0
 40
3.0
 40
3.0
 40
4.0
 40
4.0
 40
4.0
 40
5.0
 40
5.0
 40
5.0
 40
6.0
 40
6.0
 40
6.0
 40
7.0
 40
7.0
 40
7.0
 40
8.0
 40
8.0
 40
8.0
 40
9.0
 40
9.0
 40
9.0
 40
10.0
 40
10.0
 40
10.0
 40
11.0
 40
11.0
 40
11.0
 40
12.0
 40
12.0
 40
12.0
 40
12.0
 10
437.134730360243
 20
603.8852756076388
 30
0.0
 10
436.7778184678819
 20
603.7640082465277
 30
0.0
 10
437.0458468967013
 20
603.1425130208332
 30
0.0
 10
436.9755669487847
 20
602.8941216362847
 30
0.0
 10
436.8735921223958
 20
602.5596028645833
 30
0.0
 10
436.216956922743
 20
602.2281846788194
 30
0.0
 10
436.7716172960069
 20
601.9987413194444
 30
0.0
 10
436.9500732421874
 20
601.9253607855902
 30
0.0
 10
437.1540228949652
 20
601.8905653211805
 30
0.0
 10
437.3262776692708
 20
601.8140842013888
 30
0.0
 10
437.5109347873263
 20
601.7310574001735
 30
0.0
 10
437.6766438802083
 20
601.5846408420139
 30
0.0
 10
437.8550998263888
 20
601.4668185763888
 30
0.0
 10
438.1258843315972
 20
601.2849175347221
 30
0.0
 10
438.3553276909722
 20
600.8198296440971
 30
0.0
 10
438.7029378255208
 20
600.9727918836805
 30
0.0
 10
438.9099880642361
 20
601.0682210286458
 30
0.0
 10
439.0598497178819
 20
601.3042100694444
 30
0.0
 10
439.2062662760416
 20
601.4695746527777
 30
0.0
 10
439.3847222222222
 20
601.6611219618055
 30
0.0
 10
439.5311387803819
 20
601.6611219618055
 30
0.0
 10
439.7957221137152
 20
601.6928168402777
 30
0.0
 10
440.0985460069444
 20
601.7403591579861
 30
0.0
 10
440.3341905381944
 20
601.6673231336805
 30
0.0
 10
440.4361653645833
 20
602.0145887586805
 30
0.0
 10
440.5222927517361
 20
602.2984646267361
 30
0.0
 10
440.3596842447917
 20
602.412841796875
 30
0.0
 10
440.1684814453125
 20
602.5692491319444
 30
0.0
 10
439.7798746744791
 20
602.8941216362847
 30
0.0
 10
439.2892930772569
 20
603.4136420355902
 30
0.0
 10
438.7697726779513
 20
603.4835774739582
 30
0.0
 10
438.2726453993055
 20
603.5504123263888
 30
0.0
 10
437.8550998263888
 20
603.7481608072916
 30
0.0
 10
437.3676188151042
 20
603.8439344618055
 30
0.0
 10
437.2911376953124
 20
603.8597819010416
 30
0.0
 10
437.2146565755208
 20
603.8694281684027
 30
0.0
 10
437.134730360243
 20
603.8852756076388
 30
0.0
  0
SPLINE
  5
F9
330
A
100
AcDbEntity
  8
LAYER_1
 62
     7
100
AcDbSpline
210
0.0
220
0.0
230
1.0
 70
     8
 71
     3
 72
    44
 73
    40
 74
     0
 42
0.000000001
 43
0.00000001
 40
0.0
 40
0.0
 40
0.0
 40
0.0
 40
1.0
 40
1.0
 40
1.0
 40
2.0
 40
2.0
 40
2.0
 40
3.0
 40
3.0
 40
3.0
 40
4.0
 40
4.0
 40
4.0
 40
5.0
 40
5.0
 40
5.0
 40
6.0
 40
6.0
 40
6.0
 40
7.0
 40
7.0
 40
7.0
 40
8.0
 40
8.0
 40
8.0
 40
9.0
 40
9.0
 40
9.0
 40
10.0
 40
10.0
 40
10.0
 40
11.0
 40
11.0
 40
11.0
 40
12.0
 40
12.0
 40
12.0
 40
13.0
 40
13.0
 40
13.0
 40
13.0
 10
438.4480007595486
 20
600.8770182291667
 30
0.0
 10
438.2629991319444
 20
601.0172336154513
 30
0.0
 10
438.0177083333333
 20
600.8322319878472
 30
0.0
 10
437.823060438368
 20
600.7877902560763
 30
0.0
 10
437.6287570529514
 20
600.746449110243
 30
0.0
 10
437.3166314019097
 20
600.8387776692708
 30
0.0
 10
437.1540228949652
 20
600.7302571614583
 30
0.0
 10
436.9183783637152
 20
600.564892578125
 30
0.0
 10
436.9307807074653
 20
600.1377007378471
 30
0.0
 10
436.8766927083333
 20
599.8955105251736
 30
0.0
 10
436.7940104166667
 20
599.535498046875
 30
0.0
 10
436.7333767361111
 20
599.1052056206597
 30
0.0
 10
436.6124538845486
 20
598.7482937282986
 30
0.0
 10
436.5135796440972
 20
598.4551161024305
 30
0.0
 10
436.3764648437499
 20
598.2001790364583
 30
0.0
 10
436.3189317491319
 20
597.9004557291667
 30
0.0
 10
436.26484375
 20
597.6331163194444
 30
0.0
 10
436.1980088975694
 20
597.0846571180555
 30
0.0
 10
436.3320231119791
 20
596.8362657335069
 30
0.0
 10
436.5773139105902
 20
596.3708333333333
 30
0.0
 10
437.3452256944444
 20
596.9799262152777
 30
0.0
 10
437.699037000868
 20
597.0784559461805
 30
0.0
 10
438.2247585720486
 20
597.2186713324652
 30
0.0
 10
438.9099880642361
 20
597.0722547743055
 30
0.0
 10
439.3402804904513
 20
597.4991021050347
 30
0.0
 10
439.7192409939236
 20
597.8749620225694
 30
0.0
 10
439.5631781684027
 20
598.5953314887153
 30
0.0
 10
439.7798746744791
 20
599.0669650607638
 30
0.0
 10
439.8753038194444
 20
599.2771158854166
 30
0.0
 10
439.9614312065972
 20
599.4431694878472
 30
0.0
 10
439.9390380859375
 20
599.6822591145833
 30
0.0
 10
439.9135443793402
 20
599.946497938368
 30
0.0
 10
439.999671766493
 20
600.5139051649305
 30
0.0
 10
439.7860758463542
 20
600.6124348958333
 30
0.0
 10
439.5280381944444
 20
600.7302571614583
 30
0.0
 10
439.1456325954861
 20
600.5456000434027
 30
0.0
 10
438.8652018229166
 20
600.6858154296874
 30
0.0
 10
438.6963921440972
 20
600.7622965494791
 30
0.0
 10
438.6009629991319
 20
600.8515245225694
 30
0.0
 10
438.4256076388888
 20
600.8994113498263
 30
0.0
  0
SPLINE
  5
F8
330
A
100
AcDbEntity
  8
LAYER_1
 62
     7
100
AcDbSpline
210
0.0
220
0.0
230
1.0
 70
     8
 71
     3
 72
    14
 73
    10
 74
     0
 42
0.000000001
 43
0.00000001
 40
0.0
 40
0.0
 40
0.0
 40
0.0
 40
1.0
 40
1.0
 40
1.0
 40
2.0
 40
2.0
 40
2.0
 40
3.0
 40
3.0
 40
3.0
 40
3.0
 10
342.312611219618
 20
643.9989339192708
 30
0.0
 10
342.2137369791666
 20
643.4380723741319
 30
0.0
 10
342.137255859375
 20
642.8517171223958
 30
0.0
 10
342.01943359375
 20
642.2908555772569
 30
0.0
 10
341.9842936197916
 20
642.1475396050347
 30
0.0
 10
341.9556993272569
 20
641.6979546440972
 30
0.0
 10
341.7996365017361
 20
641.6345648871527
 30
0.0
 10
341.6752685546875
 20
641.5739312065972
 30
0.0
 10
341.3724446614583
 20
641.7554877387153
 30
0.0
 10
341.2897623697916
 20
641.8254231770833
 30
0.0
  0
SPLINE
  5
F7
330
A
100
AcDbEntity
  8
LAYER_1
 62
     7
100
AcDbSpline
210
0.0
220
0.0
230
1.0
 70
     8
 71
     3
 72
    26
 73
    22
 74
     0
 42
0.000000001
 43
0.00000001
 40
0.0
 40
0.0
 40
0.0
 40
0.0
 40
1.0
 40
1.0
 40
1.0
 40
2.0
 40
2.0
 40
2.0
 40
3.0
 40
3.0
 40
3.0
 40
4.0
 40
4.0
 40
4.0
 40
5.0
 40
5.0
 40
5.0
 40
6.0
 40
6.0
 40
6.0
 40
7.0
 40
7.0
 40
7.0
 40
7.0
 10
341.2704698350694
 20
641.5959798177083
 30
0.0
 10
341.4713189019097
 20
641.5515380859374
 30
0.0
 10
341.8154839409722
 20
641.2583604600694
 30
0.0
 10
341.8154839409722
 20
641.0447645399305
 30
0.0
 10
341.8154839409722
 20
640.8728542751736
 30
0.0
 10
341.7135091145833
 20
640.7198920355902
 30
0.0
 10
341.6528754340277
 20
640.5700303819444
 30
0.0
 10
341.5829399956597
 20
640.3853732638888
 30
0.0
 10
341.5987874348958
 20
640.2386121961805
 30
0.0
 10
341.5860405815972
 20
640.0408637152777
 30
0.0
 10
341.5670925564236
 20
639.8114203559027
 30
0.0
 10
341.5574462890625
 20
639.3432318793402
 30
0.0
 10
341.3087103949653
 20
639.2188639322916
 30
0.0
 10
341.1206081814236
 20
639.12998046875
 30
0.0
 10
340.8115831163194
 20
639.3304850260416
 30
0.0
 10
340.6396728515625
 20
639.3845730251736
 30
0.0
 10
340.6269259982639
 20
639.3845730251736
 30
0.0
 10
340.6269259982639
 20
639.3814724392361
 30
0.0
 10
340.6427734375
 20
639.3814724392361
 30
0.0
 10
340.6779134114583
 20
639.3911187065971
 30
0.0
 10
340.6458740234374
 20
639.4035210503472
 30
0.0
 10
340.6617214626736
 20
639.4228135850694
 30
0.0
  0
SPLINE
  5
F6
330
A
100
AcDbEntity
  8
LAYER_1
 62
     7
100
AcDbSpline
210
0.0
220
0.0
230
1.0
 70
     8
 71
     3
 72
    23
 73
    19
 74
     0
 42
0.000000001
 43
0.00000001
 40
0.0
 40
0.0
 40
0.0
 40
0.0
 40
1.0
 40
1.0
 40
1.0
 40
2.0
 40
2.0
 40
2.0
 40
3.0
 40
3.0
 40
3.0
 40
4.0
 40
4.0
 40
4.0
 40
5.0
 40
5.0
 40
5.0
 40
6.0
 40
6.0
 40
6.0
 40
6.0
 10
340.3210015190972
 20
638.8557508680555
 30
0.0
 10
340.5597466362847
 20
638.9322319878472
 30
0.0
 10
340.9135579427083
 20
638.8302571614582
 30
0.0
 10
340.9486979166666
 20
638.5753200954861
 30
0.0
 10
340.9741916232638
 20
638.3841172960069
 30
0.0
 10
340.9104573567708
 20
638.1867133246527
 30
0.0
 10
340.8594699435764
 20
638.0082573784722
 30
0.0
 10
340.7926350911458
 20
637.7595214843749
 30
0.0
 10
340.7512939453125
 20
637.5011393229166
 30
0.0
 10
340.700306532118
 20
637.2434461805555
 30
0.0
 10
340.6586208767361
 20
637.0202039930555
 30
0.0
 10
340.6045328776041
 20
636.8193549262152
 30
0.0
 10
340.5759385850694
 20
636.5930121527778
 30
0.0
 10
340.5631917317708
 20
636.4786349826388
 30
0.0
 10
340.5566460503472
 20
636.2839870876736
 30
0.0
 10
340.4546712239583
 20
636.2044053819444
 30
0.0
 10
340.3272026909722
 20
636.1024305555555
 30
0.0
 10
339.9162027994792
 20
636.15341796875
 30
0.0
 10
339.7473931206597
 20
636.1151774088542
 30
0.0
  0
SPLINE
  5
F5
330
A
100
AcDbEntity
  8
LAYER_1
 62
     7
100
AcDbSpline
210
0.0
220
0.0
230
1.0
 70
     8
 71
     3
 72
    20
 73
    16
 74
     0
 42
0.000000001
 43
0.00000001
 40
0.0
 40
0.0
 40
0.0
 40
0.0
 40
1.0
 40
1.0
 40
1.0
 40
2.0
 40
2.0
 40
2.0
 40
3.0
 40
3.0
 40
3.0
 40
4.0
 40
4.0
 40
4.0
 40
5.0
 40
5.0
 40
5.0
 40
5.0
 10
339.6485188802083
 20
635.6242513020833
 30
0.0
 10
339.7663411458333
 20
635.4967827690972
 30
0.0
 10
340.0340250651041
 20
635.2611382378471
 30
0.0
 10
340.0946587456597
 20
635.1112765842013
 30
0.0
 10
340.1773410373264
 20
634.9042263454861
 30
0.0
 10
340.1201524522569
 20
634.5156195746528
 30
0.0
 10
340.0884575737847
 20
634.2985785590278
 30
0.0
 10
340.0564181857638
 20
634.1011745876735
 30
0.0
 10
340.0212782118055
 20
633.8972249348958
 30
0.0
 10
340.0054307725694
 20
633.693275282118
 30
0.0
 10
339.9926839192708
 20
633.5847547743055
 30
0.0
 10
340.0212782118055
 20
633.4062988281249
 30
0.0
 10
339.9830376519097
 20
633.3043240017361
 30
0.0
 10
339.8810628255208
 20
633.0493869357638
 30
0.0
 10
339.6550645616319
 20
633.2216417100694
 30
0.0
 10
339.4700629340277
 20
633.2471354166667
 30
0.0
  0
SPLINE
  5
F4
330
A
100
AcDbEntity
  8
LAYER_1
 62
     7
100
AcDbSpline
210
0.0
220
0.0
230
1.0
 70
     8
 71
     3
 72
    41
 73
    37
 74
     0
 42
0.000000001
 43
0.00000001
 40
0.0
 40
0.0
 40
0.0
 40
0.0
 40
1.0
 40
1.0
 40
1.0
 40
2.0
 40
2.0
 40
2.0
 40
3.0
 40
3.0
 40
3.0
 40
4.0
 40
4.0
 40
4.0
 40
5.0
 40
5.0
 40
5.0
 40
6.0
 40
6.0
 40
6.0
 40
7.0
 40
7.0
 40
7.0
 40
8.0
 40
8.0
 40
8.0
 40
9.0
 40
9.0
 40
9.0
 40
10.0
 40
10.0
 40
10.0
 40
11.0
 40
11.0
 40
11.0
 40
12.0
 40
12.0
 40
12.0
 40
12.0
 10
339.6612657335069
 20
632.6387315538194
 30
0.0
 10
339.8876085069444
 20
632.2466796875
 30
0.0
 10
339.8493679470486
 20
631.857728407118
 30
0.0
 10
339.7856336805555
 20
631.4053873697916
 30
0.0
 10
339.7346462673611
 20
631.0705240885416
 30
0.0
 10
339.6678114149305
 20
630.7039659288193
 30
0.0
 10
339.5083034939236
 20
630.4111328124999
 30
0.0
 10
339.3680881076389
 20
630.1369032118055
 30
0.0
 10
339.2278727213541
 20
630.0411295572916
 30
0.0
 10
338.9284939236111
 20
630.1623969184027
 30
0.0
 10
338.8485677083333
 20
629.9966878255208
 30
0.0
 10
339.1865315755208
 20
629.9074598524305
 30
0.0
 10
339.1641384548611
 20
629.6973090277777
 30
0.0
 10
339.1386447482639
 20
629.4678656684027
 30
0.0
 10
338.8775065104167
 20
629.1743435329861
 30
0.0
 10
338.759339735243
 20
628.9738389756944
 30
0.0
 10
338.689404296875
 20
628.8525716145833
 30
0.0
 10
338.6098225911458
 20
628.7285481770833
 30
0.0
 10
338.5460883246528
 20
628.6010796440971
 30
0.0
 10
338.5078477647569
 20
628.5370008680555
 30
0.0
 10
338.4599609374999
 20
628.346142578125
 30
0.0
 10
338.4024278428819
 20
628.2951551649305
 30
0.0
 10
338.2815049913194
 20
628.2059271918403
 30
0.0
 10
337.8925537109375
 20
628.3206488715277
 30
0.0
 10
337.7971245659722
 20
628.3936848958333
 30
0.0
 10
337.9597330729167
 20
628.33994140625
 30
0.0
 10
338.3293918185764
 20
628.0209255642361
 30
0.0
 10
338.4375678168403
 20
627.8776095920139
 30
0.0
 10
338.6766574435763
 20
627.5654839409722
 30
0.0
 10
338.3166449652778
 20
627.1224446614583
 30
0.0
 10
338.2560112847222
 20
626.7782796223958
 30
0.0
 10
338.2112250434027
 20
626.5488362630208
 30
0.0
 10
338.3228461371527
 20
626.1502387152777
 30
0.0
 10
338.1729844835069
 20
625.9559353298611
 30
0.0
 10
338.0107204861111
 20
625.7395833333333
 30
0.0
 10
337.6727566189236
 20
625.7774793836805
 30
0.0
 10
337.4081732855902
 20
625.7361382378472
 30
0.0
  0
SPLINE
  5
F3
330
A
100
AcDbEntity
  8
LAYER_1
 62
     7
100
AcDbSpline
210
0.0
220
0.0
230
1.0
 70
     8
 71
     3
 72
    14
 73
    10
 74
     0
 42
0.000000001
 43
0.00000001
 40
0.0
 40
0.0
 40
0.0
 40
0.0
 40
1.0
 40
1.0
 40
1.0
 40
2.0
 40
2.0
 40
2.0
 40
3.0
 40
3.0
 40
3.0
 40
3.0
 10
337.7492377387152
 20
625.255202907986
 30
0.0
 10
338.0455159505208
 20
625.2930989583333
 30
0.0
 10
337.8067708333333
 20
624.5475802951388
 30
0.0
 10
337.7778320312499
 20
624.4139105902777
 30
0.0
 10
337.6824028862847
 20
623.992919921875
 30
0.0
 10
337.6376166449652
 20
623.5981119791666
 30
0.0
 10
337.612122938368
 20
623.1647189670139
 30
0.0
 10
337.4753526475694
 20
623.1581732855902
 30
0.0
 10
337.3254909939236
 20
623.1836669921875
 30
0.0
 10
337.2042236328124
 20
623.1261338975694
 30
0.0
  0
SPLINE
  5
F2
330
A
100
AcDbEntity
  8
LAYER_1
 62
     7
100
AcDbSpline
210
0.0
220
0.0
230
1.0
 70
     8
 71
     3
 72
    11
 73
     7
 74
     0
 42
0.000000001
 43
0.00000001
 40
0.0
 40
0.0
 40
0.0
 40
0.0
 40
1.0
 40
1.0
 40
1.0
 40
2.0
 40
2.0
 40
2.0
 40
2.0
 10
337.494300672743
 20
622.7247802734374
 30
0.0
 10
337.4846544053819
 20
622.1384250217013
 30
0.0
 10
337.2872504340277
 20
621.5617160373263
 30
0.0
 10
337.3254909939236
 20
620.9657145182291
 30
0.0
 10
337.3637315538194
 20
620.9564127604166
 30
0.0
 10
337.3540852864583
 20
620.9784613715277
 30
0.0
 10
337.376478407118
 20
621.0039550781249
 30
0.0
  0
SPLINE
  5
F1
330
A
100
AcDbEntity
  8
LAYER_1
 62
     7
100
AcDbSpline
210
0.0
220
0.0
230
1.0
 70
     8
 71
     3
 72
    14
 73
    10
 74
     0
 42
0.000000001
 43
0.00000001
 40
0.0
 40
0.0
 40
0.0
 40
0.0
 40
1.0
 40
1.0
 40
1.0
 40
2.0
 40
2.0
 40
2.0
 40
3.0
 40
3.0
 40
3.0
 40
3.0
 10
336.3215901692708
 20
614.4169325086805
 30
0.0
 10
336.4108181423611
 20
614.1337456597222
 30
0.0
 10
336.2037679036458
 20
613.7447943793402
 30
0.0
 10
336.0825005425347
 20
613.4964029947917
 30
0.0
 10
335.9391845703125
 20
613.202880859375
 30
0.0
 10
335.9105902777778
 20
613.2573133680555
 30
0.0
 10
335.6429063585069
 20
613.2828070746527
 30
0.0
 10
335.5057915581597
 20
613.2986545138888
 30
0.0
 10
335.2987413194444
 20
613.2414659288194
 30
0.0
 10
335.193665907118
 20
613.3303493923611
 30
0.0
  0
SPLINE
  5
F0
330
A
100
AcDbEntity
  8
LAYER_1
 62
     7
100
AcDbSpline
210
0.0
220
0.0
230
1.0
 70
     8
 71
     3
 72
    35
 73
    31
 74
     0
 42
0.000000001
 43
0.00000001
 40
0.0
 40
0.0
 40
0.0
 40
0.0
 40
1.0
 40
1.0
 40
1.0
 40
2.0
 40
2.0
 40
2.0
 40
3.0
 40
3.0
 40
3.0
 40
4.0
 40
4.0
 40
4.0
 40
5.0
 40
5.0
 40
5.0
 40
6.0
 40
6.0
 40
6.0
 40
7.0
 40
7.0
 40
7.0
 40
8.0
 40
8.0
 40
8.0
 40
9.0
 40
9.0
 40
9.0
 40
10.0
 40
10.0
 40
10.0
 40
10.0
 10
335.0565511067708
 20
613.0754123263888
 30
0.0
 10
335.1647271050347
 20
613.0244249131944
 30
0.0
 10
335.2191596137152
 20
612.9035020616319
 30
0.0
 10
335.3083875868055
 20
612.8204752604166
 30
0.0
 10
335.4103624131944
 20
612.7219455295138
 30
0.0
 10
335.540931532118
 20
612.6485649956596
 30
0.0
 10
335.6556532118055
 20
612.5624376085069
 30
0.0
 10
335.9391845703125
 20
612.3491861979167
 30
0.0
 10
336.0284125434027
 20
612.2086263020833
 30
0.0
 10
336.0411593967013
 20
611.8455132378472
 30
0.0
 10
336.05390625
 20
611.4503607855902
 30
0.0
 10
335.9901719835069
 20
611.0869032118055
 30
0.0
 10
335.8723497178819
 20
610.7079427083332
 30
0.0
 10
335.8372097439236
 20
610.5932210286458
 30
0.0
 10
335.770374891493
 20
610.3193359375
 30
0.0
 10
335.652552625868
 20
610.2649034288194
 30
0.0
 10
335.5281846788194
 20
610.2139160156249
 30
0.0
 10
335.2191596137152
 20
610.3541314019096
 30
0.0
 10
335.1137396918402
 20
610.3985731336805
 30
0.0
 10
335.2446533203125
 20
610.3096896701388
 30
0.0
 10
335.477197265625
 20
610.2456108940971
 30
0.0
 10
335.5760715060763
 20
610.1246880425347
 30
0.0
 10
335.6938937717014
 20
609.98447265625
 30
0.0
 10
335.652552625868
 20
609.7295355902777
 30
0.0
 10
335.652552625868
 20
609.5510796440972
 30
0.0
 10
335.6491075303819
 20
609.3981174045139
 30
0.0
 10
335.7321343315972
 20
609.0825466579861
 30
0.0
 10
335.652552625868
 20
608.9454318576388
 30
0.0
 10
335.59501953125
 20
608.8500027126736
 30
0.0
 10
335.3307807074652
 20
608.7352810329861
 30
0.0
 10
335.2319064670139
 20
608.7352810329861
 30
0.0
  0
SPLINE
  5
EF
330
A
100
AcDbEntity
  8
LAYER_1
 62
     7
100
AcDbSpline
210
0.0
220
0.0
230
1.0
 70
     8
 71
     3
 72
    23
 73
    19
 74
     0
 42
0.000000001
 43
0.00000001
 40
0.0
 40
0.0
 40
0.0
 40
0.0
 40
1.0
 40
1.0
 40
1.0
 40
2.0
 40
2.0
 40
2.0
 40
3.0
 40
3.0
 40
3.0
 40
4.0
 40
4.0
 40
4.0
 40
5.0
 40
5.0
 40
5.0
 40
6.0
 40
6.0
 40
6.0
 40
6.0
 10
335.4837429470486
 20
608.3976616753472
 30
0.0
 10
335.5602240668402
 20
608.155126953125
 30
0.0
 10
335.5695258246528
 20
607.8047607421875
 30
0.0
 10
335.5185384114583
 20
607.5498236762152
 30
0.0
 10
335.4548041449652
 20
607.224951171875
 30
0.0
 10
335.1392333984375
 20
607.364822048611
 30
0.0
 10
334.8749945746528
 20
607.364822048611
 30
0.0
 10
335.1426784939236
 20
607.1608723958333
 30
0.0
 10
335.2033121744792
 20
606.8136067708333
 30
0.0
 10
335.129931640625
 20
606.4794325086805
 30
0.0
 10
335.1106391059027
 20
606.3898600260416
 30
0.0
 10
335.0248562282986
 20
606.1669623480902
 30
0.0
 10
334.9576768663194
 20
606.1032280815972
 30
0.0
 10
334.8842963324652
 20
606.0267469618055
 30
0.0
 10
334.7092854817708
 20
605.9723144531249
 30
0.0
 10
334.6038655598958
 20
605.912025282118
 30
0.0
 10
334.6007649739583
 20
605.8579372829861
 30
0.0
 10
334.5787163628472
 20
605.8100504557291
 30
0.0
 10
334.5787163628472
 20
605.7590630425346
 30
0.0
  0
SPLINE
  5
EE
330
A
100
AcDbEntity
  8
LAYER_1
 62
     7
100
AcDbSpline
210
0.0
220
0.0
230
1.0
 70
     8
 71
     3
 72
    38
 73
    34
 74
     0
 42
0.000000001
 43
0.00000001
 40
0.0
 40
0.0
 40
0.0
 40
0.0
 40
1.0
 40
1.0
 40
1.0
 40
2.0
 40
2.0
 40
2.0
 40
3.0
 40
3.0
 40
3.0
 40
4.0
 40
4.0
 40
4.0
 40
5.0
 40
5.0
 40
5.0
 40
6.0
 40
6.0
 40
6.0
 40
7.0
 40
7.0
 40
7.0
 40
8.0
 40
8.0
 40
8.0
 40
9.0
 40
9.0
 40
9.0
 40
10.0
 40
10.0
 40
10.0
 40
11.0
 40
11.0
 40
11.0
 40
11.0
 10
334.9673231336805
 20
605.5168728298611
 30
0.0
 10
334.964222547743
 20
605.0386935763888
 30
0.0
 10
334.9290825737847
 20
604.5608588324652
 30
0.0
 10
334.858802625868
 20
604.0892252604166
 30
0.0
 10
334.8143608940972
 20
603.7640082465277
 30
0.0
 10
334.8174614800347
 20
603.6971733940971
 30
0.0
 10
334.5242838541666
 20
603.5411105685763
 30
0.0
 10
334.4288547092013
 20
603.4901231553819
 30
0.0
 10
334.3585747612847
 20
603.5345648871527
 30
0.0
 10
334.3651204427083
 20
603.4008951822916
 30
0.0
 10
334.3682210286458
 20
603.3561089409721
 30
0.0
 10
334.5308295355903
 20
603.2096923828125
 30
0.0
 10
334.559423828125
 20
603.1680067274305
 30
0.0
 10
334.7954128689236
 20
602.8272867838541
 30
0.0
 10
334.7888671875
 20
602.5086154513888
 30
0.0
 10
334.6644992404513
 20
602.1262098524305
 30
0.0
 10
334.6073106553819
 20
601.9350070529513
 30
0.0
 10
334.4639946831597
 20
601.7469048394097
 30
0.0
 10
334.32998046875
 20
601.5970431857638
 30
0.0
 10
334.2472981770833
 20
601.5016140407986
 30
0.0
 10
334.2025119357639
 20
601.4923122829861
 30
0.0
 10
334.1673719618055
 20
601.380691189236
 30
0.0
 10
334.1387776692708
 20
601.2911187065972
 30
0.0
 10
334.1611707899305
 20
601.1798421223958
 30
0.0
 10
334.1418782552083
 20
601.0871690538194
 30
0.0
 10
334.1070827907986
 20
600.9314507378472
 30
0.0
 10
333.9475748697917
 20
600.6699679904514
 30
0.0
 10
333.7884114583333
 20
600.6027886284721
 30
0.0
 10
333.6609429253472
 20
600.5456000434027
 30
0.0
 10
333.5207275390625
 20
600.6444742838542
 30
0.0
 10
333.3963595920139
 20
600.5710937499999
 30
0.0
 10
333.4600938585069
 20
600.5456000434027
 30
0.0
 10
333.4314995659722
 20
600.5903862847222
 30
0.0
 10
333.4535481770833
 20
600.6062337239583
 30
0.0
  0
SPLINE
  5
ED
330
A
100
AcDbEntity
  8
LAYER_1
 62
     7
100
AcDbSpline
210
0.0
220
0.0
230
1.0
 70
     8
 71
     3
 72
    29
 73
    25
 74
     0
 42
0.000000001
 43
0.00000001
 40
0.0
 40
0.0
 40
0.0
 40
0.0
 40
1.0
 40
1.0
 40
1.0
 40
2.0
 40
2.0
 40
2.0
 40
3.0
 40
3.0
 40
3.0
 40
4.0
 40
4.0
 40
4.0
 40
5.0
 40
5.0
 40
5.0
 40
6.0
 40
6.0
 40
6.0
 40
7.0
 40
7.0
 40
7.0
 40
8.0
 40
8.0
 40
8.0
 40
8.0
 10
333.5810167100694
 20
599.8190294053819
 30
0.0
 10
333.864892578125
 20
599.8159288194444
 30
0.0
 10
334.0271565755208
 20
599.8445231119791
 30
0.0
 10
334.1546251085069
 20
599.5640923394096
 30
0.0
 10
334.275892469618
 20
599.2964084201388
 30
0.0
 10
334.1801188151042
 20
599.0607638888888
 30
0.0
 10
333.9730685763889
 20
598.8757622612846
 30
0.0
 10
333.4886881510416
 20
598.4358235677083
 30
0.0
 10
332.7972574869792
 20
598.5763834635416
 30
0.0
 10
332.2425971137152
 20
598.3149007161458
 30
0.0
 10
332.5102810329861
 20
598.3689887152777
 30
0.0
 10
332.8482449001736
 20
598.4613172743055
 30
0.0
 10
333.1221299913194
 20
598.4296223958332
 30
0.0
 10
333.4314995659722
 20
598.4010281032986
 30
0.0
 10
333.3739664713542
 20
598.1429904513889
 30
0.0
 10
333.3932590060763
 20
597.9004557291667
 30
0.0
 10
333.4280544704861
 20
597.5276963975693
 30
0.0
 10
333.3836127387153
 20
597.1742296006944
 30
0.0
 10
333.3805121527777
 20
596.8042263454861
 30
0.0
 10
333.3805121527777
 20
596.6450629340277
 30
0.0
 10
333.4314995659722
 20
596.4156195746527
 30
0.0
 10
333.240296766493
 20
596.3646321614583
 30
0.0
 10
333.1445231119791
 20
596.3453396267361
 30
0.0
 10
332.9946614583333
 20
596.4283664279513
 30
0.0
 10
332.9278266059027
 20
596.450759548611
 30
0.0
  0
SPLINE
  5
EC
330
A
100
AcDbEntity
  8
LAYER_1
 62
     7
100
AcDbSpline
210
0.0
220
0.0
230
1.0
 70
     8
 71
     3
 72
    14
 73
    10
 74
     0
 42
0.000000001
 43
0.00000001
 40
0.0
 40
0.0
 40
0.0
 40
0.0
 40
1.0
 40
1.0
 40
1.0
 40
2.0
 40
2.0
 40
2.0
 40
3.0
 40
3.0
 40
3.0
 40
3.0
 10
333.0201551649305
 20
595.976025390625
 30
0.0
 10
333.7722195095486
 20
595.96982421875
 30
0.0
 10
333.5906629774305
 20
595.1474799262152
 30
0.0
 10
333.5620686848958
 20
594.599365234375
 30
0.0
 10
333.5427761501736
 20
594.2169596354166
 30
0.0
 10
333.5555230034722
 20
593.8218071831596
 30
0.0
 10
333.4504475911458
 20
593.458349609375
 30
0.0
 10
333.3260796440972
 20
593.0187554253472
 30
0.0
 10
332.9691677517361
 20
593.2674913194444
 30
0.0
 10
332.6473958333333
 20
593.2929850260416
 30
0.0
  0
SPLINE
  5
EB
330
A
100
AcDbEntity
  8
LAYER_1
 62
     7
100
AcDbSpline
210
0.0
220
0.0
230
1.0
 70
     8
 71
     3
 72
    20
 73
    16
 74
     0
 42
0.000000001
 43
0.00000001
 40
0.0
 40
0.0
 40
0.0
 40
0.0
 40
1.0
 40
1.0
 40
1.0
 40
2.0
 40
2.0
 40
2.0
 40
3.0
 40
3.0
 40
3.0
 40
4.0
 40
4.0
 40
4.0
 40
5.0
 40
5.0
 40
5.0
 40
5.0
 10
332.6250027126736
 20
593.0759440104166
 30
0.0
 10
333.0012071397569
 20
592.885085720486
 30
0.0
 10
333.0298014322917
 20
592.7000840928819
 30
0.0
 10
333.0267008463541
 20
592.2856391059028
 30
0.0
 10
333.0236002604166
 20
591.9511203342014
 30
0.0
 10
332.905433485243
 20
591.7123752170138
 30
0.0
 10
332.905433485243
 20
591.3837131076389
 30
0.0
 10
332.899232313368
 20
591.1959554036458
 30
0.0
 10
332.9981065538194
 20
590.6285481770833
 30
0.0
 10
332.8131049262153
 20
590.5617133246527
 30
0.0
 10
332.6921820746527
 20
590.5172715928819
 30
0.0
 10
332.5230278862847
 20
590.644740125868
 30
0.0
 10
332.4117513020833
 20
590.6636881510416
 30
0.0
 10
332.2935845269097
 20
590.6860812717014
 30
0.0
 10
332.1661159939236
 20
590.6223470052083
 30
0.0
 10
332.1502685546874
 20
590.7849555121527
 30
0.0
  0
SPLINE
  5
EA
330
A
100
AcDbEntity
  8
LAYER_1
 62
     7
100
AcDbSpline
210
0.0
220
0.0
230
1.0
 70
     8
 71
     3
 72
    32
 73
    28
 74
     0
 42
0.000000001
 43
0.00000001
 40
0.0
 40
0.0
 40
0.0
 40
0.0
 40
1.0
 40
1.0
 40
1.0
 40
2.0
 40
2.0
 40
2.0
 40
3.0
 40
3.0
 40
3.0
 40
4.0
 40
4.0
 40
4.0
 40
5.0
 40
5.0
 40
5.0
 40
6.0
 40
6.0
 40
6.0
 40
7.0
 40
7.0
 40
7.0
 40
8.0
 40
8.0
 40
8.0
 40
9.0
 40
9.0
 40
9.0
 40
9.0
 10
332.0069525824653
 20
590.1951551649305
 30
0.0
 10
332.0896348741319
 20
590.01669921875
 30
0.0
 10
332.2808376736111
 20
589.8957763671874
 30
0.0
 10
332.3542182074652
 20
589.7014729817707
 30
0.0
 10
332.4592936197917
 20
589.4144965277777
 30
0.0
 10
332.3990044487847
 20
589.0224446614583
 30
0.0
 10
332.3638644748264
 20
588.7230658637152
 30
0.0
 10
332.3352701822917
 20
588.4615831163194
 30
0.0
 10
332.3128770616319
 20
588.3120659722222
 30
0.0
 10
332.0896348741319
 20
588.1876980251735
 30
0.0
 10
331.9018771701388
 20
588.0857231987846
 30
0.0
 10
331.7168755425347
 20
587.9582546657986
 30
0.0
 10
331.5194715711805
 20
587.8786729600694
 30
0.0
 10
331.7361680772569
 20
587.5248616536458
 30
0.0
 10
332.0579399956597
 20
587.2444308810764
 30
0.0
 10
331.9146240234375
 20
586.7855441623263
 30
0.0
 10
331.8570909288194
 20
586.6039876302083
 30
0.0
 10
331.7713080512153
 20
586.4730740017361
 30
0.0
 10
331.7361680772569
 20
586.2756700303819
 30
0.0
 10
331.7106743706597
 20
586.1099609375
 30
0.0
 10
331.68828125
 20
585.944251844618
 30
0.0
 10
331.634193250868
 20
585.7881890190972
 30
0.0
 10
331.4398898654513
 20
585.7912896050346
 30
0.0
 10
331.1177734375
 20
585.9631998697917
 30
0.0
 10
331.0064968532986
 20
586.1227077907986
 30
0.0
 10
330.9775580512152
 20
586.1416558159722
 30
0.0
 10
330.9841037326389
 20
586.103759765625
 30
0.0
 10
330.9713568793402
 20
586.103759765625
 30
0.0
  0
SPLINE
  5
E9
330
A
100
AcDbEntity
  8
LAYER_1
 62
     7
100
AcDbSpline
210
0.0
220
0.0
230
1.0
 70
     8
 71
     3
 72
    17
 73
    13
 74
     0
 42
0.000000001
 43
0.00000001
 40
0.0
 40
0.0
 40
0.0
 40
0.0
 40
1.0
 40
1.0
 40
1.0
 40
2.0
 40
2.0
 40
2.0
 40
3.0
 40
3.0
 40
3.0
 40
4.0
 40
4.0
 40
4.0
 40
4.0
 10
331.4777859157986
 20
585.784743923611
 30
0.0
 10
331.8030029296875
 20
585.6128336588541
 30
0.0
 10
331.8477891710069
 20
585.5298068576388
 30
0.0
 10
331.7713080512153
 20
585.1763400607639
 30
0.0
 10
331.6786349826389
 20
584.7333007812499
 30
0.0
 10
331.6755343967014
 20
584.2875054253471
 30
0.0
 10
331.6214463975694
 20
583.8603135850694
 30
0.0
 10
331.5990532769097
 20
583.643617078993
 30
0.0
 10
331.7106743706597
 20
583.0445149739583
 30
0.0
 10
331.4557373046875
 20
582.9618326822916
 30
0.0
 10
331.293128797743
 20
582.9108452690972
 30
0.0
 10
331.1370659722222
 20
583.0383138020833
 30
0.0
 10
331.0254448784722
 20
583.1209960937499
 30
0.0
  0
SPLINE
  5
E8
330
A
100
AcDbEntity
  8
LAYER_1
 62
     7
100
AcDbSpline
210
0.0
220
0.0
230
1.0
 70
     8
 71
     3
 72
    23
 73
    19
 74
     0
 42
0.000000001
 43
0.00000001
 40
0.0
 40
0.0
 40
0.0
 40
0.0
 40
1.0
 40
1.0
 40
1.0
 40
2.0
 40
2.0
 40
2.0
 40
3.0
 40
3.0
 40
3.0
 40
4.0
 40
4.0
 40
4.0
 40
5.0
 40
5.0
 40
5.0
 40
6.0
 40
6.0
 40
6.0
 40
6.0
 10
330.9203694661458
 20
582.7323893229166
 30
0.0
 10
331.1973551432291
 20
582.7034505208333
 30
0.0
 10
331.5832058376736
 20
582.2735026041667
 30
0.0
 10
331.5766601562499
 20
582.0309678819444
 30
0.0
 10
331.570458984375
 20
581.4831976996527
 30
0.0
 10
331.3665093315972
 20
580.947829861111
 30
0.0
 10
331.3537624782986
 20
580.3931694878472
 30
0.0
 10
331.3441162109374
 20
580.042458767361
 30
0.0
 10
331.3379150390625
 20
579.6920925564235
 30
0.0
 10
331.2900282118055
 20
579.3448269314235
 30
0.0
 10
331.2676350911458
 20
579.1756727430555
 30
0.0
 10
331.2738362630208
 20
578.8828396267361
 30
0.0
 10
331.1687608506944
 20
578.7395236545138
 30
0.0
 10
331.0254448784722
 20
578.5448757595485
 30
0.0
 10
330.8948757595486
 20
578.6341037326389
 30
0.0
 10
330.7705078124999
 20
578.7395236545138
 30
0.0
 10
330.6940266927083
 20
578.8125596788194
 30
0.0
 10
330.4201416015625
 20
578.9017876519097
 30
0.0
 10
330.4201416015625
 20
578.9048882378472
 30
0.0
  0
SPLINE
  5
E7
330
A
100
AcDbEntity
  8
LAYER_1
 62
     7
100
AcDbSpline
210
0.0
220
0.0
230
1.0
 70
     8
 71
     3
 72
    23
 73
    19
 74
     0
 42
0.000000001
 43
0.00000001
 40
0.0
 40
0.0
 40
0.0
 40
0.0
 40
1.0
 40
1.0
 40
1.0
 40
2.0
 40
2.0
 40
2.0
 40
3.0
 40
3.0
 40
3.0
 40
4.0
 40
4.0
 40
4.0
 40
5.0
 40
5.0
 40
5.0
 40
6.0
 40
6.0
 40
6.0
 40
6.0
 10
330.4711290147569
 20
578.1559244791666
 30
0.0
 10
331.7361680772569
 20
578.2578993055555
 30
0.0
 10
330.8311414930555
 20
575.5686577690972
 30
0.0
 10
330.7195203993055
 20
575.1797064887152
 30
0.0
 10
330.486976453993
 20
574.3511610243055
 30
0.0
 10
330.3912027994791
 20
573.4974663628471
 30
0.0
 10
330.1906982421875
 20
572.6685763888888
 30
0.0
 10
330.1331651475694
 20
572.4201850043402
 30
0.0
 10
329.9674560546875
 20
572.2765245225694
 30
0.0
 10
329.7538601345486
 20
572.1587022569444
 30
0.0
 10
329.6422390407986
 20
572.0953125
 30
0.0
 10
329.511669921875
 20
572.0091851128471
 30
0.0
 10
329.39384765625
 20
571.9898925781249
 30
0.0
 10
329.3204671223958
 20
571.9678439670139
 30
0.0
 10
329.2250379774305
 20
571.99609375
 30
0.0
 10
329.164404296875
 20
571.9678439670139
 30
0.0
 10
329.1740505642361
 20
571.9802463107638
 30
0.0
 10
329.1867974175347
 20
571.99609375
 30
0.0
 10
329.1995442708333
 20
572.0091851128471
 30
0.0
  0
POLYLINE
  5
DF
330
A
100
AcDbEntity
  8
LAYER_1
 62
     7
100
AcDb2dPolyline
 66
     1
 10
0.0
 20
0.0
 30
0.0
  0
VERTEX
  5
E0
330
DF
100
AcDbEntity
  8
LAYER_1
 62
     7
100
AcDbVertex
100
AcDb2dVertex
 10
344.151259
 20
583.471707
 30
0.0
  0
VERTEX
  5
E1
330
DF
100
AcDbEntity
  8
LAYER_1
 62
     7
100
AcDbVertex
100
AcDb2dVertex
 10
368.736494
 20
578.143522
 30
0.0
  0
VERTEX
  5
E2
330
DF
100
AcDbEntity
  8
LAYER_1
 62
     7
100
AcDbVertex
100
AcDb2dVertex
 10
376.30778
 20
575.759516
 30
0.0
  0
VERTEX
  5
E3
330
DF
100
AcDbEntity
  8
LAYER_1
 62
     7
100
AcDbVertex
100
AcDb2dVertex
 10
382.028016
 20
574.545464
 30
0.0
  0
VERTEX
  5
E4
330
DF
100
AcDbEntity
  8
LAYER_1
 62
     7
100
AcDbVertex
100
AcDb2dVertex
 10
386.122857
 20
573.270779
 30
0.0
  0
VERTEX
  5
E5
330
DF
100
AcDbEntity
  8
LAYER_1
 62
     7
100
AcDbVertex
100
AcDb2dVertex
 10
393.158775
 20
571.894119
 30
0.0
  0
SEQEND
  5
E6
330
DF
100
AcDbEntity
  8
LAYER_1
 62
     7
  0
SPLINE
  5
DE
330
A
100
AcDbEntity
  8
LAYER_1
 62
     7
100
AcDbSpline
210
0.0
220
0.0
230
1.0
 70
     8
 71
     3
 72
    77
 73
    73
 74
     0
 42
0.000000001
 43
0.00000001
 40
0.0
 40
0.0
 40
0.0
 40
0.0
 40
1.0
 40
1.0
 40
1.0
 40
2.0
 40
2.0
 40
2.0
 40
3.0
 40
3.0
 40
3.0
 40
4.0
 40
4.0
 40
4.0
 40
5.0
 40
5.0
 40
5.0
 40
6.0
 40
6.0
 40
6.0
 40
7.0
 40
7.0
 40
7.0
 40
8.0
 40
8.0
 40
8.0
 40
9.0
 40
9.0
 40
9.0
 40
10.0
 40
10.0
 40
10.0
 40
11.0
 40
11.0
 40
11.0
 40
12.0
 40
12.0
 40
12.0
 40
13.0
 40
13.0
 40
13.0
 40
14.0
 40
14.0
 40
14.0
 40
15.0
 40
15.0
 40
15.0
 40
16.0
 40
16.0
 40
16.0
 40
17.0
 40
17.0
 40
17.0
 40
18.0
 40
18.0
 40
18.0
 40
19.0
 40
19.0
 40
19.0
 40
20.0
 40
20.0
 40
20.0
 40
21.0
 40
21.0
 40
21.0
 40
22.0
 40
22.0
 40
22.0
 40
23.0
 40
23.0
 40
23.0
 40
24.0
 40
24.0
 40
24.0
 40
24.0
 10
366.7321370442708
 20
596.9668348524305
 30
0.0
 10
366.7321370442708
 20
596.9668348524305
 30
0.0
 10
369.7782904730902
 20
596.4728081597221
 30
0.0
 10
369.9856852213541
 20
596.3839246961805
 30
0.0
 10
370.1896348741319
 20
596.3039984809027
 30
0.0
 10
373.3887505425347
 20
595.5364312065972
 30
0.0
 10
373.3887505425347
 20
595.5364312065972
 30
0.0
 10
373.3887505425347
 20
595.5364312065972
 30
0.0
 10
376.9706163194444
 20
594.6310601128472
 30
0.0
 10
376.9706163194444
 20
594.6310601128472
 30
0.0
 10
376.9706163194444
 20
594.6310601128472
 30
0.0
 10
379.1282796223958
 20
594.1880208333333
 30
0.0
 10
379.2237087673611
 20
594.0894911024305
 30
0.0
 10
379.3191379123264
 20
593.9937174479167
 30
0.0
 10
381.1929253472222
 20
593.5541232638889
 30
0.0
 10
381.1929253472222
 20
593.5541232638889
 30
0.0
 10
381.1929253472222
 20
593.5541232638889
 30
0.0
 10
385.3769938151041
 20
592.885085720486
 30
0.0
 10
385.3769938151041
 20
592.885085720486
 30
0.0
 10
385.3769938151041
 20
592.885085720486
 30
0.0
 10
390.0550889756944
 20
592.3400716145833
 30
0.0
 10
390.0550889756944
 20
592.3400716145833
 30
0.0
 10
390.0550889756944
 20
592.3400716145833
 30
0.0
 10
393.5956136067708
 20
591.83984375
 30
0.0
 10
393.5956136067708
 20
591.83984375
 30
0.0
 10
393.5956136067708
 20
591.83984375
 30
0.0
 10
395.5937689887152
 20
591.7568169487847
 30
0.0
 10
396.4254150390624
 20
591.3902587890625
 30
0.0
 10
397.2601616753472
 20
591.0302463107638
 30
0.0
 10
399.2710639105902
 20
590.7946017795139
 30
0.0
 10
399.2710639105902
 20
590.7946017795139
 30
0.0
 10
399.2710639105902
 20
590.7946017795139
 30
0.0
 10
402.5659532335069
 20
590.3708550347221
 30
0.0
 10
402.5659532335069
 20
590.3708550347221
 30
0.0
 10
402.5659532335069
 20
590.3708550347221
 30
0.0
 10
404.8665879991319
 20
590.01669921875
 30
0.0
 10
405.5742106119791
 20
589.66943359375
 30
0.0
 10
406.2818332248264
 20
589.3221679687499
 30
0.0
 10
408.8532524956597
 20
588.9590549045139
 30
0.0
 10
408.8787462022569
 20
588.7805989583333
 30
0.0
 10
408.9042399088542
 20
588.5986979166667
 30
0.0
 10
411.7181939019097
 20
587.8373318142361
 30
0.0
 10
411.8008761935764
 20
587.8242404513888
 30
0.0
 10
411.8839029947916
 20
587.8052924262153
 30
0.0
 10
416.7625027126736
 20
586.6580756293403
 30
0.0
 10
416.7625027126736
 20
586.6580756293403
 30
0.0
 10
416.7625027126736
 20
586.6580756293403
 30
0.0
 10
420.2709879557291
 20
585.3961371527777
 30
0.0
 10
420.2709879557291
 20
585.3961371527777
 30
0.0
 10
420.2709879557291
 20
585.3961371527777
 30
0.0
 10
423.1772705078125
 20
584.4659613715277
 30
0.0
 10
423.1772705078125
 20
584.4659613715277
 30
0.0
 10
423.1772705078125
 20
584.4659613715277
 30
0.0
 10
426.5806803385416
 20
583.7455919053818
 30
0.0
 10
426.5806803385416
 20
583.7455919053818
 30
0.0
 10
426.5806803385416
 20
583.7455919053818
 30
0.0
 10
428.3876329210069
 20
583.6756564670138
 30
0.0
 10
429.1872395833333
 20
584.0801106770833
 30
0.0
 10
429.1872395833333
 20
584.0801106770833
 30
0.0
 10
434.2477403428819
 20
584.9021104600694
 30
0.0
 10
434.2477403428819
 20
584.9021104600694
 30
0.0
 10
434.2477403428819
 20
584.9021104600694
 30
0.0
 10
436.892884657118
 20
583.4524142795138
 30
0.0
 10
436.9597195095486
 20
583.5385416666666
 30
0.0
 10
437.0296549479166
 20
583.6181233723958
 30
0.0
 10
439.0915445963541
 20
582.7895779079861
 30
0.0
 10
439.1521782769097
 20
582.2159695095486
 30
0.0
 10
439.2190131293402
 20
581.6423611111111
 30
0.0
 10
439.2985948350694
 20
578.4525472005208
 30
0.0
 10
439.2985948350694
 20
578.4525472005208
 30
0.0
 10
439.2985948350694
 20
578.4525472005208
 30
0.0
 10
439.1394314236111
 20
574.4917209201388
 30
0.0
 10
439.1394314236111
 20
574.4917209201388
 30
0.0
  0
SPLINE
  5
DD
330
A
100
AcDbEntity
  8
LAYER_1
 62
     7
100
AcDbSpline
210
0.0
220
0.0
230
1.0
 70
     8
 71
     3
 72
    23
 73
    19
 74
     0
 42
0.000000001
 43
0.00000001
 40
0.0
 40
0.0
 40
0.0
 40
0.0
 40
1.0
 40
1.0
 40
1.0
 40
2.0
 40
2.0
 40
2.0
 40
3.0
 40
3.0
 40
3.0
 40
4.0
 40
4.0
 40
4.0
 40
5.0
 40
5.0
 40
5.0
 40
6.0
 40
6.0
 40
6.0
 40
6.0
 10
337.6538085937499
 20
595.87060546875
 30
0.0
 10
337.6538085937499
 20
595.87060546875
 30
0.0
 10
346.7292236328125
 20
594.3061876085069
 30
0.0
 10
346.7292236328125
 20
594.3061876085069
 30
0.0
 10
346.7292236328125
 20
594.3061876085069
 30
0.0
 10
347.7810112847222
 20
599.7904351128471
 30
0.0
 10
347.7810112847222
 20
599.7904351128471
 30
0.0
 10
347.7810112847222
 20
599.7904351128471
 30
0.0
 10
351.496546766493
 20
599.7552951388889
 30
0.0
 10
355.4415256076389
 20
599.0986599392361
 30
0.0
 10
359.3868489583333
 20
598.4489149305555
 30
0.0
 10
362.2483452690972
 20
597.881507703993
 30
0.0
 10
362.2483452690972
 20
597.881507703993
 30
0.0
 10
362.2483452690972
 20
597.881507703993
 30
0.0
 10
366.6556559244791
 20
596.9923285590277
 30
0.0
 10
366.6556559244791
 20
596.9923285590277
 30
0.0
 10
366.6556559244791
 20
596.9923285590277
 30
0.0
 10
363.6346516927083
 20
579.3541286892361
 30
0.0
 10
363.6346516927083
 20
579.3541286892361
 30
0.0
  0
LINE
  5
DC
330
A
100
AcDbEntity
  8
LAYER_1
 62
     7
100
AcDbLine
 10
348.539277
 20
603.375401
 30
0.0
 11
349.501836
 21
607.269393
 31
0.0
  0
SPLINE
  5
DB
330
A
100
AcDbEntity
  8
LAYER_1
 62
     7
100
AcDbSpline
210
0.0
220
0.0
230
1.0
 70
     8
 71
     3
 72
    17
 73
    13
 74
     0
 42
0.000000001
 43
0.00000001
 40
0.0
 40
0.0
 40
0.0
 40
0.0
 40
1.0
 40
1.0
 40
1.0
 40
2.0
 40
2.0
 40
2.0
 40
3.0
 40
3.0
 40
3.0
 40
4.0
 40
4.0
 40
4.0
 40
4.0
 10
351.1589274088541
 20
612.9355414496528
 30
0.0
 10
351.1589274088541
 20
612.9355414496528
 30
0.0
 10
352.121142578125
 20
617.6263834635416
 30
0.0
 10
352.121142578125
 20
617.6263834635416
 30
0.0
 10
352.121142578125
 20
617.6263834635416
 30
0.0
 10
354.1413465711805
 20
621.9982096354166
 30
0.0
 10
354.5175509982639
 20
622.4922363281249
 30
0.0
 10
354.8903103298611
 20
622.9797173394097
 30
0.0
 10
355.7856906467014
 20
626.0644558376736
 30
0.0
 10
356.7003634982639
 20
631.9276638454861
 30
0.0
 10
357.6150363498264
 20
637.7912163628472
 30
0.0
 10
360.610546875
 20
640.9779296874999
 30
0.0
 10
360.610546875
 20
640.9779296874999
 30
0.0
  0
SPLINE
  5
DA
330
A
100
AcDbEntity
  8
LAYER_1
  6
AI9-LType2
 62
     7
100
AcDbSpline
210
0.0
220
0.0
230
1.0
 70
     8
 71
     3
 72
    14
 73
    10
 74
     0
 42
0.000000001
 43
0.00000001
 40
0.0
 40
0.0
 40
0.0
 40
0.0
 40
1.0
 40
1.0
 40
1.0
 40
2.0
 40
2.0
 40
2.0
 40
3.0
 40
3.0
 40
3.0
 40
3.0
 10
361.1076741536458
 20
664.2722873263888
 30
0.0
 10
361.1076741536458
 20
664.2722873263888
 30
0.0
 10
392.1838134765625
 20
650.0981309678818
 30
0.0
 10
392.8783447265625
 20
649.3908528645833
 30
0.0
 10
393.5701199001736
 20
648.6832302517361
 30
0.0
 10
398.904505750868
 20
643.8459716796874
 30
0.0
 10
401.6609266493055
 20
638.2122070312499
 30
0.0
 10
404.4142469618055
 20
632.5780978732638
 30
0.0
 10
417.3488579644097
 20
628.1421929253472
 30
0.0
 10
417.3488579644097
 20
628.1421929253472
 30
0.0
  0
SPLINE
  5
D9
330
A
100
AcDbEntity
  8
LAYER_1
  6
AI9-LType2
 62
     7
100
AcDbSpline
210
0.0
220
0.0
230
1.0
 70
     8
 71
     3
 72
     8
 73
     4
 74
     0
 42
0.000000001
 43
0.00000001
 40
0.0
 40
0.0
 40
0.0
 40
0.0
 40
1.0
 40
1.0
 40
1.0
 40
1.0
 10
412.7823838975694
 20
600.2524224175347
 30
0.0
 10
412.7823838975694
 20
600.2524224175347
 30
0.0
 10
411.1762803819444
 20
590.4500922309027
 30
0.0
 10
413.142396375868
 20
587.7450032552083
 30
0.0
  0
SPLINE
  5
D8
330
A
100
AcDbEntity
  8
LAYER_1
  6
AI9-LType2
 62
     7
100
AcDbSpline
210
0.0
220
0.0
230
1.0
 70
     8
 71
     3
 72
     8
 73
     4
 74
     0
 42
0.000000001
 43
0.00000001
 40
0.0
 40
0.0
 40
0.0
 40
0.0
 40
1.0
 40
1.0
 40
1.0
 40
1.0
 10
409.5446831597222
 20
631.3640462239583
 30
0.0
 10
409.5446831597222
 20
631.3640462239583
 30
0.0
 10
414.2544731987847
 20
608.1871663411458
 30
0.0
 10
412.9449924045139
 20
605.746316189236
 30
0.0
  0
LINE
  5
D7
330
A
100
AcDbEntity
  8
LAYER_1
  6
AI9-LType2
 62
     7
100
AcDbLine
 10
360.553014
 20
640.90765
 30
0.0
 11
367.620972
 21
660.945703
 31
0.0
  0
SPLINE
  5
D6
330
A
100
AcDbEntity
  8
LAYER_1
  6
AI9-LType2
 62
     7
100
AcDbSpline
210
0.0
220
0.0
230
1.0
 70
     8
 71
     3
 72
     8
 73
     4
 74
     0
 42
0.000000001
 43
0.00000001
 40
0.0
 40
0.0
 40
0.0
 40
0.0
 40
1.0
 40
1.0
 40
1.0
 40
1.0
 10
337.8450113932291
 20
596.1162407769096
 30
0.0
 10
337.8450113932291
 20
596.1162407769096
 30
0.0
 10
346.2606906467013
 20
596.3901258680555
 30
0.0
 10
347.8065049913194
 20
599.882763671875
 30
0.0
  0
SPLINE
  5
D5
330
A
100
AcDbEntity
  8
LAYER_1
  6
AI9-LType2
 62
     7
100
AcDbSpline
210
0.0
220
0.0
230
1.0
 70
     8
 71
     3
 72
    20
 73
    16
 74
     0
 42
0.000000001
 43
0.00000001
 40
0.0
 40
0.0
 40
0.0
 40
0.0
 40
1.0
 40
1.0
 40
1.0
 40
2.0
 40
2.0
 40
2.0
 40
3.0
 40
3.0
 40
3.0
 40
4.0
 40
4.0
 40
4.0
 40
5.0
 40
5.0
 40
5.0
 40
5.0
 10
337.08330078125
 20
589.6949273003472
 30
0.0
 10
338.1602376302083
 20
589.54541015625
 30
0.0
 10
338.5588351779514
 20
588.7930013020833
 30
0.0
 10
339.7632405598958
 20
588.8536349826388
 30
0.0
 10
340.7988362630208
 20
588.9142686631944
 30
0.0
 10
341.9078125
 20
589.2329399956596
 30
0.0
 10
342.9341064453125
 20
589.4082953559027
 30
0.0
 10
345.0562852647569
 20
589.7683078342013
 30
0.0
 10
347.248744032118
 20
590.0676866319444
 30
0.0
 10
349.4728976779514
 20
589.6949273003472
 30
0.0
 10
353.8133734809027
 20
588.9780029296875
 30
0.0
 10
357.8348334418403
 20
586.1354546440972
 30
0.0
 10
359.6607340494791
 20
582.1363878038194
 30
0.0
 10
359.9029242621527
 20
581.6041205512153
 30
0.0
 10
360.3490641276042
 20
579.7048394097221
 30
0.0
 10
360.6040011935764
 20
580.026611328125
 30
0.0
  0
POLYLINE
  5
CE
330
A
100
AcDbEntity
  8
LAYER_1
 62
     7
100
AcDb2dPolyline
 66
     1
 10
0.0
 20
0.0
 30
0.0
  0
VERTEX
  5
CF
330
CE
100
AcDbEntity
  8
LAYER_1
 62
     7
100
AcDbVertex
100
AcDb2dVertex
 10
335.652553
 20
608.945432
 30
0.0
  0
VERTEX
  5
D0
330
CE
100
AcDbEntity
  8
LAYER_1
 62
     7
100
AcDbVertex
100
AcDb2dVertex
 10
366.958135
 20
605.351164
 30
0.0
  0
VERTEX
  5
D1
330
CE
100
AcDbEntity
  8
LAYER_1
 62
     7
100
AcDbVertex
100
AcDb2dVertex
 10
408.748177
 20
600.883219
 30
0.0
  0
VERTEX
  5
D2
330
CE
100
AcDbEntity
  8
LAYER_1
 62
     7
100
AcDbVertex
100
AcDb2dVertex
 10
436.216957
 20
597.696506
 30
0.0
  0
SEQEND
  5
D3
330
CE
100
AcDbEntity
  8
LAYER_1
 62
     7
  0
POLYLINE
  5
C8
330
A
100
AcDbEntity
  8
LAYER_1
 62
     7
100
AcDb2dPolyline
 66
     1
 10
0.0
 20
0.0
 30
0.0
  0
VERTEX
  5
C9
330
C8
100
AcDbEntity
  8
LAYER_1
 62
     7
100
AcDbVertex
100
AcDb2dVertex
 10
336.130387
 20
614.452072
 30
0.0
  0
VERTEX
  5
CA
330
C8
100
AcDbEntity
  8
LAYER_1
 62
     7
100
AcDbVertex
100
AcDb2dVertex
 10
370.183089
 20
610.666602
 30
0.0
  0
VERTEX
  5
CB
330
C8
100
AcDbEntity
  8
LAYER_1
 62
     7
100
AcDbVertex
100
AcDb2dVertex
 10
407.32363
 20
606.38986
 30
0.0
  0
VERTEX
  5
CC
330
C8
100
AcDbEntity
  8
LAYER_1
 62
     7
100
AcDbVertex
100
AcDb2dVertex
 10
436.806757
 20
602.961301
 30
0.0
  0
SEQEND
  5
CD
330
C8
100
AcDbEntity
  8
LAYER_1
 62
     7
  0
POLYLINE
  5
C2
330
A
100
AcDbEntity
  8
LAYER_1
  6
AI9-LType1
 62
     7
100
AcDb2dPolyline
 66
     1
 10
0.0
 20
0.0
 30
0.0
  0
VERTEX
  5
C3
330
C2
100
AcDbEntity
  8
LAYER_1
  6
AI9-LType1
 62
     7
100
AcDbVertex
100
AcDb2dVertex
 10
340.292407
 20
568.863813
 30
0.0
  0
VERTEX
  5
C4
330
C2
100
AcDbEntity
  8
LAYER_1
  6
AI9-LType1
 62
     7
100
AcDbVertex
100
AcDb2dVertex
 10
413.945448
 20
573.013086
 30
0.0
  0
VERTEX
  5
C5
330
C2
100
AcDbEntity
  8
LAYER_1
  6
AI9-LType1
 62
     7
100
AcDbVertex
100
AcDb2dVertex
 10
439.550431
 20
574.427642
 30
0.0
  0
VERTEX
  5
C6
330
C2
100
AcDbEntity
  8
LAYER_1
  6
AI9-LType1
 62
     7
100
AcDbVertex
100
AcDb2dVertex
 10
469.24681
 20
576.155013
 30
0.0
  0
SEQEND
  5
C7
330
C2
100
AcDbEntity
  8
LAYER_1
  6
AI9-LType1
 62
     7
  0
POLYLINE
  5
BD
330
A
100
AcDbEntity
  8
LAYER_1
  6
AI9-LType1
 62
     7
100
AcDb2dPolyline
 66
     1
 10
0.0
 20
0.0
 30
0.0
  0
VERTEX
  5
BE
330
BD
100
AcDbEntity
  8
LAYER_1
  6
AI9-LType1
 62
     7
100
AcDbVertex
100
AcDb2dVertex
 10
446.914667
 20
574.950263
 30
0.0
  0
VERTEX
  5
BF
330
BD
100
AcDbEntity
  8
LAYER_1
  6
AI9-LType1
 62
     7
100
AcDbVertex
100
AcDb2dVertex
 10
451.892141
 20
595.937785
 30
0.0
  0
VERTEX
  5
C0
330
BD
100
AcDbEntity
  8
LAYER_1
  6
AI9-LType1
 62
     7
100
AcDbVertex
100
AcDb2dVertex
 10
439.285848
 20
597.801926
 30
0.0
  0
SEQEND
  5
C1
330
BD
100
AcDbEntity
  8
LAYER_1
  6
AI9-LType1
 62
     7
  0
LINE
  5
BC
330
A
100
AcDbEntity
  8
LAYER_1
  6
AI9-LType1
 62
     7
100
AcDbLine
 10
439.668254
 20
614.859972
 30
0.0
 11
417.817391
 21
628.253814
 31
0.0
  0
POLYLINE
  5
B7
330
A
100
AcDbEntity
  8
LAYER_1
  6
AI9-LType1
 62
     7
100
AcDb2dPolyline
 66
     1
 10
0.0
 20
0.0
 30
0.0
  0
VERTEX
  5
B8
330
B7
100
AcDbEntity
  8
LAYER_1
  6
AI9-LType1
 62
     7
100
AcDbVertex
100
AcDb2dVertex
 10
342.239231
 20
644.808187
 30
0.0
  0
VERTEX
  5
B9
330
B7
100
AcDbEntity
  8
LAYER_1
  6
AI9-LType1
 62
     7
100
AcDbVertex
100
AcDb2dVertex
 10
358.350909
 20
642.915451
 30
0.0
  0
VERTEX
  5
BA
330
B7
100
AcDbEntity
  8
LAYER_1
  6
AI9-LType1
 62
     7
100
AcDbVertex
100
AcDb2dVertex
 10
360.989507
 20
664.393555
 30
0.0
  0
SEQEND
  5
BB
330
B7
100
AcDbEntity
  8
LAYER_1
  6
AI9-LType1
 62
     7
  0
INSERT
  5
AA
330
A
100
AcDbEntity
  8
LAYER_1
 62
     7
100
AcDbBlockReference
  2
AI9-BLK27
 10
413.550468
 20
630.847282
 30
0.0
  0
INSERT
  5
9D
330
A
100
AcDbEntity
  8
LAYER_1
 62
     7
100
AcDbBlockReference
  2
AI9-BLK24
 10
407.626454
 20
634.058886
 30
0.0
  0
INSERT
  5
90
330
A
100
AcDbEntity
  8
LAYER_1
 62
     7
100
AcDbBlockReference
  2
AI9-BLK21
 10
400.103054
 20
642.88634
 30
0.0
  0
INSERT
  5
83
330
A
100
AcDbEntity
  8
LAYER_1
 62
     7
100
AcDbBlockReference
  2
AI9-BLK18
 10
391.199377
 20
651.544468
 30
0.0
  0
INSERT
  5
76
330
A
100
AcDbEntity
  8
LAYER_1
 62
     7
100
AcDbBlockReference
  2
AI9-BLK15
 10
382.869481
 20
655.563517
 30
0.0
  0
INSERT
  5
69
330
A
100
AcDbEntity
  8
LAYER_1
 62
     7
100
AcDbBlockReference
  2
AI9-BLK12
 10
374.954202
 20
659.139095
 30
0.0
  0
INSERT
  5
5C
330
A
100
AcDbEntity
  8
LAYER_1
 62
     7
100
AcDbBlockReference
  2
AI9-BLK9
 10
369.477534
 20
661.854003
 30
0.0
  0
MTEXT
  5
5A
330
A
100
AcDbEntity
  8
LAYER_1
 62
     7
100
AcDbMText
 10
346.834644
 20
622.564734
 30
0.0
 40
1.643461
 41
0.0
 46
0.0
 71
     1
 72
     2
  1
\W1.00;\fHelvetica|b1|i0;1101
  7
STD
 73
     1
 44
1.0
  0
MTEXT
  5
59
330
A
100
AcDbEntity
  8
LAYER_1
 62
     7
100
AcDbMText
 10
379.567874
 20
625.668421
 30
0.0
 40
1.643461
 41
0.0
 46
0.0
 71
     1
 72
     2
  1
\W1.00;\fHelvetica|b1|i0;1181
  7
STD
 73
     1
 44
1.0
  0
MTEXT
  5
58
330
A
100
AcDbEntity
  8
LAYER_1
 62
     7
100
AcDbMText
 10
357.449327
 20
604.493141
 30
0.0
 40
1.643461
 41
0.0
 46
0.0
 71
     1
 72
     2
  1
\W1.00;\fHelvetica|b1|i0;966
  7
STD
 73
     1
 44
1.0
  0
MTEXT
  5
57
330
A
100
AcDbEntity
  8
LAYER_1
 62
     7
100
AcDbMText
 10
382.46141
 20
600.911276
 30
0.0
 40
1.643461
 41
0.0
 46
0.0
 71
     1
 72
     2
  1
\W1.00;\fHelvetica|b1|i0;1181
  7
STD
 73
     1
 44
1.0
  0
MTEXT
  5
56
330
A
100
AcDbEntity
  8
LAYER_1
 62
     7
100
AcDbMText
 10
375.629096
 20
587.46679
 30
0.0
 40
1.643461
 41
0.0
 46
0.0
 71
     1
 72
     2
  1
\W1.00;\fHelvetica|b1|i0;1084 
  7
STD
 73
     1
 44
1.0
  0
MTEXT
  5
55
330
A
100
AcDbEntity
  8
LAYER_1
 62
     7
100
AcDbMText
 10
364.122133
 20
576.326041
 30
0.0
 40
1.643461
 41
0.0
 46
0.0
 71
     1
 72
     2
  1
\W1.00;\fHelvetica|b1|i0;1181
  7
STD
 73
     1
 44
1.0
  0
MTEXT
  5
54
330
A
100
AcDbEntity
  8
LAYER_1
 62
     7
100
AcDbMText
 10
430.857077
 20
593.71895
 30
0.0
 40
1.643461
 41
0.0
 46
0.0
 71
     1
 72
     2
  1
\W1.00;\fHelvetica|b1|i0;1100 
  7
STD
 73
     1
 44
1.0
  0
MTEXT
  5
53
330
A
100
AcDbEntity
  8
LAYER_1
 62
     7
100
AcDbMText
 10
430.121205
 20
613.106569
 30
0.0
 40
1.643461
 41
0.0
 46
0.0
 71
     1
 72
     2
  1
\W1.00;\fHelvetica|b1|i0;1100
  7
STD
 73
     1
 44
1.0
  0
MTEXT
  5
52
330
A
100
AcDbEntity
  8
LAYER_1
 62
     7
100
AcDbMText
 10
363.742828
 20
569.149907
 30
0.0
 40
1.643461
 41
0.0
 46
0.0
 71
     1
 72
     2
  1
\W1.00;\fHelvetica|b0|i0;Trench 1
  7
STD
 73
     1
 44
1.0
  0
MTEXT
  5
51
330
A
100
AcDbEntity
  8
LAYER_1
 62
     7
100
AcDbMText
 10
352.54799
 20
591.679453
 30
0.0
 40
1.643461
 41
0.0
 46
0.0
 71
     1
 72
     2
  1
\W1.00;\fHelvetica|b0|i0;Excavated
  7
STD
 73
     1
 44
1.0
  0
INSERT
  5
3F
330
A
100
AcDbEntity
  8
LAYER_1
 62
     7
100
AcDbBlockReference
  2
AI9-BLK5
 10
390.364286
 20
654.473747
 30
0.0
  0
INSERT
  5
2C
330
A
100
AcDbEntity
  8
LAYER_1
 62
     7
100
AcDbBlockReference
  2
AI9-BLK1
 10
390.373933
 20
576.155013
 30
0.0
  0
MTEXT
  5
2A
330
A
100
AcDbEntity
  8
LAYER_1
 62
     7
100
AcDbMText
 10
392.257194
 20
576.826826
 30
0.0
 40
1.232675
 41
0.0
 46
0.0
 71
     1
 72
     2
  1
\W1.00;\fHelvetica|b0|i0;790/290
  7
STD
 73
     1
 44
1.0
  0
MTEXT
  5
29
330
A
100
AcDbEntity
  8
LAYER_1
 62
     7
100
AcDbMText
 10
392.492839
 20
655.177255
 30
0.0
 40
1.232675
 41
0.0
 46
0.0
 71
     1
 72
     2
  1
\W1.00;\fHelvetica|b0|i0;790/295
  7
STD
 73
     1
 44
1.0
  0
ENDSEC
  0
SECTION
  2
OBJECTS
  0
DICTIONARY
  5
19
330
0
100
AcDbDictionary
281
     1
  3
ACAD_DETAILVIEWSTYLE
350
1BF
  3
ACAD_GROUP
350
1A
  3
ACAD_LAYOUT
350
1E
  3
ACAD_MATERIAL
350
17F
  3
ACAD_MLEADERSTYLE
350
185
  3
ACAD_MLINESTYLE
350
1B
  3
ACAD_PLOTSETTINGS
350
22
  3
ACAD_PLOTSTYLENAME
350
1F
  3
ACAD_SCALELIST
350
144
  3
ACAD_SECTIONVIEWSTYLE
350
1C0
  3
ACAD_TABLESTYLE
350
183
  3
ACAD_VISUALSTYLE
350
166
  3
ACAD_WIPEOUT_VARS
350
23
  3
ACDB_RECOMPOSE_DATA
350
1BB
  3
AcDbVariableDictionary
350
187
  0
DICTIONARY
  5
1BF
102
{ACAD_REACTORS
330
19
102
}
330
19
100
AcDbDictionary
281
     1
  0
DICTIONARY
  5
1A
102
{ACAD_REACTORS
330
19
102
}
330
19
100
AcDbDictionary
281
     1
  0
DICTIONARY
  5
1E
102
{ACAD_REACTORS
330
19
102
}
330
19
100
AcDbDictionary
281
     1
  3
Layout1
350
21
  3
Model
350
20
  0
DICTIONARY
  5
17F
102
{ACAD_REACTORS
330
19
102
}
330
19
100
AcDbDictionary
281
     1
  3
ByBlock
350
181
  3
ByLayer
350
180
  3
Global
350
182
  0
DICTIONARY
  5
185
102
{ACAD_REACTORS
330
19
102
}
330
19
100
AcDbDictionary
281
     1
  3
Standard
350
186
  0
DICTIONARY
  5
1B
102
{ACAD_REACTORS
330
19
102
}
330
19
100
AcDbDictionary
281
     1
  3
Standard
350
1C
  0
DICTIONARY
  5
22
102
{ACAD_REACTORS
330
19
102
}
330
19
100
AcDbDictionary
281
     1
  0
ACDBDICTIONARYWDFLT
  5
1F
102
{ACAD_REACTORS
330
19
102
}
330
19
100
AcDbDictionary
281
     1
  3
Normal
350
1D
100
AcDbDictionaryWithDefault
340
1D
  0
DICTIONARY
  5
144
102
{ACAD_REACTORS
330
19
102
}
330
19
100
AcDbDictionary
281
     1
  3
A0
350
145
  3
A1
350
146
  3
A2
350
147
  3
A3
350
148
  3
A4
350
149
  3
A5
350
14A
  3
A6
350
14B
  3
A7
350
14C
  3
A8
350
14D
  3
A9
350
14E
  3
B0
350
14F
  3
B1
350
150
  3
B2
350
151
  3
B3
350
152
  3
B4
350
153
  3
B5
350
154
  3
B6
350
155
  3
B7
350
156
  3
B8
350
157
  3
B9
350
158
  3
C0
350
159
  3
C1
350
15A
  3
C2
350
15B
  3
C3
350
15C
  3
C4
350
15D
  3
C5
350
15E
  3
C6
350
15F
  3
C7
350
160
  3
C8
350
161
  3
C9
350
162
  3
D0
350
163
  3
D1
350
164
  3
D2
350
165
  0
DICTIONARY
  5
1C0
102
{ACAD_REACTORS
330
19
102
}
330
19
100
AcDbDictionary
281
     1
  0
DICTIONARY
  5
183
102
{ACAD_REACTORS
330
19
102
}
330
19
100
AcDbDictionary
281
     1
  3
Standard
350
184
  0
DICTIONARY
  5
166
102
{ACAD_REACTORS
330
19
102
}
330
19
100
AcDbDictionary
281
     1
  3
2dWireframe
350
16B
  3
Basic
350
16E
  3
Brighten
350
172
  3
ColorChange
350
176
  3
Conceptual
350
170
  3
Dim
350
171
  3
EdgeColorOff
350
179
  3
Facepattern
350
175
  3
Flat
350
167
  3
FlatWithEdges
350
168
  3
Gouraud
350
169
  3
GouraudWithEdges
350
16A
  3
Hidden
350
16D
  3
JitterOff
350
177
  3
Linepattern
350
174
  3
OverhangOff
350
178
  3
Realistic
350
16F
  3
Shaded
350
17E
  3
Shaded with edges
350
17D
  3
Shades of Gray
350
17A
  3
Sketchy
350
17B
  3
Thicken
350
173
  3
Wireframe
350
16C
  3
X-Ray
350
17C
  0
WIPEOUTVARIABLES
  5
23
330
19
100
AcDbWipeoutVariables
 70
     1
  0
XRECORD
  5
1BB
102
{ACAD_REACTORS
330
19
102
}
330
19
100
AcDbXrecord
280
     1
 90
        1
330
184
  0
DICTIONARY
  5
187
102
{ACAD_REACTORS
330
19
102
}
330
19
100
AcDbDictionary
281
     1
  3
CANNOSCALE
350
188
  3
CMLEADERSTYLE
350
1BD
  3
CTABLESTYLE
350
1BC
  3
MSLTSCALE
350
1BE
  0
LAYOUT
  5
21
102
{ACAD_REACTORS
330
1E
102
}
330
1E
100
AcDbPlotSettings
  1

  2

  4

  6

 40
0.0
 41
0.0
 42
0.0
 43
0.0
 44
0.0
 45
0.0
 46
0.0
 47
0.0
 48
0.0
 49
0.0
140
0.0
141
0.0
142
1.0
143
1.0
 70
     0
 72
     0
 73
     0
 74
     0
  7

 75
     0
 76
     0
 77
     2
 78
   300
147
1.0
148
0.0
149
0.0
100
AcDbLayout
  1
Layout1
 70
     0
 71
     0
 10
0.0
 20
0.0
 11
0.0
 21
0.0
 12
0.0
 22
0.0
 32
0.0
 14
0.0
 24
0.0
 34
0.0
 15
0.0
 25
0.0
 35
0.0
146
0.0
 13
0.0
 23
0.0
 33
0.0
 16
0.0
 26
0.0
 36
0.0
 17
0.0
 27
0.0
 37
0.0
 76
     0
330
B
  0
LAYOUT
  5
20
102
{ACAD_REACTORS
330
1E
102
}
330
1E
100
AcDbPlotSettings
  1

  2

  4

  6

 40
0.0
 41
0.0
 42
0.0
 43
0.0
 44
0.0
 45
0.0
 46
0.0
 47
0.0
 48
0.0
 49
0.0
140
0.0
141
0.0
142
1.0
143
1.0
 70
  1024
 72
     0
 73
     0
 74
     0
  7

 75
     0
 76
     0
 77
     2
 78
   300
147
1.0
148
0.0
149
0.0
100
AcDbLayout
  1
Model
 70
     0
 71
     1
 10
0.0
 20
0.0
 11
0.0
 21
0.0
 12
0.0
 22
0.0
 32
0.0
 14
0.0
 24
0.0
 34
0.0
 15
0.0
 25
0.0
 35
0.0
146
0.0
 13
0.0
 23
0.0
 33
0.0
 16
0.0
 26
0.0
 36
0.0
 17
0.0
 27
0.0
 37
0.0
 76
     0
330
A
331
15
  0
MATERIAL
  5
181
102
{ACAD_REACTORS
330
17F
102
}
330
17F
100
AcDbMaterial
  1
ByBlock
 72
     1
 94
      127
  0
MATERIAL
  5
180
102
{ACAD_REACTORS
330
17F
102
}
330
17F
100
AcDbMaterial
  1
ByLayer
 72
     1
 94
      127
  0
MATERIAL
  5
182
102
{ACAD_REACTORS
330
17F
102
}
330
17F
100
AcDbMaterial
  1
Global
 72
     1
 94
      127
  0
MLEADERSTYLE
  5
186
102
{ACAD_REACTORS
330
185
102
}
330
185
100
AcDbMLeaderStyle
179
     2
170
     2
171
     1
172
     0
 90
        2
 40
0.0
 41
0.0
173
     1
 91
-1056964608
340
11
 92
       -2
290
     1
 42
0.09
291
     1
 43
0.36
  3
Standard
341
0
 44
0.18
300

342
17
174
     1
178
     6
175
     1
176
     0
 93
-1056964608
 45
0.18
292
     0
297
     0
 46
0.18
343
0
 94
-1056964608
 47
1.0
 49
1.0
140
1.0
293
     1
141
0.0
294
     1
177
     0
142
1.0
295
     0
296
     0
143
0.125
271
     0
272
     9
273
     9
  0
MLINESTYLE
  5
1C
102
{ACAD_REACTORS
330
1B
102
}
330
1B
100
AcDbMlineStyle
  2
Standard
 70
     0
  3

 62
     0
 51
90.0
 52
90.0
 71
     2
 49
0.5
 62
   256
  6
BYLAYER
 49
-0.5
 62
   256
  6
BYLAYER
  0
ACDBPLACEHOLDER
  5
1D
102
{ACAD_REACTORS
330
1F
102
}
330
1F
  0
SCALE
  5
145
102
{ACAD_REACTORS
330
144
102
}
330
144
100
AcDbScale
 70
     0
300
1:1
140
1.0
141
1.0
290
     1
  0
SCALE
  5
146
102
{ACAD_REACTORS
330
144
102
}
330
144
100
AcDbScale
 70
     0
300
1:2
140
1.0
141
2.0
290
     0
  0
SCALE
  5
147
102
{ACAD_REACTORS
330
144
102
}
330
144
100
AcDbScale
 70
     0
300
1:4
140
1.0
141
4.0
290
     0
  0
SCALE
  5
148
102
{ACAD_REACTORS
330
144
102
}
330
144
100
AcDbScale
 70
     0
300
1:5
140
1.0
141
5.0
290
     0
  0
SCALE
  5
149
102
{ACAD_REACTORS
330
144
102
}
330
144
100
AcDbScale
 70
     0
300
1:8
140
1.0
141
8.0
290
     0
  0
SCALE
  5
14A
102
{ACAD_REACTORS
330
144
102
}
330
144
100
AcDbScale
 70
     0
300
1:10
140
1.0
141
10.0
290
     0
  0
SCALE
  5
14B
102
{ACAD_REACTORS
330
144
102
}
330
144
100
AcDbScale
 70
     0
300
1:16
140
1.0
141
16.0
290
     0
  0
SCALE
  5
14C
102
{ACAD_REACTORS
330
144
102
}
330
144
100
AcDbScale
 70
     0
300
1:20
140
1.0
141
20.0
290
     0
  0
SCALE
  5
14D
102
{ACAD_REACTORS
330
144
102
}
330
144
100
AcDbScale
 70
     0
300
1:30
140
1.0
141
30.0
290
     0
  0
SCALE
  5
14E
102
{ACAD_REACTORS
330
144
102
}
330
144
100
AcDbScale
 70
     0
300
1:40
140
1.0
141
40.0
290
     0
  0
SCALE
  5
14F
102
{ACAD_REACTORS
330
144
102
}
330
144
100
AcDbScale
 70
     0
300
1:50
140
1.0
141
50.0
290
     0
  0
SCALE
  5
150
102
{ACAD_REACTORS
330
144
102
}
330
144
100
AcDbScale
 70
     0
300
1:100
140
1.0
141
100.0
290
     0
  0
SCALE
  5
151
102
{ACAD_REACTORS
330
144
102
}
330
144
100
AcDbScale
 70
     0
300
2:1
140
2.0
141
1.0
290
     0
  0
SCALE
  5
152
102
{ACAD_REACTORS
330
144
102
}
330
144
100
AcDbScale
 70
     0
300
4:1
140
4.0
141
1.0
290
     0
  0
SCALE
  5
153
102
{ACAD_REACTORS
330
144
102
}
330
144
100
AcDbScale
 70
     0
300
8:1
140
8.0
141
1.0
290
     0
  0
SCALE
  5
154
102
{ACAD_REACTORS
330
144
102
}
330
144
100
AcDbScale
 70
     0
300
10:1
140
10.0
141
1.0
290
     0
  0
SCALE
  5
155
102
{ACAD_REACTORS
330
144
102
}
330
144
100
AcDbScale
 70
     0
300
100:1
140
100.0
141
1.0
290
     0
  0
SCALE
  5
156
102
{ACAD_REACTORS
330
144
102
}
330
144
100
AcDbScale
 70
     0
300
1/128" = 1'-0"
140
0.0078125
141
12.0
290
     0
  0
SCALE
  5
157
102
{ACAD_REACTORS
330
144
102
}
330
144
100
AcDbScale
 70
     0
300
1/64" = 1'-0"
140
0.015625
141
12.0
290
     0
  0
SCALE
  5
158
102
{ACAD_REACTORS
330
144
102
}
330
144
100
AcDbScale
 70
     0
300
1/32" = 1'-0"
140
0.03125
141
12.0
290
     0
  0
SCALE
  5
159
102
{ACAD_REACTORS
330
144
102
}
330
144
100
AcDbScale
 70
     0
300
1/16" = 1'-0"
140
0.0625
141
12.0
290
     0
  0
SCALE
  5
15A
102
{ACAD_REACTORS
330
144
102
}
330
144
100
AcDbScale
 70
     0
300
3/32" = 1'-0"
140
0.09375
141
12.0
290
     0
  0
SCALE
  5
15B
102
{ACAD_REACTORS
330
144
102
}
330
144
100
AcDbScale
 70
     0
300
1/8" = 1'-0"
140
0.125
141
12.0
290
     0
  0
SCALE
  5
15C
102
{ACAD_REACTORS
330
144
102
}
330
144
100
AcDbScale
 70
     0
300
3/16" = 1'-0"
140
0.1875
141
12.0
290
     0
  0
SCALE
  5
15D
102
{ACAD_REACTORS
330
144
102
}
330
144
100
AcDbScale
 70
     0
300
1/4" = 1'-0"
140
0.25
141
12.0
290
     0
  0
SCALE
  5
15E
102
{ACAD_REACTORS
330
144
102
}
330
144
100
AcDbScale
 70
     0
300
3/8" = 1'-0"
140
0.375
141
12.0
290
     0
  0
SCALE
  5
15F
102
{ACAD_REACTORS
330
144
102
}
330
144
100
AcDbScale
 70
     0
300
1/2" = 1'-0"
140
0.5
141
12.0
290
     0
  0
SCALE
  5
160
102
{ACAD_REACTORS
330
144
102
}
330
144
100
AcDbScale
 70
     0
300
3/4" = 1'-0"
140
0.75
141
12.0
290
     0
  0
SCALE
  5
161
102
{ACAD_REACTORS
330
144
102
}
330
144
100
AcDbScale
 70
     0
300
1" = 1'-0"
140
1.0
141
12.0
290
     0
  0
SCALE
  5
162
102
{ACAD_REACTORS
330
144
102
}
330
144
100
AcDbScale
 70
     0
300
1-1/2" = 1'-0"
140
1.5
141
12.0
290
     0
  0
SCALE
  5
163
102
{ACAD_REACTORS
330
144
102
}
330
144
100
AcDbScale
 70
     0
300
3" = 1'-0"
140
3.0
141
12.0
290
     0
  0
SCALE
  5
164
102
{ACAD_REACTORS
330
144
102
}
330
144
100
AcDbScale
 70
     0
300
6" = 1'-0"
140
6.0
141
12.0
290
     0
  0
SCALE
  5
165
102
{ACAD_REACTORS
330
144
102
}
330
144
100
AcDbScale
 70
     0
300
1'-0" = 1'-0"
140
12.0
141
12.0
290
     0
  0
TABLESTYLE
  5
184
102
{ACAD_REACTORS
330
183
102
}
102
{ACAD_XDICTIONARY
360
1B9
102
}
330
183
100
AcDbTableStyle
  3
Standard
 70
     0
 71
     0
 40
0.06
 41
0.06
280
     0
281
     0
  7
Standard
140
0.18
170
     2
 62
     0
 63
   257
283
     0
 90
        4
 91
        0
  1

274
    -2
284
     1
 64
     0
275
    -2
285
     1
 65
     0
276
    -2
286
     1
 66
     0
277
    -2
287
     1
 67
     0
278
    -2
288
     1
 68
     0
279
    -2
289
     1
 69
     0
  7
Standard
140
0.25
170
     5
 62
     0
 63
   257
283
     0
 90
        4
 91
        0
  1

274
    -2
284
     1
 64
     0
275
    -2
285
     1
 65
     0
276
    -2
286
     1
 66
     0
277
    -2
287
     1
 67
     0
278
    -2
288
     1
 68
     0
279
    -2
289
     1
 69
     0
  7
Standard
140
0.18
170
     5
 62
     0
 63
   257
283
     0
 90
        4
 91
        0
  1

274
    -2
284
     1
 64
     0
275
    -2
285
     1
 65
     0
276
    -2
286
     1
 66
     0
277
    -2
287
     1
 67
     0
278
    -2
288
     1
 68
     0
279
    -2
289
     1
 69
     0
  0
VISUALSTYLE
  5
16B
102
{ACAD_REACTORS
330
166
102
}
102
{ACAD_XDICTIONARY
360
191
102
}
330
166
100
AcDbVisualStyle
  2
2dWireframe
 70
     4
177
     2
291
     0
 71
     0
176
     1
 72
     2
176
     1
 73
     0
176
     1
 90
        0
176
     1
 40
0.6
176
     1
 41
30.0
176
     1
 62
     5
 63
     7
421
 16777215
176
     1
 74
     1
176
     1
 91
        4
176
     1
 64
     7
176
     1
 65
   257
176
     1
 75
     1
176
     1
175
     1
176
     1
 42
1.0
176
     1
 92
        0
176
     1
 66
   257
176
     1
 43
1.0
176
     1
 76
     1
176
     1
 77
     6
176
     1
 78
     2
176
     1
 67
     7
176
     1
 79
     5
176
     1
170
     0
176
     1
171
     0
176
     1
290
     0
176
     1
 93
        1
176
     1
 44
0.0
176
     1
173
     0
176
     1
  0
VISUALSTYLE
  5
16E
102
{ACAD_REACTORS
330
166
102
}
102
{ACAD_XDICTIONARY
360
197
102
}
330
166
100
AcDbVisualStyle
  2
Basic
 70
     7
177
     2
291
     1
 71
     1
176
     1
 72
     0
176
     1
 73
     1
176
     1
 90
        0
176
     1
 40
0.6
176
     1
 41
30.0
176
     1
 62
     5
 63
     7
421
 16777215
176
     1
 74
     0
176
     1
 91
        4
176
     1
 64
     7
176
     1
 65
   257
176
     1
 75
     1
176
     1
175
     1
176
     1
 42
1.0
176
     1
 92
        8
176
     1
 66
     7
176
     1
 43
1.0
176
     1
 76
     1
176
     1
 77
     6
176
     1
 78
     2
176
     1
 67
     7
176
     1
 79
     5
176
     1
170
     0
176
     1
171
     0
176
     1
290
     0
176
     1
 93
        1
176
     1
 44
0.0
176
     1
173
     0
176
     1
  0
VISUALSTYLE
  5
172
102
{ACAD_REACTORS
330
166
102
}
102
{ACAD_XDICTIONARY
360
19F
102
}
330
166
100
AcDbVisualStyle
  2
Brighten
 70
    12
177
     2
291
     1
 71
     2
176
     1
 72
     2
176
     1
 73
     0
176
     1
 90
        0
176
     1
 40
0.6
176
     1
 41
30.0
176
     1
 62
     5
 63
     7
421
 16777215
176
     1
 74
     1
176
     1
 91
        4
176
     1
 64
     7
176
     1
 65
   257
176
     1
 75
     1
176
     1
175
     1
176
     1
 42
1.0
176
     1
 92
        8
176
     1
 66
     7
176
     1
 43
1.0
176
     1
 76
     1
176
     1
 77
     6
176
     1
 78
     2
176
     1
 67
     7
176
     1
 79
     5
176
     1
170
     0
176
     1
171
     0
176
     1
290
     0
176
     1
 93
        1
176
     1
 44
50.0
176
     1
173
     0
176
     1
  0
VISUALSTYLE
  5
176
102
{ACAD_REACTORS
330
166
102
}
102
{ACAD_XDICTIONARY
360
1A7
102
}
330
166
100
AcDbVisualStyle
  2
ColorChange
 70
    16
177
     2
291
     1
 71
     2
176
     1
 72
     2
176
     1
 73
     3
176
     1
 90
        0
176
     1
 40
0.6
176
     1
 41
30.0
176
     1
 62
     5
 63
     8
421
  8421504
176
     1
 74
     1
176
     1
 91
        4
176
     1
 64
     7
176
     1
 65
   257
176
     1
 75
     1
176
     1
175
     1
176
     1
 42
1.0
176
     1
 92
        8
176
     1
 66
     8
424
  8421504
176
     1
 43
1.0
176
     1
 76
     1
176
     1
 77
     6
176
     1
 78
     2
176
     1
 67
     7
176
     1
 79
     5
176
     1
170
     0
176
     1
171
     0
176
     1
290
     0
176
     1
 93
        1
176
     1
 44
0.0
176
     1
173
     0
176
     1
  0
VISUALSTYLE
  5
170
102
{ACAD_REACTORS
330
166
102
}
102
{ACAD_XDICTIONARY
360
19B
102
}
330
166
100
AcDbVisualStyle
  2
Conceptual
 70
     9
177
     2
291
     0
 71
     3
176
     1
 72
     2
176
     1
 73
     0
176
     1
 90
        0
176
     1
 40
0.6
176
     1
 41
30.0
176
     1
 62
     5
 63
     7
421
 16777215
176
     1
 74
     2
176
     1
 91
        2
176
     1
 64
     7
176
     1
 65
   257
176
     1
 75
     1
176
     1
175
     1
176
     1
 42
179.0
176
     1
 92
        8
176
     1
 66
     7
176
     1
 43
1.0
176
     1
 76
     1
176
     1
 77
     6
176
     1
 78
     2
176
     1
 67
     7
176
     1
 79
     3
176
     1
170
     0
176
     1
171
     0
176
     1
290
     0
176
     1
 93
        1
176
     1
 44
0.0
176
     1
173
     0
176
     1
  0
VISUALSTYLE
  5
171
102
{ACAD_REACTORS
330
166
102
}
102
{ACAD_XDICTIONARY
360
19D
102
}
330
166
100
AcDbVisualStyle
  2
Dim
 70
    11
177
     2
291
     1
 71
     2
176
     1
 72
     2
176
     1
 73
     0
176
     1
 90
        0
176
     1
 40
0.6
176
     1
 41
30.0
176
     1
 62
     5
 63
     7
421
 16777215
176
     1
 74
     1
176
     1
 91
        4
176
     1
 64
     7
176
     1
 65
   257
176
     1
 75
     1
176
     1
175
     1
176
     1
 42
1.0
176
     1
 92
        8
176
     1
 66
     7
176
     1
 43
1.0
176
     1
 76
     1
176
     1
 77
     6
176
     1
 78
     2
176
     1
 67
     7
176
     1
 79
     5
176
     1
170
     0
176
     1
171
     0
176
     1
290
     0
176
     1
 93
        1
176
     1
 44
-50.0
176
     1
173
     0
176
     1
  0
VISUALSTYLE
  5
179
102
{ACAD_REACTORS
330
166
102
}
102
{ACAD_XDICTIONARY
360
1AD
102
}
330
166
100
AcDbVisualStyle
  2
EdgeColorOff
 70
    22
177
     2
291
     1
 71
     2
176
     0
 72
     2
176
     0
 73
     0
176
     0
 90
        0
176
     0
 40
0.6
176
     0
 41
30.0
176
     0
 62
     5
 63
     7
421
 16777215
176
     0
 74
     1
176
     0
 91
        4
176
     0
 64
     7
176
     0
 65
   257
176
     0
 75
     1
176
     0
175
     1
176
     0
 42
1.0
176
     0
 92
        8
176
     2
 66
     7
176
     0
 43
1.0
176
     0
 76
     1
176
     0
 77
     6
176
     0
 78
     2
176
     0
 67
     7
176
     0
 79
     5
176
     0
170
     0
176
     0
171
     0
176
     0
290
     0
176
     0
 93
        1
176
     0
 44
0.0
176
     0
173
     0
176
     0
  0
VISUALSTYLE
  5
175
102
{ACAD_REACTORS
330
166
102
}
102
{ACAD_XDICTIONARY
360
1A5
102
}
330
166
100
AcDbVisualStyle
  2
Facepattern
 70
    15
177
     2
291
     1
 71
     2
176
     1
 72
     2
176
     1
 73
     0
176
     1
 90
        0
176
     1
 40
0.6
176
     1
 41
30.0
176
     1
 62
     5
 63
     7
421
 16777215
176
     1
 74
     1
176
     1
 91
        4
176
     1
 64
     7
176
     1
 65
   257
176
     1
 75
     1
176
     1
175
     1
176
     1
 42
1.0
176
     1
 92
        8
176
     1
 66
     7
176
     1
 43
1.0
176
     1
 76
     1
176
     1
 77
     6
176
     1
 78
     2
176
     1
 67
     7
176
     1
 79
     5
176
     1
170
     0
176
     1
171
     0
176
     1
290
     0
176
     1
 93
        1
176
     1
 44
0.0
176
     1
173
     0
176
     1
  0
VISUALSTYLE
  5
167
102
{ACAD_REACTORS
330
166
102
}
102
{ACAD_XDICTIONARY
360
189
102
}
330
166
100
AcDbVisualStyle
  2
Flat
 70
     0
177
     2
291
     1
 71
     2
176
     1
 72
     1
176
     1
 73
     1
176
     1
 90
        2
176
     1
 40
0.6
176
     1
 41
30.0
176
     1
 62
     5
 63
     7
421
 16777215
176
     1
 74
     0
176
     1
 91
        0
176
     1
 64
     7
176
     1
 65
   257
176
     1
 75
     1
176
     1
175
     1
176
     1
 42
1.0
176
     1
 92
        8
176
     1
 66
     7
176
     1
 43
1.0
176
     1
 76
     1
176
     1
 77
     6
176
     1
 78
     2
176
     1
 67
     7
176
     1
 79
     5
176
     1
170
     0
176
     1
171
     0
176
     1
290
     0
176
     1
 93
       13
176
     1
 44
0.0
176
     1
173
     0
176
     1
  0
VISUALSTYLE
  5
168
102
{ACAD_REACTORS
330
166
102
}
102
{ACAD_XDICTIONARY
360
18B
102
}
330
166
100
AcDbVisualStyle
  2
FlatWithEdges
 70
     1
177
     2
291
     1
 71
     2
176
     1
 72
     1
176
     1
 73
     1
176
     1
 90
        2
176
     1
 40
0.6
176
     1
 41
30.0
176
     1
 62
     5
 63
     7
421
 16777215
176
     1
 74
     1
176
     1
 91
        0
176
     1
 64
     7
176
     1
 65
   257
176
     1
 75
     1
176
     1
175
     1
176
     1
 42
1.0
176
     1
 92
        0
176
     1
 66
   257
176
     1
 43
1.0
176
     1
 76
     1
176
     1
 77
     6
176
     1
 78
     2
176
     1
 67
     7
176
     1
 79
     5
176
     1
170
     0
176
     1
171
     0
176
     1
290
     0
176
     1
 93
       13
176
     1
 44
0.0
176
     1
173
     0
176
     1
  0
VISUALSTYLE
  5
169
102
{ACAD_REACTORS
330
166
102
}
102
{ACAD_XDICTIONARY
360
18D
102
}
330
166
100
AcDbVisualStyle
  2
Gouraud
 70
     2
177
     2
291
     1
 71
     2
176
     1
 72
     2
176
     1
 73
     1
176
     1
 90
        2
176
     1
 40
0.6
176
     1
 41
30.0
176
     1
 62
     5
 63
     7
421
 16777215
176
     1
 74
     0
176
     1
 91
        0
176
     1
 64
     7
176
     1
 65
   257
176
     1
 75
     1
176
     1
175
     1
176
     1
 42
1.0
176
     1
 92
        0
176
     1
 66
     7
176
     1
 43
1.0
176
     1
 76
     1
176
     1
 77
     6
176
     1
 78
     2
176
     1
 67
     7
176
     1
 79
     5
176
     1
170
     0
176
     1
171
     0
176
     1
290
     0
176
     1
 93
       13
176
     1
 44
0.0
176
     1
173
     0
176
     1
  0
VISUALSTYLE
  5
16A
102
{ACAD_REACTORS
330
166
102
}
102
{ACAD_XDICTIONARY
360
18F
102
}
330
166
100
AcDbVisualStyle
  2
GouraudWithEdges
 70
     3
177
     2
291
     1
 71
     2
176
     1
 72
     2
176
     1
 73
     1
176
     1
 90
        2
176
     1
 40
0.6
176
     1
 41
30.0
176
     1
 62
     5
 63
     7
421
 16777215
176
     1
 74
     1
176
     1
 91
        0
176
     1
 64
     7
176
     1
 65
   257
176
     1
 75
     1
176
     1
175
     1
176
     1
 42
1.0
176
     1
 92
        0
176
     1
 66
   257
176
     1
 43
1.0
176
     1
 76
     1
176
     1
 77
     6
176
     1
 78
     2
176
     1
 67
     7
176
     1
 79
     5
176
     1
170
     0
176
     1
171
     0
176
     1
290
     0
176
     1
 93
       13
176
     1
 44
0.0
176
     1
173
     0
176
     1
  0
VISUALSTYLE
  5
16D
102
{ACAD_REACTORS
330
166
102
}
102
{ACAD_XDICTIONARY
360
195
102
}
330
166
100
AcDbVisualStyle
  2
Hidden
 70
     6
177
     2
291
     0
 71
     1
176
     1
 72
     2
176
     1
 73
     2
176
     1
 90
        0
176
     1
 40
0.6
176
     1
 41
30.0
176
     1
 62
     5
 63
     7
421
 16777215
176
     1
 74
     2
176
     1
 91
        2
176
     1
 64
     7
176
     1
 65
   257
176
     1
 75
     2
176
     1
175
     1
176
     1
 42
40.0
176
     1
 92
        0
176
     1
 66
   257
176
     1
 43
1.0
176
     1
 76
     1
176
     1
 77
     6
176
     1
 78
     2
176
     1
 67
     7
176
     1
 79
     3
176
     1
170
     0
176
     1
171
     0
176
     1
290
     0
176
     1
 93
        1
176
     1
 44
0.0
176
     1
173
     0
176
     1
  0
VISUALSTYLE
  5
177
102
{ACAD_REACTORS
330
166
102
}
102
{ACAD_XDICTIONARY
360
1A9
102
}
330
166
100
AcDbVisualStyle
  2
JitterOff
 70
    20
177
     2
291
     1
 71
     2
176
     0
 72
     2
176
     0
 73
     0
176
     0
 90
        0
176
     0
 40
0.6
176
     0
 41
30.0
176
     0
 62
     5
 63
     7
421
 16777215
176
     0
 74
     1
176
     0
 91
        4
176
     0
 64
     7
176
     0
 65
   257
176
     0
 75
     1
176
     0
175
     1
176
     0
 42
1.0
176
     0
 92
       10
176
     2
 66
     7
176
     0
 43
1.0
176
     0
 76
     1
176
     0
 77
     6
176
     0
 78
     2
176
     0
 67
     7
176
     0
 79
     5
176
     0
170
     0
176
     0
171
     0
176
     0
290
     0
176
     0
 93
        1
176
     0
 44
0.0
176
     0
173
     0
176
     0
  0
VISUALSTYLE
  5
174
102
{ACAD_REACTORS
330
166
102
}
102
{ACAD_XDICTIONARY
360
1A3
102
}
330
166
100
AcDbVisualStyle
  2
Linepattern
 70
    14
177
     2
291
     1
 71
     2
176
     1
 72
     2
176
     1
 73
     0
176
     1
 90
        0
176
     1
 40
0.6
176
     1
 41
30.0
176
     1
 62
     5
 63
     7
421
 16777215
176
     1
 74
     1
176
     1
 91
        4
176
     1
 64
     7
176
     1
 65
   257
176
     1
 75
     7
176
     1
175
     7
176
     1
 42
1.0
176
     1
 92
        8
176
     1
 66
     7
176
     1
 43
1.0
176
     1
 76
     1
176
     1
 77
     6
176
     1
 78
     2
176
     1
 67
     7
176
     1
 79
     5
176
     1
170
     0
176
     1
171
     0
176
     1
290
     0
176
     1
 93
        1
176
     1
 44
0.0
176
     1
173
     0
176
     1
  0
VISUALSTYLE
  5
178
102
{ACAD_REACTORS
330
166
102
}
102
{ACAD_XDICTIONARY
360
1AB
102
}
330
166
100
AcDbVisualStyle
  2
OverhangOff
 70
    21
177
     2
291
     1
 71
     2
176
     0
 72
     2
176
     0
 73
     0
176
     0
 90
        0
176
     0
 40
0.6
176
     0
 41
30.0
176
     0
 62
     5
 63
     7
421
 16777215
176
     0
 74
     1
176
     0
 91
        4
176
     0
 64
     7
176
     0
 65
   257
176
     0
 75
     1
176
     0
175
     1
176
     0
 42
1.0
176
     0
 92
        9
176
     2
 66
     7
176
     0
 43
1.0
176
     0
 76
     1
176
     0
 77
     6
176
     0
 78
     2
176
     0
 67
     7
176
     0
 79
     5
176
     0
170
     0
176
     0
171
     0
176
     0
290
     0
176
     0
 93
        1
176
     0
 44
0.0
176
     0
173
     0
176
     0
  0
VISUALSTYLE
  5
16F
102
{ACAD_REACTORS
330
166
102
}
102
{ACAD_XDICTIONARY
360
199
102
}
330
166
100
AcDbVisualStyle
  2
Realistic
 70
     8
177
     2
291
     0
 71
     2
176
     1
 72
     3
176
     1
 73
     0
176
     1
 90
        2
176
     1
 40
0.6
176
     1
 41
30.0
176
     1
 62
     5
 63
     7
421
 16777215
176
     1
 74
     0
176
     1
 91
        0
176
     1
 64
     7
176
     1
 65
   257
176
     1
 75
     1
176
     1
175
     1
176
     1
 42
1.0
176
     1
 92
        8
176
     1
 66
   257
176
     1
 43
1.0
176
     1
 76
     1
176
     1
 77
     6
176
     1
 78
     2
176
     1
 67
     7
176
     1
 79
     3
176
     1
170
     0
176
     1
171
     0
176
     1
290
     0
176
     1
 93
       13
176
     1
 44
0.0
176
     1
173
     0
176
     1
  0
VISUALSTYLE
  5
17E
102
{ACAD_REACTORS
330
166
102
}
102
{ACAD_XDICTIONARY
360
1B7
102
}
330
166
100
AcDbVisualStyle
  2
Shaded
 70
    27
177
     2
291
     0
 71
     2
176
     1
 72
     2
176
     1
 73
     1
176
     1
 90
        2
176
     1
 40
0.6
176
     1
 41
30.0
176
     1
 62
     5
 63
     7
421
 16777215
176
     1
 74
     0
176
     1
 91
        4
176
     1
 64
     7
176
     1
 65
   257
176
     1
 75
     1
176
     1
175
     1
176
     1
 42
1.0
176
     1
 92
        8
176
     1
 66
   257
176
     1
 43
1.0
176
     1
 76
     1
176
     1
 77
     6
176
     1
 78
     2
176
     1
 67
     8
425
  7895160
176
     1
 79
     3
176
     1
170
     0
176
     1
171
     0
176
     1
290
     0
176
     1
 93
        5
176
     1
 44
0.0
176
     1
173
     0
176
     1
  0
VISUALSTYLE
  5
17D
102
{ACAD_REACTORS
330
166
102
}
102
{ACAD_XDICTIONARY
360
1B5
102
}
330
166
100
AcDbVisualStyle
  2
Shaded with edges
 70
    26
177
     2
291
     0
 71
     2
176
     1
 72
     2
176
     1
 73
     1
176
     1
 90
        2
176
     1
 40
0.6
176
     1
 41
30.0
176
     1
 62
     5
 63
     7
421
 16777215
176
     1
 74
     1
176
     1
 91
       10
176
     1
 64
     7
176
     1
 65
   257
176
     1
 75
     2
176
     1
175
     1
176
     1
 42
1.0
176
     1
 92
        8
176
     1
 66
   257
176
     1
 43
1.0
176
     1
 76
     1
176
     1
 77
     6
176
     1
 78
     2
176
     1
 67
     7
176
     1
 79
     3
176
     1
170
     0
176
     1
171
     0
176
     1
290
     0
176
     1
 93
        5
176
     1
 44
0.0
176
     1
173
     0
176
     1
  0
VISUALSTYLE
  5
17A
102
{ACAD_REACTORS
330
166
102
}
102
{ACAD_XDICTIONARY
360
1AF
102
}
330
166
100
AcDbVisualStyle
  2
Shades of Gray
 70
    23
177
     2
291
     0
 71
     2
176
     1
 72
     2
176
     1
 73
     3
176
     1
 90
        0
176
     1
 40
0.6
176
     1
 41
30.0
176
     1
 62
     5
 63
     7
421
 16777215
176
     1
 74
     2
176
     1
 91
        2
176
     1
 64
     7
176
     1
 65
     7
176
     1
 75
     1
176
     1
175
     1
176
     1
 42
40.0
176
     1
 92
        8
176
     1
 66
     7
176
     1
 43
1.0
176
     1
 76
     1
176
     1
 77
     6
176
     1
 78
     2
176
     1
 67
     7
176
     1
 79
     3
176
     1
170
     0
176
     1
171
     0
176
     1
290
     0
176
     1
 93
        1
176
     1
 44
0.0
176
     1
173
     0
176
     1
  0
VISUALSTYLE
  5
17B
102
{ACAD_REACTORS
330
166
102
}
102
{ACAD_XDICTIONARY
360
1B1
102
}
330
166
100
AcDbVisualStyle
  2
Sketchy
 70
    24
177
     2
291
     0
 71
     1
176
     1
 72
     2
176
     1
 73
     2
176
     1
 90
        0
176
     1
 40
0.6
176
     1
 41
30.0
176
     1
 62
     5
 63
     7
421
 16777215
176
     1
 74
     2
176
     1
 91
        2
176
     1
 64
     7
176
     1
 65
     7
176
     1
 75
     1
176
     1
175
     1
176
     1
 42
40.0
176
     1
 92
       11
176
     1
 66
     7
176
     1
 43
1.0
176
     1
 76
     1
176
     1
 77
     6
176
     1
 78
     2
176
     1
 67
     7
176
     1
 79
     6
176
     1
170
     0
176
     1
171
     0
176
     1
290
     0
176
     1
 93
        1
176
     1
 44
0.0
176
     1
173
     0
176
     1
  0
VISUALSTYLE
  5
173
102
{ACAD_REACTORS
330
166
102
}
102
{ACAD_XDICTIONARY
360
1A1
102
}
330
166
100
AcDbVisualStyle
  2
Thicken
 70
    13
177
     2
291
     1
 71
     2
176
     1
 72
     2
176
     1
 73
     0
176
     1
 90
        0
176
     1
 40
0.6
176
     1
 41
30.0
176
     1
 62
     5
 63
     7
421
 16777215
176
     1
 74
     1
176
     1
 91
        4
176
     1
 64
     7
176
     1
 65
   257
176
     1
 75
     1
176
     1
175
     1
176
     1
 42
1.0
176
     1
 92
       12
176
     1
 66
     7
176
     1
 43
1.0
176
     1
 76
     1
176
     1
 77
     6
176
     1
 78
     2
176
     1
 67
     7
176
     1
 79
     5
176
     1
170
     0
176
     1
171
     0
176
     1
290
     0
176
     1
 93
        1
176
     1
 44
0.0
176
     1
173
     0
176
     1
  0
VISUALSTYLE
  5
16C
102
{ACAD_REACTORS
330
166
102
}
102
{ACAD_XDICTIONARY
360
193
102
}
330
166
100
AcDbVisualStyle
  2
Wireframe
 70
     5
177
     2
291
     0
 71
     0
176
     1
 72
     2
176
     1
 73
     0
176
     1
 90
        0
176
     1
 40
0.6
176
     1
 41
30.0
176
     1
 62
     5
 63
     7
421
 16777215
176
     1
 74
     1
176
     1
 91
        4
176
     1
 64
     7
176
     1
 65
   257
176
     1
 75
     1
176
     1
175
     1
176
     1
 42
1.0
176
     1
 92
        0
176
     1
 66
   257
176
     1
 43
1.0
176
     1
 76
     1
176
     1
 77
     6
176
     1
 78
     2
176
     1
 67
     7
176
     1
 79
     3
176
     1
170
     0
176
     1
171
     0
176
     1
290
     0
176
     1
 93
        1
176
     1
 44
0.0
176
     1
173
     0
176
     1
  0
VISUALSTYLE
  5
17C
102
{ACAD_REACTORS
330
166
102
}
102
{ACAD_XDICTIONARY
360
1B3
102
}
330
166
100
AcDbVisualStyle
  2
X-Ray
 70
    25
177
     2
291
     0
 71
     2
176
     1
 72
     2
176
     1
 73
     1
176
     1
 90
        1
176
     1
 40
0.5
176
     1
 41
30.0
176
     1
 62
     5
 63
     7
421
 16777215
176
     1
 74
     1
176
     1
 91
        0
176
     1
 64
     7
176
     1
 65
   257
176
     1
 75
     1
176
     1
175
     1
176
     1
 42
1.0
176
     1
 92
        8
176
     1
 66
     7
176
     1
 43
1.0
176
     1
 76
     1
176
     1
 77
     6
176
     1
 78
     2
176
     1
 67
     7
176
     1
 79
     3
176
     1
170
     0
176
     1
171
     0
176
     1
290
     0
176
     1
 93
       13
176
     1
 44
0.0
176
     1
173
     0
176
     1
  0
DICTIONARYVAR
  5
188
102
{ACAD_REACTORS
330
187
102
}
330
187
100
DictionaryVariables
280
     0
  1
1:1
  0
DICTIONARYVAR
  5
1BD
102
{ACAD_REACTORS
330
187
102
}
330
187
100
DictionaryVariables
280
     0
  1
Standard
  0
DICTIONARYVAR
  5
1BC
102
{ACAD_REACTORS
330
187
102
}
330
187
100
DictionaryVariables
280
     0
  1
Standard
  0
DICTIONARYVAR
  5
1BE
102
{ACAD_REACTORS
330
187
102
}
330
187
100
DictionaryVariables
280
     0
  1
0
  0
DICTIONARY
  5
1B9
330
184
100
AcDbDictionary
280
     1
281
     1
  3
ACAD_ROUNDTRIP_2008_TABLESTYLE_CELLSTYLEMAP
360
1BA
  0
DICTIONARY
  5
191
330
16B
100
AcDbDictionary
280
     1
281
     1
  3
ACAD_XREC_ROUNDTRIP
360
192
  0
DICTIONARY
  5
197
330
16E
100
AcDbDictionary
280
     1
281
     1
  3
ACAD_XREC_ROUNDTRIP
360
198
  0
DICTIONARY
  5
19F
330
172
100
AcDbDictionary
280
     1
281
     1
  3
ACAD_XREC_ROUNDTRIP
360
1A0
  0
DICTIONARY
  5
1A7
330
176
100
AcDbDictionary
280
     1
281
     1
  3
ACAD_XREC_ROUNDTRIP
360
1A8
  0
DICTIONARY
  5
19B
330
170
100
AcDbDictionary
280
     1
281
     1
  3
ACAD_XREC_ROUNDTRIP
360
19C
  0
DICTIONARY
  5
19D
330
171
100
AcDbDictionary
280
     1
281
     1
  3
ACAD_XREC_ROUNDTRIP
360
19E
  0
DICTIONARY
  5
1AD
330
179
100
AcDbDictionary
280
     1
281
     1
  3
ACAD_XREC_ROUNDTRIP
360
1AE
  0
DICTIONARY
  5
1A5
330
175
100
AcDbDictionary
280
     1
281
     1
  3
ACAD_XREC_ROUNDTRIP
360
1A6
  0
DICTIONARY
  5
189
330
167
100
AcDbDictionary
280
     1
281
     1
  3
ACAD_XREC_ROUNDTRIP
360
18A
  0
DICTIONARY
  5
18B
330
168
100
AcDbDictionary
280
     1
281
     1
  3
ACAD_XREC_ROUNDTRIP
360
18C
  0
DICTIONARY
  5
18D
330
169
100
AcDbDictionary
280
     1
281
     1
  3
ACAD_XREC_ROUNDTRIP
360
18E
  0
DICTIONARY
  5
18F
330
16A
100
AcDbDictionary
280
     1
281
     1
  3
ACAD_XREC_ROUNDTRIP
360
190
  0
DICTIONARY
  5
195
330
16D
100
AcDbDictionary
280
     1
281
     1
  3
ACAD_XREC_ROUNDTRIP
360
196
  0
DICTIONARY
  5
1A9
330
177
100
AcDbDictionary
280
     1
281
     1
  3
ACAD_XREC_ROUNDTRIP
360
1AA
  0
DICTIONARY
  5
1A3
330
174
100
AcDbDictionary
280
     1
281
     1
  3
ACAD_XREC_ROUNDTRIP
360
1A4
  0
DICTIONARY
  5
1AB
330
178
100
AcDbDictionary
280
     1
281
     1
  3
ACAD_XREC_ROUNDTRIP
360
1AC
  0
DICTIONARY
  5
199
330
16F
100
AcDbDictionary
280
     1
281
     1
  3
ACAD_XREC_ROUNDTRIP
360
19A
  0
DICTIONARY
  5
1B7
330
17E
100
AcDbDictionary
280
     1
281
     1
  3
ACAD_XREC_ROUNDTRIP
360
1B8
  0
DICTIONARY
  5
1B5
330
17D
100
AcDbDictionary
280
     1
281
     1
  3
ACAD_XREC_ROUNDTRIP
360
1B6
  0
DICTIONARY
  5
1AF
330
17A
100
AcDbDictionary
280
     1
281
     1
  3
ACAD_XREC_ROUNDTRIP
360
1B0
  0
DICTIONARY
  5
1B1
330
17B
100
AcDbDictionary
280
     1
281
     1
  3
ACAD_XREC_ROUNDTRIP
360
1B2
  0
DICTIONARY
  5
1A1
330
173
100
AcDbDictionary
280
     1
281
     1
  3
ACAD_XREC_ROUNDTRIP
360
1A2
  0
DICTIONARY
  5
193
330
16C
100
AcDbDictionary
280
     1
281
     1
  3
ACAD_XREC_ROUNDTRIP
360
194
  0
DICTIONARY
  5
1B3
330
17C
100
AcDbDictionary
280
     1
281
     1
  3
ACAD_XREC_ROUNDTRIP
360
1B4
  0
CELLSTYLEMAP
  5
1BA
102
{ACAD_REACTORS
330
1B9
102
}
330
1B9
100
AcDbCellStyleMap
 90
        3
300
CELLSTYLE
  1
TABLEFORMAT_BEGIN
 90
        5
170
     1
 91
        0
 92
    32768
 62
   257
 93
        1
300
CONTENTFORMAT
  1
CONTENTFORMAT_BEGIN
 90
        0
 91
        0
 92
        4
 93
        0
300

 40
0.0
140
1.0
 94
        5
 62
     0
340
17
144
0.25
309
CONTENTFORMAT_END
171
     1
301
MARGIN
  1
CELLMARGIN_BEGIN
 40
0.06
 40
0.06
 40
0.06
 40
0.06
 40
0.06
 40
0.06
309
CELLMARGIN_END
 94
        6
 95
        1
302
GRIDFORMAT
  1
GRIDFORMAT_BEGIN
 90
        0
 91
        1
 62
     0
 92
       -2
340
11
 93
        0
 40
0.045
309
GRIDFORMAT_END
 95
        2
302
GRIDFORMAT
  1
GRIDFORMAT_BEGIN
 90
        0
 91
        1
 62
     0
 92
       -2
340
11
 93
        0
 40
0.045
309
GRIDFORMAT_END
 95
        4
302
GRIDFORMAT
  1
GRIDFORMAT_BEGIN
 90
        0
 91
        1
 62
     0
 92
       -2
340
11
 93
        0
 40
0.045
309
GRIDFORMAT_END
 95
        8
302
GRIDFORMAT
  1
GRIDFORMAT_BEGIN
 90
        0
 91
        1
 62
     0
 92
       -2
340
11
 93
        0
 40
0.045
309
GRIDFORMAT_END
 95
       16
302
GRIDFORMAT
  1
GRIDFORMAT_BEGIN
 90
        0
 91
        1
 62
     0
 92
       -2
340
11
 93
        0
 40
0.045
309
GRIDFORMAT_END
 95
       32
302
GRIDFORMAT
  1
GRIDFORMAT_BEGIN
 90
        0
 91
        1
 62
     0
 92
       -2
340
11
 93
        0
 40
0.045
309
GRIDFORMAT_END
309
TABLEFORMAT_END
  1
CELLSTYLE_BEGIN
 90
        1
 91
        1
300
_TITLE
309
CELLSTYLE_END
300
CELLSTYLE
  1
TABLEFORMAT_BEGIN
 90
        5
170
     1
 91
        0
 92
        0
 62
   257
 93
        1
300
CONTENTFORMAT
  1
CONTENTFORMAT_BEGIN
 90
        0
 91
        0
 92
        4
 93
        0
300

 40
0.0
140
1.0
 94
        5
 62
     0
340
17
144
0.18
309
CONTENTFORMAT_END
171
     1
301
MARGIN
  1
CELLMARGIN_BEGIN
 40
0.06
 40
0.06
 40
0.06
 40
0.06
 40
0.06
 40
0.06
309
CELLMARGIN_END
 94
        6
 95
        1
302
GRIDFORMAT
  1
GRIDFORMAT_BEGIN
 90
        0
 91
        1
 62
     0
 92
       -2
340
11
 93
        0
 40
0.045
309
GRIDFORMAT_END
 95
        2
302
GRIDFORMAT
  1
GRIDFORMAT_BEGIN
 90
        0
 91
        1
 62
     0
 92
       -2
340
11
 93
        0
 40
0.045
309
GRIDFORMAT_END
 95
        4
302
GRIDFORMAT
  1
GRIDFORMAT_BEGIN
 90
        0
 91
        1
 62
     0
 92
       -2
340
11
 93
        0
 40
0.045
309
GRIDFORMAT_END
 95
        8
302
GRIDFORMAT
  1
GRIDFORMAT_BEGIN
 90
        0
 91
        1
 62
     0
 92
       -2
340
11
 93
        0
 40
0.045
309
GRIDFORMAT_END
 95
       16
302
GRIDFORMAT
  1
GRIDFORMAT_BEGIN
 90
        0
 91
        1
 62
     0
 92
       -2
340
11
 93
        0
 40
0.045
309
GRIDFORMAT_END
 95
       32
302
GRIDFORMAT
  1
GRIDFORMAT_BEGIN
 90
        0
 91
        1
 62
     0
 92
       -2
340
11
 93
        0
 40
0.045
309
GRIDFORMAT_END
309
TABLEFORMAT_END
  1
CELLSTYLE_BEGIN
 90
        2
 91
        1
300
_HEADER
309
CELLSTYLE_END
300
CELLSTYLE
  1
TABLEFORMAT_BEGIN
 90
        5
170
     1
 91
        0
 92
        0
 62
   257
 93
        1
300
CONTENTFORMAT
  1
CONTENTFORMAT_BEGIN
 90
        0
 91
        0
 92
        4
 93
        0
300

 40
0.0
140
1.0
 94
        2
 62
     0
340
17
144
0.18
309
CONTENTFORMAT_END
171
     1
301
MARGIN
  1
CELLMARGIN_BEGIN
 40
0.06
 40
0.06
 40
0.06
 40
0.06
 40
0.06
 40
0.06
309
CELLMARGIN_END
 94
        6
 95
        1
302
GRIDFORMAT
  1
GRIDFORMAT_BEGIN
 90
        0
 91
        1
 62
     0
 92
       -2
340
11
 93
        0
 40
0.045
309
GRIDFORMAT_END
 95
        2
302
GRIDFORMAT
  1
GRIDFORMAT_BEGIN
 90
        0
 91
        1
 62
     0
 92
       -2
340
11
 93
        0
 40
0.045
309
GRIDFORMAT_END
 95
        4
302
GRIDFORMAT
  1
GRIDFORMAT_BEGIN
 90
        0
 91
        1
 62
     0
 92
       -2
340
11
 93
        0
 40
0.045
309
GRIDFORMAT_END
 95
        8
302
GRIDFORMAT
  1
GRIDFORMAT_BEGIN
 90
        0
 91
        1
 62
     0
 92
       -2
340
11
 93
        0
 40
0.045
309
GRIDFORMAT_END
 95
       16
302
GRIDFORMAT
  1
GRIDFORMAT_BEGIN
 90
        0
 91
        1
 62
     0
 92
       -2
340
11
 93
        0
 40
0.045
309
GRIDFORMAT_END
 95
       32
302
GRIDFORMAT
  1
GRIDFORMAT_BEGIN
 90
        0
 91
        1
 62
     0
 92
       -2
340
11
 93
        0
 40
0.045
309
GRIDFORMAT_END
309
TABLEFORMAT_END
  1
CELLSTYLE_BEGIN
 90
        3
 91
        2
300
_DATA
309
CELLSTYLE_END
  0
XRECORD
  5
192
102
{ACAD_REACTORS
330
191
102
}
330
191
100
AcDbXrecord
280
     1
102
RTVSPost2010Prop28
280
     1
102
RTVSPost2010PropOp28
 70
     1
102
RTVSPost2010Prop29
280
     1
102
RTVSPost2010PropOp29
 70
     1
102
RTVSPost2010Prop30
280
     0
102
RTVSPost2010PropOp30
 70
     1
102
RTVSPost2010Prop31
280
     0
102
RTVSPost2010PropOp31
 70
     1
102
RTVSPost2010Prop32
280
     0
102
RTVSPost2010PropOp32
 70
     1
102
RTVSPost2010Prop33
280
     0
102
RTVSPost2010PropOp33
 70
     1
102
RTVSPost2010Prop34
280
     0
102
RTVSPost2010PropOp34
 70
     1
102
RTVSPost2010Prop35
280
     0
102
RTVSPost2010PropOp35
 70
     1
102
RTVSPost2010Prop36
280
     0
102
RTVSPost2010PropOp36
 70
     1
102
RTVSPost2010Prop37
 90
       50
102
RTVSPost2010PropOp37
 70
     1
102
RTVSPost2010Prop38
140
0.0
102
RTVSPost2010PropOp38
 70
     1
102
RTVSPost2010Prop39
140
1.0
102
RTVSPost2010PropOp39
 70
     1
102
RTVSPost2010Prop40
 90
        0
102
RTVSPost2010PropOp40
 70
     1
102
RTVSPost2010Prop41ColorIndex
 90
       18
102
RTVSPost2010Prop41ColorRGB
 90
        0
102
RTVSPost2010PropOp41
 70
     1
102
RTVSPost2010Prop42
 90
       50
102
RTVSPost2010PropOp42
 70
     1
102
RTVSPost2010Prop43
 90
        3
102
RTVSPost2010PropOp43
 70
     1
102
RTVSPost2010Prop44ColorIndex
 90
        5
102
RTVSPost2010Prop44ColorRGB
 90
      255
102
RTVSPost2010PropOp44
 70
     1
102
RTVSPost2010Prop45
280
     0
102
RTVSPost2010PropOp45
 70
     1
102
RTVSPost2010Prop46
 90
       50
102
RTVSPost2010PropOp46
 70
     1
102
RTVSPost2010Prop47
 90
       50
102
RTVSPost2010PropOp47
 70
     1
102
RTVSPost2010Prop48
 90
       50
102
RTVSPost2010PropOp48
 70
     1
102
RTVSPost2010Prop49
280
     0
102
RTVSPost2010PropOp49
 70
     1
102
RTVSPost2010Prop50
 90
       50
102
RTVSPost2010PropOp50
 70
     1
102
RTVSPost2010Prop51ColorIndex
 90
      256
102
RTVSPost2010Prop51ColorRGB
 90
-16777216
102
RTVSPost2010PropOp51
 70
     0
102
RTVSPost2010Prop52
140
1.0
102
RTVSPost2010PropOp52
 70
     0
102
RTVSPost2010Prop53
 90
        2
102
RTVSPost2010PropOp53
 70
     1
102
RTVSPost2010Prop54
  1
strokes_ogs.tif
102
RTVSPost2010PropOp54
 70
     1
102
RTVSPost2010Prop55
280
     0
102
RTVSPost2010PropOp55
 70
     1
102
RTVSPost2010Prop56
140
1.0
102
RTVSPost2010PropOp56
 70
     1
102
RTVSPost2010Prop57
140
1.0
102
RTVSPost2010PropOp57
 70
     1
  0
XRECORD
  5
198
102
{ACAD_REACTORS
330
197
102
}
330
197
100
AcDbXrecord
280
     1
102
RTVSPost2010Prop28
280
     0
102
RTVSPost2010PropOp28
 70
     1
102
RTVSPost2010Prop29
280
     1
102
RTVSPost2010PropOp29
 70
     1
102
RTVSPost2010Prop30
280
     1
102
RTVSPost2010PropOp30
 70
     1
102
RTVSPost2010Prop31
280
     0
102
RTVSPost2010PropOp31
 70
     1
102
RTVSPost2010Prop32
280
     0
102
RTVSPost2010PropOp32
 70
     1
102
RTVSPost2010Prop33
280
     0
102
RTVSPost2010PropOp33
 70
     1
102
RTVSPost2010Prop34
280
     0
102
RTVSPost2010PropOp34
 70
     1
102
RTVSPost2010Prop35
280
     0
102
RTVSPost2010PropOp35
 70
     1
102
RTVSPost2010Prop36
280
     0
102
RTVSPost2010PropOp36
 70
     1
102
RTVSPost2010Prop37
 90
       50
102
RTVSPost2010PropOp37
 70
     1
102
RTVSPost2010Prop38
140
0.0
102
RTVSPost2010PropOp38
 70
     1
102
RTVSPost2010Prop39
140
1.0
102
RTVSPost2010PropOp39
 70
     1
102
RTVSPost2010Prop40
 90
        0
102
RTVSPost2010PropOp40
 70
     1
102
RTVSPost2010Prop41ColorIndex
 90
       18
102
RTVSPost2010Prop41ColorRGB
 90
        0
102
RTVSPost2010PropOp41
 70
     1
102
RTVSPost2010Prop42
 90
       50
102
RTVSPost2010PropOp42
 70
     1
102
RTVSPost2010Prop43
 90
        3
102
RTVSPost2010PropOp43
 70
     1
102
RTVSPost2010Prop44ColorIndex
 90
        5
102
RTVSPost2010Prop44ColorRGB
 90
      255
102
RTVSPost2010PropOp44
 70
     1
102
RTVSPost2010Prop45
280
     0
102
RTVSPost2010PropOp45
 70
     1
102
RTVSPost2010Prop46
 90
       50
102
RTVSPost2010PropOp46
 70
     1
102
RTVSPost2010Prop47
 90
       50
102
RTVSPost2010PropOp47
 70
     1
102
RTVSPost2010Prop48
 90
       50
102
RTVSPost2010PropOp48
 70
     1
102
RTVSPost2010Prop49
280
     0
102
RTVSPost2010PropOp49
 70
     1
102
RTVSPost2010Prop50
 90
       50
102
RTVSPost2010PropOp50
 70
     1
102
RTVSPost2010Prop51ColorIndex
 90
      256
102
RTVSPost2010Prop51ColorRGB
 90
-16777216
102
RTVSPost2010PropOp51
 70
     0
102
RTVSPost2010Prop52
140
1.0
102
RTVSPost2010PropOp52
 70
     0
102
RTVSPost2010Prop53
 90
        2
102
RTVSPost2010PropOp53
 70
     1
102
RTVSPost2010Prop54
  1
strokes_ogs.tif
102
RTVSPost2010PropOp54
 70
     1
102
RTVSPost2010Prop55
280
     0
102
RTVSPost2010PropOp55
 70
     1
102
RTVSPost2010Prop56
140
1.0
102
RTVSPost2010PropOp56
 70
     1
102
RTVSPost2010Prop57
140
1.0
102
RTVSPost2010PropOp57
 70
     1
  0
XRECORD
  5
1A0
102
{ACAD_REACTORS
330
19F
102
}
330
19F
100
AcDbXrecord
280
     1
102
RTVSPost2010Prop28
280
     0
102
RTVSPost2010PropOp28
 70
     1
102
RTVSPost2010Prop29
280
     1
102
RTVSPost2010PropOp29
 70
     1
102
RTVSPost2010Prop30
280
     1
102
RTVSPost2010PropOp30
 70
     1
102
RTVSPost2010Prop31
280
     0
102
RTVSPost2010PropOp31
 70
     1
102
RTVSPost2010Prop32
280
     0
102
RTVSPost2010PropOp32
 70
     1
102
RTVSPost2010Prop33
280
     0
102
RTVSPost2010PropOp33
 70
     1
102
RTVSPost2010Prop34
280
     0
102
RTVSPost2010PropOp34
 70
     1
102
RTVSPost2010Prop35
280
     0
102
RTVSPost2010PropOp35
 70
     1
102
RTVSPost2010Prop36
280
     0
102
RTVSPost2010PropOp36
 70
     1
102
RTVSPost2010Prop37
 90
       50
102
RTVSPost2010PropOp37
 70
     1
102
RTVSPost2010Prop38
140
0.0
102
RTVSPost2010PropOp38
 70
     1
102
RTVSPost2010Prop39
140
1.0
102
RTVSPost2010PropOp39
 70
     1
102
RTVSPost2010Prop40
 90
        0
102
RTVSPost2010PropOp40
 70
     1
102
RTVSPost2010Prop41ColorIndex
 90
       18
102
RTVSPost2010Prop41ColorRGB
 90
        0
102
RTVSPost2010PropOp41
 70
     1
102
RTVSPost2010Prop42
 90
       50
102
RTVSPost2010PropOp42
 70
     1
102
RTVSPost2010Prop43
 90
        3
102
RTVSPost2010PropOp43
 70
     1
102
RTVSPost2010Prop44ColorIndex
 90
        5
102
RTVSPost2010Prop44ColorRGB
 90
      255
102
RTVSPost2010PropOp44
 70
     1
102
RTVSPost2010Prop45
280
     0
102
RTVSPost2010PropOp45
 70
     1
102
RTVSPost2010Prop46
 90
       50
102
RTVSPost2010PropOp46
 70
     1
102
RTVSPost2010Prop47
 90
       50
102
RTVSPost2010PropOp47
 70
     1
102
RTVSPost2010Prop48
 90
       50
102
RTVSPost2010PropOp48
 70
     1
102
RTVSPost2010Prop49
280
     0
102
RTVSPost2010PropOp49
 70
     1
102
RTVSPost2010Prop50
 90
       50
102
RTVSPost2010PropOp50
 70
     1
102
RTVSPost2010Prop51ColorIndex
 90
      256
102
RTVSPost2010Prop51ColorRGB
 90
-16777216
102
RTVSPost2010PropOp51
 70
     0
102
RTVSPost2010Prop52
140
1.0
102
RTVSPost2010PropOp52
 70
     0
102
RTVSPost2010Prop53
 90
        2
102
RTVSPost2010PropOp53
 70
     1
102
RTVSPost2010Prop54
  1
strokes_ogs.tif
102
RTVSPost2010PropOp54
 70
     1
102
RTVSPost2010Prop55
280
     0
102
RTVSPost2010PropOp55
 70
     1
102
RTVSPost2010Prop56
140
1.0
102
RTVSPost2010PropOp56
 70
     1
102
RTVSPost2010Prop57
140
1.0
102
RTVSPost2010PropOp57
 70
     1
  0
XRECORD
  5
1A8
102
{ACAD_REACTORS
330
1A7
102
}
330
1A7
100
AcDbXrecord
280
     1
102
RTVSPost2010Prop28
280
     0
102
RTVSPost2010PropOp28
 70
     1
102
RTVSPost2010Prop29
280
     1
102
RTVSPost2010PropOp29
 70
     1
102
RTVSPost2010Prop30
280
     1
102
RTVSPost2010PropOp30
 70
     1
102
RTVSPost2010Prop31
280
     0
102
RTVSPost2010PropOp31
 70
     1
102
RTVSPost2010Prop32
280
     0
102
RTVSPost2010PropOp32
 70
     1
102
RTVSPost2010Prop33
280
     0
102
RTVSPost2010PropOp33
 70
     1
102
RTVSPost2010Prop34
280
     0
102
RTVSPost2010PropOp34
 70
     1
102
RTVSPost2010Prop35
280
     0
102
RTVSPost2010PropOp35
 70
     1
102
RTVSPost2010Prop36
280
     0
102
RTVSPost2010PropOp36
 70
     1
102
RTVSPost2010Prop37
 90
       50
102
RTVSPost2010PropOp37
 70
     1
102
RTVSPost2010Prop38
140
0.0
102
RTVSPost2010PropOp38
 70
     1
102
RTVSPost2010Prop39
140
1.0
102
RTVSPost2010PropOp39
 70
     1
102
RTVSPost2010Prop40
 90
        0
102
RTVSPost2010PropOp40
 70
     1
102
RTVSPost2010Prop41ColorIndex
 90
       18
102
RTVSPost2010Prop41ColorRGB
 90
        0
102
RTVSPost2010PropOp41
 70
     1
102
RTVSPost2010Prop42
 90
       50
102
RTVSPost2010PropOp42
 70
     1
102
RTVSPost2010Prop43
 90
        3
102
RTVSPost2010PropOp43
 70
     1
102
RTVSPost2010Prop44ColorIndex
 90
        5
102
RTVSPost2010Prop44ColorRGB
 90
      255
102
RTVSPost2010PropOp44
 70
     1
102
RTVSPost2010Prop45
280
     0
102
RTVSPost2010PropOp45
 70
     1
102
RTVSPost2010Prop46
 90
       50
102
RTVSPost2010PropOp46
 70
     1
102
RTVSPost2010Prop47
 90
       50
102
RTVSPost2010PropOp47
 70
     1
102
RTVSPost2010Prop48
 90
       50
102
RTVSPost2010PropOp48
 70
     1
102
RTVSPost2010Prop49
280
     0
102
RTVSPost2010PropOp49
 70
     1
102
RTVSPost2010Prop50
 90
       50
102
RTVSPost2010PropOp50
 70
     1
102
RTVSPost2010Prop51ColorIndex
 90
      256
102
RTVSPost2010Prop51ColorRGB
 90
-16777216
102
RTVSPost2010PropOp51
 70
     0
102
RTVSPost2010Prop52
140
1.0
102
RTVSPost2010PropOp52
 70
     0
102
RTVSPost2010Prop53
 90
        2
102
RTVSPost2010PropOp53
 70
     1
102
RTVSPost2010Prop54
  1
strokes_ogs.tif
102
RTVSPost2010PropOp54
 70
     1
102
RTVSPost2010Prop55
280
     0
102
RTVSPost2010PropOp55
 70
     1
102
RTVSPost2010Prop56
140
1.0
102
RTVSPost2010PropOp56
 70
     1
102
RTVSPost2010Prop57
140
1.0
102
RTVSPost2010PropOp57
 70
     1
  0
XRECORD
  5
19C
102
{ACAD_REACTORS
330
19B
102
}
330
19B
100
AcDbXrecord
280
     1
102
RTVSPost2010Prop28
280
     0
102
RTVSPost2010PropOp28
 70
     1
102
RTVSPost2010Prop29
280
     1
102
RTVSPost2010PropOp29
 70
     1
102
RTVSPost2010Prop30
280
     1
102
RTVSPost2010PropOp30
 70
     1
102
RTVSPost2010Prop31
280
     0
102
RTVSPost2010PropOp31
 70
     1
102
RTVSPost2010Prop32
280
     0
102
RTVSPost2010PropOp32
 70
     1
102
RTVSPost2010Prop33
280
     0
102
RTVSPost2010PropOp33
 70
     1
102
RTVSPost2010Prop34
280
     0
102
RTVSPost2010PropOp34
 70
     1
102
RTVSPost2010Prop35
280
     0
102
RTVSPost2010PropOp35
 70
     1
102
RTVSPost2010Prop36
280
     0
102
RTVSPost2010PropOp36
 70
     1
102
RTVSPost2010Prop37
 90
       50
102
RTVSPost2010PropOp37
 70
     1
102
RTVSPost2010Prop38
140
0.0
102
RTVSPost2010PropOp38
 70
     1
102
RTVSPost2010Prop39
140
1.0
102
RTVSPost2010PropOp39
 70
     1
102
RTVSPost2010Prop40
 90
        0
102
RTVSPost2010PropOp40
 70
     1
102
RTVSPost2010Prop41ColorIndex
 90
       18
102
RTVSPost2010Prop41ColorRGB
 90
        0
102
RTVSPost2010PropOp41
 70
     1
102
RTVSPost2010Prop42
 90
       50
102
RTVSPost2010PropOp42
 70
     1
102
RTVSPost2010Prop43
 90
        3
102
RTVSPost2010PropOp43
 70
     1
102
RTVSPost2010Prop44ColorIndex
 90
        5
102
RTVSPost2010Prop44ColorRGB
 90
      255
102
RTVSPost2010PropOp44
 70
     1
102
RTVSPost2010Prop45
280
     0
102
RTVSPost2010PropOp45
 70
     1
102
RTVSPost2010Prop46
 90
       50
102
RTVSPost2010PropOp46
 70
     1
102
RTVSPost2010Prop47
 90
       50
102
RTVSPost2010PropOp47
 70
     1
102
RTVSPost2010Prop48
 90
       50
102
RTVSPost2010PropOp48
 70
     1
102
RTVSPost2010Prop49
280
     0
102
RTVSPost2010PropOp49
 70
     1
102
RTVSPost2010Prop50
 90
       50
102
RTVSPost2010PropOp50
 70
     1
102
RTVSPost2010Prop51ColorIndex
 90
      256
102
RTVSPost2010Prop51ColorRGB
 90
-16777216
102
RTVSPost2010PropOp51
 70
     0
102
RTVSPost2010Prop52
140
1.0
102
RTVSPost2010PropOp52
 70
     0
102
RTVSPost2010Prop53
 90
        2
102
RTVSPost2010PropOp53
 70
     1
102
RTVSPost2010Prop54
  1
strokes_ogs.tif
102
RTVSPost2010PropOp54
 70
     1
102
RTVSPost2010Prop55
280
     0
102
RTVSPost2010PropOp55
 70
     1
102
RTVSPost2010Prop56
140
1.0
102
RTVSPost2010PropOp56
 70
     1
102
RTVSPost2010Prop57
140
1.0
102
RTVSPost2010PropOp57
 70
     1
  0
XRECORD
  5
19E
102
{ACAD_REACTORS
330
19D
102
}
330
19D
100
AcDbXrecord
280
     1
102
RTVSPost2010Prop28
280
     0
102
RTVSPost2010PropOp28
 70
     1
102
RTVSPost2010Prop29
280
     1
102
RTVSPost2010PropOp29
 70
     1
102
RTVSPost2010Prop30
280
     1
102
RTVSPost2010PropOp30
 70
     1
102
RTVSPost2010Prop31
280
     0
102
RTVSPost2010PropOp31
 70
     1
102
RTVSPost2010Prop32
280
     0
102
RTVSPost2010PropOp32
 70
     1
102
RTVSPost2010Prop33
280
     0
102
RTVSPost2010PropOp33
 70
     1
102
RTVSPost2010Prop34
280
     0
102
RTVSPost2010PropOp34
 70
     1
102
RTVSPost2010Prop35
280
     0
102
RTVSPost2010PropOp35
 70
     1
102
RTVSPost2010Prop36
280
     0
102
RTVSPost2010PropOp36
 70
     1
102
RTVSPost2010Prop37
 90
       50
102
RTVSPost2010PropOp37
 70
     1
102
RTVSPost2010Prop38
140
0.0
102
RTVSPost2010PropOp38
 70
     1
102
RTVSPost2010Prop39
140
1.0
102
RTVSPost2010PropOp39
 70
     1
102
RTVSPost2010Prop40
 90
        0
102
RTVSPost2010PropOp40
 70
     1
102
RTVSPost2010Prop41ColorIndex
 90
       18
102
RTVSPost2010Prop41ColorRGB
 90
        0
102
RTVSPost2010PropOp41
 70
     1
102
RTVSPost2010Prop42
 90
       50
102
RTVSPost2010PropOp42
 70
     1
102
RTVSPost2010Prop43
 90
        3
102
RTVSPost2010PropOp43
 70
     1
102
RTVSPost2010Prop44ColorIndex
 90
        5
102
RTVSPost2010Prop44ColorRGB
 90
      255
102
RTVSPost2010PropOp44
 70
     1
102
RTVSPost2010Prop45
280
     0
102
RTVSPost2010PropOp45
 70
     1
102
RTVSPost2010Prop46
 90
       50
102
RTVSPost2010PropOp46
 70
     1
102
RTVSPost2010Prop47
 90
       50
102
RTVSPost2010PropOp47
 70
     1
102
RTVSPost2010Prop48
 90
       50
102
RTVSPost2010PropOp48
 70
     1
102
RTVSPost2010Prop49
280
     0
102
RTVSPost2010PropOp49
 70
     1
102
RTVSPost2010Prop50
 90
       50
102
RTVSPost2010PropOp50
 70
     1
102
RTVSPost2010Prop51ColorIndex
 90
      256
102
RTVSPost2010Prop51ColorRGB
 90
-16777216
102
RTVSPost2010PropOp51
 70
     0
102
RTVSPost2010Prop52
140
1.0
102
RTVSPost2010PropOp52
 70
     0
102
RTVSPost2010Prop53
 90
        2
102
RTVSPost2010PropOp53
 70
     1
102
RTVSPost2010Prop54
  1
strokes_ogs.tif
102
RTVSPost2010PropOp54
 70
     1
102
RTVSPost2010Prop55
280
     0
102
RTVSPost2010PropOp55
 70
     1
102
RTVSPost2010Prop56
140
1.0
102
RTVSPost2010PropOp56
 70
     1
102
RTVSPost2010Prop57
140
1.0
102
RTVSPost2010PropOp57
 70
     1
  0
XRECORD
  5
1AE
102
{ACAD_REACTORS
330
1AD
102
}
330
1AD
100
AcDbXrecord
280
     1
102
RTVSPost2010Prop28
280
     0
102
RTVSPost2010PropOp28
 70
     0
102
RTVSPost2010Prop29
280
     1
102
RTVSPost2010PropOp29
 70
     0
102
RTVSPost2010Prop30
280
     1
102
RTVSPost2010PropOp30
 70
     0
102
RTVSPost2010Prop31
280
     0
102
RTVSPost2010PropOp31
 70
     0
102
RTVSPost2010Prop32
280
     0
102
RTVSPost2010PropOp32
 70
     0
102
RTVSPost2010Prop33
280
     0
102
RTVSPost2010PropOp33
 70
     0
102
RTVSPost2010Prop34
280
     0
102
RTVSPost2010PropOp34
 70
     0
102
RTVSPost2010Prop35
280
     0
102
RTVSPost2010PropOp35
 70
     0
102
RTVSPost2010Prop36
280
     0
102
RTVSPost2010PropOp36
 70
     0
102
RTVSPost2010Prop37
 90
       50
102
RTVSPost2010PropOp37
 70
     0
102
RTVSPost2010Prop38
140
0.0
102
RTVSPost2010PropOp38
 70
     0
102
RTVSPost2010Prop39
140
1.0
102
RTVSPost2010PropOp39
 70
     0
102
RTVSPost2010Prop40
 90
        0
102
RTVSPost2010PropOp40
 70
     0
102
RTVSPost2010Prop41ColorIndex
 90
       18
102
RTVSPost2010Prop41ColorRGB
 90
        0
102
RTVSPost2010PropOp41
 70
     0
102
RTVSPost2010Prop42
 90
       50
102
RTVSPost2010PropOp42
 70
     0
102
RTVSPost2010Prop43
 90
        3
102
RTVSPost2010PropOp43
 70
     0
102
RTVSPost2010Prop44ColorIndex
 90
        5
102
RTVSPost2010Prop44ColorRGB
 90
      255
102
RTVSPost2010PropOp44
 70
     0
102
RTVSPost2010Prop45
280
     0
102
RTVSPost2010PropOp45
 70
     0
102
RTVSPost2010Prop46
 90
       50
102
RTVSPost2010PropOp46
 70
     0
102
RTVSPost2010Prop47
 90
       50
102
RTVSPost2010PropOp47
 70
     0
102
RTVSPost2010Prop48
 90
       50
102
RTVSPost2010PropOp48
 70
     0
102
RTVSPost2010Prop49
280
     0
102
RTVSPost2010PropOp49
 70
     0
102
RTVSPost2010Prop50
 90
       50
102
RTVSPost2010PropOp50
 70
     0
102
RTVSPost2010Prop51ColorIndex
 90
      256
102
RTVSPost2010Prop51ColorRGB
 90
-16777216
102
RTVSPost2010PropOp51
 70
     0
102
RTVSPost2010Prop52
140
1.0
102
RTVSPost2010PropOp52
 70
     0
102
RTVSPost2010Prop53
 90
        2
102
RTVSPost2010PropOp53
 70
     0
102
RTVSPost2010Prop54
  1
strokes_ogs.tif
102
RTVSPost2010PropOp54
 70
     0
102
RTVSPost2010Prop55
280
     0
102
RTVSPost2010PropOp55
 70
     0
102
RTVSPost2010Prop56
140
1.0
102
RTVSPost2010PropOp56
 70
     0
102
RTVSPost2010Prop57
140
1.0
102
RTVSPost2010PropOp57
 70
     0
  0
XRECORD
  5
1A6
102
{ACAD_REACTORS
330
1A5
102
}
330
1A5
100
AcDbXrecord
280
     1
102
RTVSPost2010Prop28
280
     0
102
RTVSPost2010PropOp28
 70
     1
102
RTVSPost2010Prop29
280
     1
102
RTVSPost2010PropOp29
 70
     1
102
RTVSPost2010Prop30
280
     1
102
RTVSPost2010PropOp30
 70
     1
102
RTVSPost2010Prop31
280
     0
102
RTVSPost2010PropOp31
 70
     1
102
RTVSPost2010Prop32
280
     0
102
RTVSPost2010PropOp32
 70
     1
102
RTVSPost2010Prop33
280
     0
102
RTVSPost2010PropOp33
 70
     1
102
RTVSPost2010Prop34
280
     0
102
RTVSPost2010PropOp34
 70
     1
102
RTVSPost2010Prop35
280
     0
102
RTVSPost2010PropOp35
 70
     1
102
RTVSPost2010Prop36
280
     0
102
RTVSPost2010PropOp36
 70
     1
102
RTVSPost2010Prop37
 90
       50
102
RTVSPost2010PropOp37
 70
     1
102
RTVSPost2010Prop38
140
0.0
102
RTVSPost2010PropOp38
 70
     1
102
RTVSPost2010Prop39
140
1.0
102
RTVSPost2010PropOp39
 70
     1
102
RTVSPost2010Prop40
 90
        0
102
RTVSPost2010PropOp40
 70
     1
102
RTVSPost2010Prop41ColorIndex
 90
       18
102
RTVSPost2010Prop41ColorRGB
 90
        0
102
RTVSPost2010PropOp41
 70
     1
102
RTVSPost2010Prop42
 90
       50
102
RTVSPost2010PropOp42
 70
     1
102
RTVSPost2010Prop43
 90
        3
102
RTVSPost2010PropOp43
 70
     1
102
RTVSPost2010Prop44ColorIndex
 90
        5
102
RTVSPost2010Prop44ColorRGB
 90
      255
102
RTVSPost2010PropOp44
 70
     1
102
RTVSPost2010Prop45
280
     0
102
RTVSPost2010PropOp45
 70
     1
102
RTVSPost2010Prop46
 90
       50
102
RTVSPost2010PropOp46
 70
     1
102
RTVSPost2010Prop47
 90
       50
102
RTVSPost2010PropOp47
 70
     1
102
RTVSPost2010Prop48
 90
       50
102
RTVSPost2010PropOp48
 70
     1
102
RTVSPost2010Prop49
280
     0
102
RTVSPost2010PropOp49
 70
     1
102
RTVSPost2010Prop50
 90
       50
102
RTVSPost2010PropOp50
 70
     1
102
RTVSPost2010Prop51ColorIndex
 90
      256
102
RTVSPost2010Prop51ColorRGB
 90
-16777216
102
RTVSPost2010PropOp51
 70
     0
102
RTVSPost2010Prop52
140
1.0
102
RTVSPost2010PropOp52
 70
     0
102
RTVSPost2010Prop53
 90
        2
102
RTVSPost2010PropOp53
 70
     1
102
RTVSPost2010Prop54
  1
strokes_ogs.tif
102
RTVSPost2010PropOp54
 70
     1
102
RTVSPost2010Prop55
280
     0
102
RTVSPost2010PropOp55
 70
     1
102
RTVSPost2010Prop56
140
1.0
102
RTVSPost2010PropOp56
 70
     1
102
RTVSPost2010Prop57
140
1.0
102
RTVSPost2010PropOp57
 70
     1
  0
XRECORD
  5
18A
102
{ACAD_REACTORS
330
189
102
}
330
189
100
AcDbXrecord
280
     1
102
RTVSPost2010Prop28
280
     0
102
RTVSPost2010PropOp28
 70
     1
102
RTVSPost2010Prop29
280
     1
102
RTVSPost2010PropOp29
 70
     1
102
RTVSPost2010Prop30
280
     1
102
RTVSPost2010PropOp30
 70
     1
102
RTVSPost2010Prop31
280
     0
102
RTVSPost2010PropOp31
 70
     1
102
RTVSPost2010Prop32
280
     0
102
RTVSPost2010PropOp32
 70
     1
102
RTVSPost2010Prop33
280
     0
102
RTVSPost2010PropOp33
 70
     1
102
RTVSPost2010Prop34
280
     0
102
RTVSPost2010PropOp34
 70
     1
102
RTVSPost2010Prop35
280
     0
102
RTVSPost2010PropOp35
 70
     1
102
RTVSPost2010Prop36
280
     0
102
RTVSPost2010PropOp36
 70
     1
102
RTVSPost2010Prop37
 90
       50
102
RTVSPost2010PropOp37
 70
     1
102
RTVSPost2010Prop38
140
0.0
102
RTVSPost2010PropOp38
 70
     1
102
RTVSPost2010Prop39
140
1.0
102
RTVSPost2010PropOp39
 70
     1
102
RTVSPost2010Prop40
 90
        0
102
RTVSPost2010PropOp40
 70
     1
102
RTVSPost2010Prop41ColorIndex
 90
       18
102
RTVSPost2010Prop41ColorRGB
 90
        0
102
RTVSPost2010PropOp41
 70
     1
102
RTVSPost2010Prop42
 90
       50
102
RTVSPost2010PropOp42
 70
     1
102
RTVSPost2010Prop43
 90
        3
102
RTVSPost2010PropOp43
 70
     1
102
RTVSPost2010Prop44ColorIndex
 90
        5
102
RTVSPost2010Prop44ColorRGB
 90
      255
102
RTVSPost2010PropOp44
 70
     1
102
RTVSPost2010Prop45
280
     0
102
RTVSPost2010PropOp45
 70
     1
102
RTVSPost2010Prop46
 90
       50
102
RTVSPost2010PropOp46
 70
     1
102
RTVSPost2010Prop47
 90
       50
102
RTVSPost2010PropOp47
 70
     1
102
RTVSPost2010Prop48
 90
       50
102
RTVSPost2010PropOp48
 70
     1
102
RTVSPost2010Prop49
280
     0
102
RTVSPost2010PropOp49
 70
     1
102
RTVSPost2010Prop50
 90
       50
102
RTVSPost2010PropOp50
 70
     1
102
RTVSPost2010Prop51ColorIndex
 90
      256
102
RTVSPost2010Prop51ColorRGB
 90
-16777216
102
RTVSPost2010PropOp51
 70
     0
102
RTVSPost2010Prop52
140
1.0
102
RTVSPost2010PropOp52
 70
     0
102
RTVSPost2010Prop53
 90
        2
102
RTVSPost2010PropOp53
 70
     1
102
RTVSPost2010Prop54
  1
strokes_ogs.tif
102
RTVSPost2010PropOp54
 70
     1
102
RTVSPost2010Prop55
280
     0
102
RTVSPost2010PropOp55
 70
     1
102
RTVSPost2010Prop56
140
1.0
102
RTVSPost2010PropOp56
 70
     1
102
RTVSPost2010Prop57
140
1.0
102
RTVSPost2010PropOp57
 70
     1
  0
XRECORD
  5
18C
102
{ACAD_REACTORS
330
18B
102
}
330
18B
100
AcDbXrecord
280
     1
102
RTVSPost2010Prop28
280
     0
102
RTVSPost2010PropOp28
 70
     1
102
RTVSPost2010Prop29
280
     1
102
RTVSPost2010PropOp29
 70
     1
102
RTVSPost2010Prop30
280
     1
102
RTVSPost2010PropOp30
 70
     1
102
RTVSPost2010Prop31
280
     0
102
RTVSPost2010PropOp31
 70
     1
102
RTVSPost2010Prop32
280
     0
102
RTVSPost2010PropOp32
 70
     1
102
RTVSPost2010Prop33
280
     0
102
RTVSPost2010PropOp33
 70
     1
102
RTVSPost2010Prop34
280
     0
102
RTVSPost2010PropOp34
 70
     1
102
RTVSPost2010Prop35
280
     0
102
RTVSPost2010PropOp35
 70
     1
102
RTVSPost2010Prop36
280
     0
102
RTVSPost2010PropOp36
 70
     1
102
RTVSPost2010Prop37
 90
       50
102
RTVSPost2010PropOp37
 70
     1
102
RTVSPost2010Prop38
140
0.0
102
RTVSPost2010PropOp38
 70
     1
102
RTVSPost2010Prop39
140
1.0
102
RTVSPost2010PropOp39
 70
     1
102
RTVSPost2010Prop40
 90
        0
102
RTVSPost2010PropOp40
 70
     1
102
RTVSPost2010Prop41ColorIndex
 90
       18
102
RTVSPost2010Prop41ColorRGB
 90
        0
102
RTVSPost2010PropOp41
 70
     1
102
RTVSPost2010Prop42
 90
       50
102
RTVSPost2010PropOp42
 70
     1
102
RTVSPost2010Prop43
 90
        3
102
RTVSPost2010PropOp43
 70
     1
102
RTVSPost2010Prop44ColorIndex
 90
        5
102
RTVSPost2010Prop44ColorRGB
 90
      255
102
RTVSPost2010PropOp44
 70
     1
102
RTVSPost2010Prop45
280
     0
102
RTVSPost2010PropOp45
 70
     1
102
RTVSPost2010Prop46
 90
       50
102
RTVSPost2010PropOp46
 70
     1
102
RTVSPost2010Prop47
 90
       50
102
RTVSPost2010PropOp47
 70
     1
102
RTVSPost2010Prop48
 90
       50
102
RTVSPost2010PropOp48
 70
     1
102
RTVSPost2010Prop49
280
     0
102
RTVSPost2010PropOp49
 70
     1
102
RTVSPost2010Prop50
 90
       50
102
RTVSPost2010PropOp50
 70
     1
102
RTVSPost2010Prop51ColorIndex
 90
      256
102
RTVSPost2010Prop51ColorRGB
 90
-16777216
102
RTVSPost2010PropOp51
 70
     0
102
RTVSPost2010Prop52
140
1.0
102
RTVSPost2010PropOp52
 70
     0
102
RTVSPost2010Prop53
 90
        2
102
RTVSPost2010PropOp53
 70
     1
102
RTVSPost2010Prop54
  1
strokes_ogs.tif
102
RTVSPost2010PropOp54
 70
     1
102
RTVSPost2010Prop55
280
     0
102
RTVSPost2010PropOp55
 70
     1
102
RTVSPost2010Prop56
140
1.0
102
RTVSPost2010PropOp56
 70
     1
102
RTVSPost2010Prop57
140
1.0
102
RTVSPost2010PropOp57
 70
     1
  0
XRECORD
  5
18E
102
{ACAD_REACTORS
330
18D
102
}
330
18D
100
AcDbXrecord
280
     1
102
RTVSPost2010Prop28
280
     0
102
RTVSPost2010PropOp28
 70
     1
102
RTVSPost2010Prop29
280
     1
102
RTVSPost2010PropOp29
 70
     1
102
RTVSPost2010Prop30
280
     1
102
RTVSPost2010PropOp30
 70
     1
102
RTVSPost2010Prop31
280
     0
102
RTVSPost2010PropOp31
 70
     1
102
RTVSPost2010Prop32
280
     0
102
RTVSPost2010PropOp32
 70
     1
102
RTVSPost2010Prop33
280
     0
102
RTVSPost2010PropOp33
 70
     1
102
RTVSPost2010Prop34
280
     0
102
RTVSPost2010PropOp34
 70
     1
102
RTVSPost2010Prop35
280
     0
102
RTVSPost2010PropOp35
 70
     1
102
RTVSPost2010Prop36
280
     0
102
RTVSPost2010PropOp36
 70
     1
102
RTVSPost2010Prop37
 90
       50
102
RTVSPost2010PropOp37
 70
     1
102
RTVSPost2010Prop38
140
0.0
102
RTVSPost2010PropOp38
 70
     1
102
RTVSPost2010Prop39
140
1.0
102
RTVSPost2010PropOp39
 70
     1
102
RTVSPost2010Prop40
 90
        0
102
RTVSPost2010PropOp40
 70
     1
102
RTVSPost2010Prop41ColorIndex
 90
       18
102
RTVSPost2010Prop41ColorRGB
 90
        0
102
RTVSPost2010PropOp41
 70
     1
102
RTVSPost2010Prop42
 90
       50
102
RTVSPost2010PropOp42
 70
     1
102
RTVSPost2010Prop43
 90
        3
102
RTVSPost2010PropOp43
 70
     1
102
RTVSPost2010Prop44ColorIndex
 90
        5
102
RTVSPost2010Prop44ColorRGB
 90
      255
102
RTVSPost2010PropOp44
 70
     1
102
RTVSPost2010Prop45
280
     0
102
RTVSPost2010PropOp45
 70
     1
102
RTVSPost2010Prop46
 90
       50
102
RTVSPost2010PropOp46
 70
     1
102
RTVSPost2010Prop47
 90
       50
102
RTVSPost2010PropOp47
 70
     1
102
RTVSPost2010Prop48
 90
       50
102
RTVSPost2010PropOp48
 70
     1
102
RTVSPost2010Prop49
280
     0
102
RTVSPost2010PropOp49
 70
     1
102
RTVSPost2010Prop50
 90
       50
102
RTVSPost2010PropOp50
 70
     1
102
RTVSPost2010Prop51ColorIndex
 90
      256
102
RTVSPost2010Prop51ColorRGB
 90
-16777216
102
RTVSPost2010PropOp51
 70
     0
102
RTVSPost2010Prop52
140
1.0
102
RTVSPost2010PropOp52
 70
     0
102
RTVSPost2010Prop53
 90
        2
102
RTVSPost2010PropOp53
 70
     1
102
RTVSPost2010Prop54
  1
strokes_ogs.tif
102
RTVSPost2010PropOp54
 70
     1
102
RTVSPost2010Prop55
280
     0
102
RTVSPost2010PropOp55
 70
     1
102
RTVSPost2010Prop56
140
1.0
102
RTVSPost2010PropOp56
 70
     1
102
RTVSPost2010Prop57
140
1.0
102
RTVSPost2010PropOp57
 70
     1
  0
XRECORD
  5
190
102
{ACAD_REACTORS
330
18F
102
}
330
18F
100
AcDbXrecord
280
     1
102
RTVSPost2010Prop28
280
     0
102
RTVSPost2010PropOp28
 70
     1
102
RTVSPost2010Prop29
280
     1
102
RTVSPost2010PropOp29
 70
     1
102
RTVSPost2010Prop30
280
     1
102
RTVSPost2010PropOp30
 70
     1
102
RTVSPost2010Prop31
280
     0
102
RTVSPost2010PropOp31
 70
     1
102
RTVSPost2010Prop32
280
     0
102
RTVSPost2010PropOp32
 70
     1
102
RTVSPost2010Prop33
280
     0
102
RTVSPost2010PropOp33
 70
     1
102
RTVSPost2010Prop34
280
     0
102
RTVSPost2010PropOp34
 70
     1
102
RTVSPost2010Prop35
280
     0
102
RTVSPost2010PropOp35
 70
     1
102
RTVSPost2010Prop36
280
     0
102
RTVSPost2010PropOp36
 70
     1
102
RTVSPost2010Prop37
 90
       50
102
RTVSPost2010PropOp37
 70
     1
102
RTVSPost2010Prop38
140
0.0
102
RTVSPost2010PropOp38
 70
     1
102
RTVSPost2010Prop39
140
1.0
102
RTVSPost2010PropOp39
 70
     1
102
RTVSPost2010Prop40
 90
        0
102
RTVSPost2010PropOp40
 70
     1
102
RTVSPost2010Prop41ColorIndex
 90
       18
102
RTVSPost2010Prop41ColorRGB
 90
        0
102
RTVSPost2010PropOp41
 70
     1
102
RTVSPost2010Prop42
 90
       50
102
RTVSPost2010PropOp42
 70
     1
102
RTVSPost2010Prop43
 90
        3
102
RTVSPost2010PropOp43
 70
     1
102
RTVSPost2010Prop44ColorIndex
 90
        5
102
RTVSPost2010Prop44ColorRGB
 90
      255
102
RTVSPost2010PropOp44
 70
     1
102
RTVSPost2010Prop45
280
     0
102
RTVSPost2010PropOp45
 70
     1
102
RTVSPost2010Prop46
 90
       50
102
RTVSPost2010PropOp46
 70
     1
102
RTVSPost2010Prop47
 90
       50
102
RTVSPost2010PropOp47
 70
     1
102
RTVSPost2010Prop48
 90
       50
102
RTVSPost2010PropOp48
 70
     1
102
RTVSPost2010Prop49
280
     0
102
RTVSPost2010PropOp49
 70
     1
102
RTVSPost2010Prop50
 90
       50
102
RTVSPost2010PropOp50
 70
     1
102
RTVSPost2010Prop51ColorIndex
 90
      256
102
RTVSPost2010Prop51ColorRGB
 90
-16777216
102
RTVSPost2010PropOp51
 70
     0
102
RTVSPost2010Prop52
140
1.0
102
RTVSPost2010PropOp52
 70
     0
102
RTVSPost2010Prop53
 90
        2
102
RTVSPost2010PropOp53
 70
     1
102
RTVSPost2010Prop54
  1
strokes_ogs.tif
102
RTVSPost2010PropOp54
 70
     1
102
RTVSPost2010Prop55
280
     0
102
RTVSPost2010PropOp55
 70
     1
102
RTVSPost2010Prop56
140
1.0
102
RTVSPost2010PropOp56
 70
     1
102
RTVSPost2010Prop57
140
1.0
102
RTVSPost2010PropOp57
 70
     1
  0
XRECORD
  5
196
102
{ACAD_REACTORS
330
195
102
}
330
195
100
AcDbXrecord
280
     1
102
RTVSPost2010Prop28
280
     0
102
RTVSPost2010PropOp28
 70
     1
102
RTVSPost2010Prop29
280
     1
102
RTVSPost2010PropOp29
 70
     1
102
RTVSPost2010Prop30
280
     1
102
RTVSPost2010PropOp30
 70
     1
102
RTVSPost2010Prop31
280
     0
102
RTVSPost2010PropOp31
 70
     1
102
RTVSPost2010Prop32
280
     0
102
RTVSPost2010PropOp32
 70
     1
102
RTVSPost2010Prop33
280
     0
102
RTVSPost2010PropOp33
 70
     1
102
RTVSPost2010Prop34
280
     0
102
RTVSPost2010PropOp34
 70
     1
102
RTVSPost2010Prop35
280
     0
102
RTVSPost2010PropOp35
 70
     1
102
RTVSPost2010Prop36
280
     0
102
RTVSPost2010PropOp36
 70
     1
102
RTVSPost2010Prop37
 90
       50
102
RTVSPost2010PropOp37
 70
     1
102
RTVSPost2010Prop38
140
0.0
102
RTVSPost2010PropOp38
 70
     1
102
RTVSPost2010Prop39
140
1.0
102
RTVSPost2010PropOp39
 70
     1
102
RTVSPost2010Prop40
 90
        0
102
RTVSPost2010PropOp40
 70
     1
102
RTVSPost2010Prop41ColorIndex
 90
       18
102
RTVSPost2010Prop41ColorRGB
 90
        0
102
RTVSPost2010PropOp41
 70
     1
102
RTVSPost2010Prop42
 90
       50
102
RTVSPost2010PropOp42
 70
     1
102
RTVSPost2010Prop43
 90
        3
102
RTVSPost2010PropOp43
 70
     1
102
RTVSPost2010Prop44ColorIndex
 90
        5
102
RTVSPost2010Prop44ColorRGB
 90
      255
102
RTVSPost2010PropOp44
 70
     1
102
RTVSPost2010Prop45
280
     0
102
RTVSPost2010PropOp45
 70
     1
102
RTVSPost2010Prop46
 90
       50
102
RTVSPost2010PropOp46
 70
     1
102
RTVSPost2010Prop47
 90
       50
102
RTVSPost2010PropOp47
 70
     1
102
RTVSPost2010Prop48
 90
       50
102
RTVSPost2010PropOp48
 70
     1
102
RTVSPost2010Prop49
280
     0
102
RTVSPost2010PropOp49
 70
     1
102
RTVSPost2010Prop50
 90
       50
102
RTVSPost2010PropOp50
 70
     1
102
RTVSPost2010Prop51ColorIndex
 90
      256
102
RTVSPost2010Prop51ColorRGB
 90
-16777216
102
RTVSPost2010PropOp51
 70
     0
102
RTVSPost2010Prop52
140
1.0
102
RTVSPost2010PropOp52
 70
     0
102
RTVSPost2010Prop53
 90
        2
102
RTVSPost2010PropOp53
 70
     1
102
RTVSPost2010Prop54
  1
strokes_ogs.tif
102
RTVSPost2010PropOp54
 70
     1
102
RTVSPost2010Prop55
280
     0
102
RTVSPost2010PropOp55
 70
     1
102
RTVSPost2010Prop56
140
1.0
102
RTVSPost2010PropOp56
 70
     1
102
RTVSPost2010Prop57
140
1.0
102
RTVSPost2010PropOp57
 70
     1
  0
XRECORD
  5
1AA
102
{ACAD_REACTORS
330
1A9
102
}
330
1A9
100
AcDbXrecord
280
     1
102
RTVSPost2010Prop28
280
     0
102
RTVSPost2010PropOp28
 70
     0
102
RTVSPost2010Prop29
280
     1
102
RTVSPost2010PropOp29
 70
     0
102
RTVSPost2010Prop30
280
     1
102
RTVSPost2010PropOp30
 70
     0
102
RTVSPost2010Prop31
280
     0
102
RTVSPost2010PropOp31
 70
     0
102
RTVSPost2010Prop32
280
     0
102
RTVSPost2010PropOp32
 70
     0
102
RTVSPost2010Prop33
280
     0
102
RTVSPost2010PropOp33
 70
     0
102
RTVSPost2010Prop34
280
     0
102
RTVSPost2010PropOp34
 70
     0
102
RTVSPost2010Prop35
280
     0
102
RTVSPost2010PropOp35
 70
     0
102
RTVSPost2010Prop36
280
     0
102
RTVSPost2010PropOp36
 70
     0
102
RTVSPost2010Prop37
 90
       50
102
RTVSPost2010PropOp37
 70
     0
102
RTVSPost2010Prop38
140
0.0
102
RTVSPost2010PropOp38
 70
     0
102
RTVSPost2010Prop39
140
1.0
102
RTVSPost2010PropOp39
 70
     0
102
RTVSPost2010Prop40
 90
        0
102
RTVSPost2010PropOp40
 70
     0
102
RTVSPost2010Prop41ColorIndex
 90
       18
102
RTVSPost2010Prop41ColorRGB
 90
        0
102
RTVSPost2010PropOp41
 70
     0
102
RTVSPost2010Prop42
 90
       50
102
RTVSPost2010PropOp42
 70
     0
102
RTVSPost2010Prop43
 90
        3
102
RTVSPost2010PropOp43
 70
     0
102
RTVSPost2010Prop44ColorIndex
 90
        5
102
RTVSPost2010Prop44ColorRGB
 90
      255
102
RTVSPost2010PropOp44
 70
     0
102
RTVSPost2010Prop45
280
     0
102
RTVSPost2010PropOp45
 70
     0
102
RTVSPost2010Prop46
 90
       50
102
RTVSPost2010PropOp46
 70
     0
102
RTVSPost2010Prop47
 90
       50
102
RTVSPost2010PropOp47
 70
     0
102
RTVSPost2010Prop48
 90
       50
102
RTVSPost2010PropOp48
 70
     0
102
RTVSPost2010Prop49
280
     0
102
RTVSPost2010PropOp49
 70
     0
102
RTVSPost2010Prop50
 90
       50
102
RTVSPost2010PropOp50
 70
     0
102
RTVSPost2010Prop51ColorIndex
 90
      256
102
RTVSPost2010Prop51ColorRGB
 90
-16777216
102
RTVSPost2010PropOp51
 70
     0
102
RTVSPost2010Prop52
140
1.0
102
RTVSPost2010PropOp52
 70
     0
102
RTVSPost2010Prop53
 90
        2
102
RTVSPost2010PropOp53
 70
     0
102
RTVSPost2010Prop54
  1
strokes_ogs.tif
102
RTVSPost2010PropOp54
 70
     0
102
RTVSPost2010Prop55
280
     0
102
RTVSPost2010PropOp55
 70
     0
102
RTVSPost2010Prop56
140
1.0
102
RTVSPost2010PropOp56
 70
     0
102
RTVSPost2010Prop57
140
1.0
102
RTVSPost2010PropOp57
 70
     0
  0
XRECORD
  5
1A4
102
{ACAD_REACTORS
330
1A3
102
}
330
1A3
100
AcDbXrecord
280
     1
102
RTVSPost2010Prop28
280
     0
102
RTVSPost2010PropOp28
 70
     1
102
RTVSPost2010Prop29
280
     1
102
RTVSPost2010PropOp29
 70
     1
102
RTVSPost2010Prop30
280
     1
102
RTVSPost2010PropOp30
 70
     1
102
RTVSPost2010Prop31
280
     0
102
RTVSPost2010PropOp31
 70
     1
102
RTVSPost2010Prop32
280
     0
102
RTVSPost2010PropOp32
 70
     1
102
RTVSPost2010Prop33
280
     0
102
RTVSPost2010PropOp33
 70
     1
102
RTVSPost2010Prop34
280
     0
102
RTVSPost2010PropOp34
 70
     1
102
RTVSPost2010Prop35
280
     0
102
RTVSPost2010PropOp35
 70
     1
102
RTVSPost2010Prop36
280
     0
102
RTVSPost2010PropOp36
 70
     1
102
RTVSPost2010Prop37
 90
       50
102
RTVSPost2010PropOp37
 70
     1
102
RTVSPost2010Prop38
140
0.0
102
RTVSPost2010PropOp38
 70
     1
102
RTVSPost2010Prop39
140
1.0
102
RTVSPost2010PropOp39
 70
     1
102
RTVSPost2010Prop40
 90
        0
102
RTVSPost2010PropOp40
 70
     1
102
RTVSPost2010Prop41ColorIndex
 90
       18
102
RTVSPost2010Prop41ColorRGB
 90
        0
102
RTVSPost2010PropOp41
 70
     1
102
RTVSPost2010Prop42
 90
       50
102
RTVSPost2010PropOp42
 70
     1
102
RTVSPost2010Prop43
 90
        3
102
RTVSPost2010PropOp43
 70
     1
102
RTVSPost2010Prop44ColorIndex
 90
        5
102
RTVSPost2010Prop44ColorRGB
 90
      255
102
RTVSPost2010PropOp44
 70
     1
102
RTVSPost2010Prop45
280
     0
102
RTVSPost2010PropOp45
 70
     1
102
RTVSPost2010Prop46
 90
       50
102
RTVSPost2010PropOp46
 70
     1
102
RTVSPost2010Prop47
 90
       50
102
RTVSPost2010PropOp47
 70
     1
102
RTVSPost2010Prop48
 90
       50
102
RTVSPost2010PropOp48
 70
     1
102
RTVSPost2010Prop49
280
     0
102
RTVSPost2010PropOp49
 70
     1
102
RTVSPost2010Prop50
 90
       50
102
RTVSPost2010PropOp50
 70
     1
102
RTVSPost2010Prop51ColorIndex
 90
      256
102
RTVSPost2010Prop51ColorRGB
 90
-16777216
102
RTVSPost2010PropOp51
 70
     0
102
RTVSPost2010Prop52
140
1.0
102
RTVSPost2010PropOp52
 70
     0
102
RTVSPost2010Prop53
 90
        2
102
RTVSPost2010PropOp53
 70
     1
102
RTVSPost2010Prop54
  1
strokes_ogs.tif
102
RTVSPost2010PropOp54
 70
     1
102
RTVSPost2010Prop55
280
     0
102
RTVSPost2010PropOp55
 70
     1
102
RTVSPost2010Prop56
140
1.0
102
RTVSPost2010PropOp56
 70
     1
102
RTVSPost2010Prop57
140
1.0
102
RTVSPost2010PropOp57
 70
     1
  0
XRECORD
  5
1AC
102
{ACAD_REACTORS
330
1AB
102
}
330
1AB
100
AcDbXrecord
280
     1
102
RTVSPost2010Prop28
280
     0
102
RTVSPost2010PropOp28
 70
     0
102
RTVSPost2010Prop29
280
     1
102
RTVSPost2010PropOp29
 70
     0
102
RTVSPost2010Prop30
280
     1
102
RTVSPost2010PropOp30
 70
     0
102
RTVSPost2010Prop31
280
     0
102
RTVSPost2010PropOp31
 70
     0
102
RTVSPost2010Prop32
280
     0
102
RTVSPost2010PropOp32
 70
     0
102
RTVSPost2010Prop33
280
     0
102
RTVSPost2010PropOp33
 70
     0
102
RTVSPost2010Prop34
280
     0
102
RTVSPost2010PropOp34
 70
     0
102
RTVSPost2010Prop35
280
     0
102
RTVSPost2010PropOp35
 70
     0
102
RTVSPost2010Prop36
280
     0
102
RTVSPost2010PropOp36
 70
     0
102
RTVSPost2010Prop37
 90
       50
102
RTVSPost2010PropOp37
 70
     0
102
RTVSPost2010Prop38
140
0.0
102
RTVSPost2010PropOp38
 70
     0
102
RTVSPost2010Prop39
140
1.0
102
RTVSPost2010PropOp39
 70
     0
102
RTVSPost2010Prop40
 90
        0
102
RTVSPost2010PropOp40
 70
     0
102
RTVSPost2010Prop41ColorIndex
 90
       18
102
RTVSPost2010Prop41ColorRGB
 90
        0
102
RTVSPost2010PropOp41
 70
     0
102
RTVSPost2010Prop42
 90
       50
102
RTVSPost2010PropOp42
 70
     0
102
RTVSPost2010Prop43
 90
        3
102
RTVSPost2010PropOp43
 70
     0
102
RTVSPost2010Prop44ColorIndex
 90
        5
102
RTVSPost2010Prop44ColorRGB
 90
      255
102
RTVSPost2010PropOp44
 70
     0
102
RTVSPost2010Prop45
280
     0
102
RTVSPost2010PropOp45
 70
     0
102
RTVSPost2010Prop46
 90
       50
102
RTVSPost2010PropOp46
 70
     0
102
RTVSPost2010Prop47
 90
       50
102
RTVSPost2010PropOp47
 70
     0
102
RTVSPost2010Prop48
 90
       50
102
RTVSPost2010PropOp48
 70
     0
102
RTVSPost2010Prop49
280
     0
102
RTVSPost2010PropOp49
 70
     0
102
RTVSPost2010Prop50
 90
       50
102
RTVSPost2010PropOp50
 70
     0
102
RTVSPost2010Prop51ColorIndex
 90
      256
102
RTVSPost2010Prop51ColorRGB
 90
-16777216
102
RTVSPost2010PropOp51
 70
     0
102
RTVSPost2010Prop52
140
1.0
102
RTVSPost2010PropOp52
 70
     0
102
RTVSPost2010Prop53
 90
        2
102
RTVSPost2010PropOp53
 70
     0
102
RTVSPost2010Prop54
  1
strokes_ogs.tif
102
RTVSPost2010PropOp54
 70
     0
102
RTVSPost2010Prop55
280
     0
102
RTVSPost2010PropOp55
 70
     0
102
RTVSPost2010Prop56
140
1.0
102
RTVSPost2010PropOp56
 70
     0
102
RTVSPost2010Prop57
140
1.0
102
RTVSPost2010PropOp57
 70
     0
  0
XRECORD
  5
19A
102
{ACAD_REACTORS
330
199
102
}
330
199
100
AcDbXrecord
280
     1
102
RTVSPost2010Prop28
280
     0
102
RTVSPost2010PropOp28
 70
     1
102
RTVSPost2010Prop29
280
     1
102
RTVSPost2010PropOp29
 70
     1
102
RTVSPost2010Prop30
280
     1
102
RTVSPost2010PropOp30
 70
     1
102
RTVSPost2010Prop31
280
     0
102
RTVSPost2010PropOp31
 70
     1
102
RTVSPost2010Prop32
280
     0
102
RTVSPost2010PropOp32
 70
     1
102
RTVSPost2010Prop33
280
     0
102
RTVSPost2010PropOp33
 70
     1
102
RTVSPost2010Prop34
280
     0
102
RTVSPost2010PropOp34
 70
     1
102
RTVSPost2010Prop35
280
     0
102
RTVSPost2010PropOp35
 70
     1
102
RTVSPost2010Prop36
280
     0
102
RTVSPost2010PropOp36
 70
     1
102
RTVSPost2010Prop37
 90
       50
102
RTVSPost2010PropOp37
 70
     1
102
RTVSPost2010Prop38
140
0.0
102
RTVSPost2010PropOp38
 70
     1
102
RTVSPost2010Prop39
140
1.0
102
RTVSPost2010PropOp39
 70
     1
102
RTVSPost2010Prop40
 90
        0
102
RTVSPost2010PropOp40
 70
     1
102
RTVSPost2010Prop41ColorIndex
 90
       18
102
RTVSPost2010Prop41ColorRGB
 90
        0
102
RTVSPost2010PropOp41
 70
     1
102
RTVSPost2010Prop42
 90
       50
102
RTVSPost2010PropOp42
 70
     1
102
RTVSPost2010Prop43
 90
        3
102
RTVSPost2010PropOp43
 70
     1
102
RTVSPost2010Prop44ColorIndex
 90
        5
102
RTVSPost2010Prop44ColorRGB
 90
      255
102
RTVSPost2010PropOp44
 70
     1
102
RTVSPost2010Prop45
280
     0
102
RTVSPost2010PropOp45
 70
     1
102
RTVSPost2010Prop46
 90
       50
102
RTVSPost2010PropOp46
 70
     1
102
RTVSPost2010Prop47
 90
       50
102
RTVSPost2010PropOp47
 70
     1
102
RTVSPost2010Prop48
 90
       50
102
RTVSPost2010PropOp48
 70
     1
102
RTVSPost2010Prop49
280
     0
102
RTVSPost2010PropOp49
 70
     1
102
RTVSPost2010Prop50
 90
       50
102
RTVSPost2010PropOp50
 70
     1
102
RTVSPost2010Prop51ColorIndex
 90
      256
102
RTVSPost2010Prop51ColorRGB
 90
-16777216
102
RTVSPost2010PropOp51
 70
     0
102
RTVSPost2010Prop52
140
1.0
102
RTVSPost2010PropOp52
 70
     0
102
RTVSPost2010Prop53
 90
        2
102
RTVSPost2010PropOp53
 70
     1
102
RTVSPost2010Prop54
  1
strokes_ogs.tif
102
RTVSPost2010PropOp54
 70
     1
102
RTVSPost2010Prop55
280
     0
102
RTVSPost2010PropOp55
 70
     1
102
RTVSPost2010Prop56
140
1.0
102
RTVSPost2010PropOp56
 70
     1
102
RTVSPost2010Prop57
140
1.0
102
RTVSPost2010PropOp57
 70
     1
  0
XRECORD
  5
1B8
102
{ACAD_REACTORS
330
1B7
102
}
330
1B7
100
AcDbXrecord
280
     1
102
RTVSPost2010Prop28
280
     0
102
RTVSPost2010PropOp28
 70
     1
102
RTVSPost2010Prop29
280
     1
102
RTVSPost2010PropOp29
 70
     1
102
RTVSPost2010Prop30
280
     1
102
RTVSPost2010PropOp30
 70
     1
102
RTVSPost2010Prop31
280
     0
102
RTVSPost2010PropOp31
 70
     1
102
RTVSPost2010Prop32
280
     0
102
RTVSPost2010PropOp32
 70
     1
102
RTVSPost2010Prop33
280
     0
102
RTVSPost2010PropOp33
 70
     1
102
RTVSPost2010Prop34
280
     0
102
RTVSPost2010PropOp34
 70
     1
102
RTVSPost2010Prop35
280
     0
102
RTVSPost2010PropOp35
 70
     1
102
RTVSPost2010Prop36
280
     0
102
RTVSPost2010PropOp36
 70
     1
102
RTVSPost2010Prop37
 90
       50
102
RTVSPost2010PropOp37
 70
     1
102
RTVSPost2010Prop38
140
0.0
102
RTVSPost2010PropOp38
 70
     1
102
RTVSPost2010Prop39
140
1.0
102
RTVSPost2010PropOp39
 70
     1
102
RTVSPost2010Prop40
 90
        0
102
RTVSPost2010PropOp40
 70
     1
102
RTVSPost2010Prop41ColorIndex
 90
       18
102
RTVSPost2010Prop41ColorRGB
 90
        0
102
RTVSPost2010PropOp41
 70
     1
102
RTVSPost2010Prop42
 90
       50
102
RTVSPost2010PropOp42
 70
     1
102
RTVSPost2010Prop43
 90
        3
102
RTVSPost2010PropOp43
 70
     1
102
RTVSPost2010Prop44ColorIndex
 90
        5
102
RTVSPost2010Prop44ColorRGB
 90
      255
102
RTVSPost2010PropOp44
 70
     1
102
RTVSPost2010Prop45
280
     0
102
RTVSPost2010PropOp45
 70
     1
102
RTVSPost2010Prop46
 90
       50
102
RTVSPost2010PropOp46
 70
     1
102
RTVSPost2010Prop47
 90
       50
102
RTVSPost2010PropOp47
 70
     1
102
RTVSPost2010Prop48
 90
       50
102
RTVSPost2010PropOp48
 70
     1
102
RTVSPost2010Prop49
280
     0
102
RTVSPost2010PropOp49
 70
     1
102
RTVSPost2010Prop50
 90
       50
102
RTVSPost2010PropOp50
 70
     1
102
RTVSPost2010Prop51ColorIndex
 90
      256
102
RTVSPost2010Prop51ColorRGB
 90
-16777216
102
RTVSPost2010PropOp51
 70
     0
102
RTVSPost2010Prop52
140
1.0
102
RTVSPost2010PropOp52
 70
     0
102
RTVSPost2010Prop53
 90
        2
102
RTVSPost2010PropOp53
 70
     1
102
RTVSPost2010Prop54
  1
strokes_ogs.tif
102
RTVSPost2010PropOp54
 70
     1
102
RTVSPost2010Prop55
280
     0
102
RTVSPost2010PropOp55
 70
     1
102
RTVSPost2010Prop56
140
1.0
102
RTVSPost2010PropOp56
 70
     1
102
RTVSPost2010Prop57
140
1.0
102
RTVSPost2010PropOp57
 70
     1
  0
XRECORD
  5
1B6
102
{ACAD_REACTORS
330
1B5
102
}
330
1B5
100
AcDbXrecord
280
     1
102
RTVSPost2010Prop28
280
     0
102
RTVSPost2010PropOp28
 70
     1
102
RTVSPost2010Prop29
280
     1
102
RTVSPost2010PropOp29
 70
     1
102
RTVSPost2010Prop30
280
     1
102
RTVSPost2010PropOp30
 70
     1
102
RTVSPost2010Prop31
280
     0
102
RTVSPost2010PropOp31
 70
     1
102
RTVSPost2010Prop32
280
     0
102
RTVSPost2010PropOp32
 70
     1
102
RTVSPost2010Prop33
280
     0
102
RTVSPost2010PropOp33
 70
     1
102
RTVSPost2010Prop34
280
     0
102
RTVSPost2010PropOp34
 70
     1
102
RTVSPost2010Prop35
280
     0
102
RTVSPost2010PropOp35
 70
     1
102
RTVSPost2010Prop36
280
     0
102
RTVSPost2010PropOp36
 70
     1
102
RTVSPost2010Prop37
 90
       50
102
RTVSPost2010PropOp37
 70
     1
102
RTVSPost2010Prop38
140
0.0
102
RTVSPost2010PropOp38
 70
     1
102
RTVSPost2010Prop39
140
1.0
102
RTVSPost2010PropOp39
 70
     1
102
RTVSPost2010Prop40
 90
        0
102
RTVSPost2010PropOp40
 70
     1
102
RTVSPost2010Prop41ColorIndex
 90
       18
102
RTVSPost2010Prop41ColorRGB
 90
        0
102
RTVSPost2010PropOp41
 70
     1
102
RTVSPost2010Prop42
 90
       50
102
RTVSPost2010PropOp42
 70
     1
102
RTVSPost2010Prop43
 90
        3
102
RTVSPost2010PropOp43
 70
     1
102
RTVSPost2010Prop44ColorIndex
 90
        5
102
RTVSPost2010Prop44ColorRGB
 90
      255
102
RTVSPost2010PropOp44
 70
     1
102
RTVSPost2010Prop45
280
     0
102
RTVSPost2010PropOp45
 70
     1
102
RTVSPost2010Prop46
 90
       50
102
RTVSPost2010PropOp46
 70
     1
102
RTVSPost2010Prop47
 90
       50
102
RTVSPost2010PropOp47
 70
     1
102
RTVSPost2010Prop48
 90
       50
102
RTVSPost2010PropOp48
 70
     1
102
RTVSPost2010Prop49
280
     0
102
RTVSPost2010PropOp49
 70
     1
102
RTVSPost2010Prop50
 90
       50
102
RTVSPost2010PropOp50
 70
     1
102
RTVSPost2010Prop51ColorIndex
 90
      256
102
RTVSPost2010Prop51ColorRGB
 90
-16777216
102
RTVSPost2010PropOp51
 70
     0
102
RTVSPost2010Prop52
140
1.0
102
RTVSPost2010PropOp52
 70
     0
102
RTVSPost2010Prop53
 90
        2
102
RTVSPost2010PropOp53
 70
     1
102
RTVSPost2010Prop54
  1
strokes_ogs.tif
102
RTVSPost2010PropOp54
 70
     1
102
RTVSPost2010Prop55
280
     0
102
RTVSPost2010PropOp55
 70
     1
102
RTVSPost2010Prop56
140
1.0
102
RTVSPost2010PropOp56
 70
     1
102
RTVSPost2010Prop57
140
1.0
102
RTVSPost2010PropOp57
 70
     1
  0
XRECORD
  5
1B0
102
{ACAD_REACTORS
330
1AF
102
}
330
1AF
100
AcDbXrecord
280
     1
102
RTVSPost2010Prop28
280
     0
102
RTVSPost2010PropOp28
 70
     1
102
RTVSPost2010Prop29
280
     1
102
RTVSPost2010PropOp29
 70
     1
102
RTVSPost2010Prop30
280
     1
102
RTVSPost2010PropOp30
 70
     1
102
RTVSPost2010Prop31
280
     0
102
RTVSPost2010PropOp31
 70
     1
102
RTVSPost2010Prop32
280
     0
102
RTVSPost2010PropOp32
 70
     1
102
RTVSPost2010Prop33
280
     0
102
RTVSPost2010PropOp33
 70
     1
102
RTVSPost2010Prop34
280
     0
102
RTVSPost2010PropOp34
 70
     1
102
RTVSPost2010Prop35
280
     0
102
RTVSPost2010PropOp35
 70
     1
102
RTVSPost2010Prop36
280
     0
102
RTVSPost2010PropOp36
 70
     1
102
RTVSPost2010Prop37
 90
       50
102
RTVSPost2010PropOp37
 70
     1
102
RTVSPost2010Prop38
140
0.0
102
RTVSPost2010PropOp38
 70
     1
102
RTVSPost2010Prop39
140
1.0
102
RTVSPost2010PropOp39
 70
     1
102
RTVSPost2010Prop40
 90
        0
102
RTVSPost2010PropOp40
 70
     1
102
RTVSPost2010Prop41ColorIndex
 90
       18
102
RTVSPost2010Prop41ColorRGB
 90
        0
102
RTVSPost2010PropOp41
 70
     1
102
RTVSPost2010Prop42
 90
       50
102
RTVSPost2010PropOp42
 70
     1
102
RTVSPost2010Prop43
 90
        3
102
RTVSPost2010PropOp43
 70
     1
102
RTVSPost2010Prop44ColorIndex
 90
        5
102
RTVSPost2010Prop44ColorRGB
 90
      255
102
RTVSPost2010PropOp44
 70
     1
102
RTVSPost2010Prop45
280
     0
102
RTVSPost2010PropOp45
 70
     1
102
RTVSPost2010Prop46
 90
       50
102
RTVSPost2010PropOp46
 70
     1
102
RTVSPost2010Prop47
 90
       50
102
RTVSPost2010PropOp47
 70
     1
102
RTVSPost2010Prop48
 90
       50
102
RTVSPost2010PropOp48
 70
     1
102
RTVSPost2010Prop49
280
     0
102
RTVSPost2010PropOp49
 70
     1
102
RTVSPost2010Prop50
 90
       50
102
RTVSPost2010PropOp50
 70
     1
102
RTVSPost2010Prop51ColorIndex
 90
      256
102
RTVSPost2010Prop51ColorRGB
 90
-16777216
102
RTVSPost2010PropOp51
 70
     0
102
RTVSPost2010Prop52
140
1.0
102
RTVSPost2010PropOp52
 70
     0
102
RTVSPost2010Prop53
 90
        2
102
RTVSPost2010PropOp53
 70
     1
102
RTVSPost2010Prop54
  1
strokes_ogs.tif
102
RTVSPost2010PropOp54
 70
     1
102
RTVSPost2010Prop55
280
     0
102
RTVSPost2010PropOp55
 70
     1
102
RTVSPost2010Prop56
140
1.0
102
RTVSPost2010PropOp56
 70
     1
102
RTVSPost2010Prop57
140
1.0
102
RTVSPost2010PropOp57
 70
     1
  0
XRECORD
  5
1B2
102
{ACAD_REACTORS
330
1B1
102
}
330
1B1
100
AcDbXrecord
280
     1
102
RTVSPost2010Prop28
280
     0
102
RTVSPost2010PropOp28
 70
     1
102
RTVSPost2010Prop29
280
     1
102
RTVSPost2010PropOp29
 70
     1
102
RTVSPost2010Prop30
280
     1
102
RTVSPost2010PropOp30
 70
     1
102
RTVSPost2010Prop31
280
     0
102
RTVSPost2010PropOp31
 70
     1
102
RTVSPost2010Prop32
280
     0
102
RTVSPost2010PropOp32
 70
     1
102
RTVSPost2010Prop33
280
     0
102
RTVSPost2010PropOp33
 70
     1
102
RTVSPost2010Prop34
280
     0
102
RTVSPost2010PropOp34
 70
     1
102
RTVSPost2010Prop35
280
     0
102
RTVSPost2010PropOp35
 70
     1
102
RTVSPost2010Prop36
280
     0
102
RTVSPost2010PropOp36
 70
     1
102
RTVSPost2010Prop37
 90
       50
102
RTVSPost2010PropOp37
 70
     1
102
RTVSPost2010Prop38
140
0.0
102
RTVSPost2010PropOp38
 70
     1
102
RTVSPost2010Prop39
140
1.0
102
RTVSPost2010PropOp39
 70
     1
102
RTVSPost2010Prop40
 90
        0
102
RTVSPost2010PropOp40
 70
     1
102
RTVSPost2010Prop41ColorIndex
 90
       18
102
RTVSPost2010Prop41ColorRGB
 90
        0
102
RTVSPost2010PropOp41
 70
     1
102
RTVSPost2010Prop42
 90
       50
102
RTVSPost2010PropOp42
 70
     1
102
RTVSPost2010Prop43
 90
        3
102
RTVSPost2010PropOp43
 70
     1
102
RTVSPost2010Prop44ColorIndex
 90
        5
102
RTVSPost2010Prop44ColorRGB
 90
      255
102
RTVSPost2010PropOp44
 70
     1
102
RTVSPost2010Prop45
280
     0
102
RTVSPost2010PropOp45
 70
     1
102
RTVSPost2010Prop46
 90
       50
102
RTVSPost2010PropOp46
 70
     1
102
RTVSPost2010Prop47
 90
       50
102
RTVSPost2010PropOp47
 70
     1
102
RTVSPost2010Prop48
 90
       50
102
RTVSPost2010PropOp48
 70
     1
102
RTVSPost2010Prop49
280
     0
102
RTVSPost2010PropOp49
 70
     1
102
RTVSPost2010Prop50
 90
       50
102
RTVSPost2010PropOp50
 70
     1
102
RTVSPost2010Prop51ColorIndex
 90
      256
102
RTVSPost2010Prop51ColorRGB
 90
-16777216
102
RTVSPost2010PropOp51
 70
     0
102
RTVSPost2010Prop52
140
1.0
102
RTVSPost2010PropOp52
 70
     0
102
RTVSPost2010Prop53
 90
        2
102
RTVSPost2010PropOp53
 70
     1
102
RTVSPost2010Prop54
  1
strokes_ogs.tif
102
RTVSPost2010PropOp54
 70
     1
102
RTVSPost2010Prop55
280
     0
102
RTVSPost2010PropOp55
 70
     1
102
RTVSPost2010Prop56
140
1.0
102
RTVSPost2010PropOp56
 70
     1
102
RTVSPost2010Prop57
140
1.0
102
RTVSPost2010PropOp57
 70
     1
  0
XRECORD
  5
1A2
102
{ACAD_REACTORS
330
1A1
102
}
330
1A1
100
AcDbXrecord
280
     1
102
RTVSPost2010Prop28
280
     0
102
RTVSPost2010PropOp28
 70
     1
102
RTVSPost2010Prop29
280
     1
102
RTVSPost2010PropOp29
 70
     1
102
RTVSPost2010Prop30
280
     1
102
RTVSPost2010PropOp30
 70
     1
102
RTVSPost2010Prop31
280
     0
102
RTVSPost2010PropOp31
 70
     1
102
RTVSPost2010Prop32
280
     0
102
RTVSPost2010PropOp32
 70
     1
102
RTVSPost2010Prop33
280
     0
102
RTVSPost2010PropOp33
 70
     1
102
RTVSPost2010Prop34
280
     0
102
RTVSPost2010PropOp34
 70
     1
102
RTVSPost2010Prop35
280
     0
102
RTVSPost2010PropOp35
 70
     1
102
RTVSPost2010Prop36
280
     0
102
RTVSPost2010PropOp36
 70
     1
102
RTVSPost2010Prop37
 90
       50
102
RTVSPost2010PropOp37
 70
     1
102
RTVSPost2010Prop38
140
0.0
102
RTVSPost2010PropOp38
 70
     1
102
RTVSPost2010Prop39
140
1.0
102
RTVSPost2010PropOp39
 70
     1
102
RTVSPost2010Prop40
 90
        0
102
RTVSPost2010PropOp40
 70
     1
102
RTVSPost2010Prop41ColorIndex
 90
       18
102
RTVSPost2010Prop41ColorRGB
 90
        0
102
RTVSPost2010PropOp41
 70
     1
102
RTVSPost2010Prop42
 90
       50
102
RTVSPost2010PropOp42
 70
     1
102
RTVSPost2010Prop43
 90
        3
102
RTVSPost2010PropOp43
 70
     1
102
RTVSPost2010Prop44ColorIndex
 90
        5
102
RTVSPost2010Prop44ColorRGB
 90
      255
102
RTVSPost2010PropOp44
 70
     1
102
RTVSPost2010Prop45
280
     0
102
RTVSPost2010PropOp45
 70
     1
102
RTVSPost2010Prop46
 90
       50
102
RTVSPost2010PropOp46
 70
     1
102
RTVSPost2010Prop47
 90
       50
102
RTVSPost2010PropOp47
 70
     1
102
RTVSPost2010Prop48
 90
       50
102
RTVSPost2010PropOp48
 70
     1
102
RTVSPost2010Prop49
280
     0
102
RTVSPost2010PropOp49
 70
     1
102
RTVSPost2010Prop50
 90
       50
102
RTVSPost2010PropOp50
 70
     1
102
RTVSPost2010Prop51ColorIndex
 90
      256
102
RTVSPost2010Prop51ColorRGB
 90
-16777216
102
RTVSPost2010PropOp51
 70
     0
102
RTVSPost2010Prop52
140
1.0
102
RTVSPost2010PropOp52
 70
     0
102
RTVSPost2010Prop53
 90
        2
102
RTVSPost2010PropOp53
 70
     1
102
RTVSPost2010Prop54
  1
strokes_ogs.tif
102
RTVSPost2010PropOp54
 70
     1
102
RTVSPost2010Prop55
280
     0
102
RTVSPost2010PropOp55
 70
     1
102
RTVSPost2010Prop56
140
1.0
102
RTVSPost2010PropOp56
 70
     1
102
RTVSPost2010Prop57
140
1.0
102
RTVSPost2010PropOp57
 70
     1
  0
XRECORD
  5
194
102
{ACAD_REACTORS
330
193
102
}
330
193
100
AcDbXrecord
280
     1
102
RTVSPost2010Prop28
280
     0
102
RTVSPost2010PropOp28
 70
     1
102
RTVSPost2010Prop29
280
     1
102
RTVSPost2010PropOp29
 70
     1
102
RTVSPost2010Prop30
280
     1
102
RTVSPost2010PropOp30
 70
     1
102
RTVSPost2010Prop31
280
     0
102
RTVSPost2010PropOp31
 70
     1
102
RTVSPost2010Prop32
280
     0
102
RTVSPost2010PropOp32
 70
     1
102
RTVSPost2010Prop33
280
     0
102
RTVSPost2010PropOp33
 70
     1
102
RTVSPost2010Prop34
280
     0
102
RTVSPost2010PropOp34
 70
     1
102
RTVSPost2010Prop35
280
     0
102
RTVSPost2010PropOp35
 70
     1
102
RTVSPost2010Prop36
280
     0
102
RTVSPost2010PropOp36
 70
     1
102
RTVSPost2010Prop37
 90
       50
102
RTVSPost2010PropOp37
 70
     1
102
RTVSPost2010Prop38
140
0.0
102
RTVSPost2010PropOp38
 70
     1
102
RTVSPost2010Prop39
140
1.0
102
RTVSPost2010PropOp39
 70
     1
102
RTVSPost2010Prop40
 90
        0
102
RTVSPost2010PropOp40
 70
     1
102
RTVSPost2010Prop41ColorIndex
 90
       18
102
RTVSPost2010Prop41ColorRGB
 90
        0
102
RTVSPost2010PropOp41
 70
     1
102
RTVSPost2010Prop42
 90
       50
102
RTVSPost2010PropOp42
 70
     1
102
RTVSPost2010Prop43
 90
        3
102
RTVSPost2010PropOp43
 70
     1
102
RTVSPost2010Prop44ColorIndex
 90
        5
102
RTVSPost2010Prop44ColorRGB
 90
      255
102
RTVSPost2010PropOp44
 70
     1
102
RTVSPost2010Prop45
280
     0
102
RTVSPost2010PropOp45
 70
     1
102
RTVSPost2010Prop46
 90
       50
102
RTVSPost2010PropOp46
 70
     1
102
RTVSPost2010Prop47
 90
       50
102
RTVSPost2010PropOp47
 70
     1
102
RTVSPost2010Prop48
 90
       50
102
RTVSPost2010PropOp48
 70
     1
102
RTVSPost2010Prop49
280
     0
102
RTVSPost2010PropOp49
 70
     1
102
RTVSPost2010Prop50
 90
       50
102
RTVSPost2010PropOp50
 70
     1
102
RTVSPost2010Prop51ColorIndex
 90
      256
102
RTVSPost2010Prop51ColorRGB
 90
-16777216
102
RTVSPost2010PropOp51
 70
     0
102
RTVSPost2010Prop52
140
1.0
102
RTVSPost2010PropOp52
 70
     0
102
RTVSPost2010Prop53
 90
        2
102
RTVSPost2010PropOp53
 70
     1
102
RTVSPost2010Prop54
  1
strokes_ogs.tif
102
RTVSPost2010PropOp54
 70
     1
102
RTVSPost2010Prop55
280
     0
102
RTVSPost2010PropOp55
 70
     1
102
RTVSPost2010Prop56
140
1.0
102
RTVSPost2010PropOp56
 70
     1
102
RTVSPost2010Prop57
140
1.0
102
RTVSPost2010PropOp57
 70
     1
  0
XRECORD
  5
1B4
102
{ACAD_REACTORS
330
1B3
102
}
330
1B3
100
AcDbXrecord
280
     1
102
RTVSPost2010Prop28
280
     0
102
RTVSPost2010PropOp28
 70
     1
102
RTVSPost2010Prop29
280
     1
102
RTVSPost2010PropOp29
 70
     1
102
RTVSPost2010Prop30
280
     1
102
RTVSPost2010PropOp30
 70
     1
102
RTVSPost2010Prop31
280
     0
102
RTVSPost2010PropOp31
 70
     1
102
RTVSPost2010Prop32
280
     0
102
RTVSPost2010PropOp32
 70
     1
102
RTVSPost2010Prop33
280
     0
102
RTVSPost2010PropOp33
 70
     1
102
RTVSPost2010Prop34
280
     0
102
RTVSPost2010PropOp34
 70
     1
102
RTVSPost2010Prop35
280
     0
102
RTVSPost2010PropOp35
 70
     1
102
RTVSPost2010Prop36
280
     0
102
RTVSPost2010PropOp36
 70
     1
102
RTVSPost2010Prop37
 90
       50
102
RTVSPost2010PropOp37
 70
     1
102
RTVSPost2010Prop38
140
0.0
102
RTVSPost2010PropOp38
 70
     1
102
RTVSPost2010Prop39
140
1.0
102
RTVSPost2010PropOp39
 70
     1
102
RTVSPost2010Prop40
 90
        0
102
RTVSPost2010PropOp40
 70
     1
102
RTVSPost2010Prop41ColorIndex
 90
       18
102
RTVSPost2010Prop41ColorRGB
 90
        0
102
RTVSPost2010PropOp41
 70
     1
102
RTVSPost2010Prop42
 90
       50
102
RTVSPost2010PropOp42
 70
     1
102
RTVSPost2010Prop43
 90
        3
102
RTVSPost2010PropOp43
 70
     1
102
RTVSPost2010Prop44ColorIndex
 90
        5
102
RTVSPost2010Prop44ColorRGB
 90
      255
102
RTVSPost2010PropOp44
 70
     1
102
RTVSPost2010Prop45
280
     0
102
RTVSPost2010PropOp45
 70
     1
102
RTVSPost2010Prop46
 90
       50
102
RTVSPost2010PropOp46
 70
     1
102
RTVSPost2010Prop47
 90
       50
102
RTVSPost2010PropOp47
 70
     1
102
RTVSPost2010Prop48
 90
       50
102
RTVSPost2010PropOp48
 70
     1
102
RTVSPost2010Prop49
280
     0
102
RTVSPost2010PropOp49
 70
     1
102
RTVSPost2010Prop50
 90
       50
102
RTVSPost2010PropOp50
 70
     1
102
RTVSPost2010Prop51ColorIndex
 90
      256
102
RTVSPost2010Prop51ColorRGB
 90
-16777216
102
RTVSPost2010PropOp51
 70
     0
102
RTVSPost2010Prop52
140
1.0
102
RTVSPost2010PropOp52
 70
     0
102
RTVSPost2010Prop53
 90
        2
102
RTVSPost2010PropOp53
 70
     1
102
RTVSPost2010Prop54
  1
strokes_ogs.tif
102
RTVSPost2010PropOp54
 70
     1
102
RTVSPost2010Prop55
280
     0
102
RTVSPost2010PropOp55
 70
     1
102
RTVSPost2010Prop56
140
1.0
102
RTVSPost2010PropOp56
 70
     1
102
RTVSPost2010Prop57
140
1.0
102
RTVSPost2010PropOp57
 70
     1
  0
ENDSEC
  0
EOF
