  0
SECTION
  2
HEADER
  9
$ACADVER
  1
AC1024
  9
$ACADMAINTVER
 70
     6
  9
$DWGCODEPAGE
  3
ANSI_932
  9
$INSBASE
 10
0.0
 20
0.0
 30
0.0
  9
$EXTMIN
 10
-677.162629
 20
-856.68087
 30
1.000000000000000E+20
  9
$EXTMAX
 10
898.152585
 20
1153.050722
 30
-1.000000000000000E+20
  9
$LIMMIN
 10
-677.162629
 20
-856.68087
  9
$LIMMAX
 10
898.152585
 20
1153.050722
  9
$ORTHOMODE
 70
     0
  9
$REGENMODE
 70
     1
  9
$FILLMODE
 70
     1
  9
$QTEXTMODE
 70
     0
  9
$MIRRTEXT
 70
     1
  9
$LTSCALE
 40
1.0
  9
$ATTMODE
 70
     1
  9
$TEXTSIZE
 40
0.0
  9
$TRACEWID
 40
0.05
  9
$TEXTSTYLE
  7
Standard
  9
$CLAYER
  8
0
  9
$CELTYPE
  6
Continuous
  9
$CECOLOR
 62
   256
  9
$CELTSCALE
 40
1.0
  9
$DISPSILH
 70
     0
  9
$DIMSCALE
 40
1.0
  9
$DIMASZ
 40
0.18
  9
$DIMEXO
 40
0.0625
  9
$DIMDLI
 40
0.38
  9
$DIMRND
 40
0.0
  9
$DIMDLE
 40
0.0
  9
$DIMEXE
 40
0.18
  9
$DIMTP
 40
0.0
  9
$DIMTM
 40
0.0
  9
$DIMTXT
 40
0.18
  9
$DIMCEN
 40
0.09
  9
$DIMTSZ
 40
0.0
  9
$DIMTOL
 70
     0
  9
$DIMLIM
 70
     0
  9
$DIMTIH
 70
     1
  9
$DIMTOH
 70
     1
  9
$DIMSE1
 70
     0
  9
$DIMSE2
 70
     0
  9
$DIMTAD
 70
     0
  9
$DIMZIN
 70
     0
  9
$DIMBLK
  1

  9
$DIMASO
 70
     1
  9
$DIMSHO
 70
     1
  9
$DIMPOST
  1

  9
$DIMAPOST
  1

  9
$DIMALT
 70
     0
  9
$DIMALTD
 70
     2
  9
$DIMALTF
 40
25.4
  9
$DIMLFAC
 40
1.0
  9
$DIMTOFL
 70
     0
  9
$DIMTVP
 40
0.0
  9
$DIMTIX
 70
     0
  9
$DIMSOXD
 70
     0
  9
$DIMSAH
 70
     0
  9
$DIMBLK1
  1

  9
$DIMBLK2
  1

  9
$DIMSTYLE
  2
Standard
  9
$DIMCLRD
 70
     0
  9
$DIMCLRE
 70
     0
  9
$DIMCLRT
 70
     0
  9
$DIMTFAC
 40
1.0
  9
$DIMGAP
 40
0.09
  9
$DIMJUST
 70
     0
  9
$DIMSD1
 70
     0
  9
$DIMSD2
 70
     0
  9
$DIMTOLJ
 70
     1
  9
$DIMTZIN
 70
     0
  9
$DIMALTZ
 70
     0
  9
$DIMALTTZ
 70
     0
  9
$DIMUPT
 70
     0
  9
$DIMDEC
 70
     4
  9
$DIMTDEC
 70
     4
  9
$DIMALTU
 70
     2
  9
$DIMALTTD
 70
     2
  9
$DIMTXSTY
  7
Standard
  9
$DIMAUNIT
 70
     0
  9
$DIMADEC
 70
     0
  9
$DIMALTRND
 40
0.0
  9
$DIMAZIN
 70
     0
  9
$DIMDSEP
 70
     0
  9
$DIMATFIT
 70
     3
  9
$DIMFRAC
 70
     0
  9
$DIMLDRBLK
  1

  9
$DIMLUNIT
 70
     2
  9
$DIMLWD
 70
     0
  9
$DIMLWE
 70
     0
  9
$DIMTMOVE
 70
     0
  9
$DIMFXL
 40
1.0
  9
$DIMFXLON
 70
     0
  9
$DIMJOGANG
 40
0.7853981633974483
  9
$DIMTFILL
 70
     0
  9
$DIMTFILLCLR
 70
     0
  9
$DIMARCSYM
 70
     0
  9
$DIMLTYPE
  6

  9
$DIMLTEX1
  6

  9
$DIMLTEX2
  6

  9
$DIMTXTDIRECTION
 70
     0
  9
$LUNITS
 70
     2
  9
$LUPREC
 70
     4
  9
$SKETCHINC
 40
0.1
  9
$FILLETRAD
 40
0.0
  9
$AUNITS
 70
     0
  9
$AUPREC
 70
     0
  9
$MENU
  1
acad
  9
$ELEVATION
 40
0.0
  9
$PELEVATION
 40
0.0
  9
$THICKNESS
 40
0.0
  9
$LIMCHECK
 70
     0
  9
$CHAMFERA
 40
0.0
  9
$CHAMFERB
 40
0.0
  9
$CHAMFERC
 40
0.0
  9
$CHAMFERD
 40
0.0
  9
$SKPOLY
 70
     0
  9
$TDCREATE
 40
2447893.041666667
  9
$TDUCREATE
 40
0.0
  9
$TDUPDATE
 40
2457234.640825405
  9
$TDUUPDATE
 40
2457234.599158738
  9
$TDINDWG
 40
0.0
  9
$TDUSRTIMER
 40
0.0
  9
$USRTIMER
 70
     1
  9
$ANGBASE
 50
0.0
  9
$ANGDIR
 70
     0
  9
$PDMODE
 70
     0
  9
$PDSIZE
 40
0.0
  9
$PLINEWID
 40
0.0
  9
$SPLFRAME
 70
     0
  9
$SPLINETYPE
 70
     6
  9
$SPLINESEGS
 70
     8
  9
$HANDSEED
  5
28C
  9
$SURFTAB1
 70
     6
  9
$SURFTAB2
 70
     6
  9
$SURFTYPE
 70
     6
  9
$SURFU
 70
     6
  9
$SURFV
 70
     6
  9
$UCSBASE
  2

  9
$UCSNAME
  2

  9
$UCSORG
 10
0.0
 20
0.0
 30
0.0
  9
$UCSXDIR
 10
1.0
 20
0.0
 30
0.0
  9
$UCSYDIR
 10
0.0
 20
1.0
 30
0.0
  9
$UCSORTHOREF
  2

  9
$UCSORTHOVIEW
 70
     0
  9
$UCSORGTOP
 10
0.0
 20
0.0
 30
0.0
  9
$UCSORGBOTTOM
 10
0.0
 20
0.0
 30
0.0
  9
$UCSORGLEFT
 10
0.0
 20
0.0
 30
0.0
  9
$UCSORGRIGHT
 10
0.0
 20
0.0
 30
0.0
  9
$UCSORGFRONT
 10
0.0
 20
0.0
 30
0.0
  9
$UCSORGBACK
 10
0.0
 20
0.0
 30
0.0
  9
$PUCSBASE
  2

  9
$PUCSNAME
  2

  9
$PUCSORG
 10
0.0
 20
0.0
 30
0.0
  9
$PUCSXDIR
 10
1.0
 20
0.0
 30
0.0
  9
$PUCSYDIR
 10
0.0
 20
1.0
 30
0.0
  9
$PUCSORTHOREF
  2

  9
$PUCSORTHOVIEW
 70
     0
  9
$PUCSORGTOP
 10
0.0
 20
0.0
 30
0.0
  9
$PUCSORGBOTTOM
 10
0.0
 20
0.0
 30
0.0
  9
$PUCSORGLEFT
 10
0.0
 20
0.0
 30
0.0
  9
$PUCSORGRIGHT
 10
0.0
 20
0.0
 30
0.0
  9
$PUCSORGFRONT
 10
0.0
 20
0.0
 30
0.0
  9
$PUCSORGBACK
 10
0.0
 20
0.0
 30
0.0
  9
$USERI1
 70
     0
  9
$USERI2
 70
     0
  9
$USERI3
 70
     0
  9
$USERI4
 70
     0
  9
$USERI5
 70
     0
  9
$USERR1
 40
0.0
  9
$USERR2
 40
0.0
  9
$USERR3
 40
0.0
  9
$USERR4
 40
0.0
  9
$USERR5
 40
0.0
  9
$WORLDVIEW
 70
     1
  9
$SHADEDGE
 70
     3
  9
$SHADEDIF
 70
    70
  9
$TILEMODE
 70
     1
  9
$MAXACTVP
 70
    16
  9
$PINSBASE
 10
0.0
 20
0.0
 30
0.0
  9
$PLIMCHECK
 70
     0
  9
$PEXTMIN
 10
1.000000000000000E+20
 20
1.000000000000000E+20
 30
1.000000000000000E+20
  9
$PEXTMAX
 10
-1.000000000000000E+20
 20
-1.000000000000000E+20
 30
-1.000000000000000E+20
  9
$PLIMMIN
 10
0.0
 20
0.0
  9
$PLIMMAX
 10
12.0
 20
9.0
  9
$UNITMODE
 70
     0
  9
$VISRETAIN
 70
     0
  9
$PLINEGEN
 70
     1
  9
$PSLTSCALE
 70
     0
  9
$TREEDEPTH
 70
  3020
  9
$CMLSTYLE
  2
Standard
  9
$CMLJUST
 70
     0
  9
$CMLSCALE
 40
1.0
  9
$PROXYGRAPHICS
 70
     0
  9
$MEASUREMENT
 70
     0
  9
$CELWEIGHT
370
     0
  9
$ENDCAPS
280
     0
  9
$JOINSTYLE
280
     0
  9
$LWDISPLAY
290
     0
  9
$INSUNITS
 70
     0
  9
$HYPERLINKBASE
  1

  9
$STYLESHEET
  1

  9
$XEDIT
290
     1
  9
$CEPSNTYPE
380
     0
  9
$PSTYLEMODE
290
     1
  9
$FINGERPRINTGUID
  2

  9
$VERSIONGUID
  2

  9
$EXTNAMES
290
     1
  9
$PSVPSCALE
 40
0.0
  9
$OLESTARTUP
290
     0
  9
$SORTENTS
280
   127
  9
$INDEXCTL
280
     0
  9
$HIDETEXT
280
     1
  9
$XCLIPFRAME
280
     2
  9
$HALOGAP
280
     0
  9
$OBSCOLOR
 70
   257
  9
$OBSLTYPE
280
     0
  9
$INTERSECTIONDISPLAY
280
     0
  9
$INTERSECTIONCOLOR
 70
   257
  9
$DIMASSOC
280
     2
  9
$PROJECTNAME
  1

  9
$CAMERADISPLAY
290
     0
  9
$LENSLENGTH
 40
50.0
  9
$CAMERAHEIGHT
 40
0.0
  9
$STEPSPERSEC
 40
2.0
  9
$STEPSIZE
 40
6.0
  9
$3DDWFPREC
 40
2.0
  9
$PSOLWIDTH
 40
0.25
  9
$PSOLHEIGHT
 40
4.0
  9
$LOFTANG1
 40
1.570796326794897
  9
$LOFTANG2
 40
1.570796326794897
  9
$LOFTMAG1
 40
0.0
  9
$LOFTMAG2
 40
0.0
  9
$LOFTPARAM
 70
     7
  9
$LOFTNORMALS
280
     1
  9
$LATITUDE
 40
37.795
  9
$LONGITUDE
 40
-122.394
  9
$NORTHDIRECTION
 40
0.0
  9
$TIMEZONE
 70
 -8000
  9
$LIGHTGLYPHDISPLAY
280
     1
  9
$TILEMODELIGHTSYNCH
280
     1
  9
$SOLIDHIST
280
     0
  9
$SHOWHIST
280
     1
  9
$DWFFRAME
280
     2
  9
$DGNFRAME
280
     2
  9
$REALWORLDSCALE
290
     1
  9
$INTERFERECOLOR
 62
   256
  9
$CSHADOW
280
     0
  9
$SHADOWPLANELOCATION
 40
0.0
  0
ENDSEC
  0
SECTION
  2
CLASSES
  0
CLASS
  1
LWPOLYLINE
  2
AcDbPolyline
  3
ObjectDBX Classes
 90
        0
 91
        1
280
     0
281
     1
  0
CLASS
  1
IMAGE
  2
AcDbRasterImage
  3
ISM
 90
      127
 91
        5
280
     0
281
     1
  0
CLASS
  1
OLE2FRAME
  2
AcDbOle2Frame
  3
ObjectDBX Classes
 90
        0
 91
        1
280
     0
281
     1
  0
CLASS
  1
HATCH
  2
AcDbHatch
  3
ObjectDBX Classes
 90
        0
 91
        1
280
     0
281
     1
  0
CLASS
  1
DICTIONARYVAR
  2
AcDbDictionaryVar
  3
ObjectDBX Classes
 90
        0
 91
        4
280
     0
281
     0
  0
CLASS
  1
RASTERVARIABLES
  2
AcDbRasterVariables
  3
ISM
 90
        0
 91
        4
280
     0
281
     0
  0
CLASS
  1
IMAGEDEF
  2
AcDbRasterImageDef
  3
ISM
 90
        0
 91
        4
280
     0
281
     0
  0
CLASS
  1
IMAGEDEF_REACTOR
  2
AcDbRasterImageDefReactor
  3
ISM
 90
        1
 91
        4
280
     0
281
     0
  0
CLASS
  1
IDBUFFER
  2
AcDbIdBuffer
  3
ObjectDBX Classes
 90
        0
 91
        4
280
     0
281
     0
  0
CLASS
  1
SPATIAL_FILTER
  2
AcDbSpatialFilter
  3
ObjectDBX Classes
 90
        0
 91
        4
280
     0
281
     0
  0
CLASS
  1
XRECORD
  2
AcDbXrecord
  3
ObjectDBX Classes
 90
        0
 91
        1
280
     0
281
     0
  0
CLASS
  1
SORTENTSTABLE
  2
AcDbSortentsTable
  3
ObjectDBX Classes
 90
        0
 91
        4
280
     0
281
     0
  0
CLASS
  1
LAYER_INDEX
  2
AcDbLayerIndex
  3
ObjectDBX Classes
 90
        0
 91
        4
280
     0
281
     0
  0
CLASS
  1
SPATIAL_INDEX
  2
AcDbSpatialIndex
  3
AutoCAD 2000
 90
        0
 91
        4
280
     0
281
     0
  0
CLASS
  1
OBJECT_PTR
  2
CAseDLPNTableRecord
  3
ASE-LPNTableRecord
 90
        1
 91
        4
280
     0
281
     0
  0
CLASS
  1
LAYOUT
  2
AcDbLayout
  3
ObjectDBX Classes
 90
        0
 91
        1
280
     0
281
     0
  0
CLASS
  1
PLOTSETTINGS
  2
AcDbPlotSettings
  3
ObjectDBX Classes
 90
        0
 91
        4
280
     0
281
     0
  0
CLASS
  1
ACDBDICTIONARYWDFLT
  2
AcDbDictionaryWithDefault
  3
ObjectDBX Classes
 90
        0
 91
        4
280
     0
281
     0
  0
CLASS
  1
ACDBPLACEHOLDER
  2
AcDbPlaceHolder
  3
ObjectDBX Classes
 90
        0
 91
        1
280
     0
281
     0
  0
CLASS
  1
VBA_PROJECT
  2
AcDbVbaProject
  3
ObjectDBX Classes
 90
        0
 91
        1
280
     0
281
     0
  0
CLASS
  1
WIPEOUT
  2
AcDbWipeout
  3
WipeOut|AutoCAD Express Tool|expresstools@autodesk.com
 90
      127
 91
        4
280
     0
281
     1
  0
CLASS
  1
WIPEOUTVARIABLES
  2
AcDbWipeoutVariables
  3
WipeOut|AutoCAD Express Tool|expresstools@autodesk.com
 90
        0
 91
        4
280
     0
281
     0
  0
CLASS
  1
RTEXT
  2
RText
  3
RText|AutoCAD Express Tool|expresstools@autodesk.com
 90
        0
 91
        4
280
     0
281
     1
  0
CLASS
  1
ARCALIGNEDTEXT
  2
AcDbArcAlignedText
  3
ATEXT|AutoCAD Express Tool|expresstools@autodesk.com
 90
        0
 91
        4
280
     0
281
     1
  0
CLASS
  1
SCALE
  2
AcDbScale
  3
ObjectDBX Classes
 90
     1153
 91
        4
280
     0
281
     0
  0
CLASS
  1
VISUALSTYLE
  2
AcDbVisualStyle
  3
ObjectDBX Classes
 90
     4095
 91
        4
280
     0
281
     0
  0
CLASS
  1
MATERIAL
  2
AcDbMaterial
  3
ObjectDBX Classes
 90
     1153
 91
        4
280
     0
281
     0
  0
CLASS
  1
TABLESTYLE
  2
AcDbTableStyle
  3
ObjectDBX Classes
 90
     4095
 91
        4
280
     0
281
     0
  0
CLASS
  1
MLEADERSTYLE
  2
AcDbMLeaderStyle
  3
ACDB_MLEADERSTYLE_CLASS
 90
     4095
 91
        4
280
     0
281
     0
  0
CLASS
  1
CELLSTYLEMAP
  2
AcDbCellStyleMap
  3
ObjectDBX Classes
 90
     1152
 91
        4
280
     0
281
     0
  0
ENDSEC
  0
SECTION
  2
TABLES
  0
TABLE
  2
VPORT
  5
7
330
0
100
AcDbSymbolTable
 70
     1
  0
VPORT
  5
15
330
7
100
AcDbSymbolTableRecord
100
AcDbViewportTableRecord
  2
*ACTIVE
 70
     0
 10
0.0
 20
0.0
 11
1.0
 21
1.0
 12
6.591288
 22
4.579184
 13
0.0
 23
0.0
 14
1.0
 24
1.0
 15
0.0
 25
0.0
 16
0.0
 26
0.0
 36
1.0
 17
0.0
 27
0.0
 37
0.0
 40
9.158369
 41
0.688564
 42
50.0
 43
0.0
 44
0.0
 50
0.0
 51
0.0
 71
     0
 72
   100
 73
     1
 74
     1
 75
     0
 76
     0
 77
     0
 78
     0
281
     0
 65
     0
110
0.0
120
0.0
130
0.0
111
1.0
121
0.0
131
0.0
112
0.0
122
1.0
132
0.0
 79
     0
146
0.0
348
236
 60
     3
 61
     5
292
     1
282
     1
141
0.0
142
0.0
 63
   256
  0
ENDTAB
  0
TABLE
  2
LTYPE
  5
4
330
0
100
AcDbSymbolTable
 70
     4
  0
LTYPE
  5
11
330
4
100
AcDbSymbolTableRecord
100
AcDbLinetypeTableRecord
  2
ByBlock
 70
     0
  3

 72
    65
 73
     0
 40
0.0
  0
LTYPE
  5
12
330
4
100
AcDbSymbolTableRecord
100
AcDbLinetypeTableRecord
  2
ByLayer
 70
     0
  3

 72
    65
 73
     0
 40
0.0
  0
LTYPE
  5
13
330
4
100
AcDbSymbolTableRecord
100
AcDbLinetypeTableRecord
  2
Continuous
 70
     0
  3
Solid line
 72
    65
 73
     0
 40
0.0
  0
LTYPE
  5
37
330
4
100
AcDbSymbolTableRecord
100
AcDbLinetypeTableRecord
  2
AI9-LType1
 70
     0
  3
Illustrator Dash Style No.1
 72
    65
 73
     4
 40
3.880556
 49
2.116667
 74
     0
 49
-0.705556
 74
     0
 49
0.352778
 74
     0
 49
-0.705556
 74
     0
  0
LTYPE
  5
3D
330
4
100
AcDbSymbolTableRecord
100
AcDbLinetypeTableRecord
  2
AI9-LType2
 70
     0
  3
Illustrator Dash Style No.2
 72
    65
 73
     0
 40
0.0
  0
LTYPE
  5
19C
330
4
100
AcDbSymbolTableRecord
100
AcDbLinetypeTableRecord
  2
AI9-LType3
 70
     0
  3
Illustrator Dash Style No.3
 72
    65
 73
     4
 40
4.233333
 49
1.411111
 74
     0
 49
-0.705556
 74
     0
 49
1.411111
 74
     0
 49
-0.705556
 74
     0
  0
ENDTAB
  0
TABLE
  2
LAYER
  5
2
330
0
100
AcDbSymbolTable
 70
     2
  0
LAYER
  5
14
330
2
100
AcDbSymbolTableRecord
100
AcDbLayerTableRecord
  2
0
 70
     0
 62
     7
  6
Continuous
370
    -3
390
1D
347
24D
  0
LAYER
  5
28
330
2
100
AcDbSymbolTableRecord
100
AcDbLayerTableRecord
  2
LAYER_1
 70
     0
 62
   160
  6
Continuous
370
    -3
390
1D
347
24D
  0
ENDTAB
  0
TABLE
  2
STYLE
  5
3
330
0
100
AcDbSymbolTable
 70
     5
  0
STYLE
  5
17
330
3
100
AcDbSymbolTableRecord
100
AcDbTextStyleTableRecord
  2
Standard
 70
     0
 40
0.0
 41
1.0
 50
0.0
 71
     0
 42
0.0
  3
txt
  4

  0
STYLE
  5
24
330
3
100
AcDbSymbolTableRecord
100
AcDbTextStyleTableRecord
  2
STD
 70
     0
 40
0.0
 41
1.0
 50
0.0
 71
     0
 42
0.0
  3
txt
  4

  0
STYLE
  5
25
330
3
100
AcDbSymbolTableRecord
100
AcDbTextStyleTableRecord
  2
TATESTD
 70
     4
 40
0.0
 41
1.0
 50
0.0
 71
     0
 42
0.0
  3
txt
  4

  0
STYLE
  5
26
330
3
100
AcDbSymbolTableRecord
100
AcDbTextStyleTableRecord
  2
KANJISTD
 70
     0
 40
0.0
 41
1.0
 50
0.0
 71
     0
 42
0.0
  3
txt
  4
extfont
  0
STYLE
  5
27
330
3
100
AcDbSymbolTableRecord
100
AcDbTextStyleTableRecord
  2
KANJITATE
 70
     4
 40
0.0
 41
1.0
 50
0.0
 71
     0
 42
0.0
  3
txt
  4
extfont
  0
ENDTAB
  0
TABLE
  2
VIEW
  5
5
330
0
100
AcDbSymbolTable
 70
     0
  0
ENDTAB
  0
TABLE
  2
UCS
  5
6
330
0
100
AcDbSymbolTable
 70
     0
  0
ENDTAB
  0
TABLE
  2
APPID
  5
8
330
0
100
AcDbSymbolTable
 70
     1
  0
APPID
  5
16
330
8
100
AcDbSymbolTableRecord
100
AcDbRegAppTableRecord
  2
ACAD
 70
     0
  0
ENDTAB
  0
TABLE
  2
DIMSTYLE
  5
9
330
0
100
AcDbSymbolTable
 70
     1
100
AcDbDimStyleTable
  0
DIMSTYLE
105
18
330
9
100
AcDbSymbolTableRecord
100
AcDbDimStyleTableRecord
  2
Standard
 70
     0
178
     0
340
17
  0
ENDTAB
  0
TABLE
  2
BLOCK_RECORD
  5
1
330
0
100
AcDbSymbolTable
 70
    62
  0
BLOCK_RECORD
  5
A
330
1
100
AcDbSymbolTableRecord
100
AcDbBlockTableRecord
  2
*MODEL_SPACE
340
20
 70
     0
280
     1
281
     0
  0
BLOCK_RECORD
  5
B
330
1
100
AcDbSymbolTableRecord
100
AcDbBlockTableRecord
  2
*PAPER_SPACE
340
21
 70
     0
280
     1
281
     0
  0
BLOCK_RECORD
  5
40
330
1
100
AcDbSymbolTableRecord
100
AcDbBlockTableRecord
  2
AI9-BLK1
340
0
102
{BLKREFS
331
41
102
}
 70
     0
280
     1
281
     0
  0
BLOCK_RECORD
  5
45
330
1
100
AcDbSymbolTableRecord
100
AcDbBlockTableRecord
  2
AI9-BLK2
340
0
102
{BLKREFS
331
46
102
}
 70
     0
280
     1
281
     0
  0
BLOCK_RECORD
  5
4A
330
1
100
AcDbSymbolTableRecord
100
AcDbBlockTableRecord
  2
AI9-BLK3
340
0
102
{BLKREFS
331
4B
102
}
 70
     0
280
     1
281
     0
  0
BLOCK_RECORD
  5
4F
330
1
100
AcDbSymbolTableRecord
100
AcDbBlockTableRecord
  2
AI9-BLK4
340
0
102
{BLKREFS
331
50
102
}
 70
     0
280
     1
281
     0
  0
BLOCK_RECORD
  5
54
330
1
100
AcDbSymbolTableRecord
100
AcDbBlockTableRecord
  2
AI9-BLK5
340
0
102
{BLKREFS
331
55
102
}
 70
     0
280
     1
281
     0
  0
BLOCK_RECORD
  5
59
330
1
100
AcDbSymbolTableRecord
100
AcDbBlockTableRecord
  2
AI9-BLK6
340
0
102
{BLKREFS
331
5A
102
}
 70
     0
280
     1
281
     0
  0
BLOCK_RECORD
  5
5E
330
1
100
AcDbSymbolTableRecord
100
AcDbBlockTableRecord
  2
AI9-BLK7
340
0
102
{BLKREFS
331
5F
102
}
 70
     0
280
     1
281
     0
  0
BLOCK_RECORD
  5
63
330
1
100
AcDbSymbolTableRecord
100
AcDbBlockTableRecord
  2
AI9-BLK8
340
0
102
{BLKREFS
331
64
102
}
 70
     0
280
     1
281
     0
  0
BLOCK_RECORD
  5
68
330
1
100
AcDbSymbolTableRecord
100
AcDbBlockTableRecord
  2
AI9-BLK9
340
0
102
{BLKREFS
331
69
102
}
 70
     0
280
     1
281
     0
  0
BLOCK_RECORD
  5
6D
330
1
100
AcDbSymbolTableRecord
100
AcDbBlockTableRecord
  2
AI9-BLK10
340
0
102
{BLKREFS
331
6E
102
}
 70
     0
280
     1
281
     0
  0
BLOCK_RECORD
  5
72
330
1
100
AcDbSymbolTableRecord
100
AcDbBlockTableRecord
  2
AI9-BLK11
340
0
102
{BLKREFS
331
73
102
}
 70
     0
280
     1
281
     0
  0
BLOCK_RECORD
  5
77
330
1
100
AcDbSymbolTableRecord
100
AcDbBlockTableRecord
  2
AI9-BLK12
340
0
102
{BLKREFS
331
78
102
}
 70
     0
280
     1
281
     0
  0
BLOCK_RECORD
  5
7C
330
1
100
AcDbSymbolTableRecord
100
AcDbBlockTableRecord
  2
AI9-BLK13
340
0
102
{BLKREFS
331
7D
102
}
 70
     0
280
     1
281
     0
  0
BLOCK_RECORD
  5
81
330
1
100
AcDbSymbolTableRecord
100
AcDbBlockTableRecord
  2
AI9-BLK14
340
0
102
{BLKREFS
331
82
102
}
 70
     0
280
     1
281
     0
  0
BLOCK_RECORD
  5
86
330
1
100
AcDbSymbolTableRecord
100
AcDbBlockTableRecord
  2
AI9-BLK15
340
0
102
{BLKREFS
331
87
102
}
 70
     0
280
     1
281
     0
  0
BLOCK_RECORD
  5
8B
330
1
100
AcDbSymbolTableRecord
100
AcDbBlockTableRecord
  2
AI9-BLK16
340
0
102
{BLKREFS
331
8C
102
}
 70
     0
280
     1
281
     0
  0
BLOCK_RECORD
  5
90
330
1
100
AcDbSymbolTableRecord
100
AcDbBlockTableRecord
  2
AI9-BLK17
340
0
102
{BLKREFS
331
91
102
}
 70
     0
280
     1
281
     0
  0
BLOCK_RECORD
  5
95
330
1
100
AcDbSymbolTableRecord
100
AcDbBlockTableRecord
  2
AI9-BLK18
340
0
102
{BLKREFS
331
96
102
}
 70
     0
280
     1
281
     0
  0
BLOCK_RECORD
  5
9A
330
1
100
AcDbSymbolTableRecord
100
AcDbBlockTableRecord
  2
AI9-BLK19
340
0
102
{BLKREFS
331
9B
102
}
 70
     0
280
     1
281
     0
  0
BLOCK_RECORD
  5
9F
330
1
100
AcDbSymbolTableRecord
100
AcDbBlockTableRecord
  2
AI9-BLK20
340
0
102
{BLKREFS
331
A0
102
}
 70
     0
280
     1
281
     0
  0
BLOCK_RECORD
  5
A4
330
1
100
AcDbSymbolTableRecord
100
AcDbBlockTableRecord
  2
AI9-BLK21
340
0
102
{BLKREFS
331
A5
102
}
 70
     0
280
     1
281
     0
  0
BLOCK_RECORD
  5
A9
330
1
100
AcDbSymbolTableRecord
100
AcDbBlockTableRecord
  2
AI9-BLK22
340
0
102
{BLKREFS
331
AA
102
}
 70
     0
280
     1
281
     0
  0
BLOCK_RECORD
  5
AE
330
1
100
AcDbSymbolTableRecord
100
AcDbBlockTableRecord
  2
AI9-BLK23
340
0
102
{BLKREFS
331
AF
102
}
 70
     0
280
     1
281
     0
  0
BLOCK_RECORD
  5
B3
330
1
100
AcDbSymbolTableRecord
100
AcDbBlockTableRecord
  2
AI9-BLK24
340
0
102
{BLKREFS
331
B4
102
}
 70
     0
280
     1
281
     0
  0
BLOCK_RECORD
  5
B8
330
1
100
AcDbSymbolTableRecord
100
AcDbBlockTableRecord
  2
AI9-BLK25
340
0
102
{BLKREFS
331
B9
102
}
 70
     0
280
     1
281
     0
  0
BLOCK_RECORD
  5
BD
330
1
100
AcDbSymbolTableRecord
100
AcDbBlockTableRecord
  2
AI9-BLK26
340
0
102
{BLKREFS
331
BE
102
}
 70
     0
280
     1
281
     0
  0
BLOCK_RECORD
  5
C2
330
1
100
AcDbSymbolTableRecord
100
AcDbBlockTableRecord
  2
AI9-BLK27
340
0
102
{BLKREFS
331
C3
102
}
 70
     0
280
     1
281
     0
  0
BLOCK_RECORD
  5
C7
330
1
100
AcDbSymbolTableRecord
100
AcDbBlockTableRecord
  2
AI9-BLK28
340
0
102
{BLKREFS
331
C8
102
}
 70
     0
280
     1
281
     0
  0
BLOCK_RECORD
  5
CC
330
1
100
AcDbSymbolTableRecord
100
AcDbBlockTableRecord
  2
AI9-BLK29
340
0
102
{BLKREFS
331
CD
102
}
 70
     0
280
     1
281
     0
  0
BLOCK_RECORD
  5
D1
330
1
100
AcDbSymbolTableRecord
100
AcDbBlockTableRecord
  2
AI9-BLK30
340
0
102
{BLKREFS
331
D2
102
}
 70
     0
280
     1
281
     0
  0
BLOCK_RECORD
  5
D6
330
1
100
AcDbSymbolTableRecord
100
AcDbBlockTableRecord
  2
AI9-BLK31
340
0
102
{BLKREFS
331
D7
102
}
 70
     0
280
     1
281
     0
  0
BLOCK_RECORD
  5
DB
330
1
100
AcDbSymbolTableRecord
100
AcDbBlockTableRecord
  2
AI9-BLK32
340
0
102
{BLKREFS
331
DC
102
}
 70
     0
280
     1
281
     0
  0
BLOCK_RECORD
  5
E0
330
1
100
AcDbSymbolTableRecord
100
AcDbBlockTableRecord
  2
AI9-BLK33
340
0
102
{BLKREFS
331
E1
102
}
 70
     0
280
     1
281
     0
  0
BLOCK_RECORD
  5
E5
330
1
100
AcDbSymbolTableRecord
100
AcDbBlockTableRecord
  2
AI9-BLK34
340
0
102
{BLKREFS
331
E6
102
}
 70
     0
280
     1
281
     0
  0
BLOCK_RECORD
  5
EA
330
1
100
AcDbSymbolTableRecord
100
AcDbBlockTableRecord
  2
AI9-BLK35
340
0
102
{BLKREFS
331
EB
102
}
 70
     0
280
     1
281
     0
  0
BLOCK_RECORD
  5
EF
330
1
100
AcDbSymbolTableRecord
100
AcDbBlockTableRecord
  2
AI9-BLK36
340
0
102
{BLKREFS
331
F0
102
}
 70
     0
280
     1
281
     0
  0
BLOCK_RECORD
  5
F4
330
1
100
AcDbSymbolTableRecord
100
AcDbBlockTableRecord
  2
AI9-BLK37
340
0
102
{BLKREFS
331
F5
102
}
 70
     0
280
     1
281
     0
  0
BLOCK_RECORD
  5
F9
330
1
100
AcDbSymbolTableRecord
100
AcDbBlockTableRecord
  2
AI9-BLK38
340
0
102
{BLKREFS
331
FA
102
}
 70
     0
280
     1
281
     0
  0
BLOCK_RECORD
  5
FE
330
1
100
AcDbSymbolTableRecord
100
AcDbBlockTableRecord
  2
AI9-BLK39
340
0
102
{BLKREFS
331
FF
102
}
 70
     0
280
     1
281
     0
  0
BLOCK_RECORD
  5
103
330
1
100
AcDbSymbolTableRecord
100
AcDbBlockTableRecord
  2
AI9-BLK40
340
0
102
{BLKREFS
331
104
102
}
 70
     0
280
     1
281
     0
  0
BLOCK_RECORD
  5
108
330
1
100
AcDbSymbolTableRecord
100
AcDbBlockTableRecord
  2
AI9-BLK41
340
0
102
{BLKREFS
331
109
102
}
 70
     0
280
     1
281
     0
  0
BLOCK_RECORD
  5
10D
330
1
100
AcDbSymbolTableRecord
100
AcDbBlockTableRecord
  2
AI9-BLK42
340
0
102
{BLKREFS
331
10E
102
}
 70
     0
280
     1
281
     0
  0
BLOCK_RECORD
  5
112
330
1
100
AcDbSymbolTableRecord
100
AcDbBlockTableRecord
  2
AI9-BLK43
340
0
102
{BLKREFS
331
113
102
}
 70
     0
280
     1
281
     0
  0
BLOCK_RECORD
  5
117
330
1
100
AcDbSymbolTableRecord
100
AcDbBlockTableRecord
  2
AI9-BLK44
340
0
102
{BLKREFS
331
118
102
}
 70
     0
280
     1
281
     0
  0
BLOCK_RECORD
  5
11C
330
1
100
AcDbSymbolTableRecord
100
AcDbBlockTableRecord
  2
AI9-BLK45
340
0
102
{BLKREFS
331
11D
102
}
 70
     0
280
     1
281
     0
  0
BLOCK_RECORD
  5
121
330
1
100
AcDbSymbolTableRecord
100
AcDbBlockTableRecord
  2
AI9-BLK46
340
0
102
{BLKREFS
331
122
102
}
 70
     0
280
     1
281
     0
  0
BLOCK_RECORD
  5
126
330
1
100
AcDbSymbolTableRecord
100
AcDbBlockTableRecord
  2
AI9-BLK47
340
0
102
{BLKREFS
331
127
102
}
 70
     0
280
     1
281
     0
  0
BLOCK_RECORD
  5
12B
330
1
100
AcDbSymbolTableRecord
100
AcDbBlockTableRecord
  2
AI9-BLK48
340
0
102
{BLKREFS
331
12C
102
}
 70
     0
280
     1
281
     0
  0
BLOCK_RECORD
  5
130
330
1
100
AcDbSymbolTableRecord
100
AcDbBlockTableRecord
  2
AI9-BLK49
340
0
102
{BLKREFS
331
131
102
}
 70
     0
280
     1
281
     0
  0
BLOCK_RECORD
  5
135
330
1
100
AcDbSymbolTableRecord
100
AcDbBlockTableRecord
  2
AI9-BLK50
340
0
102
{BLKREFS
331
136
102
}
 70
     0
280
     1
281
     0
  0
BLOCK_RECORD
  5
13A
330
1
100
AcDbSymbolTableRecord
100
AcDbBlockTableRecord
  2
AI9-BLK51
340
0
102
{BLKREFS
331
13B
102
}
 70
     0
280
     1
281
     0
  0
BLOCK_RECORD
  5
13F
330
1
100
AcDbSymbolTableRecord
100
AcDbBlockTableRecord
  2
AI9-BLK52
340
0
102
{BLKREFS
331
140
102
}
 70
     0
280
     1
281
     0
  0
BLOCK_RECORD
  5
1A2
330
1
100
AcDbSymbolTableRecord
100
AcDbBlockTableRecord
  2
AI9-BLK53
340
0
102
{BLKREFS
331
1A3
102
}
 70
     0
280
     1
281
     0
  0
BLOCK_RECORD
  5
1A5
330
1
100
AcDbSymbolTableRecord
100
AcDbBlockTableRecord
  2
AI9-BLK54
340
0
102
{BLKREFS
331
1A6
102
}
 70
     0
280
     1
281
     0
  0
BLOCK_RECORD
  5
1A8
330
1
100
AcDbSymbolTableRecord
100
AcDbBlockTableRecord
  2
AI9-BLK55
340
0
102
{BLKREFS
331
1A9
102
}
 70
     0
280
     1
281
     0
  0
BLOCK_RECORD
  5
1AB
330
1
100
AcDbSymbolTableRecord
100
AcDbBlockTableRecord
  2
AI9-BLK56
340
0
102
{BLKREFS
331
1AC
102
}
 70
     0
280
     1
281
     0
  0
BLOCK_RECORD
  5
1AE
330
1
100
AcDbSymbolTableRecord
100
AcDbBlockTableRecord
  2
AI9-BLK57
340
0
102
{BLKREFS
331
1AF
102
}
 70
     0
280
     1
281
     0
  0
BLOCK_RECORD
  5
1B9
330
1
100
AcDbSymbolTableRecord
100
AcDbBlockTableRecord
  2
AI9-BLK58
340
0
102
{BLKREFS
331
1BA
102
}
 70
     0
280
     1
281
     0
  0
BLOCK_RECORD
  5
1BC
330
1
100
AcDbSymbolTableRecord
100
AcDbBlockTableRecord
  2
AI9-BLK59
340
0
102
{BLKREFS
331
1BD
102
}
 70
     0
280
     1
281
     0
  0
BLOCK_RECORD
  5
1BF
330
1
100
AcDbSymbolTableRecord
100
AcDbBlockTableRecord
  2
AI9-BLK60
340
0
102
{BLKREFS
331
1C0
102
}
 70
     0
280
     1
281
     0
  0
BLOCK_RECORD
  5
1C2
330
1
100
AcDbSymbolTableRecord
100
AcDbBlockTableRecord
  2
AI9-BLK61
340
0
102
{BLKREFS
331
1C3
102
}
 70
     0
280
     1
281
     0
  0
BLOCK_RECORD
  5
1C5
330
1
100
AcDbSymbolTableRecord
100
AcDbBlockTableRecord
  2
AI9-BLK62
340
0
102
{BLKREFS
331
1C6
102
}
 70
     0
280
     1
281
     0
  0
ENDTAB
  0
ENDSEC
  0
SECTION
  2
BLOCKS
  0
BLOCK
  5
D
330
A
100
AcDbEntity
  8
0
100
AcDbBlockBegin
  2
*MODEL_SPACE
 70
     0
 10
0.0
 20
0.0
 30
0.0
  3
*MODEL_SPACE
  1

  0
ENDBLK
  5
E
330
A
100
AcDbEntity
  8
0
100
AcDbBlockEnd
  0
BLOCK
  5
F
330
B
100
AcDbEntity
 67
     1
  8
0
100
AcDbBlockBegin
  2
*PAPER_SPACE
 70
     0
 10
0.0
 20
0.0
 30
0.0
  3
*PAPER_SPACE
  1

  0
ENDBLK
  5
10
330
B
100
AcDbEntity
 67
     1
  8
0
100
AcDbBlockEnd
  0
BLOCK
  5
42
330
40
100
AcDbEntity
  8
LAYER_1
 62
     7
100
AcDbBlockBegin
  2
AI9-BLK1
 70
     0
 10
0.0
 20
0.0
 30
0.0
  3
AI9-BLK1
  1

  0
HATCH
  5
43
330
40
100
AcDbEntity
  8
LAYER_1
 62
     7
100
AcDbHatch
 10
0.0
 20
0.0
 30
0.0
210
0.0
220
0.0
230
1.0
  2
SOLID
 70
     1
 71
     0
 91
        1
 92
        1
 93
        1
 72
     4
 94
        3
 73
     0
 74
     0
 95
       14
 96
       10
 40
0.0
 40
0.0
 40
0.0
 40
0.0
 40
1.0
 40
1.0
 40
1.0
 40
2.0
 40
2.0
 40
2.0
 40
3.0
 40
3.0
 40
3.0
 40
3.0
 10
-1.355989583333333
 20
-0.1402153862847222
 10
-1.355989583333333
 20
-0.1402153862847222
 10
-1.387684461805555
 20
0.1753553602430555
 10
1.355989583333333
 20
-0.4206461588541666
 10
-1.381483289930555
 20
0.1560628255208333
 10
-1.333596462673611
 20
0.4206461588541666
 10
-1.330495876736111
 20
0.4206461588541666
 10
-1.330495876736111
 20
0.4206461588541666
 10
-1.355989583333333
 20
-0.1402153862847222
 10
-1.355989583333333
 20
-0.1402153862847222
 97
        0
 97
        0
 75
     0
 76
     1
 98
        1
 10
0.0
 20
0.0
  0
ENDBLK
  5
44
330
40
100
AcDbEntity
  8
LAYER_1
100
AcDbBlockEnd
  0
BLOCK
  5
47
330
45
100
AcDbEntity
  8
LAYER_1
 62
     7
100
AcDbBlockBegin
  2
AI9-BLK2
 70
     0
 10
0.0
 20
0.0
 30
0.0
  3
AI9-BLK2
  1

  0
HATCH
  5
48
330
45
100
AcDbEntity
  8
LAYER_1
 62
     7
100
AcDbHatch
 10
0.0
 20
0.0
 30
0.0
210
0.0
220
0.0
230
1.0
  2
SOLID
 70
     1
 71
     0
 91
        1
 92
        1
 93
        1
 72
     4
 94
        3
 73
     0
 74
     0
 95
       14
 96
       10
 40
0.0
 40
0.0
 40
0.0
 40
0.0
 40
1.0
 40
1.0
 40
1.0
 40
2.0
 40
2.0
 40
2.0
 40
3.0
 40
3.0
 40
3.0
 40
3.0
 10
-1.285881890190972
 20
-0.1531344943576389
 10
-1.285881890190972
 20
-0.1531344943576389
 10
-1.244540744357639
 20
0.17208251953125
 10
1.285881890190972
 20
-0.4525132921006944
 10
-1.241095648871528
 20
0.17208251953125
 10
-1.132919650607639
 20
0.4525132921006944
 10
-1.132919650607639
 20
0.4525132921006944
 10
-1.132919650607639
 20
0.4525132921006944
 10
-1.285881890190972
 20
-0.1531344943576389
 10
-1.285881890190972
 20
-0.1531344943576389
 97
        0
 97
        0
 75
     0
 76
     1
 98
        1
 10
0.0
 20
0.0
  0
ENDBLK
  5
49
330
45
100
AcDbEntity
  8
LAYER_1
100
AcDbBlockEnd
  0
BLOCK
  5
4C
330
4A
100
AcDbEntity
  8
LAYER_1
 62
     7
100
AcDbBlockBegin
  2
AI9-BLK3
 70
     0
 10
0.0
 20
0.0
 30
0.0
  3
AI9-BLK3
  1

  0
HATCH
  5
4D
330
4A
100
AcDbEntity
  8
LAYER_1
 62
     7
100
AcDbHatch
 10
0.0
 20
0.0
 30
0.0
210
0.0
220
0.0
230
1.0
  2
SOLID
 70
     1
 71
     0
 91
        1
 92
        1
 93
        1
 72
     4
 94
        3
 73
     0
 74
     0
 95
       14
 96
       10
 40
0.0
 40
0.0
 40
0.0
 40
0.0
 40
1.0
 40
1.0
 40
1.0
 40
2.0
 40
2.0
 40
2.0
 40
3.0
 40
3.0
 40
3.0
 40
3.0
 10
-1.086583116319444
 20
0.4206461588541666
 10
-1.086583116319444
 20
0.4206461588541666
 10
-1.210951063368055
 20
0.1402153862847222
 10
1.236444769965278
 20
-0.4206461588541666
 10
-1.198204210069444
 20
0.1526177300347222
 10
-1.239545355902778
 20
-0.1278130425347222
 10
-1.236444769965278
 20
-0.1212673611111111
 10
-1.236444769965278
 20
-0.1212673611111111
 10
-1.086583116319444
 20
0.4206461588541666
 10
-1.086583116319444
 20
0.4206461588541666
 97
        0
 97
        0
 75
     0
 76
     1
 98
        1
 10
0.0
 20
0.0
  0
ENDBLK
  5
4E
330
4A
100
AcDbEntity
  8
LAYER_1
100
AcDbBlockEnd
  0
BLOCK
  5
51
330
4F
100
AcDbEntity
  8
LAYER_1
 62
     7
100
AcDbBlockBegin
  2
AI9-BLK4
 70
     0
 10
0.0
 20
0.0
 30
0.0
  3
AI9-BLK4
  1

  0
HATCH
  5
52
330
4F
100
AcDbEntity
  8
LAYER_1
 62
     7
100
AcDbHatch
 10
0.0
 20
0.0
 30
0.0
210
0.0
220
0.0
230
1.0
  2
SOLID
 70
     1
 71
     0
 91
        1
 92
        1
 93
        1
 72
     4
 94
        3
 73
     0
 74
     0
 95
       14
 96
       10
 40
0.0
 40
0.0
 40
0.0
 40
0.0
 40
1.0
 40
1.0
 40
1.0
 40
2.0
 40
2.0
 40
2.0
 40
3.0
 40
3.0
 40
3.0
 40
3.0
 10
-1.349616156684028
 20
-0.2773301866319444
 10
-1.349616156684028
 20
-0.2773301866319444
 10
-1.349616156684028
 20
0.0444417317708333
 10
1.349616156684028
 20
-0.3345187717013889
 10
-1.346171061197917
 20
0.0478868272569444
 10
-1.276235622829861
 20
0.3345187717013889
 10
-1.276235622829861
 20
0.3345187717013889
 10
-1.276235622829861
 20
0.3345187717013889
 10
-1.349616156684028
 20
-0.2773301866319444
 10
-1.349616156684028
 20
-0.2773301866319444
 97
        0
 97
        0
 75
     0
 76
     1
 98
        1
 10
0.0
 20
0.0
  0
ENDBLK
  5
53
330
4F
100
AcDbEntity
  8
LAYER_1
100
AcDbBlockEnd
  0
BLOCK
  5
56
330
54
100
AcDbEntity
  8
LAYER_1
 62
     7
100
AcDbBlockBegin
  2
AI9-BLK5
 70
     0
 10
0.0
 20
0.0
 30
0.0
  3
AI9-BLK5
  1

  0
HATCH
  5
57
330
54
100
AcDbEntity
  8
LAYER_1
 62
     7
100
AcDbHatch
 10
0.0
 20
0.0
 30
0.0
210
0.0
220
0.0
230
1.0
  2
SOLID
 70
     1
 71
     0
 91
        1
 92
        1
 93
        1
 72
     4
 94
        3
 73
     0
 74
     0
 95
       14
 96
       10
 40
0.0
 40
0.0
 40
0.0
 40
0.0
 40
1.0
 40
1.0
 40
1.0
 40
2.0
 40
2.0
 40
2.0
 40
3.0
 40
3.0
 40
3.0
 40
3.0
 10
-0.9751342773437499
 20
0.4301201714409722
 10
-0.9751342773437499
 20
0.4366658528645833
 10
-1.08985595703125
 20
0.1624362521701389
 10
1.115349663628472
 20
-0.4301201714409722
 10
-1.077109103732639
 20
0.17518310546875
 10
-1.115349663628472
 20
-0.0862996419270833
 10
-1.115349663628472
 20
-0.0862996419270833
 10
-1.115349663628472
 20
-0.0862996419270833
 10
-0.9751342773437499
 20
0.4301201714409722
 10
-0.9751342773437499
 20
0.4301201714409722
 97
        0
 97
        0
 75
     0
 76
     1
 98
        1
 10
0.0
 20
0.0
  0
ENDBLK
  5
58
330
54
100
AcDbEntity
  8
LAYER_1
100
AcDbBlockEnd
  0
BLOCK
  5
5B
330
59
100
AcDbEntity
  8
LAYER_1
 62
     7
100
AcDbBlockBegin
  2
AI9-BLK6
 70
     0
 10
0.0
 20
0.0
 30
0.0
  3
AI9-BLK6
  1

  0
HATCH
  5
5C
330
59
100
AcDbEntity
  8
LAYER_1
 62
     7
100
AcDbHatch
 10
0.0
 20
0.0
 30
0.0
210
0.0
220
0.0
230
1.0
  2
SOLID
 70
     1
 71
     0
 91
        1
 92
        1
 93
        1
 72
     4
 94
        3
 73
     0
 74
     0
 95
       14
 96
       10
 40
0.0
 40
0.0
 40
0.0
 40
0.0
 40
1.0
 40
1.0
 40
1.0
 40
2.0
 40
2.0
 40
2.0
 40
3.0
 40
3.0
 40
3.0
 40
3.0
 10
-1.295355902777778
 20
0.3091973198784722
 10
-1.295355902777778
 20
0.3091973198784722
 10
-1.324294704861111
 20
-0.0160196940104167
 10
1.295355902777778
 20
0.0825100368923611
 10
-1.3177490234375
 20
-0.0194647894965278
 10
-1.273307291666667
 20
-0.3091973198784722
 10
-1.273307291666667
 20
-0.3091973198784722
 10
-1.273307291666667
 20
-0.3091973198784722
 10
-1.295355902777778
 20
0.3091973198784722
 10
-1.295355902777778
 20
0.3091973198784722
 97
        0
 97
        0
 75
     0
 76
     1
 98
        1
 10
0.0
 20
0.0
  0
ENDBLK
  5
5D
330
59
100
AcDbEntity
  8
LAYER_1
100
AcDbBlockEnd
  0
BLOCK
  5
60
330
5E
100
AcDbEntity
  8
LAYER_1
 62
     7
100
AcDbBlockBegin
  2
AI9-BLK7
 70
     0
 10
0.0
 20
0.0
 30
0.0
  3
AI9-BLK7
  1

  0
HATCH
  5
61
330
5E
100
AcDbEntity
  8
LAYER_1
 62
     7
100
AcDbHatch
 10
0.0
 20
0.0
 30
0.0
210
0.0
220
0.0
230
1.0
  2
SOLID
 70
     1
 71
     0
 91
        1
 92
        1
 93
        1
 72
     4
 94
        3
 73
     0
 74
     0
 95
       14
 96
       10
 40
0.0
 40
0.0
 40
0.0
 40
0.0
 40
1.0
 40
1.0
 40
1.0
 40
2.0
 40
2.0
 40
2.0
 40
3.0
 40
3.0
 40
3.0
 40
3.0
 10
-1.250741916232639
 20
0.2995510525173611
 10
-1.250741916232639
 20
0.3029961480034722
 10
-1.295528157552083
 20
-0.0191202799479167
 10
1.253842502170139
 20
-0.0446139865451389
 10
-1.288982476128472
 20
-0.0063734266493056
 10
-1.253842502170139
 20
-0.3060967339409722
 10
-1.253842502170139
 20
-0.2995510525173611
 10
-1.253842502170139
 20
-0.2995510525173611
 10
-1.250741916232639
 20
0.2995510525173611
 10
-1.250741916232639
 20
0.2995510525173611
 97
        0
 97
        0
 75
     0
 76
     1
 98
        1
 10
0.0
 20
0.0
  0
ENDBLK
  5
62
330
5E
100
AcDbEntity
  8
LAYER_1
100
AcDbBlockEnd
  0
BLOCK
  5
65
330
63
100
AcDbEntity
  8
LAYER_1
 62
     7
100
AcDbBlockBegin
  2
AI9-BLK8
 70
     0
 10
0.0
 20
0.0
 30
0.0
  3
AI9-BLK8
  1

  0
HATCH
  5
66
330
63
100
AcDbEntity
  8
LAYER_1
 62
     7
100
AcDbHatch
 10
0.0
 20
0.0
 30
0.0
210
0.0
220
0.0
230
1.0
  2
SOLID
 70
     1
 71
     0
 91
        1
 92
        1
 93
        1
 72
     4
 94
        3
 73
     0
 74
     0
 95
       14
 96
       10
 40
0.0
 40
0.0
 40
0.0
 40
0.0
 40
1.0
 40
1.0
 40
1.0
 40
2.0
 40
2.0
 40
2.0
 40
3.0
 40
3.0
 40
3.0
 40
3.0
 10
-1.422824435763889
 20
-0.3569118923611111
 10
-1.422824435763889
 20
-0.3569118923611111
 10
-1.473811848958333
 20
0.0158474392361111
 10
1.432470703125
 20
0.1047309027777778
 10
-1.470711263020833
 20
0.0189480251736111
 10
-1.432470703125
 20
0.3569118923611111
 10
-1.432470703125
 20
0.3569118923611111
 10
-1.432470703125
 20
0.3569118923611111
 10
-1.422824435763889
 20
-0.3569118923611111
 10
-1.422824435763889
 20
-0.3569118923611111
 97
        0
 97
        0
 75
     0
 76
     1
 98
        1
 10
0.0
 20
0.0
  0
ENDBLK
  5
67
330
63
100
AcDbEntity
  8
LAYER_1
100
AcDbBlockEnd
  0
BLOCK
  5
6A
330
68
100
AcDbEntity
  8
LAYER_1
 62
     7
100
AcDbBlockBegin
  2
AI9-BLK9
 70
     0
 10
0.0
 20
0.0
 30
0.0
  3
AI9-BLK9
  1

  0
HATCH
  5
6B
330
68
100
AcDbEntity
  8
LAYER_1
 62
     7
100
AcDbHatch
 10
0.0
 20
0.0
 30
0.0
210
0.0
220
0.0
230
1.0
  2
SOLID
 70
     1
 71
     0
 91
        1
 92
        1
 93
        1
 72
     4
 94
        3
 73
     0
 74
     0
 95
       14
 96
       10
 40
0.0
 40
0.0
 40
0.0
 40
0.0
 40
1.0
 40
1.0
 40
1.0
 40
2.0
 40
2.0
 40
2.0
 40
3.0
 40
3.0
 40
3.0
 40
3.0
 10
0.396875
 20
0.9301757812499999
 10
0.396875
 20
0.9301757812499999
 10
0.1322916666666666
 20
1.025949435763889
 10
-0.396875
 20
-1.045241970486111
 10
0.1450385199652778
 20
1.019748263888889
 10
-0.1129991319444444
 20
1.045241970486111
 10
-0.1098985460069444
 20
1.045241970486111
 10
-0.1098985460069444
 20
1.045241970486111
 10
0.396875
 20
0.9301757812499999
 10
0.396875
 20
0.9301757812499999
 97
        0
 97
        0
 75
     0
 76
     1
 98
        1
 10
0.0
 20
0.0
  0
ENDBLK
  5
6C
330
68
100
AcDbEntity
  8
LAYER_1
100
AcDbBlockEnd
  0
BLOCK
  5
6F
330
6D
100
AcDbEntity
  8
LAYER_1
 62
     7
100
AcDbBlockBegin
  2
AI9-BLK10
 70
     0
 10
0.0
 20
0.0
 30
0.0
  3
AI9-BLK10
  1

  0
HATCH
  5
70
330
6D
100
AcDbEntity
  8
LAYER_1
 62
     7
100
AcDbHatch
 10
0.0
 20
0.0
 30
0.0
210
0.0
220
0.0
230
1.0
  2
SOLID
 70
     1
 71
     0
 91
        1
 92
        1
 93
        1
 72
     4
 94
        3
 73
     0
 74
     0
 95
       14
 96
       10
 40
0.0
 40
0.0
 40
0.0
 40
0.0
 40
1.0
 40
1.0
 40
1.0
 40
2.0
 40
2.0
 40
2.0
 40
3.0
 40
3.0
 40
3.0
 40
3.0
 10
-0.0478868272569444
 20
1.112076822916667
 10
-0.0478868272569444
 20
1.112076822916667
 10
-0.3376193576388888
 20
1.019748263888889
 10
0.5577609592013888
 20
-1.112076822916667
 10
-0.3217719184027778
 20
1.019748263888889
 10
-0.5577609592013888
 20
0.8764322916666666
 10
-0.5577609592013888
 20
0.8764322916666666
 10
-0.5577609592013888
 20
0.8764322916666666
 10
-0.0478868272569444
 20
1.112076822916667
 10
-0.0478868272569444
 20
1.112076822916667
 97
        0
 97
        0
 75
     0
 76
     1
 98
        1
 10
0.0
 20
0.0
  0
ENDBLK
  5
71
330
6D
100
AcDbEntity
  8
LAYER_1
100
AcDbBlockEnd
  0
BLOCK
  5
74
330
72
100
AcDbEntity
  8
LAYER_1
 62
     7
100
AcDbBlockBegin
  2
AI9-BLK11
 70
     0
 10
0.0
 20
0.0
 30
0.0
  3
AI9-BLK11
  1

  0
HATCH
  5
75
330
72
100
AcDbEntity
  8
LAYER_1
 62
     7
100
AcDbHatch
 10
0.0
 20
0.0
 30
0.0
210
0.0
220
0.0
230
1.0
  2
SOLID
 70
     1
 71
     0
 91
        1
 92
        1
 93
        1
 72
     4
 94
        3
 73
     0
 74
     0
 95
       14
 96
       10
 40
0.0
 40
0.0
 40
0.0
 40
0.0
 40
1.0
 40
1.0
 40
1.0
 40
2.0
 40
2.0
 40
2.0
 40
3.0
 40
3.0
 40
3.0
 40
3.0
 10
-0.9687608506944444
 20
0.4619873046874999
 10
-0.9687608506944444
 20
0.4619873046874999
 10
-1.090028211805556
 20
0.1946478949652778
 10
1.118622504340278
 20
-0.4619873046874999
 10
-1.077281358506944
 20
0.2070502387152778
 10
-1.121723090277778
 20
-0.0602891710069444
 10
-1.118622504340278
 20
-0.0602891710069444
 10
-1.118622504340278
 20
-0.0602891710069444
 10
-0.9687608506944444
 20
0.4619873046874999
 10
-0.9687608506944444
 20
0.4619873046874999
 97
        0
 97
        0
 75
     0
 76
     1
 98
        1
 10
0.0
 20
0.0
  0
ENDBLK
  5
76
330
72
100
AcDbEntity
  8
LAYER_1
100
AcDbBlockEnd
  0
BLOCK
  5
79
330
77
100
AcDbEntity
  8
LAYER_1
 62
     7
100
AcDbBlockBegin
  2
AI9-BLK12
 70
     0
 10
0.0
 20
0.0
 30
0.0
  3
AI9-BLK12
  1

  0
HATCH
  5
7A
330
77
100
AcDbEntity
  8
LAYER_1
 62
     7
100
AcDbHatch
 10
0.0
 20
0.0
 30
0.0
210
0.0
220
0.0
230
1.0
  2
SOLID
 70
     1
 71
     0
 91
        1
 92
        1
 93
        1
 72
     4
 94
        3
 73
     0
 74
     0
 95
       14
 96
       10
 40
0.0
 40
0.0
 40
0.0
 40
0.0
 40
1.0
 40
1.0
 40
1.0
 40
2.0
 40
2.0
 40
2.0
 40
3.0
 40
3.0
 40
3.0
 40
3.0
 10
-1.022848849826389
 20
0.3441650390625
 10
-1.0262939453125
 20
0.3441650390625
 10
-1.090028211805556
 20
0.0478868272569444
 10
1.080381944444444
 20
-0.3441650390625
 10
-1.083482530381944
 20
0.0637342664930556
 10
-1.080381944444444
 20
-0.2166965060763889
 10
-1.080381944444444
 20
-0.2166965060763889
 10
-1.080381944444444
 20
-0.2166965060763889
 10
-1.022848849826389
 20
0.3441650390625
 10
-1.022848849826389
 20
0.3441650390625
 97
        0
 97
        0
 75
     0
 76
     1
 98
        1
 10
0.0
 20
0.0
  0
ENDBLK
  5
7B
330
77
100
AcDbEntity
  8
LAYER_1
100
AcDbBlockEnd
  0
BLOCK
  5
7E
330
7C
100
AcDbEntity
  8
LAYER_1
 62
     7
100
AcDbBlockBegin
  2
AI9-BLK13
 70
     0
 10
0.0
 20
0.0
 30
0.0
  3
AI9-BLK13
  1

  0
HATCH
  5
7F
330
7C
100
AcDbEntity
  8
LAYER_1
 62
     7
100
AcDbHatch
 10
0.0
 20
0.0
 30
0.0
210
0.0
220
0.0
230
1.0
  2
SOLID
 70
     1
 71
     0
 91
        1
 92
        1
 93
        1
 72
     4
 94
        3
 73
     0
 74
     0
 95
       14
 96
       10
 40
0.0
 40
0.0
 40
0.0
 40
0.0
 40
1.0
 40
1.0
 40
1.0
 40
2.0
 40
2.0
 40
2.0
 40
3.0
 40
3.0
 40
3.0
 40
3.0
 10
-1.022848849826389
 20
0.5591389973958333
 10
-1.022848849826389
 20
0.5625840928819444
 10
-1.198204210069444
 20
0.3172932942708333
 10
1.271584743923611
 20
-0.5591389973958333
 10
-1.185457356770833
 20
0.3234944661458333
 10
-1.274685329861111
 20
0.0747585720486111
 10
-1.271584743923611
 20
0.0747585720486111
 10
-1.271584743923611
 20
0.0747585720486111
 10
-1.022848849826389
 20
0.5591389973958333
 10
-1.022848849826389
 20
0.5591389973958333
 97
        0
 97
        0
 75
     0
 76
     1
 98
        1
 10
0.0
 20
0.0
  0
ENDBLK
  5
80
330
7C
100
AcDbEntity
  8
LAYER_1
100
AcDbBlockEnd
  0
BLOCK
  5
83
330
81
100
AcDbEntity
  8
LAYER_1
 62
     7
100
AcDbBlockBegin
  2
AI9-BLK14
 70
     0
 10
0.0
 20
0.0
 30
0.0
  3
AI9-BLK14
  1

  0
HATCH
  5
84
330
81
100
AcDbEntity
  8
LAYER_1
 62
     7
100
AcDbHatch
 10
0.0
 20
0.0
 30
0.0
210
0.0
220
0.0
230
1.0
  2
SOLID
 70
     1
 71
     0
 91
        1
 92
        1
 93
        1
 72
     4
 94
        3
 73
     0
 74
     0
 95
       14
 96
       10
 40
0.0
 40
0.0
 40
0.0
 40
0.0
 40
1.0
 40
1.0
 40
1.0
 40
2.0
 40
2.0
 40
2.0
 40
3.0
 40
3.0
 40
3.0
 40
3.0
 10
0.9958048502604165
 20
-0.3186713324652777
 10
0.9958048502604165
 20
-0.3186713324652777
 10
1.03404541015625
 20
0.0161919487847222
 10
-1.008551703559028
 20
0.0768256293402778
 10
1.02784423828125
 20
0.0127468532986111
 10
1.008551703559028
 20
0.3186713324652777
 10
1.008551703559028
 20
0.3186713324652777
 10
1.008551703559028
 20
0.3186713324652777
 10
0.9958048502604165
 20
-0.3186713324652777
 10
0.9958048502604165
 20
-0.3186713324652777
 97
        0
 97
        0
 75
     0
 76
     1
 98
        1
 10
0.0
 20
0.0
  0
ENDBLK
  5
85
330
81
100
AcDbEntity
  8
LAYER_1
100
AcDbBlockEnd
  0
BLOCK
  5
88
330
86
100
AcDbEntity
  8
LAYER_1
 62
     7
100
AcDbBlockBegin
  2
AI9-BLK15
 70
     0
 10
0.0
 20
0.0
 30
0.0
  3
AI9-BLK15
  1

  0
HATCH
  5
89
330
86
100
AcDbEntity
  8
LAYER_1
 62
     7
100
AcDbHatch
 10
0.0
 20
0.0
 30
0.0
210
0.0
220
0.0
230
1.0
  2
SOLID
 70
     1
 71
     0
 91
        1
 92
        1
 93
        1
 72
     4
 94
        3
 73
     0
 74
     0
 95
       14
 96
       10
 40
0.0
 40
0.0
 40
0.0
 40
0.0
 40
1.0
 40
1.0
 40
1.0
 40
2.0
 40
2.0
 40
2.0
 40
3.0
 40
3.0
 40
3.0
 40
3.0
 10
0.8764322916666666
 20
-0.3169487847222222
 10
0.8764322916666666
 20
-0.3169487847222222
 10
0.9050265842013888
 20
0.0172254774305556
 10
-0.8795328776041665
 20
0.0365180121527778
 10
0.9019259982638889
 20
0.0172254774305556
 10
0.8795328776041665
 20
0.3169487847222222
 10
0.8795328776041665
 20
0.3169487847222222
 10
0.8795328776041665
 20
0.3169487847222222
 10
0.8764322916666666
 20
-0.3169487847222222
 10
0.8764322916666666
 20
-0.3169487847222222
 97
        0
 97
        0
 75
     0
 76
     1
 98
        1
 10
0.0
 20
0.0
  0
ENDBLK
  5
8A
330
86
100
AcDbEntity
  8
LAYER_1
100
AcDbBlockEnd
  0
BLOCK
  5
8D
330
8B
100
AcDbEntity
  8
LAYER_1
 62
     7
100
AcDbBlockBegin
  2
AI9-BLK16
 70
     0
 10
0.0
 20
0.0
 30
0.0
  3
AI9-BLK16
  1

  0
HATCH
  5
8E
330
8B
100
AcDbEntity
  8
LAYER_1
 62
     7
100
AcDbHatch
 10
0.0
 20
0.0
 30
0.0
210
0.0
220
0.0
230
1.0
  2
SOLID
 70
     1
 71
     0
 91
        1
 92
        1
 93
        1
 72
     4
 94
        3
 73
     0
 74
     0
 95
       14
 96
       10
 40
0.0
 40
0.0
 40
0.0
 40
0.0
 40
1.0
 40
1.0
 40
1.0
 40
2.0
 40
2.0
 40
2.0
 40
3.0
 40
3.0
 40
3.0
 40
3.0
 10
0.8586900499131944
 20
-0.3172932942708333
 10
0.8586900499131944
 20
-0.3172932942708333
 10
0.8779825846354166
 20
0.0237711588541667
 10
-0.8586900499131944
 20
-0.1036973741319444
 10
0.8779825846354166
 20
0.0175699869791667
 10
0.8428426106770832
 20
0.3172932942708333
 10
0.8397420247395833
 20
0.3172932942708333
 10
0.8397420247395833
 20
0.3172932942708333
 10
0.8586900499131944
 20
-0.3172932942708333
 10
0.8586900499131944
 20
-0.3172932942708333
 97
        0
 97
        0
 75
     0
 76
     1
 98
        1
 10
0.0
 20
0.0
  0
ENDBLK
  5
8F
330
8B
100
AcDbEntity
  8
LAYER_1
100
AcDbBlockEnd
  0
BLOCK
  5
92
330
90
100
AcDbEntity
  8
LAYER_1
 62
     7
100
AcDbBlockBegin
  2
AI9-BLK17
 70
     0
 10
0.0
 20
0.0
 30
0.0
  3
AI9-BLK17
  1

  0
HATCH
  5
93
330
90
100
AcDbEntity
  8
LAYER_1
 62
     7
100
AcDbHatch
 10
0.0
 20
0.0
 30
0.0
210
0.0
220
0.0
230
1.0
  2
SOLID
 70
     1
 71
     0
 91
        1
 92
        1
 93
        1
 72
     4
 94
        3
 73
     0
 74
     0
 95
       14
 96
       10
 40
0.0
 40
0.0
 40
0.0
 40
0.0
 40
1.0
 40
1.0
 40
1.0
 40
2.0
 40
2.0
 40
2.0
 40
3.0
 40
3.0
 40
3.0
 40
3.0
 10
0.8493882921006943
 20
-0.3059244791666667
 10
0.8493882921006943
 20
-0.3059244791666667
 10
0.9162231445312499
 20
-0.0509874131944444
 10
-0.928969997829861
 20
0.3059244791666667
 10
0.9131225585937499
 20
-0.0447862413194444
 10
0.928969997829861
 20
0.1943033854166666
 10
0.928969997829861
 20
0.1943033854166666
 10
0.928969997829861
 20
0.1943033854166666
 10
0.8493882921006943
 20
-0.3059244791666667
 10
0.8493882921006943
 20
-0.3059244791666667
 97
        0
 97
        0
 75
     0
 76
     1
 98
        1
 10
0.0
 20
0.0
  0
ENDBLK
  5
94
330
90
100
AcDbEntity
  8
LAYER_1
100
AcDbBlockEnd
  0
BLOCK
  5
97
330
95
100
AcDbEntity
  8
LAYER_1
 62
     7
100
AcDbBlockBegin
  2
AI9-BLK18
 70
     0
 10
0.0
 20
0.0
 30
0.0
  3
AI9-BLK18
  1

  0
HATCH
  5
98
330
95
100
AcDbEntity
  8
LAYER_1
 62
     7
100
AcDbHatch
 10
0.0
 20
0.0
 30
0.0
210
0.0
220
0.0
230
1.0
  2
SOLID
 70
     1
 71
     0
 91
        1
 92
        1
 93
        1
 72
     4
 94
        3
 73
     0
 74
     0
 95
       14
 96
       10
 40
0.0
 40
0.0
 40
0.0
 40
0.0
 40
1.0
 40
1.0
 40
1.0
 40
2.0
 40
2.0
 40
2.0
 40
3.0
 40
3.0
 40
3.0
 40
3.0
 10
0.8302680121527777
 20
-0.4747341579861111
 10
0.8302680121527777
 20
-0.4747341579861111
 10
0.9287977430555555
 20
-0.1846571180555555
 10
-0.9608371310763888
 20
0.4747341579861111
 10
0.9256971571180554
 20
-0.1815565321180555
 10
0.9608371310763888
 20
0.0988742404513889
 10
0.9608371310763888
 20
0.0988742404513889
 10
0.9608371310763888
 20
0.0988742404513889
 10
0.8302680121527777
 20
-0.4747341579861111
 10
0.8302680121527777
 20
-0.4747341579861111
 97
        0
 97
        0
 75
     0
 76
     1
 98
        1
 10
0.0
 20
0.0
  0
ENDBLK
  5
99
330
95
100
AcDbEntity
  8
LAYER_1
100
AcDbBlockEnd
  0
BLOCK
  5
9C
330
9A
100
AcDbEntity
  8
LAYER_1
 62
     7
100
AcDbBlockBegin
  2
AI9-BLK19
 70
     0
 10
0.0
 20
0.0
 30
0.0
  3
AI9-BLK19
  1

  0
HATCH
  5
9D
330
9A
100
AcDbEntity
  8
LAYER_1
 62
     7
100
AcDbHatch
 10
0.0
 20
0.0
 30
0.0
210
0.0
220
0.0
230
1.0
  2
SOLID
 70
     1
 71
     0
 91
        1
 92
        1
 93
        1
 72
     4
 94
        3
 73
     0
 74
     0
 95
       14
 96
       10
 40
0.0
 40
0.0
 40
0.0
 40
0.0
 40
1.0
 40
1.0
 40
1.0
 40
2.0
 40
2.0
 40
2.0
 40
3.0
 40
3.0
 40
3.0
 40
3.0
 10
0.5481146918402777
 20
-0.4430392795138888
 10
0.5481146918402777
 20
-0.4430392795138888
 10
0.6786838107638888
 20
-0.2962782118055555
 10
-0.7520643446180555
 20
0.4430392795138888
 10
0.6755832248263888
 20
-0.2962782118055555
 10
0.7520643446180555
 20
-0.1371148003472222
 10
0.7520643446180555
 20
-0.1371148003472222
 10
0.7520643446180555
 20
-0.1371148003472222
 10
0.5481146918402777
 20
-0.4430392795138888
 10
0.5481146918402777
 20
-0.4430392795138888
 97
        0
 97
        0
 75
     0
 76
     1
 98
        1
 10
0.0
 20
0.0
  0
ENDBLK
  5
9E
330
9A
100
AcDbEntity
  8
LAYER_1
100
AcDbBlockEnd
  0
BLOCK
  5
A1
330
9F
100
AcDbEntity
  8
LAYER_1
 62
     7
100
AcDbBlockBegin
  2
AI9-BLK20
 70
     0
 10
0.0
 20
0.0
 30
0.0
  3
AI9-BLK20
  1

  0
HATCH
  5
A2
330
9F
100
AcDbEntity
  8
LAYER_1
 62
     7
100
AcDbHatch
 10
0.0
 20
0.0
 30
0.0
210
0.0
220
0.0
230
1.0
  2
SOLID
 70
     1
 71
     0
 91
        1
 92
        1
 93
        1
 72
     4
 94
        3
 73
     0
 74
     0
 95
       14
 96
       10
 40
0.0
 40
0.0
 40
0.0
 40
0.0
 40
1.0
 40
1.0
 40
1.0
 40
2.0
 40
2.0
 40
2.0
 40
3.0
 40
3.0
 40
3.0
 40
3.0
 10
0.6325195312499999
 20
-0.4843804253472222
 10
0.6325195312499999
 20
-0.4843804253472222
 10
0.763088650173611
 20
-0.2993787977430555
 10
-0.8364691840277777
 20
0.4843804253472222
 10
0.7599880642361111
 20
-0.3059244791666667
 10
0.8364691840277777
 20
-0.117822265625
 10
0.8364691840277777
 20
-0.117822265625
 10
0.8364691840277777
 20
-0.117822265625
 10
0.6325195312499999
 20
-0.4843804253472222
 10
0.6325195312499999
 20
-0.4843804253472222
 97
        0
 97
        0
 75
     0
 76
     1
 98
        1
 10
0.0
 20
0.0
  0
ENDBLK
  5
A3
330
9F
100
AcDbEntity
  8
LAYER_1
100
AcDbBlockEnd
  0
BLOCK
  5
A6
330
A4
100
AcDbEntity
  8
LAYER_1
 62
     7
100
AcDbBlockBegin
  2
AI9-BLK21
 70
     0
 10
0.0
 20
0.0
 30
0.0
  3
AI9-BLK21
  1

  0
HATCH
  5
A7
330
A4
100
AcDbEntity
  8
LAYER_1
 62
     7
100
AcDbHatch
 10
0.0
 20
0.0
 30
0.0
210
0.0
220
0.0
230
1.0
  2
SOLID
 70
     1
 71
     0
 91
        1
 92
        1
 93
        1
 72
     4
 94
        3
 73
     0
 74
     0
 95
       14
 96
       10
 40
0.0
 40
0.0
 40
0.0
 40
0.0
 40
1.0
 40
1.0
 40
1.0
 40
2.0
 40
2.0
 40
2.0
 40
3.0
 40
3.0
 40
3.0
 40
3.0
 10
0.8507663302951388
 20
-0.3505384657118055
 10
0.8538669162326388
 20
-0.3377916124131944
 10
0.9114000108506943
 20
-0.1083482530381944
 10
-0.9623874240451388
 20
0.3505384657118055
 10
0.9176011827256944
 20
-0.0125745985243056
 10
0.9623874240451388
 20
0.1913750542534722
 10
0.9623874240451388
 20
0.17828369140625
 10
0.8952080620659721
 20
0.0129191080729167
 10
0.873159450954861
 20
-0.16898193359375
 10
0.8507663302951388
 20
-0.3505384657118055
 97
        0
 97
        0
 75
     0
 76
     1
 98
        1
 10
0.0
 20
0.0
  0
ENDBLK
  5
A8
330
A4
100
AcDbEntity
  8
LAYER_1
100
AcDbBlockEnd
  0
BLOCK
  5
AB
330
A9
100
AcDbEntity
  8
LAYER_1
 62
     7
100
AcDbBlockBegin
  2
AI9-BLK22
 70
     0
 10
0.0
 20
0.0
 30
0.0
  3
AI9-BLK22
  1

  0
HATCH
  5
AC
330
A9
100
AcDbEntity
  8
LAYER_1
 62
     7
100
AcDbHatch
 10
0.0
 20
0.0
 30
0.0
210
0.0
220
0.0
230
1.0
  2
SOLID
 70
     1
 71
     0
 91
        1
 92
        1
 93
        1
 72
     4
 94
        3
 73
     0
 74
     0
 95
       14
 96
       10
 40
0.0
 40
0.0
 40
0.0
 40
0.0
 40
1.0
 40
1.0
 40
1.0
 40
2.0
 40
2.0
 40
2.0
 40
3.0
 40
3.0
 40
3.0
 40
3.0
 10
0.7682562934027777
 20
-0.7265706380208332
 10
0.7682562934027777
 20
-0.7265706380208332
 10
0.9560139973958333
 20
-0.4936821831597222
 10
-1.070735677083333
 20
0.7265706380208332
 10
0.9498128255208332
 20
-0.4936821831597222
 10
1.070735677083333
 20
-0.2452907986111111
 10
1.070735677083333
 20
-0.2452907986111111
 10
1.070735677083333
 20
-0.2452907986111111
 10
0.7682562934027777
 20
-0.7265706380208332
 10
0.7682562934027777
 20
-0.7265706380208332
 97
        0
 97
        0
 75
     0
 76
     1
 98
        1
 10
0.0
 20
0.0
  0
ENDBLK
  5
AD
330
A9
100
AcDbEntity
  8
LAYER_1
100
AcDbBlockEnd
  0
BLOCK
  5
B0
330
AE
100
AcDbEntity
  8
LAYER_1
 62
     7
100
AcDbBlockBegin
  2
AI9-BLK23
 70
     0
 10
0.0
 20
0.0
 30
0.0
  3
AI9-BLK23
  1

  0
HATCH
  5
B1
330
AE
100
AcDbEntity
  8
LAYER_1
 62
     7
100
AcDbHatch
 10
0.0
 20
0.0
 30
0.0
210
0.0
220
0.0
230
1.0
  2
SOLID
 70
     1
 71
     0
 91
        1
 92
        1
 93
        1
 72
     4
 94
        3
 73
     0
 74
     0
 95
       14
 96
       10
 40
0.0
 40
0.0
 40
0.0
 40
0.0
 40
1.0
 40
1.0
 40
1.0
 40
2.0
 40
2.0
 40
2.0
 40
3.0
 40
3.0
 40
3.0
 40
3.0
 10
0.1210951063368056
 20
0.6373426649305555
 10
0.1210951063368056
 20
0.6438883463541666
 10
-0.2006768120659722
 20
0.45888671875
 10
0.4301201714409722
 20
-0.6373426649305555
 10
-0.1593356662326389
 20
0.4843804253472222
 10
-0.4335652669270833
 20
0.2869764539930556
 10
-0.4301201714409722
 20
0.2869764539930556
 10
-0.2485636393229166
 20
0.4047987196180555
 10
-0.0670071072048611
 20
0.5226209852430556
 10
0.1210951063368056
 20
0.6373426649305555
 97
        0
 97
        0
 75
     0
 76
     1
 98
        1
 10
0.0
 20
0.0
  0
ENDBLK
  5
B2
330
AE
100
AcDbEntity
  8
LAYER_1
100
AcDbBlockEnd
  0
BLOCK
  5
B5
330
B3
100
AcDbEntity
  8
LAYER_1
 62
     7
100
AcDbBlockBegin
  2
AI9-BLK24
 70
     0
 10
0.0
 20
0.0
 30
0.0
  3
AI9-BLK24
  1

  0
HATCH
  5
B6
330
B3
100
AcDbEntity
  8
LAYER_1
 62
     7
100
AcDbHatch
 10
0.0
 20
0.0
 30
0.0
210
0.0
220
0.0
230
1.0
  2
SOLID
 70
     1
 71
     0
 91
        1
 92
        1
 93
        1
 72
     4
 94
        3
 73
     0
 74
     0
 95
       14
 96
       10
 40
0.0
 40
0.0
 40
0.0
 40
0.0
 40
1.0
 40
1.0
 40
1.0
 40
2.0
 40
2.0
 40
2.0
 40
3.0
 40
3.0
 40
3.0
 40
3.0
 10
-0.5753309461805555
 20
0.1209228515625
 10
-0.5815321180555555
 20
0.1209228515625
 10
-0.3806830512152777
 20
-0.1877577039930555
 10
0.5753309461805555
 20
0.4109998914930555
 10
-0.4030761718749999
 20
-0.1464165581597222
 10
-0.1991265190972222
 20
-0.4109998914930555
 10
-0.1960259331597222
 20
-0.4109998914930555
 10
-0.3265950520833333
 20
-0.2325439453125
 10
-0.4540635850694444
 20
-0.0602891710069444
 10
-0.5753309461805555
 20
0.1209228515625
 97
        0
 97
        0
 75
     0
 76
     1
 98
        1
 10
0.0
 20
0.0
  0
ENDBLK
  5
B7
330
B3
100
AcDbEntity
  8
LAYER_1
100
AcDbBlockEnd
  0
BLOCK
  5
BA
330
B8
100
AcDbEntity
  8
LAYER_1
 62
     7
100
AcDbBlockBegin
  2
AI9-BLK25
 70
     0
 10
0.0
 20
0.0
 30
0.0
  3
AI9-BLK25
  1

  0
HATCH
  5
BB
330
B8
100
AcDbEntity
  8
LAYER_1
 62
     7
100
AcDbHatch
 10
0.0
 20
0.0
 30
0.0
210
0.0
220
0.0
230
1.0
  2
SOLID
 70
     1
 71
     0
 91
        1
 92
        1
 93
        1
 72
     4
 94
        3
 73
     0
 74
     0
 95
       14
 96
       10
 40
0.0
 40
0.0
 40
0.0
 40
0.0
 40
1.0
 40
1.0
 40
1.0
 40
2.0
 40
2.0
 40
2.0
 40
3.0
 40
3.0
 40
3.0
 40
3.0
 10
-0.3026516384548611
 20
-0.5927286783854167
 10
-0.3060967339409722
 20
-0.5992743598090278
 10
0.0415134006076389
 20
-0.4842081705729166
 10
-0.3026516384548611
 20
0.5927286783854167
 10
-0.0001722547743056
 20
-0.4972995334201388
 10
0.3057522243923611
 20
-0.3632853190104166
 10
0.3026516384548611
 20
-0.3601847330729167
 10
0.1052476671006944
 20
-0.4397664388020833
 10
-0.0987019856770833
 20
-0.522793240017361
 10
-0.3026516384548611
 20
-0.5927286783854167
 97
        0
 97
        0
 75
     0
 76
     1
 98
        1
 10
0.0
 20
0.0
  0
ENDBLK
  5
BC
330
B8
100
AcDbEntity
  8
LAYER_1
100
AcDbBlockEnd
  0
BLOCK
  5
BF
330
BD
100
AcDbEntity
  8
LAYER_1
 62
     7
100
AcDbBlockBegin
  2
AI9-BLK26
 70
     0
 10
0.0
 20
0.0
 30
0.0
  3
AI9-BLK26
  1

  0
HATCH
  5
C0
330
BD
100
AcDbEntity
  8
LAYER_1
 62
     7
100
AcDbHatch
 10
0.0
 20
0.0
 30
0.0
210
0.0
220
0.0
230
1.0
  2
SOLID
 70
     1
 71
     0
 91
        1
 92
        1
 93
        1
 72
     4
 94
        3
 73
     0
 74
     0
 95
       14
 96
       10
 40
0.0
 40
0.0
 40
0.0
 40
0.0
 40
1.0
 40
1.0
 40
1.0
 40
2.0
 40
2.0
 40
2.0
 40
3.0
 40
3.0
 40
3.0
 40
3.0
 10
0.3536390516493055
 20
0.3901570638020833
 10
0.3570841471354166
 20
0.3967027452256944
 10
0.0063734266493056
 20
0.5052232530381944
 10
-0.3536390516493055
 20
-0.5624118381076388
 10
0.0477145724826389
 20
0.4921318901909722
 10
-0.2802585177951389
 20
0.5686130099826389
 10
-0.2771579318576389
 20
0.5624118381076388
 10
-0.06356201171875
 20
0.5052232530381944
 10
0.1434882269965278
 20
0.4507907443576388
 10
0.3536390516493055
 20
0.3901570638020833
 97
        0
 97
        0
 75
     0
 76
     1
 98
        1
 10
0.0
 20
0.0
  0
ENDBLK
  5
C1
330
BD
100
AcDbEntity
  8
LAYER_1
100
AcDbBlockEnd
  0
BLOCK
  5
C4
330
C2
100
AcDbEntity
  8
LAYER_1
 62
     7
100
AcDbBlockBegin
  2
AI9-BLK27
 70
     0
 10
0.0
 20
0.0
 30
0.0
  3
AI9-BLK27
  1

  0
HATCH
  5
C5
330
C2
100
AcDbEntity
  8
LAYER_1
 62
     7
100
AcDbHatch
 10
0.0
 20
0.0
 30
0.0
210
0.0
220
0.0
230
1.0
  2
SOLID
 70
     1
 71
     0
 91
        1
 92
        1
 93
        1
 72
     4
 94
        3
 73
     0
 74
     0
 95
       14
 96
       10
 40
0.0
 40
0.0
 40
0.0
 40
0.0
 40
1.0
 40
1.0
 40
1.0
 40
2.0
 40
2.0
 40
2.0
 40
3.0
 40
3.0
 40
3.0
 40
3.0
 10
0.5436360677083333
 20
-0.3265950520833333
 10
0.5467366536458332
 20
-0.3327962239583333
 10
0.5722303602430555
 20
0.0399631076388889
 10
-0.5560384114583333
 20
0.1260904947916667
 10
0.5656846788194444
 20
-0.0079237196180556
 10
0.5594835069444444
 20
0.3300401475694444
 10
0.5560384114583333
 20
0.3265950520833333
 10
0.5529378255208333
 20
0.1129991319444444
 10
0.5529378255208333
 20
-0.1098985460069444
 10
0.5436360677083333
 20
-0.3265950520833333
 97
        0
 97
        0
 75
     0
 76
     1
 98
        1
 10
0.0
 20
0.0
  0
ENDBLK
  5
C6
330
C2
100
AcDbEntity
  8
LAYER_1
100
AcDbBlockEnd
  0
BLOCK
  5
C9
330
C7
100
AcDbEntity
  8
LAYER_1
 62
     7
100
AcDbBlockBegin
  2
AI9-BLK28
 70
     0
 10
0.0
 20
0.0
 30
0.0
  3
AI9-BLK28
  1

  0
HATCH
  5
CA
330
C7
100
AcDbEntity
  8
LAYER_1
 62
     7
100
AcDbHatch
 10
0.0
 20
0.0
 30
0.0
210
0.0
220
0.0
230
1.0
  2
SOLID
 70
     1
 71
     0
 91
        1
 92
        1
 93
        1
 72
     4
 94
        3
 73
     0
 74
     0
 95
       14
 96
       10
 40
0.0
 40
0.0
 40
0.0
 40
0.0
 40
1.0
 40
1.0
 40
1.0
 40
2.0
 40
2.0
 40
2.0
 40
3.0
 40
3.0
 40
3.0
 40
3.0
 10
-0.2644110785590277
 20
0.5432915581597222
 10
-0.2644110785590277
 20
0.5494927300347222
 10
-0.4842081705729166
 20
0.2501139322916666
 10
0.6213229709201389
 20
-0.5432915581597222
 10
-0.4556138780381944
 20
0.2821533203125
 10
-0.6244235568576388
 20
-0.0048231336805556
 10
-0.6213229709201389
 20
-0.0048231336805556
 10
-0.5035007052951388
 20
0.1767333984375
 10
-0.3856784396701389
 20
0.3648356119791666
 10
-0.2644110785590277
 20
0.5432915581597222
 97
        0
 97
        0
 75
     0
 76
     1
 98
        1
 10
0.0
 20
0.0
  0
ENDBLK
  5
CB
330
C7
100
AcDbEntity
  8
LAYER_1
100
AcDbBlockEnd
  0
BLOCK
  5
CE
330
CC
100
AcDbEntity
  8
LAYER_1
 62
     7
100
AcDbBlockBegin
  2
AI9-BLK29
 70
     0
 10
0.0
 20
0.0
 30
0.0
  3
AI9-BLK29
  1

  0
HATCH
  5
CF
330
CC
100
AcDbEntity
  8
LAYER_1
 62
     7
100
AcDbHatch
 10
0.0
 20
0.0
 30
0.0
210
0.0
220
0.0
230
1.0
  2
SOLID
 70
     1
 71
     0
 91
        1
 92
        1
 93
        1
 72
     4
 94
        3
 73
     0
 74
     0
 95
       14
 96
       10
 40
0.0
 40
0.0
 40
0.0
 40
0.0
 40
1.0
 40
1.0
 40
1.0
 40
2.0
 40
2.0
 40
2.0
 40
3.0
 40
3.0
 40
3.0
 40
3.0
 10
-0.5114244249131944
 20
-0.1002522786458333
 10
-0.5179701063368055
 20
-0.1002522786458333
 10
-0.2375393337673611
 20
-0.3393419053819444
 10
0.5114244249131944
 20
0.5019504123263888
 10
-0.2695787217881944
 20
-0.3076470269097222
 10
-0.00155029296875
 20
-0.5081515842013888
 10
-0.00155029296875
 20
-0.5019504123263888
 10
-0.1738050672743055
 20
-0.3744818793402778
 10
-0.3460598415798611
 20
-0.2342664930555555
 10
-0.5114244249131944
 20
-0.1002522786458333
 97
        0
 97
        0
 75
     0
 76
     1
 98
        1
 10
0.0
 20
0.0
  0
ENDBLK
  5
D0
330
CC
100
AcDbEntity
  8
LAYER_1
100
AcDbBlockEnd
  0
BLOCK
  5
D3
330
D1
100
AcDbEntity
  8
LAYER_1
 62
     7
100
AcDbBlockBegin
  2
AI9-BLK30
 70
     0
 10
0.0
 20
0.0
 30
0.0
  3
AI9-BLK30
  1

  0
HATCH
  5
D4
330
D1
100
AcDbEntity
  8
LAYER_1
 62
     7
100
AcDbHatch
 10
0.0
 20
0.0
 30
0.0
210
0.0
220
0.0
230
1.0
  2
SOLID
 70
     1
 71
     0
 91
        1
 92
        1
 93
        1
 72
     4
 94
        3
 73
     0
 74
     0
 95
       14
 96
       10
 40
0.0
 40
0.0
 40
0.0
 40
0.0
 40
1.0
 40
1.0
 40
1.0
 40
2.0
 40
2.0
 40
2.0
 40
3.0
 40
3.0
 40
3.0
 40
3.0
 10
-0.11007080078125
 20
-0.5703355577256944
 10
-0.11007080078125
 20
-0.5796373155381944
 10
0.1958536783854167
 20
-0.3729315863715277
 10
-0.4159952799479166
 20
0.5703355577256944
 10
0.1576131184895833
 20
-0.39842529296875
 10
0.4190958658854166
 20
-0.1879299587673611
 10
0.4159952799479166
 20
-0.1879299587673611
 10
0.2437405056423611
 20
-0.3184990776909722
 10
0.0683851453993056
 20
-0.4521687825520833
 10
-0.11007080078125
 20
-0.5703355577256944
 97
        0
 97
        0
 75
     0
 76
     1
 98
        1
 10
0.0
 20
0.0
  0
ENDBLK
  5
D5
330
D1
100
AcDbEntity
  8
LAYER_1
100
AcDbBlockEnd
  0
BLOCK
  5
D8
330
D6
100
AcDbEntity
  8
LAYER_1
 62
     7
100
AcDbBlockBegin
  2
AI9-BLK31
 70
     0
 10
0.0
 20
0.0
 30
0.0
  3
AI9-BLK31
  1

  0
HATCH
  5
D9
330
D6
100
AcDbEntity
  8
LAYER_1
 62
     7
100
AcDbHatch
 10
0.0
 20
0.0
 30
0.0
210
0.0
220
0.0
230
1.0
  2
SOLID
 70
     1
 71
     0
 91
        1
 92
        1
 93
        1
 72
     4
 94
        3
 73
     0
 74
     0
 95
       14
 96
       10
 40
0.0
 40
0.0
 40
0.0
 40
0.0
 40
1.0
 40
1.0
 40
1.0
 40
2.0
 40
2.0
 40
2.0
 40
3.0
 40
3.0
 40
3.0
 40
3.0
 10
-0.3234944661458333
 20
-0.5403632269965277
 10
-0.3265950520833333
 20
-0.5403632269965277
 10
0.0368625217013889
 20
-0.6006523980034721
 10
0.2408121744791666
 20
0.6133992513020833
 10
-0.0079237196180556
 20
-0.594106716579861
 10
0.3265950520833333
 20
-0.6196004231770833
 10
0.3234944661458333
 20
-0.6133992513020833
 10
0.1098985460069444
 20
-0.594106716579861
 10
-0.1098985460069444
 20
-0.56585693359375
 10
-0.3234944661458333
 20
-0.5403632269965277
 97
        0
 97
        0
 75
     0
 76
     1
 98
        1
 10
0.0
 20
0.0
  0
ENDBLK
  5
DA
330
D6
100
AcDbEntity
  8
LAYER_1
100
AcDbBlockEnd
  0
BLOCK
  5
DD
330
DB
100
AcDbEntity
  8
LAYER_1
 62
     7
100
AcDbBlockBegin
  2
AI9-BLK32
 70
     0
 10
0.0
 20
0.0
 30
0.0
  3
AI9-BLK32
  1

  0
HATCH
  5
DE
330
DB
100
AcDbEntity
  8
LAYER_1
 62
     7
100
AcDbHatch
 10
0.0
 20
0.0
 30
0.0
210
0.0
220
0.0
230
1.0
  2
SOLID
 70
     1
 71
     0
 91
        1
 92
        1
 93
        1
 72
     4
 94
        3
 73
     0
 74
     0
 95
       14
 96
       10
 40
0.0
 40
0.0
 40
0.0
 40
0.0
 40
1.0
 40
1.0
 40
1.0
 40
2.0
 40
2.0
 40
2.0
 40
3.0
 40
3.0
 40
3.0
 40
3.0
 10
0.5718858506944444
 20
0.1133436414930556
 10
0.5753309461805555
 20
0.1160997178819444
 10
0.3107476128472222
 20
0.3744818793402778
 10
-0.5718858506944444
 20
-0.5432915581597222
 10
0.3393419053819444
 20
0.3427870008680555
 10
0.0782036675347222
 20
0.5494927300347222
 10
0.0782036675347222
 20
0.5432915581597222
 10
0.2470133463541666
 20
0.3999755859375
 10
0.4096218532986111
 20
0.2628607855902778
 10
0.5718858506944444
 20
0.1133436414930556
 97
        0
 97
        0
 75
     0
 76
     1
 98
        1
 10
0.0
 20
0.0
  0
ENDBLK
  5
DF
330
DB
100
AcDbEntity
  8
LAYER_1
100
AcDbBlockEnd
  0
BLOCK
  5
E2
330
E0
100
AcDbEntity
  8
LAYER_1
 62
     7
100
AcDbBlockBegin
  2
AI9-BLK33
 70
     0
 10
0.0
 20
0.0
 30
0.0
  3
AI9-BLK33
  1

  0
HATCH
  5
E3
330
E0
100
AcDbEntity
  8
LAYER_1
 62
     7
100
AcDbHatch
 10
0.0
 20
0.0
 30
0.0
210
0.0
220
0.0
230
1.0
  2
SOLID
 70
     1
 71
     0
 91
        1
 92
        1
 93
        1
 72
     4
 94
        3
 73
     0
 74
     0
 95
       14
 96
       10
 40
0.0
 40
0.0
 40
0.0
 40
0.0
 40
1.0
 40
1.0
 40
1.0
 40
2.0
 40
2.0
 40
2.0
 40
3.0
 40
3.0
 40
3.0
 40
3.0
 10
-0.6056477864583333
 20
0.3265950520833333
 10
-0.6056477864583333
 20
0.3265950520833333
 10
-0.6435438368055555
 20
0.0110243055555556
 10
0.6500895182291666
 20
-0.2277208116319444
 10
-0.6435438368055555
 20
-0.0268717447916667
 10
-0.6500895182291666
 20
-0.3231499565972222
 10
-0.6500895182291666
 20
-0.3265950520833333
 10
-0.6500895182291666
 20
-0.3265950520833333
 10
-0.6056477864583333
 20
0.3265950520833333
 10
-0.6056477864583333
 20
0.3265950520833333
 97
        0
 97
        0
 75
     0
 76
     1
 98
        1
 10
0.0
 20
0.0
  0
ENDBLK
  5
E4
330
E0
100
AcDbEntity
  8
LAYER_1
100
AcDbBlockEnd
  0
BLOCK
  5
E7
330
E5
100
AcDbEntity
  8
LAYER_1
 62
     7
100
AcDbBlockBegin
  2
AI9-BLK34
 70
     0
 10
0.0
 20
0.0
 30
0.0
  3
AI9-BLK34
  1

  0
HATCH
  5
E8
330
E5
100
AcDbEntity
  8
LAYER_1
 62
     7
100
AcDbHatch
 10
0.0
 20
0.0
 30
0.0
210
0.0
220
0.0
230
1.0
  2
SOLID
 70
     1
 71
     0
 91
        1
 92
        1
 93
        1
 72
     4
 94
        3
 73
     0
 74
     0
 95
       14
 96
       10
 40
0.0
 40
0.0
 40
0.0
 40
0.0
 40
1.0
 40
1.0
 40
1.0
 40
2.0
 40
2.0
 40
2.0
 40
3.0
 40
3.0
 40
3.0
 40
3.0
 10
0.5417412651909722
 20
-0.3267673068576389
 10
0.5448418511284722
 20
-0.3329684787326389
 10
0.5703355577256944
 20
0.0366902669270833
 10
-0.5544881184895832
 20
0.1259182400173611
 10
0.5672349717881944
 20
-0.00775146484375
 10
0.5610337999131944
 20
0.3267673068576389
 10
0.5544881184895832
 20
0.3267673068576389
 10
0.5544881184895832
 20
0.1066257052951389
 10
0.5544881184895832
 20
-0.1097262912326389
 10
0.5417412651909722
 20
-0.3267673068576389
 97
        0
 97
        0
 75
     0
 76
     1
 98
        1
 10
0.0
 20
0.0
  0
ENDBLK
  5
E9
330
E5
100
AcDbEntity
  8
LAYER_1
100
AcDbBlockEnd
  0
BLOCK
  5
EC
330
EA
100
AcDbEntity
  8
LAYER_1
 62
     7
100
AcDbBlockBegin
  2
AI9-BLK35
 70
     0
 10
0.0
 20
0.0
 30
0.0
  3
AI9-BLK35
  1

  0
HATCH
  5
ED
330
EA
100
AcDbEntity
  8
LAYER_1
 62
     7
100
AcDbHatch
 10
0.0
 20
0.0
 30
0.0
210
0.0
220
0.0
230
1.0
  2
SOLID
 70
     1
 71
     0
 91
        1
 92
        1
 93
        1
 72
     4
 94
        3
 73
     0
 74
     0
 95
       14
 96
       10
 40
0.0
 40
0.0
 40
0.0
 40
0.0
 40
1.0
 40
1.0
 40
1.0
 40
2.0
 40
2.0
 40
2.0
 40
3.0
 40
3.0
 40
3.0
 40
3.0
 10
0.2118733723958333
 20
0.6674872504340277
 10
0.2180745442708333
 20
0.6740329318576388
 10
-0.0303168402777778
 20
0.69298095703125
 10
-0.1322916666666666
 20
-0.6674872504340277
 10
0.0141248914930556
 20
0.69298095703125
 10
-0.2153184678819444
 20
0.6550849066840277
 10
-0.2118733723958333
 20
0.6550849066840277
 10
-0.0685574001736111
 20
0.6674872504340277
 10
0.0747585720486111
 20
0.6805786132812499
 10
0.2118733723958333
 20
0.6674872504340277
 97
        0
 97
        0
 75
     0
 76
     1
 98
        1
 10
0.0
 20
0.0
  0
ENDBLK
  5
EE
330
EA
100
AcDbEntity
  8
LAYER_1
100
AcDbBlockEnd
  0
BLOCK
  5
F1
330
EF
100
AcDbEntity
  8
LAYER_1
 62
     7
100
AcDbBlockBegin
  2
AI9-BLK36
 70
     0
 10
0.0
 20
0.0
 30
0.0
  3
AI9-BLK36
  1

  0
HATCH
  5
F2
330
EF
100
AcDbEntity
  8
LAYER_1
 62
     7
100
AcDbHatch
 10
0.0
 20
0.0
 30
0.0
210
0.0
220
0.0
230
1.0
  2
SOLID
 70
     1
 71
     0
 91
        1
 92
        1
 93
        1
 72
     4
 94
        3
 73
     0
 74
     0
 95
       14
 96
       10
 40
0.0
 40
0.0
 40
0.0
 40
0.0
 40
1.0
 40
1.0
 40
1.0
 40
2.0
 40
2.0
 40
2.0
 40
3.0
 40
3.0
 40
3.0
 40
3.0
 10
-0.2263427734375
 20
0.5162475585937499
 10
-0.229443359375
 20
0.52244873046875
 10
-0.4430392795138888
 20
0.2296156141493055
 10
0.5832546657986111
 20
-0.5162475585937499
 10
-0.4175455729166666
 20
0.2613104926215278
 10
-0.586355251736111
 20
-0.0253214518229167
 10
-0.5832546657986111
 20
-0.0253214518229167
 10
-0.4654324001736111
 20
0.1562350802951389
 10
-0.3507107204861111
 20
0.3377916124131944
 10
-0.2263427734375
 20
0.5162475585937499
 97
        0
 97
        0
 75
     0
 76
     1
 98
        1
 10
0.0
 20
0.0
  0
ENDBLK
  5
F3
330
EF
100
AcDbEntity
  8
LAYER_1
100
AcDbBlockEnd
  0
BLOCK
  5
F6
330
F4
100
AcDbEntity
  8
LAYER_1
 62
     7
100
AcDbBlockBegin
  2
AI9-BLK37
 70
     0
 10
0.0
 20
0.0
 30
0.0
  3
AI9-BLK37
  1

  0
HATCH
  5
F7
330
F4
100
AcDbEntity
  8
LAYER_1
 62
     7
100
AcDbHatch
 10
0.0
 20
0.0
 30
0.0
210
0.0
220
0.0
230
1.0
  2
SOLID
 70
     1
 71
     0
 91
        1
 92
        1
 93
        1
 72
     4
 94
        3
 73
     0
 74
     0
 95
       14
 96
       10
 40
0.0
 40
0.0
 40
0.0
 40
0.0
 40
1.0
 40
1.0
 40
1.0
 40
2.0
 40
2.0
 40
2.0
 40
3.0
 40
3.0
 40
3.0
 40
3.0
 10
-0.586355251736111
 20
0.1817287868923611
 10
-0.5898003472222222
 20
0.1817287868923611
 10
-0.4175455729166666
 20
-0.1434882269965278
 10
0.586355251736111
 20
0.3791327582465278
 10
-0.4368381076388889
 20
-0.1052476671006944
 10
-0.2518364800347222
 20
-0.3856784396701389
 10
-0.2487358940972222
 20
-0.3791327582465278
 10
-0.3634575737847222
 20
-0.1944756401909722
 10
-0.4781792534722222
 20
-0.0098185221354167
 10
-0.586355251736111
 20
0.1817287868923611
 97
        0
 97
        0
 75
     0
 76
     1
 98
        1
 10
0.0
 20
0.0
  0
ENDBLK
  5
F8
330
F4
100
AcDbEntity
  8
LAYER_1
100
AcDbBlockEnd
  0
BLOCK
  5
FB
330
F9
100
AcDbEntity
  8
LAYER_1
 62
     7
100
AcDbBlockBegin
  2
AI9-BLK38
 70
     0
 10
0.0
 20
0.0
 30
0.0
  3
AI9-BLK38
  1

  0
HATCH
  5
FC
330
F9
100
AcDbEntity
  8
LAYER_1
 62
     7
100
AcDbHatch
 10
0.0
 20
0.0
 30
0.0
210
0.0
220
0.0
230
1.0
  2
SOLID
 70
     1
 71
     0
 91
        1
 92
        1
 93
        1
 72
     4
 94
        3
 73
     0
 74
     0
 95
       14
 96
       10
 40
0.0
 40
0.0
 40
0.0
 40
0.0
 40
1.0
 40
1.0
 40
1.0
 40
2.0
 40
2.0
 40
2.0
 40
3.0
 40
3.0
 40
3.0
 40
3.0
 10
0.1672593858506944
 20
-0.4843804253472222
 10
0.1672593858506944
 20
-0.4878255208333333
 10
0.3839558919270833
 20
-0.1881022135416667
 10
-0.5241712782118055
 20
0.4843804253472222
 10
0.3584621853298611
 20
-0.229443359375
 10
0.5303724500868056
 20
0.0637342664930556
 10
0.5241712782118055
 20
0.0637342664930556
 10
0.4094495985243055
 20
-0.1212673611111111
 10
0.2881822374131944
 20
-0.3059244791666667
 10
0.1672593858506944
 20
-0.4843804253472222
 97
        0
 97
        0
 75
     0
 76
     1
 98
        1
 10
0.0
 20
0.0
  0
ENDBLK
  5
FD
330
F9
100
AcDbEntity
  8
LAYER_1
100
AcDbBlockEnd
  0
BLOCK
  5
100
330
FE
100
AcDbEntity
  8
LAYER_1
 62
     7
100
AcDbBlockBegin
  2
AI9-BLK39
 70
     0
 10
0.0
 20
0.0
 30
0.0
  3
AI9-BLK39
  1

  0
HATCH
  5
101
330
FE
100
AcDbEntity
  8
LAYER_1
 62
     7
100
AcDbHatch
 10
0.0
 20
0.0
 30
0.0
210
0.0
220
0.0
230
1.0
  2
SOLID
 70
     1
 71
     0
 91
        1
 92
        1
 93
        1
 72
     4
 94
        3
 73
     0
 74
     0
 95
       14
 96
       10
 40
0.0
 40
0.0
 40
0.0
 40
0.0
 40
1.0
 40
1.0
 40
1.0
 40
2.0
 40
2.0
 40
2.0
 40
3.0
 40
3.0
 40
3.0
 40
3.0
 10
-0.3250447591145833
 20
-0.6628363715277777
 10
-0.3315904405381944
 20
-0.6628363715277777
 10
0.0384128146701389
 20
-0.6693820529513889
 10
0.0477145724826389
 20
0.6628363715277777
 10
-0.0063734266493056
 20
-0.6693820529513889
 10
0.3281453450520833
 20
-0.6438883463541666
 10
0.3250447591145833
 20
-0.6373426649305555
 10
0.1114488389756944
 20
-0.6500895182291666
 10
-0.1114488389756944
 20
-0.6562906901041666
 10
-0.3250447591145833
 20
-0.6628363715277777
 97
        0
 97
        0
 75
     0
 76
     1
 98
        1
 10
0.0
 20
0.0
  0
ENDBLK
  5
102
330
FE
100
AcDbEntity
  8
LAYER_1
100
AcDbBlockEnd
  0
BLOCK
  5
105
330
103
100
AcDbEntity
  8
LAYER_1
 62
     7
100
AcDbBlockBegin
  2
AI9-BLK40
 70
     0
 10
0.0
 20
0.0
 30
0.0
  3
AI9-BLK40
  1

  0
HATCH
  5
106
330
103
100
AcDbEntity
  8
LAYER_1
 62
     7
100
AcDbHatch
 10
0.0
 20
0.0
 30
0.0
210
0.0
220
0.0
230
1.0
  2
SOLID
 70
     1
 71
     0
 91
        1
 92
        1
 93
        1
 72
     4
 94
        3
 73
     0
 74
     0
 95
       14
 96
       10
 40
0.0
 40
0.0
 40
0.0
 40
0.0
 40
1.0
 40
1.0
 40
1.0
 40
2.0
 40
2.0
 40
2.0
 40
3.0
 40
3.0
 40
3.0
 40
3.0
 10
0.5655124240451388
 20
-0.0749308268229167
 10
0.5720581054687499
 20
-0.0749308268229167
 10
0.3522610134548611
 20
0.2182467990451389
 10
-0.5655124240451388
 20
-0.4349433051215277
 10
0.3777547200520833
 20
0.1862074110243056
 10
0.1576131184895833
 20
0.4349433051215277
 10
0.1576131184895833
 20
0.4349433051215277
 10
0.2947279188368056
 20
0.2626885308159722
 10
0.4349433051215277
 20
0.0938788519965278
 10
0.5655124240451388
 20
-0.0749308268229167
 97
        0
 97
        0
 75
     0
 76
     1
 98
        1
 10
0.0
 20
0.0
  0
ENDBLK
  5
107
330
103
100
AcDbEntity
  8
LAYER_1
100
AcDbBlockEnd
  0
BLOCK
  5
10A
330
108
100
AcDbEntity
  8
LAYER_1
 62
     7
100
AcDbBlockBegin
  2
AI9-BLK41
 70
     0
 10
0.0
 20
0.0
 30
0.0
  3
AI9-BLK41
  1

  0
HATCH
  5
10B
330
108
100
AcDbEntity
  8
LAYER_1
 62
     7
100
AcDbHatch
 10
0.0
 20
0.0
 30
0.0
210
0.0
220
0.0
230
1.0
  2
SOLID
 70
     1
 71
     0
 91
        1
 92
        1
 93
        1
 72
     4
 94
        3
 73
     0
 74
     0
 95
       14
 96
       10
 40
0.0
 40
0.0
 40
0.0
 40
0.0
 40
1.0
 40
1.0
 40
1.0
 40
2.0
 40
2.0
 40
2.0
 40
3.0
 40
3.0
 40
3.0
 40
3.0
 10
-0.6102986653645833
 20
0.3250447591145833
 10
-0.6068535698784722
 20
0.3188435872395833
 10
-0.6450941297743055
 20
0.0063734266493056
 10
0.6485392252604166
 20
-0.2358167860243055
 10
-0.6419935438368055
 20
-0.0318671332465278
 10
-0.6485392252604166
 20
-0.3250447591145833
 10
-0.6485392252604166
 20
-0.3250447591145833
 10
-0.6485392252604166
 20
-0.3250447591145833
 10
-0.6102986653645833
 20
0.3250447591145833
 10
-0.6102986653645833
 20
0.3250447591145833
 97
        0
 97
        0
 75
     0
 76
     1
 98
        1
 10
0.0
 20
0.0
  0
ENDBLK
  5
10C
330
108
100
AcDbEntity
  8
LAYER_1
100
AcDbBlockEnd
  0
BLOCK
  5
10F
330
10D
100
AcDbEntity
  8
LAYER_1
 62
     7
100
AcDbBlockBegin
  2
AI9-BLK42
 70
     0
 10
0.0
 20
0.0
 30
0.0
  3
AI9-BLK42
  1

  0
HATCH
  5
110
330
10D
100
AcDbEntity
  8
LAYER_1
 62
     7
100
AcDbHatch
 10
0.0
 20
0.0
 30
0.0
210
0.0
220
0.0
230
1.0
  2
SOLID
 70
     1
 71
     0
 91
        1
 92
        1
 93
        1
 72
     4
 94
        3
 73
     0
 74
     0
 95
       14
 96
       10
 40
0.0
 40
0.0
 40
0.0
 40
0.0
 40
1.0
 40
1.0
 40
1.0
 40
2.0
 40
2.0
 40
2.0
 40
3.0
 40
3.0
 40
3.0
 40
3.0
 10
0.5386406792534721
 20
-0.3248725043402778
 10
0.5451863606770833
 20
-0.3283175998263889
 10
0.5706800672743055
 20
0.0382405598958333
 10
-0.5544881184895832
 20
0.1274685329861111
 10
0.5672349717881944
 20
-0.0065456814236111
 10
0.5610337999131944
 20
0.3248725043402778
 10
0.5544881184895832
 20
0.3248725043402778
 10
0.5544881184895832
 20
0.1085205078125
 10
0.5544881184895832
 20
-0.1081759982638889
 10
0.5386406792534721
 20
-0.3248725043402778
 97
        0
 97
        0
 75
     0
 76
     1
 98
        1
 10
0.0
 20
0.0
  0
ENDBLK
  5
111
330
10D
100
AcDbEntity
  8
LAYER_1
100
AcDbBlockEnd
  0
BLOCK
  5
114
330
112
100
AcDbEntity
  8
LAYER_1
 62
     7
100
AcDbBlockBegin
  2
AI9-BLK43
 70
     0
 10
0.0
 20
0.0
 30
0.0
  3
AI9-BLK43
  1

  0
HATCH
  5
115
330
112
100
AcDbEntity
  8
LAYER_1
 62
     7
100
AcDbHatch
 10
0.0
 20
0.0
 30
0.0
210
0.0
220
0.0
230
1.0
  2
SOLID
 70
     1
 71
     0
 91
        1
 92
        1
 93
        1
 72
     4
 94
        3
 73
     0
 74
     0
 95
       14
 96
       10
 40
0.0
 40
0.0
 40
0.0
 40
0.0
 40
1.0
 40
1.0
 40
1.0
 40
2.0
 40
2.0
 40
2.0
 40
3.0
 40
3.0
 40
3.0
 40
3.0
 10
0.3362413194444444
 20
0.5768812391493056
 10
0.3424424913194444
 20
0.5830824110243055
 10
0.0048231336805556
 20
0.5448418511284722
 10
-0.3362413194444444
 20
-0.5768812391493056
 10
0.0685574001736111
 20
0.5575887044270833
 10
-0.2532145182291666
 20
0.4845526801215278
 10
-0.2501139322916666
 20
0.4811075846354166
 10
-0.055810546875
 20
0.51934814453125
 10
0.1450385199652778
 20
0.5575887044270833
 10
0.3362413194444444
 20
0.5768812391493056
 97
        0
 97
        0
 75
     0
 76
     1
 98
        1
 10
0.0
 20
0.0
  0
ENDBLK
  5
116
330
112
100
AcDbEntity
  8
LAYER_1
100
AcDbBlockEnd
  0
BLOCK
  5
119
330
117
100
AcDbEntity
  8
LAYER_1
 62
     7
100
AcDbBlockBegin
  2
AI9-BLK44
 70
     0
 10
0.0
 20
0.0
 30
0.0
  3
AI9-BLK44
  1

  0
HATCH
  5
11A
330
117
100
AcDbEntity
  8
LAYER_1
 62
     7
100
AcDbHatch
 10
0.0
 20
0.0
 30
0.0
210
0.0
220
0.0
230
1.0
  2
SOLID
 70
     1
 71
     0
 91
        1
 92
        1
 93
        1
 72
     4
 94
        3
 73
     0
 74
     0
 95
       14
 96
       10
 40
0.0
 40
0.0
 40
0.0
 40
0.0
 40
1.0
 40
1.0
 40
1.0
 40
2.0
 40
2.0
 40
2.0
 40
3.0
 40
3.0
 40
3.0
 40
3.0
 10
1.132919650607639
 20
-0.1324639214409722
 10
1.132919650607639
 20
-0.1324639214409722
 10
1.101224772135416
 20
0.1514119466145833
 10
-1.132919650607639
 20
-0.3998033311631944
 10
1.097779676649306
 20
0.1514119466145833
 10
1.005451117621528
 20
0.3998033311631944
 10
1.005451117621528
 20
0.3998033311631944
 10
1.005451117621528
 20
0.3998033311631944
 10
1.132919650607639
 20
-0.1324639214409722
 10
1.132919650607639
 20
-0.1324639214409722
 97
        0
 97
        0
 75
     0
 76
     1
 98
        1
 10
0.0
 20
0.0
  0
ENDBLK
  5
11B
330
117
100
AcDbEntity
  8
LAYER_1
100
AcDbBlockEnd
  0
BLOCK
  5
11E
330
11C
100
AcDbEntity
  8
LAYER_1
 62
     7
100
AcDbBlockBegin
  2
AI9-BLK45
 70
     0
 10
0.0
 20
0.0
 30
0.0
  3
AI9-BLK45
  1

  0
HATCH
  5
11F
330
11C
100
AcDbEntity
  8
LAYER_1
 62
     7
100
AcDbHatch
 10
0.0
 20
0.0
 30
0.0
210
0.0
220
0.0
230
1.0
  2
SOLID
 70
     1
 71
     0
 91
        1
 92
        1
 93
        1
 72
     4
 94
        3
 73
     0
 74
     0
 95
       14
 96
       10
 40
0.0
 40
0.0
 40
0.0
 40
0.0
 40
1.0
 40
1.0
 40
1.0
 40
2.0
 40
2.0
 40
2.0
 40
3.0
 40
3.0
 40
3.0
 40
3.0
 10
0.8938300238715277
 20
-0.0907782660590278
 10
0.8938300238715277
 20
-0.0842325846354167
 10
0.8621351453993055
 20
0.1641587999131944
 10
-0.8938300238715277
 20
-0.3839558919270833
 10
0.8621351453993055
 20
0.1707044813368056
 10
0.7825534396701388
 20
0.3839558919270833
 10
0.7825534396701388
 20
0.3839558919270833
 10
0.7825534396701388
 20
0.3839558919270833
 10
0.8938300238715277
 20
-0.0907782660590278
 10
0.8938300238715277
 20
-0.0907782660590278
 97
        0
 97
        0
 75
     0
 76
     1
 98
        1
 10
0.0
 20
0.0
  0
ENDBLK
  5
120
330
11C
100
AcDbEntity
  8
LAYER_1
100
AcDbBlockEnd
  0
BLOCK
  5
123
330
121
100
AcDbEntity
  8
LAYER_1
 62
     7
100
AcDbBlockBegin
  2
AI9-BLK46
 70
     0
 10
0.0
 20
0.0
 30
0.0
  3
AI9-BLK46
  1

  0
HATCH
  5
124
330
121
100
AcDbEntity
  8
LAYER_1
 62
     7
100
AcDbHatch
 10
0.0
 20
0.0
 30
0.0
210
0.0
220
0.0
230
1.0
  2
SOLID
 70
     1
 71
     0
 91
        1
 92
        1
 93
        1
 72
     4
 94
        3
 73
     0
 74
     0
 95
       14
 96
       10
 40
0.0
 40
0.0
 40
0.0
 40
0.0
 40
1.0
 40
1.0
 40
1.0
 40
2.0
 40
2.0
 40
2.0
 40
3.0
 40
3.0
 40
3.0
 40
3.0
 10
0.8650634765624999
 20
-0.5736083984375
 10
0.8650634765624999
 20
-0.5736083984375
 10
1.014925130208333
 20
-0.3248725043402778
 10
-1.078659396701389
 20
0.5736083984375
 10
1.005278862847222
 20
-0.3310736762152777
 10
1.078659396701389
 20
-0.0761366102430556
 10
1.078659396701389
 20
-0.0761366102430556
 10
1.078659396701389
 20
-0.0761366102430556
 10
0.8650634765624999
 20
-0.5736083984375
 10
0.8650634765624999
 20
-0.5736083984375
 97
        0
 97
        0
 75
     0
 76
     1
 98
        1
 10
0.0
 20
0.0
  0
ENDBLK
  5
125
330
121
100
AcDbEntity
  8
LAYER_1
100
AcDbBlockEnd
  0
BLOCK
  5
128
330
126
100
AcDbEntity
  8
LAYER_1
 62
     7
100
AcDbBlockBegin
  2
AI9-BLK47
 70
     0
 10
0.0
 20
0.0
 30
0.0
  3
AI9-BLK47
  1

  0
HATCH
  5
129
330
126
100
AcDbEntity
  8
LAYER_1
 62
     7
100
AcDbHatch
 10
0.0
 20
0.0
 30
0.0
210
0.0
220
0.0
230
1.0
  2
SOLID
 70
     1
 71
     0
 91
        1
 92
        1
 93
        1
 72
     4
 94
        3
 73
     0
 74
     0
 95
       14
 96
       10
 40
0.0
 40
0.0
 40
0.0
 40
0.0
 40
1.0
 40
1.0
 40
1.0
 40
2.0
 40
2.0
 40
2.0
 40
3.0
 40
3.0
 40
3.0
 40
3.0
 10
1.056610785590278
 20
-0.4270195855034722
 10
1.056610785590278
 20
-0.4270195855034722
 10
1.148939344618055
 20
-0.1210951063368056
 10
-1.174433051215278
 20
0.4270195855034722
 10
1.148939344618055
 20
-0.1145494249131944
 10
1.170987955729166
 20
0.17828369140625
 10
1.174433051215278
 20
0.17828369140625
 10
1.174433051215278
 20
0.17828369140625
 10
1.056610785590278
 20
-0.4270195855034722
 10
1.056610785590278
 20
-0.4270195855034722
 97
        0
 97
        0
 75
     0
 76
     1
 98
        1
 10
0.0
 20
0.0
  0
ENDBLK
  5
12A
330
126
100
AcDbEntity
  8
LAYER_1
100
AcDbBlockEnd
  0
BLOCK
  5
12D
330
12B
100
AcDbEntity
  8
LAYER_1
 62
     7
100
AcDbBlockBegin
  2
AI9-BLK48
 70
     0
 10
0.0
 20
0.0
 30
0.0
  3
AI9-BLK48
  1

  0
HATCH
  5
12E
330
12B
100
AcDbEntity
  8
LAYER_1
 62
     7
100
AcDbHatch
 10
0.0
 20
0.0
 30
0.0
210
0.0
220
0.0
230
1.0
  2
SOLID
 70
     1
 71
     0
 91
        1
 92
        1
 93
        1
 72
     4
 94
        3
 73
     0
 74
     0
 95
       14
 96
       10
 40
0.0
 40
0.0
 40
0.0
 40
0.0
 40
1.0
 40
1.0
 40
1.0
 40
2.0
 40
2.0
 40
2.0
 40
3.0
 40
3.0
 40
3.0
 40
3.0
 10
1.180634223090278
 20
-0.2931776258680555
 10
1.180634223090278
 20
-0.2931776258680555
 10
1.174433051215278
 20
0.0347954644097222
 10
-1.180634223090278
 20
-0.3186713324652777
 10
1.170987955729166
 20
0.0251491970486111
 10
1.104153103298611
 20
0.3186713324652777
 10
1.104153103298611
 20
0.3186713324652777
 10
1.104153103298611
 20
0.3186713324652777
 10
1.180634223090278
 20
-0.2931776258680555
 10
1.180634223090278
 20
-0.2931776258680555
 97
        0
 97
        0
 75
     0
 76
     1
 98
        1
 10
0.0
 20
0.0
  0
ENDBLK
  5
12F
330
12B
100
AcDbEntity
  8
LAYER_1
100
AcDbBlockEnd
  0
BLOCK
  5
132
330
130
100
AcDbEntity
  8
LAYER_1
 62
     7
100
AcDbBlockBegin
  2
AI9-BLK49
 70
     0
 10
0.0
 20
0.0
 30
0.0
  3
AI9-BLK49
  1

  0
HATCH
  5
133
330
130
100
AcDbEntity
  8
LAYER_1
 62
     7
100
AcDbHatch
 10
0.0
 20
0.0
 30
0.0
210
0.0
220
0.0
230
1.0
  2
SOLID
 70
     1
 71
     0
 91
        1
 92
        1
 93
        1
 72
     4
 94
        3
 73
     0
 74
     0
 95
       14
 96
       10
 40
0.0
 40
0.0
 40
0.0
 40
0.0
 40
1.0
 40
1.0
 40
1.0
 40
2.0
 40
2.0
 40
2.0
 40
3.0
 40
3.0
 40
3.0
 40
3.0
 10
0.6883300781249999
 20
-0.5815321180555555
 10
0.6883300781249999
 20
-0.5815321180555555
 10
0.799951171875
 20
-0.3713812934027778
 10
-0.8860785590277777
 20
0.5815321180555555
 10
0.809597439236111
 20
-0.3520887586805555
 10
0.8860785590277777
 20
-0.1419379340277778
 10
0.8860785590277777
 20
-0.1419379340277778
 10
0.8157986111111111
 20
-0.28525390625
 10
0.7424180772569444
 20
-0.4285698784722222
 10
0.6883300781249999
 20
-0.5815321180555555
 97
        0
 97
        0
 75
     0
 76
     1
 98
        1
 10
0.0
 20
0.0
  0
ENDBLK
  5
134
330
130
100
AcDbEntity
  8
LAYER_1
100
AcDbBlockEnd
  0
BLOCK
  5
137
330
135
100
AcDbEntity
  8
LAYER_1
 62
     7
100
AcDbBlockBegin
  2
AI9-BLK50
 70
     0
 10
0.0
 20
0.0
 30
0.0
  3
AI9-BLK50
  1

  0
HATCH
  5
138
330
135
100
AcDbEntity
  8
LAYER_1
 62
     7
100
AcDbHatch
 10
0.0
 20
0.0
 30
0.0
210
0.0
220
0.0
230
1.0
  2
SOLID
 70
     1
 71
     0
 91
        1
 92
        1
 93
        1
 72
     4
 94
        3
 73
     0
 74
     0
 95
       14
 96
       10
 40
0.0
 40
0.0
 40
0.0
 40
0.0
 40
1.0
 40
1.0
 40
1.0
 40
2.0
 40
2.0
 40
2.0
 40
3.0
 40
3.0
 40
3.0
 40
3.0
 10
1.209228515625
 20
-0.2916273328993055
 10
1.209228515625
 20
-0.2916273328993055
 10
1.269862196180555
 20
0.0142971462673611
 10
-1.247469075520833
 20
0.1927530924479167
 10
1.263661024305555
 20
0.0080959743923611
 10
1.247469075520833
 20
0.2916273328993055
 10
1.247469075520833
 20
0.2916273328993055
 10
1.247469075520833
 20
0.2916273328993055
 10
1.209228515625
 20
-0.2916273328993055
 10
1.209228515625
 20
-0.2916273328993055
 97
        0
 97
        0
 75
     0
 76
     1
 98
        1
 10
0.0
 20
0.0
  0
ENDBLK
  5
139
330
135
100
AcDbEntity
  8
LAYER_1
100
AcDbBlockEnd
  0
BLOCK
  5
13C
330
13A
100
AcDbEntity
  8
LAYER_1
 62
     7
100
AcDbBlockBegin
  2
AI9-BLK51
 70
     0
 10
0.0
 20
0.0
 30
0.0
  3
AI9-BLK51
  1

  0
HATCH
  5
13D
330
13A
100
AcDbEntity
  8
LAYER_1
 62
     7
100
AcDbHatch
 10
0.0
 20
0.0
 30
0.0
210
0.0
220
0.0
230
1.0
  2
SOLID
 70
     1
 71
     0
 91
        1
 92
        1
 93
        1
 72
     4
 94
        3
 73
     0
 74
     0
 95
       14
 96
       10
 40
0.0
 40
0.0
 40
0.0
 40
0.0
 40
1.0
 40
1.0
 40
1.0
 40
2.0
 40
2.0
 40
2.0
 40
3.0
 40
3.0
 40
3.0
 40
3.0
 10
0.9846082899305555
 20
-0.2134236653645833
 10
0.9846082899305555
 20
-0.2134236653645833
 10
0.9687608506944444
 20
0.1083482530381944
 10
-0.9846082899305555
 20
-0.4111721462673611
 10
0.9591145833333332
 20
0.1307413736979167
 10
0.9019259982638889
 20
0.4111721462673611
 10
0.9050265842013888
 20
0.4111721462673611
 10
0.9208740234374999
 20
0.2041219075520833
 10
0.9591145833333332
 20
-0.0032728407118056
 10
0.9846082899305555
 20
-0.2134236653645833
 97
        0
 97
        0
 75
     0
 76
     1
 98
        1
 10
0.0
 20
0.0
  0
ENDBLK
  5
13E
330
13A
100
AcDbEntity
  8
LAYER_1
100
AcDbBlockEnd
  0
BLOCK
  5
141
330
13F
100
AcDbEntity
  8
LAYER_1
 62
     7
100
AcDbBlockBegin
  2
AI9-BLK52
 70
     0
 10
0.0
 20
0.0
 30
0.0
  3
AI9-BLK52
  1

  0
HATCH
  5
142
330
13F
100
AcDbEntity
  8
LAYER_1
 62
     7
100
AcDbHatch
 10
0.0
 20
0.0
 30
0.0
210
0.0
220
0.0
230
1.0
  2
SOLID
 70
     1
 71
     0
 91
        1
 92
        1
 93
        1
 72
     4
 94
        3
 73
     0
 74
     0
 95
       14
 96
       10
 40
0.0
 40
0.0
 40
0.0
 40
0.0
 40
1.0
 40
1.0
 40
1.0
 40
2.0
 40
2.0
 40
2.0
 40
3.0
 40
3.0
 40
3.0
 40
3.0
 10
0.8428426106770832
 20
-0.2962782118055555
 10
0.8428426106770832
 20
-0.2962782118055555
 10
0.9034762912326388
 20
-0.0606336805555555
 10
-0.9162231445312499
 20
0.2962782118055555
 10
0.9034762912326388
 20
-0.0571885850694444
 10
0.9162231445312499
 20
0.1626085069444444
 10
0.9162231445312499
 20
0.1626085069444444
 10
0.9162231445312499
 20
0.1626085069444444
 10
0.8428426106770832
 20
-0.2962782118055555
 10
0.8428426106770832
 20
-0.2962782118055555
 97
        0
 97
        0
 75
     0
 76
     1
 98
        1
 10
0.0
 20
0.0
  0
ENDBLK
  5
143
330
13F
100
AcDbEntity
  8
LAYER_1
100
AcDbBlockEnd
  0
BLOCK
  5
1A4
330
1A2
100
AcDbEntity
  8
LAYER_1
 62
     7
100
AcDbBlockBegin
  2
AI9-BLK53
 70
     0
 10
0.0
 20
0.0
 30
0.0
  3
AI9-BLK53
  1

  0
INSERT
  5
1A6
330
1A2
100
AcDbEntity
  8
LAYER_1
 62
     7
100
AcDbBlockReference
  2
AI9-BLK54
 10
0.0
 20
0.0
 30
0.0
  0
ENDBLK
  5
1B8
330
1A2
100
AcDbEntity
  8
LAYER_1
100
AcDbBlockEnd
  0
BLOCK
  5
1A7
330
1A5
100
AcDbEntity
  8
LAYER_1
 62
     7
100
AcDbBlockBegin
  2
AI9-BLK54
 70
     0
 10
0.0
 20
0.0
 30
0.0
  3
AI9-BLK54
  1

  0
INSERT
  5
1A9
330
1A5
100
AcDbEntity
  8
LAYER_1
 62
     7
100
AcDbBlockReference
  2
AI9-BLK55
 10
0.0
 20
0.0
 30
0.0
  0
ENDBLK
  5
1B7
330
1A5
100
AcDbEntity
  8
LAYER_1
100
AcDbBlockEnd
  0
BLOCK
  5
1AA
330
1A8
100
AcDbEntity
  8
LAYER_1
 62
     7
100
AcDbBlockBegin
  2
AI9-BLK55
 70
     0
 10
0.0
 20
0.0
 30
0.0
  3
AI9-BLK55
  1

  0
INSERT
  5
1AC
330
1A8
100
AcDbEntity
  8
LAYER_1
 62
     7
100
AcDbBlockReference
  2
AI9-BLK56
 10
0.0
 20
0.0
 30
0.0
  0
ENDBLK
  5
1B6
330
1A8
100
AcDbEntity
  8
LAYER_1
100
AcDbBlockEnd
  0
BLOCK
  5
1AD
330
1AB
100
AcDbEntity
  8
LAYER_1
 62
     7
100
AcDbBlockBegin
  2
AI9-BLK56
 70
     0
 10
0.0
 20
0.0
 30
0.0
  3
AI9-BLK56
  1

  0
INSERT
  5
1AF
330
1AB
100
AcDbEntity
  8
LAYER_1
 62
     7
100
AcDbBlockReference
  2
AI9-BLK57
 10
0.0
 20
0.0
 30
0.0
  0
ENDBLK
  5
1B5
330
1AB
100
AcDbEntity
  8
LAYER_1
100
AcDbBlockEnd
  0
BLOCK
  5
1B0
330
1AE
100
AcDbEntity
  8
LAYER_1
 62
     7
100
AcDbBlockBegin
  2
AI9-BLK57
 70
     0
 10
0.0
 20
0.0
 30
0.0
  3
AI9-BLK57
  1

  0
CIRCLE
  5
1B3
330
1AE
100
AcDbEntity
  8
LAYER_1
 62
     7
100
AcDbCircle
 10
0.000172
 20
-0.000345
 30
0.0
 40
1.000111
  0
LINE
  5
1B2
330
1AE
100
AcDbEntity
  8
LAYER_1
 62
     7
100
AcDbLine
 10
-0.000172
 20
1.999878
 30
0.0
 11
-0.000172
 21
-1.999878
 31
0.0
  0
LINE
  5
1B1
330
1AE
100
AcDbEntity
  8
LAYER_1
 62
     7
100
AcDbLine
 10
-2.00005
 20
-0.000345
 30
0.0
 11
2.00005
 21
-0.000345
 31
0.0
  0
ENDBLK
  5
1B4
330
1AE
100
AcDbEntity
  8
LAYER_1
100
AcDbBlockEnd
  0
BLOCK
  5
1BB
330
1B9
100
AcDbEntity
  8
LAYER_1
 62
     7
100
AcDbBlockBegin
  2
AI9-BLK58
 70
     0
 10
0.0
 20
0.0
 30
0.0
  3
AI9-BLK58
  1

  0
INSERT
  5
1BD
330
1B9
100
AcDbEntity
  8
LAYER_1
 62
     7
100
AcDbBlockReference
  2
AI9-BLK59
 10
0.0
 20
0.0
 30
0.0
  0
ENDBLK
  5
1CF
330
1B9
100
AcDbEntity
  8
LAYER_1
100
AcDbBlockEnd
  0
BLOCK
  5
1BE
330
1BC
100
AcDbEntity
  8
LAYER_1
 62
     7
100
AcDbBlockBegin
  2
AI9-BLK59
 70
     0
 10
0.0
 20
0.0
 30
0.0
  3
AI9-BLK59
  1

  0
INSERT
  5
1C0
330
1BC
100
AcDbEntity
  8
LAYER_1
 62
     7
100
AcDbBlockReference
  2
AI9-BLK60
 10
0.0
 20
0.0
 30
0.0
  0
ENDBLK
  5
1CE
330
1BC
100
AcDbEntity
  8
LAYER_1
100
AcDbBlockEnd
  0
BLOCK
  5
1C1
330
1BF
100
AcDbEntity
  8
LAYER_1
 62
     7
100
AcDbBlockBegin
  2
AI9-BLK60
 70
     0
 10
0.0
 20
0.0
 30
0.0
  3
AI9-BLK60
  1

  0
INSERT
  5
1C3
330
1BF
100
AcDbEntity
  8
LAYER_1
 62
     7
100
AcDbBlockReference
  2
AI9-BLK61
 10
0.0
 20
0.0
 30
0.0
  0
ENDBLK
  5
1CD
330
1BF
100
AcDbEntity
  8
LAYER_1
100
AcDbBlockEnd
  0
BLOCK
  5
1C4
330
1C2
100
AcDbEntity
  8
LAYER_1
 62
     7
100
AcDbBlockBegin
  2
AI9-BLK61
 70
     0
 10
0.0
 20
0.0
 30
0.0
  3
AI9-BLK61
  1

  0
INSERT
  5
1C6
330
1C2
100
AcDbEntity
  8
LAYER_1
 62
     7
100
AcDbBlockReference
  2
AI9-BLK62
 10
0.0
 20
0.0
 30
0.0
  0
ENDBLK
  5
1CC
330
1C2
100
AcDbEntity
  8
LAYER_1
100
AcDbBlockEnd
  0
BLOCK
  5
1C7
330
1C5
100
AcDbEntity
  8
LAYER_1
 62
     7
100
AcDbBlockBegin
  2
AI9-BLK62
 70
     0
 10
0.0
 20
0.0
 30
0.0
  3
AI9-BLK62
  1

  0
CIRCLE
  5
1CA
330
1C5
100
AcDbEntity
  8
LAYER_1
 62
     7
100
AcDbCircle
 10
0.000172
 20
-0.000345
 30
0.0
 40
1.000111
  0
LINE
  5
1C9
330
1C5
100
AcDbEntity
  8
LAYER_1
 62
     7
100
AcDbLine
 10
-0.000172
 20
1.999878
 30
0.0
 11
-0.000172
 21
-1.999878
 31
0.0
  0
LINE
  5
1C8
330
1C5
100
AcDbEntity
  8
LAYER_1
 62
     7
100
AcDbLine
 10
-2.00005
 20
-0.000345
 30
0.0
 11
2.00005
 21
-0.000345
 31
0.0
  0
ENDBLK
  5
1CB
330
1C5
100
AcDbEntity
  8
LAYER_1
100
AcDbBlockEnd
  0
ENDSEC
  0
SECTION
  2
ENTITIES
  0
LINE
  5
20E
330
A
100
AcDbEntity
  8
LAYER_1
 62
   230
100
AcDbLine
 10
-548.856421
 20
1090.272125
 30
0.0
 11
-548.856421
 21
-832.796023
 31
0.0
  0
LINE
  5
20D
330
A
100
AcDbEntity
  8
LAYER_1
 62
   230
100
AcDbLine
 10
-392.305425
 20
1090.272125
 30
0.0
 11
-392.305425
 21
-832.796023
 31
0.0
  0
LINE
  5
20C
330
A
100
AcDbEntity
  8
LAYER_1
 62
   230
100
AcDbLine
 10
-235.75753
 20
1090.272125
 30
0.0
 11
-235.75753
 21
-832.796023
 31
0.0
  0
LINE
  5
20B
330
A
100
AcDbEntity
  8
LAYER_1
 62
   230
100
AcDbLine
 10
-79.20619
 20
1090.272125
 30
0.0
 11
-79.20619
 21
-832.796023
 31
0.0
  0
LINE
  5
20A
330
A
100
AcDbEntity
  8
LAYER_1
 62
   230
100
AcDbLine
 10
77.344805
 20
1090.272125
 30
0.0
 11
77.344805
 21
-832.796023
 31
0.0
  0
LINE
  5
209
330
A
100
AcDbEntity
  8
LAYER_1
 62
   230
100
AcDbLine
 10
233.899246
 20
1090.272125
 30
0.0
 11
233.899246
 21
-832.796023
 31
0.0
  0
LINE
  5
208
330
A
100
AcDbEntity
  8
LAYER_1
 62
   230
100
AcDbLine
 10
390.450241
 20
1090.272125
 30
0.0
 11
390.450241
 21
-832.796023
 31
0.0
  0
LINE
  5
207
330
A
100
AcDbEntity
  8
LAYER_1
 62
   230
100
AcDbLine
 10
547.001581
 20
1090.272125
 30
0.0
 11
547.001581
 21
-832.796023
 31
0.0
  0
LINE
  5
206
330
A
100
AcDbEntity
  8
LAYER_1
 62
   230
100
AcDbLine
 10
703.552577
 20
1090.272125
 30
0.0
 11
703.552577
 21
-832.796023
 31
0.0
  0
LINE
  5
205
330
A
100
AcDbEntity
  8
LAYER_1
 62
   230
100
AcDbLine
 10
860.103573
 20
1090.272125
 30
0.0
 11
860.103573
 21
-832.796023
 31
0.0
  0
LINE
  5
204
330
A
100
AcDbEntity
  8
LAYER_1
 62
   230
100
AcDbLine
 10
-595.826164
 20
-833.05096
 30
0.0
 11
898.152585
 21
-833.057161
 31
0.0
  0
LINE
  5
203
330
A
100
AcDbEntity
  8
LAYER_1
 62
   230
100
AcDbLine
 10
-595.826164
 20
-676.503065
 30
0.0
 11
898.152585
 21
-676.503065
 31
0.0
  0
LINE
  5
202
330
A
100
AcDbEntity
  8
LAYER_1
 62
   230
100
AcDbLine
 10
-595.826164
 20
-519.948625
 30
0.0
 11
898.152585
 21
-519.948625
 31
0.0
  0
LINE
  5
201
330
A
100
AcDbEntity
  8
LAYER_1
 62
   230
100
AcDbLine
 10
-595.826164
 20
-363.397285
 30
0.0
 11
898.152585
 21
-363.40073
 31
0.0
  0
LINE
  5
200
330
A
100
AcDbEntity
  8
LAYER_1
 62
   230
100
AcDbLine
 10
-595.826164
 20
-206.846289
 30
0.0
 11
898.152585
 21
-206.84939
 31
0.0
  0
LINE
  5
1FF
330
A
100
AcDbEntity
  8
LAYER_1
 62
   230
100
AcDbLine
 10
-595.826164
 20
-50.291848
 30
0.0
 11
898.152585
 21
-50.298394
 31
0.0
  0
LINE
  5
1FE
330
A
100
AcDbEntity
  8
LAYER_1
 62
   230
100
AcDbLine
 10
-595.826164
 20
106.256047
 30
0.0
 11
898.152585
 21
106.249501
 31
0.0
  0
LINE
  5
1FD
330
A
100
AcDbEntity
  8
LAYER_1
 62
   230
100
AcDbLine
 10
-595.826164
 20
262.810487
 30
0.0
 11
898.152585
 21
262.803942
 31
0.0
  0
LINE
  5
1FC
330
A
100
AcDbEntity
  8
LAYER_1
 62
   230
100
AcDbLine
 10
-595.826164
 20
419.358382
 30
0.0
 11
898.152585
 21
419.358382
 31
0.0
  0
LINE
  5
1FB
330
A
100
AcDbEntity
  8
LAYER_1
 62
   230
100
AcDbLine
 10
-595.826164
 20
575.912478
 30
0.0
 11
898.152585
 21
575.906277
 31
0.0
  0
LINE
  5
1FA
330
A
100
AcDbEntity
  8
LAYER_1
 62
   230
100
AcDbLine
 10
-595.826164
 20
732.463818
 30
0.0
 11
898.152585
 21
732.463818
 31
0.0
  0
LINE
  5
1F9
330
A
100
AcDbEntity
  8
LAYER_1
 62
   230
100
AcDbLine
 10
-595.826164
 20
889.018259
 30
0.0
 11
898.152585
 21
889.011713
 31
0.0
  0
LINE
  5
1F8
330
A
100
AcDbEntity
  8
LAYER_1
 62
   230
100
AcDbLine
 10
-595.826164
 20
1045.566154
 30
0.0
 11
898.152585
 21
1045.563053
 31
0.0
  0
MTEXT
  5
1F7
330
A
100
AcDbEntity
  8
LAYER_1
 62
     7
100
AcDbMText
 10
-677.162629
 20
-815.510105
 30
0.0
 40
30.816531
 41
0.0
 46
0.0
 71
     1
 72
     2
  1
\W1.00;\fMyriad Roman|b0|i0;200
  7
STD
 73
     1
 44
1.0
  0
MTEXT
  5
1F6
330
A
100
AcDbEntity
  8
LAYER_1
 62
     7
100
AcDbMText
 10
-677.162629
 20
-658.92397
 30
0.0
 40
30.816531
 41
0.0
 46
0.0
 71
     1
 72
     2
  1
\W1.00;\fMyriad Roman|b0|i0;210
  7
STD
 73
     1
 44
1.0
  0
MTEXT
  5
1F5
330
A
100
AcDbEntity
  8
LAYER_1
 62
     7
100
AcDbMText
 10
-677.162629
 20
-502.33749
 30
0.0
 40
30.816531
 41
0.0
 46
0.0
 71
     1
 72
     2
  1
\W1.00;\fMyriad Roman|b0|i0;220
  7
STD
 73
     1
 44
1.0
  0
MTEXT
  5
1F4
330
A
100
AcDbEntity
  8
LAYER_1
 62
     7
100
AcDbMText
 10
-677.162629
 20
-345.748254
 30
0.0
 40
30.816531
 41
0.0
 46
0.0
 71
     1
 72
     2
  1
\W1.00;\fMyriad Roman|b0|i0;230
  7
STD
 73
     1
 44
1.0
  0
MTEXT
  5
1F3
330
A
100
AcDbEntity
  8
LAYER_1
 62
     7
100
AcDbMText
 10
-677.162629
 20
-189.165219
 30
0.0
 40
30.816531
 41
0.0
 46
0.0
 71
     1
 72
     2
  1
\W1.00;\fMyriad Roman|b0|i0;240
  7
STD
 73
     1
 44
1.0
  0
MTEXT
  5
1F2
330
A
100
AcDbEntity
  8
LAYER_1
 62
     7
100
AcDbMText
 10
-677.162629
 20
-32.575638
 30
0.0
 40
30.816531
 41
0.0
 46
0.0
 71
     1
 72
     2
  1
\W1.00;\fMyriad Roman|b0|i0;250
  7
STD
 73
     1
 44
1.0
  0
MTEXT
  5
1F1
330
A
100
AcDbEntity
  8
LAYER_1
 62
     7
100
AcDbMText
 10
-677.162629
 20
124.010498
 30
0.0
 40
30.816531
 41
0.0
 46
0.0
 71
     1
 72
     2
  1
\W1.00;\fMyriad Roman|b0|i0;260
  7
STD
 73
     1
 44
1.0
  0
MTEXT
  5
1F0
330
A
100
AcDbEntity
  8
LAYER_1
 62
     7
100
AcDbMText
 10
-677.162629
 20
280.599734
 30
0.0
 40
30.816531
 41
0.0
 46
0.0
 71
     1
 72
     2
  1
\W1.00;\fMyriad Roman|b0|i0;270
  7
STD
 73
     1
 44
1.0
  0
MTEXT
  5
1EF
330
A
100
AcDbEntity
  8
LAYER_1
 62
     7
100
AcDbMText
 10
-677.162629
 20
437.186214
 30
0.0
 40
30.816531
 41
0.0
 46
0.0
 71
     1
 72
     2
  1
\W1.00;\fMyriad Roman|b0|i0;280
  7
STD
 73
     1
 44
1.0
  0
MTEXT
  5
1EE
330
A
100
AcDbEntity
  8
LAYER_1
 62
     7
100
AcDbMText
 10
-677.162629
 20
593.772349
 30
0.0
 40
30.816531
 41
0.0
 46
0.0
 71
     1
 72
     2
  1
\W1.00;\fMyriad Roman|b0|i0;290
  7
STD
 73
     1
 44
1.0
  0
MTEXT
  5
1ED
330
A
100
AcDbEntity
  8
LAYER_1
 62
     7
100
AcDbMText
 10
-677.162629
 20
750.352284
 30
0.0
 40
30.816531
 41
0.0
 46
0.0
 71
     1
 72
     2
  1
\W1.00;\fMyriad Roman|b0|i0;300
  7
STD
 73
     1
 44
1.0
  0
MTEXT
  5
1EC
330
A
100
AcDbEntity
  8
LAYER_1
 62
     7
100
AcDbMText
 10
-677.162629
 20
906.94152
 30
0.0
 40
30.816531
 41
0.0
 46
0.0
 71
     1
 72
     2
  1
\W1.00;\fMyriad Roman|b0|i0;310
  7
STD
 73
     1
 44
1.0
  0
MTEXT
  5
1EB
330
A
100
AcDbEntity
  8
LAYER_1
 62
     7
100
AcDbMText
 10
-677.162629
 20
1063.530756
 30
0.0
 40
30.816531
 41
0.0
 46
0.0
 71
     1
 72
     2
  1
\W1.00;\fMyriad Roman|b0|i0;320
  7
STD
 73
     1
 44
1.0
  0
MTEXT
  5
1EA
330
A
100
AcDbEntity
  8
LAYER_1
 62
     7
100
AcDbMText
 10
-581.331613
 20
1149.449715
 30
0.0
 40
30.816531
 41
0.0
 46
0.0
 71
     1
 72
     2
  1
\W1.00;\fMyriad Roman|b0|i0;730
  7
STD
 73
     1
 44
1.0
  0
MTEXT
  5
1E9
330
A
100
AcDbEntity
  8
LAYER_1
 62
     7
100
AcDbMText
 10
-425.078619
 20
1149.449715
 30
0.0
 40
30.816531
 41
0.0
 46
0.0
 71
     1
 72
     2
  1
\W1.00;\fMyriad Roman|b0|i0;740
  7
STD
 73
     1
 44
1.0
  0
MTEXT
  5
1E8
330
A
100
AcDbEntity
  8
LAYER_1
 62
     7
100
AcDbMText
 10
-268.828725
 20
1149.449715
 30
0.0
 40
30.816531
 41
0.0
 46
0.0
 71
     1
 72
     2
  1
\W1.00;\fMyriad Roman|b0|i0;750
  7
STD
 73
     1
 44
1.0
  0
MTEXT
  5
1E7
330
A
100
AcDbEntity
  8
LAYER_1
 62
     7
100
AcDbMText
 10
-112.575385
 20
1149.449715
 30
0.0
 40
30.816531
 41
0.0
 46
0.0
 71
     1
 72
     2
  1
\W1.00;\fMyriad Roman|b0|i0;760
  7
STD
 73
     1
 44
1.0
  0
MTEXT
  5
1E6
330
A
100
AcDbEntity
  8
LAYER_1
 62
     7
100
AcDbMText
 10
43.674509
 20
1149.446614
 30
0.0
 40
30.816531
 41
0.0
 46
0.0
 71
     1
 72
     2
  1
\W1.00;\fMyriad Roman|b0|i0;770
  7
STD
 73
     1
 44
1.0
  0
MTEXT
  5
1E5
330
A
100
AcDbEntity
  8
LAYER_1
 62
     7
100
AcDbMText
 10
199.929226
 20
1149.446614
 30
0.0
 40
30.816531
 41
0.0
 46
0.0
 71
     1
 72
     2
  1
\W1.00;\fMyriad Roman|b0|i0;780
  7
STD
 73
     1
 44
1.0
  0
MTEXT
  5
1E4
330
A
100
AcDbEntity
  8
LAYER_1
 62
     7
100
AcDbMText
 10
356.180843
 20
1149.446614
 30
0.0
 40
30.816531
 41
0.0
 46
0.0
 71
     1
 72
     2
  1
\W1.00;\fMyriad Roman|b0|i0;790
  7
STD
 73
     1
 44
1.0
  0
MTEXT
  5
1E3
330
A
100
AcDbEntity
  8
LAYER_1
 62
     7
100
AcDbMText
 10
512.43556
 20
1149.446614
 30
0.0
 40
30.816531
 41
0.0
 46
0.0
 71
     1
 72
     2
  1
\W1.00;\fMyriad Roman|b0|i0;800
  7
STD
 73
     1
 44
1.0
  0
MTEXT
  5
1E2
330
A
100
AcDbEntity
  8
LAYER_1
 62
     7
100
AcDbMText
 10
668.687177
 20
1149.446614
 30
0.0
 40
30.816531
 41
0.0
 46
0.0
 71
     1
 72
     2
  1
\W1.00;\fMyriad Roman|b0|i0;810
  7
STD
 73
     1
 44
1.0
  0
MTEXT
  5
1E1
330
A
100
AcDbEntity
  8
LAYER_1
 62
     7
100
AcDbMText
 10
824.942239
 20
1149.446614
 30
0.0
 40
30.816531
 41
0.0
 46
0.0
 71
     1
 72
     2
  1
\W1.00;\fMyriad Roman|b0|i0;820
  7
STD
 73
     1
 44
1.0
  0
SPLINE
  5
1E0
330
A
100
AcDbEntity
  8
LAYER_1
 62
     7
100
AcDbSpline
210
0.0
220
0.0
230
1.0
 70
     8
 71
     3
 72
    59
 73
    55
 74
     0
 42
0.000000001
 43
0.00000001
 40
0.0
 40
0.0
 40
0.0
 40
0.0
 40
1.0
 40
1.0
 40
1.0
 40
2.0
 40
2.0
 40
2.0
 40
3.0
 40
3.0
 40
3.0
 40
4.0
 40
4.0
 40
4.0
 40
5.0
 40
5.0
 40
5.0
 40
6.0
 40
6.0
 40
6.0
 40
7.0
 40
7.0
 40
7.0
 40
8.0
 40
8.0
 40
8.0
 40
9.0
 40
9.0
 40
9.0
 40
10.0
 40
10.0
 40
10.0
 40
11.0
 40
11.0
 40
11.0
 40
12.0
 40
12.0
 40
12.0
 40
13.0
 40
13.0
 40
13.0
 40
14.0
 40
14.0
 40
14.0
 40
15.0
 40
15.0
 40
15.0
 40
16.0
 40
16.0
 40
16.0
 40
17.0
 40
17.0
 40
17.0
 40
18.0
 40
18.0
 40
18.0
 40
18.0
 10
87.10889485677083
 20
553.7143500434028
 30
0.0
 10
87.10889485677083
 20
553.7143500434028
 30
0.0
 10
89.42882215711805
 20
558.0355333116319
 30
0.0
 10
91.64677463107638
 20
560.97041015625
 30
0.0
 10
93.86782769097222
 20
563.9083875868055
 30
0.0
 10
95.90697970920138
 20
566.7540364583333
 30
0.0
 10
98.02950303819443
 20
567.847509765625
 30
0.0
 10
100.1485812717014
 20
568.9437391493055
 30
0.0
 10
101.8087727864583
 20
569.8580674913194
 30
0.0
 10
104.8425238715278
 20
569.6603190104166
 30
0.0
 10
107.8828206380208
 20
569.466015625
 30
0.0
 10
110.7284695095486
 20
568.4431667751736
 30
0.0
 10
112.0190022786458
 20
568.0704074435763
 30
0.0
 10
113.303333875868
 20
567.6945475260416
 30
0.0
 10
115.7855251736111
 20
567.5030002170139
 30
0.0
 10
116.8052734375
 20
568.4176730685764
 30
0.0
 10
117.8184760199653
 20
569.3354465060763
 30
0.0
 10
118.7493408203125
 20
570.6194335937499
 30
0.0
 10
119.3067572699653
 20
572.2737684461805
 30
0.0
 10
119.8645182291666
 20
573.930859375
 30
0.0
 10
120.6069363064236
 20
575.3006293402777
 30
0.0
 10
118.5898328993055
 20
577.7990125868055
 30
0.0
 10
116.575830078125
 20
580.2911946614582
 30
0.0
 10
112.7200792100694
 20
582.2414632161458
 30
0.0
 10
112.4427490234375
 20
582.2414632161458
 30
0.0
 10
112.1654188368055
 20
582.2414632161458
 30
0.0
 10
109.0393391927083
 20
583.7266438802083
 30
0.0
 10
108.5835530598958
 20
583.7266438802083
 30
0.0
 10
108.1215657552083
 20
583.7328450520832
 30
0.0
 10
103.6157253689236
 20
584.0260226779513
 30
0.0
 10
101.2224175347222
 20
584.5868842230902
 30
0.0
 10
98.83255479600693
 20
585.1477457682291
 30
0.0
 10
96.53192003038194
 20
585.249720594618
 30
0.0
 10
93.40894097222221
 20
587.0118869357639
 30
0.0
 10
90.2859619140625
 20
588.7740532769096
 30
0.0
 10
89.09395887586805
 20
590.0676866319444
 30
0.0
 10
88.17618543836805
 20
590.5300184461805
 30
0.0
 10
87.25841200086805
 20
590.992005750868
 30
0.0
 10
85.41666395399305
 20
590.6285481770833
 30
0.0
 10
85.32089029947916
 20
590.3546630859374
 30
0.0
 10
85.2320068359375
 20
590.0807779947916
 30
0.0
 10
79.59789767795138
 20
585.8677707248263
 30
0.0
 10
77.84503309461805
 20
585.3262017144096
 30
0.0
 10
76.09251302083332
 20
584.7780870225694
 30
0.0
 10
74.98663736979167
 20
583.2195258246527
 30
0.0
 10
74.79887966579861
 20
582.8502115885416
 30
0.0
 10
74.61387803819444
 20
582.4836534288194
 30
0.0
 10
71.00651855468749
 20
577.8982313368055
 30
0.0
 10
70.45220269097221
 20
577.5282280815971
 30
0.0
 10
69.89754231770833
 20
577.1616699218749
 30
0.0
 10
69.71288519965277
 20
576.243896484375
 30
0.0
 10
69.43245442708333
 20
575.6003526475694
 30
0.0
 10
69.15512424045139
 20
574.9568088107638
 30
0.0
 10
68.96702202690972
 20
574.405593532986
 30
0.0
 10
68.78236490885416
 20
574.2236924913194
 30
0.0
  0
SPLINE
  5
1DF
330
A
100
AcDbEntity
  8
LAYER_1
 62
     7
100
AcDbSpline
210
0.0
220
0.0
230
1.0
 70
     8
 71
     3
 72
    35
 73
    31
 74
     0
 42
0.000000001
 43
0.00000001
 40
0.0
 40
0.0
 40
0.0
 40
0.0
 40
1.0
 40
1.0
 40
1.0
 40
2.0
 40
2.0
 40
2.0
 40
3.0
 40
3.0
 40
3.0
 40
4.0
 40
4.0
 40
4.0
 40
5.0
 40
5.0
 40
5.0
 40
6.0
 40
6.0
 40
6.0
 40
7.0
 40
7.0
 40
7.0
 40
8.0
 40
8.0
 40
8.0
 40
9.0
 40
9.0
 40
9.0
 40
10.0
 40
10.0
 40
10.0
 40
10.0
 10
66.26468912760416
 20
566.5948730468749
 30
0.0
 10
66.26468912760416
 20
566.5948730468749
 30
0.0
 10
65.34381510416667
 20
565.7663275824652
 30
0.0
 10
64.24138454861111
 20
565.9575303819444
 30
0.0
 10
63.13550889756944
 20
566.1456325954861
 30
0.0
 10
62.58429361979166
 20
566.1487331814236
 30
0.0
 10
61.39229058159722
 20
566.888050672743
 30
0.0
 10
60.19753146701388
 20
567.6273681640624
 30
0.0
 10
59.1870849609375
 20
568.3697862413194
 30
0.0
 10
59.56018880208333
 20
569.0167751736111
 30
0.0
 10
59.92984754774305
 20
569.6541178385417
 30
0.0
 10
60.48416341145833
 20
570.4826633029513
 30
0.0
 10
60.86036783854166
 20
571.6743218315971
 30
0.0
 10
61.23312717013889
 20
572.8725260416666
 30
0.0
 10
61.51355794270832
 20
574.1603027343749
 30
0.0
 10
62.33900282118055
 20
574.523415798611
 30
0.0
 10
63.17064887152777
 20
574.8927300347221
 30
0.0
 10
63.9991943359375
 20
575.0649848090277
 30
0.0
 10
64.46428222656249
 20
575.8935302734375
 30
0.0
 10
64.92661404079861
 20
576.7220757378471
 30
0.0
 10
64.83704155815971
 20
577.5506212022569
 30
0.0
 10
65.76136067708333
 20
577.8245062934027
 30
0.0
 10
66.68223470052082
 20
578.0987358940972
 30
0.0
 10
67.69578179253472
 20
578.1848632812499
 30
0.0
 10
68.24699707031249
 20
577.9967610677082
 30
0.0
 10
68.79511176215277
 20
577.8121039496527
 30
0.0
 10
69.07554253472222
 20
577.5378743489583
 30
0.0
 10
69.16132541232638
 20
576.9832139756944
 30
0.0
 10
69.25399848090277
 20
576.4288981119792
 30
0.0
 10
69.43555501302083
 20
576.7985568576388
 30
0.0
 10
69.25089789496528
 20
575.8745822482639
 30
0.0
  0
SPLINE
  5
1DE
330
A
100
AcDbEntity
  8
LAYER_1
 62
     7
100
AcDbSpline
210
0.0
220
0.0
230
1.0
 70
     8
 71
     3
 72
    53
 73
    49
 74
     0
 42
0.000000001
 43
0.00000001
 40
0.0
 40
0.0
 40
0.0
 40
0.0
 40
1.0
 40
1.0
 40
1.0
 40
2.0
 40
2.0
 40
2.0
 40
3.0
 40
3.0
 40
3.0
 40
4.0
 40
4.0
 40
4.0
 40
5.0
 40
5.0
 40
5.0
 40
6.0
 40
6.0
 40
6.0
 40
7.0
 40
7.0
 40
7.0
 40
8.0
 40
8.0
 40
8.0
 40
9.0
 40
9.0
 40
9.0
 40
10.0
 40
10.0
 40
10.0
 40
11.0
 40
11.0
 40
11.0
 40
12.0
 40
12.0
 40
12.0
 40
13.0
 40
13.0
 40
13.0
 40
14.0
 40
14.0
 40
14.0
 40
15.0
 40
15.0
 40
15.0
 40
16.0
 40
16.0
 40
16.0
 40
16.0
 10
37.90673014322916
 20
610.8195638020833
 30
0.0
 10
37.90673014322916
 20
610.8195638020833
 30
0.0
 10
36.95381673177083
 20
607.6232042100694
 30
0.0
 10
36.92212185329861
 20
607.4860894097221
 30
0.0
 10
36.88698187934028
 20
607.348974609375
 30
0.0
 10
35.7652587890625
 20
604.2518337673611
 30
0.0
 10
35.89927300347222
 20
603.2031467013888
 30
0.0
 10
36.03604329427083
 20
602.1455023871528
 30
0.0
 10
36.10322265625
 20
600.0708658854167
 30
0.0
 10
37.26318630642361
 20
598.0344699435764
 30
0.0
 10
38.4166042751736
 20
595.9887722439236
 30
0.0
 10
38.44829915364583
 20
595.1409342447917
 30
0.0
 10
37.80165473090278
 20
594.2552001953125
 30
0.0
 10
37.15776638454861
 20
593.3694661458333
 30
0.0
 10
33.52181260850694
 20
590.4121961805555
 30
0.0
 10
33.34990234375
 20
588.8825737847221
 30
0.0
 10
33.18074815538194
 20
587.3529513888889
 30
0.0
 10
33.18074815538194
 20
582.3179443359375
 30
0.0
 10
33.38469780815972
 20
581.2630560980903
 30
0.0
 10
33.58864746093749
 20
580.2085123697916
 30
0.0
 10
33.72266167534722
 20
577.8982313368055
 30
0.0
 10
33.82463650173611
 20
577.219203016493
 30
0.0
 10
33.926611328125
 20
576.5339735243055
 30
0.0
 10
34.43648546006944
 20
576.2314941406249
 30
0.0
 10
33.62378743489583
 20
572.6306803385417
 30
0.0
 10
32.80488823784722
 20
569.0229763454861
 30
0.0
 10
32.56579861111111
 20
568.8510660807291
 30
0.0
 10
32.56579861111111
 20
568.6088758680555
 30
0.0
 10
32.56579861111111
 20
568.376331922743
 30
0.0
 10
32.36494954427083
 20
566.9807237413194
 30
0.0
 10
32.22817925347222
 20
566.6076199001735
 30
0.0
 10
32.091064453125
 20
566.2317599826389
 30
0.0
 10
31.44407552083333
 20
564.3962131076388
 30
0.0
 10
31.00448133680555
 20
563.7140842013888
 30
0.0
 10
30.56144205729166
 20
563.035400390625
 30
0.0
 10
30.32235243055555
 20
561.097878689236
 30
0.0
 10
30.32235243055555
 20
561.0310438368055
 30
0.0
 10
30.32235243055555
 20
560.9607638888889
 30
0.0
 10
30.69855685763889
 20
558.8544325086805
 30
0.0
 10
30.89940592447917
 20
558.1757486979166
 30
0.0
 10
31.10645616319444
 20
557.4936197916666
 30
0.0
 10
31.51435546875
 20
556.2637207031249
 30
0.0
 10
31.75
 20
555.3142523871527
 30
0.0
 10
31.98908962673611
 20
554.3644395616319
 30
0.0
 10
32.29501410590277
 20
552.592626953125
 30
0.0
 10
32.43212890625
 20
552.0510579427083
 30
0.0
 10
32.56579861111111
 20
551.502943250868
 30
0.0
 10
32.73805338541666
 20
550.4546006944444
 30
0.0
 10
33.18074815538194
 20
550.183816189236
 30
0.0
  0
LINE
  5
1DD
330
A
100
AcDbEntity
  8
LAYER_1
  6
AI9-LType2
 62
     7
100
AcDbLine
 10
26.409413
 20
642.826223
 30
0.0
 11
26.090742
 21
636.459342
 31
0.0
  0
LINE
  5
1DC
330
A
100
AcDbEntity
  8
LAYER_1
  6
AI9-LType2
 62
     7
100
AcDbLine
 10
54.901386
 20
639.167877
 30
0.0
 11
58.29825
 21
638.476446
 31
0.0
  0
SPLINE
  5
1DB
330
A
100
AcDbEntity
  8
LAYER_1
  6
AI9-LType2
 62
     7
100
AcDbSpline
210
0.0
220
0.0
230
1.0
 70
     8
 71
     3
 72
     8
 73
     4
 74
     0
 42
0.000000001
 43
0.00000001
 40
0.0
 40
0.0
 40
0.0
 40
0.0
 40
1.0
 40
1.0
 40
1.0
 40
1.0
 10
116.1965250651042
 20
625.6820502387152
 30
0.0
 10
115.9129937065972
 20
625.6820502387152
 30
0.0
 10
115.6835503472222
 20
625.7905707465277
 30
0.0
 10
115.4158664279514
 20
625.8508599175346
 30
0.0
  0
HATCH
  5
1DA
330
A
100
AcDbEntity
  8
LAYER_1
  6
AI9-LType2
 62
     1
100
AcDbHatch
 10
0.0
 20
0.0
 30
0.0
210
0.0
220
0.0
230
1.0
  2
SOLID
 70
     1
 71
     0
 91
        1
 92
        1
 93
        1
 72
     4
 94
        3
 73
     0
 74
     0
 95
        8
 96
        4
 40
0.0
 40
0.0
 40
0.0
 40
0.0
 40
1.0
 40
1.0
 40
1.0
 40
1.0
 10
116.1965250651042
 20
625.6820502387152
 10
115.9129937065972
 20
625.6820502387152
 10
115.6835503472222
 20
625.7905707465277
 10
115.4158664279514
 20
625.8508599175346
 97
        0
 97
        0
 75
     0
 76
     1
 98
        1
 10
0.0
 20
0.0
  0
SPLINE
  5
1D9
330
A
100
AcDbEntity
  8
LAYER_1
  6
AI9-LType2
 62
     7
100
AcDbSpline
210
0.0
220
0.0
230
1.0
 70
     8
 71
     3
 72
     8
 73
     4
 74
     0
 42
0.000000001
 43
0.00000001
 40
0.0
 40
0.0
 40
0.0
 40
0.0
 40
1.0
 40
1.0
 40
1.0
 40
1.0
 10
116.7766791449653
 20
625.4749999999999
 30
0.0
 10
116.9964762369792
 20
625.4143663194444
 30
0.0
 10
117.2131727430556
 20
625.3475314670138
 30
0.0
 10
117.4202229817708
 20
625.2676052517361
 30
0.0
  0
HATCH
  5
1D8
330
A
100
AcDbEntity
  8
LAYER_1
  6
AI9-LType2
 62
     1
100
AcDbHatch
 10
0.0
 20
0.0
 30
0.0
210
0.0
220
0.0
230
1.0
  2
SOLID
 70
     1
 71
     0
 91
        1
 92
        1
 93
        1
 72
     4
 94
        3
 73
     0
 74
     0
 95
        8
 96
        4
 40
0.0
 40
0.0
 40
0.0
 40
0.0
 40
1.0
 40
1.0
 40
1.0
 40
1.0
 10
116.7766791449653
 20
625.4749999999999
 10
116.9964762369792
 20
625.4143663194444
 10
117.2131727430556
 20
625.3475314670138
 10
117.4202229817708
 20
625.2676052517361
 97
        0
 97
        0
 75
     0
 76
     1
 98
        1
 10
0.0
 20
0.0
  0
SPLINE
  5
1D7
330
A
100
AcDbEntity
  8
LAYER_1
  6
AI9-LType2
 62
     7
100
AcDbSpline
210
0.0
220
0.0
230
1.0
 70
     8
 71
     3
 72
     8
 73
     4
 74
     0
 42
0.000000001
 43
0.00000001
 40
0.0
 40
0.0
 40
0.0
 40
0.0
 40
1.0
 40
1.0
 40
1.0
 40
1.0
 10
127.0120578342014
 20
623.3335286458333
 30
0.0
 10
127.2194525824653
 20
623.2790961371527
 30
0.0
 10
127.4137559678819
 20
623.2474012586805
 30
0.0
 10
127.6239067925347
 20
623.2281087239583
 30
0.0
  0
HATCH
  5
1D6
330
A
100
AcDbEntity
  8
LAYER_1
  6
AI9-LType2
 62
     1
100
AcDbHatch
 10
0.0
 20
0.0
 30
0.0
210
0.0
220
0.0
230
1.0
  2
SOLID
 70
     1
 71
     0
 91
        1
 92
        1
 93
        1
 72
     4
 94
        3
 73
     0
 74
     0
 95
        8
 96
        4
 40
0.0
 40
0.0
 40
0.0
 40
0.0
 40
1.0
 40
1.0
 40
1.0
 40
1.0
 10
127.0120578342014
 20
623.3335286458333
 10
127.2194525824653
 20
623.2790961371527
 10
127.4137559678819
 20
623.2474012586805
 10
127.6239067925347
 20
623.2281087239583
 97
        0
 97
        0
 75
     0
 76
     1
 98
        1
 10
0.0
 20
0.0
  0
SPLINE
  5
1D5
330
A
100
AcDbEntity
  8
LAYER_1
  6
AI9-LType2
 62
     7
100
AcDbSpline
210
0.0
220
0.0
230
1.0
 70
     8
 71
     3
 72
     8
 73
     4
 74
     0
 42
0.000000001
 43
0.00000001
 40
0.0
 40
0.0
 40
0.0
 40
0.0
 40
1.0
 40
1.0
 40
1.0
 40
1.0
 10
126.2282986111111
 20
623.5023383246527
 30
0.0
 10
126.3909071180555
 20
623.5085394965278
 30
0.0
 10
126.511829969618
 20
623.4768446180555
 30
0.0
 10
126.671337890625
 20
623.4706434461805
 30
0.0
  0
HATCH
  5
1D4
330
A
100
AcDbEntity
  8
LAYER_1
  6
AI9-LType2
 62
     1
100
AcDbHatch
 10
0.0
 20
0.0
 30
0.0
210
0.0
220
0.0
230
1.0
  2
SOLID
 70
     1
 71
     0
 91
        1
 92
        1
 93
        1
 72
     4
 94
        3
 73
     0
 74
     0
 95
        8
 96
        4
 40
0.0
 40
0.0
 40
0.0
 40
0.0
 40
1.0
 40
1.0
 40
1.0
 40
1.0
 10
126.2282986111111
 20
623.5023383246527
 10
126.3909071180555
 20
623.5085394965278
 10
126.511829969618
 20
623.4768446180555
 10
126.671337890625
 20
623.4706434461805
 97
        0
 97
        0
 75
     0
 76
     1
 98
        1
 10
0.0
 20
0.0
  0
SPLINE
  5
1D3
330
A
100
AcDbEntity
  8
LAYER_1
 62
     7
100
AcDbSpline
210
0.0
220
0.0
230
1.0
 70
    11
 71
     3
 72
    29
 73
    25
 74
     0
 42
0.000000001
 43
0.00000001
 40
0.0
 40
0.0
 40
0.0
 40
0.0
 40
1.0
 40
1.0
 40
1.0
 40
2.0
 40
2.0
 40
2.0
 40
3.0
 40
3.0
 40
3.0
 40
4.0
 40
4.0
 40
4.0
 40
5.0
 40
5.0
 40
5.0
 40
6.0
 40
6.0
 40
6.0
 40
7.0
 40
7.0
 40
7.0
 40
8.0
 40
8.0
 40
8.0
 40
8.0
 10
137.7924506293403
 20
610.7527289496527
 30
0.0
 10
137.7924506293403
 20
610.7527289496527
 30
0.0
 10
139.3572129991319
 20
610.6473090277777
 30
0.0
 10
139.7685574001736
 20
610.0037651909722
 30
0.0
 10
140.1699110243055
 20
609.3567762586805
 30
0.0
 10
140.4437961154514
 20
608.1616726345486
 30
0.0
 10
140.4437961154514
 20
607.4860894097221
 30
0.0
 10
140.4437961154514
 20
606.8074055989583
 30
0.0
 10
140.3452663845486
 20
605.9533664279513
 30
0.0
 10
139.9690619574653
 20
605.3067220052083
 30
0.0
 10
139.5932020399305
 20
604.6628336588541
 30
0.0
 10
138.8473388671875
 20
603.675124782986
 30
0.0
 10
138.1972493489583
 20
603.847035047743
 30
0.0
 10
137.5537055121528
 20
604.0158447265625
 30
0.0
 10
136.0592230902778
 20
604.3889485677083
 30
0.0
 10
136.2249321831597
 20
606.0267469618055
 30
0.0
 10
136.3968424479166
 20
607.6548990885416
 30
0.0
 10
136.5339572482639
 20
607.8622938368055
 30
0.0
 10
136.5690972222222
 20
608.7449273003472
 30
0.0
 10
136.6038926866319
 20
609.6275607638888
 30
0.0
 10
136.5339572482639
 20
610.0037651909722
 30
0.0
 10
136.8398817274305
 20
610.4784993489583
 30
0.0
 10
137.1489067925347
 20
610.9532335069443
 30
0.0
 10
137.7924506293403
 20
610.7527289496527
 30
0.0
 10
137.7924506293403
 20
610.7527289496527
 30
0.0
  0
SPLINE
  5
1D2
330
A
100
AcDbEntity
  8
LAYER_1
 62
     7
100
AcDbSpline
210
0.0
220
0.0
230
1.0
 70
    11
 71
     3
 72
    38
 73
    34
 74
     0
 42
0.000000001
 43
0.00000001
 40
0.0
 40
0.0
 40
0.0
 40
0.0
 40
1.0
 40
1.0
 40
1.0
 40
2.0
 40
2.0
 40
2.0
 40
3.0
 40
3.0
 40
3.0
 40
4.0
 40
4.0
 40
4.0
 40
5.0
 40
5.0
 40
5.0
 40
6.0
 40
6.0
 40
6.0
 40
7.0
 40
7.0
 40
7.0
 40
8.0
 40
8.0
 40
8.0
 40
9.0
 40
9.0
 40
9.0
 40
10.0
 40
10.0
 40
10.0
 40
11.0
 40
11.0
 40
11.0
 40
11.0
 10
108.3382622612847
 20
612.9958306206597
 30
0.0
 10
108.3382622612847
 20
612.9958306206597
 30
0.0
 10
108.6472873263889
 20
613.8436686197916
 30
0.0
 10
109.3039225260417
 20
613.783034939236
 30
0.0
 10
109.9636583116319
 20
613.7320475260416
 30
0.0
 10
112.3056342230903
 20
613.4068305121527
 30
0.0
 10
112.7583197699653
 20
613.3496419270833
 30
0.0
 10
113.2106608072917
 20
613.2890082465277
 30
0.0
 10
113.8418023003472
 20
613.1904785156249
 30
0.0
 10
113.8418023003472
 20
611.7690321180555
 30
0.0
 10
113.8418023003472
 20
610.3541314019096
 30
0.0
 10
113.6950412326389
 20
608.9454318576388
 30
0.0
 10
113.2712944878472
 20
608.5630262586805
 30
0.0
 10
112.8475477430555
 20
608.1840657552083
 30
0.0
 10
112.6115587022569
 20
607.9959635416666
 30
0.0
 10
111.5566704644097
 20
608.0214572482638
 30
0.0
 10
110.5052273220486
 20
608.0531521267361
 30
0.0
 10
109.2784288194444
 20
608.3911159939236
 30
0.0
 10
108.7940483940972
 20
608.505837673611
 30
0.0
 10
108.4881239149305
 20
608.5823187934027
 30
0.0
 10
108.2076931423611
 20
608.7387261284722
 30
0.0
 10
108.026136610243
 20
608.9964192708333
 30
0.0
 10
107.8411349826389
 20
609.2513563368055
 30
0.0
 10
107.7808458116319
 20
609.5000922309027
 30
0.0
 10
107.6978190104167
 20
609.7932698567707
 30
0.0
 10
107.6468315972222
 20
609.9717258029514
 30
0.0
 10
107.6182373046875
 20
610.1787760416667
 30
0.0
 10
107.6085910373264
 20
610.3668782552082
 30
0.0
 10
107.5799967447917
 20
610.9339409722222
 30
0.0
 10
107.8094401041667
 20
611.4569064670138
 30
0.0
 10
107.9909966362847
 20
611.9857286241319
 30
0.0
 10
108.1088189019097
 20
612.3236924913194
 30
0.0
 10
108.2266411675347
 20
612.6613118489582
 30
0.0
 10
108.3382622612847
 20
612.9958306206597
 30
0.0
  0
SPLINE
  5
1D1
330
A
100
AcDbEntity
  8
LAYER_1
 62
     7
100
AcDbSpline
210
0.0
220
0.0
230
1.0
 70
    11
 71
     3
 72
    32
 73
    28
 74
     0
 42
0.000000001
 43
0.00000001
 40
0.0
 40
0.0
 40
0.0
 40
0.0
 40
1.0
 40
1.0
 40
1.0
 40
2.0
 40
2.0
 40
2.0
 40
3.0
 40
3.0
 40
3.0
 40
4.0
 40
4.0
 40
4.0
 40
5.0
 40
5.0
 40
5.0
 40
6.0
 40
6.0
 40
6.0
 40
7.0
 40
7.0
 40
7.0
 40
8.0
 40
8.0
 40
8.0
 40
9.0
 40
9.0
 40
9.0
 40
9.0
 10
81.30597601996527
 20
616.4660753038194
 30
0.0
 10
81.30597601996527
 20
616.4660753038194
 30
0.0
 10
81.30597601996527
 20
616.4757215711805
 30
0.0
 10
81.30253092447916
 20
616.4950141059027
 30
0.0
 10
81.26463487413194
 20
616.7368598090277
 30
0.0
 10
81.05413953993055
 20
618.3464084201388
 30
0.0
 10
81.71697591145832
 20
618.8176974826388
 30
0.0
 10
82.43390028211805
 20
619.3341172960069
 30
0.0
 10
83.10948350694444
 20
619.6941297743055
 30
0.0
 10
83.74992675781249
 20
619.8281439887152
 30
0.0
 10
84.39691569010417
 20
619.962158203125
 30
0.0
 10
85.0215115017361
 20
620.0479410807291
 30
0.0
 10
85.63990614149304
 20
619.6400417751736
 30
0.0
 10
86.25175509982638
 20
619.232142469618
 30
0.0
 10
87.29045138888888
 20
618.030837673611
 30
0.0
 10
87.26185709635416
 20
617.3969401041666
 30
0.0
 10
87.22981770833333
 20
616.7719997829861
 30
0.0
 10
86.69134928385417
 20
615.0735677083333
 30
0.0
 10
86.06365288628471
 20
614.7834906684027
 30
0.0
 10
85.43251139322916
 20
614.4906575520832
 30
0.0
 10
84.78552246093749
 20
614.0634657118055
 30
0.0
 10
84.01140950520832
 20
614.1526936848958
 30
0.0
 10
83.23695203993054
 20
614.2384765625
 30
0.0
 10
82.78461100260417
 20
614.3886827256944
 30
0.0
 10
82.24269748263887
 20
615.0194797092013
 30
0.0
 10
81.70112847222221
 20
615.6440755208333
 30
0.0
 10
81.30597601996527
 20
616.4660753038194
 30
0.0
 10
81.30597601996527
 20
616.4660753038194
 30
0.0
  0
LINE
  5
1D0
330
A
100
AcDbEntity
  8
LAYER_1
  6
AI9-LType2
 62
     7
100
AcDbLine
 10
105.441626
 20
627.485558
 30
0.0
 11
110.125922
 21
626.717646
 31
0.0
  0
INSERT
  5
1BA
330
A
100
AcDbEntity
  8
LAYER_1
 62
     7
100
AcDbBlockReference
  2
AI9-BLK58
 10
77.347906
 20
575.89353
 30
0.0
  0
INSERT
  5
1A3
330
A
100
AcDbEntity
  8
LAYER_1
 62
     7
100
AcDbBlockReference
  2
AI9-BLK53
 10
155.634772
 20
575.906277
 30
0.0
  0
MTEXT
  5
1A1
330
A
100
AcDbEntity
  8
LAYER_1
 62
     7
100
AcDbMText
 10
79.237541
 20
576.558798
 30
0.0
 40
1.232675
 41
0.0
 46
0.0
 71
     1
 72
     2
  1
\W1.00;\fHelvetica|b0|i0;770/290
  7
STD
 73
     1
 44
1.0
  0
MTEXT
  5
1A0
330
A
100
AcDbEntity
  8
LAYER_1
 62
     7
100
AcDbMText
 10
152.362104
 20
573.974632
 30
0.0
 40
1.232675
 41
0.0
 46
0.0
 71
     1
 72
     2
  1
\W1.00;\fHelvetica|b0|i0;775/290
  7
STD
 73
     1
 44
1.0
  0
SPLINE
  5
19F
330
A
100
AcDbEntity
  8
LAYER_1
  6
AI9-LType3
 62
     7
100
AcDbSpline
210
0.0
220
0.0
230
1.0
 70
     8
 71
     3
 72
    20
 73
    16
 74
     0
 42
0.000000001
 43
0.00000001
 40
0.0
 40
0.0
 40
0.0
 40
0.0
 40
1.0
 40
1.0
 40
1.0
 40
2.0
 40
2.0
 40
2.0
 40
3.0
 40
3.0
 40
3.0
 40
4.0
 40
4.0
 40
4.0
 40
5.0
 40
5.0
 40
5.0
 40
5.0
 10
82.14072265624999
 20
553.4594129774305
 30
0.0
 10
82.14072265624999
 20
553.4594129774305
 30
0.0
 10
82.73982476128471
 20
554.2879584418403
 30
0.0
 10
80.7671630859375
 20
555.1227050781249
 30
0.0
 10
78.78830023871527
 20
555.9577962239583
 30
0.0
 10
77.23008355034722
 20
557.0223307291666
 30
0.0
 10
76.77429741753471
 20
558.1757486979166
 30
0.0
 10
76.31541069878472
 20
559.3291666666667
 30
0.0
 10
76.09251302083332
 20
561.3562608506944
 30
0.0
 10
75.2701687282986
 20
561.7255750868055
 30
0.0
 10
74.4419677734375
 20
562.0955783420138
 30
0.0
 10
73.61342230902777
 20
561.7321207682292
 30
0.0
 10
71.58977322048611
 20
562.8920844184028
 30
0.0
 10
69.57266981336805
 20
564.0489474826388
 30
0.0
 10
68.56256781684027
 20
564.4661485460069
 30
0.0
 10
68.56256781684027
 20
564.4661485460069
 30
0.0
  0
SPLINE
  5
19E
330
A
100
AcDbEntity
  8
LAYER_1
  6
AI9-LType3
 62
     7
100
AcDbSpline
210
0.0
220
0.0
230
1.0
 70
     8
 71
     3
 72
    29
 73
    25
 74
     0
 42
0.000000001
 43
0.00000001
 40
0.0
 40
0.0
 40
0.0
 40
0.0
 40
1.0
 40
1.0
 40
1.0
 40
2.0
 40
2.0
 40
2.0
 40
3.0
 40
3.0
 40
3.0
 40
4.0
 40
4.0
 40
4.0
 40
5.0
 40
5.0
 40
5.0
 40
6.0
 40
6.0
 40
6.0
 40
7.0
 40
7.0
 40
7.0
 40
8.0
 40
8.0
 40
8.0
 40
8.0
 10
68.00170627170138
 20
564.6828450520833
 30
0.0
 10
67.53317328559027
 20
564.9377821180555
 30
0.0
 10
66.96576605902777
 20
565.0845431857639
 30
0.0
 10
66.46243760850693
 20
565.2660997178818
 30
0.0
 10
65.87918294270833
 20
565.4731499565971
 30
0.0
 10
65.30557454427083
 20
565.6040635850694
 30
0.0
 10
64.7033718532986
 20
565.7342881944444
 30
0.0
 10
63.38079969618055
 20
566.0212646484374
 30
0.0
 10
61.96934407552083
 20
566.6076199001735
 30
0.0
 10
60.57339138454861
 20
566.4612033420138
 30
0.0
 10
60.05077039930555
 20
566.4067708333333
 30
0.0
 10
59.34659288194444
 20
566.1008463541666
 30
0.0
 10
58.93869357638889
 20
565.7535807291666
 30
0.0
 10
58.54354112413194
 20
565.4159613715277
 30
0.0
 10
58.45431315104166
 20
564.8296061197916
 30
0.0
 10
58.15493435329861
 20
564.4437554253471
 30
0.0
 10
58.15493435329861
 20
564.4437554253471
 30
0.0
 10
55.8636013454861
 20
556.2382269965277
 30
0.0
 10
55.8636013454861
 20
556.03427734375
 30
0.0
 10
55.8636013454861
 20
555.8303276909721
 30
0.0
 10
55.07984212239583
 20
552.1723253038194
 30
0.0
 10
55.07984212239583
 20
552.1723253038194
 30
0.0
 10
55.07984212239583
 20
552.1723253038194
 30
0.0
 10
55.04125705295139
 20
552.0638047960069
 30
0.0
 10
55.04125705295139
 20
552.0638047960069
 30
0.0
  0
SPLINE
  5
19D
330
A
100
AcDbEntity
  8
LAYER_1
  6
AI9-LType3
 62
     7
100
AcDbSpline
210
0.0
220
0.0
230
1.0
 70
     8
 71
     3
 72
    35
 73
    31
 74
     0
 42
0.000000001
 43
0.00000001
 40
0.0
 40
0.0
 40
0.0
 40
0.0
 40
1.0
 40
1.0
 40
1.0
 40
2.0
 40
2.0
 40
2.0
 40
3.0
 40
3.0
 40
3.0
 40
4.0
 40
4.0
 40
4.0
 40
5.0
 40
5.0
 40
5.0
 40
6.0
 40
6.0
 40
6.0
 40
7.0
 40
7.0
 40
7.0
 40
8.0
 40
8.0
 40
8.0
 40
9.0
 40
9.0
 40
9.0
 40
10.0
 40
10.0
 40
10.0
 40
10.0
 10
30.84841851128472
 20
610.2456108940971
 30
0.0
 10
30.84841851128472
 20
610.2456108940971
 30
0.0
 10
29.87965766059028
 20
608.0342041015624
 30
0.0
 10
29.32809787326389
 20
604.6562879774305
 30
0.0
 10
28.77378200954861
 20
601.2721706814235
 30
0.0
 10
28.71004774305555
 20
600.0963595920139
 30
0.0
 10
27.39402126736111
 20
595.4723524305555
 30
0.0
 10
26.08419596354166
 20
590.8483452690972
 30
0.0
 10
25.73693033854167
 20
587.8786729600694
 30
0.0
 10
25.73693033854167
 20
587.4645724826388
 30
0.0
 10
25.73693033854167
 20
587.0532280815971
 30
0.0
 10
24.36027018229166
 20
580.7021945529514
 30
0.0
 10
24.42710503472222
 20
580.3549289279514
 30
0.0
 10
24.49738498263889
 20
580.0107638888888
 30
0.0
 10
24.289990234375
 20
579.4561035156249
 30
0.0
 10
24.01300455729167
 20
577.8692925347221
 30
0.0
 10
23.73567437065972
 20
576.2824815538194
 30
0.0
 10
23.18445909288194
 20
575.453591579861
 30
0.0
 10
23.11417914496528
 20
575.1097710503471
 30
0.0
 10
23.04734429253472
 20
574.7652615017361
 30
0.0
 10
22.5629638671875
 20
571.247474500868
 30
0.0
 10
22.5629638671875
 20
571.247474500868
 30
0.0
 10
22.5629638671875
 20
571.247474500868
 30
0.0
 10
22.63324381510417
 20
565.7918212890625
 30
0.0
 10
22.63324381510417
 20
565.7918212890625
 30
0.0
 10
22.63324381510417
 20
565.7918212890625
 30
0.0
 10
22.49268391927083
 20
560.1959526909721
 30
0.0
 10
22.49268391927083
 20
560.1959526909721
 30
0.0
 10
22.49268391927083
 20
560.1959526909721
 30
0.0
 10
22.218798828125
 20
558.0610270182291
 30
0.0
 10
22.218798828125
 20
558.0610270182291
 30
0.0
  0
SPLINE
  5
19B
330
A
100
AcDbEntity
  8
LAYER_1
 62
     7
100
AcDbSpline
210
0.0
220
0.0
230
1.0
 70
     8
 71
     3
 72
    23
 73
    19
 74
     0
 42
0.000000001
 43
0.00000001
 40
0.0
 40
0.0
 40
0.0
 40
0.0
 40
1.0
 40
1.0
 40
1.0
 40
2.0
 40
2.0
 40
2.0
 40
3.0
 40
3.0
 40
3.0
 40
4.0
 40
4.0
 40
4.0
 40
5.0
 40
5.0
 40
5.0
 40
6.0
 40
6.0
 40
6.0
 40
6.0
 10
64.37505425347221
 20
553.4401204427082
 30
0.0
 10
64.84668782552083
 20
553.408425564236
 30
0.0
 10
65.29937337239583
 20
553.0260199652778
 30
0.0
 10
65.75826009114583
 20
553.2937038845486
 30
0.0
 10
66.12137315538193
 20
553.5072998046875
 30
0.0
 10
66.45589192708333
 20
554.2180230034721
 30
0.0
 10
66.21370171440972
 20
554.6162760416667
 30
0.0
 10
66.0769314236111
 20
554.8360731336805
 30
0.0
 10
65.88572862413194
 20
554.8167805989583
 30
0.0
 10
65.66903211805555
 20
554.8615668402778
 30
0.0
 10
65.31212022569444
 20
554.9349473741319
 30
0.0
 10
65.35656195746527
 20
554.9573404947917
 30
0.0
 10
65.10506998697916
 20
554.7278971354166
 30
0.0
 10
64.91696777343749
 20
554.5428955078124
 30
0.0
 10
64.27618001302083
 20
553.733642578125
 30
0.0
 10
64.29237196180554
 20
553.5393391927083
 30
0.0
 10
64.55661078559027
 20
553.4401204427082
 30
0.0
 10
64.79259982638888
 20
553.4656141493055
 30
0.0
 10
65.02204318576388
 20
553.3002495659722
 30
0.0
  0
SPLINE
  5
19A
330
A
100
AcDbEntity
  8
LAYER_1
 62
     7
100
AcDbSpline
210
0.0
220
0.0
230
1.0
 70
     8
 71
     3
 72
    17
 73
    13
 74
     0
 42
0.000000001
 43
0.00000001
 40
0.0
 40
0.0
 40
0.0
 40
0.0
 40
1.0
 40
1.0
 40
1.0
 40
2.0
 40
2.0
 40
2.0
 40
3.0
 40
3.0
 40
3.0
 40
4.0
 40
4.0
 40
4.0
 40
4.0
 10
72.81347113715277
 20
557.8250379774305
 30
0.0
 10
72.68910319010416
 20
557.2197347005208
 30
0.0
 10
74.08161078559027
 20
557.6720757378472
 30
0.0
 10
74.333447265625
 20
557.863623046875
 30
0.0
 10
74.8112820095486
 20
558.2329372829861
 30
0.0
 10
74.60113118489582
 20
558.8640787760417
 30
0.0
 10
74.05956217447915
 20
559.0618272569444
 30
0.0
 10
73.46976182725693
 20
559.2781792534722
 30
0.0
 10
72.99502766927083
 20
558.8351399739582
 30
0.0
 10
72.87410481770833
 20
558.274622938368
 30
0.0
 10
72.64776204427082
 20
557.2517740885417
 30
0.0
 10
73.56243489583332
 20
557.6341796874999
 30
0.0
 10
74.15189073350693
 20
557.7265082465277
 30
0.0
  0
SPLINE
  5
199
330
A
100
AcDbEntity
  8
LAYER_1
 62
     7
100
AcDbSpline
210
0.0
220
0.0
230
1.0
 70
    11
 71
     3
 72
    11
 73
     7
 74
     0
 42
0.000000001
 43
0.00000001
 40
0.0
 40
0.0
 40
0.0
 40
0.0
 40
1.0
 40
1.0
 40
1.0
 40
2.0
 40
2.0
 40
2.0
 40
2.0
 10
71.38272298177083
 20
556.5379503038193
 30
0.0
 10
70.96517740885416
 20
556.6399251302083
 30
0.0
 10
70.03465711805555
 20
556.0914659288194
 30
0.0
 10
70.42016330295138
 20
555.575390625
 30
0.0
 10
70.93968370225694
 20
554.8839599609374
 30
0.0
 10
72.45345865885416
 20
556.2861138237847
 30
0.0
 10
71.38272298177083
 20
556.5379503038193
 30
0.0
  0
SPLINE
  5
198
330
A
100
AcDbEntity
  8
LAYER_1
 62
     7
100
AcDbSpline
210
0.0
220
0.0
230
1.0
 70
    11
 71
     3
 72
    14
 73
    10
 74
     0
 42
0.000000001
 43
0.00000001
 40
0.0
 40
0.0
 40
0.0
 40
0.0
 40
1.0
 40
1.0
 40
1.0
 40
2.0
 40
2.0
 40
2.0
 40
3.0
 40
3.0
 40
3.0
 40
3.0
 10
67.06774088541665
 20
556.6523274739583
 30
0.0
 10
66.63779296874999
 20
555.7762396918403
 30
0.0
 10
68.34587131076388
 20
555.5912380642361
 30
0.0
 10
68.79511176215277
 20
556.0566704644096
 30
0.0
 10
69.20611165364582
 20
556.4931640625
 30
0.0
 10
68.53707411024305
 20
556.8307834201388
 30
0.0
 10
68.16086968315972
 20
556.9203559027777
 30
0.0
 10
67.74332411024305
 20
557.0092393663194
 30
0.0
 10
67.28443739149304
 20
557.0795193142361
 30
0.0
 10
67.06774088541665
 20
556.6523274739583
 30
0.0
  0
SPLINE
  5
197
330
A
100
AcDbEntity
  8
LAYER_1
 62
     7
100
AcDbSpline
210
0.0
220
0.0
230
1.0
 70
    11
 71
     3
 72
    14
 73
    10
 74
     0
 42
0.000000001
 43
0.00000001
 40
0.0
 40
0.0
 40
0.0
 40
0.0
 40
1.0
 40
1.0
 40
1.0
 40
2.0
 40
2.0
 40
2.0
 40
3.0
 40
3.0
 40
3.0
 40
3.0
 10
62.73071017795138
 20
557.0857204861111
 30
0.0
 10
61.42743055555555
 20
556.8118353949652
 30
0.0
 10
62.60324164496527
 20
555.4162272135416
 30
0.0
 10
63.46692708333332
 20
555.8241265190971
 30
0.0
 10
63.79179958767361
 20
555.9770887586805
 30
0.0
 10
64.14251030815971
 20
556.4549235026041
 30
0.0
 10
63.93235948350694
 20
556.7990885416666
 30
0.0
 10
63.75700412326388
 20
557.0857204861111
 30
0.0
 10
63.04628092447916
 20
557.1463541666666
 30
0.0
 10
62.73071017795138
 20
557.0857204861111
 30
0.0
  0
SPLINE
  5
196
330
A
100
AcDbEntity
  8
LAYER_1
 62
     7
100
AcDbSpline
210
0.0
220
0.0
230
1.0
 70
    11
 71
     3
 72
    11
 73
     7
 74
     0
 42
0.000000001
 43
0.00000001
 40
0.0
 40
0.0
 40
0.0
 40
0.0
 40
1.0
 40
1.0
 40
1.0
 40
2.0
 40
2.0
 40
2.0
 40
2.0
 10
61.68236762152777
 20
559.2016981336805
 30
0.0
 10
62.09991319444444
 20
558.7621039496528
 30
0.0
 10
61.3574951171875
 20
558.3480034722222
 30
0.0
 10
60.95579698350694
 20
558.4878743489583
 30
0.0
 10
60.15929090711805
 20
558.7748508029514
 30
0.0
 10
61.1501003689236
 20
559.7625596788193
 30
0.0
 10
61.68236762152777
 20
559.2016981336805
 30
0.0
  0
SPLINE
  5
195
330
A
100
AcDbEntity
  8
LAYER_1
 62
     7
100
AcDbSpline
210
0.0
220
0.0
230
1.0
 70
    11
 71
     3
 72
    11
 73
     7
 74
     0
 42
0.000000001
 43
0.00000001
 40
0.0
 40
0.0
 40
0.0
 40
0.0
 40
1.0
 40
1.0
 40
1.0
 40
2.0
 40
2.0
 40
2.0
 40
2.0
 10
71.20426703559028
 20
560.5563096788194
 30
0.0
 10
70.49664442274305
 20
559.769105360243
 30
0.0
 10
71.65660807291665
 20
560.1260172526041
 30
0.0
 10
71.98802625868055
 20
560.1835503472222
 30
0.0
 10
72.14098849826388
 20
560.7378662109375
 30
0.0
 10
71.53878580729166
 20
560.9352701822916
 30
0.0
 10
71.20426703559028
 20
560.5563096788194
 30
0.0
  0
SPLINE
  5
194
330
A
100
AcDbEntity
  8
LAYER_1
 62
     7
100
AcDbSpline
210
0.0
220
0.0
230
1.0
 70
     8
 71
     3
 72
    20
 73
    16
 74
     0
 42
0.000000001
 43
0.00000001
 40
0.0
 40
0.0
 40
0.0
 40
0.0
 40
1.0
 40
1.0
 40
1.0
 40
2.0
 40
2.0
 40
2.0
 40
3.0
 40
3.0
 40
3.0
 40
4.0
 40
4.0
 40
4.0
 40
5.0
 40
5.0
 40
5.0
 40
5.0
 10
62.46957194010416
 20
560.0750298394097
 30
0.0
 10
62.8647243923611
 20
560.0684841579861
 30
0.0
 10
64.26687825520833
 20
559.5331163194444
 30
0.0
 10
64.40054796006943
 20
560.0174967447916
 30
0.0
 10
64.52491590711804
 20
560.457435438368
 30
0.0
 10
63.95130750868055
 20
560.4639811197916
 30
0.0
 10
63.70911729600694
 20
560.6103976779514
 30
0.0
 10
63.45728081597222
 20
560.7633599175347
 30
0.0
 10
63.26952311197916
 20
561.0117513020833
 30
0.0
 10
63.01114095052083
 20
561.1647135416666
 30
0.0
 10
62.53330620659722
 20
561.445144314236
 30
0.0
 10
61.4815185546875
 20
561.438943142361
 30
0.0
 10
61.69821506076389
 20
560.5849039713542
 30
0.0
 10
61.82568359374999
 20
560.0750298394097
 30
0.0
 10
62.75310329861111
 20
560.0939778645833
 30
0.0
 10
63.15790201822916
 20
559.9313693576388
 30
0.0
  0
SPLINE
  5
193
330
A
100
AcDbEntity
  8
LAYER_1
 62
     7
100
AcDbSpline
210
0.0
220
0.0
230
1.0
 70
     8
 71
     3
 72
    14
 73
    10
 74
     0
 42
0.000000001
 43
0.00000001
 40
0.0
 40
0.0
 40
0.0
 40
0.0
 40
1.0
 40
1.0
 40
1.0
 40
2.0
 40
2.0
 40
2.0
 40
3.0
 40
3.0
 40
3.0
 40
3.0
 10
72.2715576171875
 20
559.8039008246527
 30
0.0
 10
71.49399956597222
 20
560.2627875434027
 30
0.0
 10
70.35952962239583
 20
559.1031684027778
 30
0.0
 10
71.4750515407986
 20
558.9788004557291
 30
0.0
 10
71.89259711371527
 20
558.9343587239583
 30
0.0
 10
72.46930609809027
 20
558.8640787760417
 30
0.0
 10
72.45655924479166
 20
559.3898003472221
 30
0.0
 10
72.44691297743054
 20
559.7501573350694
 30
0.0
 10
72.10274793836805
 20
559.8710801866318
 30
0.0
 10
71.85435655381944
 20
559.9889024522569
 30
0.0
  0
SPLINE
  5
192
330
A
100
AcDbEntity
  8
LAYER_1
 62
     7
100
AcDbSpline
210
0.0
220
0.0
230
1.0
 70
     8
 71
     3
 72
    17
 73
    13
 74
     0
 42
0.000000001
 43
0.00000001
 40
0.0
 40
0.0
 40
0.0
 40
0.0
 40
1.0
 40
1.0
 40
1.0
 40
2.0
 40
2.0
 40
2.0
 40
3.0
 40
3.0
 40
3.0
 40
4.0
 40
4.0
 40
4.0
 40
4.0
 10
67.84874403211805
 20
558.5357611762153
 30
0.0
 10
69.62021213107639
 20
558.0196858723958
 30
0.0
 10
68.75032552083333
 20
561.1171712239583
 30
0.0
 10
67.89008517795138
 20
560.5242702907985
 30
0.0
 10
67.43119845920138
 20
560.2090440538194
 30
0.0
 10
67.49183213975694
 20
559.4345865885416
 30
0.0
 10
67.61930067274305
 20
558.9977484809027
 30
0.0
 10
67.71472981770833
 20
558.6539279513888
 30
0.0
 10
67.77226291232638
 20
558.4499782986111
 30
0.0
 10
68.17051595052082
 20
558.4403320312499
 30
0.0
 10
68.44784613715277
 20
558.4337863498264
 30
0.0
 10
68.7155300564236
 20
558.5740017361111
 30
0.0
 10
68.76961805555555
 20
558.851331922743
 30
0.0
  0
SPLINE
  5
191
330
A
100
AcDbEntity
  8
LAYER_1
 62
     7
100
AcDbSpline
210
0.0
220
0.0
230
1.0
 70
     8
 71
     3
 72
    11
 73
     7
 74
     0
 42
0.000000001
 43
0.00000001
 40
0.0
 40
0.0
 40
0.0
 40
0.0
 40
1.0
 40
1.0
 40
1.0
 40
2.0
 40
2.0
 40
2.0
 40
2.0
 10
68.62285698784721
 20
569.2493191189236
 30
0.0
 10
67.95381944444443
 20
569.8773600260416
 30
0.0
 10
66.63779296874999
 20
568.8255723741319
 30
0.0
 10
67.30062934027777
 20
568.3029513888888
 30
0.0
 10
67.96002061631944
 20
567.7737847222222
 30
0.0
 10
69.34942762586805
 20
569.3895345052083
 30
0.0
 10
68.25974392361111
 20
569.3929796006944
 30
0.0
  0
SPLINE
  5
190
330
A
100
AcDbEntity
  8
LAYER_1
 62
     7
100
AcDbSpline
210
0.0
220
0.0
230
1.0
 70
     8
 71
     3
 72
    17
 73
    13
 74
     0
 42
0.000000001
 43
0.00000001
 40
0.0
 40
0.0
 40
0.0
 40
0.0
 40
1.0
 40
1.0
 40
1.0
 40
2.0
 40
2.0
 40
2.0
 40
3.0
 40
3.0
 40
3.0
 40
4.0
 40
4.0
 40
4.0
 40
4.0
 10
61.99483778211805
 20
556.3973904079861
 30
0.0
 10
61.62827962239583
 20
556.8535210503471
 30
0.0
 10
60.62127821180555
 20
556.6971137152777
 30
0.0
 10
60.48106282552083
 20
556.1362521701388
 30
0.0
 10
60.81868218315972
 20
555.8496202256944
 30
0.0
 10
61.29031575520833
 20
555.0910101996527
 30
0.0
 10
61.74610188802082
 20
555.3493923611111
 30
0.0
 10
61.94695095486111
 20
555.4575683593749
 30
0.0
 10
62.14125434027777
 20
555.8430745442707
 30
0.0
 10
62.13160807291666
 20
556.0725179036458
 30
0.0
 10
62.11266004774305
 20
556.4359754774305
 30
0.0
 10
61.90216471354166
 20
556.4773166232638
 30
0.0
 10
61.62517903645833
 20
556.6240776909722
 30
0.0
  0
SPLINE
  5
18F
330
A
100
AcDbEntity
  8
LAYER_1
 62
     7
100
AcDbSpline
210
0.0
220
0.0
230
1.0
 70
     8
 71
     3
 72
    14
 73
    10
 74
     0
 42
0.000000001
 43
0.00000001
 40
0.0
 40
0.0
 40
0.0
 40
0.0
 40
1.0
 40
1.0
 40
1.0
 40
2.0
 40
2.0
 40
2.0
 40
3.0
 40
3.0
 40
3.0
 40
3.0
 10
67.62550184461804
 20
560.4191948784721
 30
0.0
 10
67.85804578993054
 20
560.9511176215277
 30
0.0
 10
67.34197048611111
 20
561.2542860243055
 30
0.0
 10
66.89273003472222
 20
561.0692843967014
 30
0.0
 10
66.47208387586805
 20
560.8973741319444
 30
0.0
 10
66.17546115451388
 20
560.3968017578125
 30
0.0
 10
66.32532280815971
 20
559.9665093315972
 30
0.0
 10
66.62160101996527
 20
559.1031684027778
 30
0.0
 10
67.87079264322917
 20
560.1897515190972
 30
0.0
 10
67.62550184461804
 20
560.8367404513889
 30
0.0
  0
SPLINE
  5
18E
330
A
100
AcDbEntity
  8
LAYER_1
 62
     7
100
AcDbSpline
210
0.0
220
0.0
230
1.0
 70
    11
 71
     3
 72
    17
 73
    13
 74
     0
 42
0.000000001
 43
0.00000001
 40
0.0
 40
0.0
 40
0.0
 40
0.0
 40
1.0
 40
1.0
 40
1.0
 40
2.0
 40
2.0
 40
2.0
 40
3.0
 40
3.0
 40
3.0
 40
4.0
 40
4.0
 40
4.0
 40
4.0
 10
65.4936767578125
 20
558.6029405381944
 30
0.0
 10
65.12401801215277
 20
558.2618760850694
 30
0.0
 10
64.07223036024305
 20
557.9080647786458
 30
0.0
 10
64.76400553385416
 20
557.4522786458333
 30
0.0
 10
65.43958875868054
 20
557.0030381944443
 30
0.0
 10
65.78375379774305
 20
557.3661512586805
 30
0.0
 10
66.22024739583333
 20
557.8601779513889
 30
0.0
 10
66.4114501953125
 20
558.0675726996527
 30
0.0
 10
66.83209635416667
 20
558.6408365885416
 30
0.0
 10
66.69188096788194
 20
558.9467610677083
 30
0.0
 10
66.37631022135416
 20
559.6288899739583
 30
0.0
 10
65.74241265190972
 20
558.8351399739582
 30
0.0
 10
65.4936767578125
 20
558.6029405381944
 30
0.0
  0
SPLINE
  5
18D
330
A
100
AcDbEntity
  8
LAYER_1
 62
     7
100
AcDbSpline
210
0.0
220
0.0
230
1.0
 70
     8
 71
     3
 72
    17
 73
    13
 74
     0
 42
0.000000001
 43
0.00000001
 40
0.0
 40
0.0
 40
0.0
 40
0.0
 40
1.0
 40
1.0
 40
1.0
 40
2.0
 40
2.0
 40
2.0
 40
3.0
 40
3.0
 40
3.0
 40
4.0
 40
4.0
 40
4.0
 40
4.0
 10
67.29718424479167
 20
570.2246256510416
 30
0.0
 10
67.51078016493055
 20
569.9727891710069
 30
0.0
 10
68.39341362847222
 20
569.6348253038194
 30
0.0
 10
68.62940266927083
 20
569.8963080512152
 30
0.0
 10
68.89398600260417
 20
570.1956868489583
 30
0.0
 10
68.77581922743055
 20
571.1265516493055
 30
0.0
 10
68.40960557725694
 20
571.2919162326389
 30
0.0
 10
68.04304741753472
 20
571.4545247395832
 30
0.0
 10
67.29098307291666
 20
571.1200059678819
 30
0.0
 10
67.16041395399304
 20
570.7789415147569
 30
0.0
 10
66.96266547309027
 20
570.265966796875
 30
0.0
 10
67.48528645833333
 20
570.0048285590277
 30
0.0
 10
67.89318576388888
 20
569.9028537326388
 30
0.0
  0
SPLINE
  5
18C
330
A
100
AcDbEntity
  8
LAYER_1
 62
     7
100
AcDbSpline
210
0.0
220
0.0
230
1.0
 70
     8
 71
     3
 72
    17
 73
    13
 74
     0
 42
0.000000001
 43
0.00000001
 40
0.0
 40
0.0
 40
0.0
 40
0.0
 40
1.0
 40
1.0
 40
1.0
 40
2.0
 40
2.0
 40
2.0
 40
3.0
 40
3.0
 40
3.0
 40
4.0
 40
4.0
 40
4.0
 40
4.0
 10
70.35952962239583
 20
553.2334147135416
 30
0.0
 10
70.75502658420139
 20
553.0005262586805
 30
0.0
 10
71.30624186197916
 20
554.0492133246528
 30
0.0
 10
71.37617730034721
 20
554.3771864149305
 30
0.0
 10
71.50674641927083
 20
555.0338216145833
 30
0.0
 10
70.99377170138888
 20
555.2312255859374
 30
0.0
 10
70.5476318359375
 20
554.7499457465277
 30
0.0
 10
70.29269476996527
 20
554.4760606553818
 30
0.0
 10
69.91028917100694
 20
553.6888563368055
 30
0.0
 10
70.12698567708333
 20
553.3257432725694
 30
0.0
 10
70.35332845052082
 20
552.9371365017361
 30
0.0
 10
70.98757052951389
 20
553.5072998046875
 30
0.0
 10
71.18841959635417
 20
553.8290717230902
 30
0.0
  0
SPLINE
  5
18B
330
A
100
AcDbEntity
  8
LAYER_1
 62
     7
100
AcDbSpline
210
0.0
220
0.0
230
1.0
 70
     8
 71
     3
 72
    14
 73
    10
 74
     0
 42
0.000000001
 43
0.00000001
 40
0.0
 40
0.0
 40
0.0
 40
0.0
 40
1.0
 40
1.0
 40
1.0
 40
2.0
 40
2.0
 40
2.0
 40
3.0
 40
3.0
 40
3.0
 40
3.0
 10
59.65251736111111
 20
558.0131401909722
 30
0.0
 10
59.84372016059027
 20
557.5256591796874
 30
0.0
 10
61.44017740885416
 20
557.3472032335069
 30
0.0
 10
61.25552029079861
 20
558.0992675781249
 30
0.0
 10
61.16939290364583
 20
558.4561794704861
 30
0.0
 10
59.983935546875
 20
559.1892957899305
 30
0.0
 10
59.66526421440972
 20
559.017041015625
 30
0.0
 10
59.57603624131944
 20
558.6918240017361
 30
0.0
 10
59.41997341579861
 20
557.6276340060764
 30
0.0
 10
60.01907552083333
 20
557.7871419270833
 30
0.0
  0
SPLINE
  5
18A
330
A
100
AcDbEntity
  8
LAYER_1
 62
     7
100
AcDbSpline
210
0.0
220
0.0
230
1.0
 70
     8
 71
     3
 72
    17
 73
    13
 74
     0
 42
0.000000001
 43
0.00000001
 40
0.0
 40
0.0
 40
0.0
 40
0.0
 40
1.0
 40
1.0
 40
1.0
 40
2.0
 40
2.0
 40
2.0
 40
3.0
 40
3.0
 40
3.0
 40
4.0
 40
4.0
 40
4.0
 40
4.0
 10
63.43178710937499
 20
558.8768256293403
 30
0.0
 10
63.62953559027777
 20
558.7428114149305
 30
0.0
 10
63.76975097656249
 20
558.4878743489583
 30
0.0
 10
64.02778862847222
 20
558.4689263237847
 30
0.0
 10
64.32406684027777
 20
558.446533203125
 30
0.0
 10
64.52491590711804
 20
558.6759765625
 30
0.0
 10
64.40709364149305
 20
558.9660536024305
 30
0.0
 10
64.26997884114583
 20
559.310218641493
 30
0.0
 10
63.22163628472222
 20
559.48212890625
 30
0.0
 10
63.34600423177083
 20
558.9278130425347
 30
0.0
 10
63.49552137586805
 20
558.8833713107639
 30
0.0
 10
63.55925564236111
 20
558.7813964843749
 30
0.0
 10
63.66123046874999
 20
558.6887234157986
 30
0.0
  0
SPLINE
  5
189
330
A
100
AcDbEntity
  8
LAYER_1
 62
     7
100
AcDbSpline
210
0.0
220
0.0
230
1.0
 70
     8
 71
     3
 72
    17
 73
    13
 74
     0
 42
0.000000001
 43
0.00000001
 40
0.0
 40
0.0
 40
0.0
 40
0.0
 40
1.0
 40
1.0
 40
1.0
 40
2.0
 40
2.0
 40
2.0
 40
3.0
 40
3.0
 40
3.0
 40
4.0
 40
4.0
 40
4.0
 40
4.0
 10
67.02639973958333
 20
571.7477023654513
 30
0.0
 10
67.40570475260417
 20
571.1548014322916
 30
0.0
 10
68.16086968315972
 20
571.6267795138889
 30
0.0
 10
68.50813530815972
 20
572.0057400173611
 30
0.0
 10
68.75342610677083
 20
572.2672227647569
 30
0.0
 10
68.86849229600693
 20
572.2861707899305
 30
0.0
 10
68.81405978732639
 20
572.694070095486
 30
0.0
 10
68.78236490885416
 20
572.8949191623263
 30
0.0
 10
68.64525010850694
 20
573.3889458550346
 30
0.0
 10
68.52088216145833
 20
573.541908094618
 30
0.0
 10
67.37366536458333
 20
574.9182237413194
 30
0.0
 10
66.13722059461804
 20
570.8585232204861
 30
0.0
 10
67.66684299045139
 20
571.5151584201388
 30
0.0
  0
SPLINE
  5
188
330
A
100
AcDbEntity
  8
LAYER_1
 62
     7
100
AcDbSpline
210
0.0
220
0.0
230
1.0
 70
    11
 71
     3
 72
    14
 73
    10
 74
     0
 42
0.000000001
 43
0.00000001
 40
0.0
 40
0.0
 40
0.0
 40
0.0
 40
1.0
 40
1.0
 40
1.0
 40
2.0
 40
2.0
 40
2.0
 40
3.0
 40
3.0
 40
3.0
 40
3.0
 10
69.68084581163194
 20
568.4686604817708
 30
0.0
 10
69.54063042534722
 20
569.112548828125
 30
0.0
 10
68.91293402777777
 20
569.2303710937499
 30
0.0
 10
68.4953884548611
 20
568.7425455729166
 30
0.0
 10
68.27249077690972
 20
568.4814073350694
 30
0.0
 10
67.5683132595486
 20
568.1117485894097
 30
0.0
 10
67.63204752604166
 20
567.7227973090278
 30
0.0
 10
67.76571723090277
 20
566.9200900607639
 30
0.0
 10
69.90718858506943
 20
567.4203179253471
 30
0.0
 10
69.68084581163194
 20
568.4686604817708
 30
0.0
  0
SPLINE
  5
187
330
A
100
AcDbEntity
  8
LAYER_1
 62
     7
100
AcDbSpline
210
0.0
220
0.0
230
1.0
 70
    11
 71
     3
 72
    11
 73
     7
 74
     0
 42
0.000000001
 43
0.00000001
 40
0.0
 40
0.0
 40
0.0
 40
0.0
 40
1.0
 40
1.0
 40
1.0
 40
2.0
 40
2.0
 40
2.0
 40
2.0
 10
67.87733832465277
 20
566.4036702473958
 30
0.0
 10
67.87733832465277
 20
566.9741780598957
 30
0.0
 10
66.8892849392361
 20
568.08935546875
 30
0.0
 10
66.63124728732639
 20
567.1684814453124
 30
0.0
 10
66.41765136718749
 20
566.4067708333333
 30
0.0
 10
67.87733832465277
 20
565.4793511284722
 30
0.0
 10
67.87733832465277
 20
566.4036702473958
 30
0.0
  0
SPLINE
  5
186
330
A
100
AcDbEntity
  8
LAYER_1
 62
     7
100
AcDbSpline
210
0.0
220
0.0
230
1.0
 70
    11
 71
     3
 72
    11
 73
     7
 74
     0
 42
0.000000001
 43
0.00000001
 40
0.0
 40
0.0
 40
0.0
 40
0.0
 40
1.0
 40
1.0
 40
1.0
 40
2.0
 40
2.0
 40
2.0
 40
2.0
 10
68.19600965711805
 20
565.0590494791666
 30
0.0
 10
68.76307237413194
 20
565.4476562499999
 30
0.0
 10
68.13847656249999
 20
565.8844943576388
 30
0.0
 10
67.66684299045139
 20
565.8779486762153
 30
0.0
 10
66.70462782118055
 20
565.8714029947917
 30
0.0
 10
67.62550184461804
 20
564.6573513454861
 30
0.0
 10
68.19600965711805
 20
565.0590494791666
 30
0.0
  0
SPLINE
  5
185
330
A
100
AcDbEntity
  8
LAYER_1
 62
     7
100
AcDbSpline
210
0.0
220
0.0
230
1.0
 70
     8
 71
     3
 72
    17
 73
    13
 74
     0
 42
0.000000001
 43
0.00000001
 40
0.0
 40
0.0
 40
0.0
 40
0.0
 40
1.0
 40
1.0
 40
1.0
 40
2.0
 40
2.0
 40
2.0
 40
3.0
 40
3.0
 40
3.0
 40
4.0
 40
4.0
 40
4.0
 40
4.0
 10
24.08293999565972
 20
621.0167019314235
 30
0.0
 10
24.08293999565972
 20
621.0167019314235
 30
0.0
 10
23.5985595703125
 20
621.590310329861
 30
0.0
 10
23.39150933159722
 20
620.9688151041667
 30
0.0
 10
23.18445909288194
 20
620.3473198784721
 30
0.0
 10
23.07283799913194
 20
619.8184977213541
 30
0.0
 10
22.98050944010416
 20
619.4743326822916
 30
0.0
 10
22.88473578559028
 20
619.1270670572916
 30
0.0
 10
22.93262261284722
 20
618.8242431640624
 30
0.0
 10
23.27678765190972
 20
619.0092447916666
 30
0.0
 10
23.62095269097222
 20
619.1939019097222
 30
0.0
 10
23.69088812934028
 20
619.2386881510416
 30
0.0
 10
23.69088812934028
 20
619.2386881510416
 30
0.0
  0
SPLINE
  5
184
330
A
100
AcDbEntity
  8
LAYER_1
 62
     7
100
AcDbSpline
210
0.0
220
0.0
230
1.0
 70
     8
 71
     3
 72
    11
 73
     7
 74
     0
 42
0.000000001
 43
0.00000001
 40
0.0
 40
0.0
 40
0.0
 40
0.0
 40
1.0
 40
1.0
 40
1.0
 40
2.0
 40
2.0
 40
2.0
 40
2.0
 10
23.39150933159722
 20
618.7350151909721
 30
0.0
 10
23.39150933159722
 20
618.7350151909721
 30
0.0
 10
22.51817762586805
 20
618.4545844184028
 30
0.0
 10
22.05619032118056
 20
616.536355251736
 30
0.0
 10
21.60040418836805
 20
614.6115804036458
 30
0.0
 10
21.8746337890625
 20
614.3821370442707
 30
0.0
 10
22.7924072265625
 20
614.241921657986
 30
0.0
  0
SPLINE
  5
183
330
A
100
AcDbEntity
  8
LAYER_1
 62
     7
100
AcDbSpline
210
0.0
220
0.0
230
1.0
 70
     8
 71
     3
 72
    14
 73
    10
 74
     0
 42
0.000000001
 43
0.00000001
 40
0.0
 40
0.0
 40
0.0
 40
0.0
 40
1.0
 40
1.0
 40
1.0
 40
2.0
 40
2.0
 40
2.0
 40
3.0
 40
3.0
 40
3.0
 40
3.0
 10
25.40241156684028
 20
625.0540093315972
 30
0.0
 10
25.40241156684028
 20
625.0540093315972
 30
0.0
 10
24.43985188802083
 20
624.9616807725694
 30
0.0
 10
24.16252170138889
 20
623.7255805121528
 30
0.0
 10
23.88863661024305
 20
622.4922363281249
 30
0.0
 10
24.25829535590277
 20
622.8109076605903
 30
0.0
 10
23.9365234375
 20
622.0781358506944
 30
0.0
 10
23.61440700954861
 20
621.3415744357638
 30
0.0
 10
24.48773871527778
 20
621.9410210503472
 30
0.0
 10
24.624853515625
 20
622.0364501953125
 30
0.0
  0
SPLINE
  5
182
330
A
100
AcDbEntity
  8
LAYER_1
 62
     7
100
AcDbSpline
210
0.0
220
0.0
230
1.0
 70
     8
 71
     3
 72
     8
 73
     4
 74
     0
 42
0.000000001
 43
0.00000001
 40
0.0
 40
0.0
 40
0.0
 40
0.0
 40
1.0
 40
1.0
 40
1.0
 40
1.0
 10
22.60775010850694
 20
613.8305772569444
 30
0.0
 10
22.60775010850694
 20
613.8305772569444
 30
0.0
 10
22.05619032118056
 20
613.6045789930555
 30
0.0
 10
22.01174858940972
 20
612.7315917968749
 30
0.0
  0
SPLINE
  5
181
330
A
100
AcDbEntity
  8
LAYER_1
 62
     7
100
AcDbSpline
210
0.0
220
0.0
230
1.0
 70
     8
 71
     3
 72
    26
 73
    22
 74
     0
 42
0.000000001
 43
0.00000001
 40
0.0
 40
0.0
 40
0.0
 40
0.0
 40
1.0
 40
1.0
 40
1.0
 40
2.0
 40
2.0
 40
2.0
 40
3.0
 40
3.0
 40
3.0
 40
4.0
 40
4.0
 40
4.0
 40
5.0
 40
5.0
 40
5.0
 40
6.0
 40
6.0
 40
6.0
 40
7.0
 40
7.0
 40
7.0
 40
7.0
 10
21.6451904296875
 20
612.7315917968749
 30
0.0
 10
21.6451904296875
 20
612.7315917968749
 30
0.0
 10
21.28207736545139
 20
612.5975775824652
 30
0.0
 10
21.41884765625
 20
611.8613606770833
 30
0.0
 10
21.55596245659722
 20
611.131689453125
 30
0.0
 10
20.27507595486111
 20
610.1663736979166
 30
0.0
 10
20.13486056857639
 20
609.7550292968749
 30
0.0
 10
19.99774576822917
 20
609.3440294053819
 30
0.0
 10
20.13486056857639
 20
607.7858127170139
 30
0.0
 10
22.65219184027778
 20
608.6525987413194
 30
0.0
 10
22.65219184027778
 20
608.6525987413194
 30
0.0
 10
23.61440700954861
 20
609.2513563368055
 30
0.0
 10
23.56996527777778
 20
609.2995876736111
 30
0.0
 10
23.52517903645833
 20
609.3440294053819
 30
0.0
 10
24.80641004774305
 20
608.6525987413194
 30
0.0
 10
25.083740234375
 20
609.2038140190972
 30
0.0
 10
25.083740234375
 20
609.2038140190972
 30
0.0
 10
26.36462673611111
 20
608.7897135416666
 30
0.0
 10
26.91584201388889
 20
610.443359375
 30
0.0
 10
26.91584201388889
 20
610.443359375
 30
0.0
 10
28.05995822482639
 20
609.5255859375
 30
0.0
 10
28.33418782552083
 20
610.3031439887152
 30
0.0
  0
SPLINE
  5
180
330
A
100
AcDbEntity
  8
LAYER_1
 62
     7
100
AcDbSpline
210
0.0
220
0.0
230
1.0
 70
     8
 71
     3
 72
     8
 73
     4
 74
     0
 42
0.000000001
 43
0.00000001
 40
0.0
 40
0.0
 40
0.0
 40
0.0
 40
1.0
 40
1.0
 40
1.0
 40
1.0
 10
28.74828830295139
 20
610.6218153211805
 30
0.0
 10
28.74828830295139
 20
610.6218153211805
 30
0.0
 10
30.12184787326389
 20
609.8442572699652
 30
0.0
 10
30.2586181640625
 20
610.9404866536457
 30
0.0
  0
SPLINE
  5
17F
330
A
100
AcDbEntity
  8
LAYER_1
 62
     7
100
AcDbSpline
210
0.0
220
0.0
230
1.0
 70
     8
 71
     3
 72
    11
 73
     7
 74
     0
 42
0.000000001
 43
0.00000001
 40
0.0
 40
0.0
 40
0.0
 40
0.0
 40
1.0
 40
1.0
 40
1.0
 40
2.0
 40
2.0
 40
2.0
 40
2.0
 10
32.23127983940972
 20
611.0807020399305
 30
0.0
 10
32.23127983940972
 20
611.0807020399305
 30
0.0
 10
31.44717610677083
 20
610.2139160156249
 30
0.0
 10
31.08406304253472
 20
610.3923719618055
 30
0.0
 10
31.08406304253472
 20
610.3923719618055
 30
0.0
 10
30.81017795138889
 20
610.8547037760416
 30
0.0
 10
30.85461968315972
 20
610.9404866536457
 30
0.0
  0
SPLINE
  5
17E
330
A
100
AcDbEntity
  8
LAYER_1
 62
     7
100
AcDbSpline
210
0.0
220
0.0
230
1.0
 70
     8
 71
     3
 72
    23
 73
    19
 74
     0
 42
0.000000001
 43
0.00000001
 40
0.0
 40
0.0
 40
0.0
 40
0.0
 40
1.0
 40
1.0
 40
1.0
 40
2.0
 40
2.0
 40
2.0
 40
3.0
 40
3.0
 40
3.0
 40
4.0
 40
4.0
 40
4.0
 40
5.0
 40
5.0
 40
5.0
 40
6.0
 40
6.0
 40
6.0
 40
6.0
 10
32.96095106336805
 20
610.9945746527777
 30
0.0
 10
32.96095106336805
 20
610.9945746527777
 30
0.0
 10
32.73150770399305
 20
610.1663736979166
 30
0.0
 10
32.73150770399305
 20
610.1663736979166
 30
0.0
 10
32.73150770399305
 20
610.1663736979166
 30
0.0
 10
33.467724609375
 20
609.5255859375
 30
0.0
 10
34.1560546875
 20
610.118142361111
 30
0.0
 10
34.83783908420138
 20
610.7141438802083
 30
0.0
 10
35.57095540364583
 20
609.8921440972222
 30
0.0
 10
35.84484049479166
 20
610.0737006293402
 30
0.0
 10
35.85138617621527
 20
610.0737006293402
 30
0.0
 10
36.03294270833333
 20
609.9334852430555
 30
0.0
 10
36.07772894965277
 20
609.9396864149305
 30
0.0
 10
36.38365342881944
 20
609.9589789496528
 30
0.0
 10
36.05223524305556
 20
610.3796251085068
 30
0.0
 10
36.07772894965277
 20
610.4530056423611
 30
0.0
 10
36.24653862847222
 20
610.8894992404513
 30
0.0
 10
38.09483235677083
 20
609.659255642361
 30
0.0
 10
37.68038736979166
 20
610.8991455078125
 30
0.0
  0
SPLINE
  5
17D
330
A
100
AcDbEntity
  8
LAYER_1
 62
     7
100
AcDbSpline
210
0.0
220
0.0
230
1.0
 70
     8
 71
     3
 72
    38
 73
    34
 74
     0
 42
0.000000001
 43
0.00000001
 40
0.0
 40
0.0
 40
0.0
 40
0.0
 40
1.0
 40
1.0
 40
1.0
 40
2.0
 40
2.0
 40
2.0
 40
3.0
 40
3.0
 40
3.0
 40
4.0
 40
4.0
 40
4.0
 40
5.0
 40
5.0
 40
5.0
 40
6.0
 40
6.0
 40
6.0
 40
7.0
 40
7.0
 40
7.0
 40
8.0
 40
8.0
 40
8.0
 40
9.0
 40
9.0
 40
9.0
 40
10.0
 40
10.0
 40
10.0
 40
11.0
 40
11.0
 40
11.0
 40
11.0
 10
38.41350368923611
 20
611.1764756944444
 30
0.0
 10
38.41350368923611
 20
611.1764756944444
 30
0.0
 10
39.42050509982639
 20
609.9396864149305
 30
0.0
 10
39.46494683159722
 20
610.6218153211805
 30
0.0
 10
39.51283365885416
 20
611.3135904947916
 30
0.0
 10
39.14627549913194
 20
611.6353624131943
 30
0.0
 10
39.37571885850694
 20
612.0432617187499
 30
0.0
 10
39.60206163194444
 20
612.4573621961805
 30
0.0
 10
39.64994845920138
 20
613.419921875
 30
0.0
 10
39.69439019097222
 20
613.6938069661458
 30
0.0
 10
39.74227701822916
 20
613.9676920572916
 30
0.0
 10
39.83150499131944
 20
615.389138454861
 30
0.0
 10
39.60206163194444
 20
615.8001383463541
 30
0.0
 10
39.37571885850694
 20
616.2145833333333
 30
0.0
 10
39.46494683159722
 20
618.8721299913194
 30
0.0
 10
39.64994845920138
 20
619.2831298828124
 30
0.0
 10
39.83150499131944
 20
619.6941297743055
 30
0.0
 10
40.38272026909722
 20
621.7115776909721
 30
0.0
 10
40.56427680121527
 20
622.3999077690971
 30
0.0
 10
40.74617784288194
 20
623.084792751736
 30
0.0
 10
40.88639322916666
 20
624.5537814670138
 30
0.0
 10
40.88639322916666
 20
624.9616807725694
 30
0.0
 10
40.88639322916666
 20
625.3761257595486
 30
0.0
 10
41.02006293402778
 20
626.1088975694444
 30
0.0
 10
41.11583658854166
 20
626.3383409288194
 30
0.0
 10
41.20816514756944
 20
626.5677842881944
 30
0.0
 10
41.3897216796875
 20
626.6125705295138
 30
0.0
 10
41.48205023871527
 20
627.0235704210069
 30
0.0
 10
41.48205023871527
 20
627.0235704210069
 30
0.0
 10
41.34527994791667
 20
628.0340169270833
 30
0.0
 10
40.83850640190972
 20
628.5817871093749
 30
0.0
 10
40.83850640190972
 20
628.5817871093749
 30
0.0
 10
40.74617784288194
 20
629.2225748697916
 30
0.0
 10
40.74617784288194
 20
629.2225748697916
 30
0.0
  0
SPLINE
  5
17C
330
A
100
AcDbEntity
  8
LAYER_1
 62
     7
100
AcDbSpline
210
0.0
220
0.0
230
1.0
 70
     8
 71
     3
 72
    17
 73
    13
 74
     0
 42
0.000000001
 43
0.00000001
 40
0.0
 40
0.0
 40
0.0
 40
0.0
 40
1.0
 40
1.0
 40
1.0
 40
2.0
 40
2.0
 40
2.0
 40
3.0
 40
3.0
 40
3.0
 40
4.0
 40
4.0
 40
4.0
 40
4.0
 10
40.88639322916666
 20
629.8182318793403
 30
0.0
 10
40.88639322916666
 20
629.8182318793403
 30
0.0
 10
41.80416666666666
 20
629.9136610243055
 30
0.0
 10
41.80416666666666
 20
629.9136610243055
 30
0.0
 10
41.80416666666666
 20
629.9136610243055
 30
0.0
 10
42.21516655815972
 20
629.9136610243055
 30
0.0
 10
42.21516655815972
 20
629.4547743055555
 30
0.0
 10
42.21516655815972
 20
628.9931315104166
 30
0.0
 10
42.39672309027777
 20
628.9483452690972
 30
0.0
 10
41.8486083984375
 20
628.9070041232638
 30
0.0
 10
41.29739312065972
 20
628.8560167100694
 30
0.0
 10
41.16027832031249
 20
628.9931315104166
 30
0.0
 10
41.16027832031249
 20
628.9931315104166
 30
0.0
  0
SPLINE
  5
17B
330
A
100
AcDbEntity
  8
LAYER_1
 62
     7
100
AcDbSpline
210
0.0
220
0.0
230
1.0
 70
     8
 71
     3
 72
     8
 73
     4
 74
     0
 42
0.000000001
 43
0.00000001
 40
0.0
 40
0.0
 40
0.0
 40
0.0
 40
1.0
 40
1.0
 40
1.0
 40
1.0
 10
24.76506890190972
 20
624.8280110677083
 30
0.0
 10
24.76506890190972
 20
624.8280110677083
 30
0.0
 10
24.624853515625
 20
625.1497829861111
 30
0.0
 10
25.03585340711805
 20
626.7972276475693
 30
0.0
  0
SPLINE
  5
17A
330
A
100
AcDbEntity
  8
LAYER_1
 62
     7
100
AcDbSpline
210
0.0
220
0.0
230
1.0
 70
     8
 71
     3
 72
    20
 73
    16
 74
     0
 42
0.000000001
 43
0.00000001
 40
0.0
 40
0.0
 40
0.0
 40
0.0
 40
1.0
 40
1.0
 40
1.0
 40
2.0
 40
2.0
 40
2.0
 40
3.0
 40
3.0
 40
3.0
 40
4.0
 40
4.0
 40
4.0
 40
5.0
 40
5.0
 40
5.0
 40
5.0
 10
41.20816514756944
 20
633.1610080295138
 30
0.0
 10
41.20816514756944
 20
633.1610080295138
 30
0.0
 10
41.9822781032986
 20
633.346009657118
 30
0.0
 10
41.9822781032986
 20
633.346009657118
 30
0.0
 10
41.9822781032986
 20
633.346009657118
 30
0.0
 10
42.48905164930555
 20
633.2533365885416
 30
0.0
 10
42.25960828993055
 20
632.5650065104167
 30
0.0
 10
42.03326551649305
 20
631.8766764322916
 30
0.0
 10
42.03326551649305
 20
631.4243353949652
 30
0.0
 10
41.9822781032986
 20
631.2365776909721
 30
0.0
 10
41.94093695746528
 20
631.0581217447916
 30
0.0
 10
42.21516655815972
 20
631.0098904079861
 30
0.0
 10
41.66705186631944
 20
630.8700195312499
 30
0.0
 10
41.11583658854166
 20
630.7360053168402
 30
0.0
 10
40.83850640190972
 20
630.7804470486111
 30
0.0
 10
40.83850640190972
 20
630.7804470486111
 30
0.0
  0
SPLINE
  5
179
330
A
100
AcDbEntity
  8
LAYER_1
 62
     7
100
AcDbSpline
210
0.0
220
0.0
230
1.0
 70
     8
 71
     3
 72
    14
 73
    10
 74
     0
 42
0.000000001
 43
0.00000001
 40
0.0
 40
0.0
 40
0.0
 40
0.0
 40
1.0
 40
1.0
 40
1.0
 40
2.0
 40
2.0
 40
2.0
 40
3.0
 40
3.0
 40
3.0
 40
3.0
 10
41.80416666666666
 20
639.5309895833333
 30
0.0
 10
41.80416666666666
 20
639.5309895833333
 30
0.0
 10
43.451611328125
 20
639.7604329427082
 30
0.0
 10
42.58482530381944
 20
637.0584445529513
 30
0.0
 10
42.58482530381944
 20
637.0584445529513
 30
0.0
 10
42.35228135850694
 20
635.8536946614582
 30
0.0
 10
41.80416666666666
 20
635.8536946614582
 30
0.0
 10
41.80416666666666
 20
635.8536946614582
 30
0.0
 10
41.80416666666666
 20
635.8536946614582
 30
0.0
 10
41.80416666666666
 20
635.8536946614582
 30
0.0
  0
SPLINE
  5
178
330
A
100
AcDbEntity
  8
LAYER_1
 62
     7
100
AcDbSpline
210
0.0
220
0.0
230
1.0
 70
     8
 71
     3
 72
    17
 73
    13
 74
     0
 42
0.000000001
 43
0.00000001
 40
0.0
 40
0.0
 40
0.0
 40
0.0
 40
1.0
 40
1.0
 40
1.0
 40
2.0
 40
2.0
 40
2.0
 40
3.0
 40
3.0
 40
3.0
 40
4.0
 40
4.0
 40
4.0
 40
4.0
 10
42.25960828993055
 20
636.1851128472222
 30
0.0
 10
42.25960828993055
 20
636.1851128472222
 30
0.0
 10
42.9958251953125
 20
636.1406711154514
 30
0.0
 10
42.9958251953125
 20
636.1406711154514
 30
0.0
 10
42.9958251953125
 20
636.1406711154514
 30
0.0
 10
43.31449652777778
 20
636.0035563151041
 30
0.0
 10
42.90349663628472
 20
635.3121256510416
 30
0.0
 10
42.48905164930555
 20
634.6299967447916
 30
0.0
 10
42.35228135850694
 20
634.4453396267361
 30
0.0
 10
42.0780517578125
 20
634.5824544270832
 30
0.0
 10
41.80416666666666
 20
634.7195692274305
 30
0.0
 10
41.66705186631944
 20
634.8563395182291
 30
0.0
 10
41.66705186631944
 20
634.8563395182291
 30
0.0
  0
SPLINE
  5
177
330
A
100
AcDbEntity
  8
LAYER_1
 62
     7
100
AcDbSpline
210
0.0
220
0.0
230
1.0
 70
     8
 71
     3
 72
    17
 73
    13
 74
     0
 42
0.000000001
 43
0.00000001
 40
0.0
 40
0.0
 40
0.0
 40
0.0
 40
1.0
 40
1.0
 40
1.0
 40
2.0
 40
2.0
 40
2.0
 40
3.0
 40
3.0
 40
3.0
 40
4.0
 40
4.0
 40
4.0
 40
4.0
 10
26.09074164496528
 20
636.2329996744791
 30
0.0
 10
26.09074164496528
 20
636.2329996744791
 30
0.0
 10
25.95362684461805
 20
635.1367702907986
 30
0.0
 10
26.09074164496528
 20
634.7195692274305
 30
0.0
 10
26.22751193576389
 20
634.3082248263888
 30
0.0
 10
26.40941297743055
 20
633.8527832031249
 30
0.0
 10
26.13518337673611
 20
633.533767361111
 30
0.0
 10
25.85785319010417
 20
633.2088948567708
 30
0.0
 10
25.49474012586805
 20
632.8902235243055
 30
0.0
 10
25.58396809895833
 20
632.7500081380208
 30
0.0
 10
25.67939724392361
 20
632.6132378472222
 30
0.0
 10
25.76862521701389
 20
632.2911214192708
 30
0.0
 10
25.90884060329861
 20
632.3390082465277
 30
0.0
  0
SPLINE
  5
176
330
A
100
AcDbEntity
  8
LAYER_1
 62
     7
100
AcDbSpline
210
0.0
220
0.0
230
1.0
 70
     8
 71
     3
 72
     8
 73
     4
 74
     0
 42
0.000000001
 43
0.00000001
 40
0.0
 40
0.0
 40
0.0
 40
0.0
 40
1.0
 40
1.0
 40
1.0
 40
1.0
 10
26.36462673611111
 20
632.0172363281249
 30
0.0
 10
26.36462673611111
 20
632.0172363281249
 30
0.0
 10
25.76862521701389
 20
631.0098904079861
 30
0.0
 10
25.72108289930555
 20
630.1878906249999
 30
0.0
  0
LINE
  5
175
330
A
100
AcDbEntity
  8
LAYER_1
 62
     7
100
AcDbLine
 10
25.721083
 20
630.369792
 30
0.0
 11
26.18307
 21
630.417334
 31
0.0
  0
SPLINE
  5
174
330
A
100
AcDbEntity
  8
LAYER_1
 62
     7
100
AcDbSpline
210
0.0
220
0.0
230
1.0
 70
     8
 71
     3
 72
    11
 73
     7
 74
     0
 42
0.000000001
 43
0.00000001
 40
0.0
 40
0.0
 40
0.0
 40
0.0
 40
1.0
 40
1.0
 40
1.0
 40
2.0
 40
2.0
 40
2.0
 40
2.0
 10
25.85785319010417
 20
630.3215603298611
 30
0.0
 10
25.85785319010417
 20
630.3215603298611
 30
0.0
 10
25.30973849826389
 20
628.3523437499999
 30
0.0
 10
25.53918185763889
 20
628.3523437499999
 30
0.0
 10
25.76862521701389
 20
628.3523437499999
 30
0.0
 10
25.95362684461805
 20
628.4481174045138
 30
0.0
 10
25.95362684461805
 20
628.4481174045138
 30
0.0
  0
SPLINE
  5
173
330
A
100
AcDbEntity
  8
LAYER_1
 62
     7
100
AcDbSpline
210
0.0
220
0.0
230
1.0
 70
     8
 71
     3
 72
    23
 73
    19
 74
     0
 42
0.000000001
 43
0.00000001
 40
0.0
 40
0.0
 40
0.0
 40
0.0
 40
1.0
 40
1.0
 40
1.0
 40
2.0
 40
2.0
 40
2.0
 40
3.0
 40
3.0
 40
3.0
 40
4.0
 40
4.0
 40
4.0
 40
5.0
 40
5.0
 40
5.0
 40
6.0
 40
6.0
 40
6.0
 40
6.0
 10
24.85085177951389
 20
626.5233425564236
 30
0.0
 10
24.89563802083333
 20
626.4913031684027
 30
0.0
 10
24.94007975260416
 20
626.4658094618055
 30
0.0
 10
24.98486599392361
 20
626.4437608506944
 30
0.0
 10
25.02310655381944
 20
626.8292670355902
 30
0.0
 10
24.95282660590278
 20
627.8934570312499
 30
0.0
 10
25.56467556423611
 20
627.1224446614583
 30
0.0
 10
25.45649956597222
 20
627.2912543402778
 30
0.0
 10
25.52023383246528
 20
627.2530137803819
 30
0.0
 10
25.3162841796875
 20
627.3040011935764
 30
0.0
 10
25.28424479166667
 20
627.5110514322917
 30
0.0
 10
25.4341064453125
 20
627.664013671875
 30
0.0
 10
25.61910807291666
 20
627.7470404730902
 30
0.0
 10
25.21740993923611
 20
627.6833062065972
 30
0.0
 10
25.37037217881944
 20
628.132546657986
 30
0.0
 10
25.45649956597222
 20
628.346142578125
 30
0.0
 10
25.51368815104166
 20
628.3523437499999
 30
0.0
 10
25.57122124565972
 20
628.3523437499999
 30
0.0
 10
25.63185492621528
 20
628.3523437499999
 30
0.0
  0
SPLINE
  5
172
330
A
100
AcDbEntity
  8
LAYER_1
 62
     7
100
AcDbSpline
210
0.0
220
0.0
230
1.0
 70
     8
 71
     3
 72
    17
 73
    13
 74
     0
 42
0.000000001
 43
0.00000001
 40
0.0
 40
0.0
 40
0.0
 40
0.0
 40
1.0
 40
1.0
 40
1.0
 40
2.0
 40
2.0
 40
2.0
 40
3.0
 40
3.0
 40
3.0
 40
4.0
 40
4.0
 40
4.0
 40
4.0
 10
58.33959147135416
 20
638.3841172960069
 30
0.0
 10
58.33959147135416
 20
638.3841172960069
 30
0.0
 10
57.74358995225694
 20
637.6988878038194
 30
0.0
 10
57.79147677951389
 20
637.4663438585069
 30
0.0
 10
57.83626302083333
 20
637.2400010850694
 30
0.0
 10
57.65126139322916
 20
637.0074571397569
 30
0.0
 10
58.75369194878472
 20
637.0584445529513
 30
0.0
 10
59.84992133246527
 20
637.1028862847222
 30
0.0
 10
60.17203776041666
 20
636.9182291666666
 30
0.0
 10
60.62747938368055
 20
637.4663438585069
 30
0.0
 10
61.08981119791666
 20
638.0206597222221
 30
0.0
 10
61.13425292968749
 20
638.0654459635416
 30
0.0
 10
61.08981119791666
 20
638.1546739366319
 30
0.0
  0
SPLINE
  5
171
330
A
100
AcDbEntity
  8
LAYER_1
 62
     7
100
AcDbSpline
210
0.0
220
0.0
230
1.0
 70
     8
 71
     3
 72
    11
 73
     7
 74
     0
 42
0.000000001
 43
0.00000001
 40
0.0
 40
0.0
 40
0.0
 40
0.0
 40
1.0
 40
1.0
 40
1.0
 40
2.0
 40
2.0
 40
2.0
 40
2.0
 10
49.49672037760416
 20
640.7643337673611
 30
0.0
 10
49.49672037760416
 20
640.7643337673611
 30
0.0
 10
49.40439181857639
 20
640.4460069444444
 30
0.0
 10
49.40439181857639
 20
640.123890516493
 30
0.0
 10
49.40439181857639
 20
639.8052191840277
 30
0.0
 10
49.68137749565972
 20
639.4930935329861
 30
0.0
 10
49.36270616319444
 20
639.1678765190971
 30
0.0
  0
SPLINE
  5
170
330
A
100
AcDbEntity
  8
LAYER_1
 62
     7
100
AcDbSpline
210
0.0
220
0.0
230
1.0
 70
     8
 71
     3
 72
    14
 73
    10
 74
     0
 42
0.000000001
 43
0.00000001
 40
0.0
 40
0.0
 40
0.0
 40
0.0
 40
1.0
 40
1.0
 40
1.0
 40
2.0
 40
2.0
 40
2.0
 40
3.0
 40
3.0
 40
3.0
 40
3.0
 10
44.22916937934028
 20
639.8500054253471
 30
0.0
 10
45.24547254774305
 20
639.9836751302083
 30
0.0
 10
46.29415961371527
 20
639.3015462239583
 30
0.0
 10
47.26292046440972
 20
639.1168891059027
 30
0.0
 10
47.75040147569444
 20
639.0214599609375
 30
0.0
 10
48.30816243489583
 20
639.0149142795138
 30
0.0
 10
48.81149088541666
 20
639.0373074001735
 30
0.0
 10
49.4202392578125
 20
639.0693467881944
 30
0.0
 10
49.652783203125
 20
639.4035210503472
 30
0.0
 10
49.36270616319444
 20
639.9898763020833
 30
0.0
  0
SPLINE
  5
16F
330
A
100
AcDbEntity
  8
LAYER_1
 62
     7
100
AcDbSpline
210
0.0
220
0.0
230
1.0
 70
     8
 71
     3
 72
    14
 73
    10
 74
     0
 42
0.000000001
 43
0.00000001
 40
0.0
 40
0.0
 40
0.0
 40
0.0
 40
1.0
 40
1.0
 40
1.0
 40
2.0
 40
2.0
 40
2.0
 40
3.0
 40
3.0
 40
3.0
 40
3.0
 10
54.71948513454861
 20
639.3497775607639
 30
0.0
 10
54.35292697482638
 20
639.1168891059027
 30
0.0
 10
54.03460015190971
 20
639.3911187065971
 30
0.0
 10
53.6680419921875
 20
639.5185872395833
 30
0.0
 10
53.17711588541666
 20
639.7032443576388
 30
0.0
 10
52.93492567274305
 20
639.4545084635416
 30
0.0
 10
52.47603895399305
 20
639.263650173611
 30
0.0
 10
52.04264594184027
 20
639.0948404947916
 30
0.0
 10
50.56091037326389
 20
638.4605984157986
 30
0.0
 10
50.64049207899305
 20
639.5309895833333
 30
0.0
  0
SPLINE
  5
16E
330
A
100
AcDbEntity
  8
LAYER_1
 62
     7
100
AcDbSpline
210
0.0
220
0.0
230
1.0
 70
     8
 71
     3
 72
    17
 73
    13
 74
     0
 42
0.000000001
 43
0.00000001
 40
0.0
 40
0.0
 40
0.0
 40
0.0
 40
1.0
 40
1.0
 40
1.0
 40
2.0
 40
2.0
 40
2.0
 40
3.0
 40
3.0
 40
3.0
 40
4.0
 40
4.0
 40
4.0
 40
4.0
 10
62.737255859375
 20
635.6373426649305
 30
0.0
 10
62.92845865885416
 20
635.4967827690972
 30
0.0
 10
63.26952311197916
 20
635.4967827690972
 30
0.0
 10
63.47347276475694
 20
635.3503662109374
 30
0.0
 10
63.71221788194444
 20
635.1846571180555
 30
0.0
 10
63.83038465711805
 20
634.8497938368055
 30
0.0
 10
64.14561089409722
 20
634.7767578124999
 30
0.0
 10
64.76400553385416
 20
634.6299967447916
 30
0.0
 10
65.11747233072916
 20
635.6752387152777
 30
0.0
 10
65.53191731770833
 20
635.4554416232638
 30
0.0
 10
65.57635904947917
 20
635.4905815972222
 30
0.0
 10
65.58945041232639
 20
635.5353678385416
 30
0.0
 10
65.57980414496527
 20
635.5925564236111
 30
0.0
  0
SPLINE
  5
16D
330
A
100
AcDbEntity
  8
LAYER_1
 62
     7
100
AcDbSpline
210
0.0
220
0.0
230
1.0
 70
     8
 71
     3
 72
    14
 73
    10
 74
     0
 42
0.000000001
 43
0.00000001
 40
0.0
 40
0.0
 40
0.0
 40
0.0
 40
1.0
 40
1.0
 40
1.0
 40
2.0
 40
2.0
 40
2.0
 40
3.0
 40
3.0
 40
3.0
 40
3.0
 10
66.35391710069443
 20
635.4523410373263
 30
0.0
 10
66.68533528645833
 20
635.3758599175346
 30
0.0
 10
67.01365288628472
 20
635.0826822916666
 30
0.0
 10
67.36436360677082
 20
634.9614149305555
 30
0.0
 10
67.74986979166665
 20
634.8215440538194
 30
0.0
 10
68.08438856336805
 20
634.8084526909722
 30
0.0
 10
68.50813530815972
 20
634.8084526909722
 30
0.0
 10
68.87159288194444
 20
634.8084526909722
 30
0.0
 10
70.69094780815972
 20
634.7002766927083
 30
0.0
 10
70.38846842447916
 20
635.3121256510416
 30
0.0
  0
SPLINE
  5
16C
330
A
100
AcDbEntity
  8
LAYER_1
 62
     7
100
AcDbSpline
210
0.0
220
0.0
230
1.0
 70
     8
 71
     3
 72
     8
 73
     4
 74
     0
 42
0.000000001
 43
0.00000001
 40
0.0
 40
0.0
 40
0.0
 40
0.0
 40
1.0
 40
1.0
 40
1.0
 40
1.0
 10
72.45001356336805
 20
635.0826822916666
 30
0.0
 10
72.43726671006944
 20
634.611048719618
 30
0.0
 10
70.41396213107639
 20
634.6492892795138
 30
0.0
 10
70.52558322482638
 20
635.4078993055555
 30
0.0
  0
SPLINE
  5
16B
330
A
100
AcDbEntity
  8
LAYER_1
 62
     7
100
AcDbSpline
210
0.0
220
0.0
230
1.0
 70
     8
 71
     3
 72
    11
 73
     7
 74
     0
 42
0.000000001
 43
0.00000001
 40
0.0
 40
0.0
 40
0.0
 40
0.0
 40
1.0
 40
1.0
 40
1.0
 40
2.0
 40
2.0
 40
2.0
 40
2.0
 10
74.32690158420138
 20
634.6299967447916
 30
0.0
 10
74.69035915798611
 20
634.0946289062499
 30
0.0
 10
73.64511718749999
 20
634.1394151475694
 30
0.0
 10
73.36158582899304
 20
634.215896267361
 30
0.0
 10
72.89959852430555
 20
634.3371636284721
 30
0.0
 10
72.70839572482639
 20
634.6237955729166
 30
0.0
 10
72.40247124565971
 20
634.9490125868055
 30
0.0
  0
SPLINE
  5
16A
330
A
100
AcDbEntity
  8
LAYER_1
 62
     7
100
AcDbSpline
210
0.0
220
0.0
230
1.0
 70
     8
 71
     3
 72
    20
 73
    16
 74
     0
 42
0.000000001
 43
0.00000001
 40
0.0
 40
0.0
 40
0.0
 40
0.0
 40
1.0
 40
1.0
 40
1.0
 40
2.0
 40
2.0
 40
2.0
 40
3.0
 40
3.0
 40
3.0
 40
4.0
 40
4.0
 40
4.0
 40
5.0
 40
5.0
 40
5.0
 40
5.0
 10
75.1523464626736
 20
634.8084526909722
 30
0.0
 10
75.41072862413193
 20
634.5693630642361
 30
0.0
 10
75.59848632812499
 20
634.2827311197916
 30
0.0
 10
75.96814507378471
 20
634.209695095486
 30
0.0
 10
76.16899414062499
 20
634.1649088541666
 30
0.0
 10
76.35709635416666
 20
634.2606825086805
 30
0.0
 10
76.56104600694444
 20
634.2220974392361
 30
0.0
 10
76.94345160590277
 20
634.1614637586805
 30
0.0
 10
76.65337456597221
 20
634.2286431206596
 30
0.0
 10
76.84457736545139
 20
633.9416666666666
 30
0.0
 10
77.0995144314236
 20
633.5530598958333
 30
0.0
 10
77.34170464409722
 20
633.3808051215277
 30
0.0
 10
77.80679253472222
 20
633.2533365885416
 30
0.0
 10
78.116162109375
 20
633.1706542968749
 30
0.0
 10
78.97020128038194
 20
632.8681749131944
 30
0.0
 10
78.8137939453125
 20
633.527566189236
 30
0.0
  0
SPLINE
  5
169
330
A
100
AcDbEntity
  8
LAYER_1
 62
     7
100
AcDbSpline
210
0.0
220
0.0
230
1.0
 70
     8
 71
     3
 72
    11
 73
     7
 74
     0
 42
0.000000001
 43
0.00000001
 40
0.0
 40
0.0
 40
0.0
 40
0.0
 40
1.0
 40
1.0
 40
1.0
 40
2.0
 40
2.0
 40
2.0
 40
2.0
 10
79.09112413194444
 20
632.9315646701389
 30
0.0
 10
79.36845431857638
 20
632.587744140625
 30
0.0
 10
79.58205023871527
 20
632.5526041666666
 30
0.0
 10
80.00889756944444
 20
632.3996419270833
 30
0.0
 10
80.6651882595486
 20
632.1509060329861
 30
0.0
 10
80.40094943576388
 20
632.3197157118055
 30
0.0
 10
80.33066948784722
 20
632.887122938368
 30
0.0
  0
SPLINE
  5
168
330
A
100
AcDbEntity
  8
LAYER_1
 62
     7
100
AcDbSpline
210
0.0
220
0.0
230
1.0
 70
     8
 71
     3
 72
     8
 73
     4
 74
     0
 42
0.000000001
 43
0.00000001
 40
0.0
 40
0.0
 40
0.0
 40
0.0
 40
1.0
 40
1.0
 40
1.0
 40
1.0
 10
80.92357042100694
 20
632.9794514973958
 30
0.0
 10
81.14026692708333
 20
632.7372612847222
 30
0.0
 10
82.67609049479167
 20
631.9183620876736
 30
0.0
 10
82.61890190972221
 20
632.6607801649305
 30
0.0
  0
SPLINE
  5
167
330
A
100
AcDbEntity
  8
LAYER_1
 62
     7
100
AcDbSpline
210
0.0
220
0.0
230
1.0
 70
     8
 71
     3
 72
    17
 73
    13
 74
     0
 42
0.000000001
 43
0.00000001
 40
0.0
 40
0.0
 40
0.0
 40
0.0
 40
1.0
 40
1.0
 40
1.0
 40
2.0
 40
2.0
 40
2.0
 40
3.0
 40
3.0
 40
3.0
 40
4.0
 40
4.0
 40
4.0
 40
4.0
 10
84.12923177083333
 20
632.4761230468749
 30
0.0
 10
81.9271267361111
 20
631.1917914496527
 30
0.0
 10
85.84385579427082
 20
631.0898166232638
 30
0.0
 10
85.68744845920138
 20
631.8642740885416
 30
0.0
 10
85.57927246093749
 20
631.1311577690972
 30
0.0
 10
86.15908203125
 20
631.3798936631944
 30
0.0
 10
86.65310872395833
 20
631.2841200086805
 30
0.0
 10
87.06755371093749
 20
631.2045383029513
 30
0.0
 10
87.51334906684026
 20
630.8955132378471
 30
0.0
 10
87.96913519965277
 20
630.9719943576388
 30
0.0
 10
88.0104763454861
 20
631.0608778211805
 30
0.0
 10
88.05216200086805
 20
631.2300320095486
 30
0.0
 10
88.07111002604167
 20
631.099462890625
 30
0.0
  0
SPLINE
  5
166
330
A
100
AcDbEntity
  8
LAYER_1
 62
     7
100
AcDbSpline
210
0.0
220
0.0
230
1.0
 70
     8
 71
     3
 72
    17
 73
    13
 74
     0
 42
0.000000001
 43
0.00000001
 40
0.0
 40
0.0
 40
0.0
 40
0.0
 40
1.0
 40
1.0
 40
1.0
 40
2.0
 40
2.0
 40
2.0
 40
3.0
 40
3.0
 40
3.0
 40
4.0
 40
4.0
 40
4.0
 40
4.0
 10
88.66401095920138
 20
630.9175618489583
 30
0.0
 10
88.20512424045138
 20
630.7232584635416
 30
0.0
 10
89.32340223524305
 20
630.1017632378472
 30
0.0
 10
89.53389756944443
 20
629.9901421440971
 30
0.0
 10
90.17124023437499
 20
629.6652696397568
 30
0.0
 10
90.49955783420138
 20
629.8309787326389
 30
0.0
 10
90.83097601996526
 20
630.4111328124999
 30
0.0
 10
91.12725423177082
 20
630.4014865451388
 30
0.0
 10
91.28331705729165
 20
630.1148546006943
 30
0.0
 10
91.64332953559027
 20
630.0893608940971
 30
0.0
 10
91.98129340277777
 20
630.0700683593749
 30
0.0
 10
92.38919270833333
 20
630.1685980902777
 30
0.0
 10
92.56110297309027
 20
630.3697916666666
 30
0.0
  0
SPLINE
  5
165
330
A
100
AcDbEntity
  8
LAYER_1
 62
     7
100
AcDbSpline
210
0.0
220
0.0
230
1.0
 70
     8
 71
     3
 72
    20
 73
    16
 74
     0
 42
0.000000001
 43
0.00000001
 40
0.0
 40
0.0
 40
0.0
 40
0.0
 40
1.0
 40
1.0
 40
1.0
 40
2.0
 40
2.0
 40
2.0
 40
3.0
 40
3.0
 40
3.0
 40
4.0
 40
4.0
 40
4.0
 40
5.0
 40
5.0
 40
5.0
 40
5.0
 10
92.51666124131944
 20
630.3215603298611
 30
0.0
 10
92.97864854600694
 20
630.2230305989583
 30
0.0
 10
93.55845811631944
 20
629.7896375868055
 30
0.0
 10
93.89642198350694
 20
629.5092068142361
 30
0.0
 10
94.36150987413194
 20
629.1299018012152
 30
0.0
 10
94.8748291015625
 20
628.8939127604166
 30
0.0
 10
95.39710557725694
 20
628.6806613498263
 30
0.0
 10
95.98690592447916
 20
628.4384711371528
 30
0.0
 10
96.6084011501736
 20
628.5945339626736
 30
0.0
 10
97.1882107204861
 20
628.3654351128472
 30
0.0
 10
97.83175455729166
 20
628.1132541232638
 30
0.0
 10
98.22380642361111
 20
627.9382432725694
 30
0.0
 10
98.92178276909722
 20
628.0850043402777
 30
0.0
 10
98.902490234375
 20
628.1738878038194
 30
0.0
 10
98.87389594184027
 20
628.2951551649305
 30
0.0
 10
98.83565538194443
 20
628.3523437499999
 30
0.0
  0
SPLINE
  5
164
330
A
100
AcDbEntity
  8
LAYER_1
 62
     7
100
AcDbSpline
210
0.0
220
0.0
230
1.0
 70
     8
 71
     3
 72
     8
 73
     4
 74
     0
 42
0.000000001
 43
0.00000001
 40
0.0
 40
0.0
 40
0.0
 40
0.0
 40
1.0
 40
1.0
 40
1.0
 40
1.0
 10
99.56877170138888
 20
628.6265733506943
 30
0.0
 10
100.0848470052083
 20
628.1263454861111
 30
0.0
 10
100.8909993489583
 20
627.4476616753471
 30
0.0
 10
101.4456597222222
 20
628.2634602864583
 30
0.0
  0
SPLINE
  5
163
330
A
100
AcDbEntity
  8
LAYER_1
 62
     7
100
AcDbSpline
210
0.0
220
0.0
230
1.0
 70
     8
 71
     3
 72
    14
 73
    10
 74
     0
 42
0.000000001
 43
0.00000001
 40
0.0
 40
0.0
 40
0.0
 40
0.0
 40
1.0
 40
1.0
 40
1.0
 40
2.0
 40
2.0
 40
2.0
 40
3.0
 40
3.0
 40
3.0
 40
3.0
 10
101.8597601996528
 20
627.9857855902777
 30
0.0
 10
101.5221408420139
 20
627.7087999131944
 30
0.0
 10
101.8184190538194
 20
627.316748046875
 30
0.0
 10
102.1308892144097
 20
627.151038953993
 30
0.0
 10
102.6724582248264
 20
626.861306423611
 30
0.0
 10
102.8795084635417
 20
627.2499131944444
 30
0.0
 10
103.3225477430556
 20
627.4731553819444
 30
0.0
 10
102.7392930772569
 20
626.8103190104166
 30
0.0
 10
104.9286512586805
 20
625.7905707465277
 30
0.0
 10
105.2473225911458
 20
626.6573567708333
 30
0.0
  0
POLYLINE
  5
15E
330
A
100
AcDbEntity
  8
LAYER_1
 62
     7
100
AcDb2dPolyline
 66
     1
 10
0.0
 20
0.0
 30
0.0
  0
VERTEX
  5
15F
330
15E
100
AcDbEntity
  8
LAYER_1
 62
     7
100
AcDbVertex
100
AcDb2dVertex
 10
104.514206
 20
626.383127
 30
0.0
  0
VERTEX
  5
160
330
15E
100
AcDbEntity
  8
LAYER_1
 62
     7
100
AcDbVertex
100
AcDb2dVertex
 10
103.689106
 20
621.756019
 30
0.0
  0
VERTEX
  5
161
330
15E
100
AcDbEntity
  8
LAYER_1
 62
     7
100
AcDbVertex
100
AcDb2dVertex
 10
103.740093
 20
620.838246
 30
0.0
  0
SEQEND
  5
162
330
15E
100
AcDbEntity
  8
LAYER_1
 62
     7
  0
SPLINE
  5
15D
330
A
100
AcDbEntity
  8
LAYER_1
 62
     7
100
AcDbSpline
210
0.0
220
0.0
230
1.0
 70
     8
 71
     3
 72
    17
 73
    13
 74
     0
 42
0.000000001
 43
0.00000001
 40
0.0
 40
0.0
 40
0.0
 40
0.0
 40
1.0
 40
1.0
 40
1.0
 40
2.0
 40
2.0
 40
2.0
 40
3.0
 40
3.0
 40
3.0
 40
4.0
 40
4.0
 40
4.0
 40
4.0
 10
104.3326497395833
 20
621.4821343315972
 30
0.0
 10
104.5049045138889
 20
621.3098795572917
 30
0.0
 10
104.3774359809028
 20
621.067689344618
 30
0.0
 10
104.4122314453125
 20
620.838245985243
 30
0.0
 10
104.466663953993
 20
620.4878797743055
 30
0.0
 10
104.5111056857639
 20
620.4813340928819
 30
0.0
 10
104.8328776041667
 20
620.3283718532986
 30
0.0
 10
105.2917643229167
 20
620.1116753472222
 30
0.0
 10
105.20908203125
 20
620.2009033203125
 30
0.0
 10
105.5308539496528
 20
620.5230197482638
 30
0.0
 10
105.7286024305555
 20
620.7138780381944
 30
0.0
 10
105.9577012803819
 20
620.8158528645832
 30
0.0
 10
106.0279812282986
 20
621.115576171875
 30
0.0
  0
SPLINE
  5
15C
330
A
100
AcDbEntity
  8
LAYER_1
 62
     7
100
AcDbSpline
210
0.0
220
0.0
230
1.0
 70
     8
 71
     3
 72
    20
 73
    16
 74
     0
 42
0.000000001
 43
0.00000001
 40
0.0
 40
0.0
 40
0.0
 40
0.0
 40
1.0
 40
1.0
 40
1.0
 40
2.0
 40
2.0
 40
2.0
 40
3.0
 40
3.0
 40
3.0
 40
4.0
 40
4.0
 40
4.0
 40
5.0
 40
5.0
 40
5.0
 40
5.0
 10
115.9705268012153
 20
619.0057996961805
 30
0.0
 10
116.340185546875
 20
618.5916992187499
 30
0.0
 10
116.0563096788194
 20
618.2919759114583
 30
0.0
 10
116.7477403428819
 20
618.0563313802082
 30
0.0
 10
116.9137939453125
 20
618.0053439670138
 30
0.0
 10
117.2927544487847
 20
617.8172417534722
 30
0.0
 10
117.4808566623264
 20
617.8299886067708
 30
0.0
 10
117.792982313368
 20
617.8427354600694
 30
0.0
 10
117.8281222873264
 20
618.0563313802082
 30
0.0
 10
118.064111328125
 20
618.2251410590277
 30
0.0
 10
118.3283501519097
 20
617.7028645833333
 30
0.0
 10
118.5643391927083
 20
617.4158881293403
 30
0.0
 10
119.1348470052083
 20
617.3232150607638
 30
0.0
 10
119.7370496961805
 20
617.2308865017361
 30
0.0
 10
120.2596706814236
 20
617.332861328125
 30
0.0
 10
120.2724175347222
 20
618.0435845269096
 30
0.0
  0
SPLINE
  5
15B
330
A
100
AcDbEntity
  8
LAYER_1
 62
     7
100
AcDbSpline
210
0.0
220
0.0
230
1.0
 70
     8
 71
     3
 72
    17
 73
    13
 74
     0
 42
0.000000001
 43
0.00000001
 40
0.0
 40
0.0
 40
0.0
 40
0.0
 40
1.0
 40
1.0
 40
1.0
 40
2.0
 40
2.0
 40
2.0
 40
3.0
 40
3.0
 40
3.0
 40
4.0
 40
4.0
 40
4.0
 40
4.0
 10
113.6313069661458
 20
619.1939019097222
 30
0.0
 10
113.586865234375
 20
619.044384765625
 30
0.0
 10
113.5741183810764
 20
618.8914225260417
 30
0.0
 10
113.59306640625
 20
618.7412163628471
 30
0.0
 10
113.94033203125
 20
618.5758517795139
 30
0.0
 10
114.3737250434028
 20
618.6233940972222
 30
0.0
 10
114.73408203125
 20
618.5503580729167
 30
0.0
 10
114.9697265625
 20
618.4993706597222
 30
0.0
 10
115.3459309895833
 20
618.3398627387152
 30
0.0
 10
115.546435546875
 20
618.4194444444444
 30
0.0
 10
115.5626274956597
 20
618.6712809244791
 30
0.0
 10
115.5560818142361
 20
618.9327636718749
 30
0.0
 10
115.5560818142361
 20
619.1939019097222
 30
0.0
  0
SPLINE
  5
15A
330
A
100
AcDbEntity
  8
LAYER_1
 62
     7
100
AcDbSpline
210
0.0
220
0.0
230
1.0
 70
     8
 71
     3
 72
    17
 73
    13
 74
     0
 42
0.000000001
 43
0.00000001
 40
0.0
 40
0.0
 40
0.0
 40
0.0
 40
1.0
 40
1.0
 40
1.0
 40
2.0
 40
2.0
 40
2.0
 40
3.0
 40
3.0
 40
3.0
 40
4.0
 40
4.0
 40
4.0
 40
4.0
 10
106.1203097873264
 20
620.608802625868
 30
0.0
 10
106.0376274956597
 20
619.9904079861111
 30
0.0
 10
106.6460313585069
 20
619.7354709201388
 30
0.0
 10
107.1655517578125
 20
620.0224473741318
 30
0.0
 10
107.0987169053819
 20
620.2009033203125
 30
0.0
 10
107.1466037326389
 20
620.3859049479166
 30
0.0
 10
107.3057671440972
 20
620.5002821180555
 30
0.0
 10
107.1559054904514
 20
620.1530164930555
 30
0.0
 10
107.5224636501736
 20
619.7072211371527
 30
0.0
 10
107.9048692491319
 20
619.7389160156249
 30
0.0
 10
108.379603407118
 20
619.7802571614583
 30
0.0
 10
108.4085422092014
 20
620.4175998263888
 30
0.0
 10
108.4085422092014
 20
620.7938042534722
 30
0.0
  0
SPLINE
  5
159
330
A
100
AcDbEntity
  8
LAYER_1
 62
     7
100
AcDbSpline
210
0.0
220
0.0
230
1.0
 70
     8
 71
     3
 72
    32
 73
    28
 74
     0
 42
0.000000001
 43
0.00000001
 40
0.0
 40
0.0
 40
0.0
 40
0.0
 40
1.0
 40
1.0
 40
1.0
 40
2.0
 40
2.0
 40
2.0
 40
3.0
 40
3.0
 40
3.0
 40
4.0
 40
4.0
 40
4.0
 40
5.0
 40
5.0
 40
5.0
 40
6.0
 40
6.0
 40
6.0
 40
7.0
 40
7.0
 40
7.0
 40
8.0
 40
8.0
 40
8.0
 40
9.0
 40
9.0
 40
9.0
 40
9.0
 10
109.00419921875
 20
620.2870307074652
 30
0.0
 10
109.0586317274306
 20
620.086181640625
 30
0.0
 10
108.9277180989583
 20
619.8119520399305
 30
0.0
 10
109.0968722873264
 20
619.6527886284722
 30
0.0
 10
109.2243408203125
 20
619.5315212673611
 30
0.0
 10
109.5588595920139
 20
619.6145480685764
 30
0.0
 10
109.7373155381944
 20
619.5921549479166
 30
0.0
 10
110.1386691623264
 20
619.5446126302082
 30
0.0
 10
110.7412163628472
 20
619.1939019097222
 30
0.0
 10
110.7091769748264
 20
619.8694851345485
 30
0.0
 10
110.9227728949653
 20
619.7006754557291
 30
0.0
 10
110.9641140407986
 20
619.2510904947916
 30
0.0
 10
111.2572916666667
 20
619.1556613498263
 30
0.0
 10
111.7482177734375
 20
618.9961534288194
 30
0.0
 10
111.8722412109375
 20
619.4998263888888
 30
0.0
 10
111.7640652126736
 20
619.8281439887152
 30
0.0
 10
111.7289252387153
 20
619.6145480685764
 30
0.0
 10
111.7606201171875
 20
619.3851047092013
 30
0.0
 10
111.8467475043403
 20
619.1939019097222
 30
0.0
 10
112.1337239583333
 20
619.2255967881944
 30
0.0
 10
112.0730902777778
 20
619.5253200954861
 30
0.0
 10
112.1209771050347
 20
619.7485622829861
 30
0.0
 10
112.168519422743
 20
619.4488389756943
 30
0.0
 10
111.8722412109375
 20
618.830788845486
 30
0.0
 10
112.5319769965278
 20
618.9196723090278
 30
0.0
 10
112.9429768880208
 20
618.9706597222222
 30
0.0
 10
113.0738905164931
 20
619.3851047092013
 30
0.0
 10
113.1310791015625
 20
619.7389160156249
 30
0.0
  0
SPLINE
  5
158
330
A
100
AcDbEntity
  8
LAYER_1
 62
     7
100
AcDbSpline
210
0.0
220
0.0
230
1.0
 70
     8
 71
     3
 72
    11
 73
     7
 74
     0
 42
0.000000001
 43
0.00000001
 40
0.0
 40
0.0
 40
0.0
 40
0.0
 40
1.0
 40
1.0
 40
1.0
 40
2.0
 40
2.0
 40
2.0
 40
2.0
 10
120.9607476128472
 20
617.6325846354166
 30
0.0
 10
120.7853922526042
 20
616.8040391710069
 30
0.0
 10
121.4130886501736
 20
616.6510769314235
 30
0.0
 10
122.1048638237847
 20
616.542556423611
 30
0.0
 10
122.6402316623264
 20
616.4564290364583
 30
0.0
 10
123.870130750868
 20
616.0009874131944
 30
0.0
 10
123.7554090711805
 20
616.8994683159722
 30
0.0
  0
SPLINE
  5
157
330
A
100
AcDbEntity
  8
LAYER_1
 62
     7
100
AcDbSpline
210
0.0
220
0.0
230
1.0
 70
     8
 71
     3
 72
    11
 73
     7
 74
     0
 42
0.000000001
 43
0.00000001
 40
0.0
 40
0.0
 40
0.0
 40
0.0
 40
1.0
 40
1.0
 40
1.0
 40
2.0
 40
2.0
 40
2.0
 40
2.0
 10
124.1219672309028
 20
616.9442545572916
 30
0.0
 10
124.1791558159722
 20
616.1222547743055
 30
0.0
 10
125.0397406684028
 20
615.7460503472222
 30
0.0
 10
125.8107530381944
 20
616.0361273871528
 30
0.0
 10
125.6801839192708
 20
616.4471272786458
 30
0.0
 10
125.9764621310764
 20
616.9697482638888
 30
0.0
 10
125.817298719618
 20
617.45068359375
 30
0.0
  0
SPLINE
  5
156
330
A
100
AcDbEntity
  8
LAYER_1
 62
     7
100
AcDbSpline
210
0.0
220
0.0
230
1.0
 70
     8
 71
     3
 72
    17
 73
    13
 74
     0
 42
0.000000001
 43
0.00000001
 40
0.0
 40
0.0
 40
0.0
 40
0.0
 40
1.0
 40
1.0
 40
1.0
 40
2.0
 40
2.0
 40
2.0
 40
3.0
 40
3.0
 40
3.0
 40
4.0
 40
4.0
 40
4.0
 40
4.0
 10
127.0089572482639
 20
616.4884684244792
 30
0.0
 10
126.795361328125
 20
616.4757215711805
 30
0.0
 10
126.6678927951389
 20
616.3131130642361
 30
0.0
 10
126.4959825303819
 20
616.2176839192708
 30
0.0
 10
126.6010579427083
 20
616.1091634114583
 30
0.0
 10
126.9610704210069
 20
616.0392279730902
 30
0.0
 10
127.1429714626736
 20
615.9499999999999
 30
0.0
 10
127.3786159939236
 20
615.8287326388888
 30
0.0
 10
127.4488959418403
 20
615.6888617621527
 30
0.0
 10
127.7324273003472
 20
615.6599229600694
 30
0.0
 10
128.3825168185764
 20
615.5992892795139
 30
0.0
 10
128.1689208984375
 20
615.9947862413194
 30
0.0
 10
128.1975151909722
 20
616.4405815972221
 30
0.0
  0
SPLINE
  5
155
330
A
100
AcDbEntity
  8
LAYER_1
 62
     7
100
AcDbSpline
210
0.0
220
0.0
230
1.0
 70
     8
 71
     3
 72
    20
 73
    16
 74
     0
 42
0.000000001
 43
0.00000001
 40
0.0
 40
0.0
 40
0.0
 40
0.0
 40
1.0
 40
1.0
 40
1.0
 40
2.0
 40
2.0
 40
2.0
 40
3.0
 40
3.0
 40
3.0
 40
4.0
 40
4.0
 40
4.0
 40
5.0
 40
5.0
 40
5.0
 40
5.0
 10
128.7042887369792
 20
616.1666965060763
 30
0.0
 10
128.2006157769097
 20
616.2304307725694
 30
0.0
 10
128.0476535373264
 20
615.6661241319443
 30
0.0
 10
128.5671739366319
 20
615.5262532552083
 30
0.0
 10
128.9654269748264
 20
615.4146321614583
 30
0.0
 10
129.31923828125
 20
615.4876681857638
 30
0.0
 10
129.7081895616319
 20
615.3443522135416
 30
0.0
 10
129.895947265625
 20
615.2744167751736
 30
0.0
 10
130.4950493706597
 20
614.8854654947916
 30
0.0
 10
130.6735053168403
 20
614.9715928819444
 30
0.0
 10
130.80751953125
 20
615.0322265625
 30
0.0
 10
130.8426595052083
 20
615.3443522135416
 30
0.0
 10
130.8554063585069
 20
615.4783664279513
 30
0.0
 10
130.8681532118055
 20
615.5868869357638
 30
0.0
 10
130.8554063585069
 20
616.0871148003472
 30
0.0
 10
130.8554063585069
 20
615.9372531467013
 30
0.0
  0
SPLINE
  5
154
330
A
100
AcDbEntity
  8
LAYER_1
 62
     7
100
AcDbSpline
210
0.0
220
0.0
230
1.0
 70
     8
 71
     3
 72
    11
 73
     7
 74
     0
 42
0.000000001
 43
0.00000001
 40
0.0
 40
0.0
 40
0.0
 40
0.0
 40
1.0
 40
1.0
 40
1.0
 40
2.0
 40
2.0
 40
2.0
 40
2.0
 10
131.3587348090278
 20
615.6633680555555
 30
0.0
 10
131.3015462239583
 20
615.0770128038193
 30
0.0
 10
131.7476860894097
 20
614.92060546875
 30
0.0
 10
132.2734076605903
 20
614.9268066406249
 30
0.0
 10
132.9744845920139
 20
614.9398980034722
 30
0.0
 10
132.7195475260417
 20
615.4401258680555
 30
0.0
 10
133.0571668836805
 20
615.8001383463541
 30
0.0
  0
SPLINE
  5
153
330
A
100
AcDbEntity
  8
LAYER_1
 62
     7
100
AcDbSpline
210
0.0
220
0.0
230
1.0
 70
     8
 71
     3
 72
    32
 73
    28
 74
     0
 42
0.000000001
 43
0.00000001
 40
0.0
 40
0.0
 40
0.0
 40
0.0
 40
1.0
 40
1.0
 40
1.0
 40
2.0
 40
2.0
 40
2.0
 40
3.0
 40
3.0
 40
3.0
 40
4.0
 40
4.0
 40
4.0
 40
5.0
 40
5.0
 40
5.0
 40
6.0
 40
6.0
 40
6.0
 40
7.0
 40
7.0
 40
7.0
 40
8.0
 40
8.0
 40
8.0
 40
9.0
 40
9.0
 40
9.0
 40
9.0
 10
133.56083984375
 20
615.4208333333332
 30
0.0
 10
133.5002061631944
 20
615.1596950954861
 30
0.0
 10
133.289710828993
 20
615.0129340277778
 30
0.0
 10
133.4681667751736
 20
614.7390489366319
 30
0.0
 10
133.6404215494792
 20
614.4713650173611
 30
0.0
 10
134.1310031467014
 20
614.3535427517361
 30
0.0
 10
134.4245252821181
 20
614.3122016059027
 30
0.0
 10
134.6346761067708
 20
614.2801622178819
 30
0.0
 10
135.2082845052083
 20
614.1847330729166
 30
0.0
 10
135.3898410373264
 20
614.3184027777777
 30
0.0
 10
135.5875895182292
 20
614.4586181640625
 30
0.0
 10
135.5620958116319
 20
615.0067328559027
 30
0.0
 10
135.5620958116319
 20
615.1851888020833
 30
0.0
 10
135.5682969835069
 20
614.3979844835069
 30
0.0
 10
135.5111083984375
 20
614.2102267795138
 30
0.0
 10
136.2535264756944
 20
614.248122829861
 30
0.0
 10
136.4095893012153
 20
614.2546685112846
 30
0.0
 10
136.725160047743
 20
614.1847330729166
 30
0.0
 10
136.836781141493
 20
614.3122016059027
 30
0.0
 10
136.9387559678819
 20
614.4331244574652
 30
0.0
 10
136.8174886067708
 20
614.707009548611
 30
0.0
 10
136.8495279947917
 20
614.8599717881943
 30
0.0
 10
137.0596788194444
 20
614.3979844835069
 30
0.0
 10
137.413490125868
 20
614.2546685112846
 30
0.0
 10
137.9106174045139
 20
614.1461480034721
 30
0.0
 10
138.4139458550347
 20
614.0317708333333
 30
0.0
 10
138.4077446831597
 20
614.4775661892361
 30
0.0
 10
138.6723280164931
 20
614.8027832031249
 30
0.0
  0
SPLINE
  5
152
330
A
100
AcDbEntity
  8
LAYER_1
 62
     7
100
AcDbSpline
210
0.0
220
0.0
230
1.0
 70
     8
 71
     3
 72
    11
 73
     7
 74
     0
 42
0.000000001
 43
0.00000001
 40
0.0
 40
0.0
 40
0.0
 40
0.0
 40
1.0
 40
1.0
 40
1.0
 40
2.0
 40
2.0
 40
2.0
 40
2.0
 10
139.0481879340278
 20
614.4520724826389
 30
0.0
 10
139.0833279079861
 20
614.2991102430555
 30
0.0
 10
139.2745307074653
 20
614.0572645399305
 30
0.0
 10
139.4626329210069
 20
614.0731119791666
 30
0.0
 10
139.7809597439236
 20
614.0986056857638
 30
0.0
 10
139.6696831597222
 20
614.3566433376735
 30
0.0
 10
139.6376437717014
 20
614.5605929904514
 30
0.0
  0
SPLINE
  5
151
330
A
100
AcDbEntity
  8
LAYER_1
 62
     7
100
AcDbSpline
210
0.0
220
0.0
230
1.0
 70
     8
 71
     3
 72
     8
 73
     4
 74
     0
 42
0.000000001
 43
0.00000001
 40
0.0
 40
0.0
 40
0.0
 40
0.0
 40
1.0
 40
1.0
 40
1.0
 40
1.0
 10
150.6474799262153
 20
613.8340223524305
 30
0.0
 10
149.9687961154514
 20
613.2635145399305
 30
0.0
 10
151.6162407769097
 20
613.2094265407985
 30
0.0
 10
151.8904703776041
 20
613.2442220052083
 30
0.0
  0
SPLINE
  5
150
330
A
100
AcDbEntity
  8
LAYER_1
 62
     7
100
AcDbSpline
210
0.0
220
0.0
230
1.0
 70
     8
 71
     3
 72
    11
 73
     7
 74
     0
 42
0.000000001
 43
0.00000001
 40
0.0
 40
0.0
 40
0.0
 40
0.0
 40
1.0
 40
1.0
 40
1.0
 40
2.0
 40
2.0
 40
2.0
 40
2.0
 10
145.332386610243
 20
614.2129828559027
 30
0.0
 10
146.0844509548611
 20
613.719300672743
 30
0.0
 10
144.6853976779514
 20
613.7127549913193
 30
0.0
 10
144.3891194661458
 20
613.7702880859374
 30
0.0
 10
144.0129150390625
 20
613.8595160590277
 30
0.0
 10
143.3566243489583
 20
614.2674153645833
 30
0.0
 10
143.8823459201389
 20
614.6625678168402
 30
0.0
  0
SPLINE
  5
14F
330
A
100
AcDbEntity
  8
LAYER_1
 62
     7
100
AcDbSpline
210
0.0
220
0.0
230
1.0
 70
     8
 71
     3
 72
    17
 73
    13
 74
     0
 42
0.000000001
 43
0.00000001
 40
0.0
 40
0.0
 40
0.0
 40
0.0
 40
1.0
 40
1.0
 40
1.0
 40
2.0
 40
2.0
 40
2.0
 40
3.0
 40
3.0
 40
3.0
 40
4.0
 40
4.0
 40
4.0
 40
4.0
 10
110.3364176432292
 20
626.6380642361111
 30
0.0
 10
110.5755072699653
 20
626.4499620225694
 30
0.0
 10
110.7122775607639
 20
626.051708984375
 30
0.0
 10
111.0853814019097
 20
625.9752278645833
 30
0.0
 10
111.4546956380208
 20
625.8987467447917
 30
0.0
 10
111.3720133463542
 20
626.1567843967014
 30
0.0
 10
111.5728624131944
 20
626.3193929036457
 30
0.0
 10
111.7289252387153
 20
626.4437608506944
 30
0.0
 10
112.0730902777778
 20
626.4306694878471
 30
0.0
 10
112.2642930772569
 20
626.3958740234374
 30
0.0
 10
112.5988118489583
 20
626.344886610243
 30
0.0
 10
114.7943712022569
 20
625.2297092013888
 30
0.0
 10
114.8550048828125
 20
625.9497341579861
 30
0.0
  0
SPLINE
  5
14E
330
A
100
AcDbEntity
  8
LAYER_1
 62
     7
100
AcDbSpline
210
0.0
220
0.0
230
1.0
 70
     8
 71
     3
 72
    17
 73
    13
 74
     0
 42
0.000000001
 43
0.00000001
 40
0.0
 40
0.0
 40
0.0
 40
0.0
 40
1.0
 40
1.0
 40
1.0
 40
2.0
 40
2.0
 40
2.0
 40
3.0
 40
3.0
 40
3.0
 40
4.0
 40
4.0
 40
4.0
 40
4.0
 10
118.0513644748264
 20
625.3344401041666
 30
0.0
 10
118.0513644748264
 20
625.3344401041666
 30
0.0
 10
119.1186550564236
 20
624.8820990668402
 30
0.0
 10
119.1186550564236
 20
624.8820990668402
 30
0.0
 10
123.1084201388889
 20
624.0377061631943
 30
0.0
 10
122.7167127821181
 20
624.7132893880208
 30
0.0
 10
122.7167127821181
 20
624.7132893880208
 30
0.0
 10
122.7167127821181
 20
624.7132893880208
 30
0.0
 10
122.8820773654514
 20
624.1524278428819
 30
0.0
 10
124.2842312282986
 20
623.6456542968749
 30
0.0
 10
125.6898301866319
 20
623.1392252604167
 30
0.0
 10
125.4665879991319
 20
624.0948947482639
 30
0.0
 10
125.4665879991319
 20
624.0948947482639
 30
0.0
  0
SPLINE
  5
14D
330
A
100
AcDbEntity
  8
LAYER_1
 62
     7
100
AcDbSpline
210
0.0
220
0.0
230
1.0
 70
     8
 71
     3
 72
     8
 73
     4
 74
     0
 42
0.000000001
 43
0.00000001
 40
0.0
 40
0.0
 40
0.0
 40
0.0
 40
1.0
 40
1.0
 40
1.0
 40
1.0
 10
125.4665879991319
 20
623.8654513888888
 30
0.0
 10
125.7025770399305
 20
623.4768446180555
 30
0.0
 10
126.1549180772569
 20
623.591566297743
 30
0.0
 10
126.5311225043403
 20
623.4768446180555
 30
0.0
  0
SPLINE
  5
14C
330
A
100
AcDbEntity
  8
LAYER_1
 62
     7
100
AcDbSpline
210
0.0
220
0.0
230
1.0
 70
     8
 71
     3
 72
    17
 73
    13
 74
     0
 42
0.000000001
 43
0.00000001
 40
0.0
 40
0.0
 40
0.0
 40
0.0
 40
1.0
 40
1.0
 40
1.0
 40
2.0
 40
2.0
 40
2.0
 40
3.0
 40
3.0
 40
3.0
 40
4.0
 40
4.0
 40
4.0
 40
4.0
 10
127.8216552734375
 20
623.8144639756944
 30
0.0
 10
127.8660970052083
 20
623.5726182725693
 30
0.0
 10
127.9904649522569
 20
623.3686686197916
 30
0.0
 10
128.0986409505208
 20
623.1516276041666
 30
0.0
 10
130.0299614800347
 20
623.1199327256944
 30
0.0
 10
131.8241672092014
 20
622.2848415798611
 30
0.0
 10
133.7327501085069
 20
622.1291232638888
 30
0.0
 10
134.8193332248264
 20
622.0429958767361
 30
0.0
 10
135.8297797309028
 20
621.9534233940972
 30
0.0
 10
136.9260091145833
 20
621.8514485677083
 30
0.0
 10
137.5506049262153
 20
621.7942599826388
 30
0.0
 10
139.0130479600694
 20
621.1824110243055
 30
0.0
 10
139.1691107855903
 20
622.1291232638888
 30
0.0
  0
SPLINE
  5
14B
330
A
100
AcDbEntity
  8
LAYER_1
 62
     7
100
AcDbSpline
210
0.0
220
0.0
230
1.0
 70
     8
 71
     3
 72
    11
 73
     7
 74
     0
 42
0.000000001
 43
0.00000001
 40
0.0
 40
0.0
 40
0.0
 40
0.0
 40
1.0
 40
1.0
 40
1.0
 40
2.0
 40
2.0
 40
2.0
 40
2.0
 10
139.9563151041667
 20
622.1828667534721
 30
0.0
 10
139.9501139322917
 20
621.5586154513888
 30
0.0
 10
141.0046576605903
 20
621.067689344618
 30
0.0
 10
141.4700900607639
 20
620.9529676649305
 30
0.0
 10
142.1043321397569
 20
620.7872585720486
 30
0.0
 10
143.161976453993
 20
620.8892333984375
 30
0.0
 10
143.608460828993
 20
620.3349175347222
 30
0.0
  0
SPLINE
  5
14A
330
A
100
AcDbEntity
  8
LAYER_1
 62
     7
100
AcDbSpline
210
0.0
220
0.0
230
1.0
 70
     8
 71
     3
 72
    14
 73
    10
 74
     0
 42
0.000000001
 43
0.00000001
 40
0.0
 40
0.0
 40
0.0
 40
0.0
 40
1.0
 40
1.0
 40
1.0
 40
2.0
 40
2.0
 40
2.0
 40
3.0
 40
3.0
 40
3.0
 40
3.0
 10
140.3514675564236
 20
614.3790364583333
 30
0.0
 10
140.3039252387153
 20
613.5026041666666
 30
0.0
 10
142.0213053385417
 20
613.5280978732638
 30
0.0
 10
141.6929877387153
 20
614.3056559244791
 30
0.0
 10
141.9672173394097
 20
613.7513400607638
 30
0.0
 10
142.744775390625
 20
613.6173258463541
 30
0.0
 10
143.3183837890625
 20
613.8243760850694
 30
0.0
 10
143.3149386935764
 20
613.9931857638888
 30
0.0
 10
143.3149386935764
 20
614.1654405381944
 30
0.0
 10
143.273597547743
 20
614.3246039496527
 30
0.0
  0
SPLINE
  5
149
330
A
100
AcDbEntity
  8
LAYER_1
 62
     7
100
AcDbSpline
210
0.0
220
0.0
230
1.0
 70
     8
 71
     3
 72
    11
 73
     7
 74
     0
 42
0.000000001
 43
0.00000001
 40
0.0
 40
0.0
 40
0.0
 40
0.0
 40
1.0
 40
1.0
 40
1.0
 40
2.0
 40
2.0
 40
2.0
 40
2.0
 10
145.9662841796875
 20
614.0986056857638
 30
0.0
 10
146.0555121527778
 20
613.6617675781249
 30
0.0
 10
146.7407416449653
 20
613.6173258463541
 30
0.0
 10
147.0242730034722
 20
613.885009765625
 30
0.0
 10
147.0022243923611
 20
614.0252251519097
 30
0.0
 10
146.9894775390625
 20
614.1971354166666
 30
0.0
 10
146.9257432725694
 20
614.3246039496527
 30
0.0
  0
SPLINE
  5
148
330
A
100
AcDbEntity
  8
LAYER_1
 62
     7
100
AcDbSpline
210
0.0
220
0.0
230
1.0
 70
     8
 71
     3
 72
    11
 73
     7
 74
     0
 42
0.000000001
 43
0.00000001
 40
0.0
 40
0.0
 40
0.0
 40
0.0
 40
1.0
 40
1.0
 40
1.0
 40
2.0
 40
2.0
 40
2.0
 40
2.0
 10
148.4360731336805
 20
614.0379720052083
 30
0.0
 10
148.3151502821181
 20
613.9997314453125
 30
0.0
 10
148.203529188368
 20
613.9043023003471
 30
0.0
 10
148.1077555338541
 20
613.8181749131944
 30
0.0
 10
148.3850857204861
 20
613.4833116319444
 30
0.0
 10
149.7458984375
 20
613.0564643012152
 30
0.0
 10
149.8988606770833
 20
613.7065538194444
 30
0.0
  0
SPLINE
  5
147
330
A
100
AcDbEntity
  8
LAYER_1
 62
     7
100
AcDbSpline
210
0.0
220
0.0
230
1.0
 70
     8
 71
     3
 72
     8
 73
     4
 74
     0
 42
0.000000001
 43
0.00000001
 40
0.0
 40
0.0
 40
0.0
 40
0.0
 40
1.0
 40
1.0
 40
1.0
 40
1.0
 10
153.1586100260417
 20
613.3114013671875
 30
0.0
 10
152.4640787760416
 20
612.6165256076388
 30
0.0
 10
154.2007514105903
 20
612.8080729166666
 30
0.0
 10
154.5607638888889
 20
612.8080729166666
 30
0.0
  0
SPLINE
  5
146
330
A
100
AcDbEntity
  8
LAYER_1
 62
     7
100
AcDbSpline
210
0.0
220
0.0
230
1.0
 70
    11
 71
     3
 72
    17
 73
    13
 74
     0
 42
0.000000001
 43
0.00000001
 40
0.0
 40
0.0
 40
0.0
 40
0.0
 40
1.0
 40
1.0
 40
1.0
 40
2.0
 40
2.0
 40
2.0
 40
3.0
 40
3.0
 40
3.0
 40
4.0
 40
4.0
 40
4.0
 40
4.0
 10
73.27235785590277
 20
553.6506157769097
 30
0.0
 10
73.20862358940971
 20
553.3701850043402
 30
0.0
 10
72.956787109375
 20
552.7076931423611
 30
0.0
 10
73.37743326822915
 20
552.6946017795138
 30
0.0
 10
73.74709201388889
 20
552.6849555121528
 30
0.0
 10
74.04026963975694
 20
552.9653862847222
 30
0.0
 10
74.17083875868055
 20
553.2871582031249
 30
0.0
 10
74.26971299913194
 20
553.5393391927083
 30
0.0
 10
74.26971299913194
 20
554.1284505208333
 30
0.0
 10
73.96998969184027
 20
554.2690104166666
 30
0.0
 10
73.61962348090277
 20
554.4343749999999
 30
0.0
 10
73.32954644097221
 20
553.9055528428819
 30
0.0
 10
73.27235785590277
 20
553.6506157769097
 30
0.0
  0
SPLINE
  5
145
330
A
100
AcDbEntity
  8
LAYER_1
 62
     7
100
AcDbSpline
210
0.0
220
0.0
230
1.0
 70
    11
 71
     3
 72
    26
 73
    22
 74
     0
 42
0.000000001
 43
0.00000001
 40
0.0
 40
0.0
 40
0.0
 40
0.0
 40
1.0
 40
1.0
 40
1.0
 40
2.0
 40
2.0
 40
2.0
 40
3.0
 40
3.0
 40
3.0
 40
4.0
 40
4.0
 40
4.0
 40
5.0
 40
5.0
 40
5.0
 40
6.0
 40
6.0
 40
6.0
 40
7.0
 40
7.0
 40
7.0
 40
7.0
 10
71.65660807291665
 20
553.2106770833333
 30
0.0
 10
71.7106960720486
 20
553.2237684461805
 30
0.0
 10
71.76822916666666
 20
553.2299696180555
 30
0.0
 10
71.81267089843749
 20
553.2334147135416
 30
0.0
 10
72.10929361979166
 20
553.2396158854166
 30
0.0
 10
72.43726671006944
 20
553.1407416449653
 30
0.0
 10
72.69220377604167
 20
552.9784776475694
 30
0.0
 10
72.845166015625
 20
552.8861490885416
 30
0.0
 10
73.074609375
 20
552.7266411675347
 30
0.0
 10
72.93439398871527
 20
552.5354383680555
 30
0.0
 10
72.76248372395833
 20
552.3059950086805
 30
0.0
 10
72.18577473958332
 20
552.4717041015624
 30
0.0
 10
71.94978569878471
 20
552.4717041015624
 30
0.0
 10
71.85745713975693
 20
552.4717041015624
 30
0.0
 10
71.66625434027777
 20
552.4462103949652
 30
0.0
 10
71.4781521267361
 20
552.4527560763888
 30
0.0
 10
71.2456081814236
 20
552.4527560763888
 30
0.0
 10
71.01926540798611
 20
552.4971978081596
 30
0.0
 10
70.99687228732638
 20
552.6660074869791
 30
0.0
 10
70.95553114149305
 20
552.9653862847222
 30
0.0
 10
71.36032986111111
 20
553.1534884982639
 30
0.0
 10
71.65660807291665
 20
553.2106770833333
 30
0.0
  0
SPLINE
  5
144
330
A
100
AcDbEntity
  8
LAYER_1
 62
     7
100
AcDbSpline
210
0.0
220
0.0
230
1.0
 70
    11
 71
     3
 72
    23
 73
    19
 74
     0
 42
0.000000001
 43
0.00000001
 40
0.0
 40
0.0
 40
0.0
 40
0.0
 40
1.0
 40
1.0
 40
1.0
 40
2.0
 40
2.0
 40
2.0
 40
3.0
 40
3.0
 40
3.0
 40
4.0
 40
4.0
 40
4.0
 40
5.0
 40
5.0
 40
5.0
 40
6.0
 40
6.0
 40
6.0
 40
6.0
 10
71.9370388454861
 20
554.6958577473957
 30
0.0
 10
71.67245551215277
 20
554.6893120659722
 30
0.0
 10
71.51639268663193
 20
554.7148057725694
 30
0.0
 10
71.49089898003471
 20
554.3899332682291
 30
0.0
 10
71.44645724826388
 20
553.7877305772569
 30
0.0
 10
72.00077311197916
 20
553.5200466579861
 30
0.0
 10
72.52029351128472
 20
553.5675889756944
 30
0.0
 10
72.83586425781249
 20
553.5930826822917
 30
0.0
 10
73.26581217447917
 20
553.8132242838541
 30
0.0
 10
73.42221950954861
 20
554.1160481770833
 30
0.0
 10
73.50180121527777
 20
554.2690104166666
 30
0.0
 10
73.45701497395832
 20
554.491908094618
 30
0.0
 10
73.34229329427083
 20
554.6162760416667
 30
0.0
 10
73.23411729600694
 20
554.7278971354166
 30
0.0
 10
72.92164713541666
 20
554.763037109375
 30
0.0
 10
72.77212999131943
 20
554.7819851345486
 30
0.0
 10
72.48515353732638
 20
554.8233262803819
 30
0.0
 10
72.22401529947916
 20
554.7024034288194
 30
0.0
 10
71.9370388454861
 20
554.6958577473957
 30
0.0
  0
INSERT
  5
140
330
A
100
AcDbEntity
  8
LAYER_1
 62
     7
100
AcDbBlockReference
  2
AI9-BLK52
 10
36.158861
 20
607.986317
 30
0.0
  0
INSERT
  5
13B
330
A
100
AcDbEntity
  8
LAYER_1
 62
     7
100
AcDbBlockReference
  2
AI9-BLK51
 10
34.94636
 20
602.365127
 30
0.0
  0
INSERT
  5
136
330
A
100
AcDbEntity
  8
LAYER_1
 62
     7
100
AcDbBlockReference
  2
AI9-BLK50
 10
36.99378
 20
595.152131
 30
0.0
  0
INSERT
  5
131
330
A
100
AcDbEntity
  8
LAYER_1
 62
     7
100
AcDbBlockReference
  2
AI9-BLK49
 10
32.639179
 20
589.387625
 30
0.0
  0
INSERT
  5
12C
330
A
100
AcDbEntity
  8
LAYER_1
 62
     7
100
AcDbBlockReference
  2
AI9-BLK48
 10
32.401812
 20
580.833108
 30
0.0
  0
INSERT
  5
127
330
A
100
AcDbEntity
  8
LAYER_1
 62
     7
100
AcDbBlockReference
  2
AI9-BLK47
 10
32.621609
 20
573.270951
 30
0.0
  0
INSERT
  5
122
330
A
100
AcDbEntity
  8
LAYER_1
 62
     7
100
AcDbBlockReference
  2
AI9-BLK46
 10
30.575911
 20
565.237161
 30
0.0
  0
INSERT
  5
11D
330
A
100
AcDbEntity
  8
LAYER_1
 62
     7
100
AcDbBlockReference
  2
AI9-BLK45
 10
29.555991
 20
560.165808
 30
0.0
  0
INSERT
  5
118
330
A
100
AcDbEntity
  8
LAYER_1
 62
     7
100
AcDbBlockReference
  2
AI9-BLK44
 10
30.537499
 20
555.749196
 30
0.0
  0
INSERT
  5
113
330
A
100
AcDbEntity
  8
LAYER_1
 62
     7
100
AcDbBlockReference
  2
AI9-BLK43
 10
138.49525
 20
610.08972
 30
0.0
  0
INSERT
  5
10E
330
A
100
AcDbEntity
  8
LAYER_1
 62
     7
100
AcDbBlockReference
  2
AI9-BLK42
 10
139.784233
 20
606.988962
 30
0.0
  0
INSERT
  5
109
330
A
100
AcDbEntity
  8
LAYER_1
 62
     7
100
AcDbBlockReference
  2
AI9-BLK41
 10
137.09947
 20
607.772894
 30
0.0
  0
INSERT
  5
104
330
A
100
AcDbEntity
  8
LAYER_1
 62
     7
100
AcDbBlockReference
  2
AI9-BLK40
 10
139.827296
 20
608.93768
 30
0.0
  0
INSERT
  5
FF
330
A
100
AcDbEntity
  8
LAYER_1
 62
     7
100
AcDbBlockReference
  2
AI9-BLK39
 10
138.277003
 20
604.586353
 30
0.0
  0
INSERT
  5
FA
330
A
100
AcDbEntity
  8
LAYER_1
 62
     7
100
AcDbBlockReference
  2
AI9-BLK38
 10
139.451436
 20
605.312923
 30
0.0
  0
INSERT
  5
F5
330
A
100
AcDbEntity
  8
LAYER_1
 62
     7
100
AcDbBlockReference
  2
AI9-BLK37
 10
136.811287
 20
605.354437
 30
0.0
  0
INSERT
  5
F0
330
A
100
AcDbEntity
  8
LAYER_1
 62
     7
100
AcDbBlockReference
  2
AI9-BLK36
 10
137.082072
 20
609.748656
 30
0.0
  0
INSERT
  5
EB
330
A
100
AcDbEntity
  8
LAYER_1
 62
     7
100
AcDbBlockReference
  2
AI9-BLK35
 10
111.106052
 20
612.790331
 30
0.0
  0
INSERT
  5
E6
330
A
100
AcDbEntity
  8
LAYER_1
 62
     7
100
AcDbBlockReference
  2
AI9-BLK34
 10
113.127806
 20
610.419416
 30
0.0
  0
INSERT
  5
E1
330
A
100
AcDbEntity
  8
LAYER_1
 62
     7
100
AcDbBlockReference
  2
AI9-BLK33
 10
108.42439
 20
611.228841
 30
0.0
  0
INSERT
  5
DC
330
A
100
AcDbEntity
  8
LAYER_1
 62
     7
100
AcDbBlockReference
  2
AI9-BLK32
 10
113.304712
 20
612.439792
 30
0.0
  0
INSERT
  5
D7
330
A
100
AcDbEntity
  8
LAYER_1
 62
     7
100
AcDbBlockReference
  2
AI9-BLK31
 10
110.525898
 20
608.822959
 30
0.0
  0
INSERT
  5
D2
330
A
100
AcDbEntity
  8
LAYER_1
 62
     7
100
AcDbBlockReference
  2
AI9-BLK30
 10
112.606908
 20
608.681021
 30
0.0
  0
INSERT
  5
CD
330
A
100
AcDbEntity
  8
LAYER_1
 62
     7
100
AcDbBlockReference
  2
AI9-BLK29
 10
108.343258
 20
609.3647
 30
0.0
  0
INSERT
  5
C8
330
A
100
AcDbEntity
  8
LAYER_1
 62
     7
100
AcDbBlockReference
  2
AI9-BLK28
 10
109.045713
 20
613.112275
 30
0.0
  0
INSERT
  5
C3
330
A
100
AcDbEntity
  8
LAYER_1
 62
     7
100
AcDbBlockReference
  2
AI9-BLK27
 10
86.574905
 20
617.117887
 30
0.0
  0
INSERT
  5
BE
330
A
100
AcDbEntity
  8
LAYER_1
 62
     7
100
AcDbBlockReference
  2
AI9-BLK26
 10
85.018239
 20
619.268833
 30
0.0
  0
INSERT
  5
B9
330
A
100
AcDbEntity
  8
LAYER_1
 62
     7
100
AcDbBlockReference
  2
AI9-BLK25
 10
85.295569
 20
615.025853
 30
0.0
  0
INSERT
  5
B4
330
A
100
AcDbEntity
  8
LAYER_1
 62
     7
100
AcDbBlockReference
  2
AI9-BLK24
 10
82.515205
 20
615.519708
 30
0.0
  0
INSERT
  5
AF
330
A
100
AcDbEntity
  8
LAYER_1
 62
     7
100
AcDbBlockReference
  2
AI9-BLK23
 10
82.577389
 20
618.722268
 30
0.0
  0
INSERT
  5
AA
330
A
100
AcDbEntity
  8
LAYER_1
 62
     7
100
AcDbBlockReference
  2
AI9-BLK22
 10
174.012118
 20
606.106329
 30
0.0
  0
INSERT
  5
A5
330
A
100
AcDbEntity
  8
LAYER_1
 62
     7
100
AcDbBlockReference
  2
AI9-BLK21
 10
172.26287
 20
601.367772
 30
0.0
  0
INSERT
  5
A0
330
A
100
AcDbEntity
  8
LAYER_1
 62
     7
100
AcDbBlockReference
  2
AI9-BLK20
 10
170.263165
 20
596.482454
 30
0.0
  0
INSERT
  5
9B
330
A
100
AcDbEntity
  8
LAYER_1
 62
     7
100
AcDbBlockReference
  2
AI9-BLK19
 10
168.317719
 20
593.009109
 30
0.0
  0
INSERT
  5
96
330
A
100
AcDbEntity
  8
LAYER_1
 62
     7
100
AcDbBlockReference
  2
AI9-BLK18
 10
163.848397
 20
582.728944
 30
0.0
  0
INSERT
  5
91
330
A
100
AcDbEntity
  8
LAYER_1
 62
     7
100
AcDbBlockReference
  2
AI9-BLK17
 10
162.567338
 20
577.180962
 30
0.0
  0
INSERT
  5
8C
330
A
100
AcDbEntity
  8
LAYER_1
 62
     7
100
AcDbBlockReference
  2
AI9-BLK16
 10
162.181832
 20
572.338881
 30
0.0
  0
INSERT
  5
87
330
A
100
AcDbEntity
  8
LAYER_1
 62
     7
100
AcDbBlockReference
  2
AI9-BLK15
 10
162.266064
 20
567.578103
 30
0.0
  0
INSERT
  5
82
330
A
100
AcDbEntity
  8
LAYER_1
 62
     7
100
AcDbBlockReference
  2
AI9-BLK14
 10
162.073311
 20
563.140476
 30
0.0
  0
INSERT
  5
7D
330
A
100
AcDbEntity
  8
LAYER_1
 62
     7
100
AcDbBlockReference
  2
AI9-BLK13
 10
57.393224
 20
557.036456
 30
0.0
  0
INSERT
  5
78
330
A
100
AcDbEntity
  8
LAYER_1
 62
     7
100
AcDbBlockReference
  2
AI9-BLK12
 10
56.424463
 20
553.131095
 30
0.0
  0
INSERT
  5
73
330
A
100
AcDbEntity
  8
LAYER_1
 62
     7
100
AcDbBlockReference
  2
AI9-BLK11
 10
58.438466
 20
561.2126
 30
0.0
  0
INSERT
  5
6E
330
A
100
AcDbEntity
  8
LAYER_1
 62
     7
100
AcDbBlockReference
  2
AI9-BLK10
 10
59.716252
 20
565.008062
 30
0.0
  0
INSERT
  5
69
330
A
100
AcDbEntity
  8
LAYER_1
 62
     7
100
AcDbBlockReference
  2
AI9-BLK9
 10
65.080954
 20
564.600163
 30
0.0
  0
INSERT
  5
64
330
A
100
AcDbEntity
  8
LAYER_1
 62
     7
100
AcDbBlockReference
  2
AI9-BLK8
 10
23.969941
 20
560.820893
 30
0.0
  0
INSERT
  5
5F
330
A
100
AcDbEntity
  8
LAYER_1
 62
     7
100
AcDbBlockReference
  2
AI9-BLK7
 10
23.992162
 20
566.779702
 30
0.0
  0
INSERT
  5
5A
330
A
100
AcDbEntity
  8
LAYER_1
 62
     7
100
AcDbBlockReference
  2
AI9-BLK6
 10
23.954093
 20
571.913584
 30
0.0
  0
INSERT
  5
55
330
A
100
AcDbEntity
  8
LAYER_1
 62
     7
100
AcDbBlockReference
  2
AI9-BLK5
 10
25.47562
 20
579.924809
 30
0.0
  0
INSERT
  5
50
330
A
100
AcDbEntity
  8
LAYER_1
 62
     7
100
AcDbBlockReference
  2
AI9-BLK4
 10
27.105495
 20
587.279571
 30
0.0
  0
INSERT
  5
4B
330
A
100
AcDbEntity
  8
LAYER_1
 62
     7
100
AcDbBlockReference
  2
AI9-BLK3
 10
28.706947
 20
595.625659
 30
0.0
  0
INSERT
  5
46
330
A
100
AcDbEntity
  8
LAYER_1
 62
     7
100
AcDbBlockReference
  2
AI9-BLK2
 10
31.273716
 20
607.594438
 30
0.0
  0
INSERT
  5
41
330
A
100
AcDbEntity
  8
LAYER_1
 62
     7
100
AcDbBlockReference
  2
AI9-BLK1
 10
30.362316
 20
602.205792
 30
0.0
  0
SPLINE
  5
3F
330
A
100
AcDbEntity
  8
LAYER_1
 62
     7
100
AcDbSpline
210
0.0
220
0.0
230
1.0
 70
     8
 71
     3
 72
    23
 73
    19
 74
     0
 42
0.000000001
 43
0.00000001
 40
0.0
 40
0.0
 40
0.0
 40
0.0
 40
1.0
 40
1.0
 40
1.0
 40
2.0
 40
2.0
 40
2.0
 40
3.0
 40
3.0
 40
3.0
 40
4.0
 40
4.0
 40
4.0
 40
5.0
 40
5.0
 40
5.0
 40
6.0
 40
6.0
 40
6.0
 40
6.0
 10
176.9759331597222
 20
608.6780924479166
 30
0.0
 10
176.9759331597222
 20
608.6780924479166
 30
0.0
 10
173.6393581814236
 20
603.442236328125
 30
0.0
 10
173.4991427951389
 20
602.75390625
 30
0.0
 10
173.3589274088542
 20
602.0655761718749
 30
0.0
 10
173.349281141493
 20
599.9974853515624
 30
0.0
 10
170.2900363498264
 20
594.8990885416666
 30
0.0
 10
167.2342366536458
 20
589.8034478081597
 30
0.0
 10
166.6795762803819
 20
589.1151177300346
 30
0.0
 10
165.5578531901041
 20
585.1157063802083
 30
0.0
 10
164.4395751953125
 20
581.1131944444444
 30
0.0
 10
164.4395751953125
 20
581.1131944444444
 30
0.0
 10
164.4395751953125
 20
581.1131944444444
 30
0.0
 10
164.4395751953125
 20
581.1131944444444
 30
0.0
 10
162.8972059461805
 20
575.4601372612847
 30
0.0
 10
163.1617892795139
 20
572.0091851128471
 30
0.0
 10
163.4229275173611
 20
568.5578884548611
 30
0.0
 10
163.1139024522569
 20
560.27587890625
 30
0.0
 10
163.1139024522569
 20
560.27587890625
 30
0.0
  0
SPLINE
  5
3E
330
A
100
AcDbEntity
  8
LAYER_1
  6
AI9-LType2
 62
     7
100
AcDbSpline
210
0.0
220
0.0
230
1.0
 70
     8
 71
     3
 72
    23
 73
    19
 74
     0
 42
0.000000001
 43
0.00000001
 40
0.0
 40
0.0
 40
0.0
 40
0.0
 40
1.0
 40
1.0
 40
1.0
 40
2.0
 40
2.0
 40
2.0
 40
3.0
 40
3.0
 40
3.0
 40
4.0
 40
4.0
 40
4.0
 40
5.0
 40
5.0
 40
5.0
 40
6.0
 40
6.0
 40
6.0
 40
6.0
 10
176.9759331597222
 20
608.6780924479166
 30
0.0
 10
176.9759331597222
 20
608.6780924479166
 30
0.0
 10
173.6393581814236
 20
603.442236328125
 30
0.0
 10
173.4991427951389
 20
602.75390625
 30
0.0
 10
173.3589274088542
 20
602.0655761718749
 30
0.0
 10
173.349281141493
 20
599.9974853515624
 30
0.0
 10
170.2900363498264
 20
594.8990885416666
 30
0.0
 10
167.2342366536458
 20
589.8034478081597
 30
0.0
 10
166.6795762803819
 20
589.1151177300346
 30
0.0
 10
165.5578531901041
 20
585.1157063802083
 30
0.0
 10
164.4395751953125
 20
581.1131944444444
 30
0.0
 10
164.4395751953125
 20
581.1131944444444
 30
0.0
 10
164.4395751953125
 20
581.1131944444444
 30
0.0
 10
164.4395751953125
 20
581.1131944444444
 30
0.0
 10
162.8972059461805
 20
575.4601372612847
 30
0.0
 10
163.1617892795139
 20
572.0091851128471
 30
0.0
 10
163.4229275173611
 20
568.5578884548611
 30
0.0
 10
163.1139024522569
 20
560.27587890625
 30
0.0
 10
163.1139024522569
 20
560.27587890625
 30
0.0
  0
LINE
  5
3C
330
A
100
AcDbEntity
  8
LAYER_1
  6
AI9-LType1
 62
     7
100
AcDbLine
 10
146.128893
 20
559.240283
 30
0.0
 11
151.447431
 21
612.50835
 31
0.0
  0
SPLINE
  5
3B
330
A
100
AcDbEntity
  8
LAYER_1
 62
     7
100
AcDbSpline
210
0.0
220
0.0
230
1.0
 70
     8
 71
     3
 72
    11
 73
     7
 74
     0
 42
0.000000001
 43
0.00000001
 40
0.0
 40
0.0
 40
0.0
 40
0.0
 40
1.0
 40
1.0
 40
1.0
 40
2.0
 40
2.0
 40
2.0
 40
2.0
 10
143.5733208550347
 20
633.4734781901041
 30
0.0
 10
143.5733208550347
 20
633.4734781901041
 30
0.0
 10
144.761878797743
 20
631.905615234375
 30
0.0
 10
144.761878797743
 20
631.905615234375
 30
0.0
 10
144.761878797743
 20
631.905615234375
 30
0.0
 10
143.267396375868
 20
627.033216688368
 30
0.0
 10
141.7026340060764
 20
626.857861328125
 30
0.0
  0
LINE
  5
3A
330
A
100
AcDbEntity
  8
LAYER_1
 62
     7
100
AcDbLine
 10
149.911608
 20
592.922982
 30
0.0
 11
167.858832
 21
591.393359
 31
0.0
  0
LINE
  5
39
330
A
100
AcDbEntity
  8
LAYER_1
 62
     7
100
AcDbLine
 10
149.251872
 20
587.435634
 30
0.0
 11
165.529259
 21
586.07172
 31
0.0
  0
SPLINE
  5
38
330
A
100
AcDbEntity
  8
LAYER_1
  6
AI9-LType1
 62
     7
100
AcDbSpline
210
0.0
220
0.0
230
1.0
 70
     8
 71
     3
 72
    65
 73
    61
 74
     0
 42
0.000000001
 43
0.00000001
 40
0.0
 40
0.0
 40
0.0
 40
0.0
 40
1.0
 40
1.0
 40
1.0
 40
2.0
 40
2.0
 40
2.0
 40
3.0
 40
3.0
 40
3.0
 40
4.0
 40
4.0
 40
4.0
 40
5.0
 40
5.0
 40
5.0
 40
6.0
 40
6.0
 40
6.0
 40
7.0
 40
7.0
 40
7.0
 40
8.0
 40
8.0
 40
8.0
 40
9.0
 40
9.0
 40
9.0
 40
10.0
 40
10.0
 40
10.0
 40
11.0
 40
11.0
 40
11.0
 40
12.0
 40
12.0
 40
12.0
 40
13.0
 40
13.0
 40
13.0
 40
14.0
 40
14.0
 40
14.0
 40
15.0
 40
15.0
 40
15.0
 40
16.0
 40
16.0
 40
16.0
 40
17.0
 40
17.0
 40
17.0
 40
18.0
 40
18.0
 40
18.0
 40
19.0
 40
19.0
 40
19.0
 40
20.0
 40
20.0
 40
20.0
 40
20.0
 10
222.9021565755208
 20
562.751869032118
 30
0.0
 10
222.9021565755208
 20
562.751869032118
 30
0.0
 10
202.1919650607639
 20
561.6366916232638
 30
0.0
 10
202.1919650607639
 20
561.6366916232638
 30
0.0
 10
202.1919650607639
 20
561.6366916232638
 30
0.0
 10
182.7661051432291
 20
560.6996256510416
 30
0.0
 10
182.7661051432291
 20
560.6996256510416
 30
0.0
 10
182.7661051432291
 20
560.6996256510416
 30
0.0
 10
163.2510172526042
 20
559.4886745876736
 30
0.0
 10
163.2510172526042
 20
559.4886745876736
 30
0.0
 10
163.2510172526042
 20
559.4886745876736
 30
0.0
 10
146.31044921875
 20
558.7304090711805
 30
0.0
 10
146.31044921875
 20
558.7304090711805
 30
0.0
 10
146.31044921875
 20
558.7304090711805
 30
0.0
 10
136.8240342881944
 20
557.5701009114583
 30
0.0
 10
136.8240342881944
 20
557.5701009114583
 30
0.0
 10
136.8240342881944
 20
557.5701009114583
 30
0.0
 10
136.1832465277778
 20
557.4812174479166
 30
0.0
 10
126.9738172743055
 20
556.9647976345485
 30
0.0
 10
117.7709337022569
 20
556.4483778211805
 30
0.0
 10
113.4432047526042
 20
556.4645697699652
 30
0.0
 10
113.4432047526042
 20
556.4645697699652
 30
0.0
 10
113.4432047526042
 20
556.4645697699652
 30
0.0
 10
111.2348985460069
 20
556.1968858506943
 30
0.0
 10
111.2348985460069
 20
556.1968858506943
 30
0.0
 10
111.2348985460069
 20
556.1968858506943
 30
0.0
 10
109.3962510850694
 20
556.4804172092014
 30
0.0
 10
109.3962510850694
 20
556.4804172092014
 30
0.0
 10
109.3962510850694
 20
556.4804172092014
 30
0.0
 10
107.7360595703125
 20
556.0311767578124
 30
0.0
 10
107.7360595703125
 20
556.0311767578124
 30
0.0
 10
107.7360595703125
 20
556.0311767578124
 30
0.0
 10
106.1712972005208
 20
555.8496202256944
 30
0.0
 10
106.1712972005208
 20
555.8496202256944
 30
0.0
 10
106.1712972005208
 20
555.8496202256944
 30
0.0
 10
103.0421169704861
 20
555.6773654513888
 30
0.0
 10
100.9230387369792
 20
554.8553656684028
 30
0.0
 10
98.8005154079861
 20
554.0426676432292
 30
0.0
 10
93.82614203559027
 20
553.414626736111
 30
0.0
 10
91.52860785590276
 20
553.3319444444444
 30
0.0
 10
89.22487250434027
 20
553.2492621527778
 30
0.0
 10
81.03174641927083
 20
552.8220703124999
 30
0.0
 10
81.03174641927083
 20
552.8220703124999
 30
0.0
 10
81.03174641927083
 20
552.8220703124999
 30
0.0
 10
68.78856608072915
 20
552.3187418619791
 30
0.0
 10
68.78856608072915
 20
552.3187418619791
 30
0.0
 10
68.78856608072915
 20
552.3187418619791
 30
0.0
 10
52.58766004774305
 20
551.5539306640625
 30
0.0
 10
52.58766004774305
 20
551.5539306640625
 30
0.0
 10
52.58766004774305
 20
551.5539306640625
 30
0.0
 10
40.15637749565972
 20
550.314040798611
 30
0.0
 10
40.15637749565972
 20
550.314040798611
 30
0.0
 10
40.15637749565972
 20
550.314040798611
 30
0.0
 10
35.00354817708333
 20
549.8744466145832
 30
0.0
 10
31.41238064236111
 20
550.0752956814235
 30
0.0
 10
27.82086859809028
 20
550.2726996527778
 30
0.0
 10
20.73706325954861
 20
550.3905219184028
 30
0.0
 10
17.70021158854167
 20
550.3112847222221
 30
0.0
 10
14.65991482204861
 20
550.2348036024305
 30
0.0
 10
8.678540039062499
 20
549.9798665364583
 30
0.0
 10
8.678540039062499
 20
549.9798665364583
 30
0.0
  0
SPLINE
  5
36
330
A
100
AcDbEntity
  8
LAYER_1
 62
     7
100
AcDbSpline
210
0.0
220
0.0
230
1.0
 70
     8
 71
     3
 72
    71
 73
    67
 74
     0
 42
0.000000001
 43
0.00000001
 40
0.0
 40
0.0
 40
0.0
 40
0.0
 40
1.0
 40
1.0
 40
1.0
 40
2.0
 40
2.0
 40
2.0
 40
3.0
 40
3.0
 40
3.0
 40
4.0
 40
4.0
 40
4.0
 40
5.0
 40
5.0
 40
5.0
 40
6.0
 40
6.0
 40
6.0
 40
7.0
 40
7.0
 40
7.0
 40
8.0
 40
8.0
 40
8.0
 40
9.0
 40
9.0
 40
9.0
 40
10.0
 40
10.0
 40
10.0
 40
11.0
 40
11.0
 40
11.0
 40
12.0
 40
12.0
 40
12.0
 40
13.0
 40
13.0
 40
13.0
 40
14.0
 40
14.0
 40
14.0
 40
15.0
 40
15.0
 40
15.0
 40
16.0
 40
16.0
 40
16.0
 40
17.0
 40
17.0
 40
17.0
 40
18.0
 40
18.0
 40
18.0
 40
19.0
 40
19.0
 40
19.0
 40
20.0
 40
20.0
 40
20.0
 40
21.0
 40
21.0
 40
21.0
 40
22.0
 40
22.0
 40
22.0
 40
22.0
 10
228.9438205295139
 20
577.0851888020833
 30
0.0
 10
228.2937310112847
 20
575.3392144097222
 30
0.0
 10
226.9108696831597
 20
574.7907552083333
 30
0.0
 10
225.346107313368
 20
574.6122992621528
 30
0.0
 10
223.7813449435764
 20
574.4341878255208
 30
0.0
 10
220.3748345269097
 20
574.4531358506944
 30
0.0
 10
217.704541015625
 20
574.5520100911458
 30
0.0
 10
215.0373480902778
 20
574.6570855034722
 30
0.0
 10
213.5714599609375
 20
576.0399468315971
 30
0.0
 10
211.3693549262153
 20
577.8916856553819
 30
0.0
 10
209.1644938151042
 20
579.743079969618
 30
0.0
 10
209.0814670138889
 20
581.9544867621527
 30
0.0
 10
208.0841118706597
 20
585.1763400607639
 30
0.0
 10
207.0802110460069
 20
588.4012939453124
 30
0.0
 10
208.8392768012152
 20
590.6030544704861
 30
0.0
 10
208.8392768012152
 20
590.6030544704861
 30
0.0
 10
208.8392768012152
 20
590.6030544704861
 30
0.0
 10
212.4497368706597
 20
595.5584798177083
 30
0.0
 10
212.4497368706597
 20
595.5584798177083
 30
0.0
 10
212.4497368706597
 20
595.5584798177083
 30
0.0
 10
212.7301676432292
 20
596.568581814236
 30
0.0
 10
213.743714735243
 20
596.9316948784722
 30
0.0
 10
214.7569173177083
 20
597.2982530381944
 30
0.0
 10
216.1463243272569
 20
599.2261284722222
 30
0.0
 10
216.1463243272569
 20
599.2261284722222
 30
0.0
 10
216.1463243272569
 20
599.2261284722222
 30
0.0
 10
216.9972629123264
 20
605.2970757378472
 30
0.0
 10
216.8153618706597
 20
605.2970757378472
 30
0.0
 10
216.6307047526041
 20
605.2970757378472
 30
0.0
 10
216.4426025390625
 20
605.2970757378472
 30
0.0
 10
215.6140570746527
 20
605.2109483506944
 30
0.0
 10
214.7889567057291
 20
605.1248209635417
 30
0.0
 10
211.1051161024305
 20
605.0452392578125
 30
0.0
 10
208.4375786675347
 20
605.2395426432291
 30
0.0
 10
205.76728515625
 20
605.4341905381943
 30
0.0
 10
201.4461018880208
 20
606.0970269097222
 30
0.0
 10
200.435999891493
 20
606.1924560546875
 30
0.0
 10
199.4227973090278
 20
606.2878851996527
 30
0.0
 10
192.8898627387153
 20
607.1419243706597
 30
0.0
 10
191.4177734375
 20
607.1484700520833
 30
0.0
 10
189.9456841362847
 20
607.1546712239583
 30
0.0
 10
183.6008517795139
 20
608.2825954861111
 30
0.0
 10
182.0364339192708
 20
608.2891411675347
 30
0.0
 10
180.4716715494791
 20
608.2956868489583
 30
0.0
 10
172.6516493055555
 20
609.3374837239583
 30
0.0
 10
170.813001844618
 20
609.8060167100693
 30
0.0
 10
168.9740098741319
 20
610.2711046006943
 30
0.0
 10
154.8094997829861
 20
612.7219455295138
 30
0.0
 10
154.8094997829861
 20
612.7219455295138
 30
0.0
 10
154.8094997829861
 20
612.7219455295138
 30
0.0
 10
152.0592800564236
 20
615.5868869357638
 30
0.0
 10
151.7819498697916
 20
615.4018853081596
 30
0.0
 10
151.5049641927083
 20
615.2203287760416
 30
0.0
 10
150.3098605685764
 20
615.5930881076388
 30
0.0
 10
149.2074300130208
 20
616.1539496527777
 30
0.0
 10
148.1077555338541
 20
616.7086100260416
 30
0.0
 10
144.985120985243
 20
618.5600043402777
 30
0.0
 10
144.985120985243
 20
618.5600043402777
 30
0.0
 10
144.985120985243
 20
618.5600043402777
 30
0.0
 10
143.3342312282986
 20
620.5960557725693
 30
0.0
 10
143.155775282118
 20
621.239599609375
 30
0.0
 10
142.9711181640625
 20
621.8834879557292
 30
0.0
 10
142.8849907769097
 20
623.3555772569443
 30
0.0
 10
142.6107611762153
 20
623.7255805121528
 30
0.0
 10
142.3368760850694
 20
624.0948947482639
 30
0.0
 10
141.6006591796875
 20
624.0948947482639
 30
0.0
 10
141.4160020616319
 20
624.6461100260416
 30
0.0
  0
MTEXT
  5
35
330
A
100
AcDbEntity
  8
LAYER_1
 62
     7
100
AcDbMText
 10
153.770459
 20
590.379274
 30
0.0
 40
1.643461
 41
0.0
 46
0.0
 71
     1
 72
     2
  1
\W1.00;\fHelvetica|b0|i0;Baulk
  7
STD
 73
     1
 44
1.0
  0
MTEXT
  5
34
330
A
100
AcDbEntity
  8
LAYER_1
 62
     7
100
AcDbMText
 10
29.340845
 20
620.764327
 30
0.0
 40
1.643461
 41
0.0
 46
0.0
 71
     1
 72
     2
  1
\W1.00;\fHelvetica|b1|i0;625
  7
STD
 73
     1
 44
1.0
  0
MTEXT
  5
33
330
A
100
AcDbEntity
  8
LAYER_1
 62
     7
100
AcDbMText
 10
131.77628
 20
581.399288
 30
0.0
 40
1.643461
 41
0.0
 46
0.0
 71
     1
 72
     2
  1
\W1.00;\fHelvetica|b1|i0;942
  7
STD
 73
     1
 44
1.0
  0
MTEXT
  5
32
330
A
100
AcDbEntity
  8
LAYER_1
 62
     7
100
AcDbMText
 10
156.762869
 20
598.122815
 30
0.0
 40
1.643461
 41
0.0
 46
0.0
 71
     1
 72
     2
  1
\W1.00;\fHelvetica|b1|i0;1122
  7
STD
 73
     1
 44
1.0
  0
MTEXT
  5
31
330
A
100
AcDbEntity
  8
LAYER_1
 62
     7
100
AcDbMText
 10
184.805602
 20
595.070116
 30
0.0
 40
1.643461
 41
0.0
 46
0.0
 71
     1
 72
     2
  1
\W1.00;\fHelvetica|b1|i0;1118
  7
STD
 73
     1
 44
1.0
  0
MTEXT
  5
30
330
A
100
AcDbEntity
  8
LAYER_1
 62
     7
100
AcDbMText
 10
154.404701
 20
579.939946
 30
0.0
 40
1.643461
 41
0.0
 46
0.0
 71
     1
 72
     2
  1
\W1.00;\fHelvetica|b1|i0;1122
  7
STD
 73
     1
 44
1.0
  0
MTEXT
  5
2F
330
A
100
AcDbEntity
  8
LAYER_1
 62
     7
100
AcDbMText
 10
117.755086
 20
621.449212
 30
0.0
 40
1.643461
 41
0.0
 46
0.0
 71
     1
 72
     2
  1
\W1.00;\fHelvetica|b1|i0;558
  7
STD
 73
     1
 44
1.0
  0
MTEXT
  5
2E
330
A
100
AcDbEntity
  8
LAYER_1
 62
     7
100
AcDbMText
 10
117.894957
 20
629.913123
 30
0.0
 40
1.643461
 41
0.0
 46
0.0
 71
     1
 72
     2
  1
\W1.00;\fHelvetica|b1|i0;537
  7
STD
 73
     1
 44
1.0
  0
MTEXT
  5
2D
330
A
100
AcDbEntity
  8
LAYER_1
 62
     7
100
AcDbMText
 10
19.812744
 20
577.651713
 30
0.0
 40
1.643461
 41
0.0
 46
0.0
 71
     1
 72
     2
  1
\W1.00;\fHelvetica|b1|i0;881 
  7
STD
 73
     1
 44
1.0
  0
MTEXT
  5
2C
330
A
100
AcDbEntity
  8
LAYER_1
 62
     7
100
AcDbMText
 10
84.298041
 20
572.651846
 30
0.0
 40
1.643461
 41
0.0
 46
0.0
 71
     1
 72
     2
  1
\W1.00;\fHelvetica|b1|i0;1074
  7
STD
 73
     1
 44
1.0
  0
MTEXT
  5
2B
330
A
100
AcDbEntity
  8
LAYER_1
 62
     7
100
AcDbMText
 10
64.642738
 20
563.588834
 30
0.0
 40
1.643461
 41
0.0
 46
0.0
 71
     1
 72
     2
  1
\W1.00;\fHelvetica|b1|i0;1078
  7
STD
 73
     1
 44
1.0
  0
MTEXT
  5
2A
330
A
100
AcDbEntity
  8
LAYER_1
 62
     7
100
AcDbMText
 10
53.588116
 20
574.573521
 30
0.0
 40
1.643461
 41
0.0
 46
0.0
 71
     1
 72
     2
  1
\W1.00;\fHelvetica|b1|i0;1077/1
  7
STD
 73
     1
 44
1.0
  0
MTEXT
  5
29
330
A
100
AcDbEntity
  8
LAYER_1
 62
     7
100
AcDbMText
 10
70.617912
 20
571.278287
 30
0.0
 40
1.643461
 41
0.0
 46
0.0
 71
     1
 72
     2
  1
\W1.00;\fHelvetica|b1|i0;1077/2
  7
STD
 73
     1
 44
1.0
  0
ENDSEC
  0
SECTION
  2
OBJECTS
  0
DICTIONARY
  5
19
330
0
100
AcDbDictionary
281
     1
  3
ACAD_DETAILVIEWSTYLE
350
28A
  3
ACAD_GROUP
350
1A
  3
ACAD_LAYOUT
350
1E
  3
ACAD_MATERIAL
350
24A
  3
ACAD_MLEADERSTYLE
350
250
  3
ACAD_MLINESTYLE
350
1B
  3
ACAD_PLOTSETTINGS
350
22
  3
ACAD_PLOTSTYLENAME
350
1F
  3
ACAD_SCALELIST
350
20F
  3
ACAD_SECTIONVIEWSTYLE
350
28B
  3
ACAD_TABLESTYLE
350
24E
  3
ACAD_VISUALSTYLE
350
231
  3
ACAD_WIPEOUT_VARS
350
23
  3
ACDB_RECOMPOSE_DATA
350
286
  3
AcDbVariableDictionary
350
252
  0
DICTIONARY
  5
28A
102
{ACAD_REACTORS
330
19
102
}
330
19
100
AcDbDictionary
281
     1
  0
DICTIONARY
  5
1A
102
{ACAD_REACTORS
330
19
102
}
330
19
100
AcDbDictionary
281
     1
  0
DICTIONARY
  5
1E
102
{ACAD_REACTORS
330
19
102
}
330
19
100
AcDbDictionary
281
     1
  3
Layout1
350
21
  3
Model
350
20
  0
DICTIONARY
  5
24A
102
{ACAD_REACTORS
330
19
102
}
330
19
100
AcDbDictionary
281
     1
  3
ByBlock
350
24C
  3
ByLayer
350
24B
  3
Global
350
24D
  0
DICTIONARY
  5
250
102
{ACAD_REACTORS
330
19
102
}
330
19
100
AcDbDictionary
281
     1
  3
Standard
350
251
  0
DICTIONARY
  5
1B
102
{ACAD_REACTORS
330
19
102
}
330
19
100
AcDbDictionary
281
     1
  3
Standard
350
1C
  0
DICTIONARY
  5
22
102
{ACAD_REACTORS
330
19
102
}
330
19
100
AcDbDictionary
281
     1
  0
ACDBDICTIONARYWDFLT
  5
1F
102
{ACAD_REACTORS
330
19
102
}
330
19
100
AcDbDictionary
281
     1
  3
Normal
350
1D
100
AcDbDictionaryWithDefault
340
1D
  0
DICTIONARY
  5
20F
102
{ACAD_REACTORS
330
19
102
}
330
19
100
AcDbDictionary
281
     1
  3
A0
350
210
  3
A1
350
211
  3
A2
350
212
  3
A3
350
213
  3
A4
350
214
  3
A5
350
215
  3
A6
350
216
  3
A7
350
217
  3
A8
350
218
  3
A9
350
219
  3
B0
350
21A
  3
B1
350
21B
  3
B2
350
21C
  3
B3
350
21D
  3
B4
350
21E
  3
B5
350
21F
  3
B6
350
220
  3
B7
350
221
  3
B8
350
222
  3
B9
350
223
  3
C0
350
224
  3
C1
350
225
  3
C2
350
226
  3
C3
350
227
  3
C4
350
228
  3
C5
350
229
  3
C6
350
22A
  3
C7
350
22B
  3
C8
350
22C
  3
C9
350
22D
  3
D0
350
22E
  3
D1
350
22F
  3
D2
350
230
  0
DICTIONARY
  5
28B
102
{ACAD_REACTORS
330
19
102
}
330
19
100
AcDbDictionary
281
     1
  0
DICTIONARY
  5
24E
102
{ACAD_REACTORS
330
19
102
}
330
19
100
AcDbDictionary
281
     1
  3
Standard
350
24F
  0
DICTIONARY
  5
231
102
{ACAD_REACTORS
330
19
102
}
330
19
100
AcDbDictionary
281
     1
  3
2dWireframe
350
236
  3
Basic
350
239
  3
Brighten
350
23D
  3
ColorChange
350
241
  3
Conceptual
350
23B
  3
Dim
350
23C
  3
EdgeColorOff
350
244
  3
Facepattern
350
240
  3
Flat
350
232
  3
FlatWithEdges
350
233
  3
Gouraud
350
234
  3
GouraudWithEdges
350
235
  3
Hidden
350
238
  3
JitterOff
350
242
  3
Linepattern
350
23F
  3
OverhangOff
350
243
  3
Realistic
350
23A
  3
Shaded
350
249
  3
Shaded with edges
350
248
  3
Shades of Gray
350
245
  3
Sketchy
350
246
  3
Thicken
350
23E
  3
Wireframe
350
237
  3
X-Ray
350
247
  0
WIPEOUTVARIABLES
  5
23
330
19
100
AcDbWipeoutVariables
 70
     1
  0
XRECORD
  5
286
102
{ACAD_REACTORS
330
19
102
}
330
19
100
AcDbXrecord
280
     1
 90
        1
330
24F
  0
DICTIONARY
  5
252
102
{ACAD_REACTORS
330
19
102
}
330
19
100
AcDbDictionary
281
     1
  3
CANNOSCALE
350
253
  3
CMLEADERSTYLE
350
288
  3
CTABLESTYLE
350
287
  3
MSLTSCALE
350
289
  0
LAYOUT
  5
21
102
{ACAD_REACTORS
330
1E
102
}
330
1E
100
AcDbPlotSettings
  1

  2

  4

  6

 40
0.0
 41
0.0
 42
0.0
 43
0.0
 44
0.0
 45
0.0
 46
0.0
 47
0.0
 48
0.0
 49
0.0
140
0.0
141
0.0
142
1.0
143
1.0
 70
     0
 72
     0
 73
     0
 74
     0
  7

 75
     0
 76
     0
 77
     2
 78
   300
147
1.0
148
0.0
149
0.0
100
AcDbLayout
  1
Layout1
 70
     0
 71
     0
 10
0.0
 20
0.0
 11
0.0
 21
0.0
 12
0.0
 22
0.0
 32
0.0
 14
0.0
 24
0.0
 34
0.0
 15
0.0
 25
0.0
 35
0.0
146
0.0
 13
0.0
 23
0.0
 33
0.0
 16
0.0
 26
0.0
 36
0.0
 17
0.0
 27
0.0
 37
0.0
 76
     0
330
B
  0
LAYOUT
  5
20
102
{ACAD_REACTORS
330
1E
102
}
330
1E
100
AcDbPlotSettings
  1

  2

  4

  6

 40
0.0
 41
0.0
 42
0.0
 43
0.0
 44
0.0
 45
0.0
 46
0.0
 47
0.0
 48
0.0
 49
0.0
140
0.0
141
0.0
142
1.0
143
1.0
 70
  1024
 72
     0
 73
     0
 74
     0
  7

 75
     0
 76
     0
 77
     2
 78
   300
147
1.0
148
0.0
149
0.0
100
AcDbLayout
  1
Model
 70
     0
 71
     1
 10
0.0
 20
0.0
 11
0.0
 21
0.0
 12
0.0
 22
0.0
 32
0.0
 14
0.0
 24
0.0
 34
0.0
 15
0.0
 25
0.0
 35
0.0
146
0.0
 13
0.0
 23
0.0
 33
0.0
 16
0.0
 26
0.0
 36
0.0
 17
0.0
 27
0.0
 37
0.0
 76
     0
330
A
331
15
  0
MATERIAL
  5
24C
102
{ACAD_REACTORS
330
24A
102
}
330
24A
100
AcDbMaterial
  1
ByBlock
 72
     1
 94
      127
  0
MATERIAL
  5
24B
102
{ACAD_REACTORS
330
24A
102
}
330
24A
100
AcDbMaterial
  1
ByLayer
 72
     1
 94
      127
  0
MATERIAL
  5
24D
102
{ACAD_REACTORS
330
24A
102
}
330
24A
100
AcDbMaterial
  1
Global
 72
     1
 94
      127
  0
MLEADERSTYLE
  5
251
102
{ACAD_REACTORS
330
250
102
}
330
250
100
AcDbMLeaderStyle
179
     2
170
     2
171
     1
172
     0
 90
        2
 40
0.0
 41
0.0
173
     1
 91
-1056964608
340
11
 92
       -2
290
     1
 42
0.09
291
     1
 43
0.36
  3
Standard
341
0
 44
0.18
300

342
17
174
     1
178
     6
175
     1
176
     0
 93
-1056964608
 45
0.18
292
     0
297
     0
 46
0.18
343
0
 94
-1056964608
 47
1.0
 49
1.0
140
1.0
293
     1
141
0.0
294
     1
177
     0
142
1.0
295
     0
296
     0
143
0.125
271
     0
272
     9
273
     9
  0
MLINESTYLE
  5
1C
102
{ACAD_REACTORS
330
1B
102
}
330
1B
100
AcDbMlineStyle
  2
Standard
 70
     0
  3

 62
     0
 51
90.0
 52
90.0
 71
     2
 49
0.5
 62
   256
  6
BYLAYER
 49
-0.5
 62
   256
  6
BYLAYER
  0
ACDBPLACEHOLDER
  5
1D
102
{ACAD_REACTORS
330
1F
102
}
330
1F
  0
SCALE
  5
210
102
{ACAD_REACTORS
330
20F
102
}
330
20F
100
AcDbScale
 70
     0
300
1:1
140
1.0
141
1.0
290
     1
  0
SCALE
  5
211
102
{ACAD_REACTORS
330
20F
102
}
330
20F
100
AcDbScale
 70
     0
300
1:2
140
1.0
141
2.0
290
     0
  0
SCALE
  5
212
102
{ACAD_REACTORS
330
20F
102
}
330
20F
100
AcDbScale
 70
     0
300
1:4
140
1.0
141
4.0
290
     0
  0
SCALE
  5
213
102
{ACAD_REACTORS
330
20F
102
}
330
20F
100
AcDbScale
 70
     0
300
1:5
140
1.0
141
5.0
290
     0
  0
SCALE
  5
214
102
{ACAD_REACTORS
330
20F
102
}
330
20F
100
AcDbScale
 70
     0
300
1:8
140
1.0
141
8.0
290
     0
  0
SCALE
  5
215
102
{ACAD_REACTORS
330
20F
102
}
330
20F
100
AcDbScale
 70
     0
300
1:10
140
1.0
141
10.0
290
     0
  0
SCALE
  5
216
102
{ACAD_REACTORS
330
20F
102
}
330
20F
100
AcDbScale
 70
     0
300
1:16
140
1.0
141
16.0
290
     0
  0
SCALE
  5
217
102
{ACAD_REACTORS
330
20F
102
}
330
20F
100
AcDbScale
 70
     0
300
1:20
140
1.0
141
20.0
290
     0
  0
SCALE
  5
218
102
{ACAD_REACTORS
330
20F
102
}
330
20F
100
AcDbScale
 70
     0
300
1:30
140
1.0
141
30.0
290
     0
  0
SCALE
  5
219
102
{ACAD_REACTORS
330
20F
102
}
330
20F
100
AcDbScale
 70
     0
300
1:40
140
1.0
141
40.0
290
     0
  0
SCALE
  5
21A
102
{ACAD_REACTORS
330
20F
102
}
330
20F
100
AcDbScale
 70
     0
300
1:50
140
1.0
141
50.0
290
     0
  0
SCALE
  5
21B
102
{ACAD_REACTORS
330
20F
102
}
330
20F
100
AcDbScale
 70
     0
300
1:100
140
1.0
141
100.0
290
     0
  0
SCALE
  5
21C
102
{ACAD_REACTORS
330
20F
102
}
330
20F
100
AcDbScale
 70
     0
300
2:1
140
2.0
141
1.0
290
     0
  0
SCALE
  5
21D
102
{ACAD_REACTORS
330
20F
102
}
330
20F
100
AcDbScale
 70
     0
300
4:1
140
4.0
141
1.0
290
     0
  0
SCALE
  5
21E
102
{ACAD_REACTORS
330
20F
102
}
330
20F
100
AcDbScale
 70
     0
300
8:1
140
8.0
141
1.0
290
     0
  0
SCALE
  5
21F
102
{ACAD_REACTORS
330
20F
102
}
330
20F
100
AcDbScale
 70
     0
300
10:1
140
10.0
141
1.0
290
     0
  0
SCALE
  5
220
102
{ACAD_REACTORS
330
20F
102
}
330
20F
100
AcDbScale
 70
     0
300
100:1
140
100.0
141
1.0
290
     0
  0
SCALE
  5
221
102
{ACAD_REACTORS
330
20F
102
}
330
20F
100
AcDbScale
 70
     0
300
1/128" = 1'-0"
140
0.0078125
141
12.0
290
     0
  0
SCALE
  5
222
102
{ACAD_REACTORS
330
20F
102
}
330
20F
100
AcDbScale
 70
     0
300
1/64" = 1'-0"
140
0.015625
141
12.0
290
     0
  0
SCALE
  5
223
102
{ACAD_REACTORS
330
20F
102
}
330
20F
100
AcDbScale
 70
     0
300
1/32" = 1'-0"
140
0.03125
141
12.0
290
     0
  0
SCALE
  5
224
102
{ACAD_REACTORS
330
20F
102
}
330
20F
100
AcDbScale
 70
     0
300
1/16" = 1'-0"
140
0.0625
141
12.0
290
     0
  0
SCALE
  5
225
102
{ACAD_REACTORS
330
20F
102
}
330
20F
100
AcDbScale
 70
     0
300
3/32" = 1'-0"
140
0.09375
141
12.0
290
     0
  0
SCALE
  5
226
102
{ACAD_REACTORS
330
20F
102
}
330
20F
100
AcDbScale
 70
     0
300
1/8" = 1'-0"
140
0.125
141
12.0
290
     0
  0
SCALE
  5
227
102
{ACAD_REACTORS
330
20F
102
}
330
20F
100
AcDbScale
 70
     0
300
3/16" = 1'-0"
140
0.1875
141
12.0
290
     0
  0
SCALE
  5
228
102
{ACAD_REACTORS
330
20F
102
}
330
20F
100
AcDbScale
 70
     0
300
1/4" = 1'-0"
140
0.25
141
12.0
290
     0
  0
SCALE
  5
229
102
{ACAD_REACTORS
330
20F
102
}
330
20F
100
AcDbScale
 70
     0
300
3/8" = 1'-0"
140
0.375
141
12.0
290
     0
  0
SCALE
  5
22A
102
{ACAD_REACTORS
330
20F
102
}
330
20F
100
AcDbScale
 70
     0
300
1/2" = 1'-0"
140
0.5
141
12.0
290
     0
  0
SCALE
  5
22B
102
{ACAD_REACTORS
330
20F
102
}
330
20F
100
AcDbScale
 70
     0
300
3/4" = 1'-0"
140
0.75
141
12.0
290
     0
  0
SCALE
  5
22C
102
{ACAD_REACTORS
330
20F
102
}
330
20F
100
AcDbScale
 70
     0
300
1" = 1'-0"
140
1.0
141
12.0
290
     0
  0
SCALE
  5
22D
102
{ACAD_REACTORS
330
20F
102
}
330
20F
100
AcDbScale
 70
     0
300
1-1/2" = 1'-0"
140
1.5
141
12.0
290
     0
  0
SCALE
  5
22E
102
{ACAD_REACTORS
330
20F
102
}
330
20F
100
AcDbScale
 70
     0
300
3" = 1'-0"
140
3.0
141
12.0
290
     0
  0
SCALE
  5
22F
102
{ACAD_REACTORS
330
20F
102
}
330
20F
100
AcDbScale
 70
     0
300
6" = 1'-0"
140
6.0
141
12.0
290
     0
  0
SCALE
  5
230
102
{ACAD_REACTORS
330
20F
102
}
330
20F
100
AcDbScale
 70
     0
300
1'-0" = 1'-0"
140
12.0
141
12.0
290
     0
  0
TABLESTYLE
  5
24F
102
{ACAD_REACTORS
330
24E
102
}
102
{ACAD_XDICTIONARY
360
284
102
}
330
24E
100
AcDbTableStyle
  3
Standard
 70
     0
 71
     0
 40
0.06
 41
0.06
280
     0
281
     0
  7
Standard
140
0.18
170
     2
 62
     0
 63
   257
283
     0
 90
        4
 91
        0
  1

274
    -2
284
     1
 64
     0
275
    -2
285
     1
 65
     0
276
    -2
286
     1
 66
     0
277
    -2
287
     1
 67
     0
278
    -2
288
     1
 68
     0
279
    -2
289
     1
 69
     0
  7
Standard
140
0.25
170
     5
 62
     0
 63
   257
283
     0
 90
        4
 91
        0
  1

274
    -2
284
     1
 64
     0
275
    -2
285
     1
 65
     0
276
    -2
286
     1
 66
     0
277
    -2
287
     1
 67
     0
278
    -2
288
     1
 68
     0
279
    -2
289
     1
 69
     0
  7
Standard
140
0.18
170
     5
 62
     0
 63
   257
283
     0
 90
        4
 91
        0
  1

274
    -2
284
     1
 64
     0
275
    -2
285
     1
 65
     0
276
    -2
286
     1
 66
     0
277
    -2
287
     1
 67
     0
278
    -2
288
     1
 68
     0
279
    -2
289
     1
 69
     0
  0
VISUALSTYLE
  5
236
102
{ACAD_REACTORS
330
231
102
}
102
{ACAD_XDICTIONARY
360
25C
102
}
330
231
100
AcDbVisualStyle
  2
2dWireframe
 70
     4
177
     2
291
     0
 71
     0
176
     1
 72
     2
176
     1
 73
     0
176
     1
 90
        0
176
     1
 40
0.6
176
     1
 41
30.0
176
     1
 62
     5
 63
     7
421
 16777215
176
     1
 74
     1
176
     1
 91
        4
176
     1
 64
     7
176
     1
 65
   257
176
     1
 75
     1
176
     1
175
     1
176
     1
 42
1.0
176
     1
 92
        0
176
     1
 66
   257
176
     1
 43
1.0
176
     1
 76
     1
176
     1
 77
     6
176
     1
 78
     2
176
     1
 67
     7
176
     1
 79
     5
176
     1
170
     0
176
     1
171
     0
176
     1
290
     0
176
     1
 93
        1
176
     1
 44
0.0
176
     1
173
     0
176
     1
  0
VISUALSTYLE
  5
239
102
{ACAD_REACTORS
330
231
102
}
102
{ACAD_XDICTIONARY
360
262
102
}
330
231
100
AcDbVisualStyle
  2
Basic
 70
     7
177
     2
291
     1
 71
     1
176
     1
 72
     0
176
     1
 73
     1
176
     1
 90
        0
176
     1
 40
0.6
176
     1
 41
30.0
176
     1
 62
     5
 63
     7
421
 16777215
176
     1
 74
     0
176
     1
 91
        4
176
     1
 64
     7
176
     1
 65
   257
176
     1
 75
     1
176
     1
175
     1
176
     1
 42
1.0
176
     1
 92
        8
176
     1
 66
     7
176
     1
 43
1.0
176
     1
 76
     1
176
     1
 77
     6
176
     1
 78
     2
176
     1
 67
     7
176
     1
 79
     5
176
     1
170
     0
176
     1
171
     0
176
     1
290
     0
176
     1
 93
        1
176
     1
 44
0.0
176
     1
173
     0
176
     1
  0
VISUALSTYLE
  5
23D
102
{ACAD_REACTORS
330
231
102
}
102
{ACAD_XDICTIONARY
360
26A
102
}
330
231
100
AcDbVisualStyle
  2
Brighten
 70
    12
177
     2
291
     1
 71
     2
176
     1
 72
     2
176
     1
 73
     0
176
     1
 90
        0
176
     1
 40
0.6
176
     1
 41
30.0
176
     1
 62
     5
 63
     7
421
 16777215
176
     1
 74
     1
176
     1
 91
        4
176
     1
 64
     7
176
     1
 65
   257
176
     1
 75
     1
176
     1
175
     1
176
     1
 42
1.0
176
     1
 92
        8
176
     1
 66
     7
176
     1
 43
1.0
176
     1
 76
     1
176
     1
 77
     6
176
     1
 78
     2
176
     1
 67
     7
176
     1
 79
     5
176
     1
170
     0
176
     1
171
     0
176
     1
290
     0
176
     1
 93
        1
176
     1
 44
50.0
176
     1
173
     0
176
     1
  0
VISUALSTYLE
  5
241
102
{ACAD_REACTORS
330
231
102
}
102
{ACAD_XDICTIONARY
360
272
102
}
330
231
100
AcDbVisualStyle
  2
ColorChange
 70
    16
177
     2
291
     1
 71
     2
176
     1
 72
     2
176
     1
 73
     3
176
     1
 90
        0
176
     1
 40
0.6
176
     1
 41
30.0
176
     1
 62
     5
 63
     8
421
  8421504
176
     1
 74
     1
176
     1
 91
        4
176
     1
 64
     7
176
     1
 65
   257
176
     1
 75
     1
176
     1
175
     1
176
     1
 42
1.0
176
     1
 92
        8
176
     1
 66
     8
424
  8421504
176
     1
 43
1.0
176
     1
 76
     1
176
     1
 77
     6
176
     1
 78
     2
176
     1
 67
     7
176
     1
 79
     5
176
     1
170
     0
176
     1
171
     0
176
     1
290
     0
176
     1
 93
        1
176
     1
 44
0.0
176
     1
173
     0
176
     1
  0
VISUALSTYLE
  5
23B
102
{ACAD_REACTORS
330
231
102
}
102
{ACAD_XDICTIONARY
360
266
102
}
330
231
100
AcDbVisualStyle
  2
Conceptual
 70
     9
177
     2
291
     0
 71
     3
176
     1
 72
     2
176
     1
 73
     0
176
     1
 90
        0
176
     1
 40
0.6
176
     1
 41
30.0
176
     1
 62
     5
 63
     7
421
 16777215
176
     1
 74
     2
176
     1
 91
        2
176
     1
 64
     7
176
     1
 65
   257
176
     1
 75
     1
176
     1
175
     1
176
     1
 42
179.0
176
     1
 92
        8
176
     1
 66
     7
176
     1
 43
1.0
176
     1
 76
     1
176
     1
 77
     6
176
     1
 78
     2
176
     1
 67
     7
176
     1
 79
     3
176
     1
170
     0
176
     1
171
     0
176
     1
290
     0
176
     1
 93
        1
176
     1
 44
0.0
176
     1
173
     0
176
     1
  0
VISUALSTYLE
  5
23C
102
{ACAD_REACTORS
330
231
102
}
102
{ACAD_XDICTIONARY
360
268
102
}
330
231
100
AcDbVisualStyle
  2
Dim
 70
    11
177
     2
291
     1
 71
     2
176
     1
 72
     2
176
     1
 73
     0
176
     1
 90
        0
176
     1
 40
0.6
176
     1
 41
30.0
176
     1
 62
     5
 63
     7
421
 16777215
176
     1
 74
     1
176
     1
 91
        4
176
     1
 64
     7
176
     1
 65
   257
176
     1
 75
     1
176
     1
175
     1
176
     1
 42
1.0
176
     1
 92
        8
176
     1
 66
     7
176
     1
 43
1.0
176
     1
 76
     1
176
     1
 77
     6
176
     1
 78
     2
176
     1
 67
     7
176
     1
 79
     5
176
     1
170
     0
176
     1
171
     0
176
     1
290
     0
176
     1
 93
        1
176
     1
 44
-50.0
176
     1
173
     0
176
     1
  0
VISUALSTYLE
  5
244
102
{ACAD_REACTORS
330
231
102
}
102
{ACAD_XDICTIONARY
360
278
102
}
330
231
100
AcDbVisualStyle
  2
EdgeColorOff
 70
    22
177
     2
291
     1
 71
     2
176
     0
 72
     2
176
     0
 73
     0
176
     0
 90
        0
176
     0
 40
0.6
176
     0
 41
30.0
176
     0
 62
     5
 63
     7
421
 16777215
176
     0
 74
     1
176
     0
 91
        4
176
     0
 64
     7
176
     0
 65
   257
176
     0
 75
     1
176
     0
175
     1
176
     0
 42
1.0
176
     0
 92
        8
176
     2
 66
     7
176
     0
 43
1.0
176
     0
 76
     1
176
     0
 77
     6
176
     0
 78
     2
176
     0
 67
     7
176
     0
 79
     5
176
     0
170
     0
176
     0
171
     0
176
     0
290
     0
176
     0
 93
        1
176
     0
 44
0.0
176
     0
173
     0
176
     0
  0
VISUALSTYLE
  5
240
102
{ACAD_REACTORS
330
231
102
}
102
{ACAD_XDICTIONARY
360
270
102
}
330
231
100
AcDbVisualStyle
  2
Facepattern
 70
    15
177
     2
291
     1
 71
     2
176
     1
 72
     2
176
     1
 73
     0
176
     1
 90
        0
176
     1
 40
0.6
176
     1
 41
30.0
176
     1
 62
     5
 63
     7
421
 16777215
176
     1
 74
     1
176
     1
 91
        4
176
     1
 64
     7
176
     1
 65
   257
176
     1
 75
     1
176
     1
175
     1
176
     1
 42
1.0
176
     1
 92
        8
176
     1
 66
     7
176
     1
 43
1.0
176
     1
 76
     1
176
     1
 77
     6
176
     1
 78
     2
176
     1
 67
     7
176
     1
 79
     5
176
     1
170
     0
176
     1
171
     0
176
     1
290
     0
176
     1
 93
        1
176
     1
 44
0.0
176
     1
173
     0
176
     1
  0
VISUALSTYLE
  5
232
102
{ACAD_REACTORS
330
231
102
}
102
{ACAD_XDICTIONARY
360
254
102
}
330
231
100
AcDbVisualStyle
  2
Flat
 70
     0
177
     2
291
     1
 71
     2
176
     1
 72
     1
176
     1
 73
     1
176
     1
 90
        2
176
     1
 40
0.6
176
     1
 41
30.0
176
     1
 62
     5
 63
     7
421
 16777215
176
     1
 74
     0
176
     1
 91
        0
176
     1
 64
     7
176
     1
 65
   257
176
     1
 75
     1
176
     1
175
     1
176
     1
 42
1.0
176
     1
 92
        8
176
     1
 66
     7
176
     1
 43
1.0
176
     1
 76
     1
176
     1
 77
     6
176
     1
 78
     2
176
     1
 67
     7
176
     1
 79
     5
176
     1
170
     0
176
     1
171
     0
176
     1
290
     0
176
     1
 93
       13
176
     1
 44
0.0
176
     1
173
     0
176
     1
  0
VISUALSTYLE
  5
233
102
{ACAD_REACTORS
330
231
102
}
102
{ACAD_XDICTIONARY
360
256
102
}
330
231
100
AcDbVisualStyle
  2
FlatWithEdges
 70
     1
177
     2
291
     1
 71
     2
176
     1
 72
     1
176
     1
 73
     1
176
     1
 90
        2
176
     1
 40
0.6
176
     1
 41
30.0
176
     1
 62
     5
 63
     7
421
 16777215
176
     1
 74
     1
176
     1
 91
        0
176
     1
 64
     7
176
     1
 65
   257
176
     1
 75
     1
176
     1
175
     1
176
     1
 42
1.0
176
     1
 92
        0
176
     1
 66
   257
176
     1
 43
1.0
176
     1
 76
     1
176
     1
 77
     6
176
     1
 78
     2
176
     1
 67
     7
176
     1
 79
     5
176
     1
170
     0
176
     1
171
     0
176
     1
290
     0
176
     1
 93
       13
176
     1
 44
0.0
176
     1
173
     0
176
     1
  0
VISUALSTYLE
  5
234
102
{ACAD_REACTORS
330
231
102
}
102
{ACAD_XDICTIONARY
360
258
102
}
330
231
100
AcDbVisualStyle
  2
Gouraud
 70
     2
177
     2
291
     1
 71
     2
176
     1
 72
     2
176
     1
 73
     1
176
     1
 90
        2
176
     1
 40
0.6
176
     1
 41
30.0
176
     1
 62
     5
 63
     7
421
 16777215
176
     1
 74
     0
176
     1
 91
        0
176
     1
 64
     7
176
     1
 65
   257
176
     1
 75
     1
176
     1
175
     1
176
     1
 42
1.0
176
     1
 92
        0
176
     1
 66
     7
176
     1
 43
1.0
176
     1
 76
     1
176
     1
 77
     6
176
     1
 78
     2
176
     1
 67
     7
176
     1
 79
     5
176
     1
170
     0
176
     1
171
     0
176
     1
290
     0
176
     1
 93
       13
176
     1
 44
0.0
176
     1
173
     0
176
     1
  0
VISUALSTYLE
  5
235
102
{ACAD_REACTORS
330
231
102
}
102
{ACAD_XDICTIONARY
360
25A
102
}
330
231
100
AcDbVisualStyle
  2
GouraudWithEdges
 70
     3
177
     2
291
     1
 71
     2
176
     1
 72
     2
176
     1
 73
     1
176
     1
 90
        2
176
     1
 40
0.6
176
     1
 41
30.0
176
     1
 62
     5
 63
     7
421
 16777215
176
     1
 74
     1
176
     1
 91
        0
176
     1
 64
     7
176
     1
 65
   257
176
     1
 75
     1
176
     1
175
     1
176
     1
 42
1.0
176
     1
 92
        0
176
     1
 66
   257
176
     1
 43
1.0
176
     1
 76
     1
176
     1
 77
     6
176
     1
 78
     2
176
     1
 67
     7
176
     1
 79
     5
176
     1
170
     0
176
     1
171
     0
176
     1
290
     0
176
     1
 93
       13
176
     1
 44
0.0
176
     1
173
     0
176
     1
  0
VISUALSTYLE
  5
238
102
{ACAD_REACTORS
330
231
102
}
102
{ACAD_XDICTIONARY
360
260
102
}
330
231
100
AcDbVisualStyle
  2
Hidden
 70
     6
177
     2
291
     0
 71
     1
176
     1
 72
     2
176
     1
 73
     2
176
     1
 90
        0
176
     1
 40
0.6
176
     1
 41
30.0
176
     1
 62
     5
 63
     7
421
 16777215
176
     1
 74
     2
176
     1
 91
        2
176
     1
 64
     7
176
     1
 65
   257
176
     1
 75
     2
176
     1
175
     1
176
     1
 42
40.0
176
     1
 92
        0
176
     1
 66
   257
176
     1
 43
1.0
176
     1
 76
     1
176
     1
 77
     6
176
     1
 78
     2
176
     1
 67
     7
176
     1
 79
     3
176
     1
170
     0
176
     1
171
     0
176
     1
290
     0
176
     1
 93
        1
176
     1
 44
0.0
176
     1
173
     0
176
     1
  0
VISUALSTYLE
  5
242
102
{ACAD_REACTORS
330
231
102
}
102
{ACAD_XDICTIONARY
360
274
102
}
330
231
100
AcDbVisualStyle
  2
JitterOff
 70
    20
177
     2
291
     1
 71
     2
176
     0
 72
     2
176
     0
 73
     0
176
     0
 90
        0
176
     0
 40
0.6
176
     0
 41
30.0
176
     0
 62
     5
 63
     7
421
 16777215
176
     0
 74
     1
176
     0
 91
        4
176
     0
 64
     7
176
     0
 65
   257
176
     0
 75
     1
176
     0
175
     1
176
     0
 42
1.0
176
     0
 92
       10
176
     2
 66
     7
176
     0
 43
1.0
176
     0
 76
     1
176
     0
 77
     6
176
     0
 78
     2
176
     0
 67
     7
176
     0
 79
     5
176
     0
170
     0
176
     0
171
     0
176
     0
290
     0
176
     0
 93
        1
176
     0
 44
0.0
176
     0
173
     0
176
     0
  0
VISUALSTYLE
  5
23F
102
{ACAD_REACTORS
330
231
102
}
102
{ACAD_XDICTIONARY
360
26E
102
}
330
231
100
AcDbVisualStyle
  2
Linepattern
 70
    14
177
     2
291
     1
 71
     2
176
     1
 72
     2
176
     1
 73
     0
176
     1
 90
        0
176
     1
 40
0.6
176
     1
 41
30.0
176
     1
 62
     5
 63
     7
421
 16777215
176
     1
 74
     1
176
     1
 91
        4
176
     1
 64
     7
176
     1
 65
   257
176
     1
 75
     7
176
     1
175
     7
176
     1
 42
1.0
176
     1
 92
        8
176
     1
 66
     7
176
     1
 43
1.0
176
     1
 76
     1
176
     1
 77
     6
176
     1
 78
     2
176
     1
 67
     7
176
     1
 79
     5
176
     1
170
     0
176
     1
171
     0
176
     1
290
     0
176
     1
 93
        1
176
     1
 44
0.0
176
     1
173
     0
176
     1
  0
VISUALSTYLE
  5
243
102
{ACAD_REACTORS
330
231
102
}
102
{ACAD_XDICTIONARY
360
276
102
}
330
231
100
AcDbVisualStyle
  2
OverhangOff
 70
    21
177
     2
291
     1
 71
     2
176
     0
 72
     2
176
     0
 73
     0
176
     0
 90
        0
176
     0
 40
0.6
176
     0
 41
30.0
176
     0
 62
     5
 63
     7
421
 16777215
176
     0
 74
     1
176
     0
 91
        4
176
     0
 64
     7
176
     0
 65
   257
176
     0
 75
     1
176
     0
175
     1
176
     0
 42
1.0
176
     0
 92
        9
176
     2
 66
     7
176
     0
 43
1.0
176
     0
 76
     1
176
     0
 77
     6
176
     0
 78
     2
176
     0
 67
     7
176
     0
 79
     5
176
     0
170
     0
176
     0
171
     0
176
     0
290
     0
176
     0
 93
        1
176
     0
 44
0.0
176
     0
173
     0
176
     0
  0
VISUALSTYLE
  5
23A
102
{ACAD_REACTORS
330
231
102
}
102
{ACAD_XDICTIONARY
360
264
102
}
330
231
100
AcDbVisualStyle
  2
Realistic
 70
     8
177
     2
291
     0
 71
     2
176
     1
 72
     3
176
     1
 73
     0
176
     1
 90
        2
176
     1
 40
0.6
176
     1
 41
30.0
176
     1
 62
     5
 63
     7
421
 16777215
176
     1
 74
     0
176
     1
 91
        0
176
     1
 64
     7
176
     1
 65
   257
176
     1
 75
     1
176
     1
175
     1
176
     1
 42
1.0
176
     1
 92
        8
176
     1
 66
   257
176
     1
 43
1.0
176
     1
 76
     1
176
     1
 77
     6
176
     1
 78
     2
176
     1
 67
     7
176
     1
 79
     3
176
     1
170
     0
176
     1
171
     0
176
     1
290
     0
176
     1
 93
       13
176
     1
 44
0.0
176
     1
173
     0
176
     1
  0
VISUALSTYLE
  5
249
102
{ACAD_REACTORS
330
231
102
}
102
{ACAD_XDICTIONARY
360
282
102
}
330
231
100
AcDbVisualStyle
  2
Shaded
 70
    27
177
     2
291
     0
 71
     2
176
     1
 72
     2
176
     1
 73
     1
176
     1
 90
        2
176
     1
 40
0.6
176
     1
 41
30.0
176
     1
 62
     5
 63
     7
421
 16777215
176
     1
 74
     0
176
     1
 91
        4
176
     1
 64
     7
176
     1
 65
   257
176
     1
 75
     1
176
     1
175
     1
176
     1
 42
1.0
176
     1
 92
        8
176
     1
 66
   257
176
     1
 43
1.0
176
     1
 76
     1
176
     1
 77
     6
176
     1
 78
     2
176
     1
 67
     8
425
  7895160
176
     1
 79
     3
176
     1
170
     0
176
     1
171
     0
176
     1
290
     0
176
     1
 93
        5
176
     1
 44
0.0
176
     1
173
     0
176
     1
  0
VISUALSTYLE
  5
248
102
{ACAD_REACTORS
330
231
102
}
102
{ACAD_XDICTIONARY
360
280
102
}
330
231
100
AcDbVisualStyle
  2
Shaded with edges
 70
    26
177
     2
291
     0
 71
     2
176
     1
 72
     2
176
     1
 73
     1
176
     1
 90
        2
176
     1
 40
0.6
176
     1
 41
30.0
176
     1
 62
     5
 63
     7
421
 16777215
176
     1
 74
     1
176
     1
 91
       10
176
     1
 64
     7
176
     1
 65
   257
176
     1
 75
     2
176
     1
175
     1
176
     1
 42
1.0
176
     1
 92
        8
176
     1
 66
   257
176
     1
 43
1.0
176
     1
 76
     1
176
     1
 77
     6
176
     1
 78
     2
176
     1
 67
     7
176
     1
 79
     3
176
     1
170
     0
176
     1
171
     0
176
     1
290
     0
176
     1
 93
        5
176
     1
 44
0.0
176
     1
173
     0
176
     1
  0
VISUALSTYLE
  5
245
102
{ACAD_REACTORS
330
231
102
}
102
{ACAD_XDICTIONARY
360
27A
102
}
330
231
100
AcDbVisualStyle
  2
Shades of Gray
 70
    23
177
     2
291
     0
 71
     2
176
     1
 72
     2
176
     1
 73
     3
176
     1
 90
        0
176
     1
 40
0.6
176
     1
 41
30.0
176
     1
 62
     5
 63
     7
421
 16777215
176
     1
 74
     2
176
     1
 91
        2
176
     1
 64
     7
176
     1
 65
     7
176
     1
 75
     1
176
     1
175
     1
176
     1
 42
40.0
176
     1
 92
        8
176
     1
 66
     7
176
     1
 43
1.0
176
     1
 76
     1
176
     1
 77
     6
176
     1
 78
     2
176
     1
 67
     7
176
     1
 79
     3
176
     1
170
     0
176
     1
171
     0
176
     1
290
     0
176
     1
 93
        1
176
     1
 44
0.0
176
     1
173
     0
176
     1
  0
VISUALSTYLE
  5
246
102
{ACAD_REACTORS
330
231
102
}
102
{ACAD_XDICTIONARY
360
27C
102
}
330
231
100
AcDbVisualStyle
  2
Sketchy
 70
    24
177
     2
291
     0
 71
     1
176
     1
 72
     2
176
     1
 73
     2
176
     1
 90
        0
176
     1
 40
0.6
176
     1
 41
30.0
176
     1
 62
     5
 63
     7
421
 16777215
176
     1
 74
     2
176
     1
 91
        2
176
     1
 64
     7
176
     1
 65
     7
176
     1
 75
     1
176
     1
175
     1
176
     1
 42
40.0
176
     1
 92
       11
176
     1
 66
     7
176
     1
 43
1.0
176
     1
 76
     1
176
     1
 77
     6
176
     1
 78
     2
176
     1
 67
     7
176
     1
 79
     6
176
     1
170
     0
176
     1
171
     0
176
     1
290
     0
176
     1
 93
        1
176
     1
 44
0.0
176
     1
173
     0
176
     1
  0
VISUALSTYLE
  5
23E
102
{ACAD_REACTORS
330
231
102
}
102
{ACAD_XDICTIONARY
360
26C
102
}
330
231
100
AcDbVisualStyle
  2
Thicken
 70
    13
177
     2
291
     1
 71
     2
176
     1
 72
     2
176
     1
 73
     0
176
     1
 90
        0
176
     1
 40
0.6
176
     1
 41
30.0
176
     1
 62
     5
 63
     7
421
 16777215
176
     1
 74
     1
176
     1
 91
        4
176
     1
 64
     7
176
     1
 65
   257
176
     1
 75
     1
176
     1
175
     1
176
     1
 42
1.0
176
     1
 92
       12
176
     1
 66
     7
176
     1
 43
1.0
176
     1
 76
     1
176
     1
 77
     6
176
     1
 78
     2
176
     1
 67
     7
176
     1
 79
     5
176
     1
170
     0
176
     1
171
     0
176
     1
290
     0
176
     1
 93
        1
176
     1
 44
0.0
176
     1
173
     0
176
     1
  0
VISUALSTYLE
  5
237
102
{ACAD_REACTORS
330
231
102
}
102
{ACAD_XDICTIONARY
360
25E
102
}
330
231
100
AcDbVisualStyle
  2
Wireframe
 70
     5
177
     2
291
     0
 71
     0
176
     1
 72
     2
176
     1
 73
     0
176
     1
 90
        0
176
     1
 40
0.6
176
     1
 41
30.0
176
     1
 62
     5
 63
     7
421
 16777215
176
     1
 74
     1
176
     1
 91
        4
176
     1
 64
     7
176
     1
 65
   257
176
     1
 75
     1
176
     1
175
     1
176
     1
 42
1.0
176
     1
 92
        0
176
     1
 66
   257
176
     1
 43
1.0
176
     1
 76
     1
176
     1
 77
     6
176
     1
 78
     2
176
     1
 67
     7
176
     1
 79
     3
176
     1
170
     0
176
     1
171
     0
176
     1
290
     0
176
     1
 93
        1
176
     1
 44
0.0
176
     1
173
     0
176
     1
  0
VISUALSTYLE
  5
247
102
{ACAD_REACTORS
330
231
102
}
102
{ACAD_XDICTIONARY
360
27E
102
}
330
231
100
AcDbVisualStyle
  2
X-Ray
 70
    25
177
     2
291
     0
 71
     2
176
     1
 72
     2
176
     1
 73
     1
176
     1
 90
        1
176
     1
 40
0.5
176
     1
 41
30.0
176
     1
 62
     5
 63
     7
421
 16777215
176
     1
 74
     1
176
     1
 91
        0
176
     1
 64
     7
176
     1
 65
   257
176
     1
 75
     1
176
     1
175
     1
176
     1
 42
1.0
176
     1
 92
        8
176
     1
 66
     7
176
     1
 43
1.0
176
     1
 76
     1
176
     1
 77
     6
176
     1
 78
     2
176
     1
 67
     7
176
     1
 79
     3
176
     1
170
     0
176
     1
171
     0
176
     1
290
     0
176
     1
 93
       13
176
     1
 44
0.0
176
     1
173
     0
176
     1
  0
DICTIONARYVAR
  5
253
102
{ACAD_REACTORS
330
252
102
}
330
252
100
DictionaryVariables
280
     0
  1
1:1
  0
DICTIONARYVAR
  5
288
102
{ACAD_REACTORS
330
252
102
}
330
252
100
DictionaryVariables
280
     0
  1
Standard
  0
DICTIONARYVAR
  5
287
102
{ACAD_REACTORS
330
252
102
}
330
252
100
DictionaryVariables
280
     0
  1
Standard
  0
DICTIONARYVAR
  5
289
102
{ACAD_REACTORS
330
252
102
}
330
252
100
DictionaryVariables
280
     0
  1
0
  0
DICTIONARY
  5
284
330
24F
100
AcDbDictionary
280
     1
281
     1
  3
ACAD_ROUNDTRIP_2008_TABLESTYLE_CELLSTYLEMAP
360
285
  0
DICTIONARY
  5
25C
330
236
100
AcDbDictionary
280
     1
281
     1
  3
ACAD_XREC_ROUNDTRIP
360
25D
  0
DICTIONARY
  5
262
330
239
100
AcDbDictionary
280
     1
281
     1
  3
ACAD_XREC_ROUNDTRIP
360
263
  0
DICTIONARY
  5
26A
330
23D
100
AcDbDictionary
280
     1
281
     1
  3
ACAD_XREC_ROUNDTRIP
360
26B
  0
DICTIONARY
  5
272
330
241
100
AcDbDictionary
280
     1
281
     1
  3
ACAD_XREC_ROUNDTRIP
360
273
  0
DICTIONARY
  5
266
330
23B
100
AcDbDictionary
280
     1
281
     1
  3
ACAD_XREC_ROUNDTRIP
360
267
  0
DICTIONARY
  5
268
330
23C
100
AcDbDictionary
280
     1
281
     1
  3
ACAD_XREC_ROUNDTRIP
360
269
  0
DICTIONARY
  5
278
330
244
100
AcDbDictionary
280
     1
281
     1
  3
ACAD_XREC_ROUNDTRIP
360
279
  0
DICTIONARY
  5
270
330
240
100
AcDbDictionary
280
     1
281
     1
  3
ACAD_XREC_ROUNDTRIP
360
271
  0
DICTIONARY
  5
254
330
232
100
AcDbDictionary
280
     1
281
     1
  3
ACAD_XREC_ROUNDTRIP
360
255
  0
DICTIONARY
  5
256
330
233
100
AcDbDictionary
280
     1
281
     1
  3
ACAD_XREC_ROUNDTRIP
360
257
  0
DICTIONARY
  5
258
330
234
100
AcDbDictionary
280
     1
281
     1
  3
ACAD_XREC_ROUNDTRIP
360
259
  0
DICTIONARY
  5
25A
330
235
100
AcDbDictionary
280
     1
281
     1
  3
ACAD_XREC_ROUNDTRIP
360
25B
  0
DICTIONARY
  5
260
330
238
100
AcDbDictionary
280
     1
281
     1
  3
ACAD_XREC_ROUNDTRIP
360
261
  0
DICTIONARY
  5
274
330
242
100
AcDbDictionary
280
     1
281
     1
  3
ACAD_XREC_ROUNDTRIP
360
275
  0
DICTIONARY
  5
26E
330
23F
100
AcDbDictionary
280
     1
281
     1
  3
ACAD_XREC_ROUNDTRIP
360
26F
  0
DICTIONARY
  5
276
330
243
100
AcDbDictionary
280
     1
281
     1
  3
ACAD_XREC_ROUNDTRIP
360
277
  0
DICTIONARY
  5
264
330
23A
100
AcDbDictionary
280
     1
281
     1
  3
ACAD_XREC_ROUNDTRIP
360
265
  0
DICTIONARY
  5
282
330
249
100
AcDbDictionary
280
     1
281
     1
  3
ACAD_XREC_ROUNDTRIP
360
283
  0
DICTIONARY
  5
280
330
248
100
AcDbDictionary
280
     1
281
     1
  3
ACAD_XREC_ROUNDTRIP
360
281
  0
DICTIONARY
  5
27A
330
245
100
AcDbDictionary
280
     1
281
     1
  3
ACAD_XREC_ROUNDTRIP
360
27B
  0
DICTIONARY
  5
27C
330
246
100
AcDbDictionary
280
     1
281
     1
  3
ACAD_XREC_ROUNDTRIP
360
27D
  0
DICTIONARY
  5
26C
330
23E
100
AcDbDictionary
280
     1
281
     1
  3
ACAD_XREC_ROUNDTRIP
360
26D
  0
DICTIONARY
  5
25E
330
237
100
AcDbDictionary
280
     1
281
     1
  3
ACAD_XREC_ROUNDTRIP
360
25F
  0
DICTIONARY
  5
27E
330
247
100
AcDbDictionary
280
     1
281
     1
  3
ACAD_XREC_ROUNDTRIP
360
27F
  0
CELLSTYLEMAP
  5
285
102
{ACAD_REACTORS
330
284
102
}
330
284
100
AcDbCellStyleMap
 90
        3
300
CELLSTYLE
  1
TABLEFORMAT_BEGIN
 90
        5
170
     1
 91
        0
 92
    32768
 62
   257
 93
        1
300
CONTENTFORMAT
  1
CONTENTFORMAT_BEGIN
 90
        0
 91
        0
 92
        4
 93
        0
300

 40
0.0
140
1.0
 94
        5
 62
     0
340
17
144
0.25
309
CONTENTFORMAT_END
171
     1
301
MARGIN
  1
CELLMARGIN_BEGIN
 40
0.06
 40
0.06
 40
0.06
 40
0.06
 40
0.06
 40
0.06
309
CELLMARGIN_END
 94
        6
 95
        1
302
GRIDFORMAT
  1
GRIDFORMAT_BEGIN
 90
        0
 91
        1
 62
     0
 92
       -2
340
11
 93
        0
 40
0.045
309
GRIDFORMAT_END
 95
        2
302
GRIDFORMAT
  1
GRIDFORMAT_BEGIN
 90
        0
 91
        1
 62
     0
 92
       -2
340
11
 93
        0
 40
0.045
309
GRIDFORMAT_END
 95
        4
302
GRIDFORMAT
  1
GRIDFORMAT_BEGIN
 90
        0
 91
        1
 62
     0
 92
       -2
340
11
 93
        0
 40
0.045
309
GRIDFORMAT_END
 95
        8
302
GRIDFORMAT
  1
GRIDFORMAT_BEGIN
 90
        0
 91
        1
 62
     0
 92
       -2
340
11
 93
        0
 40
0.045
309
GRIDFORMAT_END
 95
       16
302
GRIDFORMAT
  1
GRIDFORMAT_BEGIN
 90
        0
 91
        1
 62
     0
 92
       -2
340
11
 93
        0
 40
0.045
309
GRIDFORMAT_END
 95
       32
302
GRIDFORMAT
  1
GRIDFORMAT_BEGIN
 90
        0
 91
        1
 62
     0
 92
       -2
340
11
 93
        0
 40
0.045
309
GRIDFORMAT_END
309
TABLEFORMAT_END
  1
CELLSTYLE_BEGIN
 90
        1
 91
        1
300
_TITLE
309
CELLSTYLE_END
300
CELLSTYLE
  1
TABLEFORMAT_BEGIN
 90
        5
170
     1
 91
        0
 92
        0
 62
   257
 93
        1
300
CONTENTFORMAT
  1
CONTENTFORMAT_BEGIN
 90
        0
 91
        0
 92
        4
 93
        0
300

 40
0.0
140
1.0
 94
        5
 62
     0
340
17
144
0.18
309
CONTENTFORMAT_END
171
     1
301
MARGIN
  1
CELLMARGIN_BEGIN
 40
0.06
 40
0.06
 40
0.06
 40
0.06
 40
0.06
 40
0.06
309
CELLMARGIN_END
 94
        6
 95
        1
302
GRIDFORMAT
  1
GRIDFORMAT_BEGIN
 90
        0
 91
        1
 62
     0
 92
       -2
340
11
 93
        0
 40
0.045
309
GRIDFORMAT_END
 95
        2
302
GRIDFORMAT
  1
GRIDFORMAT_BEGIN
 90
        0
 91
        1
 62
     0
 92
       -2
340
11
 93
        0
 40
0.045
309
GRIDFORMAT_END
 95
        4
302
GRIDFORMAT
  1
GRIDFORMAT_BEGIN
 90
        0
 91
        1
 62
     0
 92
       -2
340
11
 93
        0
 40
0.045
309
GRIDFORMAT_END
 95
        8
302
GRIDFORMAT
  1
GRIDFORMAT_BEGIN
 90
        0
 91
        1
 62
     0
 92
       -2
340
11
 93
        0
 40
0.045
309
GRIDFORMAT_END
 95
       16
302
GRIDFORMAT
  1
GRIDFORMAT_BEGIN
 90
        0
 91
        1
 62
     0
 92
       -2
340
11
 93
        0
 40
0.045
309
GRIDFORMAT_END
 95
       32
302
GRIDFORMAT
  1
GRIDFORMAT_BEGIN
 90
        0
 91
        1
 62
     0
 92
       -2
340
11
 93
        0
 40
0.045
309
GRIDFORMAT_END
309
TABLEFORMAT_END
  1
CELLSTYLE_BEGIN
 90
        2
 91
        1
300
_HEADER
309
CELLSTYLE_END
300
CELLSTYLE
  1
TABLEFORMAT_BEGIN
 90
        5
170
     1
 91
        0
 92
        0
 62
   257
 93
        1
300
CONTENTFORMAT
  1
CONTENTFORMAT_BEGIN
 90
        0
 91
        0
 92
        4
 93
        0
300

 40
0.0
140
1.0
 94
        2
 62
     0
340
17
144
0.18
309
CONTENTFORMAT_END
171
     1
301
MARGIN
  1
CELLMARGIN_BEGIN
 40
0.06
 40
0.06
 40
0.06
 40
0.06
 40
0.06
 40
0.06
309
CELLMARGIN_END
 94
        6
 95
        1
302
GRIDFORMAT
  1
GRIDFORMAT_BEGIN
 90
        0
 91
        1
 62
     0
 92
       -2
340
11
 93
        0
 40
0.045
309
GRIDFORMAT_END
 95
        2
302
GRIDFORMAT
  1
GRIDFORMAT_BEGIN
 90
        0
 91
        1
 62
     0
 92
       -2
340
11
 93
        0
 40
0.045
309
GRIDFORMAT_END
 95
        4
302
GRIDFORMAT
  1
GRIDFORMAT_BEGIN
 90
        0
 91
        1
 62
     0
 92
       -2
340
11
 93
        0
 40
0.045
309
GRIDFORMAT_END
 95
        8
302
GRIDFORMAT
  1
GRIDFORMAT_BEGIN
 90
        0
 91
        1
 62
     0
 92
       -2
340
11
 93
        0
 40
0.045
309
GRIDFORMAT_END
 95
       16
302
GRIDFORMAT
  1
GRIDFORMAT_BEGIN
 90
        0
 91
        1
 62
     0
 92
       -2
340
11
 93
        0
 40
0.045
309
GRIDFORMAT_END
 95
       32
302
GRIDFORMAT
  1
GRIDFORMAT_BEGIN
 90
        0
 91
        1
 62
     0
 92
       -2
340
11
 93
        0
 40
0.045
309
GRIDFORMAT_END
309
TABLEFORMAT_END
  1
CELLSTYLE_BEGIN
 90
        3
 91
        2
300
_DATA
309
CELLSTYLE_END
  0
XRECORD
  5
25D
102
{ACAD_REACTORS
330
25C
102
}
330
25C
100
AcDbXrecord
280
     1
102
RTVSPost2010Prop28
280
     1
102
RTVSPost2010PropOp28
 70
     1
102
RTVSPost2010Prop29
280
     1
102
RTVSPost2010PropOp29
 70
     1
102
RTVSPost2010Prop30
280
     0
102
RTVSPost2010PropOp30
 70
     1
102
RTVSPost2010Prop31
280
     0
102
RTVSPost2010PropOp31
 70
     1
102
RTVSPost2010Prop32
280
     0
102
RTVSPost2010PropOp32
 70
     1
102
RTVSPost2010Prop33
280
     0
102
RTVSPost2010PropOp33
 70
     1
102
RTVSPost2010Prop34
280
     0
102
RTVSPost2010PropOp34
 70
     1
102
RTVSPost2010Prop35
280
     0
102
RTVSPost2010PropOp35
 70
     1
102
RTVSPost2010Prop36
280
     0
102
RTVSPost2010PropOp36
 70
     1
102
RTVSPost2010Prop37
 90
       50
102
RTVSPost2010PropOp37
 70
     1
102
RTVSPost2010Prop38
140
0.0
102
RTVSPost2010PropOp38
 70
     1
102
RTVSPost2010Prop39
140
1.0
102
RTVSPost2010PropOp39
 70
     1
102
RTVSPost2010Prop40
 90
        0
102
RTVSPost2010PropOp40
 70
     1
102
RTVSPost2010Prop41ColorIndex
 90
       18
102
RTVSPost2010Prop41ColorRGB
 90
        0
102
RTVSPost2010PropOp41
 70
     1
102
RTVSPost2010Prop42
 90
       50
102
RTVSPost2010PropOp42
 70
     1
102
RTVSPost2010Prop43
 90
        3
102
RTVSPost2010PropOp43
 70
     1
102
RTVSPost2010Prop44ColorIndex
 90
        5
102
RTVSPost2010Prop44ColorRGB
 90
      255
102
RTVSPost2010PropOp44
 70
     1
102
RTVSPost2010Prop45
280
     0
102
RTVSPost2010PropOp45
 70
     1
102
RTVSPost2010Prop46
 90
       50
102
RTVSPost2010PropOp46
 70
     1
102
RTVSPost2010Prop47
 90
       50
102
RTVSPost2010PropOp47
 70
     1
102
RTVSPost2010Prop48
 90
       50
102
RTVSPost2010PropOp48
 70
     1
102
RTVSPost2010Prop49
280
     0
102
RTVSPost2010PropOp49
 70
     1
102
RTVSPost2010Prop50
 90
       50
102
RTVSPost2010PropOp50
 70
     1
102
RTVSPost2010Prop51ColorIndex
 90
      256
102
RTVSPost2010Prop51ColorRGB
 90
-16777216
102
RTVSPost2010PropOp51
 70
     0
102
RTVSPost2010Prop52
140
1.0
102
RTVSPost2010PropOp52
 70
     0
102
RTVSPost2010Prop53
 90
        2
102
RTVSPost2010PropOp53
 70
     1
102
RTVSPost2010Prop54
  1
strokes_ogs.tif
102
RTVSPost2010PropOp54
 70
     1
102
RTVSPost2010Prop55
280
     0
102
RTVSPost2010PropOp55
 70
     1
102
RTVSPost2010Prop56
140
1.0
102
RTVSPost2010PropOp56
 70
     1
102
RTVSPost2010Prop57
140
1.0
102
RTVSPost2010PropOp57
 70
     1
  0
XRECORD
  5
263
102
{ACAD_REACTORS
330
262
102
}
330
262
100
AcDbXrecord
280
     1
102
RTVSPost2010Prop28
280
     0
102
RTVSPost2010PropOp28
 70
     1
102
RTVSPost2010Prop29
280
     1
102
RTVSPost2010PropOp29
 70
     1
102
RTVSPost2010Prop30
280
     1
102
RTVSPost2010PropOp30
 70
     1
102
RTVSPost2010Prop31
280
     0
102
RTVSPost2010PropOp31
 70
     1
102
RTVSPost2010Prop32
280
     0
102
RTVSPost2010PropOp32
 70
     1
102
RTVSPost2010Prop33
280
     0
102
RTVSPost2010PropOp33
 70
     1
102
RTVSPost2010Prop34
280
     0
102
RTVSPost2010PropOp34
 70
     1
102
RTVSPost2010Prop35
280
     0
102
RTVSPost2010PropOp35
 70
     1
102
RTVSPost2010Prop36
280
     0
102
RTVSPost2010PropOp36
 70
     1
102
RTVSPost2010Prop37
 90
       50
102
RTVSPost2010PropOp37
 70
     1
102
RTVSPost2010Prop38
140
0.0
102
RTVSPost2010PropOp38
 70
     1
102
RTVSPost2010Prop39
140
1.0
102
RTVSPost2010PropOp39
 70
     1
102
RTVSPost2010Prop40
 90
        0
102
RTVSPost2010PropOp40
 70
     1
102
RTVSPost2010Prop41ColorIndex
 90
       18
102
RTVSPost2010Prop41ColorRGB
 90
        0
102
RTVSPost2010PropOp41
 70
     1
102
RTVSPost2010Prop42
 90
       50
102
RTVSPost2010PropOp42
 70
     1
102
RTVSPost2010Prop43
 90
        3
102
RTVSPost2010PropOp43
 70
     1
102
RTVSPost2010Prop44ColorIndex
 90
        5
102
RTVSPost2010Prop44ColorRGB
 90
      255
102
RTVSPost2010PropOp44
 70
     1
102
RTVSPost2010Prop45
280
     0
102
RTVSPost2010PropOp45
 70
     1
102
RTVSPost2010Prop46
 90
       50
102
RTVSPost2010PropOp46
 70
     1
102
RTVSPost2010Prop47
 90
       50
102
RTVSPost2010PropOp47
 70
     1
102
RTVSPost2010Prop48
 90
       50
102
RTVSPost2010PropOp48
 70
     1
102
RTVSPost2010Prop49
280
     0
102
RTVSPost2010PropOp49
 70
     1
102
RTVSPost2010Prop50
 90
       50
102
RTVSPost2010PropOp50
 70
     1
102
RTVSPost2010Prop51ColorIndex
 90
      256
102
RTVSPost2010Prop51ColorRGB
 90
-16777216
102
RTVSPost2010PropOp51
 70
     0
102
RTVSPost2010Prop52
140
1.0
102
RTVSPost2010PropOp52
 70
     0
102
RTVSPost2010Prop53
 90
        2
102
RTVSPost2010PropOp53
 70
     1
102
RTVSPost2010Prop54
  1
strokes_ogs.tif
102
RTVSPost2010PropOp54
 70
     1
102
RTVSPost2010Prop55
280
     0
102
RTVSPost2010PropOp55
 70
     1
102
RTVSPost2010Prop56
140
1.0
102
RTVSPost2010PropOp56
 70
     1
102
RTVSPost2010Prop57
140
1.0
102
RTVSPost2010PropOp57
 70
     1
  0
XRECORD
  5
26B
102
{ACAD_REACTORS
330
26A
102
}
330
26A
100
AcDbXrecord
280
     1
102
RTVSPost2010Prop28
280
     0
102
RTVSPost2010PropOp28
 70
     1
102
RTVSPost2010Prop29
280
     1
102
RTVSPost2010PropOp29
 70
     1
102
RTVSPost2010Prop30
280
     1
102
RTVSPost2010PropOp30
 70
     1
102
RTVSPost2010Prop31
280
     0
102
RTVSPost2010PropOp31
 70
     1
102
RTVSPost2010Prop32
280
     0
102
RTVSPost2010PropOp32
 70
     1
102
RTVSPost2010Prop33
280
     0
102
RTVSPost2010PropOp33
 70
     1
102
RTVSPost2010Prop34
280
     0
102
RTVSPost2010PropOp34
 70
     1
102
RTVSPost2010Prop35
280
     0
102
RTVSPost2010PropOp35
 70
     1
102
RTVSPost2010Prop36
280
     0
102
RTVSPost2010PropOp36
 70
     1
102
RTVSPost2010Prop37
 90
       50
102
RTVSPost2010PropOp37
 70
     1
102
RTVSPost2010Prop38
140
0.0
102
RTVSPost2010PropOp38
 70
     1
102
RTVSPost2010Prop39
140
1.0
102
RTVSPost2010PropOp39
 70
     1
102
RTVSPost2010Prop40
 90
        0
102
RTVSPost2010PropOp40
 70
     1
102
RTVSPost2010Prop41ColorIndex
 90
       18
102
RTVSPost2010Prop41ColorRGB
 90
        0
102
RTVSPost2010PropOp41
 70
     1
102
RTVSPost2010Prop42
 90
       50
102
RTVSPost2010PropOp42
 70
     1
102
RTVSPost2010Prop43
 90
        3
102
RTVSPost2010PropOp43
 70
     1
102
RTVSPost2010Prop44ColorIndex
 90
        5
102
RTVSPost2010Prop44ColorRGB
 90
      255
102
RTVSPost2010PropOp44
 70
     1
102
RTVSPost2010Prop45
280
     0
102
RTVSPost2010PropOp45
 70
     1
102
RTVSPost2010Prop46
 90
       50
102
RTVSPost2010PropOp46
 70
     1
102
RTVSPost2010Prop47
 90
       50
102
RTVSPost2010PropOp47
 70
     1
102
RTVSPost2010Prop48
 90
       50
102
RTVSPost2010PropOp48
 70
     1
102
RTVSPost2010Prop49
280
     0
102
RTVSPost2010PropOp49
 70
     1
102
RTVSPost2010Prop50
 90
       50
102
RTVSPost2010PropOp50
 70
     1
102
RTVSPost2010Prop51ColorIndex
 90
      256
102
RTVSPost2010Prop51ColorRGB
 90
-16777216
102
RTVSPost2010PropOp51
 70
     0
102
RTVSPost2010Prop52
140
1.0
102
RTVSPost2010PropOp52
 70
     0
102
RTVSPost2010Prop53
 90
        2
102
RTVSPost2010PropOp53
 70
     1
102
RTVSPost2010Prop54
  1
strokes_ogs.tif
102
RTVSPost2010PropOp54
 70
     1
102
RTVSPost2010Prop55
280
     0
102
RTVSPost2010PropOp55
 70
     1
102
RTVSPost2010Prop56
140
1.0
102
RTVSPost2010PropOp56
 70
     1
102
RTVSPost2010Prop57
140
1.0
102
RTVSPost2010PropOp57
 70
     1
  0
XRECORD
  5
273
102
{ACAD_REACTORS
330
272
102
}
330
272
100
AcDbXrecord
280
     1
102
RTVSPost2010Prop28
280
     0
102
RTVSPost2010PropOp28
 70
     1
102
RTVSPost2010Prop29
280
     1
102
RTVSPost2010PropOp29
 70
     1
102
RTVSPost2010Prop30
280
     1
102
RTVSPost2010PropOp30
 70
     1
102
RTVSPost2010Prop31
280
     0
102
RTVSPost2010PropOp31
 70
     1
102
RTVSPost2010Prop32
280
     0
102
RTVSPost2010PropOp32
 70
     1
102
RTVSPost2010Prop33
280
     0
102
RTVSPost2010PropOp33
 70
     1
102
RTVSPost2010Prop34
280
     0
102
RTVSPost2010PropOp34
 70
     1
102
RTVSPost2010Prop35
280
     0
102
RTVSPost2010PropOp35
 70
     1
102
RTVSPost2010Prop36
280
     0
102
RTVSPost2010PropOp36
 70
     1
102
RTVSPost2010Prop37
 90
       50
102
RTVSPost2010PropOp37
 70
     1
102
RTVSPost2010Prop38
140
0.0
102
RTVSPost2010PropOp38
 70
     1
102
RTVSPost2010Prop39
140
1.0
102
RTVSPost2010PropOp39
 70
     1
102
RTVSPost2010Prop40
 90
        0
102
RTVSPost2010PropOp40
 70
     1
102
RTVSPost2010Prop41ColorIndex
 90
       18
102
RTVSPost2010Prop41ColorRGB
 90
        0
102
RTVSPost2010PropOp41
 70
     1
102
RTVSPost2010Prop42
 90
       50
102
RTVSPost2010PropOp42
 70
     1
102
RTVSPost2010Prop43
 90
        3
102
RTVSPost2010PropOp43
 70
     1
102
RTVSPost2010Prop44ColorIndex
 90
        5
102
RTVSPost2010Prop44ColorRGB
 90
      255
102
RTVSPost2010PropOp44
 70
     1
102
RTVSPost2010Prop45
280
     0
102
RTVSPost2010PropOp45
 70
     1
102
RTVSPost2010Prop46
 90
       50
102
RTVSPost2010PropOp46
 70
     1
102
RTVSPost2010Prop47
 90
       50
102
RTVSPost2010PropOp47
 70
     1
102
RTVSPost2010Prop48
 90
       50
102
RTVSPost2010PropOp48
 70
     1
102
RTVSPost2010Prop49
280
     0
102
RTVSPost2010PropOp49
 70
     1
102
RTVSPost2010Prop50
 90
       50
102
RTVSPost2010PropOp50
 70
     1
102
RTVSPost2010Prop51ColorIndex
 90
      256
102
RTVSPost2010Prop51ColorRGB
 90
-16777216
102
RTVSPost2010PropOp51
 70
     0
102
RTVSPost2010Prop52
140
1.0
102
RTVSPost2010PropOp52
 70
     0
102
RTVSPost2010Prop53
 90
        2
102
RTVSPost2010PropOp53
 70
     1
102
RTVSPost2010Prop54
  1
strokes_ogs.tif
102
RTVSPost2010PropOp54
 70
     1
102
RTVSPost2010Prop55
280
     0
102
RTVSPost2010PropOp55
 70
     1
102
RTVSPost2010Prop56
140
1.0
102
RTVSPost2010PropOp56
 70
     1
102
RTVSPost2010Prop57
140
1.0
102
RTVSPost2010PropOp57
 70
     1
  0
XRECORD
  5
267
102
{ACAD_REACTORS
330
266
102
}
330
266
100
AcDbXrecord
280
     1
102
RTVSPost2010Prop28
280
     0
102
RTVSPost2010PropOp28
 70
     1
102
RTVSPost2010Prop29
280
     1
102
RTVSPost2010PropOp29
 70
     1
102
RTVSPost2010Prop30
280
     1
102
RTVSPost2010PropOp30
 70
     1
102
RTVSPost2010Prop31
280
     0
102
RTVSPost2010PropOp31
 70
     1
102
RTVSPost2010Prop32
280
     0
102
RTVSPost2010PropOp32
 70
     1
102
RTVSPost2010Prop33
280
     0
102
RTVSPost2010PropOp33
 70
     1
102
RTVSPost2010Prop34
280
     0
102
RTVSPost2010PropOp34
 70
     1
102
RTVSPost2010Prop35
280
     0
102
RTVSPost2010PropOp35
 70
     1
102
RTVSPost2010Prop36
280
     0
102
RTVSPost2010PropOp36
 70
     1
102
RTVSPost2010Prop37
 90
       50
102
RTVSPost2010PropOp37
 70
     1
102
RTVSPost2010Prop38
140
0.0
102
RTVSPost2010PropOp38
 70
     1
102
RTVSPost2010Prop39
140
1.0
102
RTVSPost2010PropOp39
 70
     1
102
RTVSPost2010Prop40
 90
        0
102
RTVSPost2010PropOp40
 70
     1
102
RTVSPost2010Prop41ColorIndex
 90
       18
102
RTVSPost2010Prop41ColorRGB
 90
        0
102
RTVSPost2010PropOp41
 70
     1
102
RTVSPost2010Prop42
 90
       50
102
RTVSPost2010PropOp42
 70
     1
102
RTVSPost2010Prop43
 90
        3
102
RTVSPost2010PropOp43
 70
     1
102
RTVSPost2010Prop44ColorIndex
 90
        5
102
RTVSPost2010Prop44ColorRGB
 90
      255
102
RTVSPost2010PropOp44
 70
     1
102
RTVSPost2010Prop45
280
     0
102
RTVSPost2010PropOp45
 70
     1
102
RTVSPost2010Prop46
 90
       50
102
RTVSPost2010PropOp46
 70
     1
102
RTVSPost2010Prop47
 90
       50
102
RTVSPost2010PropOp47
 70
     1
102
RTVSPost2010Prop48
 90
       50
102
RTVSPost2010PropOp48
 70
     1
102
RTVSPost2010Prop49
280
     0
102
RTVSPost2010PropOp49
 70
     1
102
RTVSPost2010Prop50
 90
       50
102
RTVSPost2010PropOp50
 70
     1
102
RTVSPost2010Prop51ColorIndex
 90
      256
102
RTVSPost2010Prop51ColorRGB
 90
-16777216
102
RTVSPost2010PropOp51
 70
     0
102
RTVSPost2010Prop52
140
1.0
102
RTVSPost2010PropOp52
 70
     0
102
RTVSPost2010Prop53
 90
        2
102
RTVSPost2010PropOp53
 70
     1
102
RTVSPost2010Prop54
  1
strokes_ogs.tif
102
RTVSPost2010PropOp54
 70
     1
102
RTVSPost2010Prop55
280
     0
102
RTVSPost2010PropOp55
 70
     1
102
RTVSPost2010Prop56
140
1.0
102
RTVSPost2010PropOp56
 70
     1
102
RTVSPost2010Prop57
140
1.0
102
RTVSPost2010PropOp57
 70
     1
  0
XRECORD
  5
269
102
{ACAD_REACTORS
330
268
102
}
330
268
100
AcDbXrecord
280
     1
102
RTVSPost2010Prop28
280
     0
102
RTVSPost2010PropOp28
 70
     1
102
RTVSPost2010Prop29
280
     1
102
RTVSPost2010PropOp29
 70
     1
102
RTVSPost2010Prop30
280
     1
102
RTVSPost2010PropOp30
 70
     1
102
RTVSPost2010Prop31
280
     0
102
RTVSPost2010PropOp31
 70
     1
102
RTVSPost2010Prop32
280
     0
102
RTVSPost2010PropOp32
 70
     1
102
RTVSPost2010Prop33
280
     0
102
RTVSPost2010PropOp33
 70
     1
102
RTVSPost2010Prop34
280
     0
102
RTVSPost2010PropOp34
 70
     1
102
RTVSPost2010Prop35
280
     0
102
RTVSPost2010PropOp35
 70
     1
102
RTVSPost2010Prop36
280
     0
102
RTVSPost2010PropOp36
 70
     1
102
RTVSPost2010Prop37
 90
       50
102
RTVSPost2010PropOp37
 70
     1
102
RTVSPost2010Prop38
140
0.0
102
RTVSPost2010PropOp38
 70
     1
102
RTVSPost2010Prop39
140
1.0
102
RTVSPost2010PropOp39
 70
     1
102
RTVSPost2010Prop40
 90
        0
102
RTVSPost2010PropOp40
 70
     1
102
RTVSPost2010Prop41ColorIndex
 90
       18
102
RTVSPost2010Prop41ColorRGB
 90
        0
102
RTVSPost2010PropOp41
 70
     1
102
RTVSPost2010Prop42
 90
       50
102
RTVSPost2010PropOp42
 70
     1
102
RTVSPost2010Prop43
 90
        3
102
RTVSPost2010PropOp43
 70
     1
102
RTVSPost2010Prop44ColorIndex
 90
        5
102
RTVSPost2010Prop44ColorRGB
 90
      255
102
RTVSPost2010PropOp44
 70
     1
102
RTVSPost2010Prop45
280
     0
102
RTVSPost2010PropOp45
 70
     1
102
RTVSPost2010Prop46
 90
       50
102
RTVSPost2010PropOp46
 70
     1
102
RTVSPost2010Prop47
 90
       50
102
RTVSPost2010PropOp47
 70
     1
102
RTVSPost2010Prop48
 90
       50
102
RTVSPost2010PropOp48
 70
     1
102
RTVSPost2010Prop49
280
     0
102
RTVSPost2010PropOp49
 70
     1
102
RTVSPost2010Prop50
 90
       50
102
RTVSPost2010PropOp50
 70
     1
102
RTVSPost2010Prop51ColorIndex
 90
      256
102
RTVSPost2010Prop51ColorRGB
 90
-16777216
102
RTVSPost2010PropOp51
 70
     0
102
RTVSPost2010Prop52
140
1.0
102
RTVSPost2010PropOp52
 70
     0
102
RTVSPost2010Prop53
 90
        2
102
RTVSPost2010PropOp53
 70
     1
102
RTVSPost2010Prop54
  1
strokes_ogs.tif
102
RTVSPost2010PropOp54
 70
     1
102
RTVSPost2010Prop55
280
     0
102
RTVSPost2010PropOp55
 70
     1
102
RTVSPost2010Prop56
140
1.0
102
RTVSPost2010PropOp56
 70
     1
102
RTVSPost2010Prop57
140
1.0
102
RTVSPost2010PropOp57
 70
     1
  0
XRECORD
  5
279
102
{ACAD_REACTORS
330
278
102
}
330
278
100
AcDbXrecord
280
     1
102
RTVSPost2010Prop28
280
     0
102
RTVSPost2010PropOp28
 70
     0
102
RTVSPost2010Prop29
280
     1
102
RTVSPost2010PropOp29
 70
     0
102
RTVSPost2010Prop30
280
     1
102
RTVSPost2010PropOp30
 70
     0
102
RTVSPost2010Prop31
280
     0
102
RTVSPost2010PropOp31
 70
     0
102
RTVSPost2010Prop32
280
     0
102
RTVSPost2010PropOp32
 70
     0
102
RTVSPost2010Prop33
280
     0
102
RTVSPost2010PropOp33
 70
     0
102
RTVSPost2010Prop34
280
     0
102
RTVSPost2010PropOp34
 70
     0
102
RTVSPost2010Prop35
280
     0
102
RTVSPost2010PropOp35
 70
     0
102
RTVSPost2010Prop36
280
     0
102
RTVSPost2010PropOp36
 70
     0
102
RTVSPost2010Prop37
 90
       50
102
RTVSPost2010PropOp37
 70
     0
102
RTVSPost2010Prop38
140
0.0
102
RTVSPost2010PropOp38
 70
     0
102
RTVSPost2010Prop39
140
1.0
102
RTVSPost2010PropOp39
 70
     0
102
RTVSPost2010Prop40
 90
        0
102
RTVSPost2010PropOp40
 70
     0
102
RTVSPost2010Prop41ColorIndex
 90
       18
102
RTVSPost2010Prop41ColorRGB
 90
        0
102
RTVSPost2010PropOp41
 70
     0
102
RTVSPost2010Prop42
 90
       50
102
RTVSPost2010PropOp42
 70
     0
102
RTVSPost2010Prop43
 90
        3
102
RTVSPost2010PropOp43
 70
     0
102
RTVSPost2010Prop44ColorIndex
 90
        5
102
RTVSPost2010Prop44ColorRGB
 90
      255
102
RTVSPost2010PropOp44
 70
     0
102
RTVSPost2010Prop45
280
     0
102
RTVSPost2010PropOp45
 70
     0
102
RTVSPost2010Prop46
 90
       50
102
RTVSPost2010PropOp46
 70
     0
102
RTVSPost2010Prop47
 90
       50
102
RTVSPost2010PropOp47
 70
     0
102
RTVSPost2010Prop48
 90
       50
102
RTVSPost2010PropOp48
 70
     0
102
RTVSPost2010Prop49
280
     0
102
RTVSPost2010PropOp49
 70
     0
102
RTVSPost2010Prop50
 90
       50
102
RTVSPost2010PropOp50
 70
     0
102
RTVSPost2010Prop51ColorIndex
 90
      256
102
RTVSPost2010Prop51ColorRGB
 90
-16777216
102
RTVSPost2010PropOp51
 70
     0
102
RTVSPost2010Prop52
140
1.0
102
RTVSPost2010PropOp52
 70
     0
102
RTVSPost2010Prop53
 90
        2
102
RTVSPost2010PropOp53
 70
     0
102
RTVSPost2010Prop54
  1
strokes_ogs.tif
102
RTVSPost2010PropOp54
 70
     0
102
RTVSPost2010Prop55
280
     0
102
RTVSPost2010PropOp55
 70
     0
102
RTVSPost2010Prop56
140
1.0
102
RTVSPost2010PropOp56
 70
     0
102
RTVSPost2010Prop57
140
1.0
102
RTVSPost2010PropOp57
 70
     0
  0
XRECORD
  5
271
102
{ACAD_REACTORS
330
270
102
}
330
270
100
AcDbXrecord
280
     1
102
RTVSPost2010Prop28
280
     0
102
RTVSPost2010PropOp28
 70
     1
102
RTVSPost2010Prop29
280
     1
102
RTVSPost2010PropOp29
 70
     1
102
RTVSPost2010Prop30
280
     1
102
RTVSPost2010PropOp30
 70
     1
102
RTVSPost2010Prop31
280
     0
102
RTVSPost2010PropOp31
 70
     1
102
RTVSPost2010Prop32
280
     0
102
RTVSPost2010PropOp32
 70
     1
102
RTVSPost2010Prop33
280
     0
102
RTVSPost2010PropOp33
 70
     1
102
RTVSPost2010Prop34
280
     0
102
RTVSPost2010PropOp34
 70
     1
102
RTVSPost2010Prop35
280
     0
102
RTVSPost2010PropOp35
 70
     1
102
RTVSPost2010Prop36
280
     0
102
RTVSPost2010PropOp36
 70
     1
102
RTVSPost2010Prop37
 90
       50
102
RTVSPost2010PropOp37
 70
     1
102
RTVSPost2010Prop38
140
0.0
102
RTVSPost2010PropOp38
 70
     1
102
RTVSPost2010Prop39
140
1.0
102
RTVSPost2010PropOp39
 70
     1
102
RTVSPost2010Prop40
 90
        0
102
RTVSPost2010PropOp40
 70
     1
102
RTVSPost2010Prop41ColorIndex
 90
       18
102
RTVSPost2010Prop41ColorRGB
 90
        0
102
RTVSPost2010PropOp41
 70
     1
102
RTVSPost2010Prop42
 90
       50
102
RTVSPost2010PropOp42
 70
     1
102
RTVSPost2010Prop43
 90
        3
102
RTVSPost2010PropOp43
 70
     1
102
RTVSPost2010Prop44ColorIndex
 90
        5
102
RTVSPost2010Prop44ColorRGB
 90
      255
102
RTVSPost2010PropOp44
 70
     1
102
RTVSPost2010Prop45
280
     0
102
RTVSPost2010PropOp45
 70
     1
102
RTVSPost2010Prop46
 90
       50
102
RTVSPost2010PropOp46
 70
     1
102
RTVSPost2010Prop47
 90
       50
102
RTVSPost2010PropOp47
 70
     1
102
RTVSPost2010Prop48
 90
       50
102
RTVSPost2010PropOp48
 70
     1
102
RTVSPost2010Prop49
280
     0
102
RTVSPost2010PropOp49
 70
     1
102
RTVSPost2010Prop50
 90
       50
102
RTVSPost2010PropOp50
 70
     1
102
RTVSPost2010Prop51ColorIndex
 90
      256
102
RTVSPost2010Prop51ColorRGB
 90
-16777216
102
RTVSPost2010PropOp51
 70
     0
102
RTVSPost2010Prop52
140
1.0
102
RTVSPost2010PropOp52
 70
     0
102
RTVSPost2010Prop53
 90
        2
102
RTVSPost2010PropOp53
 70
     1
102
RTVSPost2010Prop54
  1
strokes_ogs.tif
102
RTVSPost2010PropOp54
 70
     1
102
RTVSPost2010Prop55
280
     0
102
RTVSPost2010PropOp55
 70
     1
102
RTVSPost2010Prop56
140
1.0
102
RTVSPost2010PropOp56
 70
     1
102
RTVSPost2010Prop57
140
1.0
102
RTVSPost2010PropOp57
 70
     1
  0
XRECORD
  5
255
102
{ACAD_REACTORS
330
254
102
}
330
254
100
AcDbXrecord
280
     1
102
RTVSPost2010Prop28
280
     0
102
RTVSPost2010PropOp28
 70
     1
102
RTVSPost2010Prop29
280
     1
102
RTVSPost2010PropOp29
 70
     1
102
RTVSPost2010Prop30
280
     1
102
RTVSPost2010PropOp30
 70
     1
102
RTVSPost2010Prop31
280
     0
102
RTVSPost2010PropOp31
 70
     1
102
RTVSPost2010Prop32
280
     0
102
RTVSPost2010PropOp32
 70
     1
102
RTVSPost2010Prop33
280
     0
102
RTVSPost2010PropOp33
 70
     1
102
RTVSPost2010Prop34
280
     0
102
RTVSPost2010PropOp34
 70
     1
102
RTVSPost2010Prop35
280
     0
102
RTVSPost2010PropOp35
 70
     1
102
RTVSPost2010Prop36
280
     0
102
RTVSPost2010PropOp36
 70
     1
102
RTVSPost2010Prop37
 90
       50
102
RTVSPost2010PropOp37
 70
     1
102
RTVSPost2010Prop38
140
0.0
102
RTVSPost2010PropOp38
 70
     1
102
RTVSPost2010Prop39
140
1.0
102
RTVSPost2010PropOp39
 70
     1
102
RTVSPost2010Prop40
 90
        0
102
RTVSPost2010PropOp40
 70
     1
102
RTVSPost2010Prop41ColorIndex
 90
       18
102
RTVSPost2010Prop41ColorRGB
 90
        0
102
RTVSPost2010PropOp41
 70
     1
102
RTVSPost2010Prop42
 90
       50
102
RTVSPost2010PropOp42
 70
     1
102
RTVSPost2010Prop43
 90
        3
102
RTVSPost2010PropOp43
 70
     1
102
RTVSPost2010Prop44ColorIndex
 90
        5
102
RTVSPost2010Prop44ColorRGB
 90
      255
102
RTVSPost2010PropOp44
 70
     1
102
RTVSPost2010Prop45
280
     0
102
RTVSPost2010PropOp45
 70
     1
102
RTVSPost2010Prop46
 90
       50
102
RTVSPost2010PropOp46
 70
     1
102
RTVSPost2010Prop47
 90
       50
102
RTVSPost2010PropOp47
 70
     1
102
RTVSPost2010Prop48
 90
       50
102
RTVSPost2010PropOp48
 70
     1
102
RTVSPost2010Prop49
280
     0
102
RTVSPost2010PropOp49
 70
     1
102
RTVSPost2010Prop50
 90
       50
102
RTVSPost2010PropOp50
 70
     1
102
RTVSPost2010Prop51ColorIndex
 90
      256
102
RTVSPost2010Prop51ColorRGB
 90
-16777216
102
RTVSPost2010PropOp51
 70
     0
102
RTVSPost2010Prop52
140
1.0
102
RTVSPost2010PropOp52
 70
     0
102
RTVSPost2010Prop53
 90
        2
102
RTVSPost2010PropOp53
 70
     1
102
RTVSPost2010Prop54
  1
strokes_ogs.tif
102
RTVSPost2010PropOp54
 70
     1
102
RTVSPost2010Prop55
280
     0
102
RTVSPost2010PropOp55
 70
     1
102
RTVSPost2010Prop56
140
1.0
102
RTVSPost2010PropOp56
 70
     1
102
RTVSPost2010Prop57
140
1.0
102
RTVSPost2010PropOp57
 70
     1
  0
XRECORD
  5
257
102
{ACAD_REACTORS
330
256
102
}
330
256
100
AcDbXrecord
280
     1
102
RTVSPost2010Prop28
280
     0
102
RTVSPost2010PropOp28
 70
     1
102
RTVSPost2010Prop29
280
     1
102
RTVSPost2010PropOp29
 70
     1
102
RTVSPost2010Prop30
280
     1
102
RTVSPost2010PropOp30
 70
     1
102
RTVSPost2010Prop31
280
     0
102
RTVSPost2010PropOp31
 70
     1
102
RTVSPost2010Prop32
280
     0
102
RTVSPost2010PropOp32
 70
     1
102
RTVSPost2010Prop33
280
     0
102
RTVSPost2010PropOp33
 70
     1
102
RTVSPost2010Prop34
280
     0
102
RTVSPost2010PropOp34
 70
     1
102
RTVSPost2010Prop35
280
     0
102
RTVSPost2010PropOp35
 70
     1
102
RTVSPost2010Prop36
280
     0
102
RTVSPost2010PropOp36
 70
     1
102
RTVSPost2010Prop37
 90
       50
102
RTVSPost2010PropOp37
 70
     1
102
RTVSPost2010Prop38
140
0.0
102
RTVSPost2010PropOp38
 70
     1
102
RTVSPost2010Prop39
140
1.0
102
RTVSPost2010PropOp39
 70
     1
102
RTVSPost2010Prop40
 90
        0
102
RTVSPost2010PropOp40
 70
     1
102
RTVSPost2010Prop41ColorIndex
 90
       18
102
RTVSPost2010Prop41ColorRGB
 90
        0
102
RTVSPost2010PropOp41
 70
     1
102
RTVSPost2010Prop42
 90
       50
102
RTVSPost2010PropOp42
 70
     1
102
RTVSPost2010Prop43
 90
        3
102
RTVSPost2010PropOp43
 70
     1
102
RTVSPost2010Prop44ColorIndex
 90
        5
102
RTVSPost2010Prop44ColorRGB
 90
      255
102
RTVSPost2010PropOp44
 70
     1
102
RTVSPost2010Prop45
280
     0
102
RTVSPost2010PropOp45
 70
     1
102
RTVSPost2010Prop46
 90
       50
102
RTVSPost2010PropOp46
 70
     1
102
RTVSPost2010Prop47
 90
       50
102
RTVSPost2010PropOp47
 70
     1
102
RTVSPost2010Prop48
 90
       50
102
RTVSPost2010PropOp48
 70
     1
102
RTVSPost2010Prop49
280
     0
102
RTVSPost2010PropOp49
 70
     1
102
RTVSPost2010Prop50
 90
       50
102
RTVSPost2010PropOp50
 70
     1
102
RTVSPost2010Prop51ColorIndex
 90
      256
102
RTVSPost2010Prop51ColorRGB
 90
-16777216
102
RTVSPost2010PropOp51
 70
     0
102
RTVSPost2010Prop52
140
1.0
102
RTVSPost2010PropOp52
 70
     0
102
RTVSPost2010Prop53
 90
        2
102
RTVSPost2010PropOp53
 70
     1
102
RTVSPost2010Prop54
  1
strokes_ogs.tif
102
RTVSPost2010PropOp54
 70
     1
102
RTVSPost2010Prop55
280
     0
102
RTVSPost2010PropOp55
 70
     1
102
RTVSPost2010Prop56
140
1.0
102
RTVSPost2010PropOp56
 70
     1
102
RTVSPost2010Prop57
140
1.0
102
RTVSPost2010PropOp57
 70
     1
  0
XRECORD
  5
259
102
{ACAD_REACTORS
330
258
102
}
330
258
100
AcDbXrecord
280
     1
102
RTVSPost2010Prop28
280
     0
102
RTVSPost2010PropOp28
 70
     1
102
RTVSPost2010Prop29
280
     1
102
RTVSPost2010PropOp29
 70
     1
102
RTVSPost2010Prop30
280
     1
102
RTVSPost2010PropOp30
 70
     1
102
RTVSPost2010Prop31
280
     0
102
RTVSPost2010PropOp31
 70
     1
102
RTVSPost2010Prop32
280
     0
102
RTVSPost2010PropOp32
 70
     1
102
RTVSPost2010Prop33
280
     0
102
RTVSPost2010PropOp33
 70
     1
102
RTVSPost2010Prop34
280
     0
102
RTVSPost2010PropOp34
 70
     1
102
RTVSPost2010Prop35
280
     0
102
RTVSPost2010PropOp35
 70
     1
102
RTVSPost2010Prop36
280
     0
102
RTVSPost2010PropOp36
 70
     1
102
RTVSPost2010Prop37
 90
       50
102
RTVSPost2010PropOp37
 70
     1
102
RTVSPost2010Prop38
140
0.0
102
RTVSPost2010PropOp38
 70
     1
102
RTVSPost2010Prop39
140
1.0
102
RTVSPost2010PropOp39
 70
     1
102
RTVSPost2010Prop40
 90
        0
102
RTVSPost2010PropOp40
 70
     1
102
RTVSPost2010Prop41ColorIndex
 90
       18
102
RTVSPost2010Prop41ColorRGB
 90
        0
102
RTVSPost2010PropOp41
 70
     1
102
RTVSPost2010Prop42
 90
       50
102
RTVSPost2010PropOp42
 70
     1
102
RTVSPost2010Prop43
 90
        3
102
RTVSPost2010PropOp43
 70
     1
102
RTVSPost2010Prop44ColorIndex
 90
        5
102
RTVSPost2010Prop44ColorRGB
 90
      255
102
RTVSPost2010PropOp44
 70
     1
102
RTVSPost2010Prop45
280
     0
102
RTVSPost2010PropOp45
 70
     1
102
RTVSPost2010Prop46
 90
       50
102
RTVSPost2010PropOp46
 70
     1
102
RTVSPost2010Prop47
 90
       50
102
RTVSPost2010PropOp47
 70
     1
102
RTVSPost2010Prop48
 90
       50
102
RTVSPost2010PropOp48
 70
     1
102
RTVSPost2010Prop49
280
     0
102
RTVSPost2010PropOp49
 70
     1
102
RTVSPost2010Prop50
 90
       50
102
RTVSPost2010PropOp50
 70
     1
102
RTVSPost2010Prop51ColorIndex
 90
      256
102
RTVSPost2010Prop51ColorRGB
 90
-16777216
102
RTVSPost2010PropOp51
 70
     0
102
RTVSPost2010Prop52
140
1.0
102
RTVSPost2010PropOp52
 70
     0
102
RTVSPost2010Prop53
 90
        2
102
RTVSPost2010PropOp53
 70
     1
102
RTVSPost2010Prop54
  1
strokes_ogs.tif
102
RTVSPost2010PropOp54
 70
     1
102
RTVSPost2010Prop55
280
     0
102
RTVSPost2010PropOp55
 70
     1
102
RTVSPost2010Prop56
140
1.0
102
RTVSPost2010PropOp56
 70
     1
102
RTVSPost2010Prop57
140
1.0
102
RTVSPost2010PropOp57
 70
     1
  0
XRECORD
  5
25B
102
{ACAD_REACTORS
330
25A
102
}
330
25A
100
AcDbXrecord
280
     1
102
RTVSPost2010Prop28
280
     0
102
RTVSPost2010PropOp28
 70
     1
102
RTVSPost2010Prop29
280
     1
102
RTVSPost2010PropOp29
 70
     1
102
RTVSPost2010Prop30
280
     1
102
RTVSPost2010PropOp30
 70
     1
102
RTVSPost2010Prop31
280
     0
102
RTVSPost2010PropOp31
 70
     1
102
RTVSPost2010Prop32
280
     0
102
RTVSPost2010PropOp32
 70
     1
102
RTVSPost2010Prop33
280
     0
102
RTVSPost2010PropOp33
 70
     1
102
RTVSPost2010Prop34
280
     0
102
RTVSPost2010PropOp34
 70
     1
102
RTVSPost2010Prop35
280
     0
102
RTVSPost2010PropOp35
 70
     1
102
RTVSPost2010Prop36
280
     0
102
RTVSPost2010PropOp36
 70
     1
102
RTVSPost2010Prop37
 90
       50
102
RTVSPost2010PropOp37
 70
     1
102
RTVSPost2010Prop38
140
0.0
102
RTVSPost2010PropOp38
 70
     1
102
RTVSPost2010Prop39
140
1.0
102
RTVSPost2010PropOp39
 70
     1
102
RTVSPost2010Prop40
 90
        0
102
RTVSPost2010PropOp40
 70
     1
102
RTVSPost2010Prop41ColorIndex
 90
       18
102
RTVSPost2010Prop41ColorRGB
 90
        0
102
RTVSPost2010PropOp41
 70
     1
102
RTVSPost2010Prop42
 90
       50
102
RTVSPost2010PropOp42
 70
     1
102
RTVSPost2010Prop43
 90
        3
102
RTVSPost2010PropOp43
 70
     1
102
RTVSPost2010Prop44ColorIndex
 90
        5
102
RTVSPost2010Prop44ColorRGB
 90
      255
102
RTVSPost2010PropOp44
 70
     1
102
RTVSPost2010Prop45
280
     0
102
RTVSPost2010PropOp45
 70
     1
102
RTVSPost2010Prop46
 90
       50
102
RTVSPost2010PropOp46
 70
     1
102
RTVSPost2010Prop47
 90
       50
102
RTVSPost2010PropOp47
 70
     1
102
RTVSPost2010Prop48
 90
       50
102
RTVSPost2010PropOp48
 70
     1
102
RTVSPost2010Prop49
280
     0
102
RTVSPost2010PropOp49
 70
     1
102
RTVSPost2010Prop50
 90
       50
102
RTVSPost2010PropOp50
 70
     1
102
RTVSPost2010Prop51ColorIndex
 90
      256
102
RTVSPost2010Prop51ColorRGB
 90
-16777216
102
RTVSPost2010PropOp51
 70
     0
102
RTVSPost2010Prop52
140
1.0
102
RTVSPost2010PropOp52
 70
     0
102
RTVSPost2010Prop53
 90
        2
102
RTVSPost2010PropOp53
 70
     1
102
RTVSPost2010Prop54
  1
strokes_ogs.tif
102
RTVSPost2010PropOp54
 70
     1
102
RTVSPost2010Prop55
280
     0
102
RTVSPost2010PropOp55
 70
     1
102
RTVSPost2010Prop56
140
1.0
102
RTVSPost2010PropOp56
 70
     1
102
RTVSPost2010Prop57
140
1.0
102
RTVSPost2010PropOp57
 70
     1
  0
XRECORD
  5
261
102
{ACAD_REACTORS
330
260
102
}
330
260
100
AcDbXrecord
280
     1
102
RTVSPost2010Prop28
280
     0
102
RTVSPost2010PropOp28
 70
     1
102
RTVSPost2010Prop29
280
     1
102
RTVSPost2010PropOp29
 70
     1
102
RTVSPost2010Prop30
280
     1
102
RTVSPost2010PropOp30
 70
     1
102
RTVSPost2010Prop31
280
     0
102
RTVSPost2010PropOp31
 70
     1
102
RTVSPost2010Prop32
280
     0
102
RTVSPost2010PropOp32
 70
     1
102
RTVSPost2010Prop33
280
     0
102
RTVSPost2010PropOp33
 70
     1
102
RTVSPost2010Prop34
280
     0
102
RTVSPost2010PropOp34
 70
     1
102
RTVSPost2010Prop35
280
     0
102
RTVSPost2010PropOp35
 70
     1
102
RTVSPost2010Prop36
280
     0
102
RTVSPost2010PropOp36
 70
     1
102
RTVSPost2010Prop37
 90
       50
102
RTVSPost2010PropOp37
 70
     1
102
RTVSPost2010Prop38
140
0.0
102
RTVSPost2010PropOp38
 70
     1
102
RTVSPost2010Prop39
140
1.0
102
RTVSPost2010PropOp39
 70
     1
102
RTVSPost2010Prop40
 90
        0
102
RTVSPost2010PropOp40
 70
     1
102
RTVSPost2010Prop41ColorIndex
 90
       18
102
RTVSPost2010Prop41ColorRGB
 90
        0
102
RTVSPost2010PropOp41
 70
     1
102
RTVSPost2010Prop42
 90
       50
102
RTVSPost2010PropOp42
 70
     1
102
RTVSPost2010Prop43
 90
        3
102
RTVSPost2010PropOp43
 70
     1
102
RTVSPost2010Prop44ColorIndex
 90
        5
102
RTVSPost2010Prop44ColorRGB
 90
      255
102
RTVSPost2010PropOp44
 70
     1
102
RTVSPost2010Prop45
280
     0
102
RTVSPost2010PropOp45
 70
     1
102
RTVSPost2010Prop46
 90
       50
102
RTVSPost2010PropOp46
 70
     1
102
RTVSPost2010Prop47
 90
       50
102
RTVSPost2010PropOp47
 70
     1
102
RTVSPost2010Prop48
 90
       50
102
RTVSPost2010PropOp48
 70
     1
102
RTVSPost2010Prop49
280
     0
102
RTVSPost2010PropOp49
 70
     1
102
RTVSPost2010Prop50
 90
       50
102
RTVSPost2010PropOp50
 70
     1
102
RTVSPost2010Prop51ColorIndex
 90
      256
102
RTVSPost2010Prop51ColorRGB
 90
-16777216
102
RTVSPost2010PropOp51
 70
     0
102
RTVSPost2010Prop52
140
1.0
102
RTVSPost2010PropOp52
 70
     0
102
RTVSPost2010Prop53
 90
        2
102
RTVSPost2010PropOp53
 70
     1
102
RTVSPost2010Prop54
  1
strokes_ogs.tif
102
RTVSPost2010PropOp54
 70
     1
102
RTVSPost2010Prop55
280
     0
102
RTVSPost2010PropOp55
 70
     1
102
RTVSPost2010Prop56
140
1.0
102
RTVSPost2010PropOp56
 70
     1
102
RTVSPost2010Prop57
140
1.0
102
RTVSPost2010PropOp57
 70
     1
  0
XRECORD
  5
275
102
{ACAD_REACTORS
330
274
102
}
330
274
100
AcDbXrecord
280
     1
102
RTVSPost2010Prop28
280
     0
102
RTVSPost2010PropOp28
 70
     0
102
RTVSPost2010Prop29
280
     1
102
RTVSPost2010PropOp29
 70
     0
102
RTVSPost2010Prop30
280
     1
102
RTVSPost2010PropOp30
 70
     0
102
RTVSPost2010Prop31
280
     0
102
RTVSPost2010PropOp31
 70
     0
102
RTVSPost2010Prop32
280
     0
102
RTVSPost2010PropOp32
 70
     0
102
RTVSPost2010Prop33
280
     0
102
RTVSPost2010PropOp33
 70
     0
102
RTVSPost2010Prop34
280
     0
102
RTVSPost2010PropOp34
 70
     0
102
RTVSPost2010Prop35
280
     0
102
RTVSPost2010PropOp35
 70
     0
102
RTVSPost2010Prop36
280
     0
102
RTVSPost2010PropOp36
 70
     0
102
RTVSPost2010Prop37
 90
       50
102
RTVSPost2010PropOp37
 70
     0
102
RTVSPost2010Prop38
140
0.0
102
RTVSPost2010PropOp38
 70
     0
102
RTVSPost2010Prop39
140
1.0
102
RTVSPost2010PropOp39
 70
     0
102
RTVSPost2010Prop40
 90
        0
102
RTVSPost2010PropOp40
 70
     0
102
RTVSPost2010Prop41ColorIndex
 90
       18
102
RTVSPost2010Prop41ColorRGB
 90
        0
102
RTVSPost2010PropOp41
 70
     0
102
RTVSPost2010Prop42
 90
       50
102
RTVSPost2010PropOp42
 70
     0
102
RTVSPost2010Prop43
 90
        3
102
RTVSPost2010PropOp43
 70
     0
102
RTVSPost2010Prop44ColorIndex
 90
        5
102
RTVSPost2010Prop44ColorRGB
 90
      255
102
RTVSPost2010PropOp44
 70
     0
102
RTVSPost2010Prop45
280
     0
102
RTVSPost2010PropOp45
 70
     0
102
RTVSPost2010Prop46
 90
       50
102
RTVSPost2010PropOp46
 70
     0
102
RTVSPost2010Prop47
 90
       50
102
RTVSPost2010PropOp47
 70
     0
102
RTVSPost2010Prop48
 90
       50
102
RTVSPost2010PropOp48
 70
     0
102
RTVSPost2010Prop49
280
     0
102
RTVSPost2010PropOp49
 70
     0
102
RTVSPost2010Prop50
 90
       50
102
RTVSPost2010PropOp50
 70
     0
102
RTVSPost2010Prop51ColorIndex
 90
      256
102
RTVSPost2010Prop51ColorRGB
 90
-16777216
102
RTVSPost2010PropOp51
 70
     0
102
RTVSPost2010Prop52
140
1.0
102
RTVSPost2010PropOp52
 70
     0
102
RTVSPost2010Prop53
 90
        2
102
RTVSPost2010PropOp53
 70
     0
102
RTVSPost2010Prop54
  1
strokes_ogs.tif
102
RTVSPost2010PropOp54
 70
     0
102
RTVSPost2010Prop55
280
     0
102
RTVSPost2010PropOp55
 70
     0
102
RTVSPost2010Prop56
140
1.0
102
RTVSPost2010PropOp56
 70
     0
102
RTVSPost2010Prop57
140
1.0
102
RTVSPost2010PropOp57
 70
     0
  0
XRECORD
  5
26F
102
{ACAD_REACTORS
330
26E
102
}
330
26E
100
AcDbXrecord
280
     1
102
RTVSPost2010Prop28
280
     0
102
RTVSPost2010PropOp28
 70
     1
102
RTVSPost2010Prop29
280
     1
102
RTVSPost2010PropOp29
 70
     1
102
RTVSPost2010Prop30
280
     1
102
RTVSPost2010PropOp30
 70
     1
102
RTVSPost2010Prop31
280
     0
102
RTVSPost2010PropOp31
 70
     1
102
RTVSPost2010Prop32
280
     0
102
RTVSPost2010PropOp32
 70
     1
102
RTVSPost2010Prop33
280
     0
102
RTVSPost2010PropOp33
 70
     1
102
RTVSPost2010Prop34
280
     0
102
RTVSPost2010PropOp34
 70
     1
102
RTVSPost2010Prop35
280
     0
102
RTVSPost2010PropOp35
 70
     1
102
RTVSPost2010Prop36
280
     0
102
RTVSPost2010PropOp36
 70
     1
102
RTVSPost2010Prop37
 90
       50
102
RTVSPost2010PropOp37
 70
     1
102
RTVSPost2010Prop38
140
0.0
102
RTVSPost2010PropOp38
 70
     1
102
RTVSPost2010Prop39
140
1.0
102
RTVSPost2010PropOp39
 70
     1
102
RTVSPost2010Prop40
 90
        0
102
RTVSPost2010PropOp40
 70
     1
102
RTVSPost2010Prop41ColorIndex
 90
       18
102
RTVSPost2010Prop41ColorRGB
 90
        0
102
RTVSPost2010PropOp41
 70
     1
102
RTVSPost2010Prop42
 90
       50
102
RTVSPost2010PropOp42
 70
     1
102
RTVSPost2010Prop43
 90
        3
102
RTVSPost2010PropOp43
 70
     1
102
RTVSPost2010Prop44ColorIndex
 90
        5
102
RTVSPost2010Prop44ColorRGB
 90
      255
102
RTVSPost2010PropOp44
 70
     1
102
RTVSPost2010Prop45
280
     0
102
RTVSPost2010PropOp45
 70
     1
102
RTVSPost2010Prop46
 90
       50
102
RTVSPost2010PropOp46
 70
     1
102
RTVSPost2010Prop47
 90
       50
102
RTVSPost2010PropOp47
 70
     1
102
RTVSPost2010Prop48
 90
       50
102
RTVSPost2010PropOp48
 70
     1
102
RTVSPost2010Prop49
280
     0
102
RTVSPost2010PropOp49
 70
     1
102
RTVSPost2010Prop50
 90
       50
102
RTVSPost2010PropOp50
 70
     1
102
RTVSPost2010Prop51ColorIndex
 90
      256
102
RTVSPost2010Prop51ColorRGB
 90
-16777216
102
RTVSPost2010PropOp51
 70
     0
102
RTVSPost2010Prop52
140
1.0
102
RTVSPost2010PropOp52
 70
     0
102
RTVSPost2010Prop53
 90
        2
102
RTVSPost2010PropOp53
 70
     1
102
RTVSPost2010Prop54
  1
strokes_ogs.tif
102
RTVSPost2010PropOp54
 70
     1
102
RTVSPost2010Prop55
280
     0
102
RTVSPost2010PropOp55
 70
     1
102
RTVSPost2010Prop56
140
1.0
102
RTVSPost2010PropOp56
 70
     1
102
RTVSPost2010Prop57
140
1.0
102
RTVSPost2010PropOp57
 70
     1
  0
XRECORD
  5
277
102
{ACAD_REACTORS
330
276
102
}
330
276
100
AcDbXrecord
280
     1
102
RTVSPost2010Prop28
280
     0
102
RTVSPost2010PropOp28
 70
     0
102
RTVSPost2010Prop29
280
     1
102
RTVSPost2010PropOp29
 70
     0
102
RTVSPost2010Prop30
280
     1
102
RTVSPost2010PropOp30
 70
     0
102
RTVSPost2010Prop31
280
     0
102
RTVSPost2010PropOp31
 70
     0
102
RTVSPost2010Prop32
280
     0
102
RTVSPost2010PropOp32
 70
     0
102
RTVSPost2010Prop33
280
     0
102
RTVSPost2010PropOp33
 70
     0
102
RTVSPost2010Prop34
280
     0
102
RTVSPost2010PropOp34
 70
     0
102
RTVSPost2010Prop35
280
     0
102
RTVSPost2010PropOp35
 70
     0
102
RTVSPost2010Prop36
280
     0
102
RTVSPost2010PropOp36
 70
     0
102
RTVSPost2010Prop37
 90
       50
102
RTVSPost2010PropOp37
 70
     0
102
RTVSPost2010Prop38
140
0.0
102
RTVSPost2010PropOp38
 70
     0
102
RTVSPost2010Prop39
140
1.0
102
RTVSPost2010PropOp39
 70
     0
102
RTVSPost2010Prop40
 90
        0
102
RTVSPost2010PropOp40
 70
     0
102
RTVSPost2010Prop41ColorIndex
 90
       18
102
RTVSPost2010Prop41ColorRGB
 90
        0
102
RTVSPost2010PropOp41
 70
     0
102
RTVSPost2010Prop42
 90
       50
102
RTVSPost2010PropOp42
 70
     0
102
RTVSPost2010Prop43
 90
        3
102
RTVSPost2010PropOp43
 70
     0
102
RTVSPost2010Prop44ColorIndex
 90
        5
102
RTVSPost2010Prop44ColorRGB
 90
      255
102
RTVSPost2010PropOp44
 70
     0
102
RTVSPost2010Prop45
280
     0
102
RTVSPost2010PropOp45
 70
     0
102
RTVSPost2010Prop46
 90
       50
102
RTVSPost2010PropOp46
 70
     0
102
RTVSPost2010Prop47
 90
       50
102
RTVSPost2010PropOp47
 70
     0
102
RTVSPost2010Prop48
 90
       50
102
RTVSPost2010PropOp48
 70
     0
102
RTVSPost2010Prop49
280
     0
102
RTVSPost2010PropOp49
 70
     0
102
RTVSPost2010Prop50
 90
       50
102
RTVSPost2010PropOp50
 70
     0
102
RTVSPost2010Prop51ColorIndex
 90
      256
102
RTVSPost2010Prop51ColorRGB
 90
-16777216
102
RTVSPost2010PropOp51
 70
     0
102
RTVSPost2010Prop52
140
1.0
102
RTVSPost2010PropOp52
 70
     0
102
RTVSPost2010Prop53
 90
        2
102
RTVSPost2010PropOp53
 70
     0
102
RTVSPost2010Prop54
  1
strokes_ogs.tif
102
RTVSPost2010PropOp54
 70
     0
102
RTVSPost2010Prop55
280
     0
102
RTVSPost2010PropOp55
 70
     0
102
RTVSPost2010Prop56
140
1.0
102
RTVSPost2010PropOp56
 70
     0
102
RTVSPost2010Prop57
140
1.0
102
RTVSPost2010PropOp57
 70
     0
  0
XRECORD
  5
265
102
{ACAD_REACTORS
330
264
102
}
330
264
100
AcDbXrecord
280
     1
102
RTVSPost2010Prop28
280
     0
102
RTVSPost2010PropOp28
 70
     1
102
RTVSPost2010Prop29
280
     1
102
RTVSPost2010PropOp29
 70
     1
102
RTVSPost2010Prop30
280
     1
102
RTVSPost2010PropOp30
 70
     1
102
RTVSPost2010Prop31
280
     0
102
RTVSPost2010PropOp31
 70
     1
102
RTVSPost2010Prop32
280
     0
102
RTVSPost2010PropOp32
 70
     1
102
RTVSPost2010Prop33
280
     0
102
RTVSPost2010PropOp33
 70
     1
102
RTVSPost2010Prop34
280
     0
102
RTVSPost2010PropOp34
 70
     1
102
RTVSPost2010Prop35
280
     0
102
RTVSPost2010PropOp35
 70
     1
102
RTVSPost2010Prop36
280
     0
102
RTVSPost2010PropOp36
 70
     1
102
RTVSPost2010Prop37
 90
       50
102
RTVSPost2010PropOp37
 70
     1
102
RTVSPost2010Prop38
140
0.0
102
RTVSPost2010PropOp38
 70
     1
102
RTVSPost2010Prop39
140
1.0
102
RTVSPost2010PropOp39
 70
     1
102
RTVSPost2010Prop40
 90
        0
102
RTVSPost2010PropOp40
 70
     1
102
RTVSPost2010Prop41ColorIndex
 90
       18
102
RTVSPost2010Prop41ColorRGB
 90
        0
102
RTVSPost2010PropOp41
 70
     1
102
RTVSPost2010Prop42
 90
       50
102
RTVSPost2010PropOp42
 70
     1
102
RTVSPost2010Prop43
 90
        3
102
RTVSPost2010PropOp43
 70
     1
102
RTVSPost2010Prop44ColorIndex
 90
        5
102
RTVSPost2010Prop44ColorRGB
 90
      255
102
RTVSPost2010PropOp44
 70
     1
102
RTVSPost2010Prop45
280
     0
102
RTVSPost2010PropOp45
 70
     1
102
RTVSPost2010Prop46
 90
       50
102
RTVSPost2010PropOp46
 70
     1
102
RTVSPost2010Prop47
 90
       50
102
RTVSPost2010PropOp47
 70
     1
102
RTVSPost2010Prop48
 90
       50
102
RTVSPost2010PropOp48
 70
     1
102
RTVSPost2010Prop49
280
     0
102
RTVSPost2010PropOp49
 70
     1
102
RTVSPost2010Prop50
 90
       50
102
RTVSPost2010PropOp50
 70
     1
102
RTVSPost2010Prop51ColorIndex
 90
      256
102
RTVSPost2010Prop51ColorRGB
 90
-16777216
102
RTVSPost2010PropOp51
 70
     0
102
RTVSPost2010Prop52
140
1.0
102
RTVSPost2010PropOp52
 70
     0
102
RTVSPost2010Prop53
 90
        2
102
RTVSPost2010PropOp53
 70
     1
102
RTVSPost2010Prop54
  1
strokes_ogs.tif
102
RTVSPost2010PropOp54
 70
     1
102
RTVSPost2010Prop55
280
     0
102
RTVSPost2010PropOp55
 70
     1
102
RTVSPost2010Prop56
140
1.0
102
RTVSPost2010PropOp56
 70
     1
102
RTVSPost2010Prop57
140
1.0
102
RTVSPost2010PropOp57
 70
     1
  0
XRECORD
  5
283
102
{ACAD_REACTORS
330
282
102
}
330
282
100
AcDbXrecord
280
     1
102
RTVSPost2010Prop28
280
     0
102
RTVSPost2010PropOp28
 70
     1
102
RTVSPost2010Prop29
280
     1
102
RTVSPost2010PropOp29
 70
     1
102
RTVSPost2010Prop30
280
     1
102
RTVSPost2010PropOp30
 70
     1
102
RTVSPost2010Prop31
280
     0
102
RTVSPost2010PropOp31
 70
     1
102
RTVSPost2010Prop32
280
     0
102
RTVSPost2010PropOp32
 70
     1
102
RTVSPost2010Prop33
280
     0
102
RTVSPost2010PropOp33
 70
     1
102
RTVSPost2010Prop34
280
     0
102
RTVSPost2010PropOp34
 70
     1
102
RTVSPost2010Prop35
280
     0
102
RTVSPost2010PropOp35
 70
     1
102
RTVSPost2010Prop36
280
     0
102
RTVSPost2010PropOp36
 70
     1
102
RTVSPost2010Prop37
 90
       50
102
RTVSPost2010PropOp37
 70
     1
102
RTVSPost2010Prop38
140
0.0
102
RTVSPost2010PropOp38
 70
     1
102
RTVSPost2010Prop39
140
1.0
102
RTVSPost2010PropOp39
 70
     1
102
RTVSPost2010Prop40
 90
        0
102
RTVSPost2010PropOp40
 70
     1
102
RTVSPost2010Prop41ColorIndex
 90
       18
102
RTVSPost2010Prop41ColorRGB
 90
        0
102
RTVSPost2010PropOp41
 70
     1
102
RTVSPost2010Prop42
 90
       50
102
RTVSPost2010PropOp42
 70
     1
102
RTVSPost2010Prop43
 90
        3
102
RTVSPost2010PropOp43
 70
     1
102
RTVSPost2010Prop44ColorIndex
 90
        5
102
RTVSPost2010Prop44ColorRGB
 90
      255
102
RTVSPost2010PropOp44
 70
     1
102
RTVSPost2010Prop45
280
     0
102
RTVSPost2010PropOp45
 70
     1
102
RTVSPost2010Prop46
 90
       50
102
RTVSPost2010PropOp46
 70
     1
102
RTVSPost2010Prop47
 90
       50
102
RTVSPost2010PropOp47
 70
     1
102
RTVSPost2010Prop48
 90
       50
102
RTVSPost2010PropOp48
 70
     1
102
RTVSPost2010Prop49
280
     0
102
RTVSPost2010PropOp49
 70
     1
102
RTVSPost2010Prop50
 90
       50
102
RTVSPost2010PropOp50
 70
     1
102
RTVSPost2010Prop51ColorIndex
 90
      256
102
RTVSPost2010Prop51ColorRGB
 90
-16777216
102
RTVSPost2010PropOp51
 70
     0
102
RTVSPost2010Prop52
140
1.0
102
RTVSPost2010PropOp52
 70
     0
102
RTVSPost2010Prop53
 90
        2
102
RTVSPost2010PropOp53
 70
     1
102
RTVSPost2010Prop54
  1
strokes_ogs.tif
102
RTVSPost2010PropOp54
 70
     1
102
RTVSPost2010Prop55
280
     0
102
RTVSPost2010PropOp55
 70
     1
102
RTVSPost2010Prop56
140
1.0
102
RTVSPost2010PropOp56
 70
     1
102
RTVSPost2010Prop57
140
1.0
102
RTVSPost2010PropOp57
 70
     1
  0
XRECORD
  5
281
102
{ACAD_REACTORS
330
280
102
}
330
280
100
AcDbXrecord
280
     1
102
RTVSPost2010Prop28
280
     0
102
RTVSPost2010PropOp28
 70
     1
102
RTVSPost2010Prop29
280
     1
102
RTVSPost2010PropOp29
 70
     1
102
RTVSPost2010Prop30
280
     1
102
RTVSPost2010PropOp30
 70
     1
102
RTVSPost2010Prop31
280
     0
102
RTVSPost2010PropOp31
 70
     1
102
RTVSPost2010Prop32
280
     0
102
RTVSPost2010PropOp32
 70
     1
102
RTVSPost2010Prop33
280
     0
102
RTVSPost2010PropOp33
 70
     1
102
RTVSPost2010Prop34
280
     0
102
RTVSPost2010PropOp34
 70
     1
102
RTVSPost2010Prop35
280
     0
102
RTVSPost2010PropOp35
 70
     1
102
RTVSPost2010Prop36
280
     0
102
RTVSPost2010PropOp36
 70
     1
102
RTVSPost2010Prop37
 90
       50
102
RTVSPost2010PropOp37
 70
     1
102
RTVSPost2010Prop38
140
0.0
102
RTVSPost2010PropOp38
 70
     1
102
RTVSPost2010Prop39
140
1.0
102
RTVSPost2010PropOp39
 70
     1
102
RTVSPost2010Prop40
 90
        0
102
RTVSPost2010PropOp40
 70
     1
102
RTVSPost2010Prop41ColorIndex
 90
       18
102
RTVSPost2010Prop41ColorRGB
 90
        0
102
RTVSPost2010PropOp41
 70
     1
102
RTVSPost2010Prop42
 90
       50
102
RTVSPost2010PropOp42
 70
     1
102
RTVSPost2010Prop43
 90
        3
102
RTVSPost2010PropOp43
 70
     1
102
RTVSPost2010Prop44ColorIndex
 90
        5
102
RTVSPost2010Prop44ColorRGB
 90
      255
102
RTVSPost2010PropOp44
 70
     1
102
RTVSPost2010Prop45
280
     0
102
RTVSPost2010PropOp45
 70
     1
102
RTVSPost2010Prop46
 90
       50
102
RTVSPost2010PropOp46
 70
     1
102
RTVSPost2010Prop47
 90
       50
102
RTVSPost2010PropOp47
 70
     1
102
RTVSPost2010Prop48
 90
       50
102
RTVSPost2010PropOp48
 70
     1
102
RTVSPost2010Prop49
280
     0
102
RTVSPost2010PropOp49
 70
     1
102
RTVSPost2010Prop50
 90
       50
102
RTVSPost2010PropOp50
 70
     1
102
RTVSPost2010Prop51ColorIndex
 90
      256
102
RTVSPost2010Prop51ColorRGB
 90
-16777216
102
RTVSPost2010PropOp51
 70
     0
102
RTVSPost2010Prop52
140
1.0
102
RTVSPost2010PropOp52
 70
     0
102
RTVSPost2010Prop53
 90
        2
102
RTVSPost2010PropOp53
 70
     1
102
RTVSPost2010Prop54
  1
strokes_ogs.tif
102
RTVSPost2010PropOp54
 70
     1
102
RTVSPost2010Prop55
280
     0
102
RTVSPost2010PropOp55
 70
     1
102
RTVSPost2010Prop56
140
1.0
102
RTVSPost2010PropOp56
 70
     1
102
RTVSPost2010Prop57
140
1.0
102
RTVSPost2010PropOp57
 70
     1
  0
XRECORD
  5
27B
102
{ACAD_REACTORS
330
27A
102
}
330
27A
100
AcDbXrecord
280
     1
102
RTVSPost2010Prop28
280
     0
102
RTVSPost2010PropOp28
 70
     1
102
RTVSPost2010Prop29
280
     1
102
RTVSPost2010PropOp29
 70
     1
102
RTVSPost2010Prop30
280
     1
102
RTVSPost2010PropOp30
 70
     1
102
RTVSPost2010Prop31
280
     0
102
RTVSPost2010PropOp31
 70
     1
102
RTVSPost2010Prop32
280
     0
102
RTVSPost2010PropOp32
 70
     1
102
RTVSPost2010Prop33
280
     0
102
RTVSPost2010PropOp33
 70
     1
102
RTVSPost2010Prop34
280
     0
102
RTVSPost2010PropOp34
 70
     1
102
RTVSPost2010Prop35
280
     0
102
RTVSPost2010PropOp35
 70
     1
102
RTVSPost2010Prop36
280
     0
102
RTVSPost2010PropOp36
 70
     1
102
RTVSPost2010Prop37
 90
       50
102
RTVSPost2010PropOp37
 70
     1
102
RTVSPost2010Prop38
140
0.0
102
RTVSPost2010PropOp38
 70
     1
102
RTVSPost2010Prop39
140
1.0
102
RTVSPost2010PropOp39
 70
     1
102
RTVSPost2010Prop40
 90
        0
102
RTVSPost2010PropOp40
 70
     1
102
RTVSPost2010Prop41ColorIndex
 90
       18
102
RTVSPost2010Prop41ColorRGB
 90
        0
102
RTVSPost2010PropOp41
 70
     1
102
RTVSPost2010Prop42
 90
       50
102
RTVSPost2010PropOp42
 70
     1
102
RTVSPost2010Prop43
 90
        3
102
RTVSPost2010PropOp43
 70
     1
102
RTVSPost2010Prop44ColorIndex
 90
        5
102
RTVSPost2010Prop44ColorRGB
 90
      255
102
RTVSPost2010PropOp44
 70
     1
102
RTVSPost2010Prop45
280
     0
102
RTVSPost2010PropOp45
 70
     1
102
RTVSPost2010Prop46
 90
       50
102
RTVSPost2010PropOp46
 70
     1
102
RTVSPost2010Prop47
 90
       50
102
RTVSPost2010PropOp47
 70
     1
102
RTVSPost2010Prop48
 90
       50
102
RTVSPost2010PropOp48
 70
     1
102
RTVSPost2010Prop49
280
     0
102
RTVSPost2010PropOp49
 70
     1
102
RTVSPost2010Prop50
 90
       50
102
RTVSPost2010PropOp50
 70
     1
102
RTVSPost2010Prop51ColorIndex
 90
      256
102
RTVSPost2010Prop51ColorRGB
 90
-16777216
102
RTVSPost2010PropOp51
 70
     0
102
RTVSPost2010Prop52
140
1.0
102
RTVSPost2010PropOp52
 70
     0
102
RTVSPost2010Prop53
 90
        2
102
RTVSPost2010PropOp53
 70
     1
102
RTVSPost2010Prop54
  1
strokes_ogs.tif
102
RTVSPost2010PropOp54
 70
     1
102
RTVSPost2010Prop55
280
     0
102
RTVSPost2010PropOp55
 70
     1
102
RTVSPost2010Prop56
140
1.0
102
RTVSPost2010PropOp56
 70
     1
102
RTVSPost2010Prop57
140
1.0
102
RTVSPost2010PropOp57
 70
     1
  0
XRECORD
  5
27D
102
{ACAD_REACTORS
330
27C
102
}
330
27C
100
AcDbXrecord
280
     1
102
RTVSPost2010Prop28
280
     0
102
RTVSPost2010PropOp28
 70
     1
102
RTVSPost2010Prop29
280
     1
102
RTVSPost2010PropOp29
 70
     1
102
RTVSPost2010Prop30
280
     1
102
RTVSPost2010PropOp30
 70
     1
102
RTVSPost2010Prop31
280
     0
102
RTVSPost2010PropOp31
 70
     1
102
RTVSPost2010Prop32
280
     0
102
RTVSPost2010PropOp32
 70
     1
102
RTVSPost2010Prop33
280
     0
102
RTVSPost2010PropOp33
 70
     1
102
RTVSPost2010Prop34
280
     0
102
RTVSPost2010PropOp34
 70
     1
102
RTVSPost2010Prop35
280
     0
102
RTVSPost2010PropOp35
 70
     1
102
RTVSPost2010Prop36
280
     0
102
RTVSPost2010PropOp36
 70
     1
102
RTVSPost2010Prop37
 90
       50
102
RTVSPost2010PropOp37
 70
     1
102
RTVSPost2010Prop38
140
0.0
102
RTVSPost2010PropOp38
 70
     1
102
RTVSPost2010Prop39
140
1.0
102
RTVSPost2010PropOp39
 70
     1
102
RTVSPost2010Prop40
 90
        0
102
RTVSPost2010PropOp40
 70
     1
102
RTVSPost2010Prop41ColorIndex
 90
       18
102
RTVSPost2010Prop41ColorRGB
 90
        0
102
RTVSPost2010PropOp41
 70
     1
102
RTVSPost2010Prop42
 90
       50
102
RTVSPost2010PropOp42
 70
     1
102
RTVSPost2010Prop43
 90
        3
102
RTVSPost2010PropOp43
 70
     1
102
RTVSPost2010Prop44ColorIndex
 90
        5
102
RTVSPost2010Prop44ColorRGB
 90
      255
102
RTVSPost2010PropOp44
 70
     1
102
RTVSPost2010Prop45
280
     0
102
RTVSPost2010PropOp45
 70
     1
102
RTVSPost2010Prop46
 90
       50
102
RTVSPost2010PropOp46
 70
     1
102
RTVSPost2010Prop47
 90
       50
102
RTVSPost2010PropOp47
 70
     1
102
RTVSPost2010Prop48
 90
       50
102
RTVSPost2010PropOp48
 70
     1
102
RTVSPost2010Prop49
280
     0
102
RTVSPost2010PropOp49
 70
     1
102
RTVSPost2010Prop50
 90
       50
102
RTVSPost2010PropOp50
 70
     1
102
RTVSPost2010Prop51ColorIndex
 90
      256
102
RTVSPost2010Prop51ColorRGB
 90
-16777216
102
RTVSPost2010PropOp51
 70
     0
102
RTVSPost2010Prop52
140
1.0
102
RTVSPost2010PropOp52
 70
     0
102
RTVSPost2010Prop53
 90
        2
102
RTVSPost2010PropOp53
 70
     1
102
RTVSPost2010Prop54
  1
strokes_ogs.tif
102
RTVSPost2010PropOp54
 70
     1
102
RTVSPost2010Prop55
280
     0
102
RTVSPost2010PropOp55
 70
     1
102
RTVSPost2010Prop56
140
1.0
102
RTVSPost2010PropOp56
 70
     1
102
RTVSPost2010Prop57
140
1.0
102
RTVSPost2010PropOp57
 70
     1
  0
XRECORD
  5
26D
102
{ACAD_REACTORS
330
26C
102
}
330
26C
100
AcDbXrecord
280
     1
102
RTVSPost2010Prop28
280
     0
102
RTVSPost2010PropOp28
 70
     1
102
RTVSPost2010Prop29
280
     1
102
RTVSPost2010PropOp29
 70
     1
102
RTVSPost2010Prop30
280
     1
102
RTVSPost2010PropOp30
 70
     1
102
RTVSPost2010Prop31
280
     0
102
RTVSPost2010PropOp31
 70
     1
102
RTVSPost2010Prop32
280
     0
102
RTVSPost2010PropOp32
 70
     1
102
RTVSPost2010Prop33
280
     0
102
RTVSPost2010PropOp33
 70
     1
102
RTVSPost2010Prop34
280
     0
102
RTVSPost2010PropOp34
 70
     1
102
RTVSPost2010Prop35
280
     0
102
RTVSPost2010PropOp35
 70
     1
102
RTVSPost2010Prop36
280
     0
102
RTVSPost2010PropOp36
 70
     1
102
RTVSPost2010Prop37
 90
       50
102
RTVSPost2010PropOp37
 70
     1
102
RTVSPost2010Prop38
140
0.0
102
RTVSPost2010PropOp38
 70
     1
102
RTVSPost2010Prop39
140
1.0
102
RTVSPost2010PropOp39
 70
     1
102
RTVSPost2010Prop40
 90
        0
102
RTVSPost2010PropOp40
 70
     1
102
RTVSPost2010Prop41ColorIndex
 90
       18
102
RTVSPost2010Prop41ColorRGB
 90
        0
102
RTVSPost2010PropOp41
 70
     1
102
RTVSPost2010Prop42
 90
       50
102
RTVSPost2010PropOp42
 70
     1
102
RTVSPost2010Prop43
 90
        3
102
RTVSPost2010PropOp43
 70
     1
102
RTVSPost2010Prop44ColorIndex
 90
        5
102
RTVSPost2010Prop44ColorRGB
 90
      255
102
RTVSPost2010PropOp44
 70
     1
102
RTVSPost2010Prop45
280
     0
102
RTVSPost2010PropOp45
 70
     1
102
RTVSPost2010Prop46
 90
       50
102
RTVSPost2010PropOp46
 70
     1
102
RTVSPost2010Prop47
 90
       50
102
RTVSPost2010PropOp47
 70
     1
102
RTVSPost2010Prop48
 90
       50
102
RTVSPost2010PropOp48
 70
     1
102
RTVSPost2010Prop49
280
     0
102
RTVSPost2010PropOp49
 70
     1
102
RTVSPost2010Prop50
 90
       50
102
RTVSPost2010PropOp50
 70
     1
102
RTVSPost2010Prop51ColorIndex
 90
      256
102
RTVSPost2010Prop51ColorRGB
 90
-16777216
102
RTVSPost2010PropOp51
 70
     0
102
RTVSPost2010Prop52
140
1.0
102
RTVSPost2010PropOp52
 70
     0
102
RTVSPost2010Prop53
 90
        2
102
RTVSPost2010PropOp53
 70
     1
102
RTVSPost2010Prop54
  1
strokes_ogs.tif
102
RTVSPost2010PropOp54
 70
     1
102
RTVSPost2010Prop55
280
     0
102
RTVSPost2010PropOp55
 70
     1
102
RTVSPost2010Prop56
140
1.0
102
RTVSPost2010PropOp56
 70
     1
102
RTVSPost2010Prop57
140
1.0
102
RTVSPost2010PropOp57
 70
     1
  0
XRECORD
  5
25F
102
{ACAD_REACTORS
330
25E
102
}
330
25E
100
AcDbXrecord
280
     1
102
RTVSPost2010Prop28
280
     0
102
RTVSPost2010PropOp28
 70
     1
102
RTVSPost2010Prop29
280
     1
102
RTVSPost2010PropOp29
 70
     1
102
RTVSPost2010Prop30
280
     1
102
RTVSPost2010PropOp30
 70
     1
102
RTVSPost2010Prop31
280
     0
102
RTVSPost2010PropOp31
 70
     1
102
RTVSPost2010Prop32
280
     0
102
RTVSPost2010PropOp32
 70
     1
102
RTVSPost2010Prop33
280
     0
102
RTVSPost2010PropOp33
 70
     1
102
RTVSPost2010Prop34
280
     0
102
RTVSPost2010PropOp34
 70
     1
102
RTVSPost2010Prop35
280
     0
102
RTVSPost2010PropOp35
 70
     1
102
RTVSPost2010Prop36
280
     0
102
RTVSPost2010PropOp36
 70
     1
102
RTVSPost2010Prop37
 90
       50
102
RTVSPost2010PropOp37
 70
     1
102
RTVSPost2010Prop38
140
0.0
102
RTVSPost2010PropOp38
 70
     1
102
RTVSPost2010Prop39
140
1.0
102
RTVSPost2010PropOp39
 70
     1
102
RTVSPost2010Prop40
 90
        0
102
RTVSPost2010PropOp40
 70
     1
102
RTVSPost2010Prop41ColorIndex
 90
       18
102
RTVSPost2010Prop41ColorRGB
 90
        0
102
RTVSPost2010PropOp41
 70
     1
102
RTVSPost2010Prop42
 90
       50
102
RTVSPost2010PropOp42
 70
     1
102
RTVSPost2010Prop43
 90
        3
102
RTVSPost2010PropOp43
 70
     1
102
RTVSPost2010Prop44ColorIndex
 90
        5
102
RTVSPost2010Prop44ColorRGB
 90
      255
102
RTVSPost2010PropOp44
 70
     1
102
RTVSPost2010Prop45
280
     0
102
RTVSPost2010PropOp45
 70
     1
102
RTVSPost2010Prop46
 90
       50
102
RTVSPost2010PropOp46
 70
     1
102
RTVSPost2010Prop47
 90
       50
102
RTVSPost2010PropOp47
 70
     1
102
RTVSPost2010Prop48
 90
       50
102
RTVSPost2010PropOp48
 70
     1
102
RTVSPost2010Prop49
280
     0
102
RTVSPost2010PropOp49
 70
     1
102
RTVSPost2010Prop50
 90
       50
102
RTVSPost2010PropOp50
 70
     1
102
RTVSPost2010Prop51ColorIndex
 90
      256
102
RTVSPost2010Prop51ColorRGB
 90
-16777216
102
RTVSPost2010PropOp51
 70
     0
102
RTVSPost2010Prop52
140
1.0
102
RTVSPost2010PropOp52
 70
     0
102
RTVSPost2010Prop53
 90
        2
102
RTVSPost2010PropOp53
 70
     1
102
RTVSPost2010Prop54
  1
strokes_ogs.tif
102
RTVSPost2010PropOp54
 70
     1
102
RTVSPost2010Prop55
280
     0
102
RTVSPost2010PropOp55
 70
     1
102
RTVSPost2010Prop56
140
1.0
102
RTVSPost2010PropOp56
 70
     1
102
RTVSPost2010Prop57
140
1.0
102
RTVSPost2010PropOp57
 70
     1
  0
XRECORD
  5
27F
102
{ACAD_REACTORS
330
27E
102
}
330
27E
100
AcDbXrecord
280
     1
102
RTVSPost2010Prop28
280
     0
102
RTVSPost2010PropOp28
 70
     1
102
RTVSPost2010Prop29
280
     1
102
RTVSPost2010PropOp29
 70
     1
102
RTVSPost2010Prop30
280
     1
102
RTVSPost2010PropOp30
 70
     1
102
RTVSPost2010Prop31
280
     0
102
RTVSPost2010PropOp31
 70
     1
102
RTVSPost2010Prop32
280
     0
102
RTVSPost2010PropOp32
 70
     1
102
RTVSPost2010Prop33
280
     0
102
RTVSPost2010PropOp33
 70
     1
102
RTVSPost2010Prop34
280
     0
102
RTVSPost2010PropOp34
 70
     1
102
RTVSPost2010Prop35
280
     0
102
RTVSPost2010PropOp35
 70
     1
102
RTVSPost2010Prop36
280
     0
102
RTVSPost2010PropOp36
 70
     1
102
RTVSPost2010Prop37
 90
       50
102
RTVSPost2010PropOp37
 70
     1
102
RTVSPost2010Prop38
140
0.0
102
RTVSPost2010PropOp38
 70
     1
102
RTVSPost2010Prop39
140
1.0
102
RTVSPost2010PropOp39
 70
     1
102
RTVSPost2010Prop40
 90
        0
102
RTVSPost2010PropOp40
 70
     1
102
RTVSPost2010Prop41ColorIndex
 90
       18
102
RTVSPost2010Prop41ColorRGB
 90
        0
102
RTVSPost2010PropOp41
 70
     1
102
RTVSPost2010Prop42
 90
       50
102
RTVSPost2010PropOp42
 70
     1
102
RTVSPost2010Prop43
 90
        3
102
RTVSPost2010PropOp43
 70
     1
102
RTVSPost2010Prop44ColorIndex
 90
        5
102
RTVSPost2010Prop44ColorRGB
 90
      255
102
RTVSPost2010PropOp44
 70
     1
102
RTVSPost2010Prop45
280
     0
102
RTVSPost2010PropOp45
 70
     1
102
RTVSPost2010Prop46
 90
       50
102
RTVSPost2010PropOp46
 70
     1
102
RTVSPost2010Prop47
 90
       50
102
RTVSPost2010PropOp47
 70
     1
102
RTVSPost2010Prop48
 90
       50
102
RTVSPost2010PropOp48
 70
     1
102
RTVSPost2010Prop49
280
     0
102
RTVSPost2010PropOp49
 70
     1
102
RTVSPost2010Prop50
 90
       50
102
RTVSPost2010PropOp50
 70
     1
102
RTVSPost2010Prop51ColorIndex
 90
      256
102
RTVSPost2010Prop51ColorRGB
 90
-16777216
102
RTVSPost2010PropOp51
 70
     0
102
RTVSPost2010Prop52
140
1.0
102
RTVSPost2010PropOp52
 70
     0
102
RTVSPost2010Prop53
 90
        2
102
RTVSPost2010PropOp53
 70
     1
102
RTVSPost2010Prop54
  1
strokes_ogs.tif
102
RTVSPost2010PropOp54
 70
     1
102
RTVSPost2010Prop55
280
     0
102
RTVSPost2010PropOp55
 70
     1
102
RTVSPost2010Prop56
140
1.0
102
RTVSPost2010PropOp56
 70
     1
102
RTVSPost2010Prop57
140
1.0
102
RTVSPost2010PropOp57
 70
     1
  0
ENDSEC
  0
EOF
