  0
SECTION
  2
HEADER
  9
$ACADVER
  1
AC1024
  9
$ACADMAINTVER
 70
     6
  9
$DWGCODEPAGE
  3
ANSI_932
  9
$INSBASE
 10
0.0
 20
0.0
 30
0.0
  9
$EXTMIN
 10
-677.162629
 20
-856.68087
 30
1.000000000000000E+20
  9
$EXTMAX
 10
898.152585
 20
1153.050722
 30
-1.000000000000000E+20
  9
$LIMMIN
 10
-677.162629
 20
-856.68087
  9
$LIMMAX
 10
898.152585
 20
1153.050722
  9
$ORTHOMODE
 70
     0
  9
$REGENMODE
 70
     1
  9
$FILLMODE
 70
     1
  9
$QTEXTMODE
 70
     0
  9
$MIRRTEXT
 70
     1
  9
$LTSCALE
 40
1.0
  9
$ATTMODE
 70
     1
  9
$TEXTSIZE
 40
0.0
  9
$TRACEWID
 40
0.05
  9
$TEXTSTYLE
  7
Standard
  9
$CLAYER
  8
0
  9
$CELTYPE
  6
Continuous
  9
$CECOLOR
 62
   256
  9
$CELTSCALE
 40
1.0
  9
$DISPSILH
 70
     0
  9
$DIMSCALE
 40
1.0
  9
$DIMASZ
 40
0.18
  9
$DIMEXO
 40
0.0625
  9
$DIMDLI
 40
0.38
  9
$DIMRND
 40
0.0
  9
$DIMDLE
 40
0.0
  9
$DIMEXE
 40
0.18
  9
$DIMTP
 40
0.0
  9
$DIMTM
 40
0.0
  9
$DIMTXT
 40
0.18
  9
$DIMCEN
 40
0.09
  9
$DIMTSZ
 40
0.0
  9
$DIMTOL
 70
     0
  9
$DIMLIM
 70
     0
  9
$DIMTIH
 70
     1
  9
$DIMTOH
 70
     1
  9
$DIMSE1
 70
     0
  9
$DIMSE2
 70
     0
  9
$DIMTAD
 70
     0
  9
$DIMZIN
 70
     0
  9
$DIMBLK
  1

  9
$DIMASO
 70
     1
  9
$DIMSHO
 70
     1
  9
$DIMPOST
  1

  9
$DIMAPOST
  1

  9
$DIMALT
 70
     0
  9
$DIMALTD
 70
     2
  9
$DIMALTF
 40
25.4
  9
$DIMLFAC
 40
1.0
  9
$DIMTOFL
 70
     0
  9
$DIMTVP
 40
0.0
  9
$DIMTIX
 70
     0
  9
$DIMSOXD
 70
     0
  9
$DIMSAH
 70
     0
  9
$DIMBLK1
  1

  9
$DIMBLK2
  1

  9
$DIMSTYLE
  2
Standard
  9
$DIMCLRD
 70
     0
  9
$DIMCLRE
 70
     0
  9
$DIMCLRT
 70
     0
  9
$DIMTFAC
 40
1.0
  9
$DIMGAP
 40
0.09
  9
$DIMJUST
 70
     0
  9
$DIMSD1
 70
     0
  9
$DIMSD2
 70
     0
  9
$DIMTOLJ
 70
     1
  9
$DIMTZIN
 70
     0
  9
$DIMALTZ
 70
     0
  9
$DIMALTTZ
 70
     0
  9
$DIMUPT
 70
     0
  9
$DIMDEC
 70
     4
  9
$DIMTDEC
 70
     4
  9
$DIMALTU
 70
     2
  9
$DIMALTTD
 70
     2
  9
$DIMTXSTY
  7
Standard
  9
$DIMAUNIT
 70
     0
  9
$DIMADEC
 70
     0
  9
$DIMALTRND
 40
0.0
  9
$DIMAZIN
 70
     0
  9
$DIMDSEP
 70
     0
  9
$DIMATFIT
 70
     3
  9
$DIMFRAC
 70
     0
  9
$DIMLDRBLK
  1

  9
$DIMLUNIT
 70
     2
  9
$DIMLWD
 70
     0
  9
$DIMLWE
 70
     0
  9
$DIMTMOVE
 70
     0
  9
$DIMFXL
 40
1.0
  9
$DIMFXLON
 70
     0
  9
$DIMJOGANG
 40
0.7853981633974483
  9
$DIMTFILL
 70
     0
  9
$DIMTFILLCLR
 70
     0
  9
$DIMARCSYM
 70
     0
  9
$DIMLTYPE
  6

  9
$DIMLTEX1
  6

  9
$DIMLTEX2
  6

  9
$DIMTXTDIRECTION
 70
     0
  9
$LUNITS
 70
     2
  9
$LUPREC
 70
     4
  9
$SKETCHINC
 40
0.1
  9
$FILLETRAD
 40
0.0
  9
$AUNITS
 70
     0
  9
$AUPREC
 70
     0
  9
$MENU
  1
acad
  9
$ELEVATION
 40
0.0
  9
$PELEVATION
 40
0.0
  9
$THICKNESS
 40
0.0
  9
$LIMCHECK
 70
     0
  9
$CHAMFERA
 40
0.0
  9
$CHAMFERB
 40
0.0
  9
$CHAMFERC
 40
0.0
  9
$CHAMFERD
 40
0.0
  9
$SKPOLY
 70
     0
  9
$TDCREATE
 40
2447893.041666667
  9
$TDUCREATE
 40
0.0
  9
$TDUPDATE
 40
2457234.640842396
  9
$TDUUPDATE
 40
2457234.599175729
  9
$TDINDWG
 40
0.0
  9
$TDUSRTIMER
 40
0.0
  9
$USRTIMER
 70
     1
  9
$ANGBASE
 50
0.0
  9
$ANGDIR
 70
     0
  9
$PDMODE
 70
     0
  9
$PDSIZE
 40
0.0
  9
$PLINEWID
 40
0.0
  9
$SPLFRAME
 70
     0
  9
$SPLINETYPE
 70
     6
  9
$SPLINESEGS
 70
     8
  9
$HANDSEED
  5
159
  9
$SURFTAB1
 70
     6
  9
$SURFTAB2
 70
     6
  9
$SURFTYPE
 70
     6
  9
$SURFU
 70
     6
  9
$SURFV
 70
     6
  9
$UCSBASE
  2

  9
$UCSNAME
  2

  9
$UCSORG
 10
0.0
 20
0.0
 30
0.0
  9
$UCSXDIR
 10
1.0
 20
0.0
 30
0.0
  9
$UCSYDIR
 10
0.0
 20
1.0
 30
0.0
  9
$UCSORTHOREF
  2

  9
$UCSORTHOVIEW
 70
     0
  9
$UCSORGTOP
 10
0.0
 20
0.0
 30
0.0
  9
$UCSORGBOTTOM
 10
0.0
 20
0.0
 30
0.0
  9
$UCSORGLEFT
 10
0.0
 20
0.0
 30
0.0
  9
$UCSORGRIGHT
 10
0.0
 20
0.0
 30
0.0
  9
$UCSORGFRONT
 10
0.0
 20
0.0
 30
0.0
  9
$UCSORGBACK
 10
0.0
 20
0.0
 30
0.0
  9
$PUCSBASE
  2

  9
$PUCSNAME
  2

  9
$PUCSORG
 10
0.0
 20
0.0
 30
0.0
  9
$PUCSXDIR
 10
1.0
 20
0.0
 30
0.0
  9
$PUCSYDIR
 10
0.0
 20
1.0
 30
0.0
  9
$PUCSORTHOREF
  2

  9
$PUCSORTHOVIEW
 70
     0
  9
$PUCSORGTOP
 10
0.0
 20
0.0
 30
0.0
  9
$PUCSORGBOTTOM
 10
0.0
 20
0.0
 30
0.0
  9
$PUCSORGLEFT
 10
0.0
 20
0.0
 30
0.0
  9
$PUCSORGRIGHT
 10
0.0
 20
0.0
 30
0.0
  9
$PUCSORGFRONT
 10
0.0
 20
0.0
 30
0.0
  9
$PUCSORGBACK
 10
0.0
 20
0.0
 30
0.0
  9
$USERI1
 70
     0
  9
$USERI2
 70
     0
  9
$USERI3
 70
     0
  9
$USERI4
 70
     0
  9
$USERI5
 70
     0
  9
$USERR1
 40
0.0
  9
$USERR2
 40
0.0
  9
$USERR3
 40
0.0
  9
$USERR4
 40
0.0
  9
$USERR5
 40
0.0
  9
$WORLDVIEW
 70
     1
  9
$SHADEDGE
 70
     3
  9
$SHADEDIF
 70
    70
  9
$TILEMODE
 70
     1
  9
$MAXACTVP
 70
    16
  9
$PINSBASE
 10
0.0
 20
0.0
 30
0.0
  9
$PLIMCHECK
 70
     0
  9
$PEXTMIN
 10
1.000000000000000E+20
 20
1.000000000000000E+20
 30
1.000000000000000E+20
  9
$PEXTMAX
 10
-1.000000000000000E+20
 20
-1.000000000000000E+20
 30
-1.000000000000000E+20
  9
$PLIMMIN
 10
0.0
 20
0.0
  9
$PLIMMAX
 10
12.0
 20
9.0
  9
$UNITMODE
 70
     0
  9
$VISRETAIN
 70
     0
  9
$PLINEGEN
 70
     1
  9
$PSLTSCALE
 70
     0
  9
$TREEDEPTH
 70
  3020
  9
$CMLSTYLE
  2
Standard
  9
$CMLJUST
 70
     0
  9
$CMLSCALE
 40
1.0
  9
$PROXYGRAPHICS
 70
     0
  9
$MEASUREMENT
 70
     0
  9
$CELWEIGHT
370
     0
  9
$ENDCAPS
280
     0
  9
$JOINSTYLE
280
     0
  9
$LWDISPLAY
290
     0
  9
$INSUNITS
 70
     0
  9
$HYPERLINKBASE
  1

  9
$STYLESHEET
  1

  9
$XEDIT
290
     1
  9
$CEPSNTYPE
380
     0
  9
$PSTYLEMODE
290
     1
  9
$FINGERPRINTGUID
  2

  9
$VERSIONGUID
  2

  9
$EXTNAMES
290
     1
  9
$PSVPSCALE
 40
0.0
  9
$OLESTARTUP
290
     0
  9
$SORTENTS
280
   127
  9
$INDEXCTL
280
     0
  9
$HIDETEXT
280
     1
  9
$XCLIPFRAME
280
     2
  9
$HALOGAP
280
     0
  9
$OBSCOLOR
 70
   257
  9
$OBSLTYPE
280
     0
  9
$INTERSECTIONDISPLAY
280
     0
  9
$INTERSECTIONCOLOR
 70
   257
  9
$DIMASSOC
280
     2
  9
$PROJECTNAME
  1

  9
$CAMERADISPLAY
290
     0
  9
$LENSLENGTH
 40
50.0
  9
$CAMERAHEIGHT
 40
0.0
  9
$STEPSPERSEC
 40
2.0
  9
$STEPSIZE
 40
6.0
  9
$3DDWFPREC
 40
2.0
  9
$PSOLWIDTH
 40
0.25
  9
$PSOLHEIGHT
 40
4.0
  9
$LOFTANG1
 40
1.570796326794897
  9
$LOFTANG2
 40
1.570796326794897
  9
$LOFTMAG1
 40
0.0
  9
$LOFTMAG2
 40
0.0
  9
$LOFTPARAM
 70
     7
  9
$LOFTNORMALS
280
     1
  9
$LATITUDE
 40
37.795
  9
$LONGITUDE
 40
-122.394
  9
$NORTHDIRECTION
 40
0.0
  9
$TIMEZONE
 70
 -8000
  9
$LIGHTGLYPHDISPLAY
280
     1
  9
$TILEMODELIGHTSYNCH
280
     1
  9
$SOLIDHIST
280
     0
  9
$SHOWHIST
280
     1
  9
$DWFFRAME
280
     2
  9
$DGNFRAME
280
     2
  9
$REALWORLDSCALE
290
     1
  9
$INTERFERECOLOR
 62
   256
  9
$CSHADOW
280
     0
  9
$SHADOWPLANELOCATION
 40
0.0
  0
ENDSEC
  0
SECTION
  2
CLASSES
  0
CLASS
  1
LWPOLYLINE
  2
AcDbPolyline
  3
ObjectDBX Classes
 90
        0
 91
        1
280
     0
281
     1
  0
CLASS
  1
IMAGE
  2
AcDbRasterImage
  3
ISM
 90
      127
 91
        5
280
     0
281
     1
  0
CLASS
  1
OLE2FRAME
  2
AcDbOle2Frame
  3
ObjectDBX Classes
 90
        0
 91
        1
280
     0
281
     1
  0
CLASS
  1
HATCH
  2
AcDbHatch
  3
ObjectDBX Classes
 90
        0
 91
        1
280
     0
281
     1
  0
CLASS
  1
DICTIONARYVAR
  2
AcDbDictionaryVar
  3
ObjectDBX Classes
 90
        0
 91
        4
280
     0
281
     0
  0
CLASS
  1
RASTERVARIABLES
  2
AcDbRasterVariables
  3
ISM
 90
        0
 91
        4
280
     0
281
     0
  0
CLASS
  1
IMAGEDEF
  2
AcDbRasterImageDef
  3
ISM
 90
        0
 91
        4
280
     0
281
     0
  0
CLASS
  1
IMAGEDEF_REACTOR
  2
AcDbRasterImageDefReactor
  3
ISM
 90
        1
 91
        4
280
     0
281
     0
  0
CLASS
  1
IDBUFFER
  2
AcDbIdBuffer
  3
ObjectDBX Classes
 90
        0
 91
        4
280
     0
281
     0
  0
CLASS
  1
SPATIAL_FILTER
  2
AcDbSpatialFilter
  3
ObjectDBX Classes
 90
        0
 91
        4
280
     0
281
     0
  0
CLASS
  1
XRECORD
  2
AcDbXrecord
  3
ObjectDBX Classes
 90
        0
 91
        1
280
     0
281
     0
  0
CLASS
  1
SORTENTSTABLE
  2
AcDbSortentsTable
  3
ObjectDBX Classes
 90
        0
 91
        4
280
     0
281
     0
  0
CLASS
  1
LAYER_INDEX
  2
AcDbLayerIndex
  3
ObjectDBX Classes
 90
        0
 91
        4
280
     0
281
     0
  0
CLASS
  1
SPATIAL_INDEX
  2
AcDbSpatialIndex
  3
AutoCAD 2000
 90
        0
 91
        4
280
     0
281
     0
  0
CLASS
  1
OBJECT_PTR
  2
CAseDLPNTableRecord
  3
ASE-LPNTableRecord
 90
        1
 91
        4
280
     0
281
     0
  0
CLASS
  1
LAYOUT
  2
AcDbLayout
  3
ObjectDBX Classes
 90
        0
 91
        1
280
     0
281
     0
  0
CLASS
  1
PLOTSETTINGS
  2
AcDbPlotSettings
  3
ObjectDBX Classes
 90
        0
 91
        4
280
     0
281
     0
  0
CLASS
  1
ACDBDICTIONARYWDFLT
  2
AcDbDictionaryWithDefault
  3
ObjectDBX Classes
 90
        0
 91
        4
280
     0
281
     0
  0
CLASS
  1
ACDBPLACEHOLDER
  2
AcDbPlaceHolder
  3
ObjectDBX Classes
 90
        0
 91
        1
280
     0
281
     0
  0
CLASS
  1
VBA_PROJECT
  2
AcDbVbaProject
  3
ObjectDBX Classes
 90
        0
 91
        1
280
     0
281
     0
  0
CLASS
  1
WIPEOUT
  2
AcDbWipeout
  3
WipeOut|AutoCAD Express Tool|expresstools@autodesk.com
 90
      127
 91
        4
280
     0
281
     1
  0
CLASS
  1
WIPEOUTVARIABLES
  2
AcDbWipeoutVariables
  3
WipeOut|AutoCAD Express Tool|expresstools@autodesk.com
 90
        0
 91
        4
280
     0
281
     0
  0
CLASS
  1
RTEXT
  2
RText
  3
RText|AutoCAD Express Tool|expresstools@autodesk.com
 90
        0
 91
        4
280
     0
281
     1
  0
CLASS
  1
ARCALIGNEDTEXT
  2
AcDbArcAlignedText
  3
ATEXT|AutoCAD Express Tool|expresstools@autodesk.com
 90
        0
 91
        4
280
     0
281
     1
  0
CLASS
  1
SCALE
  2
AcDbScale
  3
ObjectDBX Classes
 90
     1153
 91
        4
280
     0
281
     0
  0
CLASS
  1
VISUALSTYLE
  2
AcDbVisualStyle
  3
ObjectDBX Classes
 90
     4095
 91
        4
280
     0
281
     0
  0
CLASS
  1
MATERIAL
  2
AcDbMaterial
  3
ObjectDBX Classes
 90
     1153
 91
        4
280
     0
281
     0
  0
CLASS
  1
TABLESTYLE
  2
AcDbTableStyle
  3
ObjectDBX Classes
 90
     4095
 91
        4
280
     0
281
     0
  0
CLASS
  1
MLEADERSTYLE
  2
AcDbMLeaderStyle
  3
ACDB_MLEADERSTYLE_CLASS
 90
     4095
 91
        4
280
     0
281
     0
  0
CLASS
  1
CELLSTYLEMAP
  2
AcDbCellStyleMap
  3
ObjectDBX Classes
 90
     1152
 91
        4
280
     0
281
     0
  0
ENDSEC
  0
SECTION
  2
TABLES
  0
TABLE
  2
VPORT
  5
7
330
0
100
AcDbSymbolTable
 70
     1
  0
VPORT
  5
15
330
7
100
AcDbSymbolTableRecord
100
AcDbViewportTableRecord
  2
*ACTIVE
 70
     0
 10
0.0
 20
0.0
 11
1.0
 21
1.0
 12
6.591288
 22
4.579184
 13
0.0
 23
0.0
 14
1.0
 24
1.0
 15
0.0
 25
0.0
 16
0.0
 26
0.0
 36
1.0
 17
0.0
 27
0.0
 37
0.0
 40
9.158369
 41
0.688564
 42
50.0
 43
0.0
 44
0.0
 50
0.0
 51
0.0
 71
     0
 72
   100
 73
     1
 74
     1
 75
     0
 76
     0
 77
     0
 78
     0
281
     0
 65
     0
110
0.0
120
0.0
130
0.0
111
1.0
121
0.0
131
0.0
112
0.0
122
1.0
132
0.0
 79
     0
146
0.0
348
103
 60
     3
 61
     5
292
     1
282
     1
141
0.0
142
0.0
 63
   256
  0
ENDTAB
  0
TABLE
  2
LTYPE
  5
4
330
0
100
AcDbSymbolTable
 70
     4
  0
LTYPE
  5
11
330
4
100
AcDbSymbolTableRecord
100
AcDbLinetypeTableRecord
  2
ByBlock
 70
     0
  3

 72
    65
 73
     0
 40
0.0
  0
LTYPE
  5
12
330
4
100
AcDbSymbolTableRecord
100
AcDbLinetypeTableRecord
  2
ByLayer
 70
     0
  3

 72
    65
 73
     0
 40
0.0
  0
LTYPE
  5
13
330
4
100
AcDbSymbolTableRecord
100
AcDbLinetypeTableRecord
  2
Continuous
 70
     0
  3
Solid line
 72
    65
 73
     0
 40
0.0
  0
LTYPE
  5
67
330
4
100
AcDbSymbolTableRecord
100
AcDbLinetypeTableRecord
  2
AI9-LType1
 70
     0
  3
Illustrator Dash Style No.1
 72
    65
 73
     4
 40
4.586111
 49
2.116667
 74
     0
 49
-1.058333
 74
     0
 49
0.352778
 74
     0
 49
-1.058333
 74
     0
  0
LTYPE
  5
6E
330
4
100
AcDbSymbolTableRecord
100
AcDbLinetypeTableRecord
  2
AI9-LType2
 70
     0
  3
Illustrator Dash Style No.2
 72
    65
 73
     2
 40
2.822222
 49
1.411111
 74
     0
 49
-1.411111
 74
     0
  0
LTYPE
  5
70
330
4
100
AcDbSymbolTableRecord
100
AcDbLinetypeTableRecord
  2
AI9-LType3
 70
     0
  3
Illustrator Dash Style No.3
 72
    65
 73
     2
 40
2.822222
 49
1.411111
 74
     0
 49
-1.411111
 74
     0
  0
ENDTAB
  0
TABLE
  2
LAYER
  5
2
330
0
100
AcDbSymbolTable
 70
     2
  0
LAYER
  5
14
330
2
100
AcDbSymbolTableRecord
100
AcDbLayerTableRecord
  2
0
 70
     0
 62
     7
  6
Continuous
370
    -3
390
1D
347
11A
  0
LAYER
  5
28
330
2
100
AcDbSymbolTableRecord
100
AcDbLayerTableRecord
  2
LAYER_1
 70
     0
 62
   160
  6
Continuous
370
    -3
390
1D
347
11A
  0
ENDTAB
  0
TABLE
  2
STYLE
  5
3
330
0
100
AcDbSymbolTable
 70
     5
  0
STYLE
  5
17
330
3
100
AcDbSymbolTableRecord
100
AcDbTextStyleTableRecord
  2
Standard
 70
     0
 40
0.0
 41
1.0
 50
0.0
 71
     0
 42
0.0
  3
txt
  4

  0
STYLE
  5
24
330
3
100
AcDbSymbolTableRecord
100
AcDbTextStyleTableRecord
  2
STD
 70
     0
 40
0.0
 41
1.0
 50
0.0
 71
     0
 42
0.0
  3
txt
  4

  0
STYLE
  5
25
330
3
100
AcDbSymbolTableRecord
100
AcDbTextStyleTableRecord
  2
TATESTD
 70
     4
 40
0.0
 41
1.0
 50
0.0
 71
     0
 42
0.0
  3
txt
  4

  0
STYLE
  5
26
330
3
100
AcDbSymbolTableRecord
100
AcDbTextStyleTableRecord
  2
KANJISTD
 70
     0
 40
0.0
 41
1.0
 50
0.0
 71
     0
 42
0.0
  3
txt
  4
extfont
  0
STYLE
  5
27
330
3
100
AcDbSymbolTableRecord
100
AcDbTextStyleTableRecord
  2
KANJITATE
 70
     4
 40
0.0
 41
1.0
 50
0.0
 71
     0
 42
0.0
  3
txt
  4
extfont
  0
ENDTAB
  0
TABLE
  2
VIEW
  5
5
330
0
100
AcDbSymbolTable
 70
     0
  0
ENDTAB
  0
TABLE
  2
UCS
  5
6
330
0
100
AcDbSymbolTable
 70
     0
  0
ENDTAB
  0
TABLE
  2
APPID
  5
8
330
0
100
AcDbSymbolTable
 70
     1
  0
APPID
  5
16
330
8
100
AcDbSymbolTableRecord
100
AcDbRegAppTableRecord
  2
ACAD
 70
     0
  0
ENDTAB
  0
TABLE
  2
DIMSTYLE
  5
9
330
0
100
AcDbSymbolTable
 70
     1
100
AcDbDimStyleTable
  0
DIMSTYLE
105
18
330
9
100
AcDbSymbolTableRecord
100
AcDbDimStyleTableRecord
  2
Standard
 70
     0
178
     0
340
17
  0
ENDTAB
  0
TABLE
  2
BLOCK_RECORD
  5
1
330
0
100
AcDbSymbolTable
 70
    17
  0
BLOCK_RECORD
  5
A
330
1
100
AcDbSymbolTableRecord
100
AcDbBlockTableRecord
  2
*MODEL_SPACE
340
20
 70
     0
280
     1
281
     0
  0
BLOCK_RECORD
  5
B
330
1
100
AcDbSymbolTableRecord
100
AcDbBlockTableRecord
  2
*PAPER_SPACE
340
21
 70
     0
280
     1
281
     0
  0
BLOCK_RECORD
  5
3B
330
1
100
AcDbSymbolTableRecord
100
AcDbBlockTableRecord
  2
AI9-BLK1
340
0
102
{BLKREFS
331
3C
102
}
 70
     0
280
     1
281
     0
  0
BLOCK_RECORD
  5
3E
330
1
100
AcDbSymbolTableRecord
100
AcDbBlockTableRecord
  2
AI9-BLK2
340
0
102
{BLKREFS
331
3F
102
}
 70
     0
280
     1
281
     0
  0
BLOCK_RECORD
  5
41
330
1
100
AcDbSymbolTableRecord
100
AcDbBlockTableRecord
  2
AI9-BLK3
340
0
102
{BLKREFS
331
42
102
}
 70
     0
280
     1
281
     0
  0
BLOCK_RECORD
  5
44
330
1
100
AcDbSymbolTableRecord
100
AcDbBlockTableRecord
  2
AI9-BLK4
340
0
102
{BLKREFS
331
45
102
}
 70
     0
280
     1
281
     0
  0
BLOCK_RECORD
  5
4E
330
1
100
AcDbSymbolTableRecord
100
AcDbBlockTableRecord
  2
AI9-BLK5
340
0
102
{BLKREFS
331
4F
102
}
 70
     0
280
     1
281
     0
  0
BLOCK_RECORD
  5
51
330
1
100
AcDbSymbolTableRecord
100
AcDbBlockTableRecord
  2
AI9-BLK6
340
0
102
{BLKREFS
331
52
102
}
 70
     0
280
     1
281
     0
  0
BLOCK_RECORD
  5
54
330
1
100
AcDbSymbolTableRecord
100
AcDbBlockTableRecord
  2
AI9-BLK7
340
0
102
{BLKREFS
331
55
102
}
 70
     0
280
     1
281
     0
  0
BLOCK_RECORD
  5
57
330
1
100
AcDbSymbolTableRecord
100
AcDbBlockTableRecord
  2
AI9-BLK8
340
0
102
{BLKREFS
331
58
102
}
 70
     0
280
     1
281
     0
  0
BLOCK_RECORD
  5
72
330
1
100
AcDbSymbolTableRecord
100
AcDbBlockTableRecord
  2
AI9-BLK9
340
0
102
{BLKREFS
331
73
102
}
 70
     0
280
     1
281
     0
  0
BLOCK_RECORD
  5
75
330
1
100
AcDbSymbolTableRecord
100
AcDbBlockTableRecord
  2
AI9-BLK10
340
0
102
{BLKREFS
331
76
102
}
 70
     0
280
     1
281
     0
  0
BLOCK_RECORD
  5
7A
330
1
100
AcDbSymbolTableRecord
100
AcDbBlockTableRecord
  2
AI9-BLK11
340
0
102
{BLKREFS
331
7B
102
}
 70
     0
280
     1
281
     0
  0
BLOCK_RECORD
  5
7F
330
1
100
AcDbSymbolTableRecord
100
AcDbBlockTableRecord
  2
AI9-BLK12
340
0
102
{BLKREFS
331
80
102
}
 70
     0
280
     1
281
     0
  0
BLOCK_RECORD
  5
85
330
1
100
AcDbSymbolTableRecord
100
AcDbBlockTableRecord
  2
AI9-BLK13
340
0
102
{BLKREFS
331
86
102
}
 70
     0
280
     1
281
     0
  0
BLOCK_RECORD
  5
88
330
1
100
AcDbSymbolTableRecord
100
AcDbBlockTableRecord
  2
AI9-BLK14
340
0
102
{BLKREFS
331
89
102
}
 70
     0
280
     1
281
     0
  0
BLOCK_RECORD
  5
8D
330
1
100
AcDbSymbolTableRecord
100
AcDbBlockTableRecord
  2
AI9-BLK15
340
0
102
{BLKREFS
331
8E
102
}
 70
     0
280
     1
281
     0
  0
BLOCK_RECORD
  5
92
330
1
100
AcDbSymbolTableRecord
100
AcDbBlockTableRecord
  2
AI9-BLK16
340
0
102
{BLKREFS
331
93
102
}
 70
     0
280
     1
281
     0
  0
BLOCK_RECORD
  5
97
330
1
100
AcDbSymbolTableRecord
100
AcDbBlockTableRecord
  2
AI9-BLK17
340
0
102
{BLKREFS
331
98
102
}
 70
     0
280
     1
281
     0
  0
ENDTAB
  0
ENDSEC
  0
SECTION
  2
BLOCKS
  0
BLOCK
  5
D
330
A
100
AcDbEntity
  8
0
100
AcDbBlockBegin
  2
*MODEL_SPACE
 70
     0
 10
0.0
 20
0.0
 30
0.0
  3
*MODEL_SPACE
  1

  0
ENDBLK
  5
E
330
A
100
AcDbEntity
  8
0
100
AcDbBlockEnd
  0
BLOCK
  5
F
330
B
100
AcDbEntity
 67
     1
  8
0
100
AcDbBlockBegin
  2
*PAPER_SPACE
 70
     0
 10
0.0
 20
0.0
 30
0.0
  3
*PAPER_SPACE
  1

  0
ENDBLK
  5
10
330
B
100
AcDbEntity
 67
     1
  8
0
100
AcDbBlockEnd
  0
BLOCK
  5
3D
330
3B
100
AcDbEntity
  8
LAYER_1
 62
     7
100
AcDbBlockBegin
  2
AI9-BLK1
 70
     0
 10
0.0
 20
0.0
 30
0.0
  3
AI9-BLK1
  1

  0
INSERT
  5
3F
330
3B
100
AcDbEntity
  8
LAYER_1
 62
     7
100
AcDbBlockReference
  2
AI9-BLK2
 10
0.0
 20
0.0
 30
0.0
  0
ENDBLK
  5
4D
330
3B
100
AcDbEntity
  8
LAYER_1
100
AcDbBlockEnd
  0
BLOCK
  5
40
330
3E
100
AcDbEntity
  8
LAYER_1
 62
     7
100
AcDbBlockBegin
  2
AI9-BLK2
 70
     0
 10
0.0
 20
0.0
 30
0.0
  3
AI9-BLK2
  1

  0
INSERT
  5
42
330
3E
100
AcDbEntity
  8
LAYER_1
 62
     7
100
AcDbBlockReference
  2
AI9-BLK3
 10
0.0
 20
0.0
 30
0.0
  0
ENDBLK
  5
4C
330
3E
100
AcDbEntity
  8
LAYER_1
100
AcDbBlockEnd
  0
BLOCK
  5
43
330
41
100
AcDbEntity
  8
LAYER_1
 62
     7
100
AcDbBlockBegin
  2
AI9-BLK3
 70
     0
 10
0.0
 20
0.0
 30
0.0
  3
AI9-BLK3
  1

  0
INSERT
  5
45
330
41
100
AcDbEntity
  8
LAYER_1
 62
     7
100
AcDbBlockReference
  2
AI9-BLK4
 10
0.0
 20
0.0
 30
0.0
  0
ENDBLK
  5
4B
330
41
100
AcDbEntity
  8
LAYER_1
100
AcDbBlockEnd
  0
BLOCK
  5
46
330
44
100
AcDbEntity
  8
LAYER_1
 62
     7
100
AcDbBlockBegin
  2
AI9-BLK4
 70
     0
 10
0.0
 20
0.0
 30
0.0
  3
AI9-BLK4
  1

  0
CIRCLE
  5
49
330
44
100
AcDbEntity
  8
LAYER_1
 62
     7
100
AcDbCircle
 10
0.000172
 20
-0.000345
 30
0.0
 40
1.000111
  0
LINE
  5
48
330
44
100
AcDbEntity
  8
LAYER_1
 62
     7
100
AcDbLine
 10
-0.000172
 20
1.999878
 30
0.0
 11
-0.000172
 21
-1.999878
 31
0.0
  0
LINE
  5
47
330
44
100
AcDbEntity
  8
LAYER_1
 62
     7
100
AcDbLine
 10
-2.00005
 20
-0.000345
 30
0.0
 11
2.00005
 21
-0.000345
 31
0.0
  0
ENDBLK
  5
4A
330
44
100
AcDbEntity
  8
LAYER_1
100
AcDbBlockEnd
  0
BLOCK
  5
50
330
4E
100
AcDbEntity
  8
LAYER_1
 62
     7
100
AcDbBlockBegin
  2
AI9-BLK5
 70
     0
 10
0.0
 20
0.0
 30
0.0
  3
AI9-BLK5
  1

  0
INSERT
  5
52
330
4E
100
AcDbEntity
  8
LAYER_1
 62
     7
100
AcDbBlockReference
  2
AI9-BLK6
 10
0.0
 20
0.0
 30
0.0
  0
ENDBLK
  5
60
330
4E
100
AcDbEntity
  8
LAYER_1
100
AcDbBlockEnd
  0
BLOCK
  5
53
330
51
100
AcDbEntity
  8
LAYER_1
 62
     7
100
AcDbBlockBegin
  2
AI9-BLK6
 70
     0
 10
0.0
 20
0.0
 30
0.0
  3
AI9-BLK6
  1

  0
INSERT
  5
55
330
51
100
AcDbEntity
  8
LAYER_1
 62
     7
100
AcDbBlockReference
  2
AI9-BLK7
 10
0.0
 20
0.0
 30
0.0
  0
ENDBLK
  5
5F
330
51
100
AcDbEntity
  8
LAYER_1
100
AcDbBlockEnd
  0
BLOCK
  5
56
330
54
100
AcDbEntity
  8
LAYER_1
 62
     7
100
AcDbBlockBegin
  2
AI9-BLK7
 70
     0
 10
0.0
 20
0.0
 30
0.0
  3
AI9-BLK7
  1

  0
INSERT
  5
58
330
54
100
AcDbEntity
  8
LAYER_1
 62
     7
100
AcDbBlockReference
  2
AI9-BLK8
 10
0.0
 20
0.0
 30
0.0
  0
ENDBLK
  5
5E
330
54
100
AcDbEntity
  8
LAYER_1
100
AcDbBlockEnd
  0
BLOCK
  5
59
330
57
100
AcDbEntity
  8
LAYER_1
 62
     7
100
AcDbBlockBegin
  2
AI9-BLK8
 70
     0
 10
0.0
 20
0.0
 30
0.0
  3
AI9-BLK8
  1

  0
CIRCLE
  5
5C
330
57
100
AcDbEntity
  8
LAYER_1
 62
     7
100
AcDbCircle
 10
0.000172
 20
-0.000345
 30
0.0
 40
1.000111
  0
LINE
  5
5B
330
57
100
AcDbEntity
  8
LAYER_1
 62
     7
100
AcDbLine
 10
-0.000172
 20
1.999878
 30
0.0
 11
-0.000172
 21
-1.999878
 31
0.0
  0
LINE
  5
5A
330
57
100
AcDbEntity
  8
LAYER_1
 62
     7
100
AcDbLine
 10
-2.00005
 20
-0.000345
 30
0.0
 11
2.00005
 21
-0.000345
 31
0.0
  0
ENDBLK
  5
5D
330
57
100
AcDbEntity
  8
LAYER_1
100
AcDbBlockEnd
  0
BLOCK
  5
74
330
72
100
AcDbEntity
  8
LAYER_1
 62
     7
100
AcDbBlockBegin
  2
AI9-BLK9
 70
     0
 10
0.0
 20
0.0
 30
0.0
  3
AI9-BLK9
  1

  0
INSERT
  5
80
330
72
100
AcDbEntity
  8
LAYER_1
 62
     7
100
AcDbBlockReference
  2
AI9-BLK12
 10
-6.225115
 20
0.753615
 30
0.0
  0
INSERT
  5
7B
330
72
100
AcDbEntity
  8
LAYER_1
 62
     7
100
AcDbBlockReference
  2
AI9-BLK11
 10
-1.287432
 20
1.188558
 30
0.0
  0
INSERT
  5
76
330
72
100
AcDbEntity
  8
LAYER_1
 62
     7
100
AcDbBlockReference
  2
AI9-BLK10
 10
6.265078
 20
-1.238167
 30
0.0
  0
ENDBLK
  5
84
330
72
100
AcDbEntity
  8
LAYER_1
100
AcDbBlockEnd
  0
BLOCK
  5
77
330
75
100
AcDbEntity
  8
LAYER_1
 62
     7
100
AcDbBlockBegin
  2
AI9-BLK10
 70
     0
 10
0.0
 20
0.0
 30
0.0
  3
AI9-BLK10
  1

  0
HATCH
  5
78
330
75
100
AcDbEntity
  8
LAYER_1
 62
     7
100
AcDbHatch
 10
0.0
 20
0.0
 30
0.0
210
0.0
220
0.0
230
1.0
  2
SOLID
 70
     1
 71
     0
 91
        1
 92
        1
 93
        1
 72
     4
 94
        3
 73
     0
 74
     0
 95
       14
 96
       10
 40
0.0
 40
0.0
 40
0.0
 40
0.0
 40
1.0
 40
1.0
 40
1.0
 40
2.0
 40
2.0
 40
2.0
 40
3.0
 40
3.0
 40
3.0
 40
3.0
 10
0.5736083984375
 20
0.7107231987847221
 10
0.5736083984375
 20
0.7107231987847221
 10
0.2866319444444444
 20
0.7934054904513889
 10
-0.5736083984375
 20
-0.8953803168402777
 10
0.2549370659722222
 20
0.806496853298611
 10
-0.0637342664930556
 20
0.8988254123263888
 10
-0.0637342664930556
 20
0.8953803168402777
 10
-0.0637342664930556
 20
0.8953803168402777
 10
0.5736083984375
 20
0.7107231987847221
 10
0.5736083984375
 20
0.7107231987847221
 97
        0
 97
        0
 75
     0
 76
     1
 98
        1
 10
0.0
 20
0.0
  0
ENDBLK
  5
79
330
75
100
AcDbEntity
  8
LAYER_1
100
AcDbBlockEnd
  0
BLOCK
  5
7C
330
7A
100
AcDbEntity
  8
LAYER_1
 62
     7
100
AcDbBlockBegin
  2
AI9-BLK11
 70
     0
 10
0.0
 20
0.0
 30
0.0
  3
AI9-BLK11
  1

  0
HATCH
  5
7D
330
7A
100
AcDbEntity
  8
LAYER_1
 62
     7
100
AcDbHatch
 10
0.0
 20
0.0
 30
0.0
210
0.0
220
0.0
230
1.0
  2
SOLID
 70
     1
 71
     0
 91
        1
 92
        1
 93
        1
 72
     4
 94
        3
 73
     0
 74
     0
 95
       14
 96
       10
 40
0.0
 40
0.0
 40
0.0
 40
0.0
 40
1.0
 40
1.0
 40
1.0
 40
2.0
 40
2.0
 40
2.0
 40
3.0
 40
3.0
 40
3.0
 40
3.0
 10
0.4683607313368055
 20
0.7313937717013889
 10
0.4683607313368055
 20
0.7313937717013889
 10
0.1848293728298611
 20
0.8781548394097222
 10
-0.4683607313368055
 20
-0.9449896918402777
 10
0.1655368381076389
 20
0.9291422526041666
 10
-0.1562350802951389
 20
0.9480902777777777
 10
-0.1562350802951389
 20
0.9449896918402777
 10
-0.1562350802951389
 20
0.9449896918402777
 10
0.4683607313368055
 20
0.7313937717013889
 10
0.4683607313368055
 20
0.7313937717013889
 97
        0
 97
        0
 75
     0
 76
     1
 98
        1
 10
0.0
 20
0.0
  0
ENDBLK
  5
7E
330
7A
100
AcDbEntity
  8
LAYER_1
100
AcDbBlockEnd
  0
BLOCK
  5
81
330
7F
100
AcDbEntity
  8
LAYER_1
 62
     7
100
AcDbBlockBegin
  2
AI9-BLK12
 70
     0
 10
0.0
 20
0.0
 30
0.0
  3
AI9-BLK12
  1

  0
HATCH
  5
82
330
7F
100
AcDbEntity
  8
LAYER_1
 62
     7
100
AcDbHatch
 10
0.0
 20
0.0
 30
0.0
210
0.0
220
0.0
230
1.0
  2
SOLID
 70
     1
 71
     0
 91
        1
 92
        1
 93
        1
 72
     4
 94
        3
 73
     0
 74
     0
 95
       14
 96
       10
 40
0.0
 40
0.0
 40
0.0
 40
0.0
 40
1.0
 40
1.0
 40
1.0
 40
2.0
 40
2.0
 40
2.0
 40
3.0
 40
3.0
 40
3.0
 40
3.0
 10
0.0048231336805556
 20
1.077109103732639
 10
0.0110243055555556
 20
1.08365478515625
 10
-0.2277208116319444
 20
1.000627983940972
 10
0.6135715060763889
 20
-1.077109103732639
 10
-0.2980007595486111
 20
1.000627983940972
 10
-0.6197726779513888
 20
0.8380194769965277
 10
-0.6135715060763889
 20
0.8445651584201388
 10
-0.4096218532986111
 20
0.9241468641493055
 10
-0.2087727864583333
 20
1.016475423177083
 10
0.0048231336805556
 20
1.077109103732639
 97
        0
 97
        0
 75
     0
 76
     1
 98
        1
 10
0.0
 20
0.0
  0
ENDBLK
  5
83
330
7F
100
AcDbEntity
  8
LAYER_1
100
AcDbBlockEnd
  0
BLOCK
  5
87
330
85
100
AcDbEntity
  8
LAYER_1
 62
     7
100
AcDbBlockBegin
  2
AI9-BLK13
 70
     0
 10
0.0
 20
0.0
 30
0.0
  3
AI9-BLK13
  1

  0
INSERT
  5
98
330
85
100
AcDbEntity
  8
LAYER_1
 62
     7
100
AcDbBlockReference
  2
AI9-BLK17
 10
6.502445
 20
-1.453141
 30
0.0
  0
INSERT
  5
93
330
85
100
AcDbEntity
  8
LAYER_1
 62
     7
100
AcDbBlockReference
  2
AI9-BLK16
 10
0.409622
 20
-1.641243
 30
0.0
  0
INSERT
  5
8E
330
85
100
AcDbEntity
  8
LAYER_1
 62
     7
100
AcDbBlockReference
  2
AI9-BLK15
 10
-5.203644
 20
0.264411
 30
0.0
  0
INSERT
  5
89
330
85
100
AcDbEntity
  8
LAYER_1
 62
     7
100
AcDbBlockReference
  2
AI9-BLK14
 10
-6.387552
 20
1.80678
 30
0.0
  0
ENDBLK
  5
9C
330
85
100
AcDbEntity
  8
LAYER_1
100
AcDbBlockEnd
  0
BLOCK
  5
8A
330
88
100
AcDbEntity
  8
LAYER_1
 62
     7
100
AcDbBlockBegin
  2
AI9-BLK14
 70
     0
 10
0.0
 20
0.0
 30
0.0
  3
AI9-BLK14
  1

  0
HATCH
  5
8B
330
88
100
AcDbEntity
  8
LAYER_1
 62
     7
100
AcDbHatch
 10
0.0
 20
0.0
 30
0.0
210
0.0
220
0.0
230
1.0
  2
SOLID
 70
     1
 71
     0
 91
        1
 92
        1
 93
        1
 72
     4
 94
        3
 73
     0
 74
     0
 95
       14
 96
       10
 40
0.0
 40
0.0
 40
0.0
 40
0.0
 40
1.0
 40
1.0
 40
1.0
 40
2.0
 40
2.0
 40
2.0
 40
3.0
 40
3.0
 40
3.0
 40
3.0
 10
-0.7474134657118054
 20
-0.0923285590277778
 10
-0.7474134657118054
 20
-0.0923285590277778
 10
-0.5593112521701389
 20
-0.3665581597222222
 10
0.7474134657118054
 20
0.6469889322916667
 10
-0.57515869140625
 20
-0.3855061848958333
 10
-0.3870564778645833
 20
-0.6469889322916667
 10
-0.3870564778645833
 20
-0.6469889322916667
 10
-0.3870564778645833
 20
-0.6469889322916667
 10
-0.7474134657118054
 20
-0.0923285590277778
 10
-0.7474134657118054
 20
-0.0923285590277778
 97
        0
 97
        0
 75
     0
 76
     1
 98
        1
 10
0.0
 20
0.0
  0
ENDBLK
  5
8C
330
88
100
AcDbEntity
  8
LAYER_1
100
AcDbBlockEnd
  0
BLOCK
  5
8F
330
8D
100
AcDbEntity
  8
LAYER_1
 62
     7
100
AcDbBlockBegin
  2
AI9-BLK15
 70
     0
 10
0.0
 20
0.0
 30
0.0
  3
AI9-BLK15
  1

  0
HATCH
  5
90
330
8D
100
AcDbEntity
  8
LAYER_1
 62
     7
100
AcDbHatch
 10
0.0
 20
0.0
 30
0.0
210
0.0
220
0.0
230
1.0
  2
SOLID
 70
     1
 71
     0
 91
        1
 92
        1
 93
        1
 72
     4
 94
        3
 73
     0
 74
     0
 95
       14
 96
       10
 40
0.0
 40
0.0
 40
0.0
 40
0.0
 40
1.0
 40
1.0
 40
1.0
 40
2.0
 40
2.0
 40
2.0
 40
3.0
 40
3.0
 40
3.0
 40
3.0
 10
-0.5257215711805555
 20
-0.6914306640625
 10
-0.5353678385416666
 20
-0.6914306640625
 10
-0.1943033854166666
 20
-0.8381917317708333
 10
0.5257215711805555
 20
0.9656602647569443
 10
-0.1943033854166666
 20
-0.7872043185763888
 10
0.0795817057291667
 20
-0.9656602647569443
 10
0.0764811197916667
 20
-0.9656602647569443
 10
-0.1274685329861111
 20
-0.8729871961805554
 10
-0.3314181857638889
 20
-0.7934054904513889
 10
-0.5257215711805555
 20
-0.6914306640625
 97
        0
 97
        0
 75
     0
 76
     1
 98
        1
 10
0.0
 20
0.0
  0
ENDBLK
  5
91
330
8D
100
AcDbEntity
  8
LAYER_1
100
AcDbBlockEnd
  0
BLOCK
  5
94
330
92
100
AcDbEntity
  8
LAYER_1
 62
     7
100
AcDbBlockBegin
  2
AI9-BLK16
 70
     0
 10
0.0
 20
0.0
 30
0.0
  3
AI9-BLK16
  1

  0
HATCH
  5
95
330
92
100
AcDbEntity
  8
LAYER_1
 62
     7
100
AcDbHatch
 10
0.0
 20
0.0
 30
0.0
210
0.0
220
0.0
230
1.0
  2
SOLID
 70
     1
 71
     0
 91
        1
 92
        1
 93
        1
 72
     4
 94
        3
 73
     0
 74
     0
 95
       14
 96
       10
 40
0.0
 40
0.0
 40
0.0
 40
0.0
 40
1.0
 40
1.0
 40
1.0
 40
2.0
 40
2.0
 40
2.0
 40
3.0
 40
3.0
 40
3.0
 40
3.0
 10
-0.3298678927951388
 20
-0.7360446506076388
 10
-0.3298678927951388
 20
-0.7360446506076388
 10
-0.0463365342881944
 20
-0.7901326497395833
 10
0.1800062391493056
 20
0.8125257703993055
 10
0.00465087890625
 20
-0.8059800889756944
 10
0.3298678927951388
 20
-0.8125257703993055
 10
0.3298678927951388
 20
-0.8125257703993055
 10
0.3298678927951388
 20
-0.8125257703993055
 10
-0.3298678927951388
 20
-0.7360446506076388
 10
-0.3298678927951388
 20
-0.7360446506076388
 97
        0
 97
        0
 75
     0
 76
     1
 98
        1
 10
0.0
 20
0.0
  0
ENDBLK
  5
96
330
92
100
AcDbEntity
  8
LAYER_1
100
AcDbBlockEnd
  0
BLOCK
  5
99
330
97
100
AcDbEntity
  8
LAYER_1
 62
     7
100
AcDbBlockBegin
  2
AI9-BLK17
 70
     0
 10
0.0
 20
0.0
 30
0.0
  3
AI9-BLK17
  1

  0
HATCH
  5
9A
330
97
100
AcDbEntity
  8
LAYER_1
 62
     7
100
AcDbHatch
 10
0.0
 20
0.0
 30
0.0
210
0.0
220
0.0
230
1.0
  2
SOLID
 70
     1
 71
     0
 91
        1
 92
        1
 93
        1
 72
     4
 94
        3
 73
     0
 74
     0
 95
       14
 96
       10
 40
0.0
 40
0.0
 40
0.0
 40
0.0
 40
1.0
 40
1.0
 40
1.0
 40
2.0
 40
2.0
 40
2.0
 40
3.0
 40
3.0
 40
3.0
 40
3.0
 10
0.0589111328125
 20
-0.9654880099826388
 10
0.0527099609375
 20
-0.9685885959201388
 10
0.3489881727430556
 20
-0.8797051323784721
 10
-0.6325195312499999
 20
0.9654880099826388
 10
0.3841281467013888
 20
-0.8445651584201388
 10
0.639065212673611
 20
-0.63717041015625
 10
0.6325195312499999
 20
-0.6437160915798611
 10
0.4509629991319444
 20
-0.764638943142361
 10
0.2535590277777778
 20
-0.8666137695312499
 10
0.0589111328125
 20
-0.9654880099826388
 97
        0
 97
        0
 75
     0
 76
     1
 98
        1
 10
0.0
 20
0.0
  0
ENDBLK
  5
9B
330
97
100
AcDbEntity
  8
LAYER_1
100
AcDbBlockEnd
  0
ENDSEC
  0
SECTION
  2
ENTITIES
  0
LINE
  5
DB
330
A
100
AcDbEntity
  8
LAYER_1
 62
   230
100
AcDbLine
 10
-548.856421
 20
1090.272125
 30
0.0
 11
-548.856421
 21
-832.796023
 31
0.0
  0
LINE
  5
DA
330
A
100
AcDbEntity
  8
LAYER_1
 62
   230
100
AcDbLine
 10
-392.305425
 20
1090.272125
 30
0.0
 11
-392.305425
 21
-832.796023
 31
0.0
  0
LINE
  5
D9
330
A
100
AcDbEntity
  8
LAYER_1
 62
   230
100
AcDbLine
 10
-235.75753
 20
1090.272125
 30
0.0
 11
-235.75753
 21
-832.796023
 31
0.0
  0
LINE
  5
D8
330
A
100
AcDbEntity
  8
LAYER_1
 62
   230
100
AcDbLine
 10
-79.20619
 20
1090.272125
 30
0.0
 11
-79.20619
 21
-832.796023
 31
0.0
  0
LINE
  5
D7
330
A
100
AcDbEntity
  8
LAYER_1
 62
   230
100
AcDbLine
 10
77.344805
 20
1090.272125
 30
0.0
 11
77.344805
 21
-832.796023
 31
0.0
  0
LINE
  5
D6
330
A
100
AcDbEntity
  8
LAYER_1
 62
   230
100
AcDbLine
 10
233.899246
 20
1090.272125
 30
0.0
 11
233.899246
 21
-832.796023
 31
0.0
  0
LINE
  5
D5
330
A
100
AcDbEntity
  8
LAYER_1
 62
   230
100
AcDbLine
 10
390.450241
 20
1090.272125
 30
0.0
 11
390.450241
 21
-832.796023
 31
0.0
  0
LINE
  5
D4
330
A
100
AcDbEntity
  8
LAYER_1
 62
   230
100
AcDbLine
 10
547.001581
 20
1090.272125
 30
0.0
 11
547.001581
 21
-832.796023
 31
0.0
  0
LINE
  5
D3
330
A
100
AcDbEntity
  8
LAYER_1
 62
   230
100
AcDbLine
 10
703.552577
 20
1090.272125
 30
0.0
 11
703.552577
 21
-832.796023
 31
0.0
  0
LINE
  5
D2
330
A
100
AcDbEntity
  8
LAYER_1
 62
   230
100
AcDbLine
 10
860.103573
 20
1090.272125
 30
0.0
 11
860.103573
 21
-832.796023
 31
0.0
  0
LINE
  5
D1
330
A
100
AcDbEntity
  8
LAYER_1
 62
   230
100
AcDbLine
 10
-595.826164
 20
-833.05096
 30
0.0
 11
898.152585
 21
-833.057161
 31
0.0
  0
LINE
  5
D0
330
A
100
AcDbEntity
  8
LAYER_1
 62
   230
100
AcDbLine
 10
-595.826164
 20
-676.503065
 30
0.0
 11
898.152585
 21
-676.503065
 31
0.0
  0
LINE
  5
CF
330
A
100
AcDbEntity
  8
LAYER_1
 62
   230
100
AcDbLine
 10
-595.826164
 20
-519.948625
 30
0.0
 11
898.152585
 21
-519.948625
 31
0.0
  0
LINE
  5
CE
330
A
100
AcDbEntity
  8
LAYER_1
 62
   230
100
AcDbLine
 10
-595.826164
 20
-363.397285
 30
0.0
 11
898.152585
 21
-363.40073
 31
0.0
  0
LINE
  5
CD
330
A
100
AcDbEntity
  8
LAYER_1
 62
   230
100
AcDbLine
 10
-595.826164
 20
-206.846289
 30
0.0
 11
898.152585
 21
-206.84939
 31
0.0
  0
LINE
  5
CC
330
A
100
AcDbEntity
  8
LAYER_1
 62
   230
100
AcDbLine
 10
-595.826164
 20
-50.291848
 30
0.0
 11
898.152585
 21
-50.298394
 31
0.0
  0
LINE
  5
CB
330
A
100
AcDbEntity
  8
LAYER_1
 62
   230
100
AcDbLine
 10
-595.826164
 20
106.256047
 30
0.0
 11
898.152585
 21
106.249501
 31
0.0
  0
LINE
  5
CA
330
A
100
AcDbEntity
  8
LAYER_1
 62
   230
100
AcDbLine
 10
-595.826164
 20
262.810487
 30
0.0
 11
898.152585
 21
262.803942
 31
0.0
  0
LINE
  5
C9
330
A
100
AcDbEntity
  8
LAYER_1
 62
   230
100
AcDbLine
 10
-595.826164
 20
419.358382
 30
0.0
 11
898.152585
 21
419.358382
 31
0.0
  0
LINE
  5
C8
330
A
100
AcDbEntity
  8
LAYER_1
 62
   230
100
AcDbLine
 10
-595.826164
 20
575.912478
 30
0.0
 11
898.152585
 21
575.906277
 31
0.0
  0
LINE
  5
C7
330
A
100
AcDbEntity
  8
LAYER_1
 62
   230
100
AcDbLine
 10
-595.826164
 20
732.463818
 30
0.0
 11
898.152585
 21
732.463818
 31
0.0
  0
LINE
  5
C6
330
A
100
AcDbEntity
  8
LAYER_1
 62
   230
100
AcDbLine
 10
-595.826164
 20
889.018259
 30
0.0
 11
898.152585
 21
889.011713
 31
0.0
  0
LINE
  5
C5
330
A
100
AcDbEntity
  8
LAYER_1
 62
   230
100
AcDbLine
 10
-595.826164
 20
1045.566154
 30
0.0
 11
898.152585
 21
1045.563053
 31
0.0
  0
MTEXT
  5
C4
330
A
100
AcDbEntity
  8
LAYER_1
 62
     7
100
AcDbMText
 10
-677.162629
 20
-815.510105
 30
0.0
 40
30.816531
 41
0.0
 46
0.0
 71
     1
 72
     2
  1
\W1.00;\fMyriad Roman|b0|i0;200
  7
STD
 73
     1
 44
1.0
  0
MTEXT
  5
C3
330
A
100
AcDbEntity
  8
LAYER_1
 62
     7
100
AcDbMText
 10
-677.162629
 20
-658.92397
 30
0.0
 40
30.816531
 41
0.0
 46
0.0
 71
     1
 72
     2
  1
\W1.00;\fMyriad Roman|b0|i0;210
  7
STD
 73
     1
 44
1.0
  0
MTEXT
  5
C2
330
A
100
AcDbEntity
  8
LAYER_1
 62
     7
100
AcDbMText
 10
-677.162629
 20
-502.33749
 30
0.0
 40
30.816531
 41
0.0
 46
0.0
 71
     1
 72
     2
  1
\W1.00;\fMyriad Roman|b0|i0;220
  7
STD
 73
     1
 44
1.0
  0
MTEXT
  5
C1
330
A
100
AcDbEntity
  8
LAYER_1
 62
     7
100
AcDbMText
 10
-677.162629
 20
-345.748254
 30
0.0
 40
30.816531
 41
0.0
 46
0.0
 71
     1
 72
     2
  1
\W1.00;\fMyriad Roman|b0|i0;230
  7
STD
 73
     1
 44
1.0
  0
MTEXT
  5
C0
330
A
100
AcDbEntity
  8
LAYER_1
 62
     7
100
AcDbMText
 10
-677.162629
 20
-189.165219
 30
0.0
 40
30.816531
 41
0.0
 46
0.0
 71
     1
 72
     2
  1
\W1.00;\fMyriad Roman|b0|i0;240
  7
STD
 73
     1
 44
1.0
  0
MTEXT
  5
BF
330
A
100
AcDbEntity
  8
LAYER_1
 62
     7
100
AcDbMText
 10
-677.162629
 20
-32.575638
 30
0.0
 40
30.816531
 41
0.0
 46
0.0
 71
     1
 72
     2
  1
\W1.00;\fMyriad Roman|b0|i0;250
  7
STD
 73
     1
 44
1.0
  0
MTEXT
  5
BE
330
A
100
AcDbEntity
  8
LAYER_1
 62
     7
100
AcDbMText
 10
-677.162629
 20
124.010498
 30
0.0
 40
30.816531
 41
0.0
 46
0.0
 71
     1
 72
     2
  1
\W1.00;\fMyriad Roman|b0|i0;260
  7
STD
 73
     1
 44
1.0
  0
MTEXT
  5
BD
330
A
100
AcDbEntity
  8
LAYER_1
 62
     7
100
AcDbMText
 10
-677.162629
 20
280.599734
 30
0.0
 40
30.816531
 41
0.0
 46
0.0
 71
     1
 72
     2
  1
\W1.00;\fMyriad Roman|b0|i0;270
  7
STD
 73
     1
 44
1.0
  0
MTEXT
  5
BC
330
A
100
AcDbEntity
  8
LAYER_1
 62
     7
100
AcDbMText
 10
-677.162629
 20
437.186214
 30
0.0
 40
30.816531
 41
0.0
 46
0.0
 71
     1
 72
     2
  1
\W1.00;\fMyriad Roman|b0|i0;280
  7
STD
 73
     1
 44
1.0
  0
MTEXT
  5
BB
330
A
100
AcDbEntity
  8
LAYER_1
 62
     7
100
AcDbMText
 10
-677.162629
 20
593.772349
 30
0.0
 40
30.816531
 41
0.0
 46
0.0
 71
     1
 72
     2
  1
\W1.00;\fMyriad Roman|b0|i0;290
  7
STD
 73
     1
 44
1.0
  0
MTEXT
  5
BA
330
A
100
AcDbEntity
  8
LAYER_1
 62
     7
100
AcDbMText
 10
-677.162629
 20
750.352284
 30
0.0
 40
30.816531
 41
0.0
 46
0.0
 71
     1
 72
     2
  1
\W1.00;\fMyriad Roman|b0|i0;300
  7
STD
 73
     1
 44
1.0
  0
MTEXT
  5
B9
330
A
100
AcDbEntity
  8
LAYER_1
 62
     7
100
AcDbMText
 10
-677.162629
 20
906.94152
 30
0.0
 40
30.816531
 41
0.0
 46
0.0
 71
     1
 72
     2
  1
\W1.00;\fMyriad Roman|b0|i0;310
  7
STD
 73
     1
 44
1.0
  0
MTEXT
  5
B8
330
A
100
AcDbEntity
  8
LAYER_1
 62
     7
100
AcDbMText
 10
-677.162629
 20
1063.530756
 30
0.0
 40
30.816531
 41
0.0
 46
0.0
 71
     1
 72
     2
  1
\W1.00;\fMyriad Roman|b0|i0;320
  7
STD
 73
     1
 44
1.0
  0
MTEXT
  5
B7
330
A
100
AcDbEntity
  8
LAYER_1
 62
     7
100
AcDbMText
 10
-581.331613
 20
1149.449715
 30
0.0
 40
30.816531
 41
0.0
 46
0.0
 71
     1
 72
     2
  1
\W1.00;\fMyriad Roman|b0|i0;730
  7
STD
 73
     1
 44
1.0
  0
MTEXT
  5
B6
330
A
100
AcDbEntity
  8
LAYER_1
 62
     7
100
AcDbMText
 10
-425.078619
 20
1149.449715
 30
0.0
 40
30.816531
 41
0.0
 46
0.0
 71
     1
 72
     2
  1
\W1.00;\fMyriad Roman|b0|i0;740
  7
STD
 73
     1
 44
1.0
  0
MTEXT
  5
B5
330
A
100
AcDbEntity
  8
LAYER_1
 62
     7
100
AcDbMText
 10
-268.828725
 20
1149.449715
 30
0.0
 40
30.816531
 41
0.0
 46
0.0
 71
     1
 72
     2
  1
\W1.00;\fMyriad Roman|b0|i0;750
  7
STD
 73
     1
 44
1.0
  0
MTEXT
  5
B4
330
A
100
AcDbEntity
  8
LAYER_1
 62
     7
100
AcDbMText
 10
-112.575385
 20
1149.449715
 30
0.0
 40
30.816531
 41
0.0
 46
0.0
 71
     1
 72
     2
  1
\W1.00;\fMyriad Roman|b0|i0;760
  7
STD
 73
     1
 44
1.0
  0
MTEXT
  5
B3
330
A
100
AcDbEntity
  8
LAYER_1
 62
     7
100
AcDbMText
 10
43.674509
 20
1149.446614
 30
0.0
 40
30.816531
 41
0.0
 46
0.0
 71
     1
 72
     2
  1
\W1.00;\fMyriad Roman|b0|i0;770
  7
STD
 73
     1
 44
1.0
  0
MTEXT
  5
B2
330
A
100
AcDbEntity
  8
LAYER_1
 62
     7
100
AcDbMText
 10
199.929226
 20
1149.446614
 30
0.0
 40
30.816531
 41
0.0
 46
0.0
 71
     1
 72
     2
  1
\W1.00;\fMyriad Roman|b0|i0;780
  7
STD
 73
     1
 44
1.0
  0
MTEXT
  5
B1
330
A
100
AcDbEntity
  8
LAYER_1
 62
     7
100
AcDbMText
 10
356.180843
 20
1149.446614
 30
0.0
 40
30.816531
 41
0.0
 46
0.0
 71
     1
 72
     2
  1
\W1.00;\fMyriad Roman|b0|i0;790
  7
STD
 73
     1
 44
1.0
  0
MTEXT
  5
B0
330
A
100
AcDbEntity
  8
LAYER_1
 62
     7
100
AcDbMText
 10
512.43556
 20
1149.446614
 30
0.0
 40
30.816531
 41
0.0
 46
0.0
 71
     1
 72
     2
  1
\W1.00;\fMyriad Roman|b0|i0;800
  7
STD
 73
     1
 44
1.0
  0
MTEXT
  5
AF
330
A
100
AcDbEntity
  8
LAYER_1
 62
     7
100
AcDbMText
 10
668.687177
 20
1149.446614
 30
0.0
 40
30.816531
 41
0.0
 46
0.0
 71
     1
 72
     2
  1
\W1.00;\fMyriad Roman|b0|i0;810
  7
STD
 73
     1
 44
1.0
  0
MTEXT
  5
AE
330
A
100
AcDbEntity
  8
LAYER_1
 62
     7
100
AcDbMText
 10
824.942239
 20
1149.446614
 30
0.0
 40
30.816531
 41
0.0
 46
0.0
 71
     1
 72
     2
  1
\W1.00;\fMyriad Roman|b0|i0;820
  7
STD
 73
     1
 44
1.0
  0
SPLINE
  5
AD
330
A
100
AcDbEntity
  8
LAYER_1
 62
     7
100
AcDbSpline
210
0.0
220
0.0
230
1.0
 70
     8
 71
     3
 72
    50
 73
    46
 74
     0
 42
0.000000001
 43
0.00000001
 40
0.0
 40
0.0
 40
0.0
 40
0.0
 40
1.0
 40
1.0
 40
1.0
 40
2.0
 40
2.0
 40
2.0
 40
3.0
 40
3.0
 40
3.0
 40
4.0
 40
4.0
 40
4.0
 40
5.0
 40
5.0
 40
5.0
 40
6.0
 40
6.0
 40
6.0
 40
7.0
 40
7.0
 40
7.0
 40
8.0
 40
8.0
 40
8.0
 40
9.0
 40
9.0
 40
9.0
 40
10.0
 40
10.0
 40
10.0
 40
11.0
 40
11.0
 40
11.0
 40
12.0
 40
12.0
 40
12.0
 40
13.0
 40
13.0
 40
13.0
 40
14.0
 40
14.0
 40
14.0
 40
15.0
 40
15.0
 40
15.0
 40
15.0
 10
211.385546875
 20
487.179909939236
 30
0.0
 10
211.385546875
 20
487.179909939236
 30
0.0
 10
210.7416585286458
 20
487.1771538628472
 30
0.0
 10
211.9429633246528
 20
490.8193088107639
 30
0.0
 10
213.1477132161458
 20
494.4649088541666
 30
0.0
 10
212.5200168185764
 20
493.3462863498264
 30
0.0
 10
212.5710042317708
 20
493.9260959201388
 30
0.0
 10
212.6219916449652
 20
494.50625
 30
0.0
 10
212.5741048177083
 20
495.2772623697916
 30
0.0
 10
212.8958767361111
 20
496.3004557291666
 30
0.0
 10
213.2207492404514
 20
497.323304578993
 30
0.0
 10
213.6927273220486
 20
500.6247395833333
 30
0.0
 10
213.867738172743
 20
501.9566134982638
 30
0.0
 10
214.0430935329861
 20
503.2857313368055
 30
0.0
 10
214.0875352647569
 20
503.8114529079861
 30
0.0
 10
214.2914849175347
 20
504.7319824218749
 30
0.0
 10
214.4861328125
 20
505.6532009548611
 30
0.0
 10
215.0817898220486
 20
507.0615559895833
 30
0.0
 10
215.1837646484375
 20
508.2246202256944
 30
0.0
 10
215.2891845703125
 20
509.3880289713541
 30
0.0
 10
215.2285508897569
 20
509.3339409722222
 30
0.0
 10
215.3494737413194
 20
510.0891059027777
 30
0.0
 10
215.473841688368
 20
510.8346245659721
 30
0.0
 10
215.4896891276042
 20
511.0099799262152
 30
0.0
 10
215.6588433159722
 20
512.867919921875
 30
0.0
 10
215.821107313368
 20
514.7289605034722
 30
0.0
 10
215.5406765407986
 20
514.8753770616319
 30
0.0
 10
215.9995632595486
 20
515.4172905815972
 30
0.0
 10
216.4584499782986
 20
515.9650607638888
 30
0.0
 10
216.9779703776042
 20
516.5579616970485
 30
0.0
 10
216.9845160590278
 20
517.2590386284721
 30
0.0
 10
216.9876166449653
 20
517.9666612413193
 30
0.0
 10
216.9876166449653
 20
517.9666612413193
 30
0.0
 10
216.9876166449653
 20
517.9666612413193
 30
0.0
 10
216.9876166449653
 20
517.9666612413193
 30
0.0
 10
217.0034640842014
 20
518.1416720920139
 30
0.0
 10
217.0034640842014
 20
518.1416720920139
 30
0.0
 10
217.0034640842014
 20
518.1416720920139
 30
0.0
 10
216.732679578993
 20
518.3935085720485
 30
0.0
 10
217.0702989366319
 20
519.5407253689235
 30
0.0
 10
217.4017171223958
 20
520.6848415798611
 30
0.0
 10
217.5291856553819
 20
520.7895724826388
 30
0.0
 10
217.5357313368055
 20
521.4909939236111
 30
0.0
 10
217.5357313368055
 20
522.191726345486
 30
0.0
 10
217.4082628038194
 20
522.7336398654513
 30
0.0
 10
217.4241102430555
 20
522.9089952256944
 30
0.0
  0
SPLINE
  5
AC
330
A
100
AcDbEntity
  8
LAYER_1
 62
     7
100
AcDbSpline
210
0.0
220
0.0
230
1.0
 70
     8
 71
     3
 72
    47
 73
    43
 74
     0
 42
0.000000001
 43
0.00000001
 40
0.0
 40
0.0
 40
0.0
 40
0.0
 40
1.0
 40
1.0
 40
1.0
 40
2.0
 40
2.0
 40
2.0
 40
3.0
 40
3.0
 40
3.0
 40
4.0
 40
4.0
 40
4.0
 40
5.0
 40
5.0
 40
5.0
 40
6.0
 40
6.0
 40
6.0
 40
7.0
 40
7.0
 40
7.0
 40
8.0
 40
8.0
 40
8.0
 40
9.0
 40
9.0
 40
9.0
 40
10.0
 40
10.0
 40
10.0
 40
11.0
 40
11.0
 40
11.0
 40
12.0
 40
12.0
 40
12.0
 40
13.0
 40
13.0
 40
13.0
 40
14.0
 40
14.0
 40
14.0
 40
14.0
 10
218.8421115451389
 20
530.1778021918402
 30
0.0
 10
218.8421115451389
 20
530.1778021918402
 30
0.0
 10
219.7760769314236
 20
534.1262261284721
 30
0.0
 10
219.8491129557291
 20
534.7060356987847
 30
0.0
 10
219.9290391710069
 20
535.2858452690972
 30
0.0
 10
219.7822781032986
 20
536.3758734809028
 30
0.0
 10
219.8684054904514
 20
536.5129882812499
 30
0.0
 10
219.951087782118
 20
536.6501030815972
 30
0.0
 10
219.951087782118
 20
536.6501030815972
 30
0.0
 10
219.951087782118
 20
536.6501030815972
 30
0.0
 10
219.951087782118
 20
536.6501030815972
 30
0.0
 10
220.2539116753472
 20
537.5771782769096
 30
0.0
 10
220.3111002604167
 20
537.9371907552082
 30
0.0
 10
220.3655327690972
 20
538.2975477430555
 30
0.0
 10
220.3079996744791
 20
538.1824815538193
 30
0.0
 10
220.403773328993
 20
538.7309407552083
 30
0.0
 10
220.5057481553819
 20
539.2852566189235
 30
0.0
 10
220.57568359375
 20
539.5529405381944
 30
0.0
 10
220.6776584201389
 20
539.9064073350694
 30
0.0
 10
220.7861789279514
 20
540.2605631510417
 30
0.0
 10
220.7606852213542
 20
540.5344482421874
 30
0.0
 10
220.8464680989583
 20
541.2100314670139
 30
0.0
 10
220.9294949001736
 20
541.8856146918403
 30
0.0
 10
221.3852810329861
 20
543.4851725260417
 30
0.0
 10
221.5000027126736
 20
544.4987196180555
 30
0.0
 10
221.6178249782986
 20
545.5119222005208
 30
0.0
 10
221.9110026041666
 20
545.7796061197917
 30
0.0
 10
221.6147243923611
 20
546.0283420138888
 30
0.0
 10
221.3181016710069
 20
546.2701877170139
 30
0.0
 10
220.8592149522569
 20
546.3149739583333
 30
0.0
 10
220.5915310329861
 20
546.6270996093749
 30
0.0
 10
220.3303927951389
 20
546.9461154513889
 30
0.0
 10
220.2473659939236
 20
546.8758355034722
 30
0.0
 10
220.0341145833333
 20
547.19140625
 30
0.0
 10
219.8174180772569
 20
547.5004313151042
 30
0.0
 10
219.6134684244792
 20
547.4050021701388
 30
0.0
 10
219.380579969618
 20
547.2964816623263
 30
0.0
 10
219.1545817057292
 20
547.1945068359374
 30
0.0
 10
219.2372639973958
 20
547.0670383029513
 30
0.0
 10
218.8517578125
 20
547.1052788628472
 30
0.0
 10
218.4662516276042
 20
547.1369737413194
 30
0.0
 10
218.3959716796875
 20
547.213454861111
 30
0.0
 10
218.3959716796875
 20
547.213454861111
 30
0.0
  0
SPLINE
  5
AB
330
A
100
AcDbEntity
  8
LAYER_1
 62
     7
100
AcDbSpline
210
0.0
220
0.0
230
1.0
 70
     8
 71
     3
 72
    53
 73
    49
 74
     0
 42
0.000000001
 43
0.00000001
 40
0.0
 40
0.0
 40
0.0
 40
0.0
 40
1.0
 40
1.0
 40
1.0
 40
2.0
 40
2.0
 40
2.0
 40
3.0
 40
3.0
 40
3.0
 40
4.0
 40
4.0
 40
4.0
 40
5.0
 40
5.0
 40
5.0
 40
6.0
 40
6.0
 40
6.0
 40
7.0
 40
7.0
 40
7.0
 40
8.0
 40
8.0
 40
8.0
 40
9.0
 40
9.0
 40
9.0
 40
10.0
 40
10.0
 40
10.0
 40
11.0
 40
11.0
 40
11.0
 40
12.0
 40
12.0
 40
12.0
 40
13.0
 40
13.0
 40
13.0
 40
14.0
 40
14.0
 40
14.0
 40
15.0
 40
15.0
 40
15.0
 40
16.0
 40
16.0
 40
16.0
 40
16.0
 10
220.9932291666667
 20
547.544873046875
 30
0.0
 10
220.9932291666667
 20
547.544873046875
 30
0.0
 10
221.6974066840278
 20
547.7998101128471
 30
0.0
 10
222.0257242838541
 20
547.9176323784721
 30
0.0
 10
222.3540418836805
 20
548.0357991536458
 30
0.0
 10
222.3729899088542
 20
547.9848117404514
 30
0.0
 10
222.4560167100694
 20
548.34482421875
 30
0.0
 10
222.5355984157986
 20
548.7051812065972
 30
0.0
 10
222.6151801215278
 20
549.0620930989583
 30
0.0
 10
222.640673828125
 20
549.3549262152777
 30
0.0
 10
222.6692681206597
 20
549.6484483506944
 30
0.0
 10
222.8859646267361
 20
549.6229546440971
 30
0.0
 10
222.7808892144097
 20
550.1231825086805
 30
0.0
 10
222.6820149739583
 20
550.6172092013888
 30
0.0
 10
222.6055338541667
 20
550.5786241319444
 30
0.0
 10
222.6599663628472
 20
550.9355360243055
 30
0.0
 10
222.7171549479166
 20
551.2958930121528
 30
0.0
 10
222.7330023871528
 20
551.4709038628472
 30
0.0
 10
222.8256754557291
 20
551.9745768229166
 30
0.0
 10
222.9180040147569
 20
552.478249782986
 30
0.0
 10
222.9531439887153
 20
552.3059950086805
 30
0.0
 10
222.9180040147569
 20
552.478249782986
 30
0.0
 10
222.8859646267361
 20
552.6532606336805
 30
0.0
 10
222.7330023871528
 20
552.8606553819444
 30
0.0
 10
222.7553955078125
 20
553.1279947916667
 30
0.0
 10
222.7777886284722
 20
553.3956787109374
 30
0.0
 10
222.6727132161458
 20
553.5486409505207
 30
0.0
 10
222.8001817491319
 20
553.8545654296875
 30
0.0
 10
222.9180040147569
 20
554.1604899088541
 30
0.0
 10
222.9848388671875
 20
554.3296440972222
 30
0.0
 10
223.0420274522569
 20
554.6893120659722
 30
0.0
 10
223.099560546875
 20
555.0496690538193
 30
0.0
 10
223.1281548394097
 20
555.0972113715277
 30
0.0
 10
223.2080810546875
 20
555.5023546006944
 30
0.0
 10
223.2969645182291
 20
555.9130099826389
 30
0.0
 10
223.281117078993
 20
555.7442003038194
 30
0.0
 10
223.2397759331597
 20
556.0632161458333
 30
0.0
 10
223.1918891059028
 20
556.384988064236
 30
0.0
 10
223.0296251085069
 20
556.2254801432291
 30
0.0
 10
223.1378011067708
 20
556.6109863281249
 30
0.0
 10
223.2459771050347
 20
556.9933919270833
 30
0.0
 10
223.3768907335069
 20
557.073318142361
 30
0.0
 10
223.386537000868
 20
557.1718478732638
 30
0.0
 10
223.392738172743
 20
557.2707221137152
 30
0.0
 10
223.281117078993
 20
557.3792426215277
 30
0.0
 10
223.1918891059028
 20
557.5067111545138
 30
0.0
 10
223.1092068142361
 20
557.640380859375
 30
0.0
 10
223.0072319878472
 20
557.5955946180555
 30
0.0
 10
223.0165337456597
 20
557.7203070746527
 30
0.0
  0
SPLINE
  5
AA
330
A
100
AcDbEntity
  8
LAYER_1
 62
     7
100
AcDbSpline
210
0.0
220
0.0
230
1.0
 70
     8
 71
     3
 72
    44
 73
    40
 74
     0
 42
0.000000001
 43
0.00000001
 40
0.0
 40
0.0
 40
0.0
 40
0.0
 40
1.0
 40
1.0
 40
1.0
 40
2.0
 40
2.0
 40
2.0
 40
3.0
 40
3.0
 40
3.0
 40
4.0
 40
4.0
 40
4.0
 40
5.0
 40
5.0
 40
5.0
 40
6.0
 40
6.0
 40
6.0
 40
7.0
 40
7.0
 40
7.0
 40
8.0
 40
8.0
 40
8.0
 40
9.0
 40
9.0
 40
9.0
 40
10.0
 40
10.0
 40
10.0
 40
11.0
 40
11.0
 40
11.0
 40
12.0
 40
12.0
 40
12.0
 40
13.0
 40
13.0
 40
13.0
 40
13.0
 10
214.9577663845486
 20
487.1544162326388
 30
0.0
 10
214.9577663845486
 20
487.1544162326388
 30
0.0
 10
215.2127034505208
 20
488.7129774305555
 30
0.0
 10
215.8118055555555
 20
489.5384223090277
 30
0.0
 10
216.4140082465278
 20
490.3666232638889
 30
0.0
 10
217.2521999782986
 20
491.8741970486111
 30
0.0
 10
217.8702501085069
 20
492.2820963541666
 30
0.0
 10
218.4948459201389
 20
492.6961968315972
 30
0.0
 10
220.0403157552083
 20
493.6174153645833
 30
0.0
 10
220.7699869791666
 20
493.9006022135416
 30
0.0
 10
221.4965576171875
 20
494.1941243489583
 30
0.0
 10
223.4085856119791
 20
494.6047797309027
 30
0.0
 10
224.3931939019097
 20
496.4499728732638
 30
0.0
 10
225.3781467013889
 20
498.2986111111111
 30
0.0
 10
226.1715521918402
 20
500.6309407552083
 30
0.0
 10
226.3658555772569
 20
500.8476372612847
 30
0.0
 10
226.5601589626736
 20
501.0612331814236
 30
0.0
 10
226.8502360026041
 20
503.0307942708333
 30
0.0
 10
226.8278428819444
 20
503.4414496527777
 30
0.0
 10
226.8057942708333
 20
503.8527940538194
 30
0.0
 10
226.8247422960069
 20
506.0163140190972
 30
0.0
 10
227.0352376302083
 20
507.0553548177083
 30
0.0
 10
227.2102484809027
 20
507.9252414279513
 30
0.0
 10
227.3856038411458
 20
508.8909016927083
 30
0.0
 10
227.7649088541666
 20
509.7321940104166
 30
0.0
 10
227.9719590928819
 20
510.1910807291666
 30
0.0
 10
228.2396430121528
 20
510.6113823784722
 30
0.0
 10
228.5776068793403
 20
510.9937879774305
 30
0.0
 10
228.8228976779514
 20
511.2742187499999
 30
0.0
 10
229.2976318359375
 20
511.5036621093749
 30
0.0
 10
229.4505940755208
 20
511.8350802951388
 30
0.0
 10
229.8967339409722
 20
512.7914388020832
 30
0.0
 10
229.759619140625
 20
513.8938693576389
 30
0.0
 10
230.1261773003472
 20
514.8688313802082
 30
0.0
 10
230.4672417534722
 20
515.7866048177083
 30
0.0
 10
230.7538736979166
 20
516.7174696180555
 30
0.0
 10
231.024658203125
 20
517.6607367621527
 30
0.0
 10
231.359521484375
 20
518.8079535590277
 30
0.0
 10
231.6971408420139
 20
519.9041829427083
 30
0.0
 10
232.0223578559028
 20
521.0255615234374
 30
0.0
  0
SPLINE
  5
A9
330
A
100
AcDbEntity
  8
LAYER_1
 62
     7
100
AcDbSpline
210
0.0
220
0.0
230
1.0
 70
     8
 71
     3
 72
    47
 73
    43
 74
     0
 42
0.000000001
 43
0.00000001
 40
0.0
 40
0.0
 40
0.0
 40
0.0
 40
1.0
 40
1.0
 40
1.0
 40
2.0
 40
2.0
 40
2.0
 40
3.0
 40
3.0
 40
3.0
 40
4.0
 40
4.0
 40
4.0
 40
5.0
 40
5.0
 40
5.0
 40
6.0
 40
6.0
 40
6.0
 40
7.0
 40
7.0
 40
7.0
 40
8.0
 40
8.0
 40
8.0
 40
9.0
 40
9.0
 40
9.0
 40
10.0
 40
10.0
 40
10.0
 40
11.0
 40
11.0
 40
11.0
 40
12.0
 40
12.0
 40
12.0
 40
13.0
 40
13.0
 40
13.0
 40
14.0
 40
14.0
 40
14.0
 40
14.0
 10
215.6426513671875
 20
512.0390299479167
 30
0.0
 10
215.8848415798611
 20
512.020081922743
 30
0.0
 10
216.092236328125
 20
511.8767659505208
 30
0.0
 10
216.2927408854166
 20
511.7427517361111
 30
0.0
 10
216.7261338975694
 20
511.4526746961805
 30
0.0
 10
216.7485270182291
 20
511.0003336588541
 30
0.0
 10
216.8377549913194
 20
510.5159532335069
 30
0.0
 10
216.9111355251736
 20
510.12080078125
 30
0.0
 10
217.0417046440972
 20
509.7542426215277
 30
0.0
 10
217.134033203125
 20
509.3690809461805
 30
0.0
 10
217.197767469618
 20
509.1075981987847
 30
0.0
 10
217.0895914713541
 20
508.801673719618
 30
0.0
 10
217.3986165364583
 20
508.6552571614583
 30
0.0
 10
217.6122124565972
 20
508.5532823350694
 30
0.0
 10
217.8385552300347
 20
508.5467366536458
 30
0.0
 10
218.0549072265625
 20
508.4382161458333
 30
0.0
 10
218.4789984809028
 20
508.2246202256944
 30
0.0
 10
218.921693250868
 20
507.9858751085069
 30
0.0
 10
219.3998725043403
 20
507.9414333767361
 30
0.0
 10
219.8139729817708
 20
507.8997477213541
 30
0.0
 10
220.1998236762153
 20
507.6703043619791
 30
0.0
 10
220.633216688368
 20
507.6799506293402
 30
0.0
 10
220.92294921875
 20
507.6864963107639
 30
0.0
 10
221.2033799913194
 20
507.7753797743055
 30
0.0
 10
221.487255859375
 20
507.654456922743
 30
0.0
 10
221.6846598307291
 20
507.5779758029514
 30
0.0
 10
221.8314208984375
 20
507.4315592447916
 30
0.0
 10
222.0384711371528
 20
507.3867730034722
 30
0.0
 10
222.5452446831597
 20
507.2785970052083
 30
0.0
 10
223.1026611328125
 20
507.4060655381944
 30
0.0
 10
223.6125352647569
 20
507.4122667100694
 30
0.0
 10
224.192689344618
 20
507.4184678819444
 30
0.0
 10
224.7566514756944
 20
507.7533311631944
 30
0.0
 10
225.276171875
 20
507.9986219618055
 30
0.0
 10
225.505615234375
 20
508.1067979600694
 30
0.0
 10
225.7571072048611
 20
508.1515842013889
 30
0.0
 10
225.9772488064236
 20
508.2728515625
 30
0.0
 10
226.2383870442708
 20
508.4258138020833
 30
0.0
 10
226.4519829644097
 20
508.6518120659722
 30
0.0
 10
226.6941731770833
 20
508.8337131076389
 30
0.0
 10
226.952210828993
 20
509.0183702256944
 30
0.0
 10
227.3249701605903
 20
509.2350667317708
 30
0.0
 10
227.6246934678819
 20
509.3435872395833
 30
0.0
  0
SPLINE
  5
A8
330
A
100
AcDbEntity
  8
LAYER_1
 62
     7
100
AcDbSpline
210
0.0
220
0.0
230
1.0
 70
     8
 71
     3
 72
   134
 73
   130
 74
     0
 42
0.000000001
 43
0.00000001
 40
0.0
 40
0.0
 40
0.0
 40
0.0
 40
1.0
 40
1.0
 40
1.0
 40
2.0
 40
2.0
 40
2.0
 40
3.0
 40
3.0
 40
3.0
 40
4.0
 40
4.0
 40
4.0
 40
5.0
 40
5.0
 40
5.0
 40
6.0
 40
6.0
 40
6.0
 40
7.0
 40
7.0
 40
7.0
 40
8.0
 40
8.0
 40
8.0
 40
9.0
 40
9.0
 40
9.0
 40
10.0
 40
10.0
 40
10.0
 40
11.0
 40
11.0
 40
11.0
 40
12.0
 40
12.0
 40
12.0
 40
13.0
 40
13.0
 40
13.0
 40
14.0
 40
14.0
 40
14.0
 40
15.0
 40
15.0
 40
15.0
 40
16.0
 40
16.0
 40
16.0
 40
17.0
 40
17.0
 40
17.0
 40
18.0
 40
18.0
 40
18.0
 40
19.0
 40
19.0
 40
19.0
 40
20.0
 40
20.0
 40
20.0
 40
21.0
 40
21.0
 40
21.0
 40
22.0
 40
22.0
 40
22.0
 40
23.0
 40
23.0
 40
23.0
 40
24.0
 40
24.0
 40
24.0
 40
25.0
 40
25.0
 40
25.0
 40
26.0
 40
26.0
 40
26.0
 40
27.0
 40
27.0
 40
27.0
 40
28.0
 40
28.0
 40
28.0
 40
29.0
 40
29.0
 40
29.0
 40
30.0
 40
30.0
 40
30.0
 40
31.0
 40
31.0
 40
31.0
 40
32.0
 40
32.0
 40
32.0
 40
33.0
 40
33.0
 40
33.0
 40
34.0
 40
34.0
 40
34.0
 40
35.0
 40
35.0
 40
35.0
 40
36.0
 40
36.0
 40
36.0
 40
37.0
 40
37.0
 40
37.0
 40
38.0
 40
38.0
 40
38.0
 40
39.0
 40
39.0
 40
39.0
 40
40.0
 40
40.0
 40
40.0
 40
41.0
 40
41.0
 40
41.0
 40
42.0
 40
42.0
 40
42.0
 40
43.0
 40
43.0
 40
43.0
 40
43.0
 10
208.4599717881944
 20
527.7273057725694
 30
0.0
 10
208.3452501085069
 20
527.5519504123264
 30
0.0
 10
208.1413004557292
 20
527.5330023871527
 30
0.0
 10
207.9979844835069
 20
527.3924424913193
 30
0.0
 10
207.7368462456597
 20
527.1409505208333
 30
0.0
 10
207.9693901909722
 20
526.7616455078124
 30
0.0
 10
208.2212266710069
 20
526.6117838541667
 30
0.0
 10
208.590540907118
 20
526.3981879340278
 30
0.0
 10
209.0208333333333
 20
526.3347981770833
 30
0.0
 10
209.4001383463541
 20
526.1370496961805
 30
0.0
 10
209.8779730902777
 20
525.8821126302083
 30
0.0
 10
210.35615234375
 20
525.633376736111
 30
0.0
 10
210.8436333550347
 20
525.4039333767361
 30
0.0
 10
211.7552056206597
 20
524.9705403645833
 30
0.0
 10
212.7363688151042
 20
524.6425672743055
 30
0.0
 10
213.6927273220486
 20
524.3304416232638
 30
0.0
 10
214.3776123046875
 20
524.1103000217014
 30
0.0
 10
215.0180555555555
 20
523.7502875434027
 30
0.0
 10
215.7256781684028
 20
523.5814778645832
 30
0.0
 10
215.9103352864583
 20
523.5304904513888
 30
0.0
 10
216.1208306206597
 20
523.5270453559027
 30
0.0
 10
216.2961859809027
 20
523.4664116753472
 30
0.0
 10
216.445703125
 20
523.4154242621528
 30
0.0
 10
216.5797173394097
 20
523.323095703125
 30
0.0
 10
216.7261338975694
 20
523.2624620225694
 30
0.0
 10
216.9907172309028
 20
523.1542860243055
 30
0.0
 10
217.2615017361111
 20
523.0013237847222
 30
0.0
 10
217.5484781901041
 20
522.9661838107638
 30
0.0
 10
218.0773003472222
 20
522.9027940538194
 30
0.0
 10
218.5647813585069
 20
522.8197672526042
 30
0.0
 10
219.0970486111111
 20
522.7973741319444
 30
0.0
 10
219.31064453125
 20
522.7911729600694
 30
0.0
 10
219.5176947699653
 20
522.8197672526042
 30
0.0
 10
219.7312906901041
 20
522.8035753038193
 30
0.0
 10
220.5312418619791
 20
522.740185546875
 30
0.0
 10
221.4107747395833
 20
522.7463867187499
 30
0.0
 10
222.1593939887153
 20
522.4277153862847
 30
0.0
 10
222.5452446831597
 20
522.2654513888889
 30
0.0
 10
223.0358262803819
 20
522.2682074652778
 30
0.0
 10
223.446826171875
 20
522.185525173611
 30
0.0
 10
223.9790934244791
 20
522.0642578124999
 30
0.0
 10
224.5654486762153
 20
522.067702907986
 30
0.0
 10
225.110462782118
 20
522.0070692274305
 30
0.0
 10
225.7126654730903
 20
521.9367892795138
 30
0.0
 10
226.31796875
 20
521.8603081597222
 30
0.0
 10
226.9205159505208
 20
521.7810709635417
 30
0.0
 10
227.3442626953125
 20
521.726638454861
 30
0.0
 10
227.7711100260416
 20
521.6694498697916
 30
0.0
 10
228.2014024522569
 20
521.6308648003471
 30
0.0
 10
228.6571885850694
 20
521.59296875
 30
0.0
 10
229.0998833550347
 20
521.6184624565972
 30
0.0
 10
229.5622151692708
 20
521.5516276041666
 30
0.0
 10
230.0751898871528
 20
521.4779025607638
 30
0.0
 10
230.5881646050347
 20
521.375927734375
 30
0.0
 10
231.0852918836805
 20
521.2202094184028
 30
0.0
 10
231.4391031901041
 20
521.1085883246527
 30
0.0
 10
231.8022162543403
 20
520.9842203776042
 30
0.0
 10
232.165673828125
 20
520.9235866970486
 30
0.0
 10
232.5353325737847
 20
520.8598524305555
 30
0.0
 10
232.8636501736111
 20
520.6848415798611
 30
0.0
 10
233.2364095052083
 20
520.6242078993055
 30
0.0
 10
233.42451171875
 20
520.5987141927083
 30
0.0
 10
233.6250162760416
 20
520.6049153645832
 30
0.0
 10
233.8131184895833
 20
520.569775390625
 30
0.0
 10
234.1924235026042
 20
520.5029405381944
 30
0.0
 10
234.5713840060764
 20
520.4650444878472
 30
0.0
 10
234.9475884331597
 20
520.3947645399305
 30
0.0
 10
235.6517659505208
 20
520.2734971788194
 30
0.0
 10
236.3304497612847
 20
520.114333767361
 30
0.0
 10
237.047718641493
 20
520.050599500868
 30
0.0
 10
237.4046305338541
 20
520.0185601128471
 30
0.0
 10
237.7580973307292
 20
519.9868652343749
 30
0.0
 10
238.1150092230903
 20
519.9551703559027
 30
0.0
 10
239.0710232204861
 20
519.8721435546875
 30
0.0
 10
240.0173909505208
 20
519.6967881944444
 30
0.0
 10
240.9703043619791
 20
519.5596733940972
 30
0.0
 10
241.3878499348958
 20
519.4962836371527
 30
0.0
 10
241.8498372395833
 20
519.5024848090277
 30
0.0
 10
242.2546359592014
 20
519.3877631293402
 30
0.0
 10
242.6656358506944
 20
519.2792426215277
 30
0.0
 10
243.0893825954861
 20
519.2027615017361
 30
0.0
 10
243.5038275824652
 20
519.0945855034722
 30
0.0
 10
243.9051812065972
 20
518.9891655815971
 30
0.0
 10
244.3292724609375
 20
518.903382703993
 30
0.0
 10
244.7147786458333
 20
518.7504204644097
 30
0.0
 10
245.3648681640625
 20
518.4954833984375
 30
0.0
 10
246.0593994140625
 20
518.4537977430555
 30
0.0
 10
246.7349826388889
 20
518.3073811848958
 30
0.0
 10
247.5063395182291
 20
518.1451171875
 30
0.0
 10
248.2456570095486
 20
517.9728624131944
 30
0.0
 10
249.0166693793402
 20
517.8391927083333
 30
0.0
 10
249.8772542317708
 20
517.6796847873263
 30
0.0
 10
250.7533420138889
 20
517.6221516927083
 30
0.0
 10
251.6042805989583
 20
517.4247477213542
 30
0.0
 10
251.6042805989583
 20
517.4247477213542
 30
0.0
 10
253.4780680338542
 20
516.997900390625
 30
0.0
 10
254.9343098958333
 20
516.7333170572916
 30
0.0
 10
256.3843505859375
 20
516.4625325520833
 30
0.0
 10
260.4089111328125
 20
515.7645562065971
 30
0.0
 10
260.4089111328125
 20
515.7645562065971
 30
0.0
 10
260.4089111328125
 20
515.7645562065971
 30
0.0
 10
263.3437879774305
 20
515.3628580729167
 30
0.0
 10
264.7876274956597
 20
515.0155924479167
 30
0.0
 10
266.2311225043402
 20
514.6714274088541
 30
0.0
 10
268.1335042317708
 20
514.1040201822916
 30
0.0
 10
268.1941379123264
 20
514.0785264756944
 30
0.0
 10
268.2513264973958
 20
514.0530327690972
 30
0.0
 10
272.518421766493
 20
513.1800455729166
 30
0.0
 10
273.1461181640625
 20
513.1004638671875
 30
0.0
 10
273.7803602430556
 20
513.0270833333333
 30
0.0
 10
276.5843234592014
 20
512.7339057074653
 30
0.0
 10
277.0817952473958
 20
512.7339057074653
 30
0.0
 10
277.5820231119791
 20
512.7273600260417
 30
0.0
 10
279.5384928385416
 20
512.3194607204861
 30
0.0
 10
279.6787082248264
 20
512.3005126953125
 30
0.0
 10
279.8158230251736
 20
512.2877658420139
 30
0.0
 10
283.2192328559028
 20
511.5677408854166
 30
0.0
 10
283.5313585069444
 20
511.5036621093749
 30
0.0
 10
283.8469292534722
 20
511.4306260850694
 30
0.0
 10
288.63974609375
 20
510.1717881944444
 30
0.0
 10
288.63974609375
 20
510.1717881944444
 30
0.0
 10
288.63974609375
 20
510.1717881944444
 30
0.0
 10
290.7460774739583
 20
509.6429660373263
 30
0.0
 10
290.9596733940972
 20
509.6240180121527
 30
0.0
 10
291.1794704861111
 20
509.6047254774305
 30
0.0
 10
295.41142578125
 20
508.9928765190972
 30
0.0
 10
295.7969319661458
 20
508.8592068142361
 30
0.0
 10
296.1855387369791
 20
508.7251925998264
 30
0.0
 10
302.253040907118
 20
507.2303656684027
 30
0.0
 10
302.253040907118
 20
507.2303656684027
 30
0.0
  0
SPLINE
  5
A7
330
A
100
AcDbEntity
  8
LAYER_1
 62
     7
100
AcDbSpline
210
0.0
220
0.0
230
1.0
 70
     8
 71
     3
 72
   140
 73
   136
 74
     0
 42
0.000000001
 43
0.00000001
 40
0.0
 40
0.0
 40
0.0
 40
0.0
 40
1.0
 40
1.0
 40
1.0
 40
2.0
 40
2.0
 40
2.0
 40
3.0
 40
3.0
 40
3.0
 40
4.0
 40
4.0
 40
4.0
 40
5.0
 40
5.0
 40
5.0
 40
6.0
 40
6.0
 40
6.0
 40
7.0
 40
7.0
 40
7.0
 40
8.0
 40
8.0
 40
8.0
 40
9.0
 40
9.0
 40
9.0
 40
10.0
 40
10.0
 40
10.0
 40
11.0
 40
11.0
 40
11.0
 40
12.0
 40
12.0
 40
12.0
 40
13.0
 40
13.0
 40
13.0
 40
14.0
 40
14.0
 40
14.0
 40
15.0
 40
15.0
 40
15.0
 40
16.0
 40
16.0
 40
16.0
 40
17.0
 40
17.0
 40
17.0
 40
18.0
 40
18.0
 40
18.0
 40
19.0
 40
19.0
 40
19.0
 40
20.0
 40
20.0
 40
20.0
 40
21.0
 40
21.0
 40
21.0
 40
22.0
 40
22.0
 40
22.0
 40
23.0
 40
23.0
 40
23.0
 40
24.0
 40
24.0
 40
24.0
 40
25.0
 40
25.0
 40
25.0
 40
26.0
 40
26.0
 40
26.0
 40
27.0
 40
27.0
 40
27.0
 40
28.0
 40
28.0
 40
28.0
 40
29.0
 40
29.0
 40
29.0
 40
30.0
 40
30.0
 40
30.0
 40
31.0
 40
31.0
 40
31.0
 40
32.0
 40
32.0
 40
32.0
 40
33.0
 40
33.0
 40
33.0
 40
34.0
 40
34.0
 40
34.0
 40
35.0
 40
35.0
 40
35.0
 40
36.0
 40
36.0
 40
36.0
 40
37.0
 40
37.0
 40
37.0
 40
38.0
 40
38.0
 40
38.0
 40
39.0
 40
39.0
 40
39.0
 40
40.0
 40
40.0
 40
40.0
 40
41.0
 40
41.0
 40
41.0
 40
42.0
 40
42.0
 40
42.0
 40
43.0
 40
43.0
 40
43.0
 40
44.0
 40
44.0
 40
44.0
 40
45.0
 40
45.0
 40
45.0
 40
45.0
 10
303.2631429036458
 20
512.5585503472222
 30
0.0
 10
303.2631429036458
 20
512.5585503472222
 30
0.0
 10
298.2474283854166
 20
514.0020453559027
 30
0.0
 10
298.2474283854166
 20
514.0020453559027
 30
0.0
 10
298.2474283854166
 20
514.0020453559027
 30
0.0
 10
297.2979600694444
 20
514.0692247178819
 30
0.0
 10
296.7591471354166
 20
514.2762749565971
 30
0.0
 10
296.217578125
 20
514.4836697048611
 30
0.0
 10
295.6853108723958
 20
514.5884006076388
 30
0.0
 10
295.1850830078125
 20
514.7351616753472
 30
0.0
 10
294.6783094618056
 20
514.8819227430555
 30
0.0
 10
294.8281711154514
 20
514.7830485026042
 30
0.0
 10
293.9358913845486
 20
515.04453125
 30
0.0
 10
293.0405110677083
 20
515.302224392361
 30
0.0
 10
292.6295111762153
 20
515.3787055121527
 30
0.0
 10
292.6295111762153
 20
515.3787055121527
 30
0.0
 10
292.6295111762153
 20
515.3787055121527
 30
0.0
 10
291.4185601128472
 20
515.4234917534721
 30
0.0
 10
290.7460774739583
 20
515.7101236979166
 30
0.0
 10
290.0704942491319
 20
515.984353298611
 30
0.0
 10
289.3725179036458
 20
516.207595486111
 30
0.0
 10
288.9201768663194
 20
516.2647840711805
 30
0.0
 10
288.4674913194444
 20
516.3285183376736
 30
0.0
 10
287.5369710286458
 20
516.4115451388889
 30
0.0
 10
286.9475151909722
 20
516.7174696180555
 30
0.0
 10
286.3580593532986
 20
517.0326958550347
 30
0.0
 10
285.204296875
 20
517.3320746527777
 30
0.0
 10
284.9528049045139
 20
517.3610134548611
 30
0.0
 10
284.6944227430556
 20
517.3803059895832
 30
0.0
 10
283.6843207465278
 20
517.7051784939235
 30
0.0
 10
282.9260552300347
 20
517.9122287326388
 30
0.0
 10
282.1674452039931
 20
518.1196234809028
 30
0.0
 10
282.3045600043403
 20
518.1065321180555
 30
0.0
 10
281.9094075520833
 20
518.1451171875
 30
0.0
 10
281.5142550998264
 20
518.1799126519097
 30
0.0
 10
280.7973307291666
 20
518.1799126519097
 30
0.0
 10
280.2013292100694
 20
518.4348497178819
 30
0.0
 10
279.6053276909722
 20
518.6866861979166
 30
0.0
 10
279.8382161458333
 20
518.6484456380208
 30
0.0
 10
279.0351643880208
 20
518.8014078776041
 30
0.0
 10
278.2352132161458
 20
518.9478244357639
 30
0.0
 10
278.031263563368
 20
518.9288764105902
 30
0.0
 10
277.4831488715278
 20
519.0339518229166
 30
0.0
 10
276.93193359375
 20
519.1421278211805
 30
0.0
 10
276.4857937282986
 20
519.2633951822917
 30
0.0
 10
276.1926161024305
 20
519.308181423611
 30
0.0
 10
275.896337890625
 20
519.3557237413194
 30
0.0
 10
275.896337890625
 20
519.3557237413194
 30
0.0
 10
275.896337890625
 20
519.3557237413194
 30
0.0
 10
275.896337890625
 20
519.3557237413194
 30
0.0
 10
274.6216525607639
 20
519.8022081163194
 30
0.0
 10
273.8757893880208
 20
519.9551703559027
 30
0.0
 10
273.1302707248263
 20
520.098486328125
 30
0.0
 10
271.6867757161458
 20
520.2035617404514
 30
0.0
 10
270.7848497178819
 20
520.3692708333333
 30
0.0
 10
269.8798231336805
 20
520.5284342447916
 30
0.0
 10
267.7225043402777
 20
520.8980929904513
 30
0.0
 10
267.289111328125
 20
520.9587266710068
 30
0.0
 10
266.8557183159722
 20
521.0128146701388
 30
0.0
 10
263.4013210720486
 20
521.6374104817708
 30
0.0
 10
262.3019911024305
 20
521.8603081597222
 30
0.0
 10
261.20576171875
 20
522.0739040798611
 30
0.0
 10
257.6779839409722
 20
522.7656792534722
 30
0.0
 10
257.5188205295138
 20
522.7591335720485
 30
0.0
 10
257.3593126085069
 20
522.7525878906249
 30
0.0
 10
254.0420301649305
 20
523.5428927951389
 30
0.0
 10
254.0420301649305
 20
523.5428927951389
 30
0.0
 10
254.0420301649305
 20
523.5428927951389
 30
0.0
 10
250.9796847873264
 20
524.3173502604167
 30
0.0
 10
250.9001030815972
 20
524.3238959418402
 30
0.0
 10
250.820521375868
 20
524.3304416232638
 30
0.0
 10
247.3499321831597
 20
525.1779351128472
 30
0.0
 10
247.3499321831597
 20
525.1779351128472
 30
0.0
 10
247.3499321831597
 20
525.1779351128472
 30
0.0
 10
244.5711181640625
 20
525.7801378038193
 30
0.0
 10
244.0932834201389
 20
525.8056315104167
 30
0.0
 10
243.6185492621528
 20
525.8249240451388
 30
0.0
 10
239.166796875
 20
526.2197319878471
 30
0.0
 10
238.4402262369792
 20
526.3251519097222
 30
0.0
 10
237.7105550130208
 20
526.4302273220486
 30
0.0
 10
235.6741590711805
 20
526.6276312934027
 30
0.0
 10
234.6768039279514
 20
526.8412272135416
 30
0.0
 10
233.6791042751736
 20
527.0486219618055
 30
0.0
 10
231.2606472439236
 20
527.4403293185763
 30
0.0
 10
230.1389241536458
 20
527.5774441189236
 30
0.0
 10
229.0141004774305
 20
527.7176595052083
 30
0.0
 10
227.7073757595486
 20
527.8161892361111
 30
0.0
 10
226.9618570963542
 20
527.9822428385417
 30
0.0
 10
226.2194390190972
 20
528.144851345486
 30
0.0
 10
225.569349500868
 20
528.4631781684027
 30
0.0
 10
225.1931450737847
 20
528.6767740885416
 30
0.0
 10
224.8141845703125
 20
528.8903700086805
 30
0.0
 10
224.2626247829861
 20
529.2024956597222
 30
0.0
 10
223.9026123046875
 20
529.2279893663194
 30
0.0
 10
223.5488009982639
 20
529.2600287543403
 30
0.0
 10
223.1949896918402
 20
529.352357313368
 30
0.0
 10
222.2965087890625
 20
529.5308132595486
 30
0.0
 10
221.3980278862847
 20
529.7123697916667
 30
0.0
 10
221.557191297743
 20
529.6965223524305
 30
0.0
 10
220.6108235677083
 20
529.8398383246528
 30
0.0
 10
219.6644558376736
 20
529.9865993923611
 30
0.0
 10
218.9282389322916
 20
530.1843478732638
 30
0.0
 10
217.8447564019097
 20
530.3466118706597
 30
0.0
 10
216.7612738715277
 20
530.499574110243
 30
0.0
 10
216.3502739800347
 20
530.6177408854167
 30
0.0
 10
215.5186279296875
 20
530.611195203993
 30
0.0
 10
214.6773356119791
 20
530.6046495225694
 30
0.0
 10
214.0685872395833
 20
530.499574110243
 30
0.0
 10
213.8422444661458
 20
530.4006998697917
 30
0.0
 10
213.6128011067708
 20
530.3052707248263
 30
0.0
 10
213.1411675347222
 20
530.1268147786458
 30
0.0
 10
212.9117241753472
 20
530.0437879774305
 30
0.0
 10
212.6853814019097
 20
529.9642062717013
 30
0.0
 10
211.2866726345486
 20
529.4925726996528
 30
0.0
 10
211.2866726345486
 20
529.4925726996528
 30
0.0
 10
211.2866726345486
 20
529.4925726996528
 30
0.0
 10
211.0954698350694
 20
529.3492567274305
 30
0.0
 10
210.760951063368
 20
529.3589029947916
 30
0.0
 10
210.419886610243
 20
529.3685492621528
 30
0.0
 10
210.0502278645833
 20
529.2410807291666
 30
0.0
 10
209.9417073567708
 20
529.1101671006944
 30
0.0
 10
209.7474039713541
 20
528.8903700086805
 30
0.0
 10
209.5468994140625
 20
528.6802191840277
 30
0.0
 10
209.3267578125
 20
528.4824707031249
 30
0.0
 10
209.1737955729166
 20
528.3488009982639
 30
0.0
 10
208.9984402126736
 20
528.2433810763888
 30
0.0
 10
208.8551242404514
 20
528.0938639322916
 30
0.0
 10
208.813783094618
 20
528.0490776909721
 30
0.0
 10
208.7627956814236
 20
528.0235839843749
 30
0.0
 10
208.7214545355903
 20
527.975697157118
 30
0.0
 10
208.6801133897569
 20
527.921609157986
 30
0.0
 10
208.6415283203125
 20
527.8899142795138
 30
0.0
 10
208.5812391493055
 20
527.8513292100694
 30
0.0
 10
208.4920111762153
 20
527.787939453125
 30
0.0
 10
208.4506700303819
 20
527.7142144097222
 30
0.0
 10
208.3900363498264
 20
527.628431532118
 30
0.0
  0
SPLINE
  5
A6
330
A
100
AcDbEntity
  8
LAYER_1
 62
     7
100
AcDbSpline
210
0.0
220
0.0
230
1.0
 70
     8
 71
     3
 72
    35
 73
    31
 74
     0
 42
0.000000001
 43
0.00000001
 40
0.0
 40
0.0
 40
0.0
 40
0.0
 40
1.0
 40
1.0
 40
1.0
 40
2.0
 40
2.0
 40
2.0
 40
3.0
 40
3.0
 40
3.0
 40
4.0
 40
4.0
 40
4.0
 40
5.0
 40
5.0
 40
5.0
 40
6.0
 40
6.0
 40
6.0
 40
7.0
 40
7.0
 40
7.0
 40
8.0
 40
8.0
 40
8.0
 40
9.0
 40
9.0
 40
9.0
 40
10.0
 40
10.0
 40
10.0
 40
10.0
 10
235.7316921657986
 20
510.4012315538194
 30
0.0
 10
235.7316921657986
 20
510.4012315538194
 30
0.0
 10
236.0534640842014
 20
510.9173068576388
 30
0.0
 10
236.1171983506944
 20
511.4526746961805
 30
0.0
 10
236.184033203125
 20
511.9914876302083
 30
0.0
 10
236.2126274956597
 20
512.3194607204861
 30
0.0
 10
236.3721354166667
 20
512.5461480034721
 30
0.0
 10
236.531298828125
 20
512.7783474392361
 30
0.0
 10
236.7989827473958
 20
513.2279324001736
 30
0.0
 10
236.8692626953125
 20
513.4349826388889
 30
0.0
 10
236.942298719618
 20
513.6327311197916
 30
0.0
 10
237.0666666666666
 20
513.8683756510417
 30
0.0
 10
237.0987060546875
 20
514.0530327690972
 30
0.0
 10
237.1369466145833
 20
514.244580078125
 30
0.0
 10
237.4363254123264
 20
515.0569335937499
 30
0.0
 10
237.4873128255208
 20
515.2577826605902
 30
0.0
 10
237.5414008246528
 20
515.4682779947916
 30
0.0
 10
237.6754150390625
 20
515.7866048177083
 30
0.0
 10
237.796337890625
 20
515.984353298611
 30
0.0
 10
237.9176052517361
 20
516.1821017795138
 30
0.0
 10
237.9238064236111
 20
516.2520372178819
 30
0.0
 10
237.9493001302083
 20
516.5100748697917
 30
0.0
 10
237.971693250868
 20
516.7712131076388
 30
0.0
 10
238.089515516493
 20
517.1443169487846
 30
0.0
 10
238.1787434895833
 20
517.3672146267361
 30
0.0
 10
238.2714165581597
 20
517.5842556423611
 30
0.0
 10
238.3351508246527
 20
517.928076171875
 30
0.0
 10
238.478466796875
 20
518.1733669704861
 30
0.0
 10
238.6217827690972
 20
518.4255479600694
 30
0.0
 10
239.1984917534722
 20
519.8242567274305
 30
0.0
 10
239.1984917534722
 20
519.8242567274305
 30
0.0
  0
SPLINE
  5
A5
330
A
100
AcDbEntity
  8
LAYER_1
 62
     7
100
AcDbSpline
210
0.0
220
0.0
230
1.0
 70
     8
 71
     3
 72
   161
 73
   157
 74
     0
 42
0.000000001
 43
0.00000001
 40
0.0
 40
0.0
 40
0.0
 40
0.0
 40
1.0
 40
1.0
 40
1.0
 40
2.0
 40
2.0
 40
2.0
 40
3.0
 40
3.0
 40
3.0
 40
4.0
 40
4.0
 40
4.0
 40
5.0
 40
5.0
 40
5.0
 40
6.0
 40
6.0
 40
6.0
 40
7.0
 40
7.0
 40
7.0
 40
8.0
 40
8.0
 40
8.0
 40
9.0
 40
9.0
 40
9.0
 40
10.0
 40
10.0
 40
10.0
 40
11.0
 40
11.0
 40
11.0
 40
12.0
 40
12.0
 40
12.0
 40
13.0
 40
13.0
 40
13.0
 40
14.0
 40
14.0
 40
14.0
 40
15.0
 40
15.0
 40
15.0
 40
16.0
 40
16.0
 40
16.0
 40
17.0
 40
17.0
 40
17.0
 40
18.0
 40
18.0
 40
18.0
 40
19.0
 40
19.0
 40
19.0
 40
20.0
 40
20.0
 40
20.0
 40
21.0
 40
21.0
 40
21.0
 40
22.0
 40
22.0
 40
22.0
 40
23.0
 40
23.0
 40
23.0
 40
24.0
 40
24.0
 40
24.0
 40
25.0
 40
25.0
 40
25.0
 40
26.0
 40
26.0
 40
26.0
 40
27.0
 40
27.0
 40
27.0
 40
28.0
 40
28.0
 40
28.0
 40
29.0
 40
29.0
 40
29.0
 40
30.0
 40
30.0
 40
30.0
 40
31.0
 40
31.0
 40
31.0
 40
32.0
 40
32.0
 40
32.0
 40
33.0
 40
33.0
 40
33.0
 40
34.0
 40
34.0
 40
34.0
 40
35.0
 40
35.0
 40
35.0
 40
36.0
 40
36.0
 40
36.0
 40
37.0
 40
37.0
 40
37.0
 40
38.0
 40
38.0
 40
38.0
 40
39.0
 40
39.0
 40
39.0
 40
40.0
 40
40.0
 40
40.0
 40
41.0
 40
41.0
 40
41.0
 40
42.0
 40
42.0
 40
42.0
 40
43.0
 40
43.0
 40
43.0
 40
44.0
 40
44.0
 40
44.0
 40
45.0
 40
45.0
 40
45.0
 40
46.0
 40
46.0
 40
46.0
 40
47.0
 40
47.0
 40
47.0
 40
48.0
 40
48.0
 40
48.0
 40
49.0
 40
49.0
 40
49.0
 40
50.0
 40
50.0
 40
50.0
 40
51.0
 40
51.0
 40
51.0
 40
52.0
 40
52.0
 40
52.0
 40
52.0
 10
234.5844753689236
 20
510.4777126736111
 30
0.0
 10
234.7053982204861
 20
510.4715115017361
 30
0.0
 10
234.8232204861111
 20
510.5032063802083
 30
0.0
 10
234.9444878472222
 20
510.4970052083333
 30
0.0
 10
235.0526638454861
 20
510.4904595269097
 30
0.0
 10
235.1577392578125
 20
510.4715115017361
 30
0.0
 10
235.2631591796875
 20
510.4649658203124
 30
0.0
 10
235.3616889105903
 20
510.4584201388889
 30
0.0
 10
235.4574625651042
 20
510.4267252604166
 30
0.0
 10
235.5497911241319
 20
510.4012315538194
 30
0.0
 10
235.6583116319444
 20
510.3819390190972
 30
0.0
 10
235.7664876302083
 20
510.3564453124999
 30
0.0
 10
235.8750081380208
 20
510.3343967013889
 30
0.0
 10
236.0948052300347
 20
510.2865098741319
 30
0.0
 10
236.3084011501736
 20
510.1941813151041
 30
0.0
 10
236.52509765625
 20
510.1400933159722
 30
0.0
 10
236.942298719618
 20
510.0284722222221
 30
0.0
 10
237.3884385850694
 20
509.9361436631944
 30
0.0
 10
237.8187310112847
 20
509.9230523003472
 30
0.0
 10
238.0960611979166
 20
509.9168511284722
 30
0.0
 10
238.8863661024305
 20
509.9678385416666
 30
0.0
 10
239.1826443142361
 20
509.9616373697916
 30
0.0
 10
239.4758219401041
 20
509.9485460069444
 30
0.0
 10
239.631884765625
 20
509.8693088107639
 30
0.0
 10
240.0938720703125
 20
509.7959282769096
 30
0.0
 10
240.5593044704861
 20
509.7163465711805
 30
0.0
 10
241.2507351345486
 20
509.655712890625
 30
0.0
 10
241.407142469618
 20
509.6364203559027
 30
0.0
 10
241.5597601996527
 20
509.6240180121527
 30
0.0
 10
242.3628119574653
 20
509.5919786241319
 30
0.0
 10
242.50302734375
 20
509.5950792100694
 30
0.0
 10
242.6432427300347
 20
509.5985243055555
 30
0.0
 10
244.166663953993
 20
509.8693088107639
 30
0.0
 10
244.8708414713541
 20
509.9230523003472
 30
0.0
 10
245.5750189887152
 20
509.9871310763888
 30
0.0
 10
246.2571478949652
 20
509.99677734375
 30
0.0
 10
246.3811713324652
 20
510.0029785156249
 30
0.0
 10
246.5024386935764
 20
510.0091796875
 30
0.0
 10
248.073402235243
 20
510.0091796875
 30
0.0
 10
248.4399603949653
 20
509.8403700086805
 30
0.0
 10
248.8127197265625
 20
509.6684597439236
 30
0.0
 10
248.6852511935764
 20
509.5888780381944
 30
0.0
 10
249.0197699652778
 20
509.4548638237846
 30
0.0
 10
249.3577338324652
 20
509.318093532986
 30
0.0
 10
249.3129475911458
 20
509.3945746527777
 30
0.0
 10
249.6285183376736
 20
509.2285210503472
 30
0.0
 10
249.9440890842014
 20
509.0566107855902
 30
0.0
 10
250.479456922743
 20
508.7634331597222
 30
0.0
 10
250.5814317491319
 20
508.7186469184027
 30
0.0
 10
250.6768608940972
 20
508.6807508680555
 30
0.0
 10
250.5748860677083
 20
508.6518120659722
 30
0.0
 10
251.0337727864583
 20
508.5401909722221
 30
0.0
 10
251.4957600911458
 20
508.4320149739583
 30
0.0
 10
251.5598388671875
 20
508.3586344401041
 30
0.0
 10
251.7286485460069
 20
508.2728515625
 30
0.0
 10
251.8943576388889
 20
508.1832790798611
 30
0.0
 10
252.9106608072916
 20
507.6734049479166
 30
0.0
 10
253.751953125
 20
507.4983940972222
 30
0.0
 10
254.5932454427083
 20
507.3230387369791
 30
0.0
 10
255.421790907118
 20
507.2114176432291
 30
0.0
 10
255.9891981336805
 20
507.125634765625
 30
0.0
 10
256.5593614366319
 20
507.0360622829861
 30
0.0
 10
259.8225558810764
 20
506.6440104166666
 30
0.0
 10
259.8225558810764
 20
506.6440104166666
 30
0.0
 10
259.8225558810764
 20
506.6440104166666
 30
0.0
 10
261.4954942491319
 20
506.4307590060764
 30
0.0
 10
261.782470703125
 20
506.2967447916666
 30
0.0
 10
262.0660020616319
 20
506.1692762586805
 30
0.0
 10
262.2382568359375
 20
506.1151882595486
 30
0.0
 10
262.5121419270833
 20
506.0548990885416
 30
0.0
 10
262.7894721137152
 20
505.9973659939236
 30
0.0
 10
262.81806640625
 20
505.9591254340277
 30
0.0
 10
263.1622314453125
 20
505.9301866319444
 30
0.0
 10
263.5129421657986
 20
505.9019368489583
 30
0.0
 10
264.7269938151042
 20
505.6532009548611
 30
0.0
 10
265.6413221571181
 20
505.3090359157986
 30
0.0
 10
266.552894422743
 20
504.9648708767361
 30
0.0
 10
267.4930609809027
 20
504.7416286892361
 30
0.0
 10
267.7194037543402
 20
504.7226806640625
 30
0.0
 10
267.9423014322916
 20
504.7002875434027
 30
0.0
 10
272.6999782986111
 20
504.0023111979166
 30
0.0
 10
272.6999782986111
 20
504.0023111979166
 30
0.0
 10
272.6999782986111
 20
504.0023111979166
 30
0.0
 10
275.3482231987847
 20
503.3332736545138
 30
0.0
 10
275.9790201822917
 20
503.1486165364583
 30
0.0
 10
276.6098171657986
 20
502.9701605902777
 30
0.0
 10
277.620263671875
 20
502.5877549913194
 30
0.0
 10
278.0088704427083
 20
502.4092990451388
 30
0.0
 10
278.3943766276041
 20
502.2370442708333
 30
0.0
 10
279.1753797743056
 20
501.8036512586805
 30
0.0
 10
279.9529378255208
 20
501.7016764322916
 30
0.0
 10
280.72705078125
 20
501.5966010199652
 30
0.0
 10
282.5753445095486
 20
501.3096245659722
 30
0.0
 10
283.0724717881944
 20
501.2489908854166
 30
0.0
 10
283.5761447482639
 20
501.1856011284722
 30
0.0
 10
284.3216634114583
 20
500.94306640625
 30
0.0
 10
284.7932969835069
 20
500.7808024088541
 30
0.0
 10
285.2714762369791
 20
500.6150933159722
 30
0.0
 10
285.9308675130208
 20
500.3822048611111
 30
0.0
 10
285.9308675130208
 20
500.3822048611111
 30
0.0
 10
285.9308675130208
 20
500.3822048611111
 30
0.0
 10
286.2877794053819
 20
500.2995225694444
 30
0.0
 10
286.3229193793402
 20
500.1210666232639
 30
0.0
 10
286.3642605251736
 20
499.9426106770833
 30
0.0
 10
286.3005262586805
 20
499.8406358506944
 30
0.0
 10
286.4758816189236
 20
499.671826171875
 30
0.0
 10
286.6543375651041
 20
499.4995713975694
 30
0.0
 10
286.6670844184027
 20
499.4454833984374
 30
0.0
 10
286.80419921875
 20
499.2032931857639
 30
0.0
 10
286.9409695095486
 20
498.9676486545138
 30
0.0
 10
287.0112494574652
 20
498.993142361111
 30
0.0
 10
286.9285671657986
 20
498.6555230034722
 30
0.0
 10
286.8455403645833
 20
498.311013454861
 30
0.0
 10
286.7339192708333
 20
498.2503797743055
 30
0.0
 10
286.6288438585069
 20
497.9830403645833
 30
0.0
 10
286.5141221788194
 20
497.7088107638888
 30
0.0
 10
286.463134765625
 20
497.7501519097221
 30
0.0
 10
286.4186930338541
 20
497.4090874565971
 30
0.0
 10
286.3708062065972
 20
497.0618218315972
 30
0.0
 10
286.2943250868055
 20
497.036328125
 30
0.0
 10
286.3070719401042
 20
496.7879367404514
 30
0.0
 10
286.3229193793402
 20
496.5423014322916
 30
0.0
 10
286.3070719401042
 20
496.5615939670138
 30
0.0
 10
286.463134765625
 20
496.3545437282986
 30
0.0
 10
286.6226426866319
 20
496.1505940755208
 30
0.0
 10
286.6991238064236
 20
496.0930609809027
 30
0.0
 10
286.7976535373264
 20
495.99453125
 30
0.0
 10
286.8965277777777
 20
495.8956570095486
 30
0.0
 10
287.1290717230902
 20
495.4047309027777
 30
0.0
 10
287.1866048177083
 20
495.2455674913194
 30
0.0
 10
287.2406928168402
 20
495.0798583984375
 30
0.0
 10
287.8621880425347
 20
494.0122233072916
 30
0.0
 10
287.8621880425347
 20
494.0122233072916
 30
0.0
 10
287.8621880425347
 20
494.0122233072916
 30
0.0
 10
288.3431233723958
 20
492.5370334201389
 30
0.0
 10
288.3782633463541
 20
492.3616780598958
 30
0.0
 10
288.41650390625
 20
492.1863226996527
 30
0.0
 10
288.598060438368
 20
491.4662977430555
 30
0.0
 10
287.8587429470486
 20
490.6470540364583
 30
0.0
 10
287.1228705512153
 20
489.8188530815972
 30
0.0
 10
286.9154758029513
 20
489.6431532118055
 30
0.0
 10
286.8389946831597
 20
489.1780653211805
 30
0.0
 10
286.7659586588541
 20
488.716078016493
 30
0.0
 10
286.7149712456597
 20
486.3992513020833
 30
0.0
 10
286.7149712456597
 20
486.3992513020833
 30
0.0
 10
286.7149712456597
 20
486.3992513020833
 30
0.0
 10
286.9571614583333
 20
486.1508599175347
 30
0.0
 10
286.8135009765625
 20
485.9183159722222
 30
0.0
 10
286.6701850043402
 20
485.6854275173611
 30
0.0
 10
286.6257432725694
 20
485.7619086371527
 30
0.0
 10
286.5778564453125
 20
485.6440863715277
 30
0.0
 10
286.5334147135416
 20
485.5262641059027
 30
0.0
 10
286.463134765625
 20
485.5324652777778
 30
0.0
 10
286.463134765625
 20
485.5324652777778
 30
0.0
 10
286.463134765625
 20
485.5324652777778
 30
0.0
 10
286.3198187934028
 20
485.5069715711805
 30
0.0
 10
286.3198187934028
 20
485.5069715711805
 30
0.0
  0
SPLINE
  5
A4
330
A
100
AcDbEntity
  8
LAYER_1
 62
     7
100
AcDbSpline
210
0.0
220
0.0
230
1.0
 70
     8
 71
     3
 72
    53
 73
    49
 74
     0
 42
0.000000001
 43
0.00000001
 40
0.0
 40
0.0
 40
0.0
 40
0.0
 40
1.0
 40
1.0
 40
1.0
 40
2.0
 40
2.0
 40
2.0
 40
3.0
 40
3.0
 40
3.0
 40
4.0
 40
4.0
 40
4.0
 40
5.0
 40
5.0
 40
5.0
 40
6.0
 40
6.0
 40
6.0
 40
7.0
 40
7.0
 40
7.0
 40
8.0
 40
8.0
 40
8.0
 40
9.0
 40
9.0
 40
9.0
 40
10.0
 40
10.0
 40
10.0
 40
11.0
 40
11.0
 40
11.0
 40
12.0
 40
12.0
 40
12.0
 40
13.0
 40
13.0
 40
13.0
 40
14.0
 40
14.0
 40
14.0
 40
15.0
 40
15.0
 40
15.0
 40
16.0
 40
16.0
 40
16.0
 40
16.0
 10
241.3082682291667
 20
526.0509223090278
 30
0.0
 10
241.3082682291667
 20
526.0509223090278
 30
0.0
 10
242.2480902777777
 20
528.8042426215277
 30
0.0
 10
242.4044976128472
 20
529.3237630208333
 30
0.0
 10
242.5574598524305
 20
529.8463840060764
 30
0.0
 10
243.8541937934027
 20
534.3904649522569
 30
0.0
 10
244.1284233940972
 20
534.8493516710068
 30
0.0
 10
244.3992078993055
 20
535.3082383897569
 30
0.0
 10
244.3926622178819
 20
535.2734429253471
 30
0.0
 10
244.520130750868
 20
535.6906439887152
 30
0.0
 10
244.6444986979166
 20
536.1081895616319
 30
0.0
 10
244.6286512586805
 20
536.0954427083333
 30
0.0
 10
244.8835883246527
 20
536.5508843315972
 30
0.0
 10
245.138525390625
 20
537.0097710503471
 30
0.0
 10
245.2594482421875
 20
537.5899251302083
 30
0.0
 10
245.3424750434027
 20
537.9213433159722
 30
0.0
 10
245.425501844618
 20
538.252761501736
 30
0.0
 10
245.4571967230902
 20
538.3898763020833
 30
0.0
 10
245.6101589626736
 20
538.717849392361
 30
0.0
 10
245.7631212022569
 20
539.04306640625
 30
0.0
 10
245.709033203125
 20
539.224622938368
 30
0.0
 10
245.8110080295139
 20
539.5401936848958
 30
0.0
 10
245.9064371744792
 20
539.8526638454861
 30
0.0
 10
246.0593994140625
 20
540.1775363498264
 30
0.0
 10
246.2282090928819
 20
540.4452202690971
 30
0.0
 10
246.39736328125
 20
540.7194498697917
 30
0.0
 10
246.5758192274305
 20
541.5414496527777
 30
0.0
 10
246.6523003472222
 20
541.8218804253472
 30
0.0
 10
246.7318820529514
 20
542.0961100260416
 30
0.0
 10
247.1077419704861
 20
543.3129177517361
 30
0.0
 10
247.1397813585069
 20
543.4913736979166
 30
0.0
 10
247.1714762369791
 20
543.6670735677083
 30
0.0
 10
247.7643771701389
 20
545.307972547743
 30
0.0
 10
247.8122639973958
 20
545.4288953993055
 30
0.0
 10
247.8567057291666
 20
545.5501627604166
 30
0.0
 10
248.6246175130208
 20
547.9465711805555
 30
0.0
 10
248.6694037543403
 20
548.4436984592013
 30
0.0
 10
248.7107449001736
 20
548.9346245659722
 30
0.0
 10
249.2016710069444
 20
551.4264621310764
 30
0.0
 10
249.5520372178819
 20
552.3983235677083
 30
0.0
 10
249.908949110243
 20
553.3636393229166
 30
0.0
 10
250.9893310546875
 20
556.1235053168402
 30
0.0
 10
250.9893310546875
 20
556.1235053168402
 30
0.0
 10
250.9893310546875
 20
556.1235053168402
 30
0.0
 10
251.569140625
 20
558.0007378472221
 30
0.0
 10
251.569140625
 20
558.0007378472221
 30
0.0
 10
251.569140625
 20
558.0007378472221
 30
0.0
 10
252.021826171875
 20
559.2657769097221
 30
0.0
 10
252.1523952907986
 20
559.3229654947916
 30
0.0
  0
SPLINE
  5
A3
330
A
100
AcDbEntity
  8
LAYER_1
 62
     7
100
AcDbSpline
210
0.0
220
0.0
230
1.0
 70
     8
 71
     3
 72
    80
 73
    76
 74
     0
 42
0.000000001
 43
0.00000001
 40
0.0
 40
0.0
 40
0.0
 40
0.0
 40
1.0
 40
1.0
 40
1.0
 40
2.0
 40
2.0
 40
2.0
 40
3.0
 40
3.0
 40
3.0
 40
4.0
 40
4.0
 40
4.0
 40
5.0
 40
5.0
 40
5.0
 40
6.0
 40
6.0
 40
6.0
 40
7.0
 40
7.0
 40
7.0
 40
8.0
 40
8.0
 40
8.0
 40
9.0
 40
9.0
 40
9.0
 40
10.0
 40
10.0
 40
10.0
 40
11.0
 40
11.0
 40
11.0
 40
12.0
 40
12.0
 40
12.0
 40
13.0
 40
13.0
 40
13.0
 40
14.0
 40
14.0
 40
14.0
 40
15.0
 40
15.0
 40
15.0
 40
16.0
 40
16.0
 40
16.0
 40
17.0
 40
17.0
 40
17.0
 40
18.0
 40
18.0
 40
18.0
 40
19.0
 40
19.0
 40
19.0
 40
20.0
 40
20.0
 40
20.0
 40
21.0
 40
21.0
 40
21.0
 40
22.0
 40
22.0
 40
22.0
 40
23.0
 40
23.0
 40
23.0
 40
24.0
 40
24.0
 40
24.0
 40
25.0
 40
25.0
 40
25.0
 40
25.0
 10
312.3995361328125
 20
516.0801269531249
 30
0.0
 10
312.3995361328125
 20
516.0801269531249
 30
0.0
 10
309.477406141493
 20
516.3412651909722
 30
0.0
 10
309.0853542751736
 20
516.3285183376736
 30
0.0
 10
308.6871012369791
 20
516.32197265625
 30
0.0
 10
308.1293402777778
 20
516.2168972439235
 30
0.0
 10
307.8296169704861
 20
516.3285183376736
 30
0.0
 10
307.5333387586805
 20
516.4463406032986
 30
0.0
 10
306.1759711371528
 20
516.7650119357638
 30
0.0
 10
306.0006157769097
 20
516.7588107638888
 30
0.0
 10
305.8221598307292
 20
516.7522650824652
 30
0.0
 10
304.7290310329861
 20
516.7843044704861
 30
0.0
 10
304.5443739149305
 20
516.7043782552083
 30
0.0
 10
304.3628173828125
 20
516.6375434027777
 30
0.0
 10
303.9897135416666
 20
516.672683376736
 30
0.0
 10
303.9294243706597
 20
516.2168972439235
 30
0.0
 10
303.8687906901042
 20
515.7611111111111
 30
0.0
 10
303.6042073567708
 20
514.0275390625
 30
0.0
 10
303.5756130642361
 20
513.4987169053819
 30
0.0
 10
303.5532199435764
 20
512.9760959201388
 30
0.0
 10
303.3396240234375
 20
512.7914388020832
 30
0.0
 10
303.2789903428819
 20
512.1410047743055
 30
0.0
 10
303.22490234375
 20
511.4847140842014
 30
0.0
 10
303.0082058376736
 20
510.3185492621527
 30
0.0
 10
303.0020046657986
 20
510.2289767795139
 30
0.0
 10
302.9923583984375
 20
510.1462944878472
 30
0.0
 10
302.1352186414931
 20
507.1445827907986
 30
0.0
 10
302.1352186414931
 20
507.1445827907986
 30
0.0
 10
302.1352186414931
 20
507.1445827907986
 30
0.0
 10
301.8323947482639
 20
504.9490234374999
 30
0.0
 10
301.7369656032986
 20
504.6461995442708
 30
0.0
 10
301.6477376302083
 20
504.3468207465277
 30
0.0
 10
301.5902045355903
 20
504.2255533854166
 30
0.0
 10
301.558509657118
 20
503.8527940538194
 30
0.0
 10
301.5233696831597
 20
503.4800347222222
 30
0.0
 10
301.3959011501736
 20
502.5047281901041
 30
0.0
 10
301.2684326171875
 20
501.8353461371527
 30
0.0
 10
301.1440646701388
 20
501.1663085937499
 30
0.0
 10
301.1344184027777
 20
501.3192708333333
 30
0.0
 10
301.0196967230902
 20
500.7553087022569
 30
0.0
 10
300.9018744574652
 20
500.194447157118
 30
0.0
 10
300.8794813368056
 20
499.9329644097222
 30
0.0
 10
300.8605333116319
 20
499.7193684895833
 30
0.0
 10
300.8412407769097
 20
499.4995713975694
 30
0.0
 10
300.3313666449653
 20
495.7395941840277
 30
0.0
 10
300.3313666449653
 20
495.7395941840277
 30
0.0
 10
300.3313666449653
 20
495.7395941840277
 30
0.0
 10
300.0926215277777
 20
494.9906304253471
 30
0.0
 10
300.0478352864583
 20
494.27060546875
 30
0.0
 10
300.006494140625
 20
493.5502360026041
 30
0.0
 10
300.1212158203125
 20
493.5822753906249
 30
0.0
 10
299.9555067274305
 20
492.9414876302083
 30
0.0
 10
299.7835964626736
 20
492.2944986979166
 30
0.0
 10
299.6306342230902
 20
491.8008165147569
 30
0.0
 10
299.7484564887152
 20
491.3960177951388
 30
0.0
 10
299.8693793402778
 20
490.9881184895833
 30
0.0
 10
300.0416341145833
 20
490.7524739583333
 30
0.0
 10
299.9875461154514
 20
490.3445746527777
 30
0.0
 10
299.9269124348958
 20
489.9301296657986
 30
0.0
 10
299.7260633680555
 20
489.9046359592014
 30
0.0
 10
299.7546576605902
 20
489.4839898003472
 30
0.0
 10
299.7835964626736
 20
489.063343641493
 30
0.0
 10
299.7835964626736
 20
489.063343641493
 30
0.0
 10
299.7450113932292
 20
488.6299506293402
 30
0.0
 10
299.7071153428819
 20
488.1903564453124
 30
0.0
 10
299.6974690755208
 20
488.3243706597222
 30
0.0
 10
299.4807725694444
 20
487.8813313802083
 30
0.0
 10
299.2671766493056
 20
487.4382921006944
 30
0.0
 10
299.264076063368
 20
487.6360405815972
 30
0.0
 10
299.1717475043403
 20
487.1196207682291
 30
0.0
 10
299.0790744357639
 20
486.5969997829861
 30
0.0
 10
299.0697726779513
 20
486.4660861545138
 30
0.0
 10
299.0280870225694
 20
486.2528347439236
 30
0.0
 10
298.9739990234375
 20
485.9658582899305
 30
0.0
 10
298.9133653428819
 20
485.7240125868055
 30
0.0
 10
298.8913167317708
 20
485.4304904513888
 30
0.0
  0
LINE
  5
A2
330
A
100
AcDbEntity
  8
LAYER_1
 62
     7
100
AcDbLine
 10
297.766149
 20
485.373302
 30
0.0
 11
300.42714
 21
485.376402
 31
0.0
  0
SPLINE
  5
A1
330
A
100
AcDbEntity
  8
LAYER_1
 62
     7
100
AcDbSpline
210
0.0
220
0.0
230
1.0
 70
     8
 71
     3
 72
    29
 73
    25
 74
     0
 42
0.000000001
 43
0.00000001
 40
0.0
 40
0.0
 40
0.0
 40
0.0
 40
1.0
 40
1.0
 40
1.0
 40
2.0
 40
2.0
 40
2.0
 40
3.0
 40
3.0
 40
3.0
 40
4.0
 40
4.0
 40
4.0
 40
5.0
 40
5.0
 40
5.0
 40
6.0
 40
6.0
 40
6.0
 40
7.0
 40
7.0
 40
7.0
 40
8.0
 40
8.0
 40
8.0
 40
8.0
 10
305.930335828993
 20
529.2155870225694
 30
0.0
 10
305.930335828993
 20
529.2155870225694
 30
0.0
 10
306.0674506293403
 20
530.0313856336805
 30
0.0
 10
306.1056911892361
 20
530.6749294704861
 30
0.0
 10
306.1504774305556
 20
531.3219184027778
 30
0.0
 10
306.1122368706597
 20
531.2740315755208
 30
0.0
 10
306.265199110243
 20
531.8920817057291
 30
0.0
 10
306.4116156684028
 20
532.510476345486
 30
0.0
 10
306.4019694010416
 20
533.0775390624999
 30
0.0
 10
306.4911973741319
 20
533.4151584201388
 30
0.0
 10
306.5869710286458
 20
533.7500217013888
 30
0.0
 10
306.8674018012152
 20
534.4383517795138
 30
0.0
 10
306.8928955078125
 20
534.7315294053819
 30
0.0
 10
306.9183892144097
 20
535.0278076171875
 30
0.0
 10
306.8674018012152
 20
535.6778971354166
 30
0.0
 10
306.8928955078125
 20
535.9741753472222
 30
0.0
 10
306.9183892144097
 20
536.2704535590277
 30
0.0
 10
306.89599609375
 20
536.5574300130207
 30
0.0
 10
307.0107177734375
 20
536.9208875868055
 30
0.0
 10
307.11923828125
 20
537.2902018229166
 30
0.0
 10
307.077552625868
 20
537.8641547309028
 30
0.0
 10
307.1988199869791
 20
538.1824815538193
 30
0.0
 10
307.3197428385416
 20
538.5014973958333
 30
0.0
 10
307.8647569444444
 20
541.7901855468749
 30
0.0
 10
307.8647569444444
 20
541.7901855468749
 30
0.0
  0
SPLINE
  5
A0
330
A
100
AcDbEntity
  8
LAYER_1
 62
     7
100
AcDbSpline
210
0.0
220
0.0
230
1.0
 70
     8
 71
     3
 72
   236
 73
   232
 74
     0
 42
0.000000001
 43
0.00000001
 40
0.0
 40
0.0
 40
0.0
 40
0.0
 40
1.0
 40
1.0
 40
1.0
 40
2.0
 40
2.0
 40
2.0
 40
3.0
 40
3.0
 40
3.0
 40
4.0
 40
4.0
 40
4.0
 40
5.0
 40
5.0
 40
5.0
 40
6.0
 40
6.0
 40
6.0
 40
7.0
 40
7.0
 40
7.0
 40
8.0
 40
8.0
 40
8.0
 40
9.0
 40
9.0
 40
9.0
 40
10.0
 40
10.0
 40
10.0
 40
11.0
 40
11.0
 40
11.0
 40
12.0
 40
12.0
 40
12.0
 40
13.0
 40
13.0
 40
13.0
 40
14.0
 40
14.0
 40
14.0
 40
15.0
 40
15.0
 40
15.0
 40
16.0
 40
16.0
 40
16.0
 40
17.0
 40
17.0
 40
17.0
 40
18.0
 40
18.0
 40
18.0
 40
19.0
 40
19.0
 40
19.0
 40
20.0
 40
20.0
 40
20.0
 40
21.0
 40
21.0
 40
21.0
 40
22.0
 40
22.0
 40
22.0
 40
23.0
 40
23.0
 40
23.0
 40
24.0
 40
24.0
 40
24.0
 40
25.0
 40
25.0
 40
25.0
 40
26.0
 40
26.0
 40
26.0
 40
27.0
 40
27.0
 40
27.0
 40
28.0
 40
28.0
 40
28.0
 40
29.0
 40
29.0
 40
29.0
 40
30.0
 40
30.0
 40
30.0
 40
31.0
 40
31.0
 40
31.0
 40
32.0
 40
32.0
 40
32.0
 40
33.0
 40
33.0
 40
33.0
 40
34.0
 40
34.0
 40
34.0
 40
35.0
 40
35.0
 40
35.0
 40
36.0
 40
36.0
 40
36.0
 40
37.0
 40
37.0
 40
37.0
 40
38.0
 40
38.0
 40
38.0
 40
39.0
 40
39.0
 40
39.0
 40
40.0
 40
40.0
 40
40.0
 40
41.0
 40
41.0
 40
41.0
 40
42.0
 40
42.0
 40
42.0
 40
43.0
 40
43.0
 40
43.0
 40
44.0
 40
44.0
 40
44.0
 40
45.0
 40
45.0
 40
45.0
 40
46.0
 40
46.0
 40
46.0
 40
47.0
 40
47.0
 40
47.0
 40
48.0
 40
48.0
 40
48.0
 40
49.0
 40
49.0
 40
49.0
 40
50.0
 40
50.0
 40
50.0
 40
51.0
 40
51.0
 40
51.0
 40
52.0
 40
52.0
 40
52.0
 40
53.0
 40
53.0
 40
53.0
 40
54.0
 40
54.0
 40
54.0
 40
55.0
 40
55.0
 40
55.0
 40
56.0
 40
56.0
 40
56.0
 40
57.0
 40
57.0
 40
57.0
 40
58.0
 40
58.0
 40
58.0
 40
59.0
 40
59.0
 40
59.0
 40
60.0
 40
60.0
 40
60.0
 40
61.0
 40
61.0
 40
61.0
 40
62.0
 40
62.0
 40
62.0
 40
63.0
 40
63.0
 40
63.0
 40
64.0
 40
64.0
 40
64.0
 40
65.0
 40
65.0
 40
65.0
 40
66.0
 40
66.0
 40
66.0
 40
67.0
 40
67.0
 40
67.0
 40
68.0
 40
68.0
 40
68.0
 40
69.0
 40
69.0
 40
69.0
 40
70.0
 40
70.0
 40
70.0
 40
71.0
 40
71.0
 40
71.0
 40
72.0
 40
72.0
 40
72.0
 40
73.0
 40
73.0
 40
73.0
 40
74.0
 40
74.0
 40
74.0
 40
75.0
 40
75.0
 40
75.0
 40
76.0
 40
76.0
 40
76.0
 40
77.0
 40
77.0
 40
77.0
 40
77.0
 10
309.2572645399305
 20
548.0581922743055
 30
0.0
 10
309.2572645399305
 20
548.0581922743055
 30
0.0
 10
309.6620632595486
 20
547.6599392361111
 30
0.0
 10
309.3816324869791
 20
546.455189344618
 30
0.0
 10
309.1012017144097
 20
545.253884548611
 30
0.0
 10
309.072607421875
 20
545.4481879340277
 30
0.0
 10
308.9833794487847
 20
544.9796549479166
 30
0.0
 10
308.8941514756944
 20
544.5207682291666
 30
0.0
 10
309.072607421875
 20
544.912820095486
 30
0.0
 10
308.7601372612847
 20
544.2468831380207
 30
0.0
 10
308.448011610243
 20
543.5809461805555
 30
0.0
 10
308.4032253689236
 20
543.9599066840277
 30
0.0
 10
308.3491373697917
 20
543.3384114583333
 30
0.0
 10
308.2950493706597
 20
542.7141601562499
 30
0.0
 10
308.3236436631944
 20
542.5036648220486
 30
0.0
 10
308.2854031032986
 20
542.2583740234375
 30
0.0
 10
308.2471625434027
 20
542.0099826388888
 30
0.0
 10
308.224769422743
 20
541.7419542100694
 30
0.0
 10
308.224769422743
 20
541.7419542100694
 30
0.0
 10
308.224769422743
 20
541.7419542100694
 30
0.0
 10
307.8203152126736
 20
541.79638671875
 30
0.0
 10
307.0045166015625
 20
541.8218804253472
 30
0.0
 10
306.1852728949652
 20
541.8473741319444
 30
0.0
 10
306.5518310546875
 20
541.860120985243
 30
0.0
 10
305.6753987630208
 20
541.79638671875
 30
0.0
 10
304.8055121527777
 20
541.7295518663194
 30
0.0
 10
303.5563205295139
 20
541.6689181857638
 30
0.0
 10
303.0784857855903
 20
541.7419542100694
 30
0.0
 10
302.594105360243
 20
541.8156792534721
 30
0.0
 10
302.6323459201388
 20
541.8790690104166
 30
0.0
 10
302.1638129340278
 20
541.9493489583333
 30
0.0
 10
301.6987250434028
 20
542.0223849826389
 30
0.0
 10
301.682533094618
 20
541.9941351996528
 30
0.0
 10
300.7427110460069
 20
542.0768174913194
 30
0.0
 10
299.8090901692708
 20
542.159499782986
 30
0.0
 10
299.5410617404514
 20
542.153298611111
 30
0.0
 10
299.5410617404514
 20
542.153298611111
 30
0.0
 10
299.5410617404514
 20
542.153298611111
 30
0.0
 10
296.9155544704861
 20
542.3696506076388
 30
0.0
 10
296.0901095920138
 20
542.6500813802082
 30
0.0
 10
295.2615641276041
 20
542.9243109809028
 30
0.0
 10
295.3921332465277
 20
542.7713487413193
 30
0.0
 10
294.7675374348958
 20
542.8095893012153
 30
0.0
 10
294.1398410373263
 20
542.8512749565972
 30
0.0
 10
292.3838758680556
 20
542.9115641276042
 30
0.0
 10
292.3838758680556
 20
542.9115641276042
 30
0.0
 10
292.3838758680556
 20
542.9115641276042
 30
0.0
 10
290.3478244357639
 20
543.2495279947916
 30
0.0
 10
289.6178087022569
 20
543.5044650607639
 30
0.0
 10
288.8850368923611
 20
543.7594021267361
 30
0.0
 10
288.2828342013889
 20
543.9058186848957
 30
0.0
 10
288.0757839626736
 20
544.0522352430555
 30
0.0
 10
287.8683892144097
 20
544.1927951388889
 30
0.0
 10
287.9545166015625
 20
544.1097683376736
 30
0.0
 10
287.6516927083333
 20
544.2117431640625
 30
0.0
 10
287.3457682291667
 20
544.320263671875
 30
0.0
 10
287.4639350043403
 20
544.3870985243055
 30
0.0
 10
287.1194254557291
 20
544.447732204861
 30
0.0
 10
286.7818060980903
 20
544.5111219618055
 30
0.0
 10
286.1062228732638
 20
544.5528076171875
 30
0.0
 10
285.5484619140625
 20
544.6706298828125
 30
0.0
 10
284.9910454644097
 20
544.7822509765624
 30
0.0
 10
285.032386610243
 20
544.6992241753471
 30
0.0
 10
284.7774495442708
 20
544.6706298828125
 30
0.0
 10
284.5256130642361
 20
544.6516818576389
 30
0.0
 10
282.8971164279513
 20
544.7598578559027
 30
0.0
 10
282.6645724826388
 20
544.794997829861
 30
0.0
 10
282.4320285373263
 20
544.8332383897568
 30
0.0
 10
281.8043321397569
 20
544.8873263888888
 30
0.0
 10
281.6610161675347
 20
545.0275417751735
 30
0.0
 10
281.5173556857638
 20
545.1677571614583
 30
0.0
 10
281.5590413411458
 20
545.1295166015625
 30
0.0
 10
281.2338243272569
 20
545.1739583333333
 30
0.0
 10
280.9089518229167
 20
545.2221896701388
 30
0.0
 10
280.6602159288194
 20
545.1167697482639
 30
0.0
 10
280.3956325954861
 20
545.1422634548611
 30
0.0
 10
280.1279486762152
 20
545.1677571614583
 30
0.0
 10
280.0101264105903
 20
545.0626817491319
 30
0.0
 10
279.5639865451388
 20
545.1805040147569
 30
0.0
 10
279.120947265625
 20
545.3014268663194
 30
0.0
 10
279.2008734809028
 20
545.307972547743
 30
0.0
 10
278.9362901475694
 20
545.3334662543402
 30
0.0
 10
278.6686062282986
 20
545.3589599609375
 30
0.0
 10
278.7640353732639
 20
545.2221896701388
 30
0.0
 10
278.5569851345486
 20
545.3334662543402
 30
0.0
 10
278.3433892144097
 20
545.4481879340277
 30
0.0
 10
278.4743028428819
 20
545.46748046875
 30
0.0
 10
278.2097195095486
 20
545.4929741753472
 30
0.0
 10
277.9420355902777
 20
545.5184678819444
 30
0.0
 10
277.0910970052083
 20
545.4798828124999
 30
0.0
 10
276.4027669270833
 20
545.5119222005208
 30
0.0
 10
275.7113362630208
 20
545.5405164930555
 30
0.0
 10
275.3161838107638
 20
545.5629096137152
 30
0.0
 10
274.8032090928819
 20
545.6235432942708
 30
0.0
 10
274.290234375
 20
545.6810763888889
 30
0.0
 10
273.436195203993
 20
545.8050998263889
 30
0.0
 10
272.5821560329861
 20
545.942214626736
 30
0.0
 10
271.7281168619791
 20
546.0824300130208
 30
0.0
 10
271.4604329427083
 20
546.1048231336805
 30
0.0
 10
271.3167724609375
 20
546.0855305989583
 30
0.0
 10
271.1769015842013
 20
546.0696831597222
 30
0.0
 10
270.0996202256944
 20
546.1492648654513
 30
0.0
 10
269.188392469618
 20
546.38525390625
 30
0.0
 10
268.2833658854166
 20
546.624343532986
 30
0.0
 10
268.5159098307291
 20
546.6050509982639
 30
0.0
 10
267.9867431640625
 20
546.6498372395832
 30
0.0
 10
267.4548204210069
 20
546.6973795572916
 30
0.0
 10
267.0021348741319
 20
546.7228732638888
 30
0.0
 10
267.0021348741319
 20
546.7228732638888
 30
0.0
 10
267.0021348741319
 20
546.7228732638888
 30
0.0
 10
266.9576931423611
 20
546.7897081163194
 30
0.0
 10
266.6579698350694
 20
546.6112521701389
 30
0.0
 10
266.3616916232639
 20
546.4296956380208
 30
0.0
 10
266.3840847439236
 20
546.3694064670138
 30
0.0
 10
265.800830078125
 20
546.5158230251735
 30
0.0
 10
265.2175754123264
 20
546.6591389973958
 30
0.0
 10
263.7168918185764
 20
546.8090006510416
 30
0.0
 10
263.4650553385416
 20
546.8186469184027
 30
0.0
 10
263.2163194444444
 20
546.8248480902778
 30
0.0
 10
261.0782931857639
 20
547.0577365451388
 30
0.0
 10
261.0018120659722
 20
547.0639377170138
 30
0.0
 10
260.922230360243
 20
547.0701388888889
 30
0.0
 10
260.0299506293402
 20
547.2899359809028
 30
0.0
 10
259.5645182291667
 20
547.3347222222221
 30
0.0
 10
259.092884657118
 20
547.3795084635416
 30
0.0
 10
258.9047824435764
 20
547.2200005425346
 30
0.0
 10
258.6243516710069
 20
547.4174045138889
 30
0.0
 10
258.3439208984375
 20
547.6185980902777
 30
0.0
 10
257.6972764756944
 20
548.179115125868
 30
0.0
 10
257.5918565538194
 20
548.1980631510417
 30
0.0
 10
257.4836805555555
 20
548.227001953125
 30
0.0
 10
257.4740342881944
 20
548.2779893663194
 30
0.0
 10
257.4898817274305
 20
548.4660915798611
 30
0.0
 10
257.5060736762152
 20
548.6476481119792
 30
0.0
 10
257.7034776475694
 20
549.0875868055555
 30
0.0
 10
257.8309461805555
 20
549.1254828559028
 30
0.0
 10
257.9615152994791
 20
549.160622829861
 30
0.0
 10
258.0125027126736
 20
549.3804199218749
 30
0.0
 10
257.8850341796875
 20
549.5464735243055
 30
0.0
 10
257.7610107421875
 20
549.715283203125
 30
0.0
 10
257.7065782335069
 20
549.6863444010417
 30
0.0
 10
257.8788330078125
 20
549.9860677083333
 30
0.0
 10
258.0445421006944
 20
550.2857910156249
 30
0.0
 10
258.5065294053819
 20
550.8910942925347
 30
0.0
 10
258.4204020182291
 20
551.337234157986
 30
0.0
 10
258.3377197265625
 20
551.7899197048611
 30
0.0
 10
258.2708848741319
 20
551.9490831163193
 30
0.0
 10
258.3566677517361
 20
552.0510579427083
 30
0.0
 10
258.4458957248264
 20
552.1592339409722
 30
0.0
 10
258.4748345269097
 20
552.2770562065972
 30
0.0
 10
258.5065294053819
 20
552.6567057291666
 30
0.0
 10
258.5385687934028
 20
553.0322211371528
 30
0.0
 10
258.4269476996528
 20
553.1341959635416
 30
0.0
 10
258.5926567925347
 20
553.2458170572916
 30
0.0
 10
258.7583658854167
 20
553.3574381510416
 30
0.0
 10
258.9623155381944
 20
553.5420952690972
 30
0.0
 10
259.1214789496527
 20
553.574134657118
 30
0.0
 10
259.2840874565972
 20
553.6123752170139
 30
0.0
 10
259.3350748697916
 20
553.6668077256944
 30
0.0
 10
259.8163547092014
 20
553.574134657118
 30
0.0
 10
260.2972900390625
 20
553.4883517795139
 30
0.0
 10
260.753076171875
 20
553.3064507378472
 30
0.0
 10
261.1354817708333
 20
553.1727810329861
 30
0.0
 10
261.5178873697917
 20
553.0453124999999
 30
0.0
 10
261.5116861979166
 20
552.9881239149305
 30
0.0
 10
261.9195855034722
 20
552.9784776475694
 30
0.0
 10
262.3274848090277
 20
552.9784776475694
 30
0.0
 10
263.38857421875
 20
553.0387668185764
 30
0.0
 10
264.2905002170139
 20
553.274755859375
 30
0.0
 10
265.1955268012152
 20
553.5072998046875
 30
0.0
 10
264.8958034939236
 20
553.7081488715278
 30
0.0
 10
265.5682861328125
 20
553.5072998046875
 30
0.0
 10
266.2469699435763
 20
553.3064507378472
 30
0.0
 10
266.0333740234375
 20
553.5613878038193
 30
0.0
 10
266.4447184244792
 20
553.2079210069444
 30
0.0
 10
266.8526177300347
 20
552.8606553819444
 30
0.0
 10
266.8109320746527
 20
552.7521348741319
 30
0.0
 10
267.0310736762153
 20
552.7331868489583
 30
0.0
 10
267.247425672743
 20
552.7138943142361
 30
0.0
 10
267.6429226345486
 20
552.7266411675347
 30
0.0
 10
268.2258327907986
 20
552.592626953125
 30
0.0
 10
268.8152886284722
 20
552.4651584201389
 30
0.0
 10
268.7260606553819
 20
552.3600830078125
 30
0.0
 10
269.2073404947917
 20
552.2867024739583
 30
0.0
 10
269.6917209201389
 20
552.2136664496527
 30
0.0
 10
269.5673529730902
 20
552.2550075954861
 30
0.0
 10
270.1571533203125
 20
552.1468315972222
 30
0.0
 10
270.7435085720486
 20
552.0255642361111
 30
0.0
 10
270.9887993706597
 20
551.9552842881944
 30
0.0
 10
271.0525336371527
 20
551.9363362630207
 30
0.0
 10
271.1128228081597
 20
551.9108425564235
 30
0.0
 10
275.0770941840278
 20
551.5442843967013
 30
0.0
 10
275.0770941840278
 20
551.5442843967013
 30
0.0
 10
275.0770941840278
 20
551.5442843967013
 30
0.0
 10
281.1731906467014
 20
551.2097656249999
 30
0.0
 10
281.1731906467014
 20
551.2097656249999
 30
0.0
 10
281.1731906467014
 20
551.2097656249999
 30
0.0
 10
284.1242594401041
 20
550.7891194661457
 30
0.0
 10
284.8473849826389
 20
550.7763726128471
 30
0.0
 10
285.5708550347222
 20
550.757080078125
 30
0.0
 10
287.2248453776041
 20
550.5944715711805
 30
0.0
 10
287.2248453776041
 20
550.5944715711805
 30
0.0
 10
287.2248453776041
 20
550.5944715711805
 30
0.0
 10
288.63974609375
 20
550.4225613064235
 30
0.0
 10
288.63974609375
 20
550.4225613064235
 30
0.0
 10
288.63974609375
 20
550.4225613064235
 30
0.0
 10
288.8819363064236
 20
550.2919921875
 30
0.0
 10
289.0824408637152
 20
550.2410047743055
 30
0.0
 10
289.280189344618
 20
550.190017361111
 30
0.0
 10
289.4841389973958
 20
550.174169921875
 30
0.0
 10
289.8920383029513
 20
550.1548773871527
 30
0.0
 10
290.2999376085069
 20
550.1355848524305
 30
0.0
 10
293.5407389322916
 20
549.7373318142361
 30
0.0
 10
293.5407389322916
 20
549.7373318142361
 30
0.0
 10
293.5407389322916
 20
549.7373318142361
 30
0.0
 10
296.7718939887152
 20
549.2784450954861
 30
0.0
 10
296.7718939887152
 20
549.2784450954861
 30
0.0
 10
296.7718939887152
 20
549.2784450954861
 30
0.0
 10
299.4201388888889
 20
548.9601182725694
 30
0.0
 10
299.9778998480903
 20
548.8326497395833
 30
0.0
 10
300.5322157118055
 20
548.7079372829861
 30
0.0
 10
301.9154215494792
 20
548.5391276041667
 30
0.0
 10
303.1325737847222
 20
548.4116590711805
 30
0.0
 10
304.3497260199653
 20
548.290736219618
 30
0.0
 10
305.3377794053819
 20
548.061292860243
 30
0.0
 10
305.4907416449652
 20
548.0292534722222
 30
0.0
 10
305.6468044704861
 20
548.003759765625
 30
0.0
 10
307.3038953993055
 20
547.6978352864583
 30
0.0
 10
307.3038953993055
 20
547.6978352864583
 30
0.0
 10
307.3038953993055
 20
547.6978352864583
 30
0.0
 10
308.4955539279513
 20
547.5100775824652
 30
0.0
 10
308.4955539279513
 20
547.5100775824652
 30
0.0
  0
SPLINE
  5
9F
330
A
100
AcDbEntity
  8
LAYER_1
 62
     7
100
AcDbSpline
210
0.0
220
0.0
230
1.0
 70
     8
 71
     3
 72
    29
 73
    25
 74
     0
 42
0.000000001
 43
0.00000001
 40
0.0
 40
0.0
 40
0.0
 40
0.0
 40
1.0
 40
1.0
 40
1.0
 40
2.0
 40
2.0
 40
2.0
 40
3.0
 40
3.0
 40
3.0
 40
4.0
 40
4.0
 40
4.0
 40
5.0
 40
5.0
 40
5.0
 40
6.0
 40
6.0
 40
6.0
 40
7.0
 40
7.0
 40
7.0
 40
8.0
 40
8.0
 40
8.0
 40
8.0
 10
267.0021348741319
 20
546.7228732638888
 30
0.0
 10
267.0021348741319
 20
546.7228732638888
 30
0.0
 10
267.5664415147569
 20
546.9047743055555
 30
0.0
 10
267.177490234375
 20
547.7808620876735
 30
0.0
 10
266.7919840494791
 20
548.6603949652778
 30
0.0
 10
267.1265028211805
 20
548.7113823784722
 30
0.0
 10
267.2922119140625
 20
549.0204074435763
 30
0.0
 10
267.4548204210069
 20
549.3328776041666
 30
0.0
 10
267.6970106336805
 20
550.2093098958333
 30
0.0
 10
267.6298312717014
 20
550.4067138671875
 30
0.0
 10
267.5664415147569
 20
550.6041178385416
 30
0.0
 10
267.5695421006944
 20
550.9293348524305
 30
0.0
 10
267.5853895399305
 20
551.1205376519097
 30
0.0
 10
267.6012369791666
 20
551.3117404513888
 30
0.0
 10
267.7572998046875
 20
551.5377387152778
 30
0.0
 10
267.5757432725694
 20
551.6369574652778
 30
0.0
 10
267.3910861545139
 20
551.732386610243
 30
0.0
 10
267.4134792751736
 20
551.6493598090277
 30
0.0
 10
267.1392496744791
 20
551.8918945312499
 30
0.0
 10
266.8588189019097
 20
552.1306396484374
 30
0.0
 10
266.9576931423611
 20
552.3442355685763
 30
0.0
 10
266.9959337022569
 20
552.4527560763888
 30
0.0
 10
267.0310736762153
 20
552.5547309027777
 30
0.0
 10
267.1330485026041
 20
552.7586805555555
 30
0.0
 10
267.1330485026041
 20
552.7586805555555
 30
0.0
  0
SPLINE
  5
9E
330
A
100
AcDbEntity
  8
LAYER_1
 62
     7
100
AcDbSpline
210
0.0
220
0.0
230
1.0
 70
     8
 71
     3
 72
    23
 73
    19
 74
     0
 42
0.000000001
 43
0.00000001
 40
0.0
 40
0.0
 40
0.0
 40
0.0
 40
1.0
 40
1.0
 40
1.0
 40
2.0
 40
2.0
 40
2.0
 40
3.0
 40
3.0
 40
3.0
 40
4.0
 40
4.0
 40
4.0
 40
5.0
 40
5.0
 40
5.0
 40
6.0
 40
6.0
 40
6.0
 40
6.0
 10
265.0773600260416
 20
514.9136176215277
 30
0.0
 10
265.0773600260416
 20
514.9136176215277
 30
0.0
 10
262.8532063802083
 20
512.9444010416667
 30
0.0
 10
261.5943684895833
 20
512.6446777343749
 30
0.0
 10
260.3389756944444
 20
512.3449544270833
 30
0.0
 10
257.7258707682291
 20
511.9914876302083
 30
0.0
 10
255.8455376519097
 20
512.2464246961805
 30
0.0
 10
253.9655490451389
 20
512.4979166666666
 30
0.0
 10
251.6904079861111
 20
512.6446777343749
 30
0.0
 10
250.2627604166667
 20
513.3874403211805
 30
0.0
 10
248.8320122612847
 20
514.1267578124999
 30
0.0
 10
248.1309353298611
 20
514.4547309027778
 30
0.0
 10
247.5921223958333
 20
515.3215169270833
 30
0.0
 10
247.0536539713542
 20
516.1914035373263
 30
0.0
 10
246.578919813368
 20
516.7874050564236
 30
0.0
 10
246.461097547743
 20
517.0933295355902
 30
0.0
 10
246.3398301866319
 20
517.3927083333333
 30
0.0
 10
245.82685546875
 20
518.5275227864582
 30
0.0
 10
245.82685546875
 20
518.5275227864582
 30
0.0
  0
SPLINE
  5
9D
330
A
100
AcDbEntity
  8
LAYER_1
 62
     7
100
AcDbSpline
210
0.0
220
0.0
230
1.0
 70
     8
 71
     3
 72
    29
 73
    25
 74
     0
 42
0.000000001
 43
0.00000001
 40
0.0
 40
0.0
 40
0.0
 40
0.0
 40
1.0
 40
1.0
 40
1.0
 40
2.0
 40
2.0
 40
2.0
 40
3.0
 40
3.0
 40
3.0
 40
4.0
 40
4.0
 40
4.0
 40
5.0
 40
5.0
 40
5.0
 40
6.0
 40
6.0
 40
6.0
 40
7.0
 40
7.0
 40
7.0
 40
8.0
 40
8.0
 40
8.0
 40
8.0
 10
247.4136664496528
 20
525.2096299913194
 30
0.0
 10
247.4136664496528
 20
525.2096299913194
 30
0.0
 10
248.4048204210069
 20
526.4684678819444
 30
0.0
 10
250.0078233506944
 20
527.0324300130208
 30
0.0
 10
251.6139268663194
 20
527.5932915581596
 30
0.0
 10
253.86357421875
 20
527.8899142795138
 30
0.0
 10
253.86357421875
 20
527.8899142795138
 30
0.0
 10
253.86357421875
 20
527.8899142795138
 30
0.0
 10
255.2305881076389
 20
528.0938639322916
 30
0.0
 10
257.1364149305555
 20
527.453076171875
 30
0.0
 10
259.0449978298611
 20
526.8191786024305
 30
0.0
 10
259.8673421223958
 20
526.5067084418403
 30
0.0
 10
260.0681911892361
 20
526.4622667100693
 30
0.0
 10
260.2686957465277
 20
526.4140353732638
 30
0.0
 10
262.8945475260417
 20
525.6526692708333
 30
0.0
 10
263.4330159505208
 20
525.4583658854166
 30
0.0
 10
263.9749294704861
 20
525.270263671875
 30
0.0
 10
264.5643853081597
 20
525.0091254340277
 30
0.0
 10
265.1379937065972
 20
524.1933268229167
 30
0.0
 10
265.7116021050347
 20
523.3837293836805
 30
0.0
 10
266.3361979166667
 20
522.5072970920138
 30
0.0
 10
266.4285264756944
 20
521.8541069878472
 30
0.0
 10
266.5146538628472
 20
521.204017469618
 30
0.0
 10
266.4478190104167
 20
521.0892957899305
 30
0.0
 10
266.4478190104167
 20
521.0892957899305
 30
0.0
  0
INSERT
  5
86
330
A
100
AcDbEntity
  8
LAYER_1
 62
     7
100
AcDbBlockReference
  2
AI9-BLK13
 10
254.064251
 20
514.830763
 30
0.0
  0
INSERT
  5
73
330
A
100
AcDbEntity
  8
LAYER_1
 62
     7
100
AcDbBlockReference
  2
AI9-BLK9
 10
257.528295
 20
525.542771
 30
0.0
  0
SPLINE
  5
71
330
A
100
AcDbEntity
  8
LAYER_1
  6
AI9-LType3
 62
     7
100
AcDbSpline
210
0.0
220
0.0
230
1.0
 70
     8
 71
     3
 72
    20
 73
    16
 74
     0
 42
0.000000001
 43
0.00000001
 40
0.0
 40
0.0
 40
0.0
 40
0.0
 40
1.0
 40
1.0
 40
1.0
 40
2.0
 40
2.0
 40
2.0
 40
3.0
 40
3.0
 40
3.0
 40
4.0
 40
4.0
 40
4.0
 40
5.0
 40
5.0
 40
5.0
 40
5.0
 10
229.3327718098958
 20
511.7651448567708
 30
0.0
 10
229.6259494357639
 20
511.7238037109374
 30
0.0
 10
229.8392008463541
 20
511.3699924045138
 30
0.0
 10
230.0817355685764
 20
511.2232313368055
 30
0.0
 10
230.4606960720486
 20
510.9910319010416
 30
0.0
 10
231.0119113498264
 20
510.8759657118055
 30
0.0
 10
231.4487494574653
 20
510.7963840060763
 30
0.0
 10
232.0351047092014
 20
510.6878634982638
 30
0.0
 10
232.6342068142361
 20
510.6179280598958
 30
0.0
 10
233.2298638237847
 20
510.5638400607638
 30
0.0
 10
233.5261420355903
 20
510.5349012586805
 30
0.0
 10
233.8258653428819
 20
510.5094075520833
 30
0.0
 10
234.1221435546875
 20
510.4839138454861
 30
0.0
 10
234.5045491536458
 20
510.4522189670138
 30
0.0
 10
234.864906141493
 20
510.4970052083333
 30
0.0
 10
235.2342203776041
 20
510.4649658203124
 30
0.0
  0
SPLINE
  5
6F
330
A
100
AcDbEntity
  8
LAYER_1
  6
AI9-LType2
 62
     7
100
AcDbSpline
210
0.0
220
0.0
230
1.0
 70
     8
 71
     3
 72
    20
 73
    16
 74
     0
 42
0.000000001
 43
0.00000001
 40
0.0
 40
0.0
 40
0.0
 40
0.0
 40
1.0
 40
1.0
 40
1.0
 40
2.0
 40
2.0
 40
2.0
 40
3.0
 40
3.0
 40
3.0
 40
4.0
 40
4.0
 40
4.0
 40
5.0
 40
5.0
 40
5.0
 40
5.0
 10
234.4887017144097
 20
527.0610243055555
 30
0.0
 10
234.4887017144097
 20
527.0610243055555
 30
0.0
 10
238.0099338107639
 20
536.0410101996528
 30
0.0
 10
238.0099338107639
 20
537.7428873697917
 30
0.0
 10
238.0099338107639
 20
539.454066297743
 30
0.0
 10
240.9672037760417
 20
546.2701877170139
 30
0.0
 10
240.9672037760417
 20
547.6375461154513
 30
0.0
 10
240.9672037760417
 20
549.0014594184028
 30
0.0
 10
242.1047743055555
 20
553.0962999131943
 30
0.0
 10
242.5574598524305
 20
553.5486409505207
 30
0.0
 10
243.0163465711805
 20
554.0009819878471
 30
0.0
 10
243.6981309678819
 20
556.167947048611
 30
0.0
 10
243.9244737413194
 20
556.7353542751736
 30
0.0
 10
244.1508165147569
 20
557.3027615017361
 30
0.0
 10
244.2651936848958
 20
558.7813964843749
 30
0.0
 10
244.2651936848958
 20
558.7813964843749
 30
0.0
  0
POLYLINE
  5
69
330
A
100
AcDbEntity
  8
LAYER_1
  6
AI9-LType1
 62
     7
100
AcDb2dPolyline
 66
     1
 10
0.0
 20
0.0
 30
0.0
  0
VERTEX
  5
6A
330
69
100
AcDbEntity
  8
LAYER_1
  6
AI9-LType1
 62
     7
100
AcDbVertex
100
AcDb2dVertex
 10
314.069029
 20
528.425282
 30
0.0
  0
VERTEX
  5
6B
330
69
100
AcDbEntity
  8
LAYER_1
  6
AI9-LType1
 62
     7
100
AcDbVertex
100
AcDb2dVertex
 10
294.286602
 20
530.359359
 30
0.0
  0
VERTEX
  5
6C
330
69
100
AcDbEntity
  8
LAYER_1
  6
AI9-LType1
 62
     7
100
AcDbVertex
100
AcDb2dVertex
 10
291.899495
 20
515.805897
 30
0.0
  0
SEQEND
  5
6D
330
69
100
AcDbEntity
  8
LAYER_1
  6
AI9-LType1
 62
     7
  0
SPLINE
  5
68
330
A
100
AcDbEntity
  8
LAYER_1
  6
AI9-LType1
 62
     7
100
AcDbSpline
210
0.0
220
0.0
230
1.0
 70
     8
 71
     3
 72
    29
 73
    25
 74
     0
 42
0.000000001
 43
0.00000001
 40
0.0
 40
0.0
 40
0.0
 40
0.0
 40
1.0
 40
1.0
 40
1.0
 40
2.0
 40
2.0
 40
2.0
 40
3.0
 40
3.0
 40
3.0
 40
4.0
 40
4.0
 40
4.0
 40
5.0
 40
5.0
 40
5.0
 40
6.0
 40
6.0
 40
6.0
 40
7.0
 40
7.0
 40
7.0
 40
8.0
 40
8.0
 40
8.0
 40
8.0
 10
285.1915500217013
 20
561.7386664496528
 30
0.0
 10
285.1915500217013
 20
561.7386664496528
 30
0.0
 10
279.6215196397569
 20
561.2797797309028
 30
0.0
 10
277.2347574869792
 20
561.0530924479166
 30
0.0
 10
274.8476508246528
 20
560.8236490885416
 30
0.0
 10
272.572509765625
 20
560.1449652777777
 30
0.0
 10
269.8446831597222
 20
560.0305881076389
 30
0.0
 10
267.1137559678819
 20
559.9155219184028
 30
0.0
 10
259.0449978298611
 20
559.4631808810764
 30
0.0
 10
259.0449978298611
 20
559.4631808810764
 30
0.0
 10
259.0449978298611
 20
559.4631808810764
 30
0.0
 10
248.697998046875
 20
559.2337375217013
 30
0.0
 10
248.697998046875
 20
559.2337375217013
 30
0.0
 10
248.697998046875
 20
559.2337375217013
 30
0.0
 10
241.0819254557291
 20
558.6663302951389
 30
0.0
 10
241.0819254557291
 20
558.6663302951389
 30
0.0
 10
241.0819254557291
 20
558.6663302951389
 30
0.0
 10
233.1216878255208
 20
558.2074435763889
 30
0.0
 10
228.2330973307292
 20
558.0992675781249
 30
0.0
 10
223.3448513454861
 20
557.987646484375
 30
0.0
 10
218.568226453993
 20
557.640380859375
 30
0.0
 10
218.2302625868055
 20
557.640380859375
 30
0.0
 10
217.886097547743
 20
557.640380859375
 30
0.0
 10
210.1553032769097
 20
557.414382595486
 30
0.0
 10
210.1553032769097
 20
557.414382595486
 30
0.0
  0
POLYLINE
  5
61
330
A
100
AcDbEntity
  8
LAYER_1
 62
     7
100
AcDb2dPolyline
 66
     1
 10
0.0
 20
0.0
 30
0.0
 70
     1
  0
VERTEX
  5
62
330
61
100
AcDbEntity
  8
LAYER_1
 62
     7
100
AcDbVertex
100
AcDb2dVertex
 10
238.733404
 20
512.412134
 30
0.0
  0
VERTEX
  5
63
330
61
100
AcDbEntity
  8
LAYER_1
 62
     7
100
AcDbVertex
100
AcDb2dVertex
 10
235.377881
 20
512.412134
 30
0.0
  0
VERTEX
  5
64
330
61
100
AcDbEntity
  8
LAYER_1
 62
     7
100
AcDbVertex
100
AcDb2dVertex
 10
235.377881
 20
514.346555
 30
0.0
  0
VERTEX
  5
65
330
61
100
AcDbEntity
  8
LAYER_1
 62
     7
100
AcDbVertex
100
AcDb2dVertex
 10
238.733404
 20
514.346555
 30
0.0
  0
SEQEND
  5
66
330
61
100
AcDbEntity
  8
LAYER_1
 62
     7
  0
INSERT
  5
4F
330
A
100
AcDbEntity
  8
LAYER_1
 62
     7
100
AcDbBlockReference
  2
AI9-BLK5
 10
233.889427
 20
560.368207
 30
0.0
  0
INSERT
  5
3C
330
A
100
AcDbEntity
  8
LAYER_1
 62
     7
100
AcDbBlockReference
  2
AI9-BLK1
 10
233.84533
 20
513.454275
 30
0.0
  0
MTEXT
  5
3A
330
A
100
AcDbEntity
  8
LAYER_1
 62
     7
100
AcDbMText
 10
235.57873
 20
561.024173
 30
0.0
 40
1.232675
 41
0.0
 46
0.0
 71
     1
 72
     2
  1
\W1.00;\fHelvetica|b0|i0;780/289
  7
STD
 73
     1
 44
1.0
  0
MTEXT
  5
39
330
A
100
AcDbEntity
  8
LAYER_1
 62
     7
100
AcDbMText
 10
235.722046
 20
512.116564
 30
0.0
 40
1.232675
 41
0.0
 46
0.0
 71
     1
 72
     2
  1
\W1.00;\fHelvetica|b0|i0;
  7
STD
 73
     1
 44
1.0
  0
MTEXT
  5
38
330
A
100
AcDbEntity
  8
LAYER_1
 62
     7
100
AcDbMText
 10
235.722046
 20
514.126088
 30
0.0
 40
1.232675
 41
0.0
 46
0.0
 71
     1
 72
     2
  1
\W1.00;\fHelvetica|b0|i0;780/286
  7
STD
 73
     1
 44
1.0
  0
MTEXT
  5
37
330
A
100
AcDbEntity
  8
LAYER_1
 62
     7
100
AcDbMText
 10
227.092426
 20
542.400807
 30
0.0
 40
1.643461
 41
0.0
 46
0.0
 71
     1
 72
     2
  1
\W1.00;\fHelvetica|b1|i0;355
  7
STD
 73
     1
 44
1.0
  0
MTEXT
  5
36
330
A
100
AcDbEntity
  8
LAYER_1
 62
     7
100
AcDbMText
 10
273.71008
 20
517.274003
 30
0.0
 40
1.643461
 41
0.0
 46
0.0
 71
     1
 72
     2
  1
\W1.00;\fHelvetica|b1|i0;354
  7
STD
 73
     1
 44
1.0
  0
MTEXT
  5
35
330
A
100
AcDbEntity
  8
LAYER_1
 62
     7
100
AcDbMText
 10
213.380257
 20
540.374402
 30
0.0
 40
1.643461
 41
0.0
 46
0.0
 71
     1
 72
     2
  1
\W1.00;\fHelvetica|b1|i0;819
  7
STD
 73
     1
 44
1.0
  0
MTEXT
  5
34
330
A
100
AcDbEntity
  8
LAYER_1
 62
     7
100
AcDbMText
 10
220.741393
 20
516.445458
 30
0.0
 40
1.643461
 41
0.0
 46
0.0
 71
     1
 72
     2
  1
\W1.00;\fHelvetica|b1|i0;355
  7
STD
 73
     1
 44
1.0
  0
MTEXT
  5
33
330
A
100
AcDbEntity
  8
LAYER_1
 62
     7
100
AcDbMText
 10
217.978426
 20
500.521882
 30
0.0
 40
1.643461
 41
0.0
 46
0.0
 71
     1
 72
     2
  1
\W1.00;\fHelvetica|b1|i0;71
  7
STD
 73
     1
 44
1.0
  0
MTEXT
  5
32
330
A
100
AcDbEntity
  8
LAYER_1
 62
     7
100
AcDbMText
 10
261.33013
 20
530.896945
 30
0.0
 40
1.643461
 41
0.0
 46
0.0
 71
     1
 72
     2
  1
\W1.00;\fHelvetica|b1|i0;358
  7
STD
 73
     1
 44
1.0
  0
LINE
  5
31
330
A
100
AcDbEntity
  8
LAYER_1
 62
     7
100
AcDbLine
 10
263.08265
 20
528.884169
 30
0.0
 11
259.765367
 21
524.648768
 31
0.0
  0
MTEXT
  5
30
330
A
100
AcDbEntity
  8
LAYER_1
 62
     7
100
AcDbMText
 10
240.438382
 20
540.100173
 30
0.0
 40
1.643461
 41
0.0
 46
0.0
 71
     1
 72
     2
  1
\W1.00;\fHelvetica|b1|i0;402
  7
STD
 73
     1
 44
1.0
  0
MTEXT
  5
2F
330
A
100
AcDbEntity
  8
LAYER_1
 62
     7
100
AcDbMText
 10
273.71008
 20
509.450881
 30
0.0
 40
1.643461
 41
0.0
 46
0.0
 71
     1
 72
     2
  1
\W1.00;\fHelvetica|b1|i0;355
  7
STD
 73
     1
 44
1.0
  0
MTEXT
  5
2E
330
A
100
AcDbEntity
  8
LAYER_1
 62
     7
100
AcDbMText
 10
273.71008
 20
535.587787
 30
0.0
 40
1.643461
 41
0.0
 46
0.0
 71
     1
 72
     2
  1
\W1.00;\fHelvetica|b1|i0;355
  7
STD
 73
     1
 44
1.0
  0
MTEXT
  5
2D
330
A
100
AcDbEntity
  8
LAYER_1
 62
     7
100
AcDbMText
 10
283.700513
 20
548.659512
 30
0.0
 40
1.643461
 41
0.0
 46
0.0
 71
     1
 72
     2
  1
\W1.00;\fHelvetica|b1|i0;359
  7
STD
 73
     1
 44
1.0
  0
MTEXT
  5
2C
330
A
100
AcDbEntity
  8
LAYER_1
 62
     7
100
AcDbMText
 10
301.921623
 20
521.047072
 30
0.0
 40
1.643461
 41
0.0
 46
0.0
 71
     1
 72
     2
  1
\W1.00;\fHelvetica|b1|i0;60
  7
STD
 73
     1
 44
1.0
  0
MTEXT
  5
2B
330
A
100
AcDbEntity
  8
LAYER_1
 62
     7
100
AcDbMText
 10
302.747068
 20
503.835719
 30
0.0
 40
1.643461
 41
0.0
 46
0.0
 71
     1
 72
     2
  1
\W1.00;\fHelvetica|b1|i0;12
  7
STD
 73
     1
 44
1.0
  0
MTEXT
  5
2A
330
A
100
AcDbEntity
  8
LAYER_1
 62
     7
100
AcDbMText
 10
250.966938
 20
498.918879
 30
0.0
 40
1.643461
 41
0.0
 46
0.0
 71
     1
 72
     2
  1
\W1.00;\fHelvetica|b1|i0;69 
  7
STD
 73
     1
 44
1.0
  0
MTEXT
  5
29
330
A
100
AcDbEntity
  8
LAYER_1
 62
     7
100
AcDbMText
 10
300.541862
 20
523.44038
 30
0.0
 40
1.643461
 41
0.0
 46
0.0
 71
     1
 72
     2
  1
\W1.00;\fHelvetica|b0|i0;Baulk
  7
STD
 73
     1
 44
1.0
  0
ENDSEC
  0
SECTION
  2
OBJECTS
  0
DICTIONARY
  5
19
330
0
100
AcDbDictionary
281
     1
  3
ACAD_DETAILVIEWSTYLE
350
157
  3
ACAD_GROUP
350
1A
  3
ACAD_LAYOUT
350
1E
  3
ACAD_MATERIAL
350
117
  3
ACAD_MLEADERSTYLE
350
11D
  3
ACAD_MLINESTYLE
350
1B
  3
ACAD_PLOTSETTINGS
350
22
  3
ACAD_PLOTSTYLENAME
350
1F
  3
ACAD_SCALELIST
350
DC
  3
ACAD_SECTIONVIEWSTYLE
350
158
  3
ACAD_TABLESTYLE
350
11B
  3
ACAD_VISUALSTYLE
350
FE
  3
ACAD_WIPEOUT_VARS
350
23
  3
ACDB_RECOMPOSE_DATA
350
153
  3
AcDbVariableDictionary
350
11F
  0
DICTIONARY
  5
157
102
{ACAD_REACTORS
330
19
102
}
330
19
100
AcDbDictionary
281
     1
  0
DICTIONARY
  5
1A
102
{ACAD_REACTORS
330
19
102
}
330
19
100
AcDbDictionary
281
     1
  0
DICTIONARY
  5
1E
102
{ACAD_REACTORS
330
19
102
}
330
19
100
AcDbDictionary
281
     1
  3
Layout1
350
21
  3
Model
350
20
  0
DICTIONARY
  5
117
102
{ACAD_REACTORS
330
19
102
}
330
19
100
AcDbDictionary
281
     1
  3
ByBlock
350
119
  3
ByLayer
350
118
  3
Global
350
11A
  0
DICTIONARY
  5
11D
102
{ACAD_REACTORS
330
19
102
}
330
19
100
AcDbDictionary
281
     1
  3
Standard
350
11E
  0
DICTIONARY
  5
1B
102
{ACAD_REACTORS
330
19
102
}
330
19
100
AcDbDictionary
281
     1
  3
Standard
350
1C
  0
DICTIONARY
  5
22
102
{ACAD_REACTORS
330
19
102
}
330
19
100
AcDbDictionary
281
     1
  0
ACDBDICTIONARYWDFLT
  5
1F
102
{ACAD_REACTORS
330
19
102
}
330
19
100
AcDbDictionary
281
     1
  3
Normal
350
1D
100
AcDbDictionaryWithDefault
340
1D
  0
DICTIONARY
  5
DC
102
{ACAD_REACTORS
330
19
102
}
330
19
100
AcDbDictionary
281
     1
  3
A0
350
DD
  3
A1
350
DE
  3
A2
350
DF
  3
A3
350
E0
  3
A4
350
E1
  3
A5
350
E2
  3
A6
350
E3
  3
A7
350
E4
  3
A8
350
E5
  3
A9
350
E6
  3
B0
350
E7
  3
B1
350
E8
  3
B2
350
E9
  3
B3
350
EA
  3
B4
350
EB
  3
B5
350
EC
  3
B6
350
ED
  3
B7
350
EE
  3
B8
350
EF
  3
B9
350
F0
  3
C0
350
F1
  3
C1
350
F2
  3
C2
350
F3
  3
C3
350
F4
  3
C4
350
F5
  3
C5
350
F6
  3
C6
350
F7
  3
C7
350
F8
  3
C8
350
F9
  3
C9
350
FA
  3
D0
350
FB
  3
D1
350
FC
  3
D2
350
FD
  0
DICTIONARY
  5
158
102
{ACAD_REACTORS
330
19
102
}
330
19
100
AcDbDictionary
281
     1
  0
DICTIONARY
  5
11B
102
{ACAD_REACTORS
330
19
102
}
330
19
100
AcDbDictionary
281
     1
  3
Standard
350
11C
  0
DICTIONARY
  5
FE
102
{ACAD_REACTORS
330
19
102
}
330
19
100
AcDbDictionary
281
     1
  3
2dWireframe
350
103
  3
Basic
350
106
  3
Brighten
350
10A
  3
ColorChange
350
10E
  3
Conceptual
350
108
  3
Dim
350
109
  3
EdgeColorOff
350
111
  3
Facepattern
350
10D
  3
Flat
350
FF
  3
FlatWithEdges
350
100
  3
Gouraud
350
101
  3
GouraudWithEdges
350
102
  3
Hidden
350
105
  3
JitterOff
350
10F
  3
Linepattern
350
10C
  3
OverhangOff
350
110
  3
Realistic
350
107
  3
Shaded
350
116
  3
Shaded with edges
350
115
  3
Shades of Gray
350
112
  3
Sketchy
350
113
  3
Thicken
350
10B
  3
Wireframe
350
104
  3
X-Ray
350
114
  0
WIPEOUTVARIABLES
  5
23
330
19
100
AcDbWipeoutVariables
 70
     1
  0
XRECORD
  5
153
102
{ACAD_REACTORS
330
19
102
}
330
19
100
AcDbXrecord
280
     1
 90
        1
330
11C
  0
DICTIONARY
  5
11F
102
{ACAD_REACTORS
330
19
102
}
330
19
100
AcDbDictionary
281
     1
  3
CANNOSCALE
350
120
  3
CMLEADERSTYLE
350
155
  3
CTABLESTYLE
350
154
  3
MSLTSCALE
350
156
  0
LAYOUT
  5
21
102
{ACAD_REACTORS
330
1E
102
}
330
1E
100
AcDbPlotSettings
  1

  2

  4

  6

 40
0.0
 41
0.0
 42
0.0
 43
0.0
 44
0.0
 45
0.0
 46
0.0
 47
0.0
 48
0.0
 49
0.0
140
0.0
141
0.0
142
1.0
143
1.0
 70
     0
 72
     0
 73
     0
 74
     0
  7

 75
     0
 76
     0
 77
     2
 78
   300
147
1.0
148
0.0
149
0.0
100
AcDbLayout
  1
Layout1
 70
     0
 71
     0
 10
0.0
 20
0.0
 11
0.0
 21
0.0
 12
0.0
 22
0.0
 32
0.0
 14
0.0
 24
0.0
 34
0.0
 15
0.0
 25
0.0
 35
0.0
146
0.0
 13
0.0
 23
0.0
 33
0.0
 16
0.0
 26
0.0
 36
0.0
 17
0.0
 27
0.0
 37
0.0
 76
     0
330
B
  0
LAYOUT
  5
20
102
{ACAD_REACTORS
330
1E
102
}
330
1E
100
AcDbPlotSettings
  1

  2

  4

  6

 40
0.0
 41
0.0
 42
0.0
 43
0.0
 44
0.0
 45
0.0
 46
0.0
 47
0.0
 48
0.0
 49
0.0
140
0.0
141
0.0
142
1.0
143
1.0
 70
  1024
 72
     0
 73
     0
 74
     0
  7

 75
     0
 76
     0
 77
     2
 78
   300
147
1.0
148
0.0
149
0.0
100
AcDbLayout
  1
Model
 70
     0
 71
     1
 10
0.0
 20
0.0
 11
0.0
 21
0.0
 12
0.0
 22
0.0
 32
0.0
 14
0.0
 24
0.0
 34
0.0
 15
0.0
 25
0.0
 35
0.0
146
0.0
 13
0.0
 23
0.0
 33
0.0
 16
0.0
 26
0.0
 36
0.0
 17
0.0
 27
0.0
 37
0.0
 76
     0
330
A
331
15
  0
MATERIAL
  5
119
102
{ACAD_REACTORS
330
117
102
}
330
117
100
AcDbMaterial
  1
ByBlock
 72
     1
 94
      127
  0
MATERIAL
  5
118
102
{ACAD_REACTORS
330
117
102
}
330
117
100
AcDbMaterial
  1
ByLayer
 72
     1
 94
      127
  0
MATERIAL
  5
11A
102
{ACAD_REACTORS
330
117
102
}
330
117
100
AcDbMaterial
  1
Global
 72
     1
 94
      127
  0
MLEADERSTYLE
  5
11E
102
{ACAD_REACTORS
330
11D
102
}
330
11D
100
AcDbMLeaderStyle
179
     2
170
     2
171
     1
172
     0
 90
        2
 40
0.0
 41
0.0
173
     1
 91
-1056964608
340
11
 92
       -2
290
     1
 42
0.09
291
     1
 43
0.36
  3
Standard
341
0
 44
0.18
300

342
17
174
     1
178
     6
175
     1
176
     0
 93
-1056964608
 45
0.18
292
     0
297
     0
 46
0.18
343
0
 94
-1056964608
 47
1.0
 49
1.0
140
1.0
293
     1
141
0.0
294
     1
177
     0
142
1.0
295
     0
296
     0
143
0.125
271
     0
272
     9
273
     9
  0
MLINESTYLE
  5
1C
102
{ACAD_REACTORS
330
1B
102
}
330
1B
100
AcDbMlineStyle
  2
Standard
 70
     0
  3

 62
     0
 51
90.0
 52
90.0
 71
     2
 49
0.5
 62
   256
  6
BYLAYER
 49
-0.5
 62
   256
  6
BYLAYER
  0
ACDBPLACEHOLDER
  5
1D
102
{ACAD_REACTORS
330
1F
102
}
330
1F
  0
SCALE
  5
DD
102
{ACAD_REACTORS
330
DC
102
}
330
DC
100
AcDbScale
 70
     0
300
1:1
140
1.0
141
1.0
290
     1
  0
SCALE
  5
DE
102
{ACAD_REACTORS
330
DC
102
}
330
DC
100
AcDbScale
 70
     0
300
1:2
140
1.0
141
2.0
290
     0
  0
SCALE
  5
DF
102
{ACAD_REACTORS
330
DC
102
}
330
DC
100
AcDbScale
 70
     0
300
1:4
140
1.0
141
4.0
290
     0
  0
SCALE
  5
E0
102
{ACAD_REACTORS
330
DC
102
}
330
DC
100
AcDbScale
 70
     0
300
1:5
140
1.0
141
5.0
290
     0
  0
SCALE
  5
E1
102
{ACAD_REACTORS
330
DC
102
}
330
DC
100
AcDbScale
 70
     0
300
1:8
140
1.0
141
8.0
290
     0
  0
SCALE
  5
E2
102
{ACAD_REACTORS
330
DC
102
}
330
DC
100
AcDbScale
 70
     0
300
1:10
140
1.0
141
10.0
290
     0
  0
SCALE
  5
E3
102
{ACAD_REACTORS
330
DC
102
}
330
DC
100
AcDbScale
 70
     0
300
1:16
140
1.0
141
16.0
290
     0
  0
SCALE
  5
E4
102
{ACAD_REACTORS
330
DC
102
}
330
DC
100
AcDbScale
 70
     0
300
1:20
140
1.0
141
20.0
290
     0
  0
SCALE
  5
E5
102
{ACAD_REACTORS
330
DC
102
}
330
DC
100
AcDbScale
 70
     0
300
1:30
140
1.0
141
30.0
290
     0
  0
SCALE
  5
E6
102
{ACAD_REACTORS
330
DC
102
}
330
DC
100
AcDbScale
 70
     0
300
1:40
140
1.0
141
40.0
290
     0
  0
SCALE
  5
E7
102
{ACAD_REACTORS
330
DC
102
}
330
DC
100
AcDbScale
 70
     0
300
1:50
140
1.0
141
50.0
290
     0
  0
SCALE
  5
E8
102
{ACAD_REACTORS
330
DC
102
}
330
DC
100
AcDbScale
 70
     0
300
1:100
140
1.0
141
100.0
290
     0
  0
SCALE
  5
E9
102
{ACAD_REACTORS
330
DC
102
}
330
DC
100
AcDbScale
 70
     0
300
2:1
140
2.0
141
1.0
290
     0
  0
SCALE
  5
EA
102
{ACAD_REACTORS
330
DC
102
}
330
DC
100
AcDbScale
 70
     0
300
4:1
140
4.0
141
1.0
290
     0
  0
SCALE
  5
EB
102
{ACAD_REACTORS
330
DC
102
}
330
DC
100
AcDbScale
 70
     0
300
8:1
140
8.0
141
1.0
290
     0
  0
SCALE
  5
EC
102
{ACAD_REACTORS
330
DC
102
}
330
DC
100
AcDbScale
 70
     0
300
10:1
140
10.0
141
1.0
290
     0
  0
SCALE
  5
ED
102
{ACAD_REACTORS
330
DC
102
}
330
DC
100
AcDbScale
 70
     0
300
100:1
140
100.0
141
1.0
290
     0
  0
SCALE
  5
EE
102
{ACAD_REACTORS
330
DC
102
}
330
DC
100
AcDbScale
 70
     0
300
1/128" = 1'-0"
140
0.0078125
141
12.0
290
     0
  0
SCALE
  5
EF
102
{ACAD_REACTORS
330
DC
102
}
330
DC
100
AcDbScale
 70
     0
300
1/64" = 1'-0"
140
0.015625
141
12.0
290
     0
  0
SCALE
  5
F0
102
{ACAD_REACTORS
330
DC
102
}
330
DC
100
AcDbScale
 70
     0
300
1/32" = 1'-0"
140
0.03125
141
12.0
290
     0
  0
SCALE
  5
F1
102
{ACAD_REACTORS
330
DC
102
}
330
DC
100
AcDbScale
 70
     0
300
1/16" = 1'-0"
140
0.0625
141
12.0
290
     0
  0
SCALE
  5
F2
102
{ACAD_REACTORS
330
DC
102
}
330
DC
100
AcDbScale
 70
     0
300
3/32" = 1'-0"
140
0.09375
141
12.0
290
     0
  0
SCALE
  5
F3
102
{ACAD_REACTORS
330
DC
102
}
330
DC
100
AcDbScale
 70
     0
300
1/8" = 1'-0"
140
0.125
141
12.0
290
     0
  0
SCALE
  5
F4
102
{ACAD_REACTORS
330
DC
102
}
330
DC
100
AcDbScale
 70
     0
300
3/16" = 1'-0"
140
0.1875
141
12.0
290
     0
  0
SCALE
  5
F5
102
{ACAD_REACTORS
330
DC
102
}
330
DC
100
AcDbScale
 70
     0
300
1/4" = 1'-0"
140
0.25
141
12.0
290
     0
  0
SCALE
  5
F6
102
{ACAD_REACTORS
330
DC
102
}
330
DC
100
AcDbScale
 70
     0
300
3/8" = 1'-0"
140
0.375
141
12.0
290
     0
  0
SCALE
  5
F7
102
{ACAD_REACTORS
330
DC
102
}
330
DC
100
AcDbScale
 70
     0
300
1/2" = 1'-0"
140
0.5
141
12.0
290
     0
  0
SCALE
  5
F8
102
{ACAD_REACTORS
330
DC
102
}
330
DC
100
AcDbScale
 70
     0
300
3/4" = 1'-0"
140
0.75
141
12.0
290
     0
  0
SCALE
  5
F9
102
{ACAD_REACTORS
330
DC
102
}
330
DC
100
AcDbScale
 70
     0
300
1" = 1'-0"
140
1.0
141
12.0
290
     0
  0
SCALE
  5
FA
102
{ACAD_REACTORS
330
DC
102
}
330
DC
100
AcDbScale
 70
     0
300
1-1/2" = 1'-0"
140
1.5
141
12.0
290
     0
  0
SCALE
  5
FB
102
{ACAD_REACTORS
330
DC
102
}
330
DC
100
AcDbScale
 70
     0
300
3" = 1'-0"
140
3.0
141
12.0
290
     0
  0
SCALE
  5
FC
102
{ACAD_REACTORS
330
DC
102
}
330
DC
100
AcDbScale
 70
     0
300
6" = 1'-0"
140
6.0
141
12.0
290
     0
  0
SCALE
  5
FD
102
{ACAD_REACTORS
330
DC
102
}
330
DC
100
AcDbScale
 70
     0
300
1'-0" = 1'-0"
140
12.0
141
12.0
290
     0
  0
TABLESTYLE
  5
11C
102
{ACAD_REACTORS
330
11B
102
}
102
{ACAD_XDICTIONARY
360
151
102
}
330
11B
100
AcDbTableStyle
  3
Standard
 70
     0
 71
     0
 40
0.06
 41
0.06
280
     0
281
     0
  7
Standard
140
0.18
170
     2
 62
     0
 63
   257
283
     0
 90
        4
 91
        0
  1

274
    -2
284
     1
 64
     0
275
    -2
285
     1
 65
     0
276
    -2
286
     1
 66
     0
277
    -2
287
     1
 67
     0
278
    -2
288
     1
 68
     0
279
    -2
289
     1
 69
     0
  7
Standard
140
0.25
170
     5
 62
     0
 63
   257
283
     0
 90
        4
 91
        0
  1

274
    -2
284
     1
 64
     0
275
    -2
285
     1
 65
     0
276
    -2
286
     1
 66
     0
277
    -2
287
     1
 67
     0
278
    -2
288
     1
 68
     0
279
    -2
289
     1
 69
     0
  7
Standard
140
0.18
170
     5
 62
     0
 63
   257
283
     0
 90
        4
 91
        0
  1

274
    -2
284
     1
 64
     0
275
    -2
285
     1
 65
     0
276
    -2
286
     1
 66
     0
277
    -2
287
     1
 67
     0
278
    -2
288
     1
 68
     0
279
    -2
289
     1
 69
     0
  0
VISUALSTYLE
  5
103
102
{ACAD_REACTORS
330
FE
102
}
102
{ACAD_XDICTIONARY
360
129
102
}
330
FE
100
AcDbVisualStyle
  2
2dWireframe
 70
     4
177
     2
291
     0
 71
     0
176
     1
 72
     2
176
     1
 73
     0
176
     1
 90
        0
176
     1
 40
0.6
176
     1
 41
30.0
176
     1
 62
     5
 63
     7
421
 16777215
176
     1
 74
     1
176
     1
 91
        4
176
     1
 64
     7
176
     1
 65
   257
176
     1
 75
     1
176
     1
175
     1
176
     1
 42
1.0
176
     1
 92
        0
176
     1
 66
   257
176
     1
 43
1.0
176
     1
 76
     1
176
     1
 77
     6
176
     1
 78
     2
176
     1
 67
     7
176
     1
 79
     5
176
     1
170
     0
176
     1
171
     0
176
     1
290
     0
176
     1
 93
        1
176
     1
 44
0.0
176
     1
173
     0
176
     1
  0
VISUALSTYLE
  5
106
102
{ACAD_REACTORS
330
FE
102
}
102
{ACAD_XDICTIONARY
360
12F
102
}
330
FE
100
AcDbVisualStyle
  2
Basic
 70
     7
177
     2
291
     1
 71
     1
176
     1
 72
     0
176
     1
 73
     1
176
     1
 90
        0
176
     1
 40
0.6
176
     1
 41
30.0
176
     1
 62
     5
 63
     7
421
 16777215
176
     1
 74
     0
176
     1
 91
        4
176
     1
 64
     7
176
     1
 65
   257
176
     1
 75
     1
176
     1
175
     1
176
     1
 42
1.0
176
     1
 92
        8
176
     1
 66
     7
176
     1
 43
1.0
176
     1
 76
     1
176
     1
 77
     6
176
     1
 78
     2
176
     1
 67
     7
176
     1
 79
     5
176
     1
170
     0
176
     1
171
     0
176
     1
290
     0
176
     1
 93
        1
176
     1
 44
0.0
176
     1
173
     0
176
     1
  0
VISUALSTYLE
  5
10A
102
{ACAD_REACTORS
330
FE
102
}
102
{ACAD_XDICTIONARY
360
137
102
}
330
FE
100
AcDbVisualStyle
  2
Brighten
 70
    12
177
     2
291
     1
 71
     2
176
     1
 72
     2
176
     1
 73
     0
176
     1
 90
        0
176
     1
 40
0.6
176
     1
 41
30.0
176
     1
 62
     5
 63
     7
421
 16777215
176
     1
 74
     1
176
     1
 91
        4
176
     1
 64
     7
176
     1
 65
   257
176
     1
 75
     1
176
     1
175
     1
176
     1
 42
1.0
176
     1
 92
        8
176
     1
 66
     7
176
     1
 43
1.0
176
     1
 76
     1
176
     1
 77
     6
176
     1
 78
     2
176
     1
 67
     7
176
     1
 79
     5
176
     1
170
     0
176
     1
171
     0
176
     1
290
     0
176
     1
 93
        1
176
     1
 44
50.0
176
     1
173
     0
176
     1
  0
VISUALSTYLE
  5
10E
102
{ACAD_REACTORS
330
FE
102
}
102
{ACAD_XDICTIONARY
360
13F
102
}
330
FE
100
AcDbVisualStyle
  2
ColorChange
 70
    16
177
     2
291
     1
 71
     2
176
     1
 72
     2
176
     1
 73
     3
176
     1
 90
        0
176
     1
 40
0.6
176
     1
 41
30.0
176
     1
 62
     5
 63
     8
421
  8421504
176
     1
 74
     1
176
     1
 91
        4
176
     1
 64
     7
176
     1
 65
   257
176
     1
 75
     1
176
     1
175
     1
176
     1
 42
1.0
176
     1
 92
        8
176
     1
 66
     8
424
  8421504
176
     1
 43
1.0
176
     1
 76
     1
176
     1
 77
     6
176
     1
 78
     2
176
     1
 67
     7
176
     1
 79
     5
176
     1
170
     0
176
     1
171
     0
176
     1
290
     0
176
     1
 93
        1
176
     1
 44
0.0
176
     1
173
     0
176
     1
  0
VISUALSTYLE
  5
108
102
{ACAD_REACTORS
330
FE
102
}
102
{ACAD_XDICTIONARY
360
133
102
}
330
FE
100
AcDbVisualStyle
  2
Conceptual
 70
     9
177
     2
291
     0
 71
     3
176
     1
 72
     2
176
     1
 73
     0
176
     1
 90
        0
176
     1
 40
0.6
176
     1
 41
30.0
176
     1
 62
     5
 63
     7
421
 16777215
176
     1
 74
     2
176
     1
 91
        2
176
     1
 64
     7
176
     1
 65
   257
176
     1
 75
     1
176
     1
175
     1
176
     1
 42
179.0
176
     1
 92
        8
176
     1
 66
     7
176
     1
 43
1.0
176
     1
 76
     1
176
     1
 77
     6
176
     1
 78
     2
176
     1
 67
     7
176
     1
 79
     3
176
     1
170
     0
176
     1
171
     0
176
     1
290
     0
176
     1
 93
        1
176
     1
 44
0.0
176
     1
173
     0
176
     1
  0
VISUALSTYLE
  5
109
102
{ACAD_REACTORS
330
FE
102
}
102
{ACAD_XDICTIONARY
360
135
102
}
330
FE
100
AcDbVisualStyle
  2
Dim
 70
    11
177
     2
291
     1
 71
     2
176
     1
 72
     2
176
     1
 73
     0
176
     1
 90
        0
176
     1
 40
0.6
176
     1
 41
30.0
176
     1
 62
     5
 63
     7
421
 16777215
176
     1
 74
     1
176
     1
 91
        4
176
     1
 64
     7
176
     1
 65
   257
176
     1
 75
     1
176
     1
175
     1
176
     1
 42
1.0
176
     1
 92
        8
176
     1
 66
     7
176
     1
 43
1.0
176
     1
 76
     1
176
     1
 77
     6
176
     1
 78
     2
176
     1
 67
     7
176
     1
 79
     5
176
     1
170
     0
176
     1
171
     0
176
     1
290
     0
176
     1
 93
        1
176
     1
 44
-50.0
176
     1
173
     0
176
     1
  0
VISUALSTYLE
  5
111
102
{ACAD_REACTORS
330
FE
102
}
102
{ACAD_XDICTIONARY
360
145
102
}
330
FE
100
AcDbVisualStyle
  2
EdgeColorOff
 70
    22
177
     2
291
     1
 71
     2
176
     0
 72
     2
176
     0
 73
     0
176
     0
 90
        0
176
     0
 40
0.6
176
     0
 41
30.0
176
     0
 62
     5
 63
     7
421
 16777215
176
     0
 74
     1
176
     0
 91
        4
176
     0
 64
     7
176
     0
 65
   257
176
     0
 75
     1
176
     0
175
     1
176
     0
 42
1.0
176
     0
 92
        8
176
     2
 66
     7
176
     0
 43
1.0
176
     0
 76
     1
176
     0
 77
     6
176
     0
 78
     2
176
     0
 67
     7
176
     0
 79
     5
176
     0
170
     0
176
     0
171
     0
176
     0
290
     0
176
     0
 93
        1
176
     0
 44
0.0
176
     0
173
     0
176
     0
  0
VISUALSTYLE
  5
10D
102
{ACAD_REACTORS
330
FE
102
}
102
{ACAD_XDICTIONARY
360
13D
102
}
330
FE
100
AcDbVisualStyle
  2
Facepattern
 70
    15
177
     2
291
     1
 71
     2
176
     1
 72
     2
176
     1
 73
     0
176
     1
 90
        0
176
     1
 40
0.6
176
     1
 41
30.0
176
     1
 62
     5
 63
     7
421
 16777215
176
     1
 74
     1
176
     1
 91
        4
176
     1
 64
     7
176
     1
 65
   257
176
     1
 75
     1
176
     1
175
     1
176
     1
 42
1.0
176
     1
 92
        8
176
     1
 66
     7
176
     1
 43
1.0
176
     1
 76
     1
176
     1
 77
     6
176
     1
 78
     2
176
     1
 67
     7
176
     1
 79
     5
176
     1
170
     0
176
     1
171
     0
176
     1
290
     0
176
     1
 93
        1
176
     1
 44
0.0
176
     1
173
     0
176
     1
  0
VISUALSTYLE
  5
FF
102
{ACAD_REACTORS
330
FE
102
}
102
{ACAD_XDICTIONARY
360
121
102
}
330
FE
100
AcDbVisualStyle
  2
Flat
 70
     0
177
     2
291
     1
 71
     2
176
     1
 72
     1
176
     1
 73
     1
176
     1
 90
        2
176
     1
 40
0.6
176
     1
 41
30.0
176
     1
 62
     5
 63
     7
421
 16777215
176
     1
 74
     0
176
     1
 91
        0
176
     1
 64
     7
176
     1
 65
   257
176
     1
 75
     1
176
     1
175
     1
176
     1
 42
1.0
176
     1
 92
        8
176
     1
 66
     7
176
     1
 43
1.0
176
     1
 76
     1
176
     1
 77
     6
176
     1
 78
     2
176
     1
 67
     7
176
     1
 79
     5
176
     1
170
     0
176
     1
171
     0
176
     1
290
     0
176
     1
 93
       13
176
     1
 44
0.0
176
     1
173
     0
176
     1
  0
VISUALSTYLE
  5
100
102
{ACAD_REACTORS
330
FE
102
}
102
{ACAD_XDICTIONARY
360
123
102
}
330
FE
100
AcDbVisualStyle
  2
FlatWithEdges
 70
     1
177
     2
291
     1
 71
     2
176
     1
 72
     1
176
     1
 73
     1
176
     1
 90
        2
176
     1
 40
0.6
176
     1
 41
30.0
176
     1
 62
     5
 63
     7
421
 16777215
176
     1
 74
     1
176
     1
 91
        0
176
     1
 64
     7
176
     1
 65
   257
176
     1
 75
     1
176
     1
175
     1
176
     1
 42
1.0
176
     1
 92
        0
176
     1
 66
   257
176
     1
 43
1.0
176
     1
 76
     1
176
     1
 77
     6
176
     1
 78
     2
176
     1
 67
     7
176
     1
 79
     5
176
     1
170
     0
176
     1
171
     0
176
     1
290
     0
176
     1
 93
       13
176
     1
 44
0.0
176
     1
173
     0
176
     1
  0
VISUALSTYLE
  5
101
102
{ACAD_REACTORS
330
FE
102
}
102
{ACAD_XDICTIONARY
360
125
102
}
330
FE
100
AcDbVisualStyle
  2
Gouraud
 70
     2
177
     2
291
     1
 71
     2
176
     1
 72
     2
176
     1
 73
     1
176
     1
 90
        2
176
     1
 40
0.6
176
     1
 41
30.0
176
     1
 62
     5
 63
     7
421
 16777215
176
     1
 74
     0
176
     1
 91
        0
176
     1
 64
     7
176
     1
 65
   257
176
     1
 75
     1
176
     1
175
     1
176
     1
 42
1.0
176
     1
 92
        0
176
     1
 66
     7
176
     1
 43
1.0
176
     1
 76
     1
176
     1
 77
     6
176
     1
 78
     2
176
     1
 67
     7
176
     1
 79
     5
176
     1
170
     0
176
     1
171
     0
176
     1
290
     0
176
     1
 93
       13
176
     1
 44
0.0
176
     1
173
     0
176
     1
  0
VISUALSTYLE
  5
102
102
{ACAD_REACTORS
330
FE
102
}
102
{ACAD_XDICTIONARY
360
127
102
}
330
FE
100
AcDbVisualStyle
  2
GouraudWithEdges
 70
     3
177
     2
291
     1
 71
     2
176
     1
 72
     2
176
     1
 73
     1
176
     1
 90
        2
176
     1
 40
0.6
176
     1
 41
30.0
176
     1
 62
     5
 63
     7
421
 16777215
176
     1
 74
     1
176
     1
 91
        0
176
     1
 64
     7
176
     1
 65
   257
176
     1
 75
     1
176
     1
175
     1
176
     1
 42
1.0
176
     1
 92
        0
176
     1
 66
   257
176
     1
 43
1.0
176
     1
 76
     1
176
     1
 77
     6
176
     1
 78
     2
176
     1
 67
     7
176
     1
 79
     5
176
     1
170
     0
176
     1
171
     0
176
     1
290
     0
176
     1
 93
       13
176
     1
 44
0.0
176
     1
173
     0
176
     1
  0
VISUALSTYLE
  5
105
102
{ACAD_REACTORS
330
FE
102
}
102
{ACAD_XDICTIONARY
360
12D
102
}
330
FE
100
AcDbVisualStyle
  2
Hidden
 70
     6
177
     2
291
     0
 71
     1
176
     1
 72
     2
176
     1
 73
     2
176
     1
 90
        0
176
     1
 40
0.6
176
     1
 41
30.0
176
     1
 62
     5
 63
     7
421
 16777215
176
     1
 74
     2
176
     1
 91
        2
176
     1
 64
     7
176
     1
 65
   257
176
     1
 75
     2
176
     1
175
     1
176
     1
 42
40.0
176
     1
 92
        0
176
     1
 66
   257
176
     1
 43
1.0
176
     1
 76
     1
176
     1
 77
     6
176
     1
 78
     2
176
     1
 67
     7
176
     1
 79
     3
176
     1
170
     0
176
     1
171
     0
176
     1
290
     0
176
     1
 93
        1
176
     1
 44
0.0
176
     1
173
     0
176
     1
  0
VISUALSTYLE
  5
10F
102
{ACAD_REACTORS
330
FE
102
}
102
{ACAD_XDICTIONARY
360
141
102
}
330
FE
100
AcDbVisualStyle
  2
JitterOff
 70
    20
177
     2
291
     1
 71
     2
176
     0
 72
     2
176
     0
 73
     0
176
     0
 90
        0
176
     0
 40
0.6
176
     0
 41
30.0
176
     0
 62
     5
 63
     7
421
 16777215
176
     0
 74
     1
176
     0
 91
        4
176
     0
 64
     7
176
     0
 65
   257
176
     0
 75
     1
176
     0
175
     1
176
     0
 42
1.0
176
     0
 92
       10
176
     2
 66
     7
176
     0
 43
1.0
176
     0
 76
     1
176
     0
 77
     6
176
     0
 78
     2
176
     0
 67
     7
176
     0
 79
     5
176
     0
170
     0
176
     0
171
     0
176
     0
290
     0
176
     0
 93
        1
176
     0
 44
0.0
176
     0
173
     0
176
     0
  0
VISUALSTYLE
  5
10C
102
{ACAD_REACTORS
330
FE
102
}
102
{ACAD_XDICTIONARY
360
13B
102
}
330
FE
100
AcDbVisualStyle
  2
Linepattern
 70
    14
177
     2
291
     1
 71
     2
176
     1
 72
     2
176
     1
 73
     0
176
     1
 90
        0
176
     1
 40
0.6
176
     1
 41
30.0
176
     1
 62
     5
 63
     7
421
 16777215
176
     1
 74
     1
176
     1
 91
        4
176
     1
 64
     7
176
     1
 65
   257
176
     1
 75
     7
176
     1
175
     7
176
     1
 42
1.0
176
     1
 92
        8
176
     1
 66
     7
176
     1
 43
1.0
176
     1
 76
     1
176
     1
 77
     6
176
     1
 78
     2
176
     1
 67
     7
176
     1
 79
     5
176
     1
170
     0
176
     1
171
     0
176
     1
290
     0
176
     1
 93
        1
176
     1
 44
0.0
176
     1
173
     0
176
     1
  0
VISUALSTYLE
  5
110
102
{ACAD_REACTORS
330
FE
102
}
102
{ACAD_XDICTIONARY
360
143
102
}
330
FE
100
AcDbVisualStyle
  2
OverhangOff
 70
    21
177
     2
291
     1
 71
     2
176
     0
 72
     2
176
     0
 73
     0
176
     0
 90
        0
176
     0
 40
0.6
176
     0
 41
30.0
176
     0
 62
     5
 63
     7
421
 16777215
176
     0
 74
     1
176
     0
 91
        4
176
     0
 64
     7
176
     0
 65
   257
176
     0
 75
     1
176
     0
175
     1
176
     0
 42
1.0
176
     0
 92
        9
176
     2
 66
     7
176
     0
 43
1.0
176
     0
 76
     1
176
     0
 77
     6
176
     0
 78
     2
176
     0
 67
     7
176
     0
 79
     5
176
     0
170
     0
176
     0
171
     0
176
     0
290
     0
176
     0
 93
        1
176
     0
 44
0.0
176
     0
173
     0
176
     0
  0
VISUALSTYLE
  5
107
102
{ACAD_REACTORS
330
FE
102
}
102
{ACAD_XDICTIONARY
360
131
102
}
330
FE
100
AcDbVisualStyle
  2
Realistic
 70
     8
177
     2
291
     0
 71
     2
176
     1
 72
     3
176
     1
 73
     0
176
     1
 90
        2
176
     1
 40
0.6
176
     1
 41
30.0
176
     1
 62
     5
 63
     7
421
 16777215
176
     1
 74
     0
176
     1
 91
        0
176
     1
 64
     7
176
     1
 65
   257
176
     1
 75
     1
176
     1
175
     1
176
     1
 42
1.0
176
     1
 92
        8
176
     1
 66
   257
176
     1
 43
1.0
176
     1
 76
     1
176
     1
 77
     6
176
     1
 78
     2
176
     1
 67
     7
176
     1
 79
     3
176
     1
170
     0
176
     1
171
     0
176
     1
290
     0
176
     1
 93
       13
176
     1
 44
0.0
176
     1
173
     0
176
     1
  0
VISUALSTYLE
  5
116
102
{ACAD_REACTORS
330
FE
102
}
102
{ACAD_XDICTIONARY
360
14F
102
}
330
FE
100
AcDbVisualStyle
  2
Shaded
 70
    27
177
     2
291
     0
 71
     2
176
     1
 72
     2
176
     1
 73
     1
176
     1
 90
        2
176
     1
 40
0.6
176
     1
 41
30.0
176
     1
 62
     5
 63
     7
421
 16777215
176
     1
 74
     0
176
     1
 91
        4
176
     1
 64
     7
176
     1
 65
   257
176
     1
 75
     1
176
     1
175
     1
176
     1
 42
1.0
176
     1
 92
        8
176
     1
 66
   257
176
     1
 43
1.0
176
     1
 76
     1
176
     1
 77
     6
176
     1
 78
     2
176
     1
 67
     8
425
  7895160
176
     1
 79
     3
176
     1
170
     0
176
     1
171
     0
176
     1
290
     0
176
     1
 93
        5
176
     1
 44
0.0
176
     1
173
     0
176
     1
  0
VISUALSTYLE
  5
115
102
{ACAD_REACTORS
330
FE
102
}
102
{ACAD_XDICTIONARY
360
14D
102
}
330
FE
100
AcDbVisualStyle
  2
Shaded with edges
 70
    26
177
     2
291
     0
 71
     2
176
     1
 72
     2
176
     1
 73
     1
176
     1
 90
        2
176
     1
 40
0.6
176
     1
 41
30.0
176
     1
 62
     5
 63
     7
421
 16777215
176
     1
 74
     1
176
     1
 91
       10
176
     1
 64
     7
176
     1
 65
   257
176
     1
 75
     2
176
     1
175
     1
176
     1
 42
1.0
176
     1
 92
        8
176
     1
 66
   257
176
     1
 43
1.0
176
     1
 76
     1
176
     1
 77
     6
176
     1
 78
     2
176
     1
 67
     7
176
     1
 79
     3
176
     1
170
     0
176
     1
171
     0
176
     1
290
     0
176
     1
 93
        5
176
     1
 44
0.0
176
     1
173
     0
176
     1
  0
VISUALSTYLE
  5
112
102
{ACAD_REACTORS
330
FE
102
}
102
{ACAD_XDICTIONARY
360
147
102
}
330
FE
100
AcDbVisualStyle
  2
Shades of Gray
 70
    23
177
     2
291
     0
 71
     2
176
     1
 72
     2
176
     1
 73
     3
176
     1
 90
        0
176
     1
 40
0.6
176
     1
 41
30.0
176
     1
 62
     5
 63
     7
421
 16777215
176
     1
 74
     2
176
     1
 91
        2
176
     1
 64
     7
176
     1
 65
     7
176
     1
 75
     1
176
     1
175
     1
176
     1
 42
40.0
176
     1
 92
        8
176
     1
 66
     7
176
     1
 43
1.0
176
     1
 76
     1
176
     1
 77
     6
176
     1
 78
     2
176
     1
 67
     7
176
     1
 79
     3
176
     1
170
     0
176
     1
171
     0
176
     1
290
     0
176
     1
 93
        1
176
     1
 44
0.0
176
     1
173
     0
176
     1
  0
VISUALSTYLE
  5
113
102
{ACAD_REACTORS
330
FE
102
}
102
{ACAD_XDICTIONARY
360
149
102
}
330
FE
100
AcDbVisualStyle
  2
Sketchy
 70
    24
177
     2
291
     0
 71
     1
176
     1
 72
     2
176
     1
 73
     2
176
     1
 90
        0
176
     1
 40
0.6
176
     1
 41
30.0
176
     1
 62
     5
 63
     7
421
 16777215
176
     1
 74
     2
176
     1
 91
        2
176
     1
 64
     7
176
     1
 65
     7
176
     1
 75
     1
176
     1
175
     1
176
     1
 42
40.0
176
     1
 92
       11
176
     1
 66
     7
176
     1
 43
1.0
176
     1
 76
     1
176
     1
 77
     6
176
     1
 78
     2
176
     1
 67
     7
176
     1
 79
     6
176
     1
170
     0
176
     1
171
     0
176
     1
290
     0
176
     1
 93
        1
176
     1
 44
0.0
176
     1
173
     0
176
     1
  0
VISUALSTYLE
  5
10B
102
{ACAD_REACTORS
330
FE
102
}
102
{ACAD_XDICTIONARY
360
139
102
}
330
FE
100
AcDbVisualStyle
  2
Thicken
 70
    13
177
     2
291
     1
 71
     2
176
     1
 72
     2
176
     1
 73
     0
176
     1
 90
        0
176
     1
 40
0.6
176
     1
 41
30.0
176
     1
 62
     5
 63
     7
421
 16777215
176
     1
 74
     1
176
     1
 91
        4
176
     1
 64
     7
176
     1
 65
   257
176
     1
 75
     1
176
     1
175
     1
176
     1
 42
1.0
176
     1
 92
       12
176
     1
 66
     7
176
     1
 43
1.0
176
     1
 76
     1
176
     1
 77
     6
176
     1
 78
     2
176
     1
 67
     7
176
     1
 79
     5
176
     1
170
     0
176
     1
171
     0
176
     1
290
     0
176
     1
 93
        1
176
     1
 44
0.0
176
     1
173
     0
176
     1
  0
VISUALSTYLE
  5
104
102
{ACAD_REACTORS
330
FE
102
}
102
{ACAD_XDICTIONARY
360
12B
102
}
330
FE
100
AcDbVisualStyle
  2
Wireframe
 70
     5
177
     2
291
     0
 71
     0
176
     1
 72
     2
176
     1
 73
     0
176
     1
 90
        0
176
     1
 40
0.6
176
     1
 41
30.0
176
     1
 62
     5
 63
     7
421
 16777215
176
     1
 74
     1
176
     1
 91
        4
176
     1
 64
     7
176
     1
 65
   257
176
     1
 75
     1
176
     1
175
     1
176
     1
 42
1.0
176
     1
 92
        0
176
     1
 66
   257
176
     1
 43
1.0
176
     1
 76
     1
176
     1
 77
     6
176
     1
 78
     2
176
     1
 67
     7
176
     1
 79
     3
176
     1
170
     0
176
     1
171
     0
176
     1
290
     0
176
     1
 93
        1
176
     1
 44
0.0
176
     1
173
     0
176
     1
  0
VISUALSTYLE
  5
114
102
{ACAD_REACTORS
330
FE
102
}
102
{ACAD_XDICTIONARY
360
14B
102
}
330
FE
100
AcDbVisualStyle
  2
X-Ray
 70
    25
177
     2
291
     0
 71
     2
176
     1
 72
     2
176
     1
 73
     1
176
     1
 90
        1
176
     1
 40
0.5
176
     1
 41
30.0
176
     1
 62
     5
 63
     7
421
 16777215
176
     1
 74
     1
176
     1
 91
        0
176
     1
 64
     7
176
     1
 65
   257
176
     1
 75
     1
176
     1
175
     1
176
     1
 42
1.0
176
     1
 92
        8
176
     1
 66
     7
176
     1
 43
1.0
176
     1
 76
     1
176
     1
 77
     6
176
     1
 78
     2
176
     1
 67
     7
176
     1
 79
     3
176
     1
170
     0
176
     1
171
     0
176
     1
290
     0
176
     1
 93
       13
176
     1
 44
0.0
176
     1
173
     0
176
     1
  0
DICTIONARYVAR
  5
120
102
{ACAD_REACTORS
330
11F
102
}
330
11F
100
DictionaryVariables
280
     0
  1
1:1
  0
DICTIONARYVAR
  5
155
102
{ACAD_REACTORS
330
11F
102
}
330
11F
100
DictionaryVariables
280
     0
  1
Standard
  0
DICTIONARYVAR
  5
154
102
{ACAD_REACTORS
330
11F
102
}
330
11F
100
DictionaryVariables
280
     0
  1
Standard
  0
DICTIONARYVAR
  5
156
102
{ACAD_REACTORS
330
11F
102
}
330
11F
100
DictionaryVariables
280
     0
  1
0
  0
DICTIONARY
  5
151
330
11C
100
AcDbDictionary
280
     1
281
     1
  3
ACAD_ROUNDTRIP_2008_TABLESTYLE_CELLSTYLEMAP
360
152
  0
DICTIONARY
  5
129
330
103
100
AcDbDictionary
280
     1
281
     1
  3
ACAD_XREC_ROUNDTRIP
360
12A
  0
DICTIONARY
  5
12F
330
106
100
AcDbDictionary
280
     1
281
     1
  3
ACAD_XREC_ROUNDTRIP
360
130
  0
DICTIONARY
  5
137
330
10A
100
AcDbDictionary
280
     1
281
     1
  3
ACAD_XREC_ROUNDTRIP
360
138
  0
DICTIONARY
  5
13F
330
10E
100
AcDbDictionary
280
     1
281
     1
  3
ACAD_XREC_ROUNDTRIP
360
140
  0
DICTIONARY
  5
133
330
108
100
AcDbDictionary
280
     1
281
     1
  3
ACAD_XREC_ROUNDTRIP
360
134
  0
DICTIONARY
  5
135
330
109
100
AcDbDictionary
280
     1
281
     1
  3
ACAD_XREC_ROUNDTRIP
360
136
  0
DICTIONARY
  5
145
330
111
100
AcDbDictionary
280
     1
281
     1
  3
ACAD_XREC_ROUNDTRIP
360
146
  0
DICTIONARY
  5
13D
330
10D
100
AcDbDictionary
280
     1
281
     1
  3
ACAD_XREC_ROUNDTRIP
360
13E
  0
DICTIONARY
  5
121
330
FF
100
AcDbDictionary
280
     1
281
     1
  3
ACAD_XREC_ROUNDTRIP
360
122
  0
DICTIONARY
  5
123
330
100
100
AcDbDictionary
280
     1
281
     1
  3
ACAD_XREC_ROUNDTRIP
360
124
  0
DICTIONARY
  5
125
330
101
100
AcDbDictionary
280
     1
281
     1
  3
ACAD_XREC_ROUNDTRIP
360
126
  0
DICTIONARY
  5
127
330
102
100
AcDbDictionary
280
     1
281
     1
  3
ACAD_XREC_ROUNDTRIP
360
128
  0
DICTIONARY
  5
12D
330
105
100
AcDbDictionary
280
     1
281
     1
  3
ACAD_XREC_ROUNDTRIP
360
12E
  0
DICTIONARY
  5
141
330
10F
100
AcDbDictionary
280
     1
281
     1
  3
ACAD_XREC_ROUNDTRIP
360
142
  0
DICTIONARY
  5
13B
330
10C
100
AcDbDictionary
280
     1
281
     1
  3
ACAD_XREC_ROUNDTRIP
360
13C
  0
DICTIONARY
  5
143
330
110
100
AcDbDictionary
280
     1
281
     1
  3
ACAD_XREC_ROUNDTRIP
360
144
  0
DICTIONARY
  5
131
330
107
100
AcDbDictionary
280
     1
281
     1
  3
ACAD_XREC_ROUNDTRIP
360
132
  0
DICTIONARY
  5
14F
330
116
100
AcDbDictionary
280
     1
281
     1
  3
ACAD_XREC_ROUNDTRIP
360
150
  0
DICTIONARY
  5
14D
330
115
100
AcDbDictionary
280
     1
281
     1
  3
ACAD_XREC_ROUNDTRIP
360
14E
  0
DICTIONARY
  5
147
330
112
100
AcDbDictionary
280
     1
281
     1
  3
ACAD_XREC_ROUNDTRIP
360
148
  0
DICTIONARY
  5
149
330
113
100
AcDbDictionary
280
     1
281
     1
  3
ACAD_XREC_ROUNDTRIP
360
14A
  0
DICTIONARY
  5
139
330
10B
100
AcDbDictionary
280
     1
281
     1
  3
ACAD_XREC_ROUNDTRIP
360
13A
  0
DICTIONARY
  5
12B
330
104
100
AcDbDictionary
280
     1
281
     1
  3
ACAD_XREC_ROUNDTRIP
360
12C
  0
DICTIONARY
  5
14B
330
114
100
AcDbDictionary
280
     1
281
     1
  3
ACAD_XREC_ROUNDTRIP
360
14C
  0
CELLSTYLEMAP
  5
152
102
{ACAD_REACTORS
330
151
102
}
330
151
100
AcDbCellStyleMap
 90
        3
300
CELLSTYLE
  1
TABLEFORMAT_BEGIN
 90
        5
170
     1
 91
        0
 92
    32768
 62
   257
 93
        1
300
CONTENTFORMAT
  1
CONTENTFORMAT_BEGIN
 90
        0
 91
        0
 92
        4
 93
        0
300

 40
0.0
140
1.0
 94
        5
 62
     0
340
17
144
0.25
309
CONTENTFORMAT_END
171
     1
301
MARGIN
  1
CELLMARGIN_BEGIN
 40
0.06
 40
0.06
 40
0.06
 40
0.06
 40
0.06
 40
0.06
309
CELLMARGIN_END
 94
        6
 95
        1
302
GRIDFORMAT
  1
GRIDFORMAT_BEGIN
 90
        0
 91
        1
 62
     0
 92
       -2
340
11
 93
        0
 40
0.045
309
GRIDFORMAT_END
 95
        2
302
GRIDFORMAT
  1
GRIDFORMAT_BEGIN
 90
        0
 91
        1
 62
     0
 92
       -2
340
11
 93
        0
 40
0.045
309
GRIDFORMAT_END
 95
        4
302
GRIDFORMAT
  1
GRIDFORMAT_BEGIN
 90
        0
 91
        1
 62
     0
 92
       -2
340
11
 93
        0
 40
0.045
309
GRIDFORMAT_END
 95
        8
302
GRIDFORMAT
  1
GRIDFORMAT_BEGIN
 90
        0
 91
        1
 62
     0
 92
       -2
340
11
 93
        0
 40
0.045
309
GRIDFORMAT_END
 95
       16
302
GRIDFORMAT
  1
GRIDFORMAT_BEGIN
 90
        0
 91
        1
 62
     0
 92
       -2
340
11
 93
        0
 40
0.045
309
GRIDFORMAT_END
 95
       32
302
GRIDFORMAT
  1
GRIDFORMAT_BEGIN
 90
        0
 91
        1
 62
     0
 92
       -2
340
11
 93
        0
 40
0.045
309
GRIDFORMAT_END
309
TABLEFORMAT_END
  1
CELLSTYLE_BEGIN
 90
        1
 91
        1
300
_TITLE
309
CELLSTYLE_END
300
CELLSTYLE
  1
TABLEFORMAT_BEGIN
 90
        5
170
     1
 91
        0
 92
        0
 62
   257
 93
        1
300
CONTENTFORMAT
  1
CONTENTFORMAT_BEGIN
 90
        0
 91
        0
 92
        4
 93
        0
300

 40
0.0
140
1.0
 94
        5
 62
     0
340
17
144
0.18
309
CONTENTFORMAT_END
171
     1
301
MARGIN
  1
CELLMARGIN_BEGIN
 40
0.06
 40
0.06
 40
0.06
 40
0.06
 40
0.06
 40
0.06
309
CELLMARGIN_END
 94
        6
 95
        1
302
GRIDFORMAT
  1
GRIDFORMAT_BEGIN
 90
        0
 91
        1
 62
     0
 92
       -2
340
11
 93
        0
 40
0.045
309
GRIDFORMAT_END
 95
        2
302
GRIDFORMAT
  1
GRIDFORMAT_BEGIN
 90
        0
 91
        1
 62
     0
 92
       -2
340
11
 93
        0
 40
0.045
309
GRIDFORMAT_END
 95
        4
302
GRIDFORMAT
  1
GRIDFORMAT_BEGIN
 90
        0
 91
        1
 62
     0
 92
       -2
340
11
 93
        0
 40
0.045
309
GRIDFORMAT_END
 95
        8
302
GRIDFORMAT
  1
GRIDFORMAT_BEGIN
 90
        0
 91
        1
 62
     0
 92
       -2
340
11
 93
        0
 40
0.045
309
GRIDFORMAT_END
 95
       16
302
GRIDFORMAT
  1
GRIDFORMAT_BEGIN
 90
        0
 91
        1
 62
     0
 92
       -2
340
11
 93
        0
 40
0.045
309
GRIDFORMAT_END
 95
       32
302
GRIDFORMAT
  1
GRIDFORMAT_BEGIN
 90
        0
 91
        1
 62
     0
 92
       -2
340
11
 93
        0
 40
0.045
309
GRIDFORMAT_END
309
TABLEFORMAT_END
  1
CELLSTYLE_BEGIN
 90
        2
 91
        1
300
_HEADER
309
CELLSTYLE_END
300
CELLSTYLE
  1
TABLEFORMAT_BEGIN
 90
        5
170
     1
 91
        0
 92
        0
 62
   257
 93
        1
300
CONTENTFORMAT
  1
CONTENTFORMAT_BEGIN
 90
        0
 91
        0
 92
        4
 93
        0
300

 40
0.0
140
1.0
 94
        2
 62
     0
340
17
144
0.18
309
CONTENTFORMAT_END
171
     1
301
MARGIN
  1
CELLMARGIN_BEGIN
 40
0.06
 40
0.06
 40
0.06
 40
0.06
 40
0.06
 40
0.06
309
CELLMARGIN_END
 94
        6
 95
        1
302
GRIDFORMAT
  1
GRIDFORMAT_BEGIN
 90
        0
 91
        1
 62
     0
 92
       -2
340
11
 93
        0
 40
0.045
309
GRIDFORMAT_END
 95
        2
302
GRIDFORMAT
  1
GRIDFORMAT_BEGIN
 90
        0
 91
        1
 62
     0
 92
       -2
340
11
 93
        0
 40
0.045
309
GRIDFORMAT_END
 95
        4
302
GRIDFORMAT
  1
GRIDFORMAT_BEGIN
 90
        0
 91
        1
 62
     0
 92
       -2
340
11
 93
        0
 40
0.045
309
GRIDFORMAT_END
 95
        8
302
GRIDFORMAT
  1
GRIDFORMAT_BEGIN
 90
        0
 91
        1
 62
     0
 92
       -2
340
11
 93
        0
 40
0.045
309
GRIDFORMAT_END
 95
       16
302
GRIDFORMAT
  1
GRIDFORMAT_BEGIN
 90
        0
 91
        1
 62
     0
 92
       -2
340
11
 93
        0
 40
0.045
309
GRIDFORMAT_END
 95
       32
302
GRIDFORMAT
  1
GRIDFORMAT_BEGIN
 90
        0
 91
        1
 62
     0
 92
       -2
340
11
 93
        0
 40
0.045
309
GRIDFORMAT_END
309
TABLEFORMAT_END
  1
CELLSTYLE_BEGIN
 90
        3
 91
        2
300
_DATA
309
CELLSTYLE_END
  0
XRECORD
  5
12A
102
{ACAD_REACTORS
330
129
102
}
330
129
100
AcDbXrecord
280
     1
102
RTVSPost2010Prop28
280
     1
102
RTVSPost2010PropOp28
 70
     1
102
RTVSPost2010Prop29
280
     1
102
RTVSPost2010PropOp29
 70
     1
102
RTVSPost2010Prop30
280
     0
102
RTVSPost2010PropOp30
 70
     1
102
RTVSPost2010Prop31
280
     0
102
RTVSPost2010PropOp31
 70
     1
102
RTVSPost2010Prop32
280
     0
102
RTVSPost2010PropOp32
 70
     1
102
RTVSPost2010Prop33
280
     0
102
RTVSPost2010PropOp33
 70
     1
102
RTVSPost2010Prop34
280
     0
102
RTVSPost2010PropOp34
 70
     1
102
RTVSPost2010Prop35
280
     0
102
RTVSPost2010PropOp35
 70
     1
102
RTVSPost2010Prop36
280
     0
102
RTVSPost2010PropOp36
 70
     1
102
RTVSPost2010Prop37
 90
       50
102
RTVSPost2010PropOp37
 70
     1
102
RTVSPost2010Prop38
140
0.0
102
RTVSPost2010PropOp38
 70
     1
102
RTVSPost2010Prop39
140
1.0
102
RTVSPost2010PropOp39
 70
     1
102
RTVSPost2010Prop40
 90
        0
102
RTVSPost2010PropOp40
 70
     1
102
RTVSPost2010Prop41ColorIndex
 90
       18
102
RTVSPost2010Prop41ColorRGB
 90
        0
102
RTVSPost2010PropOp41
 70
     1
102
RTVSPost2010Prop42
 90
       50
102
RTVSPost2010PropOp42
 70
     1
102
RTVSPost2010Prop43
 90
        3
102
RTVSPost2010PropOp43
 70
     1
102
RTVSPost2010Prop44ColorIndex
 90
        5
102
RTVSPost2010Prop44ColorRGB
 90
      255
102
RTVSPost2010PropOp44
 70
     1
102
RTVSPost2010Prop45
280
     0
102
RTVSPost2010PropOp45
 70
     1
102
RTVSPost2010Prop46
 90
       50
102
RTVSPost2010PropOp46
 70
     1
102
RTVSPost2010Prop47
 90
       50
102
RTVSPost2010PropOp47
 70
     1
102
RTVSPost2010Prop48
 90
       50
102
RTVSPost2010PropOp48
 70
     1
102
RTVSPost2010Prop49
280
     0
102
RTVSPost2010PropOp49
 70
     1
102
RTVSPost2010Prop50
 90
       50
102
RTVSPost2010PropOp50
 70
     1
102
RTVSPost2010Prop51ColorIndex
 90
      256
102
RTVSPost2010Prop51ColorRGB
 90
-16777216
102
RTVSPost2010PropOp51
 70
     0
102
RTVSPost2010Prop52
140
1.0
102
RTVSPost2010PropOp52
 70
     0
102
RTVSPost2010Prop53
 90
        2
102
RTVSPost2010PropOp53
 70
     1
102
RTVSPost2010Prop54
  1
strokes_ogs.tif
102
RTVSPost2010PropOp54
 70
     1
102
RTVSPost2010Prop55
280
     0
102
RTVSPost2010PropOp55
 70
     1
102
RTVSPost2010Prop56
140
1.0
102
RTVSPost2010PropOp56
 70
     1
102
RTVSPost2010Prop57
140
1.0
102
RTVSPost2010PropOp57
 70
     1
  0
XRECORD
  5
130
102
{ACAD_REACTORS
330
12F
102
}
330
12F
100
AcDbXrecord
280
     1
102
RTVSPost2010Prop28
280
     0
102
RTVSPost2010PropOp28
 70
     1
102
RTVSPost2010Prop29
280
     1
102
RTVSPost2010PropOp29
 70
     1
102
RTVSPost2010Prop30
280
     1
102
RTVSPost2010PropOp30
 70
     1
102
RTVSPost2010Prop31
280
     0
102
RTVSPost2010PropOp31
 70
     1
102
RTVSPost2010Prop32
280
     0
102
RTVSPost2010PropOp32
 70
     1
102
RTVSPost2010Prop33
280
     0
102
RTVSPost2010PropOp33
 70
     1
102
RTVSPost2010Prop34
280
     0
102
RTVSPost2010PropOp34
 70
     1
102
RTVSPost2010Prop35
280
     0
102
RTVSPost2010PropOp35
 70
     1
102
RTVSPost2010Prop36
280
     0
102
RTVSPost2010PropOp36
 70
     1
102
RTVSPost2010Prop37
 90
       50
102
RTVSPost2010PropOp37
 70
     1
102
RTVSPost2010Prop38
140
0.0
102
RTVSPost2010PropOp38
 70
     1
102
RTVSPost2010Prop39
140
1.0
102
RTVSPost2010PropOp39
 70
     1
102
RTVSPost2010Prop40
 90
        0
102
RTVSPost2010PropOp40
 70
     1
102
RTVSPost2010Prop41ColorIndex
 90
       18
102
RTVSPost2010Prop41ColorRGB
 90
        0
102
RTVSPost2010PropOp41
 70
     1
102
RTVSPost2010Prop42
 90
       50
102
RTVSPost2010PropOp42
 70
     1
102
RTVSPost2010Prop43
 90
        3
102
RTVSPost2010PropOp43
 70
     1
102
RTVSPost2010Prop44ColorIndex
 90
        5
102
RTVSPost2010Prop44ColorRGB
 90
      255
102
RTVSPost2010PropOp44
 70
     1
102
RTVSPost2010Prop45
280
     0
102
RTVSPost2010PropOp45
 70
     1
102
RTVSPost2010Prop46
 90
       50
102
RTVSPost2010PropOp46
 70
     1
102
RTVSPost2010Prop47
 90
       50
102
RTVSPost2010PropOp47
 70
     1
102
RTVSPost2010Prop48
 90
       50
102
RTVSPost2010PropOp48
 70
     1
102
RTVSPost2010Prop49
280
     0
102
RTVSPost2010PropOp49
 70
     1
102
RTVSPost2010Prop50
 90
       50
102
RTVSPost2010PropOp50
 70
     1
102
RTVSPost2010Prop51ColorIndex
 90
      256
102
RTVSPost2010Prop51ColorRGB
 90
-16777216
102
RTVSPost2010PropOp51
 70
     0
102
RTVSPost2010Prop52
140
1.0
102
RTVSPost2010PropOp52
 70
     0
102
RTVSPost2010Prop53
 90
        2
102
RTVSPost2010PropOp53
 70
     1
102
RTVSPost2010Prop54
  1
strokes_ogs.tif
102
RTVSPost2010PropOp54
 70
     1
102
RTVSPost2010Prop55
280
     0
102
RTVSPost2010PropOp55
 70
     1
102
RTVSPost2010Prop56
140
1.0
102
RTVSPost2010PropOp56
 70
     1
102
RTVSPost2010Prop57
140
1.0
102
RTVSPost2010PropOp57
 70
     1
  0
XRECORD
  5
138
102
{ACAD_REACTORS
330
137
102
}
330
137
100
AcDbXrecord
280
     1
102
RTVSPost2010Prop28
280
     0
102
RTVSPost2010PropOp28
 70
     1
102
RTVSPost2010Prop29
280
     1
102
RTVSPost2010PropOp29
 70
     1
102
RTVSPost2010Prop30
280
     1
102
RTVSPost2010PropOp30
 70
     1
102
RTVSPost2010Prop31
280
     0
102
RTVSPost2010PropOp31
 70
     1
102
RTVSPost2010Prop32
280
     0
102
RTVSPost2010PropOp32
 70
     1
102
RTVSPost2010Prop33
280
     0
102
RTVSPost2010PropOp33
 70
     1
102
RTVSPost2010Prop34
280
     0
102
RTVSPost2010PropOp34
 70
     1
102
RTVSPost2010Prop35
280
     0
102
RTVSPost2010PropOp35
 70
     1
102
RTVSPost2010Prop36
280
     0
102
RTVSPost2010PropOp36
 70
     1
102
RTVSPost2010Prop37
 90
       50
102
RTVSPost2010PropOp37
 70
     1
102
RTVSPost2010Prop38
140
0.0
102
RTVSPost2010PropOp38
 70
     1
102
RTVSPost2010Prop39
140
1.0
102
RTVSPost2010PropOp39
 70
     1
102
RTVSPost2010Prop40
 90
        0
102
RTVSPost2010PropOp40
 70
     1
102
RTVSPost2010Prop41ColorIndex
 90
       18
102
RTVSPost2010Prop41ColorRGB
 90
        0
102
RTVSPost2010PropOp41
 70
     1
102
RTVSPost2010Prop42
 90
       50
102
RTVSPost2010PropOp42
 70
     1
102
RTVSPost2010Prop43
 90
        3
102
RTVSPost2010PropOp43
 70
     1
102
RTVSPost2010Prop44ColorIndex
 90
        5
102
RTVSPost2010Prop44ColorRGB
 90
      255
102
RTVSPost2010PropOp44
 70
     1
102
RTVSPost2010Prop45
280
     0
102
RTVSPost2010PropOp45
 70
     1
102
RTVSPost2010Prop46
 90
       50
102
RTVSPost2010PropOp46
 70
     1
102
RTVSPost2010Prop47
 90
       50
102
RTVSPost2010PropOp47
 70
     1
102
RTVSPost2010Prop48
 90
       50
102
RTVSPost2010PropOp48
 70
     1
102
RTVSPost2010Prop49
280
     0
102
RTVSPost2010PropOp49
 70
     1
102
RTVSPost2010Prop50
 90
       50
102
RTVSPost2010PropOp50
 70
     1
102
RTVSPost2010Prop51ColorIndex
 90
      256
102
RTVSPost2010Prop51ColorRGB
 90
-16777216
102
RTVSPost2010PropOp51
 70
     0
102
RTVSPost2010Prop52
140
1.0
102
RTVSPost2010PropOp52
 70
     0
102
RTVSPost2010Prop53
 90
        2
102
RTVSPost2010PropOp53
 70
     1
102
RTVSPost2010Prop54
  1
strokes_ogs.tif
102
RTVSPost2010PropOp54
 70
     1
102
RTVSPost2010Prop55
280
     0
102
RTVSPost2010PropOp55
 70
     1
102
RTVSPost2010Prop56
140
1.0
102
RTVSPost2010PropOp56
 70
     1
102
RTVSPost2010Prop57
140
1.0
102
RTVSPost2010PropOp57
 70
     1
  0
XRECORD
  5
140
102
{ACAD_REACTORS
330
13F
102
}
330
13F
100
AcDbXrecord
280
     1
102
RTVSPost2010Prop28
280
     0
102
RTVSPost2010PropOp28
 70
     1
102
RTVSPost2010Prop29
280
     1
102
RTVSPost2010PropOp29
 70
     1
102
RTVSPost2010Prop30
280
     1
102
RTVSPost2010PropOp30
 70
     1
102
RTVSPost2010Prop31
280
     0
102
RTVSPost2010PropOp31
 70
     1
102
RTVSPost2010Prop32
280
     0
102
RTVSPost2010PropOp32
 70
     1
102
RTVSPost2010Prop33
280
     0
102
RTVSPost2010PropOp33
 70
     1
102
RTVSPost2010Prop34
280
     0
102
RTVSPost2010PropOp34
 70
     1
102
RTVSPost2010Prop35
280
     0
102
RTVSPost2010PropOp35
 70
     1
102
RTVSPost2010Prop36
280
     0
102
RTVSPost2010PropOp36
 70
     1
102
RTVSPost2010Prop37
 90
       50
102
RTVSPost2010PropOp37
 70
     1
102
RTVSPost2010Prop38
140
0.0
102
RTVSPost2010PropOp38
 70
     1
102
RTVSPost2010Prop39
140
1.0
102
RTVSPost2010PropOp39
 70
     1
102
RTVSPost2010Prop40
 90
        0
102
RTVSPost2010PropOp40
 70
     1
102
RTVSPost2010Prop41ColorIndex
 90
       18
102
RTVSPost2010Prop41ColorRGB
 90
        0
102
RTVSPost2010PropOp41
 70
     1
102
RTVSPost2010Prop42
 90
       50
102
RTVSPost2010PropOp42
 70
     1
102
RTVSPost2010Prop43
 90
        3
102
RTVSPost2010PropOp43
 70
     1
102
RTVSPost2010Prop44ColorIndex
 90
        5
102
RTVSPost2010Prop44ColorRGB
 90
      255
102
RTVSPost2010PropOp44
 70
     1
102
RTVSPost2010Prop45
280
     0
102
RTVSPost2010PropOp45
 70
     1
102
RTVSPost2010Prop46
 90
       50
102
RTVSPost2010PropOp46
 70
     1
102
RTVSPost2010Prop47
 90
       50
102
RTVSPost2010PropOp47
 70
     1
102
RTVSPost2010Prop48
 90
       50
102
RTVSPost2010PropOp48
 70
     1
102
RTVSPost2010Prop49
280
     0
102
RTVSPost2010PropOp49
 70
     1
102
RTVSPost2010Prop50
 90
       50
102
RTVSPost2010PropOp50
 70
     1
102
RTVSPost2010Prop51ColorIndex
 90
      256
102
RTVSPost2010Prop51ColorRGB
 90
-16777216
102
RTVSPost2010PropOp51
 70
     0
102
RTVSPost2010Prop52
140
1.0
102
RTVSPost2010PropOp52
 70
     0
102
RTVSPost2010Prop53
 90
        2
102
RTVSPost2010PropOp53
 70
     1
102
RTVSPost2010Prop54
  1
strokes_ogs.tif
102
RTVSPost2010PropOp54
 70
     1
102
RTVSPost2010Prop55
280
     0
102
RTVSPost2010PropOp55
 70
     1
102
RTVSPost2010Prop56
140
1.0
102
RTVSPost2010PropOp56
 70
     1
102
RTVSPost2010Prop57
140
1.0
102
RTVSPost2010PropOp57
 70
     1
  0
XRECORD
  5
134
102
{ACAD_REACTORS
330
133
102
}
330
133
100
AcDbXrecord
280
     1
102
RTVSPost2010Prop28
280
     0
102
RTVSPost2010PropOp28
 70
     1
102
RTVSPost2010Prop29
280
     1
102
RTVSPost2010PropOp29
 70
     1
102
RTVSPost2010Prop30
280
     1
102
RTVSPost2010PropOp30
 70
     1
102
RTVSPost2010Prop31
280
     0
102
RTVSPost2010PropOp31
 70
     1
102
RTVSPost2010Prop32
280
     0
102
RTVSPost2010PropOp32
 70
     1
102
RTVSPost2010Prop33
280
     0
102
RTVSPost2010PropOp33
 70
     1
102
RTVSPost2010Prop34
280
     0
102
RTVSPost2010PropOp34
 70
     1
102
RTVSPost2010Prop35
280
     0
102
RTVSPost2010PropOp35
 70
     1
102
RTVSPost2010Prop36
280
     0
102
RTVSPost2010PropOp36
 70
     1
102
RTVSPost2010Prop37
 90
       50
102
RTVSPost2010PropOp37
 70
     1
102
RTVSPost2010Prop38
140
0.0
102
RTVSPost2010PropOp38
 70
     1
102
RTVSPost2010Prop39
140
1.0
102
RTVSPost2010PropOp39
 70
     1
102
RTVSPost2010Prop40
 90
        0
102
RTVSPost2010PropOp40
 70
     1
102
RTVSPost2010Prop41ColorIndex
 90
       18
102
RTVSPost2010Prop41ColorRGB
 90
        0
102
RTVSPost2010PropOp41
 70
     1
102
RTVSPost2010Prop42
 90
       50
102
RTVSPost2010PropOp42
 70
     1
102
RTVSPost2010Prop43
 90
        3
102
RTVSPost2010PropOp43
 70
     1
102
RTVSPost2010Prop44ColorIndex
 90
        5
102
RTVSPost2010Prop44ColorRGB
 90
      255
102
RTVSPost2010PropOp44
 70
     1
102
RTVSPost2010Prop45
280
     0
102
RTVSPost2010PropOp45
 70
     1
102
RTVSPost2010Prop46
 90
       50
102
RTVSPost2010PropOp46
 70
     1
102
RTVSPost2010Prop47
 90
       50
102
RTVSPost2010PropOp47
 70
     1
102
RTVSPost2010Prop48
 90
       50
102
RTVSPost2010PropOp48
 70
     1
102
RTVSPost2010Prop49
280
     0
102
RTVSPost2010PropOp49
 70
     1
102
RTVSPost2010Prop50
 90
       50
102
RTVSPost2010PropOp50
 70
     1
102
RTVSPost2010Prop51ColorIndex
 90
      256
102
RTVSPost2010Prop51ColorRGB
 90
-16777216
102
RTVSPost2010PropOp51
 70
     0
102
RTVSPost2010Prop52
140
1.0
102
RTVSPost2010PropOp52
 70
     0
102
RTVSPost2010Prop53
 90
        2
102
RTVSPost2010PropOp53
 70
     1
102
RTVSPost2010Prop54
  1
strokes_ogs.tif
102
RTVSPost2010PropOp54
 70
     1
102
RTVSPost2010Prop55
280
     0
102
RTVSPost2010PropOp55
 70
     1
102
RTVSPost2010Prop56
140
1.0
102
RTVSPost2010PropOp56
 70
     1
102
RTVSPost2010Prop57
140
1.0
102
RTVSPost2010PropOp57
 70
     1
  0
XRECORD
  5
136
102
{ACAD_REACTORS
330
135
102
}
330
135
100
AcDbXrecord
280
     1
102
RTVSPost2010Prop28
280
     0
102
RTVSPost2010PropOp28
 70
     1
102
RTVSPost2010Prop29
280
     1
102
RTVSPost2010PropOp29
 70
     1
102
RTVSPost2010Prop30
280
     1
102
RTVSPost2010PropOp30
 70
     1
102
RTVSPost2010Prop31
280
     0
102
RTVSPost2010PropOp31
 70
     1
102
RTVSPost2010Prop32
280
     0
102
RTVSPost2010PropOp32
 70
     1
102
RTVSPost2010Prop33
280
     0
102
RTVSPost2010PropOp33
 70
     1
102
RTVSPost2010Prop34
280
     0
102
RTVSPost2010PropOp34
 70
     1
102
RTVSPost2010Prop35
280
     0
102
RTVSPost2010PropOp35
 70
     1
102
RTVSPost2010Prop36
280
     0
102
RTVSPost2010PropOp36
 70
     1
102
RTVSPost2010Prop37
 90
       50
102
RTVSPost2010PropOp37
 70
     1
102
RTVSPost2010Prop38
140
0.0
102
RTVSPost2010PropOp38
 70
     1
102
RTVSPost2010Prop39
140
1.0
102
RTVSPost2010PropOp39
 70
     1
102
RTVSPost2010Prop40
 90
        0
102
RTVSPost2010PropOp40
 70
     1
102
RTVSPost2010Prop41ColorIndex
 90
       18
102
RTVSPost2010Prop41ColorRGB
 90
        0
102
RTVSPost2010PropOp41
 70
     1
102
RTVSPost2010Prop42
 90
       50
102
RTVSPost2010PropOp42
 70
     1
102
RTVSPost2010Prop43
 90
        3
102
RTVSPost2010PropOp43
 70
     1
102
RTVSPost2010Prop44ColorIndex
 90
        5
102
RTVSPost2010Prop44ColorRGB
 90
      255
102
RTVSPost2010PropOp44
 70
     1
102
RTVSPost2010Prop45
280
     0
102
RTVSPost2010PropOp45
 70
     1
102
RTVSPost2010Prop46
 90
       50
102
RTVSPost2010PropOp46
 70
     1
102
RTVSPost2010Prop47
 90
       50
102
RTVSPost2010PropOp47
 70
     1
102
RTVSPost2010Prop48
 90
       50
102
RTVSPost2010PropOp48
 70
     1
102
RTVSPost2010Prop49
280
     0
102
RTVSPost2010PropOp49
 70
     1
102
RTVSPost2010Prop50
 90
       50
102
RTVSPost2010PropOp50
 70
     1
102
RTVSPost2010Prop51ColorIndex
 90
      256
102
RTVSPost2010Prop51ColorRGB
 90
-16777216
102
RTVSPost2010PropOp51
 70
     0
102
RTVSPost2010Prop52
140
1.0
102
RTVSPost2010PropOp52
 70
     0
102
RTVSPost2010Prop53
 90
        2
102
RTVSPost2010PropOp53
 70
     1
102
RTVSPost2010Prop54
  1
strokes_ogs.tif
102
RTVSPost2010PropOp54
 70
     1
102
RTVSPost2010Prop55
280
     0
102
RTVSPost2010PropOp55
 70
     1
102
RTVSPost2010Prop56
140
1.0
102
RTVSPost2010PropOp56
 70
     1
102
RTVSPost2010Prop57
140
1.0
102
RTVSPost2010PropOp57
 70
     1
  0
XRECORD
  5
146
102
{ACAD_REACTORS
330
145
102
}
330
145
100
AcDbXrecord
280
     1
102
RTVSPost2010Prop28
280
     0
102
RTVSPost2010PropOp28
 70
     0
102
RTVSPost2010Prop29
280
     1
102
RTVSPost2010PropOp29
 70
     0
102
RTVSPost2010Prop30
280
     1
102
RTVSPost2010PropOp30
 70
     0
102
RTVSPost2010Prop31
280
     0
102
RTVSPost2010PropOp31
 70
     0
102
RTVSPost2010Prop32
280
     0
102
RTVSPost2010PropOp32
 70
     0
102
RTVSPost2010Prop33
280
     0
102
RTVSPost2010PropOp33
 70
     0
102
RTVSPost2010Prop34
280
     0
102
RTVSPost2010PropOp34
 70
     0
102
RTVSPost2010Prop35
280
     0
102
RTVSPost2010PropOp35
 70
     0
102
RTVSPost2010Prop36
280
     0
102
RTVSPost2010PropOp36
 70
     0
102
RTVSPost2010Prop37
 90
       50
102
RTVSPost2010PropOp37
 70
     0
102
RTVSPost2010Prop38
140
0.0
102
RTVSPost2010PropOp38
 70
     0
102
RTVSPost2010Prop39
140
1.0
102
RTVSPost2010PropOp39
 70
     0
102
RTVSPost2010Prop40
 90
        0
102
RTVSPost2010PropOp40
 70
     0
102
RTVSPost2010Prop41ColorIndex
 90
       18
102
RTVSPost2010Prop41ColorRGB
 90
        0
102
RTVSPost2010PropOp41
 70
     0
102
RTVSPost2010Prop42
 90
       50
102
RTVSPost2010PropOp42
 70
     0
102
RTVSPost2010Prop43
 90
        3
102
RTVSPost2010PropOp43
 70
     0
102
RTVSPost2010Prop44ColorIndex
 90
        5
102
RTVSPost2010Prop44ColorRGB
 90
      255
102
RTVSPost2010PropOp44
 70
     0
102
RTVSPost2010Prop45
280
     0
102
RTVSPost2010PropOp45
 70
     0
102
RTVSPost2010Prop46
 90
       50
102
RTVSPost2010PropOp46
 70
     0
102
RTVSPost2010Prop47
 90
       50
102
RTVSPost2010PropOp47
 70
     0
102
RTVSPost2010Prop48
 90
       50
102
RTVSPost2010PropOp48
 70
     0
102
RTVSPost2010Prop49
280
     0
102
RTVSPost2010PropOp49
 70
     0
102
RTVSPost2010Prop50
 90
       50
102
RTVSPost2010PropOp50
 70
     0
102
RTVSPost2010Prop51ColorIndex
 90
      256
102
RTVSPost2010Prop51ColorRGB
 90
-16777216
102
RTVSPost2010PropOp51
 70
     0
102
RTVSPost2010Prop52
140
1.0
102
RTVSPost2010PropOp52
 70
     0
102
RTVSPost2010Prop53
 90
        2
102
RTVSPost2010PropOp53
 70
     0
102
RTVSPost2010Prop54
  1
strokes_ogs.tif
102
RTVSPost2010PropOp54
 70
     0
102
RTVSPost2010Prop55
280
     0
102
RTVSPost2010PropOp55
 70
     0
102
RTVSPost2010Prop56
140
1.0
102
RTVSPost2010PropOp56
 70
     0
102
RTVSPost2010Prop57
140
1.0
102
RTVSPost2010PropOp57
 70
     0
  0
XRECORD
  5
13E
102
{ACAD_REACTORS
330
13D
102
}
330
13D
100
AcDbXrecord
280
     1
102
RTVSPost2010Prop28
280
     0
102
RTVSPost2010PropOp28
 70
     1
102
RTVSPost2010Prop29
280
     1
102
RTVSPost2010PropOp29
 70
     1
102
RTVSPost2010Prop30
280
     1
102
RTVSPost2010PropOp30
 70
     1
102
RTVSPost2010Prop31
280
     0
102
RTVSPost2010PropOp31
 70
     1
102
RTVSPost2010Prop32
280
     0
102
RTVSPost2010PropOp32
 70
     1
102
RTVSPost2010Prop33
280
     0
102
RTVSPost2010PropOp33
 70
     1
102
RTVSPost2010Prop34
280
     0
102
RTVSPost2010PropOp34
 70
     1
102
RTVSPost2010Prop35
280
     0
102
RTVSPost2010PropOp35
 70
     1
102
RTVSPost2010Prop36
280
     0
102
RTVSPost2010PropOp36
 70
     1
102
RTVSPost2010Prop37
 90
       50
102
RTVSPost2010PropOp37
 70
     1
102
RTVSPost2010Prop38
140
0.0
102
RTVSPost2010PropOp38
 70
     1
102
RTVSPost2010Prop39
140
1.0
102
RTVSPost2010PropOp39
 70
     1
102
RTVSPost2010Prop40
 90
        0
102
RTVSPost2010PropOp40
 70
     1
102
RTVSPost2010Prop41ColorIndex
 90
       18
102
RTVSPost2010Prop41ColorRGB
 90
        0
102
RTVSPost2010PropOp41
 70
     1
102
RTVSPost2010Prop42
 90
       50
102
RTVSPost2010PropOp42
 70
     1
102
RTVSPost2010Prop43
 90
        3
102
RTVSPost2010PropOp43
 70
     1
102
RTVSPost2010Prop44ColorIndex
 90
        5
102
RTVSPost2010Prop44ColorRGB
 90
      255
102
RTVSPost2010PropOp44
 70
     1
102
RTVSPost2010Prop45
280
     0
102
RTVSPost2010PropOp45
 70
     1
102
RTVSPost2010Prop46
 90
       50
102
RTVSPost2010PropOp46
 70
     1
102
RTVSPost2010Prop47
 90
       50
102
RTVSPost2010PropOp47
 70
     1
102
RTVSPost2010Prop48
 90
       50
102
RTVSPost2010PropOp48
 70
     1
102
RTVSPost2010Prop49
280
     0
102
RTVSPost2010PropOp49
 70
     1
102
RTVSPost2010Prop50
 90
       50
102
RTVSPost2010PropOp50
 70
     1
102
RTVSPost2010Prop51ColorIndex
 90
      256
102
RTVSPost2010Prop51ColorRGB
 90
-16777216
102
RTVSPost2010PropOp51
 70
     0
102
RTVSPost2010Prop52
140
1.0
102
RTVSPost2010PropOp52
 70
     0
102
RTVSPost2010Prop53
 90
        2
102
RTVSPost2010PropOp53
 70
     1
102
RTVSPost2010Prop54
  1
strokes_ogs.tif
102
RTVSPost2010PropOp54
 70
     1
102
RTVSPost2010Prop55
280
     0
102
RTVSPost2010PropOp55
 70
     1
102
RTVSPost2010Prop56
140
1.0
102
RTVSPost2010PropOp56
 70
     1
102
RTVSPost2010Prop57
140
1.0
102
RTVSPost2010PropOp57
 70
     1
  0
XRECORD
  5
122
102
{ACAD_REACTORS
330
121
102
}
330
121
100
AcDbXrecord
280
     1
102
RTVSPost2010Prop28
280
     0
102
RTVSPost2010PropOp28
 70
     1
102
RTVSPost2010Prop29
280
     1
102
RTVSPost2010PropOp29
 70
     1
102
RTVSPost2010Prop30
280
     1
102
RTVSPost2010PropOp30
 70
     1
102
RTVSPost2010Prop31
280
     0
102
RTVSPost2010PropOp31
 70
     1
102
RTVSPost2010Prop32
280
     0
102
RTVSPost2010PropOp32
 70
     1
102
RTVSPost2010Prop33
280
     0
102
RTVSPost2010PropOp33
 70
     1
102
RTVSPost2010Prop34
280
     0
102
RTVSPost2010PropOp34
 70
     1
102
RTVSPost2010Prop35
280
     0
102
RTVSPost2010PropOp35
 70
     1
102
RTVSPost2010Prop36
280
     0
102
RTVSPost2010PropOp36
 70
     1
102
RTVSPost2010Prop37
 90
       50
102
RTVSPost2010PropOp37
 70
     1
102
RTVSPost2010Prop38
140
0.0
102
RTVSPost2010PropOp38
 70
     1
102
RTVSPost2010Prop39
140
1.0
102
RTVSPost2010PropOp39
 70
     1
102
RTVSPost2010Prop40
 90
        0
102
RTVSPost2010PropOp40
 70
     1
102
RTVSPost2010Prop41ColorIndex
 90
       18
102
RTVSPost2010Prop41ColorRGB
 90
        0
102
RTVSPost2010PropOp41
 70
     1
102
RTVSPost2010Prop42
 90
       50
102
RTVSPost2010PropOp42
 70
     1
102
RTVSPost2010Prop43
 90
        3
102
RTVSPost2010PropOp43
 70
     1
102
RTVSPost2010Prop44ColorIndex
 90
        5
102
RTVSPost2010Prop44ColorRGB
 90
      255
102
RTVSPost2010PropOp44
 70
     1
102
RTVSPost2010Prop45
280
     0
102
RTVSPost2010PropOp45
 70
     1
102
RTVSPost2010Prop46
 90
       50
102
RTVSPost2010PropOp46
 70
     1
102
RTVSPost2010Prop47
 90
       50
102
RTVSPost2010PropOp47
 70
     1
102
RTVSPost2010Prop48
 90
       50
102
RTVSPost2010PropOp48
 70
     1
102
RTVSPost2010Prop49
280
     0
102
RTVSPost2010PropOp49
 70
     1
102
RTVSPost2010Prop50
 90
       50
102
RTVSPost2010PropOp50
 70
     1
102
RTVSPost2010Prop51ColorIndex
 90
      256
102
RTVSPost2010Prop51ColorRGB
 90
-16777216
102
RTVSPost2010PropOp51
 70
     0
102
RTVSPost2010Prop52
140
1.0
102
RTVSPost2010PropOp52
 70
     0
102
RTVSPost2010Prop53
 90
        2
102
RTVSPost2010PropOp53
 70
     1
102
RTVSPost2010Prop54
  1
strokes_ogs.tif
102
RTVSPost2010PropOp54
 70
     1
102
RTVSPost2010Prop55
280
     0
102
RTVSPost2010PropOp55
 70
     1
102
RTVSPost2010Prop56
140
1.0
102
RTVSPost2010PropOp56
 70
     1
102
RTVSPost2010Prop57
140
1.0
102
RTVSPost2010PropOp57
 70
     1
  0
XRECORD
  5
124
102
{ACAD_REACTORS
330
123
102
}
330
123
100
AcDbXrecord
280
     1
102
RTVSPost2010Prop28
280
     0
102
RTVSPost2010PropOp28
 70
     1
102
RTVSPost2010Prop29
280
     1
102
RTVSPost2010PropOp29
 70
     1
102
RTVSPost2010Prop30
280
     1
102
RTVSPost2010PropOp30
 70
     1
102
RTVSPost2010Prop31
280
     0
102
RTVSPost2010PropOp31
 70
     1
102
RTVSPost2010Prop32
280
     0
102
RTVSPost2010PropOp32
 70
     1
102
RTVSPost2010Prop33
280
     0
102
RTVSPost2010PropOp33
 70
     1
102
RTVSPost2010Prop34
280
     0
102
RTVSPost2010PropOp34
 70
     1
102
RTVSPost2010Prop35
280
     0
102
RTVSPost2010PropOp35
 70
     1
102
RTVSPost2010Prop36
280
     0
102
RTVSPost2010PropOp36
 70
     1
102
RTVSPost2010Prop37
 90
       50
102
RTVSPost2010PropOp37
 70
     1
102
RTVSPost2010Prop38
140
0.0
102
RTVSPost2010PropOp38
 70
     1
102
RTVSPost2010Prop39
140
1.0
102
RTVSPost2010PropOp39
 70
     1
102
RTVSPost2010Prop40
 90
        0
102
RTVSPost2010PropOp40
 70
     1
102
RTVSPost2010Prop41ColorIndex
 90
       18
102
RTVSPost2010Prop41ColorRGB
 90
        0
102
RTVSPost2010PropOp41
 70
     1
102
RTVSPost2010Prop42
 90
       50
102
RTVSPost2010PropOp42
 70
     1
102
RTVSPost2010Prop43
 90
        3
102
RTVSPost2010PropOp43
 70
     1
102
RTVSPost2010Prop44ColorIndex
 90
        5
102
RTVSPost2010Prop44ColorRGB
 90
      255
102
RTVSPost2010PropOp44
 70
     1
102
RTVSPost2010Prop45
280
     0
102
RTVSPost2010PropOp45
 70
     1
102
RTVSPost2010Prop46
 90
       50
102
RTVSPost2010PropOp46
 70
     1
102
RTVSPost2010Prop47
 90
       50
102
RTVSPost2010PropOp47
 70
     1
102
RTVSPost2010Prop48
 90
       50
102
RTVSPost2010PropOp48
 70
     1
102
RTVSPost2010Prop49
280
     0
102
RTVSPost2010PropOp49
 70
     1
102
RTVSPost2010Prop50
 90
       50
102
RTVSPost2010PropOp50
 70
     1
102
RTVSPost2010Prop51ColorIndex
 90
      256
102
RTVSPost2010Prop51ColorRGB
 90
-16777216
102
RTVSPost2010PropOp51
 70
     0
102
RTVSPost2010Prop52
140
1.0
102
RTVSPost2010PropOp52
 70
     0
102
RTVSPost2010Prop53
 90
        2
102
RTVSPost2010PropOp53
 70
     1
102
RTVSPost2010Prop54
  1
strokes_ogs.tif
102
RTVSPost2010PropOp54
 70
     1
102
RTVSPost2010Prop55
280
     0
102
RTVSPost2010PropOp55
 70
     1
102
RTVSPost2010Prop56
140
1.0
102
RTVSPost2010PropOp56
 70
     1
102
RTVSPost2010Prop57
140
1.0
102
RTVSPost2010PropOp57
 70
     1
  0
XRECORD
  5
126
102
{ACAD_REACTORS
330
125
102
}
330
125
100
AcDbXrecord
280
     1
102
RTVSPost2010Prop28
280
     0
102
RTVSPost2010PropOp28
 70
     1
102
RTVSPost2010Prop29
280
     1
102
RTVSPost2010PropOp29
 70
     1
102
RTVSPost2010Prop30
280
     1
102
RTVSPost2010PropOp30
 70
     1
102
RTVSPost2010Prop31
280
     0
102
RTVSPost2010PropOp31
 70
     1
102
RTVSPost2010Prop32
280
     0
102
RTVSPost2010PropOp32
 70
     1
102
RTVSPost2010Prop33
280
     0
102
RTVSPost2010PropOp33
 70
     1
102
RTVSPost2010Prop34
280
     0
102
RTVSPost2010PropOp34
 70
     1
102
RTVSPost2010Prop35
280
     0
102
RTVSPost2010PropOp35
 70
     1
102
RTVSPost2010Prop36
280
     0
102
RTVSPost2010PropOp36
 70
     1
102
RTVSPost2010Prop37
 90
       50
102
RTVSPost2010PropOp37
 70
     1
102
RTVSPost2010Prop38
140
0.0
102
RTVSPost2010PropOp38
 70
     1
102
RTVSPost2010Prop39
140
1.0
102
RTVSPost2010PropOp39
 70
     1
102
RTVSPost2010Prop40
 90
        0
102
RTVSPost2010PropOp40
 70
     1
102
RTVSPost2010Prop41ColorIndex
 90
       18
102
RTVSPost2010Prop41ColorRGB
 90
        0
102
RTVSPost2010PropOp41
 70
     1
102
RTVSPost2010Prop42
 90
       50
102
RTVSPost2010PropOp42
 70
     1
102
RTVSPost2010Prop43
 90
        3
102
RTVSPost2010PropOp43
 70
     1
102
RTVSPost2010Prop44ColorIndex
 90
        5
102
RTVSPost2010Prop44ColorRGB
 90
      255
102
RTVSPost2010PropOp44
 70
     1
102
RTVSPost2010Prop45
280
     0
102
RTVSPost2010PropOp45
 70
     1
102
RTVSPost2010Prop46
 90
       50
102
RTVSPost2010PropOp46
 70
     1
102
RTVSPost2010Prop47
 90
       50
102
RTVSPost2010PropOp47
 70
     1
102
RTVSPost2010Prop48
 90
       50
102
RTVSPost2010PropOp48
 70
     1
102
RTVSPost2010Prop49
280
     0
102
RTVSPost2010PropOp49
 70
     1
102
RTVSPost2010Prop50
 90
       50
102
RTVSPost2010PropOp50
 70
     1
102
RTVSPost2010Prop51ColorIndex
 90
      256
102
RTVSPost2010Prop51ColorRGB
 90
-16777216
102
RTVSPost2010PropOp51
 70
     0
102
RTVSPost2010Prop52
140
1.0
102
RTVSPost2010PropOp52
 70
     0
102
RTVSPost2010Prop53
 90
        2
102
RTVSPost2010PropOp53
 70
     1
102
RTVSPost2010Prop54
  1
strokes_ogs.tif
102
RTVSPost2010PropOp54
 70
     1
102
RTVSPost2010Prop55
280
     0
102
RTVSPost2010PropOp55
 70
     1
102
RTVSPost2010Prop56
140
1.0
102
RTVSPost2010PropOp56
 70
     1
102
RTVSPost2010Prop57
140
1.0
102
RTVSPost2010PropOp57
 70
     1
  0
XRECORD
  5
128
102
{ACAD_REACTORS
330
127
102
}
330
127
100
AcDbXrecord
280
     1
102
RTVSPost2010Prop28
280
     0
102
RTVSPost2010PropOp28
 70
     1
102
RTVSPost2010Prop29
280
     1
102
RTVSPost2010PropOp29
 70
     1
102
RTVSPost2010Prop30
280
     1
102
RTVSPost2010PropOp30
 70
     1
102
RTVSPost2010Prop31
280
     0
102
RTVSPost2010PropOp31
 70
     1
102
RTVSPost2010Prop32
280
     0
102
RTVSPost2010PropOp32
 70
     1
102
RTVSPost2010Prop33
280
     0
102
RTVSPost2010PropOp33
 70
     1
102
RTVSPost2010Prop34
280
     0
102
RTVSPost2010PropOp34
 70
     1
102
RTVSPost2010Prop35
280
     0
102
RTVSPost2010PropOp35
 70
     1
102
RTVSPost2010Prop36
280
     0
102
RTVSPost2010PropOp36
 70
     1
102
RTVSPost2010Prop37
 90
       50
102
RTVSPost2010PropOp37
 70
     1
102
RTVSPost2010Prop38
140
0.0
102
RTVSPost2010PropOp38
 70
     1
102
RTVSPost2010Prop39
140
1.0
102
RTVSPost2010PropOp39
 70
     1
102
RTVSPost2010Prop40
 90
        0
102
RTVSPost2010PropOp40
 70
     1
102
RTVSPost2010Prop41ColorIndex
 90
       18
102
RTVSPost2010Prop41ColorRGB
 90
        0
102
RTVSPost2010PropOp41
 70
     1
102
RTVSPost2010Prop42
 90
       50
102
RTVSPost2010PropOp42
 70
     1
102
RTVSPost2010Prop43
 90
        3
102
RTVSPost2010PropOp43
 70
     1
102
RTVSPost2010Prop44ColorIndex
 90
        5
102
RTVSPost2010Prop44ColorRGB
 90
      255
102
RTVSPost2010PropOp44
 70
     1
102
RTVSPost2010Prop45
280
     0
102
RTVSPost2010PropOp45
 70
     1
102
RTVSPost2010Prop46
 90
       50
102
RTVSPost2010PropOp46
 70
     1
102
RTVSPost2010Prop47
 90
       50
102
RTVSPost2010PropOp47
 70
     1
102
RTVSPost2010Prop48
 90
       50
102
RTVSPost2010PropOp48
 70
     1
102
RTVSPost2010Prop49
280
     0
102
RTVSPost2010PropOp49
 70
     1
102
RTVSPost2010Prop50
 90
       50
102
RTVSPost2010PropOp50
 70
     1
102
RTVSPost2010Prop51ColorIndex
 90
      256
102
RTVSPost2010Prop51ColorRGB
 90
-16777216
102
RTVSPost2010PropOp51
 70
     0
102
RTVSPost2010Prop52
140
1.0
102
RTVSPost2010PropOp52
 70
     0
102
RTVSPost2010Prop53
 90
        2
102
RTVSPost2010PropOp53
 70
     1
102
RTVSPost2010Prop54
  1
strokes_ogs.tif
102
RTVSPost2010PropOp54
 70
     1
102
RTVSPost2010Prop55
280
     0
102
RTVSPost2010PropOp55
 70
     1
102
RTVSPost2010Prop56
140
1.0
102
RTVSPost2010PropOp56
 70
     1
102
RTVSPost2010Prop57
140
1.0
102
RTVSPost2010PropOp57
 70
     1
  0
XRECORD
  5
12E
102
{ACAD_REACTORS
330
12D
102
}
330
12D
100
AcDbXrecord
280
     1
102
RTVSPost2010Prop28
280
     0
102
RTVSPost2010PropOp28
 70
     1
102
RTVSPost2010Prop29
280
     1
102
RTVSPost2010PropOp29
 70
     1
102
RTVSPost2010Prop30
280
     1
102
RTVSPost2010PropOp30
 70
     1
102
RTVSPost2010Prop31
280
     0
102
RTVSPost2010PropOp31
 70
     1
102
RTVSPost2010Prop32
280
     0
102
RTVSPost2010PropOp32
 70
     1
102
RTVSPost2010Prop33
280
     0
102
RTVSPost2010PropOp33
 70
     1
102
RTVSPost2010Prop34
280
     0
102
RTVSPost2010PropOp34
 70
     1
102
RTVSPost2010Prop35
280
     0
102
RTVSPost2010PropOp35
 70
     1
102
RTVSPost2010Prop36
280
     0
102
RTVSPost2010PropOp36
 70
     1
102
RTVSPost2010Prop37
 90
       50
102
RTVSPost2010PropOp37
 70
     1
102
RTVSPost2010Prop38
140
0.0
102
RTVSPost2010PropOp38
 70
     1
102
RTVSPost2010Prop39
140
1.0
102
RTVSPost2010PropOp39
 70
     1
102
RTVSPost2010Prop40
 90
        0
102
RTVSPost2010PropOp40
 70
     1
102
RTVSPost2010Prop41ColorIndex
 90
       18
102
RTVSPost2010Prop41ColorRGB
 90
        0
102
RTVSPost2010PropOp41
 70
     1
102
RTVSPost2010Prop42
 90
       50
102
RTVSPost2010PropOp42
 70
     1
102
RTVSPost2010Prop43
 90
        3
102
RTVSPost2010PropOp43
 70
     1
102
RTVSPost2010Prop44ColorIndex
 90
        5
102
RTVSPost2010Prop44ColorRGB
 90
      255
102
RTVSPost2010PropOp44
 70
     1
102
RTVSPost2010Prop45
280
     0
102
RTVSPost2010PropOp45
 70
     1
102
RTVSPost2010Prop46
 90
       50
102
RTVSPost2010PropOp46
 70
     1
102
RTVSPost2010Prop47
 90
       50
102
RTVSPost2010PropOp47
 70
     1
102
RTVSPost2010Prop48
 90
       50
102
RTVSPost2010PropOp48
 70
     1
102
RTVSPost2010Prop49
280
     0
102
RTVSPost2010PropOp49
 70
     1
102
RTVSPost2010Prop50
 90
       50
102
RTVSPost2010PropOp50
 70
     1
102
RTVSPost2010Prop51ColorIndex
 90
      256
102
RTVSPost2010Prop51ColorRGB
 90
-16777216
102
RTVSPost2010PropOp51
 70
     0
102
RTVSPost2010Prop52
140
1.0
102
RTVSPost2010PropOp52
 70
     0
102
RTVSPost2010Prop53
 90
        2
102
RTVSPost2010PropOp53
 70
     1
102
RTVSPost2010Prop54
  1
strokes_ogs.tif
102
RTVSPost2010PropOp54
 70
     1
102
RTVSPost2010Prop55
280
     0
102
RTVSPost2010PropOp55
 70
     1
102
RTVSPost2010Prop56
140
1.0
102
RTVSPost2010PropOp56
 70
     1
102
RTVSPost2010Prop57
140
1.0
102
RTVSPost2010PropOp57
 70
     1
  0
XRECORD
  5
142
102
{ACAD_REACTORS
330
141
102
}
330
141
100
AcDbXrecord
280
     1
102
RTVSPost2010Prop28
280
     0
102
RTVSPost2010PropOp28
 70
     0
102
RTVSPost2010Prop29
280
     1
102
RTVSPost2010PropOp29
 70
     0
102
RTVSPost2010Prop30
280
     1
102
RTVSPost2010PropOp30
 70
     0
102
RTVSPost2010Prop31
280
     0
102
RTVSPost2010PropOp31
 70
     0
102
RTVSPost2010Prop32
280
     0
102
RTVSPost2010PropOp32
 70
     0
102
RTVSPost2010Prop33
280
     0
102
RTVSPost2010PropOp33
 70
     0
102
RTVSPost2010Prop34
280
     0
102
RTVSPost2010PropOp34
 70
     0
102
RTVSPost2010Prop35
280
     0
102
RTVSPost2010PropOp35
 70
     0
102
RTVSPost2010Prop36
280
     0
102
RTVSPost2010PropOp36
 70
     0
102
RTVSPost2010Prop37
 90
       50
102
RTVSPost2010PropOp37
 70
     0
102
RTVSPost2010Prop38
140
0.0
102
RTVSPost2010PropOp38
 70
     0
102
RTVSPost2010Prop39
140
1.0
102
RTVSPost2010PropOp39
 70
     0
102
RTVSPost2010Prop40
 90
        0
102
RTVSPost2010PropOp40
 70
     0
102
RTVSPost2010Prop41ColorIndex
 90
       18
102
RTVSPost2010Prop41ColorRGB
 90
        0
102
RTVSPost2010PropOp41
 70
     0
102
RTVSPost2010Prop42
 90
       50
102
RTVSPost2010PropOp42
 70
     0
102
RTVSPost2010Prop43
 90
        3
102
RTVSPost2010PropOp43
 70
     0
102
RTVSPost2010Prop44ColorIndex
 90
        5
102
RTVSPost2010Prop44ColorRGB
 90
      255
102
RTVSPost2010PropOp44
 70
     0
102
RTVSPost2010Prop45
280
     0
102
RTVSPost2010PropOp45
 70
     0
102
RTVSPost2010Prop46
 90
       50
102
RTVSPost2010PropOp46
 70
     0
102
RTVSPost2010Prop47
 90
       50
102
RTVSPost2010PropOp47
 70
     0
102
RTVSPost2010Prop48
 90
       50
102
RTVSPost2010PropOp48
 70
     0
102
RTVSPost2010Prop49
280
     0
102
RTVSPost2010PropOp49
 70
     0
102
RTVSPost2010Prop50
 90
       50
102
RTVSPost2010PropOp50
 70
     0
102
RTVSPost2010Prop51ColorIndex
 90
      256
102
RTVSPost2010Prop51ColorRGB
 90
-16777216
102
RTVSPost2010PropOp51
 70
     0
102
RTVSPost2010Prop52
140
1.0
102
RTVSPost2010PropOp52
 70
     0
102
RTVSPost2010Prop53
 90
        2
102
RTVSPost2010PropOp53
 70
     0
102
RTVSPost2010Prop54
  1
strokes_ogs.tif
102
RTVSPost2010PropOp54
 70
     0
102
RTVSPost2010Prop55
280
     0
102
RTVSPost2010PropOp55
 70
     0
102
RTVSPost2010Prop56
140
1.0
102
RTVSPost2010PropOp56
 70
     0
102
RTVSPost2010Prop57
140
1.0
102
RTVSPost2010PropOp57
 70
     0
  0
XRECORD
  5
13C
102
{ACAD_REACTORS
330
13B
102
}
330
13B
100
AcDbXrecord
280
     1
102
RTVSPost2010Prop28
280
     0
102
RTVSPost2010PropOp28
 70
     1
102
RTVSPost2010Prop29
280
     1
102
RTVSPost2010PropOp29
 70
     1
102
RTVSPost2010Prop30
280
     1
102
RTVSPost2010PropOp30
 70
     1
102
RTVSPost2010Prop31
280
     0
102
RTVSPost2010PropOp31
 70
     1
102
RTVSPost2010Prop32
280
     0
102
RTVSPost2010PropOp32
 70
     1
102
RTVSPost2010Prop33
280
     0
102
RTVSPost2010PropOp33
 70
     1
102
RTVSPost2010Prop34
280
     0
102
RTVSPost2010PropOp34
 70
     1
102
RTVSPost2010Prop35
280
     0
102
RTVSPost2010PropOp35
 70
     1
102
RTVSPost2010Prop36
280
     0
102
RTVSPost2010PropOp36
 70
     1
102
RTVSPost2010Prop37
 90
       50
102
RTVSPost2010PropOp37
 70
     1
102
RTVSPost2010Prop38
140
0.0
102
RTVSPost2010PropOp38
 70
     1
102
RTVSPost2010Prop39
140
1.0
102
RTVSPost2010PropOp39
 70
     1
102
RTVSPost2010Prop40
 90
        0
102
RTVSPost2010PropOp40
 70
     1
102
RTVSPost2010Prop41ColorIndex
 90
       18
102
RTVSPost2010Prop41ColorRGB
 90
        0
102
RTVSPost2010PropOp41
 70
     1
102
RTVSPost2010Prop42
 90
       50
102
RTVSPost2010PropOp42
 70
     1
102
RTVSPost2010Prop43
 90
        3
102
RTVSPost2010PropOp43
 70
     1
102
RTVSPost2010Prop44ColorIndex
 90
        5
102
RTVSPost2010Prop44ColorRGB
 90
      255
102
RTVSPost2010PropOp44
 70
     1
102
RTVSPost2010Prop45
280
     0
102
RTVSPost2010PropOp45
 70
     1
102
RTVSPost2010Prop46
 90
       50
102
RTVSPost2010PropOp46
 70
     1
102
RTVSPost2010Prop47
 90
       50
102
RTVSPost2010PropOp47
 70
     1
102
RTVSPost2010Prop48
 90
       50
102
RTVSPost2010PropOp48
 70
     1
102
RTVSPost2010Prop49
280
     0
102
RTVSPost2010PropOp49
 70
     1
102
RTVSPost2010Prop50
 90
       50
102
RTVSPost2010PropOp50
 70
     1
102
RTVSPost2010Prop51ColorIndex
 90
      256
102
RTVSPost2010Prop51ColorRGB
 90
-16777216
102
RTVSPost2010PropOp51
 70
     0
102
RTVSPost2010Prop52
140
1.0
102
RTVSPost2010PropOp52
 70
     0
102
RTVSPost2010Prop53
 90
        2
102
RTVSPost2010PropOp53
 70
     1
102
RTVSPost2010Prop54
  1
strokes_ogs.tif
102
RTVSPost2010PropOp54
 70
     1
102
RTVSPost2010Prop55
280
     0
102
RTVSPost2010PropOp55
 70
     1
102
RTVSPost2010Prop56
140
1.0
102
RTVSPost2010PropOp56
 70
     1
102
RTVSPost2010Prop57
140
1.0
102
RTVSPost2010PropOp57
 70
     1
  0
XRECORD
  5
144
102
{ACAD_REACTORS
330
143
102
}
330
143
100
AcDbXrecord
280
     1
102
RTVSPost2010Prop28
280
     0
102
RTVSPost2010PropOp28
 70
     0
102
RTVSPost2010Prop29
280
     1
102
RTVSPost2010PropOp29
 70
     0
102
RTVSPost2010Prop30
280
     1
102
RTVSPost2010PropOp30
 70
     0
102
RTVSPost2010Prop31
280
     0
102
RTVSPost2010PropOp31
 70
     0
102
RTVSPost2010Prop32
280
     0
102
RTVSPost2010PropOp32
 70
     0
102
RTVSPost2010Prop33
280
     0
102
RTVSPost2010PropOp33
 70
     0
102
RTVSPost2010Prop34
280
     0
102
RTVSPost2010PropOp34
 70
     0
102
RTVSPost2010Prop35
280
     0
102
RTVSPost2010PropOp35
 70
     0
102
RTVSPost2010Prop36
280
     0
102
RTVSPost2010PropOp36
 70
     0
102
RTVSPost2010Prop37
 90
       50
102
RTVSPost2010PropOp37
 70
     0
102
RTVSPost2010Prop38
140
0.0
102
RTVSPost2010PropOp38
 70
     0
102
RTVSPost2010Prop39
140
1.0
102
RTVSPost2010PropOp39
 70
     0
102
RTVSPost2010Prop40
 90
        0
102
RTVSPost2010PropOp40
 70
     0
102
RTVSPost2010Prop41ColorIndex
 90
       18
102
RTVSPost2010Prop41ColorRGB
 90
        0
102
RTVSPost2010PropOp41
 70
     0
102
RTVSPost2010Prop42
 90
       50
102
RTVSPost2010PropOp42
 70
     0
102
RTVSPost2010Prop43
 90
        3
102
RTVSPost2010PropOp43
 70
     0
102
RTVSPost2010Prop44ColorIndex
 90
        5
102
RTVSPost2010Prop44ColorRGB
 90
      255
102
RTVSPost2010PropOp44
 70
     0
102
RTVSPost2010Prop45
280
     0
102
RTVSPost2010PropOp45
 70
     0
102
RTVSPost2010Prop46
 90
       50
102
RTVSPost2010PropOp46
 70
     0
102
RTVSPost2010Prop47
 90
       50
102
RTVSPost2010PropOp47
 70
     0
102
RTVSPost2010Prop48
 90
       50
102
RTVSPost2010PropOp48
 70
     0
102
RTVSPost2010Prop49
280
     0
102
RTVSPost2010PropOp49
 70
     0
102
RTVSPost2010Prop50
 90
       50
102
RTVSPost2010PropOp50
 70
     0
102
RTVSPost2010Prop51ColorIndex
 90
      256
102
RTVSPost2010Prop51ColorRGB
 90
-16777216
102
RTVSPost2010PropOp51
 70
     0
102
RTVSPost2010Prop52
140
1.0
102
RTVSPost2010PropOp52
 70
     0
102
RTVSPost2010Prop53
 90
        2
102
RTVSPost2010PropOp53
 70
     0
102
RTVSPost2010Prop54
  1
strokes_ogs.tif
102
RTVSPost2010PropOp54
 70
     0
102
RTVSPost2010Prop55
280
     0
102
RTVSPost2010PropOp55
 70
     0
102
RTVSPost2010Prop56
140
1.0
102
RTVSPost2010PropOp56
 70
     0
102
RTVSPost2010Prop57
140
1.0
102
RTVSPost2010PropOp57
 70
     0
  0
XRECORD
  5
132
102
{ACAD_REACTORS
330
131
102
}
330
131
100
AcDbXrecord
280
     1
102
RTVSPost2010Prop28
280
     0
102
RTVSPost2010PropOp28
 70
     1
102
RTVSPost2010Prop29
280
     1
102
RTVSPost2010PropOp29
 70
     1
102
RTVSPost2010Prop30
280
     1
102
RTVSPost2010PropOp30
 70
     1
102
RTVSPost2010Prop31
280
     0
102
RTVSPost2010PropOp31
 70
     1
102
RTVSPost2010Prop32
280
     0
102
RTVSPost2010PropOp32
 70
     1
102
RTVSPost2010Prop33
280
     0
102
RTVSPost2010PropOp33
 70
     1
102
RTVSPost2010Prop34
280
     0
102
RTVSPost2010PropOp34
 70
     1
102
RTVSPost2010Prop35
280
     0
102
RTVSPost2010PropOp35
 70
     1
102
RTVSPost2010Prop36
280
     0
102
RTVSPost2010PropOp36
 70
     1
102
RTVSPost2010Prop37
 90
       50
102
RTVSPost2010PropOp37
 70
     1
102
RTVSPost2010Prop38
140
0.0
102
RTVSPost2010PropOp38
 70
     1
102
RTVSPost2010Prop39
140
1.0
102
RTVSPost2010PropOp39
 70
     1
102
RTVSPost2010Prop40
 90
        0
102
RTVSPost2010PropOp40
 70
     1
102
RTVSPost2010Prop41ColorIndex
 90
       18
102
RTVSPost2010Prop41ColorRGB
 90
        0
102
RTVSPost2010PropOp41
 70
     1
102
RTVSPost2010Prop42
 90
       50
102
RTVSPost2010PropOp42
 70
     1
102
RTVSPost2010Prop43
 90
        3
102
RTVSPost2010PropOp43
 70
     1
102
RTVSPost2010Prop44ColorIndex
 90
        5
102
RTVSPost2010Prop44ColorRGB
 90
      255
102
RTVSPost2010PropOp44
 70
     1
102
RTVSPost2010Prop45
280
     0
102
RTVSPost2010PropOp45
 70
     1
102
RTVSPost2010Prop46
 90
       50
102
RTVSPost2010PropOp46
 70
     1
102
RTVSPost2010Prop47
 90
       50
102
RTVSPost2010PropOp47
 70
     1
102
RTVSPost2010Prop48
 90
       50
102
RTVSPost2010PropOp48
 70
     1
102
RTVSPost2010Prop49
280
     0
102
RTVSPost2010PropOp49
 70
     1
102
RTVSPost2010Prop50
 90
       50
102
RTVSPost2010PropOp50
 70
     1
102
RTVSPost2010Prop51ColorIndex
 90
      256
102
RTVSPost2010Prop51ColorRGB
 90
-16777216
102
RTVSPost2010PropOp51
 70
     0
102
RTVSPost2010Prop52
140
1.0
102
RTVSPost2010PropOp52
 70
     0
102
RTVSPost2010Prop53
 90
        2
102
RTVSPost2010PropOp53
 70
     1
102
RTVSPost2010Prop54
  1
strokes_ogs.tif
102
RTVSPost2010PropOp54
 70
     1
102
RTVSPost2010Prop55
280
     0
102
RTVSPost2010PropOp55
 70
     1
102
RTVSPost2010Prop56
140
1.0
102
RTVSPost2010PropOp56
 70
     1
102
RTVSPost2010Prop57
140
1.0
102
RTVSPost2010PropOp57
 70
     1
  0
XRECORD
  5
150
102
{ACAD_REACTORS
330
14F
102
}
330
14F
100
AcDbXrecord
280
     1
102
RTVSPost2010Prop28
280
     0
102
RTVSPost2010PropOp28
 70
     1
102
RTVSPost2010Prop29
280
     1
102
RTVSPost2010PropOp29
 70
     1
102
RTVSPost2010Prop30
280
     1
102
RTVSPost2010PropOp30
 70
     1
102
RTVSPost2010Prop31
280
     0
102
RTVSPost2010PropOp31
 70
     1
102
RTVSPost2010Prop32
280
     0
102
RTVSPost2010PropOp32
 70
     1
102
RTVSPost2010Prop33
280
     0
102
RTVSPost2010PropOp33
 70
     1
102
RTVSPost2010Prop34
280
     0
102
RTVSPost2010PropOp34
 70
     1
102
RTVSPost2010Prop35
280
     0
102
RTVSPost2010PropOp35
 70
     1
102
RTVSPost2010Prop36
280
     0
102
RTVSPost2010PropOp36
 70
     1
102
RTVSPost2010Prop37
 90
       50
102
RTVSPost2010PropOp37
 70
     1
102
RTVSPost2010Prop38
140
0.0
102
RTVSPost2010PropOp38
 70
     1
102
RTVSPost2010Prop39
140
1.0
102
RTVSPost2010PropOp39
 70
     1
102
RTVSPost2010Prop40
 90
        0
102
RTVSPost2010PropOp40
 70
     1
102
RTVSPost2010Prop41ColorIndex
 90
       18
102
RTVSPost2010Prop41ColorRGB
 90
        0
102
RTVSPost2010PropOp41
 70
     1
102
RTVSPost2010Prop42
 90
       50
102
RTVSPost2010PropOp42
 70
     1
102
RTVSPost2010Prop43
 90
        3
102
RTVSPost2010PropOp43
 70
     1
102
RTVSPost2010Prop44ColorIndex
 90
        5
102
RTVSPost2010Prop44ColorRGB
 90
      255
102
RTVSPost2010PropOp44
 70
     1
102
RTVSPost2010Prop45
280
     0
102
RTVSPost2010PropOp45
 70
     1
102
RTVSPost2010Prop46
 90
       50
102
RTVSPost2010PropOp46
 70
     1
102
RTVSPost2010Prop47
 90
       50
102
RTVSPost2010PropOp47
 70
     1
102
RTVSPost2010Prop48
 90
       50
102
RTVSPost2010PropOp48
 70
     1
102
RTVSPost2010Prop49
280
     0
102
RTVSPost2010PropOp49
 70
     1
102
RTVSPost2010Prop50
 90
       50
102
RTVSPost2010PropOp50
 70
     1
102
RTVSPost2010Prop51ColorIndex
 90
      256
102
RTVSPost2010Prop51ColorRGB
 90
-16777216
102
RTVSPost2010PropOp51
 70
     0
102
RTVSPost2010Prop52
140
1.0
102
RTVSPost2010PropOp52
 70
     0
102
RTVSPost2010Prop53
 90
        2
102
RTVSPost2010PropOp53
 70
     1
102
RTVSPost2010Prop54
  1
strokes_ogs.tif
102
RTVSPost2010PropOp54
 70
     1
102
RTVSPost2010Prop55
280
     0
102
RTVSPost2010PropOp55
 70
     1
102
RTVSPost2010Prop56
140
1.0
102
RTVSPost2010PropOp56
 70
     1
102
RTVSPost2010Prop57
140
1.0
102
RTVSPost2010PropOp57
 70
     1
  0
XRECORD
  5
14E
102
{ACAD_REACTORS
330
14D
102
}
330
14D
100
AcDbXrecord
280
     1
102
RTVSPost2010Prop28
280
     0
102
RTVSPost2010PropOp28
 70
     1
102
RTVSPost2010Prop29
280
     1
102
RTVSPost2010PropOp29
 70
     1
102
RTVSPost2010Prop30
280
     1
102
RTVSPost2010PropOp30
 70
     1
102
RTVSPost2010Prop31
280
     0
102
RTVSPost2010PropOp31
 70
     1
102
RTVSPost2010Prop32
280
     0
102
RTVSPost2010PropOp32
 70
     1
102
RTVSPost2010Prop33
280
     0
102
RTVSPost2010PropOp33
 70
     1
102
RTVSPost2010Prop34
280
     0
102
RTVSPost2010PropOp34
 70
     1
102
RTVSPost2010Prop35
280
     0
102
RTVSPost2010PropOp35
 70
     1
102
RTVSPost2010Prop36
280
     0
102
RTVSPost2010PropOp36
 70
     1
102
RTVSPost2010Prop37
 90
       50
102
RTVSPost2010PropOp37
 70
     1
102
RTVSPost2010Prop38
140
0.0
102
RTVSPost2010PropOp38
 70
     1
102
RTVSPost2010Prop39
140
1.0
102
RTVSPost2010PropOp39
 70
     1
102
RTVSPost2010Prop40
 90
        0
102
RTVSPost2010PropOp40
 70
     1
102
RTVSPost2010Prop41ColorIndex
 90
       18
102
RTVSPost2010Prop41ColorRGB
 90
        0
102
RTVSPost2010PropOp41
 70
     1
102
RTVSPost2010Prop42
 90
       50
102
RTVSPost2010PropOp42
 70
     1
102
RTVSPost2010Prop43
 90
        3
102
RTVSPost2010PropOp43
 70
     1
102
RTVSPost2010Prop44ColorIndex
 90
        5
102
RTVSPost2010Prop44ColorRGB
 90
      255
102
RTVSPost2010PropOp44
 70
     1
102
RTVSPost2010Prop45
280
     0
102
RTVSPost2010PropOp45
 70
     1
102
RTVSPost2010Prop46
 90
       50
102
RTVSPost2010PropOp46
 70
     1
102
RTVSPost2010Prop47
 90
       50
102
RTVSPost2010PropOp47
 70
     1
102
RTVSPost2010Prop48
 90
       50
102
RTVSPost2010PropOp48
 70
     1
102
RTVSPost2010Prop49
280
     0
102
RTVSPost2010PropOp49
 70
     1
102
RTVSPost2010Prop50
 90
       50
102
RTVSPost2010PropOp50
 70
     1
102
RTVSPost2010Prop51ColorIndex
 90
      256
102
RTVSPost2010Prop51ColorRGB
 90
-16777216
102
RTVSPost2010PropOp51
 70
     0
102
RTVSPost2010Prop52
140
1.0
102
RTVSPost2010PropOp52
 70
     0
102
RTVSPost2010Prop53
 90
        2
102
RTVSPost2010PropOp53
 70
     1
102
RTVSPost2010Prop54
  1
strokes_ogs.tif
102
RTVSPost2010PropOp54
 70
     1
102
RTVSPost2010Prop55
280
     0
102
RTVSPost2010PropOp55
 70
     1
102
RTVSPost2010Prop56
140
1.0
102
RTVSPost2010PropOp56
 70
     1
102
RTVSPost2010Prop57
140
1.0
102
RTVSPost2010PropOp57
 70
     1
  0
XRECORD
  5
148
102
{ACAD_REACTORS
330
147
102
}
330
147
100
AcDbXrecord
280
     1
102
RTVSPost2010Prop28
280
     0
102
RTVSPost2010PropOp28
 70
     1
102
RTVSPost2010Prop29
280
     1
102
RTVSPost2010PropOp29
 70
     1
102
RTVSPost2010Prop30
280
     1
102
RTVSPost2010PropOp30
 70
     1
102
RTVSPost2010Prop31
280
     0
102
RTVSPost2010PropOp31
 70
     1
102
RTVSPost2010Prop32
280
     0
102
RTVSPost2010PropOp32
 70
     1
102
RTVSPost2010Prop33
280
     0
102
RTVSPost2010PropOp33
 70
     1
102
RTVSPost2010Prop34
280
     0
102
RTVSPost2010PropOp34
 70
     1
102
RTVSPost2010Prop35
280
     0
102
RTVSPost2010PropOp35
 70
     1
102
RTVSPost2010Prop36
280
     0
102
RTVSPost2010PropOp36
 70
     1
102
RTVSPost2010Prop37
 90
       50
102
RTVSPost2010PropOp37
 70
     1
102
RTVSPost2010Prop38
140
0.0
102
RTVSPost2010PropOp38
 70
     1
102
RTVSPost2010Prop39
140
1.0
102
RTVSPost2010PropOp39
 70
     1
102
RTVSPost2010Prop40
 90
        0
102
RTVSPost2010PropOp40
 70
     1
102
RTVSPost2010Prop41ColorIndex
 90
       18
102
RTVSPost2010Prop41ColorRGB
 90
        0
102
RTVSPost2010PropOp41
 70
     1
102
RTVSPost2010Prop42
 90
       50
102
RTVSPost2010PropOp42
 70
     1
102
RTVSPost2010Prop43
 90
        3
102
RTVSPost2010PropOp43
 70
     1
102
RTVSPost2010Prop44ColorIndex
 90
        5
102
RTVSPost2010Prop44ColorRGB
 90
      255
102
RTVSPost2010PropOp44
 70
     1
102
RTVSPost2010Prop45
280
     0
102
RTVSPost2010PropOp45
 70
     1
102
RTVSPost2010Prop46
 90
       50
102
RTVSPost2010PropOp46
 70
     1
102
RTVSPost2010Prop47
 90
       50
102
RTVSPost2010PropOp47
 70
     1
102
RTVSPost2010Prop48
 90
       50
102
RTVSPost2010PropOp48
 70
     1
102
RTVSPost2010Prop49
280
     0
102
RTVSPost2010PropOp49
 70
     1
102
RTVSPost2010Prop50
 90
       50
102
RTVSPost2010PropOp50
 70
     1
102
RTVSPost2010Prop51ColorIndex
 90
      256
102
RTVSPost2010Prop51ColorRGB
 90
-16777216
102
RTVSPost2010PropOp51
 70
     0
102
RTVSPost2010Prop52
140
1.0
102
RTVSPost2010PropOp52
 70
     0
102
RTVSPost2010Prop53
 90
        2
102
RTVSPost2010PropOp53
 70
     1
102
RTVSPost2010Prop54
  1
strokes_ogs.tif
102
RTVSPost2010PropOp54
 70
     1
102
RTVSPost2010Prop55
280
     0
102
RTVSPost2010PropOp55
 70
     1
102
RTVSPost2010Prop56
140
1.0
102
RTVSPost2010PropOp56
 70
     1
102
RTVSPost2010Prop57
140
1.0
102
RTVSPost2010PropOp57
 70
     1
  0
XRECORD
  5
14A
102
{ACAD_REACTORS
330
149
102
}
330
149
100
AcDbXrecord
280
     1
102
RTVSPost2010Prop28
280
     0
102
RTVSPost2010PropOp28
 70
     1
102
RTVSPost2010Prop29
280
     1
102
RTVSPost2010PropOp29
 70
     1
102
RTVSPost2010Prop30
280
     1
102
RTVSPost2010PropOp30
 70
     1
102
RTVSPost2010Prop31
280
     0
102
RTVSPost2010PropOp31
 70
     1
102
RTVSPost2010Prop32
280
     0
102
RTVSPost2010PropOp32
 70
     1
102
RTVSPost2010Prop33
280
     0
102
RTVSPost2010PropOp33
 70
     1
102
RTVSPost2010Prop34
280
     0
102
RTVSPost2010PropOp34
 70
     1
102
RTVSPost2010Prop35
280
     0
102
RTVSPost2010PropOp35
 70
     1
102
RTVSPost2010Prop36
280
     0
102
RTVSPost2010PropOp36
 70
     1
102
RTVSPost2010Prop37
 90
       50
102
RTVSPost2010PropOp37
 70
     1
102
RTVSPost2010Prop38
140
0.0
102
RTVSPost2010PropOp38
 70
     1
102
RTVSPost2010Prop39
140
1.0
102
RTVSPost2010PropOp39
 70
     1
102
RTVSPost2010Prop40
 90
        0
102
RTVSPost2010PropOp40
 70
     1
102
RTVSPost2010Prop41ColorIndex
 90
       18
102
RTVSPost2010Prop41ColorRGB
 90
        0
102
RTVSPost2010PropOp41
 70
     1
102
RTVSPost2010Prop42
 90
       50
102
RTVSPost2010PropOp42
 70
     1
102
RTVSPost2010Prop43
 90
        3
102
RTVSPost2010PropOp43
 70
     1
102
RTVSPost2010Prop44ColorIndex
 90
        5
102
RTVSPost2010Prop44ColorRGB
 90
      255
102
RTVSPost2010PropOp44
 70
     1
102
RTVSPost2010Prop45
280
     0
102
RTVSPost2010PropOp45
 70
     1
102
RTVSPost2010Prop46
 90
       50
102
RTVSPost2010PropOp46
 70
     1
102
RTVSPost2010Prop47
 90
       50
102
RTVSPost2010PropOp47
 70
     1
102
RTVSPost2010Prop48
 90
       50
102
RTVSPost2010PropOp48
 70
     1
102
RTVSPost2010Prop49
280
     0
102
RTVSPost2010PropOp49
 70
     1
102
RTVSPost2010Prop50
 90
       50
102
RTVSPost2010PropOp50
 70
     1
102
RTVSPost2010Prop51ColorIndex
 90
      256
102
RTVSPost2010Prop51ColorRGB
 90
-16777216
102
RTVSPost2010PropOp51
 70
     0
102
RTVSPost2010Prop52
140
1.0
102
RTVSPost2010PropOp52
 70
     0
102
RTVSPost2010Prop53
 90
        2
102
RTVSPost2010PropOp53
 70
     1
102
RTVSPost2010Prop54
  1
strokes_ogs.tif
102
RTVSPost2010PropOp54
 70
     1
102
RTVSPost2010Prop55
280
     0
102
RTVSPost2010PropOp55
 70
     1
102
RTVSPost2010Prop56
140
1.0
102
RTVSPost2010PropOp56
 70
     1
102
RTVSPost2010Prop57
140
1.0
102
RTVSPost2010PropOp57
 70
     1
  0
XRECORD
  5
13A
102
{ACAD_REACTORS
330
139
102
}
330
139
100
AcDbXrecord
280
     1
102
RTVSPost2010Prop28
280
     0
102
RTVSPost2010PropOp28
 70
     1
102
RTVSPost2010Prop29
280
     1
102
RTVSPost2010PropOp29
 70
     1
102
RTVSPost2010Prop30
280
     1
102
RTVSPost2010PropOp30
 70
     1
102
RTVSPost2010Prop31
280
     0
102
RTVSPost2010PropOp31
 70
     1
102
RTVSPost2010Prop32
280
     0
102
RTVSPost2010PropOp32
 70
     1
102
RTVSPost2010Prop33
280
     0
102
RTVSPost2010PropOp33
 70
     1
102
RTVSPost2010Prop34
280
     0
102
RTVSPost2010PropOp34
 70
     1
102
RTVSPost2010Prop35
280
     0
102
RTVSPost2010PropOp35
 70
     1
102
RTVSPost2010Prop36
280
     0
102
RTVSPost2010PropOp36
 70
     1
102
RTVSPost2010Prop37
 90
       50
102
RTVSPost2010PropOp37
 70
     1
102
RTVSPost2010Prop38
140
0.0
102
RTVSPost2010PropOp38
 70
     1
102
RTVSPost2010Prop39
140
1.0
102
RTVSPost2010PropOp39
 70
     1
102
RTVSPost2010Prop40
 90
        0
102
RTVSPost2010PropOp40
 70
     1
102
RTVSPost2010Prop41ColorIndex
 90
       18
102
RTVSPost2010Prop41ColorRGB
 90
        0
102
RTVSPost2010PropOp41
 70
     1
102
RTVSPost2010Prop42
 90
       50
102
RTVSPost2010PropOp42
 70
     1
102
RTVSPost2010Prop43
 90
        3
102
RTVSPost2010PropOp43
 70
     1
102
RTVSPost2010Prop44ColorIndex
 90
        5
102
RTVSPost2010Prop44ColorRGB
 90
      255
102
RTVSPost2010PropOp44
 70
     1
102
RTVSPost2010Prop45
280
     0
102
RTVSPost2010PropOp45
 70
     1
102
RTVSPost2010Prop46
 90
       50
102
RTVSPost2010PropOp46
 70
     1
102
RTVSPost2010Prop47
 90
       50
102
RTVSPost2010PropOp47
 70
     1
102
RTVSPost2010Prop48
 90
       50
102
RTVSPost2010PropOp48
 70
     1
102
RTVSPost2010Prop49
280
     0
102
RTVSPost2010PropOp49
 70
     1
102
RTVSPost2010Prop50
 90
       50
102
RTVSPost2010PropOp50
 70
     1
102
RTVSPost2010Prop51ColorIndex
 90
      256
102
RTVSPost2010Prop51ColorRGB
 90
-16777216
102
RTVSPost2010PropOp51
 70
     0
102
RTVSPost2010Prop52
140
1.0
102
RTVSPost2010PropOp52
 70
     0
102
RTVSPost2010Prop53
 90
        2
102
RTVSPost2010PropOp53
 70
     1
102
RTVSPost2010Prop54
  1
strokes_ogs.tif
102
RTVSPost2010PropOp54
 70
     1
102
RTVSPost2010Prop55
280
     0
102
RTVSPost2010PropOp55
 70
     1
102
RTVSPost2010Prop56
140
1.0
102
RTVSPost2010PropOp56
 70
     1
102
RTVSPost2010Prop57
140
1.0
102
RTVSPost2010PropOp57
 70
     1
  0
XRECORD
  5
12C
102
{ACAD_REACTORS
330
12B
102
}
330
12B
100
AcDbXrecord
280
     1
102
RTVSPost2010Prop28
280
     0
102
RTVSPost2010PropOp28
 70
     1
102
RTVSPost2010Prop29
280
     1
102
RTVSPost2010PropOp29
 70
     1
102
RTVSPost2010Prop30
280
     1
102
RTVSPost2010PropOp30
 70
     1
102
RTVSPost2010Prop31
280
     0
102
RTVSPost2010PropOp31
 70
     1
102
RTVSPost2010Prop32
280
     0
102
RTVSPost2010PropOp32
 70
     1
102
RTVSPost2010Prop33
280
     0
102
RTVSPost2010PropOp33
 70
     1
102
RTVSPost2010Prop34
280
     0
102
RTVSPost2010PropOp34
 70
     1
102
RTVSPost2010Prop35
280
     0
102
RTVSPost2010PropOp35
 70
     1
102
RTVSPost2010Prop36
280
     0
102
RTVSPost2010PropOp36
 70
     1
102
RTVSPost2010Prop37
 90
       50
102
RTVSPost2010PropOp37
 70
     1
102
RTVSPost2010Prop38
140
0.0
102
RTVSPost2010PropOp38
 70
     1
102
RTVSPost2010Prop39
140
1.0
102
RTVSPost2010PropOp39
 70
     1
102
RTVSPost2010Prop40
 90
        0
102
RTVSPost2010PropOp40
 70
     1
102
RTVSPost2010Prop41ColorIndex
 90
       18
102
RTVSPost2010Prop41ColorRGB
 90
        0
102
RTVSPost2010PropOp41
 70
     1
102
RTVSPost2010Prop42
 90
       50
102
RTVSPost2010PropOp42
 70
     1
102
RTVSPost2010Prop43
 90
        3
102
RTVSPost2010PropOp43
 70
     1
102
RTVSPost2010Prop44ColorIndex
 90
        5
102
RTVSPost2010Prop44ColorRGB
 90
      255
102
RTVSPost2010PropOp44
 70
     1
102
RTVSPost2010Prop45
280
     0
102
RTVSPost2010PropOp45
 70
     1
102
RTVSPost2010Prop46
 90
       50
102
RTVSPost2010PropOp46
 70
     1
102
RTVSPost2010Prop47
 90
       50
102
RTVSPost2010PropOp47
 70
     1
102
RTVSPost2010Prop48
 90
       50
102
RTVSPost2010PropOp48
 70
     1
102
RTVSPost2010Prop49
280
     0
102
RTVSPost2010PropOp49
 70
     1
102
RTVSPost2010Prop50
 90
       50
102
RTVSPost2010PropOp50
 70
     1
102
RTVSPost2010Prop51ColorIndex
 90
      256
102
RTVSPost2010Prop51ColorRGB
 90
-16777216
102
RTVSPost2010PropOp51
 70
     0
102
RTVSPost2010Prop52
140
1.0
102
RTVSPost2010PropOp52
 70
     0
102
RTVSPost2010Prop53
 90
        2
102
RTVSPost2010PropOp53
 70
     1
102
RTVSPost2010Prop54
  1
strokes_ogs.tif
102
RTVSPost2010PropOp54
 70
     1
102
RTVSPost2010Prop55
280
     0
102
RTVSPost2010PropOp55
 70
     1
102
RTVSPost2010Prop56
140
1.0
102
RTVSPost2010PropOp56
 70
     1
102
RTVSPost2010Prop57
140
1.0
102
RTVSPost2010PropOp57
 70
     1
  0
XRECORD
  5
14C
102
{ACAD_REACTORS
330
14B
102
}
330
14B
100
AcDbXrecord
280
     1
102
RTVSPost2010Prop28
280
     0
102
RTVSPost2010PropOp28
 70
     1
102
RTVSPost2010Prop29
280
     1
102
RTVSPost2010PropOp29
 70
     1
102
RTVSPost2010Prop30
280
     1
102
RTVSPost2010PropOp30
 70
     1
102
RTVSPost2010Prop31
280
     0
102
RTVSPost2010PropOp31
 70
     1
102
RTVSPost2010Prop32
280
     0
102
RTVSPost2010PropOp32
 70
     1
102
RTVSPost2010Prop33
280
     0
102
RTVSPost2010PropOp33
 70
     1
102
RTVSPost2010Prop34
280
     0
102
RTVSPost2010PropOp34
 70
     1
102
RTVSPost2010Prop35
280
     0
102
RTVSPost2010PropOp35
 70
     1
102
RTVSPost2010Prop36
280
     0
102
RTVSPost2010PropOp36
 70
     1
102
RTVSPost2010Prop37
 90
       50
102
RTVSPost2010PropOp37
 70
     1
102
RTVSPost2010Prop38
140
0.0
102
RTVSPost2010PropOp38
 70
     1
102
RTVSPost2010Prop39
140
1.0
102
RTVSPost2010PropOp39
 70
     1
102
RTVSPost2010Prop40
 90
        0
102
RTVSPost2010PropOp40
 70
     1
102
RTVSPost2010Prop41ColorIndex
 90
       18
102
RTVSPost2010Prop41ColorRGB
 90
        0
102
RTVSPost2010PropOp41
 70
     1
102
RTVSPost2010Prop42
 90
       50
102
RTVSPost2010PropOp42
 70
     1
102
RTVSPost2010Prop43
 90
        3
102
RTVSPost2010PropOp43
 70
     1
102
RTVSPost2010Prop44ColorIndex
 90
        5
102
RTVSPost2010Prop44ColorRGB
 90
      255
102
RTVSPost2010PropOp44
 70
     1
102
RTVSPost2010Prop45
280
     0
102
RTVSPost2010PropOp45
 70
     1
102
RTVSPost2010Prop46
 90
       50
102
RTVSPost2010PropOp46
 70
     1
102
RTVSPost2010Prop47
 90
       50
102
RTVSPost2010PropOp47
 70
     1
102
RTVSPost2010Prop48
 90
       50
102
RTVSPost2010PropOp48
 70
     1
102
RTVSPost2010Prop49
280
     0
102
RTVSPost2010PropOp49
 70
     1
102
RTVSPost2010Prop50
 90
       50
102
RTVSPost2010PropOp50
 70
     1
102
RTVSPost2010Prop51ColorIndex
 90
      256
102
RTVSPost2010Prop51ColorRGB
 90
-16777216
102
RTVSPost2010PropOp51
 70
     0
102
RTVSPost2010Prop52
140
1.0
102
RTVSPost2010PropOp52
 70
     0
102
RTVSPost2010Prop53
 90
        2
102
RTVSPost2010PropOp53
 70
     1
102
RTVSPost2010Prop54
  1
strokes_ogs.tif
102
RTVSPost2010PropOp54
 70
     1
102
RTVSPost2010Prop55
280
     0
102
RTVSPost2010PropOp55
 70
     1
102
RTVSPost2010Prop56
140
1.0
102
RTVSPost2010PropOp56
 70
     1
102
RTVSPost2010Prop57
140
1.0
102
RTVSPost2010PropOp57
 70
     1
  0
ENDSEC
  0
EOF
