  0
SECTION
  2
HEADER
  9
$ACADVER
  1
AC1024
  9
$ACADMAINTVER
 70
   182
  9
$DWGCODEPAGE
  3
ANSI_1252
  9
$LASTSAVEDBY
  1
gf659
  9
$INSBASE
 10
0.0
 20
0.0
 30
0.0
  9
$EXTMIN
 10
0.0
 20
-17.974777060097
 30
0.0
  9
$EXTMAX
 10
419.9998589409721
 20
298.7101047092013
 30
0.0
  9
$LIMMIN
 10
0.0
 20
0.0
  9
$LIMMAX
 10
419.9998589409721
 20
298.7101047092013
  9
$ORTHOMODE
 70
     0
  9
$REGENMODE
 70
     1
  9
$FILLMODE
 70
     1
  9
$QTEXTMODE
 70
     0
  9
$MIRRTEXT
 70
     1
  9
$LTSCALE
 40
1.0
  9
$ATTMODE
 70
     1
  9
$TEXTSIZE
 40
0.0
  9
$TRACEWID
 40
0.05
  9
$TEXTSTYLE
  7
Standard
  9
$CLAYER
  8
0
  9
$CELTYPE
  6
Continuous
  9
$CECOLOR
 62
   256
  9
$CELTSCALE
 40
1.0
  9
$DISPSILH
 70
     0
  9
$DIMSCALE
 40
1.0
  9
$DIMASZ
 40
0.18
  9
$DIMEXO
 40
0.0625
  9
$DIMDLI
 40
0.38
  9
$DIMRND
 40
0.0
  9
$DIMDLE
 40
0.0
  9
$DIMEXE
 40
0.18
  9
$DIMTP
 40
0.0
  9
$DIMTM
 40
0.0
  9
$DIMTXT
 40
0.18
  9
$DIMCEN
 40
0.09
  9
$DIMTSZ
 40
0.0
  9
$DIMTOL
 70
     0
  9
$DIMLIM
 70
     0
  9
$DIMTIH
 70
     1
  9
$DIMTOH
 70
     1
  9
$DIMSE1
 70
     0
  9
$DIMSE2
 70
     0
  9
$DIMTAD
 70
     0
  9
$DIMZIN
 70
     0
  9
$DIMBLK
  1

  9
$DIMASO
 70
     1
  9
$DIMSHO
 70
     1
  9
$DIMPOST
  1

  9
$DIMAPOST
  1

  9
$DIMALT
 70
     0
  9
$DIMALTD
 70
     2
  9
$DIMALTF
 40
25.4
  9
$DIMLFAC
 40
1.0
  9
$DIMTOFL
 70
     0
  9
$DIMTVP
 40
0.0
  9
$DIMTIX
 70
     0
  9
$DIMSOXD
 70
     0
  9
$DIMSAH
 70
     0
  9
$DIMBLK1
  1

  9
$DIMBLK2
  1

  9
$DIMSTYLE
  2
Standard
  9
$DIMCLRD
 70
     0
  9
$DIMCLRE
 70
     0
  9
$DIMCLRT
 70
     0
  9
$DIMTFAC
 40
1.0
  9
$DIMGAP
 40
0.09
  9
$DIMJUST
 70
     0
  9
$DIMSD1
 70
     0
  9
$DIMSD2
 70
     0
  9
$DIMTOLJ
 70
     1
  9
$DIMTZIN
 70
     0
  9
$DIMALTZ
 70
     0
  9
$DIMALTTZ
 70
     0
  9
$DIMUPT
 70
     0
  9
$DIMDEC
 70
     4
  9
$DIMTDEC
 70
     4
  9
$DIMALTU
 70
     2
  9
$DIMALTTD
 70
     2
  9
$DIMTXSTY
  7
Standard
  9
$DIMAUNIT
 70
     0
  9
$DIMADEC
 70
     0
  9
$DIMALTRND
 40
0.0
  9
$DIMAZIN
 70
     0
  9
$DIMDSEP
 70
     0
  9
$DIMATFIT
 70
     3
  9
$DIMFRAC
 70
     0
  9
$DIMLDRBLK
  1

  9
$DIMLUNIT
 70
     2
  9
$DIMLWD
 70
     0
  9
$DIMLWE
 70
     0
  9
$DIMTMOVE
 70
     0
  9
$DIMFXL
 40
1.0
  9
$DIMFXLON
 70
     0
  9
$DIMJOGANG
 40
0.7853981633974483
  9
$DIMTFILL
 70
     0
  9
$DIMTFILLCLR
 70
     0
  9
$DIMARCSYM
 70
     0
  9
$DIMLTYPE
  6

  9
$DIMLTEX1
  6

  9
$DIMLTEX2
  6

  9
$DIMTXTDIRECTION
 70
     0
  9
$LUNITS
 70
     2
  9
$LUPREC
 70
     4
  9
$SKETCHINC
 40
0.1
  9
$FILLETRAD
 40
0.0
  9
$AUNITS
 70
     0
  9
$AUPREC
 70
     0
  9
$MENU
  1
acad
  9
$ELEVATION
 40
0.0
  9
$PELEVATION
 40
0.0
  9
$THICKNESS
 40
0.0
  9
$LIMCHECK
 70
     0
  9
$CHAMFERA
 40
0.0
  9
$CHAMFERB
 40
0.0
  9
$CHAMFERC
 40
0.0
  9
$CHAMFERD
 40
0.0
  9
$SKPOLY
 70
     0
  9
$TDCREATE
 40
2457267.507009584
  9
$TDUCREATE
 40
2457267.465342916
  9
$TDUPDATE
 40
2457267.508864028
  9
$TDUUPDATE
 40
2457267.467197361
  9
$TDINDWG
 40
0.0018919444
  9
$TDUSRTIMER
 40
0.0018919444
  9
$USRTIMER
 70
     1
  9
$ANGBASE
 50
0.0
  9
$ANGDIR
 70
     0
  9
$PDMODE
 70
     0
  9
$PDSIZE
 40
0.0
  9
$PLINEWID
 40
0.0
  9
$SPLFRAME
 70
     0
  9
$SPLINETYPE
 70
     6
  9
$SPLINESEGS
 70
     8
  9
$HANDSEED
  5
396
  9
$SURFTAB1
 70
     6
  9
$SURFTAB2
 70
     6
  9
$SURFTYPE
 70
     6
  9
$SURFU
 70
     6
  9
$SURFV
 70
     6
  9
$UCSBASE
  2

  9
$UCSNAME
  2

  9
$UCSORG
 10
0.0
 20
0.0
 30
0.0
  9
$UCSXDIR
 10
1.0
 20
0.0
 30
0.0
  9
$UCSYDIR
 10
0.0
 20
1.0
 30
0.0
  9
$UCSORTHOREF
  2

  9
$UCSORTHOVIEW
 70
     0
  9
$UCSORGTOP
 10
0.0
 20
0.0
 30
0.0
  9
$UCSORGBOTTOM
 10
0.0
 20
0.0
 30
0.0
  9
$UCSORGLEFT
 10
0.0
 20
0.0
 30
0.0
  9
$UCSORGRIGHT
 10
0.0
 20
0.0
 30
0.0
  9
$UCSORGFRONT
 10
0.0
 20
0.0
 30
0.0
  9
$UCSORGBACK
 10
0.0
 20
0.0
 30
0.0
  9
$PUCSBASE
  2

  9
$PUCSNAME
  2

  9
$PUCSORG
 10
0.0
 20
0.0
 30
0.0
  9
$PUCSXDIR
 10
1.0
 20
0.0
 30
0.0
  9
$PUCSYDIR
 10
0.0
 20
1.0
 30
0.0
  9
$PUCSORTHOREF
  2

  9
$PUCSORTHOVIEW
 70
     0
  9
$PUCSORGTOP
 10
0.0
 20
0.0
 30
0.0
  9
$PUCSORGBOTTOM
 10
0.0
 20
0.0
 30
0.0
  9
$PUCSORGLEFT
 10
0.0
 20
0.0
 30
0.0
  9
$PUCSORGRIGHT
 10
0.0
 20
0.0
 30
0.0
  9
$PUCSORGFRONT
 10
0.0
 20
0.0
 30
0.0
  9
$PUCSORGBACK
 10
0.0
 20
0.0
 30
0.0
  9
$USERI1
 70
     0
  9
$USERI2
 70
     0
  9
$USERI3
 70
     0
  9
$USERI4
 70
     0
  9
$USERI5
 70
     0
  9
$USERR1
 40
0.0
  9
$USERR2
 40
0.0
  9
$USERR3
 40
0.0
  9
$USERR4
 40
0.0
  9
$USERR5
 40
0.0
  9
$WORLDVIEW
 70
     1
  9
$SHADEDGE
 70
     3
  9
$SHADEDIF
 70
    70
  9
$TILEMODE
 70
     0
  9
$MAXACTVP
 70
    16
  9
$PINSBASE
 10
0.0
 20
0.0
 30
0.0
  9
$PLIMCHECK
 70
     0
  9
$PEXTMIN
 10
29.06818420886992
 20
20.36233246326446
 30
0.0
  9
$PEXTMAX
 10
261.6136578798294
 20
183.2609921693802
 30
0.0
  9
$PLIMMIN
 10
-3.17498779296875
 20
-3.174999952316284
  9
$PLIMMAX
 10
293.8568420410156
 20
206.7983276844024
  9
$UNITMODE
 70
     0
  9
$VISRETAIN
 70
     0
  9
$PLINEGEN
 70
     1
  9
$PSLTSCALE
 70
     0
  9
$TREEDEPTH
 70
  3020
  9
$CMLSTYLE
  2
Standard
  9
$CMLJUST
 70
     0
  9
$CMLSCALE
 40
1.0
  9
$PROXYGRAPHICS
 70
     0
  9
$MEASUREMENT
 70
     1
  9
$CELWEIGHT
370
     0
  9
$ENDCAPS
280
     0
  9
$JOINSTYLE
280
     0
  9
$LWDISPLAY
290
     0
  9
$INSUNITS
 70
     0
  9
$HYPERLINKBASE
  1

  9
$STYLESHEET
  1

  9
$XEDIT
290
     1
  9
$CEPSNTYPE
380
     0
  9
$PSTYLEMODE
290
     1
  9
$FINGERPRINTGUID
  2

  9
$VERSIONGUID
  2
{B1EAC269-C149-4EFA-9ECD-8231D97A4D04}
  9
$EXTNAMES
290
     1
  9
$PSVPSCALE
 40
0.0
  9
$OLESTARTUP
290
     0
  9
$SORTENTS
280
   127
  9
$INDEXCTL
280
     0
  9
$HIDETEXT
280
     0
  9
$XCLIPFRAME
280
     2
  9
$HALOGAP
280
     0
  9
$OBSCOLOR
 70
   257
  9
$OBSLTYPE
280
     0
  9
$INTERSECTIONDISPLAY
280
     0
  9
$INTERSECTIONCOLOR
 70
   257
  9
$DIMASSOC
280
     1
  9
$PROJECTNAME
  1

  9
$CAMERADISPLAY
290
     0
  9
$LENSLENGTH
 40
50.0
  9
$CAMERAHEIGHT
 40
0.0
  9
$STEPSPERSEC
 40
2.0
  9
$STEPSIZE
 40
6.0
  9
$3DDWFPREC
 40
2.0
  9
$PSOLWIDTH
 40
0.25
  9
$PSOLHEIGHT
 40
4.0
  9
$LOFTANG1
 40
1.570796326794896
  9
$LOFTANG2
 40
1.570796326794896
  9
$LOFTMAG1
 40
0.0
  9
$LOFTMAG2
 40
0.0
  9
$LOFTPARAM
 70
     7
  9
$LOFTNORMALS
280
     1
  9
$LATITUDE
 40
37.795
  9
$LONGITUDE
 40
-122.394
  9
$NORTHDIRECTION
 40
0.0
  9
$TIMEZONE
 70
 -8000
  9
$LIGHTGLYPHDISPLAY
280
     1
  9
$TILEMODELIGHTSYNCH
280
     1
  9
$CMATERIAL
347
2D2
  9
$SOLIDHIST
280
     0
  9
$SHOWHIST
280
     1
  9
$DWFFRAME
280
     2
  9
$DGNFRAME
280
     0
  9
$REALWORLDSCALE
290
     1
  9
$INTERFERECOLOR
 62
     1
  9
$INTERFEREOBJVS
345
2F4
  9
$INTERFEREVPVS
346
2F1
  9
$CSHADOW
280
     0
  9
$SHADOWPLANELOCATION
 40
0.0
  0
ENDSEC
  0
SECTION
  2
CLASSES
  0
CLASS
  1
IMAGE
  2
AcDbRasterImage
  3
ISM
 90
     2175
 91
        3
280
     0
281
     1
  0
CLASS
  1
DICTIONARYVAR
  2
AcDbDictionaryVar
  3
ObjectDBX Classes
 90
        0
 91
       18
280
     0
281
     0
  0
CLASS
  1
RASTERVARIABLES
  2
AcDbRasterVariables
  3
ISM
 90
        0
 91
        1
280
     0
281
     0
  0
CLASS
  1
IMAGEDEF
  2
AcDbRasterImageDef
  3
ISM
 90
        0
 91
        3
280
     0
281
     0
  0
CLASS
  1
IMAGEDEF_REACTOR
  2
AcDbRasterImageDefReactor
  3
ISM
 90
        1
 91
        3
280
     0
281
     0
  0
CLASS
  1
IDBUFFER
  2
AcDbIdBuffer
  3
ObjectDBX Classes
 90
        0
 91
        0
280
     0
281
     0
  0
CLASS
  1
SPATIAL_FILTER
  2
AcDbSpatialFilter
  3
ObjectDBX Classes
 90
        0
 91
        0
280
     0
281
     0
  0
CLASS
  1
SORTENTSTABLE
  2
AcDbSortentsTable
  3
ObjectDBX Classes
 90
        0
 91
        0
280
     0
281
     0
  0
CLASS
  1
LAYER_INDEX
  2
AcDbLayerIndex
  3
ObjectDBX Classes
 90
        0
 91
        0
280
     0
281
     0
  0
CLASS
  1
SPATIAL_INDEX
  2
AcDbSpatialIndex
  3
ObjectDBX Classes
 90
        0
 91
        0
280
     0
281
     0
  0
CLASS
  1
OBJECT_PTR
  2
CAseDLPNTableRecord
  3
"ASE-LPNTableRecord"
 90
        1
 91
        0
280
     0
281
     0
  0
CLASS
  1
PLOTSETTINGS
  2
AcDbPlotSettings
  3
ObjectDBX Classes
 90
        0
 91
        0
280
     0
281
     0
  0
CLASS
  1
ACDBDICTIONARYWDFLT
  2
AcDbDictionaryWithDefault
  3
ObjectDBX Classes
 90
        0
 91
        1
280
     0
281
     0
  0
CLASS
  1
WIPEOUT
  2
AcDbWipeout
  3
WipeOut|Product Desc: Object Enabler for WipeOut entity | Company: Autodesk, Inc. | WEB Address: www.autodesk.com
 90
     2175
 91
        0
280
     0
281
     1
  0
CLASS
  1
WIPEOUTVARIABLES
  2
AcDbWipeoutVariables
  3
"WipeOut|Product Desc:     WipeOut Dbx Application|Company:          Autodesk, Inc.|WEB Address:      www.autodesk.com"
 90
        0
 91
        1
280
     0
281
     0
  0
CLASS
  1
RTEXT
  2
RText
  3
RText|AutoCAD Express Tool|expresstools@autodesk.com
 90
        0
 91
        0
280
     0
281
     1
  0
CLASS
  1
ARCALIGNEDTEXT
  2
AcDbArcAlignedText
  3
ATEXT|AutoCAD Express Tool|expresstools@autodesk.com
 90
        0
 91
        0
280
     0
281
     1
  0
CLASS
  1
MATERIAL
  2
AcDbMaterial
  3
ObjectDBX Classes
 90
     1153
 91
        3
280
     0
281
     0
  0
CLASS
  1
VISUALSTYLE
  2
AcDbVisualStyle
  3
ObjectDBX Classes
 90
     4095
 91
       24
280
     0
281
     0
  0
CLASS
  1
TABLESTYLE
  2
AcDbTableStyle
  3
ObjectDBX Classes
 90
     4095
 91
        1
280
     0
281
     0
  0
CLASS
  1
SCALE
  2
AcDbScale
  3
ObjectDBX Classes
 90
     1153
 91
       17
280
     0
281
     0
  0
CLASS
  1
MLEADERSTYLE
  2
AcDbMLeaderStyle
  3
ACDB_MLEADERSTYLE_CLASS
 90
     4095
 91
        1
280
     0
281
     0
  0
CLASS
  1
ACDBSECTIONVIEWSTYLE
  2
AcDbSectionViewStyle
  3
ObjectDBX Classes
 90
     1025
 91
        1
280
     0
281
     0
  0
CLASS
  1
ACDBDETAILVIEWSTYLE
  2
AcDbDetailViewStyle
  3
ObjectDBX Classes
 90
     1025
 91
        1
280
     0
281
     0
  0
CLASS
  1
CELLSTYLEMAP
  2
AcDbCellStyleMap
  3
ObjectDBX Classes
 90
     1152
 91
        1
280
     0
281
     0
  0
ENDSEC
  0
SECTION
  2
TABLES
  0
TABLE
  2
VPORT
  5
7
330
0
100
AcDbSymbolTable
 70
     1
  0
VPORT
  5
15
330
7
100
AcDbSymbolTableRecord
100
AcDbViewportTableRecord
  2
*ACTIVE
 70
     0
 10
0.0
 20
0.0
 11
1.0
 21
1.0
 12
-369.7298276109585
 22
-181.886375394866
 13
0.0
 23
0.0
 14
1.0
 24
1.0
 15
0.0
 25
0.0
 16
0.0
 26
0.0
 36
1.0
 17
0.0
 27
0.0
 37
0.0
 40
600.8711721936305
 41
1.762633996937212
 42
50.0
 43
0.0
 44
0.0
 50
0.0
 51
0.0
 71
     0
 72
   100
 73
     1
 74
     1
 75
     0
 76
     0
 77
     0
 78
     0
281
     0
 65
     0
110
0.0
120
0.0
130
0.0
111
1.0
121
0.0
131
0.0
112
0.0
122
1.0
132
0.0
 79
     0
146
0.0
348
2F0
 60
     3
 61
     5
292
     1
282
     1
141
0.0
142
0.0
 63
   250
421
  3355443
1001
ACAD_NAV_VCDISPLAY
1070
     3
  0
ENDTAB
  0
TABLE
  2
LTYPE
  5
4
330
0
100
AcDbSymbolTable
 70
     3
  0
LTYPE
  5
11
330
4
100
AcDbSymbolTableRecord
100
AcDbLinetypeTableRecord
  2
ByBlock
 70
     0
  3

 72
    65
 73
     0
 40
0.0
  0
LTYPE
  5
12
330
4
100
AcDbSymbolTableRecord
100
AcDbLinetypeTableRecord
  2
ByLayer
 70
     0
  3

 72
    65
 73
     0
 40
0.0
  0
LTYPE
  5
13
330
4
100
AcDbSymbolTableRecord
100
AcDbLinetypeTableRecord
  2
Continuous
 70
     0
  3
Solid line
 72
    65
 73
     0
 40
0.0
  0
LTYPE
  5
22B
330
4
100
AcDbSymbolTableRecord
100
AcDbLinetypeTableRecord
  2
AI9-LType1
 70
     0
  3
Illustrator Dash Style No.1
 72
    65
 73
     4
 40
3.880555555555555
 49
1.058333333333333
 74
     0
 49
-1.058333333333333
 74
     0
 49
1.058333333333333
 74
     0
 49
-0.7055555555555556
 74
     0
  0
LTYPE
  5
233
330
4
100
AcDbSymbolTableRecord
100
AcDbLinetypeTableRecord
  2
AI9-LType2
 70
     0
  3
Illustrator Dash Style No.2
 72
    65
 73
     4
 40
3.174999999999999
 49
0.3527777777777778
 74
     0
 49
-0.7055555555555556
 74
     0
 49
1.41111111111111
 74
     0
 49
-0.7055555555555556
 74
     0
  0
ENDTAB
  0
TABLE
  2
LAYER
  5
2
102
{ACAD_XDICTIONARY
360
327
102
}
330
0
100
AcDbSymbolTable
 70
     2
  0
LAYER
  5
14
102
{ACAD_XDICTIONARY
360
338
102
}
330
2
100
AcDbSymbolTableRecord
100
AcDbLayerTableRecord
  2
0
 70
     0
 62
     7
  6
Continuous
370
    -3
390
1D
347
2E2
  0
LAYER
  5
28
102
{ACAD_XDICTIONARY
360
33A
102
}
330
2
100
AcDbSymbolTableRecord
100
AcDbLayerTableRecord
  2
LAYER_1
 70
     0
 62
   160
  6
Continuous
370
    -3
390
1D
347
2E2
  0
ENDTAB
  0
TABLE
  2
STYLE
  5
3
330
0
100
AcDbSymbolTable
 70
     5
  0
STYLE
  5
17
330
3
100
AcDbSymbolTableRecord
100
AcDbTextStyleTableRecord
  2
Standard
 70
     0
 40
0.0
 41
1.0
 50
0.0
 71
     0
 42
0.0
  3
txt
  4

  0
STYLE
  5
24
330
3
100
AcDbSymbolTableRecord
100
AcDbTextStyleTableRecord
  2
STD
 70
     0
 40
0.0
 41
1.0
 50
0.0
 71
     0
 42
0.0
  3
txt
  4

  0
STYLE
  5
25
330
3
100
AcDbSymbolTableRecord
100
AcDbTextStyleTableRecord
  2
TATESTD
 70
     4
 40
0.0
 41
1.0
 50
0.0
 71
     0
 42
0.0
  3
txt
  4

  0
STYLE
  5
26
330
3
100
AcDbSymbolTableRecord
100
AcDbTextStyleTableRecord
  2
KANJISTD
 70
     0
 40
0.0
 41
1.0
 50
0.0
 71
     0
 42
0.0
  3
txt
  4
extfont
  0
STYLE
  5
27
330
3
100
AcDbSymbolTableRecord
100
AcDbTextStyleTableRecord
  2
KANJITATE
 70
     4
 40
0.0
 41
1.0
 50
0.0
 71
     0
 42
0.0
  3
txt
  4
extfont
  0
ENDTAB
  0
TABLE
  2
VIEW
  5
5
330
0
100
AcDbSymbolTable
 70
     1
  0
ENDTAB
  0
TABLE
  2
UCS
  5
6
330
0
100
AcDbSymbolTable
 70
     0
  0
ENDTAB
  0
TABLE
  2
APPID
  5
8
330
0
100
AcDbSymbolTable
 70
     3
  0
APPID
  5
16
330
8
100
AcDbSymbolTableRecord
100
AcDbRegAppTableRecord
  2
ACAD
 70
     0
  0
APPID
  5
32D
330
8
100
AcDbSymbolTableRecord
100
AcDbRegAppTableRecord
  2
ACAD_NAV_VCDISPLAY
 70
     0
  0
APPID
  5
333
330
8
100
AcDbSymbolTableRecord
100
AcDbRegAppTableRecord
  2
ACAD_PSEXT
 70
     0
  0
ENDTAB
  0
TABLE
  2
DIMSTYLE
  5
9
330
0
100
AcDbSymbolTable
 70
     1
100
AcDbDimStyleTable
 71
     0
  0
DIMSTYLE
105
18
330
9
100
AcDbSymbolTableRecord
100
AcDbDimStyleTableRecord
  2
Standard
 70
     0
289
     0
340
17
  0
ENDTAB
  0
TABLE
  2
BLOCK_RECORD
  5
1
330
0
100
AcDbSymbolTable
 70
     3
  0
BLOCK_RECORD
  5
A
330
1
100
AcDbSymbolTableRecord
100
AcDbBlockTableRecord
  2
*MODEL_SPACE
340
20
 70
     0
280
     1
281
     0
  0
BLOCK_RECORD
  5
B
330
1
100
AcDbSymbolTableRecord
100
AcDbBlockTableRecord
  2
*PAPER_SPACE
340
21
 70
     0
280
     1
281
     0
  0
BLOCK_RECORD
  5
37
330
1
100
AcDbSymbolTableRecord
100
AcDbBlockTableRecord
  2
AI9-BLK1
340
0
102
{BLKREFS
331
38
102
}
 70
     0
280
     1
281
     0
  0
BLOCK_RECORD
  5
3E
330
1
100
AcDbSymbolTableRecord
100
AcDbBlockTableRecord
  2
AI9-BLK2
340
0
102
{BLKREFS
331
3F
102
}
 70
     0
280
     1
281
     0
  0
BLOCK_RECORD
  5
29E
330
1
100
AcDbSymbolTableRecord
100
AcDbBlockTableRecord
  2
AI9-BLK3
340
0
102
{BLKREFS
331
29F
102
}
 70
     0
280
     1
281
     0
  0
ENDTAB
  0
ENDSEC
  0
SECTION
  2
BLOCKS
  0
BLOCK
  5
D
330
A
100
AcDbEntity
  8
0
100
AcDbBlockBegin
  2
*MODEL_SPACE
 70
     0
 10
0.0
 20
0.0
 30
0.0
  3
*MODEL_SPACE
  1

  0
ENDBLK
  5
E
330
A
100
AcDbEntity
  8
0
100
AcDbBlockEnd
  0
BLOCK
  5
F
330
B
100
AcDbEntity
 67
     1
  8
0
100
AcDbBlockBegin
  2
*PAPER_SPACE
 70
     0
 10
0.0
 20
0.0
 30
0.0
  3
*PAPER_SPACE
  1

  0
ENDBLK
  5
10
330
B
100
AcDbEntity
 67
     1
  8
0
100
AcDbBlockEnd
  0
BLOCK
  5
39
330
37
100
AcDbEntity
  8
LAYER_1
 62
     7
100
AcDbBlockBegin
  2
AI9-BLK1
 70
     0
 10
0.0
 20
0.0
 30
0.0
  3
AI9-BLK1
  1

  0
IMAGE
  5
3A
330
37
100
AcDbEntity
  8
LAYER_1
 62
     7
160
               296
310
2801000003000000940000002400000066666666E29B4FC0B0055B94E9B447C0000000000000008000000000000000000000000000000000000000000000F03F000000000000F03F000000000000000000000000000000000000000000000000000000000000F03F0000000000000000410063004400620052006100730074
310
006500720049006D0061006700650020002800490053004D002900000084000000060000000500000066666666E29B4FC0B0055B94E9B447C00000000000000080EEEEEEE6DD9B4F40B0055B94E9B447C00000000000000080EEEEEEE6DD9B4F40F8A44FFAE6B44740000000000000008066666666E29B4FC0F8A44FFAE6B4
310
4740000000000000008066666666E29B4FC0B0055B94E9B447C000000000000000800800000015000000
100
AcDbRasterImage
 90
        0
 10
-63.21784667968749
 20
-47.4133782810635
 30
0.0
 11
0.0493888890991608
 21
0.0
 31
0.0
 12
0.0
 22
0.0493888943559594
 32
0.0
 13
2560.0
 23
1920.0
340
3C
 70
     7
280
     0
281
    50
282
    50
283
     0
290
     0
360
3B
 71
     1
 91
        2
 14
-0.5
 24
-0.5
 14
2559.5
 24
1919.5
  0
ENDBLK
  5
3D
330
37
100
AcDbEntity
  8
LAYER_1
100
AcDbBlockEnd
  0
BLOCK
  5
40
330
3E
100
AcDbEntity
  8
LAYER_1
 62
     7
100
AcDbBlockBegin
  2
AI9-BLK2
 70
     0
 10
0.0
 20
0.0
 30
0.0
  3
AI9-BLK2
  1

  0
IMAGE
  5
41
330
3E
100
AcDbEntity
  8
LAYER_1
 62
     7
160
               296
310
28010000030000009400000024000000933EE993DF9B4FC0B0055B94E9B447C0000000000000008000000000000000000000000000000000000000000000F03F000000000000F03F000000000000000000000000000000000000000000000000000000000000F03F0000000000000000410063004400620052006100730074
310
006500720049006D0061006700650020002800490053004D0029000000840000000600000005000000933EE993DF9B4FC0B0055B94E9B447C00000000000000080C1166CB9E09B4F40B0055B94E9B447C00000000000000080C1166CB9E09B4F40F8A44FFAE6B447400000000000000080933EE993DF9B4FC0F8A44FFAE6B4
310
47400000000000000080933EE993DF9B4FC0B0055B94E9B447C000000000000000800800000015000000
100
AcDbRasterImage
 90
        0
 10
-63.21776055230034
 20
-47.4133782810635
 30
0.0
 11
0.0493888890991608
 21
0.0
 31
0.0
 12
0.0
 22
0.0493888943559594
 32
0.0
 13
2560.0
 23
1920.0
340
43
 70
     7
280
     0
281
    50
282
    50
283
     0
290
     0
360
42
 71
     1
 91
        2
 14
-0.5
 24
-0.5
 14
2559.5
 24
1919.5
  0
ENDBLK
  5
44
330
3E
100
AcDbEntity
  8
LAYER_1
100
AcDbBlockEnd
  0
BLOCK
  5
2A0
330
29E
100
AcDbEntity
  8
LAYER_1
 62
     7
100
AcDbBlockBegin
  2
AI9-BLK3
 70
     0
 10
0.0
 20
0.0
 30
0.0
  3
AI9-BLK3
  1

  0
IMAGE
  5
2A1
330
29E
100
AcDbEntity
  8
LAYER_1
 62
     7
160
               296
310
28010000030000009400000024000000666666660E1926C07DD297FCEFF527C0000000000000008000000000000000000000000000000000000000000000F03F000000000000F03F000000000000000000000000000000000000000000000000000000000000F03F0000000000000000410063004400620052006100730074
310
006500720049006D0061006700650020002800490053004D0029000000840000000600000005000000666666660E1926C07DD297FCEFF527C00000000000000080CCCC5C971E1926407DD297FCEFF527C00000000000000080CCCC5C971E192640711CC771ECF527400000000000000080666666660E1926C0711CC771ECF5
310
27400000000000000080666666660E1926C07DD297FCEFF527C000000000000000800800000015000000
100
AcDbRasterImage
 90
        0
 10
-11.04893798828125
 20
-11.98034657815264
 30
0.0
 11
0.0423333323871096
 21
0.0
 31
0.0
 12
0.0
 22
0.0423333323871096
 32
0.0
 13
522.0
 23
566.0
340
2A3
 70
     7
280
     0
281
    50
282
    50
283
     0
290
     0
360
2A2
 71
     1
 91
        2
 14
-0.5
 24
-0.5
 14
521.4999999999999
 24
565.5
  0
ENDBLK
  5
2A4
330
29E
100
AcDbEntity
  8
LAYER_1
100
AcDbBlockEnd
  0
ENDSEC
  0
SECTION
  2
ENTITIES
  0
POLYLINE
  5
2CA
330
A
100
AcDbEntity
  8
LAYER_1
 62
     7
100
AcDb2dPolyline
 66
     1
 10
0.0
 20
0.0
 30
0.0
 70
     1
  0
VERTEX
  5
2CB
330
2CA
100
AcDbEntity
  8
LAYER_1
 62
     7
100
AcDbVertex
100
AcDb2dVertex
 10
298.5371609157986
 20
19.47340223524305
 30
0.0
  0
VERTEX
  5
2CC
330
2CA
100
AcDbEntity
  8
LAYER_1
 62
     7
100
AcDbVertex
100
AcDb2dVertex
 10
61.89372422960069
 20
19.47340223524305
 30
0.0
  0
VERTEX
  5
2CD
330
2CA
100
AcDbEntity
  8
LAYER_1
 62
     7
100
AcDbVertex
100
AcDb2dVertex
 10
61.89372422960069
 20
14.70022243923611
 30
0.0
  0
VERTEX
  5
2CE
330
2CA
100
AcDbEntity
  8
LAYER_1
 62
     7
100
AcDbVertex
100
AcDb2dVertex
 10
298.5371609157986
 20
14.70022243923611
 30
0.0
  0
SEQEND
  5
2CF
330
2CA
100
AcDbEntity
  8
LAYER_1
 62
     7
  0
POLYLINE
  5
2C4
330
A
100
AcDbEntity
  8
LAYER_1
 62
     7
100
AcDb2dPolyline
 66
     1
 10
0.0
 20
0.0
 30
0.0
 70
     1
  0
VERTEX
  5
2C5
330
2C4
100
AcDbEntity
  8
LAYER_1
 62
     7
100
AcDbVertex
100
AcDb2dVertex
 10
318.4336208767361
 20
0.0
 30
0.0
  0
VERTEX
  5
2C6
330
2C4
100
AcDbEntity
  8
LAYER_1
 62
     7
100
AcDbVertex
100
AcDb2dVertex
 10
39.88042534722222
 20
0.0
 30
0.0
  0
VERTEX
  5
2C7
330
2C4
100
AcDbEntity
  8
LAYER_1
 62
     7
100
AcDbVertex
100
AcDb2dVertex
 10
39.88042534722222
 20
14.70022243923611
 30
0.0
  0
VERTEX
  5
2C8
330
2C4
100
AcDbEntity
  8
LAYER_1
 62
     7
100
AcDbVertex
100
AcDb2dVertex
 10
318.4336208767361
 20
14.70022243923611
 30
0.0
  0
SEQEND
  5
2C9
330
2C4
100
AcDbEntity
  8
LAYER_1
 62
     7
  0
POLYLINE
  5
2BE
330
A
100
AcDbEntity
  8
LAYER_1
 62
     7
100
AcDb2dPolyline
 66
     1
 10
0.0
 20
0.0
 30
0.0
 70
     1
  0
VERTEX
  5
2BF
330
2BE
100
AcDbEntity
  8
LAYER_1
 62
     7
100
AcDbVertex
100
AcDb2dVertex
 10
188.0851603190104
 20
268.1369493272569
 30
0.0
  0
VERTEX
  5
2C0
330
2BE
100
AcDbEntity
  8
LAYER_1
 62
     7
100
AcDbVertex
100
AcDb2dVertex
 10
171.5759182400173
 20
268.1369493272569
 30
0.0
  0
VERTEX
  5
2C1
330
2BE
100
AcDbEntity
  8
LAYER_1
 62
     7
100
AcDbVertex
100
AcDb2dVertex
 10
171.5759182400173
 20
284.64619140625
 30
0.0
  0
VERTEX
  5
2C2
330
2BE
100
AcDbEntity
  8
LAYER_1
 62
     7
100
AcDbVertex
100
AcDb2dVertex
 10
188.0851603190104
 20
284.64619140625
 30
0.0
  0
SEQEND
  5
2C3
330
2BE
100
AcDbEntity
  8
LAYER_1
 62
     7
  0
POLYLINE
  5
2B8
330
A
100
AcDbEntity
  8
LAYER_1
 62
     7
100
AcDb2dPolyline
 66
     1
 10
0.0
 20
0.0
 30
0.0
 70
     1
  0
VERTEX
  5
2B9
330
2B8
100
AcDbEntity
  8
LAYER_1
 62
     7
100
AcDbVertex
100
AcDb2dVertex
 10
358.2568576388888
 20
110.0301486545139
 30
0.0
  0
VERTEX
  5
2BA
330
2B8
100
AcDbEntity
  8
LAYER_1
 62
     7
100
AcDbVertex
100
AcDb2dVertex
 10
339.842822265625
 20
110.0301486545139
 30
0.0
  0
VERTEX
  5
2BB
330
2B8
100
AcDbEntity
  8
LAYER_1
 62
     7
100
AcDbVertex
100
AcDb2dVertex
 10
339.842822265625
 20
119.5544596354166
 30
0.0
  0
VERTEX
  5
2BC
330
2B8
100
AcDbEntity
  8
LAYER_1
 62
     7
100
AcDbVertex
100
AcDb2dVertex
 10
358.2568576388888
 20
119.5544596354166
 30
0.0
  0
SEQEND
  5
2BD
330
2B8
100
AcDbEntity
  8
LAYER_1
 62
     7
  0
POLYLINE
  5
2B2
330
A
100
AcDbEntity
  8
LAYER_1
 62
     7
100
AcDb2dPolyline
 66
     1
 10
0.0
 20
0.0
 30
0.0
 70
     1
  0
VERTEX
  5
2B3
330
2B2
100
AcDbEntity
  8
LAYER_1
 62
     7
100
AcDbVertex
100
AcDb2dVertex
 10
419.9998589409721
 20
1.710145399305555
 30
0.0
  0
VERTEX
  5
2B4
330
2B2
100
AcDbEntity
  8
LAYER_1
 62
     7
100
AcDbVertex
100
AcDb2dVertex
 10
0.0
 20
1.710145399305555
 30
0.0
  0
VERTEX
  5
2B5
330
2B2
100
AcDbEntity
  8
LAYER_1
 62
     7
100
AcDbVertex
100
AcDb2dVertex
 10
0.0
 20
298.7101047092013
 30
0.0
  0
VERTEX
  5
2B6
330
2B2
100
AcDbEntity
  8
LAYER_1
 62
     7
100
AcDbVertex
100
AcDb2dVertex
 10
419.9998589409721
 20
298.7101047092013
 30
0.0
  0
SEQEND
  5
2B7
330
2B2
100
AcDbEntity
  8
LAYER_1
 62
     7
  0
POLYLINE
  5
2AC
330
A
100
AcDbEntity
  8
LAYER_1
 62
     7
100
AcDb2dPolyline
 66
     1
 10
0.0
 20
0.0
 30
0.0
 70
     1
  0
VERTEX
  5
2AD
330
2AC
100
AcDbEntity
  8
LAYER_1
 62
     7
100
AcDbVertex
100
AcDb2dVertex
 10
20.99992404513889
 20
283.7101589626736
 30
0.0
  0
VERTEX
  5
2AE
330
2AC
100
AcDbEntity
  8
LAYER_1
 62
     7
100
AcDbVertex
100
AcDb2dVertex
 10
20.99992404513889
 20
16.71009114583333
 30
0.0
  0
VERTEX
  5
2AF
330
2AC
100
AcDbEntity
  8
LAYER_1
 62
     7
100
AcDbVertex
100
AcDb2dVertex
 10
404.0001464843749
 20
16.71009114583333
 30
0.0
  0
VERTEX
  5
2B0
330
2AC
100
AcDbEntity
  8
LAYER_1
 62
     7
100
AcDbVertex
100
AcDb2dVertex
 10
404.0001464843749
 20
283.7101589626736
 30
0.0
  0
SEQEND
  5
2B1
330
2AC
100
AcDbEntity
  8
LAYER_1
 62
     7
  0
POLYLINE
  5
2A6
330
A
100
AcDbEntity
  8
LAYER_1
 62
     7
100
AcDb2dPolyline
 66
     1
 10
0.0
 20
0.0
 30
0.0
 70
     1
  0
VERTEX
  5
2A7
330
2A6
100
AcDbEntity
  8
LAYER_1
 62
     7
100
AcDbVertex
100
AcDb2dVertex
 10
406.0000244140624
 20
14.71021321614583
 30
0.0
  0
VERTEX
  5
2A8
330
2A6
100
AcDbEntity
  8
LAYER_1
 62
     7
100
AcDbVertex
100
AcDb2dVertex
 10
18.99987386067708
 20
14.71021321614583
 30
0.0
  0
VERTEX
  5
2A9
330
2A6
100
AcDbEntity
  8
LAYER_1
 62
     7
100
AcDbVertex
100
AcDb2dVertex
 10
18.99987386067708
 20
285.7102091471354
 30
0.0
  0
VERTEX
  5
2AA
330
2A6
100
AcDbEntity
  8
LAYER_1
 62
     7
100
AcDbVertex
100
AcDb2dVertex
 10
406.0000244140624
 20
285.7102091471354
 30
0.0
  0
SEQEND
  5
2AB
330
2A6
100
AcDbEntity
  8
LAYER_1
 62
     7
  0
LINE
  5
2A5
330
A
100
AcDbEntity
  8
LAYER_1
 62
     7
100
AcDbLine
 10
336.3150444878472
 20
285.3045491536458
 30
0.0
 11
336.3150444878472
 21
14.71021321614583
 31
0.0
  0
INSERT
  5
29F
330
A
100
AcDbEntity
  8
LAYER_1
 62
     7
100
AcDbBlockReference
  2
AI9-BLK3
 10
389.0131198459201
 20
29.68638780381944
 30
0.0
  0
MTEXT
  5
29D
330
A
100
AcDbEntity
  8
LAYER_1
 62
     7
100
AcDbMText
 10
342.4948567708333
 20
37.48468946086035
 30
0.0
 40
2.887318041589524
 41
0.0
 46
0.0
 71
     1
 72
     2
  1
\fArial |b1|i0;\H2.8873;\C7;Cambrian
  7
STD
 73
     1
 44
1.0
  0
MTEXT
  5
29C
330
A
100
AcDbEntity
  8
LAYER_1
 62
     7
100
AcDbMText
 10
342.4948567708333
 20
32.82795389228397
 30
0.0
 40
2.887318041589524
 41
0.0
 46
0.0
 71
     1
 72
     2
  1
\fArial |b1|i0;\H2.8873;\C7;Archaeological
  7
STD
 73
     1
 44
1.0
  0
MTEXT
  5
29B
330
A
100
AcDbEntity
  8
LAYER_1
 62
     7
100
AcDbMText
 10
342.4948567708333
 20
28.17121832370758
 30
0.0
 40
2.887318041589524
 41
0.0
 46
0.0
 71
     1
 72
     2
  1
\fArial |b1|i0;\H2.8873;\C7;Projects 
  7
STD
 73
     1
 44
1.0
  0
MTEXT
  5
29A
330
A
100
AcDbEntity
  8
LAYER_1
 62
     7
100
AcDbMText
 10
342.4948567708333
 20
23.5148272646798
 30
0.0
 40
2.887318041589524
 41
0.0
 46
0.0
 71
     1
 72
     2
  1
\fArial |b1|i0;\H2.8873;\C7;Limited
  7
STD
 73
     1
 44
1.0
  0
MTEXT
  5
299
330
A
100
AcDbEntity
  8
LAYER_1
 62
     7
100
AcDbMText
 10
339.2151258680555
 20
57.05868848429785
 30
0.0
 40
2.887318041589524
 41
0.0
 46
0.0
 71
     1
 72
     2
  1
\fArial |b1|i0;\H2.8873;\C7;Plan: 
  7
STD
 73
     1
 44
1.0
  0
MTEXT
  5
298
330
A
100
AcDbEntity
  8
LAYER_1
 62
     7
100
AcDbMText
 10
349.7819227430555
 20
57.05868848429785
 30
0.0
 40
2.887318041589524
 41
0.0
 46
0.0
 71
     1
 72
     2
  1
\fArial|b0|i0;\H2.8873;\C7;1:50                     
  7
STD
 73
     1
 44
1.0
  0
MTEXT
  5
297
330
A
100
AcDbEntity
  8
LAYER_1
 62
     7
100
AcDbMText
 10
379.9881754557291
 20
57.05868848429785
 30
0.0
 40
2.887318041589524
 41
0.0
 46
0.0
 71
     1
 72
     2
  1
\fArial |b1|i0;\H2.8873;\C7;Section:
  7
STD
 73
     1
 44
1.0
  0
MTEXT
  5
296
330
A
100
AcDbEntity
  8
LAYER_1
 62
     7
100
AcDbMText
 10
395.2968017578125
 20
57.05868848429785
 30
0.0
 40
2.887318041589524
 41
0.0
 46
0.0
 71
     1
 72
     2
  1
\fArial|b0|i0;\H2.8873;\C7; 1:20
  7
STD
 73
     1
 44
1.0
  0
MTEXT
  5
295
330
A
100
AcDbEntity
  8
LAYER_1
 62
     7
100
AcDbMText
 10
339.7119086371528
 20
49.04987500773535
 30
0.0
 40
2.887318041589524
 41
0.0
 46
0.0
 71
     1
 72
     2
  1
\fArial |b1|i0;\H2.8873;\C7;Figure 06:
  7
STD
 73
     1
 44
1.0
  0
MTEXT
  5
294
330
A
100
AcDbEntity
  8
LAYER_1
 62
     7
100
AcDbMText
 10
339.0628526475694
 20
92.88423644436729
 30
0.0
 40
2.887318041589524
 41
0.0
 46
0.0
 71
     1
 72
     2
  1
\fArial |b1|i0;\H2.8873;\C7;Job Title:       
  7
STD
 73
     1
 44
1.0
  0
MTEXT
  5
293
330
A
100
AcDbEntity
  8
LAYER_1
 62
     7
100
AcDbMText
 10
363.7934705946181
 20
92.88423644436729
 30
0.0
 40
2.887318041589524
 41
0.0
 46
0.0
 71
     1
 72
     2
  1
\fArial|b0|i0;\H2.8873;\C7;Oswald Park, Oswestry
  7
STD
 73
     1
 44
1.0
  0
MTEXT
  5
292
330
A
100
AcDbEntity
  8
LAYER_1
 62
     7
100
AcDbMText
 10
339.0628526475694
 20
83.57076530721451
 30
0.0
 40
2.887318041589524
 41
0.0
 46
0.0
 71
     1
 72
     2
  1
\fArial |b1|i0;\H2.8873;\C7;Drawing Title:                       
  7
STD
 73
     1
 44
1.0
  0
MTEXT
  5
291
330
A
100
AcDbEntity
  8
LAYER_1
 62
     7
100
AcDbMText
 10
389.4632215711805
 20
83.57076530721451
 30
0.0
 40
2.887318041589524
 41
0.0
 46
0.0
 71
     1
 72
     2
  1
\fArial|b0|i0;\H2.8873;\C7;Trench 1
  7
STD
 73
     1
 44
1.0
  0
MTEXT
  5
290
330
A
100
AcDbEntity
  8
LAYER_1
 62
     7
100
AcDbMText
 10
339.0628526475694
 20
74.25763867961035
 30
0.0
 40
2.887318041589524
 41
0.0
 46
0.0
 71
     1
 72
     2
  1
\fArial |b1|i0;\H2.8873;\C7;Date:          
  7
STD
 73
     1
 44
1.0
  0
MTEXT
  5
28F
330
A
100
AcDbEntity
  8
LAYER_1
 62
     7
100
AcDbMText
 10
384.7138129340277
 20
74.25763867961035
 30
0.0
 40
2.887318041589524
 41
0.0
 46
0.0
 71
     1
 72
     2
  1
\fArial|b0|i0;\H2.8873;\C7;29/08/2007
  7
STD
 73
     1
 44
1.0
  0
MTEXT
  5
28E
330
A
100
AcDbEntity
  8
LAYER_1
 62
     7
100
AcDbMText
 10
339.0628526475694
 20
64.94416754245758
 30
0.0
 40
2.887318041589524
 41
0.0
 46
0.0
 71
     1
 72
     2
  1
\fArial |b1|i0;\H2.8873;\C7;Drawn By:          
  7
STD
 73
     1
 44
1.0
  0
MTEXT
  5
28D
330
A
100
AcDbEntity
  8
LAYER_1
 62
     7
100
AcDbMText
 10
385.7924723307291
 20
64.94416754245758
 30
0.0
 40
2.887318041589524
 41
0.0
 46
0.0
 71
     1
 72
     2
  1
\fArial|b0|i0;\H2.8873;\C7;C E Smith
  7
STD
 73
     1
 44
1.0
  0
LINE
  5
28C
330
A
100
AcDbEntity
  8
LAYER_1
 62
     7
100
AcDbLine
 10
336.3150444878472
 20
42.82839355468749
 30
0.0
 11
405.8959825303818
 21
42.81116807725694
 31
0.0
  0
LINE
  5
28B
330
A
100
AcDbEntity
  8
LAYER_1
 62
     7
100
AcDbLine
 10
336.3150444878472
 20
52.00061577690972
 30
0.0
 11
405.8959825303818
 21
51.98339029947916
 31
0.0
  0
LINE
  5
28A
330
A
100
AcDbEntity
  8
LAYER_1
 62
     7
100
AcDbLine
 10
336.3150444878472
 20
59.76172688802083
 30
0.0
 11
405.8959825303818
 21
59.74450141059027
 31
0.0
  0
LINE
  5
289
330
A
100
AcDbEntity
  8
LAYER_1
 62
     7
100
AcDbLine
 10
336.4325222439236
 20
67.46427137586805
 30
0.0
 11
405.9590277777777
 21
67.37607693142361
 31
0.0
  0
LINE
  5
288
330
A
100
AcDbEntity
  8
LAYER_1
 62
     7
100
AcDbLine
 10
336.3150444878472
 20
76.69506022135415
 30
0.0
 11
405.8959825303818
 21
76.6778347439236
 31
0.0
  0
LINE
  5
287
330
A
100
AcDbEntity
  8
LAYER_1
 62
     7
100
AcDbLine
 10
336.3150444878472
 20
86.28930664062499
 30
0.0
 11
405.8959825303818
 21
86.27208116319444
 31
0.0
  0
LINE
  5
286
330
A
100
AcDbEntity
  8
LAYER_1
 62
     7
100
AcDbLine
 10
336.3736111111111
 20
95.51010470920138
 30
0.0
 11
405.8708333333332
 21
95.51010470920138
 31
0.0
  0
POLYLINE
  5
280
330
A
100
AcDbEntity
  8
LAYER_1
 62
     7
100
AcDb2dPolyline
 66
     1
 10
0.0
 20
0.0
 30
0.0
 70
     1
  0
VERTEX
  5
281
330
280
100
AcDbEntity
  8
LAYER_1
 62
     7
100
AcDbVertex
100
AcDb2dVertex
 10
399.8291693793402
 20
283.0101155598958
 30
0.0
  0
VERTEX
  5
282
330
280
100
AcDbEntity
  8
LAYER_1
 62
     7
100
AcDbVertex
100
AcDb2dVertex
 10
397.1502631293402
 20
276.4451416015624
 30
0.0
  0
VERTEX
  5
283
330
280
100
AcDbEntity
  8
LAYER_1
 62
     7
100
AcDbVertex
100
AcDb2dVertex
 10
399.8264133029514
 20
278.0078369140625
 30
0.0
  0
VERTEX
  5
284
330
280
100
AcDbEntity
  8
LAYER_1
 62
     7
100
AcDbVertex
100
AcDb2dVertex
 10
402.5032524956596
 20
276.4451416015624
 30
0.0
  0
SEQEND
  5
285
330
280
100
AcDbEntity
  8
LAYER_1
 62
     7
  0
POLYLINE
  5
27A
330
A
100
AcDbEntity
  8
LAYER_1
 62
     7
100
AcDb2dPolyline
 66
     1
 10
0.0
 20
0.0
 30
0.0
 70
     1
  0
VERTEX
  5
27B
330
27A
100
AcDbEntity
  8
LAYER_1
 62
     7
100
AcDbVertex
100
AcDb2dVertex
 10
399.8291693793402
 20
283.0101155598958
 30
0.0
  0
VERTEX
  5
27C
330
27A
100
AcDbEntity
  8
LAYER_1
 62
     7
100
AcDbVertex
100
AcDb2dVertex
 10
397.1502631293402
 20
276.4451416015624
 30
0.0
  0
VERTEX
  5
27D
330
27A
100
AcDbEntity
  8
LAYER_1
 62
     7
100
AcDbVertex
100
AcDb2dVertex
 10
399.8264133029514
 20
278.0078369140625
 30
0.0
  0
VERTEX
  5
27E
330
27A
100
AcDbEntity
  8
LAYER_1
 62
     7
100
AcDbVertex
100
AcDb2dVertex
 10
402.5032524956596
 20
276.4451416015624
 30
0.0
  0
SEQEND
  5
27F
330
27A
100
AcDbEntity
  8
LAYER_1
 62
     7
  0
HATCH
  5
279
330
A
100
AcDbEntity
  8
LAYER_1
 62
     7
100
AcDbHatch
 10
0.0
 20
0.0
 30
0.0
210
0.0
220
0.0
230
1.0
  2
SOLID
 70
     1
 71
     0
 91
        1
 92
        3
 72
     0
 73
     1
 93
        3
 10
399.8291693793402
 20
283.0101155598958
 10
397.1502631293402
 20
276.4451416015624
 10
399.8264133029514
 20
278.0078369140625
 97
        0
 75
     2
 76
     1
 98
        1
 10
0.0
 20
0.0
450
        0
451
        0
460
0.0
461
0.0
452
        0
462
0.0
453
        0
470

  0
POLYLINE
  5
273
330
A
100
AcDbEntity
  8
LAYER_1
 62
     7
100
AcDb2dPolyline
 66
     1
 10
0.0
 20
0.0
 30
0.0
 70
     1
  0
VERTEX
  5
274
330
273
100
AcDbEntity
  8
LAYER_1
 62
     7
100
AcDbVertex
100
AcDb2dVertex
 10
402.0126708984374
 20
157.5666097005208
 30
0.0
  0
VERTEX
  5
275
330
273
100
AcDbEntity
  8
LAYER_1
 62
     7
100
AcDbVertex
100
AcDb2dVertex
 10
387.7258599175347
 20
157.5666097005208
 30
0.0
  0
VERTEX
  5
276
330
273
100
AcDbEntity
  8
LAYER_1
 62
     7
100
AcDbVertex
100
AcDb2dVertex
 10
387.7258599175347
 20
217.8886813693576
 30
0.0
  0
VERTEX
  5
277
330
273
100
AcDbEntity
  8
LAYER_1
 62
     7
100
AcDbVertex
100
AcDb2dVertex
 10
402.0126708984374
 20
217.8886813693576
 30
0.0
  0
SEQEND
  5
278
330
273
100
AcDbEntity
  8
LAYER_1
 62
     7
  0
POLYLINE
  5
26E
330
A
100
AcDbEntity
  8
LAYER_1
 62
     7
100
AcDb2dPolyline
 66
     1
 10
0.0
 20
0.0
 30
0.0
  0
VERTEX
  5
26F
330
26E
100
AcDbEntity
  8
LAYER_1
 62
     7
100
AcDbVertex
100
AcDb2dVertex
 10
393.1708333333333
 20
285.7102091471354
 30
0.0
  0
VERTEX
  5
270
330
26E
100
AcDbEntity
  8
LAYER_1
 62
     7
100
AcDbVertex
100
AcDb2dVertex
 10
393.1708333333333
 20
273.4864935980902
 30
0.0
  0
VERTEX
  5
271
330
26E
100
AcDbEntity
  8
LAYER_1
 62
     7
100
AcDbVertex
100
AcDb2dVertex
 10
406.0000244140624
 20
273.4864935980902
 30
0.0
  0
SEQEND
  5
272
330
26E
100
AcDbEntity
  8
LAYER_1
 62
     7
  0
POLYLINE
  5
268
330
A
100
AcDbEntity
  8
LAYER_1
 62
     7
100
AcDb2dPolyline
 66
     1
 10
0.0
 20
0.0
 30
0.0
  0
VERTEX
  5
269
330
268
100
AcDbEntity
  8
LAYER_1
 62
     7
100
AcDbVertex
100
AcDb2dVertex
 10
317.5392740885416
 20
232.4908908420139
 30
0.0
  0
VERTEX
  5
26A
330
268
100
AcDbEntity
  8
LAYER_1
 62
     7
100
AcDbVertex
100
AcDb2dVertex
 10
28.32488606770833
 20
232.4908908420139
 30
0.0
  0
VERTEX
  5
26B
330
268
100
AcDbEntity
  8
LAYER_1
 62
     7
100
AcDbVertex
100
AcDb2dVertex
 10
28.32488606770833
 20
273.4131130642361
 30
0.0
  0
VERTEX
  5
26C
330
268
100
AcDbEntity
  8
LAYER_1
 62
     7
100
AcDbVertex
100
AcDb2dVertex
 10
317.433509657118
 20
273.4131130642361
 30
0.0
  0
SEQEND
  5
26D
330
268
100
AcDbEntity
  8
LAYER_1
 62
     7
  0
POLYLINE
  5
262
330
A
100
AcDbEntity
  8
LAYER_1
 62
     7
100
AcDb2dPolyline
 66
     1
 10
0.0
 20
0.0
 30
0.0
  0
VERTEX
  5
263
330
262
100
AcDbEntity
  8
LAYER_1
 62
     7
100
AcDbVertex
100
AcDb2dVertex
 10
210.7471706814236
 20
217.006047905816
 30
0.0
  0
VERTEX
  5
264
330
262
100
AcDbEntity
  8
LAYER_1
 62
     7
100
AcDbVertex
100
AcDb2dVertex
 10
318.7354112413194
 20
217.006047905816
 30
0.0
  0
VERTEX
  5
265
330
262
100
AcDbEntity
  8
LAYER_1
 62
     7
100
AcDbVertex
100
AcDb2dVertex
 10
318.7354112413194
 20
176.0838256835937
 30
0.0
  0
VERTEX
  5
266
330
262
100
AcDbEntity
  8
LAYER_1
 62
     7
100
AcDbVertex
100
AcDb2dVertex
 10
210.5990315755208
 20
176.0838256835937
 30
0.0
  0
SEQEND
  5
267
330
262
100
AcDbEntity
  8
LAYER_1
 62
     7
  0
LINE
  5
261
330
A
100
AcDbEntity
  8
LAYER_1
 62
     7
100
AcDbLine
 10
86.62141384548609
 20
232.4908908420139
 30
0.0
 11
86.62141384548609
 21
273.4131130642361
 31
0.0
  0
LINE
  5
260
330
A
100
AcDbEntity
  8
LAYER_1
 62
     7
100
AcDbLine
 10
72.95127495659722
 20
232.4908908420139
 30
0.0
 11
33.44016384548611
 21
273.3249186197916
 31
0.0
  0
LINE
  5
25F
330
A
100
AcDbEntity
  8
LAYER_1
 62
     7
100
AcDbLine
 10
74.53877495659721
 20
232.5790852864583
 30
0.0
 11
34.94222547743055
 21
273.4306830512152
 31
0.0
  0
HATCH
  5
25E
330
A
100
AcDbEntity
  8
LAYER_1
 62
     7
100
AcDbHatch
 10
0.0
 20
0.0
 30
0.0
210
0.0
220
0.0
230
1.0
  2
SOLID
 70
     1
 71
     0
 91
        1
 92
        3
 72
     0
 73
     1
 93
        3
 10
86.62141384548609
 20
232.8877658420139
 10
90.41377495659721
 20
234.1665852864583
 10
86.62141384548609
 20
235.4454047309028
 97
        0
 75
     2
 76
     1
 98
        1
 10
0.0
 20
0.0
450
        0
451
        0
460
0.0
461
0.0
452
        0
462
0.0
453
        0
470

  0
HATCH
  5
25D
330
A
100
AcDbEntity
  8
LAYER_1
 62
     7
100
AcDbHatch
 10
0.0
 20
0.0
 30
0.0
210
0.0
220
0.0
230
1.0
  2
SOLID
 70
     1
 71
     0
 91
        1
 92
        3
 72
     0
 73
     1
 93
        3
 10
86.62141384548609
 20
237.0329047309027
 10
90.41377495659721
 20
238.3117241753472
 10
86.62141384548609
 20
239.5905436197916
 97
        0
 75
     2
 76
     1
 98
        1
 10
0.0
 20
0.0
450
        0
451
        0
460
0.0
461
0.0
452
        0
462
0.0
453
        0
470

  0
HATCH
  5
25C
330
A
100
AcDbEntity
  8
LAYER_1
 62
     7
100
AcDbHatch
 10
0.0
 20
0.0
 30
0.0
210
0.0
220
0.0
230
1.0
  2
SOLID
 70
     1
 71
     0
 91
        1
 92
        3
 72
     0
 73
     1
 93
        3
 10
86.66551106770832
 20
241.0898491753472
 10
90.45787217881944
 20
242.3686686197916
 10
86.66551106770832
 20
243.6474880642361
 97
        0
 75
     2
 76
     1
 98
        1
 10
0.0
 20
0.0
450
        0
451
        0
460
0.0
461
0.0
452
        0
462
0.0
453
        0
470

  0
HATCH
  5
25B
330
A
100
AcDbEntity
  8
LAYER_1
 62
     7
100
AcDbHatch
 10
0.0
 20
0.0
 30
0.0
210
0.0
220
0.0
230
1.0
  2
SOLID
 70
     1
 71
     0
 91
        1
 92
        3
 72
     0
 73
     1
 93
        3
 10
86.62141384548609
 20
245.5436686197916
 10
90.41377495659721
 20
246.8224880642361
 10
86.62141384548609
 20
248.1013075086805
 97
        0
 75
     2
 76
     1
 98
        1
 10
0.0
 20
0.0
450
        0
451
        0
460
0.0
461
0.0
452
        0
462
0.0
453
        0
470

  0
HATCH
  5
25A
330
A
100
AcDbEntity
  8
LAYER_1
 62
     7
100
AcDbHatch
 10
0.0
 20
0.0
 30
0.0
210
0.0
220
0.0
230
1.0
  2
SOLID
 70
     1
 71
     0
 91
        1
 92
        3
 72
     0
 73
     1
 93
        3
 10
86.66551106770832
 20
249.9533908420139
 10
90.45787217881944
 20
251.2322102864583
 10
86.66551106770832
 20
252.5110297309027
 97
        0
 75
     2
 76
     1
 98
        1
 10
0.0
 20
0.0
450
        0
451
        0
460
0.0
461
0.0
452
        0
462
0.0
453
        0
470

  0
HATCH
  5
259
330
A
100
AcDbEntity
  8
LAYER_1
 62
     7
100
AcDbHatch
 10
0.0
 20
0.0
 30
0.0
210
0.0
220
0.0
230
1.0
  2
SOLID
 70
     1
 71
     0
 91
        1
 92
        3
 72
     0
 73
     1
 93
        3
 10
86.62141384548609
 20
254.539501953125
 10
90.41377495659721
 20
255.8183213975695
 10
86.62141384548609
 20
257.0971408420139
 97
        0
 75
     2
 76
     1
 98
        1
 10
0.0
 20
0.0
450
        0
451
        0
460
0.0
461
0.0
452
        0
462
0.0
453
        0
470

  0
HATCH
  5
258
330
A
100
AcDbEntity
  8
LAYER_1
 62
     7
100
AcDbHatch
 10
0.0
 20
0.0
 30
0.0
210
0.0
220
0.0
230
1.0
  2
SOLID
 70
     1
 71
     0
 91
        1
 92
        3
 72
     0
 73
     1
 93
        3
 10
86.62141384548609
 20
260.3162380642361
 10
90.41377495659721
 20
261.5950575086805
 10
86.62141384548609
 20
262.873876953125
 97
        0
 75
     2
 76
     1
 98
        1
 10
0.0
 20
0.0
450
        0
451
        0
460
0.0
461
0.0
452
        0
462
0.0
453
        0
470

  0
HATCH
  5
257
330
A
100
AcDbEntity
  8
LAYER_1
 62
     7
100
AcDbHatch
 10
0.0
 20
0.0
 30
0.0
210
0.0
220
0.0
230
1.0
  2
SOLID
 70
     1
 71
     0
 91
        1
 92
        3
 72
     0
 73
     1
 93
        3
 10
86.62141384548609
 20
265.1669325086805
 10
90.41377495659721
 20
266.445751953125
 10
86.62141384548609
 20
267.7245713975694
 97
        0
 75
     2
 76
     1
 98
        1
 10
0.0
 20
0.0
450
        0
451
        0
460
0.0
461
0.0
452
        0
462
0.0
453
        0
470

  0
HATCH
  5
256
330
A
100
AcDbEntity
  8
LAYER_1
 62
     7
100
AcDbHatch
 10
0.0
 20
0.0
 30
0.0
210
0.0
220
0.0
230
1.0
  2
SOLID
 70
     1
 71
     0
 91
        1
 92
        3
 72
     0
 73
     1
 93
        3
 10
86.62141384548609
 20
269.223876953125
 10
90.41377495659721
 20
270.5026963975694
 10
86.62141384548609
 20
271.7815158420139
 97
        0
 75
     2
 76
     1
 98
        1
 10
0.0
 20
0.0
450
        0
451
        0
460
0.0
461
0.0
452
        0
462
0.0
453
        0
470

  0
POLYLINE
  5
246
330
A
100
AcDbEntity
  8
LAYER_1
 62
     7
100
AcDb2dPolyline
 66
     1
 10
0.0
 20
0.0
 30
0.0
  0
VERTEX
  5
247
330
246
100
AcDbEntity
  8
LAYER_1
 62
     7
100
AcDbVertex
100
AcDb2dVertex
 10
226.3510416666667
 20
273.2954630533854
 30
0.0
  0
VERTEX
  5
248
330
246
100
AcDbEntity
  8
LAYER_1
 62
     7
100
AcDbVertex
100
AcDb2dVertex
 10
228.5848415798611
 20
271.0613186306424
 30
0.0
  0
VERTEX
  5
249
330
246
100
AcDbEntity
  8
LAYER_1
 62
     7
100
AcDbVertex
100
AcDb2dVertex
 10
231.8190972222222
 20
267.8863186306423
 30
0.0
  0
VERTEX
  5
24A
330
246
100
AcDbEntity
  8
LAYER_1
 62
     7
100
AcDbVertex
100
AcDb2dVertex
 10
235.0526638454861
 20
264.8877075195312
 30
0.0
  0
VERTEX
  5
24B
330
246
100
AcDbEntity
  8
LAYER_1
 62
     7
100
AcDbVertex
100
AcDb2dVertex
 10
237.0515082465278
 20
262.7710408528646
 30
0.0
  0
VERTEX
  5
24C
330
246
100
AcDbEntity
  8
LAYER_1
 62
     7
100
AcDbVertex
100
AcDb2dVertex
 10
239.991552734375
 20
259.6547797309028
 30
0.0
  0
VERTEX
  5
24D
330
246
100
AcDbEntity
  8
LAYER_1
 62
     7
100
AcDbVertex
100
AcDb2dVertex
 10
243.9306749131944
 20
256.0093519422743
 30
0.0
  0
VERTEX
  5
24E
330
246
100
AcDbEntity
  8
LAYER_1
 62
     7
100
AcDbVertex
100
AcDb2dVertex
 10
246.22373046875
 20
253.7752075195312
 30
0.0
  0
VERTEX
  5
24F
330
246
100
AcDbEntity
  8
LAYER_1
 62
     7
100
AcDbVertex
100
AcDb2dVertex
 10
251.1626193576389
 20
249.1300130208333
 30
0.0
  0
VERTEX
  5
250
330
246
100
AcDbEntity
  8
LAYER_1
 62
     7
100
AcDbVertex
100
AcDb2dVertex
 10
257.1012749565972
 20
243.3684353298611
 30
0.0
  0
VERTEX
  5
251
330
246
100
AcDbEntity
  8
LAYER_1
 62
     7
100
AcDbVertex
100
AcDb2dVertex
 10
262.7457194010416
 20
238.9587131076388
 30
0.0
  0
VERTEX
  5
252
330
246
100
AcDbEntity
  8
LAYER_1
 62
     7
100
AcDbVertex
100
AcDb2dVertex
 10
266.1556749131944
 20
236.2536241319444
 30
0.0
  0
VERTEX
  5
253
330
246
100
AcDbEntity
  8
LAYER_1
 62
     7
100
AcDbVertex
100
AcDb2dVertex
 10
269.2721082899305
 20
233.4906575520833
 30
0.0
  0
VERTEX
  5
254
330
246
100
AcDbEntity
  8
LAYER_1
 62
     7
100
AcDbVertex
100
AcDb2dVertex
 10
270.271875
 20
232.5494574652778
 30
0.0
  0
SEQEND
  5
255
330
246
100
AcDbEntity
  8
LAYER_1
 62
     7
  0
POLYLINE
  5
235
330
A
100
AcDbEntity
  8
LAYER_1
 62
     7
100
AcDb2dPolyline
 66
     1
 10
0.0
 20
0.0
 30
0.0
  0
VERTEX
  5
236
330
235
100
AcDbEntity
  8
LAYER_1
 62
     7
100
AcDbVertex
100
AcDb2dVertex
 10
276.6804416232639
 20
232.5494574652778
 30
0.0
  0
VERTEX
  5
237
330
235
100
AcDbEntity
  8
LAYER_1
 62
     7
100
AcDbVertex
100
AcDb2dVertex
 10
272.7413194444444
 20
236.1364908854167
 30
0.0
  0
VERTEX
  5
238
330
235
100
AcDbEntity
  8
LAYER_1
 62
     7
100
AcDbVertex
100
AcDb2dVertex
 10
266.9204861111111
 20
241.4281575520833
 30
0.0
  0
VERTEX
  5
239
330
235
100
AcDbEntity
  8
LAYER_1
 62
     7
100
AcDbVertex
100
AcDb2dVertex
 10
262.6278971354166
 20
245.6614908854167
 30
0.0
  0
VERTEX
  5
23A
330
235
100
AcDbEntity
  8
LAYER_1
 62
     7
100
AcDbVertex
100
AcDb2dVertex
 10
259.7471082899305
 20
248.30732421875
 30
0.0
  0
VERTEX
  5
23B
330
235
100
AcDbEntity
  8
LAYER_1
 62
     7
100
AcDbVertex
100
AcDb2dVertex
 10
256.3957194010416
 20
251.1881130642361
 30
0.0
  0
VERTEX
  5
23C
330
235
100
AcDbEntity
  8
LAYER_1
 62
     7
100
AcDbVertex
100
AcDb2dVertex
 10
252.9857638888889
 20
254.4218519422743
 30
0.0
  0
VERTEX
  5
23D
330
235
100
AcDbEntity
  8
LAYER_1
 62
     7
100
AcDbVertex
100
AcDb2dVertex
 10
249.39873046875
 20
258.0672797309027
 30
0.0
  0
VERTEX
  5
23E
330
235
100
AcDbEntity
  8
LAYER_1
 62
     7
100
AcDbVertex
100
AcDb2dVertex
 10
246.2829861111111
 20
260.7718519422743
 30
0.0
  0
VERTEX
  5
23F
330
235
100
AcDbEntity
  8
LAYER_1
 62
     7
100
AcDbVertex
100
AcDb2dVertex
 10
243.6957194010417
 20
262.7121297200521
 30
0.0
  0
VERTEX
  5
240
330
235
100
AcDbEntity
  8
LAYER_1
 62
     7
100
AcDbVertex
100
AcDb2dVertex
 10
241.2262749565972
 20
264.8287963867188
 30
0.0
  0
VERTEX
  5
241
330
235
100
AcDbEntity
  8
LAYER_1
 62
     7
100
AcDbVertex
100
AcDb2dVertex
 10
238.6390082465278
 20
267.5922797309028
 30
0.0
  0
VERTEX
  5
242
330
235
100
AcDbEntity
  8
LAYER_1
 62
     7
100
AcDbVertex
100
AcDb2dVertex
 10
236.1109971788194
 20
270.5321519639757
 30
0.0
  0
VERTEX
  5
243
330
235
100
AcDbEntity
  8
LAYER_1
 62
     7
100
AcDbVertex
100
AcDb2dVertex
 10
234.4649305555555
 20
272.3547797309028
 30
0.0
  0
VERTEX
  5
244
330
235
100
AcDbEntity
  8
LAYER_1
 62
     7
100
AcDbVertex
100
AcDb2dVertex
 10
233.4065972222222
 20
273.3543741861979
 30
0.0
  0
SEQEND
  5
245
330
235
100
AcDbEntity
  8
LAYER_1
 62
     7
  0
LINE
  5
234
330
A
100
AcDbEntity
  8
LAYER_1
  6
AI9-LType2
 62
     7
100
AcDbLine
 10
235.9642361111111
 20
263.9225640190972
 30
0.0
 11
242.2835747612847
 21
263.9225640190972
 31
0.0
  0
HATCH
  5
232
330
A
100
AcDbEntity
  8
LAYER_1
 62
     7
100
AcDbHatch
 10
0.0
 20
0.0
 30
0.0
210
0.0
220
0.0
230
1.0
  2
SOLID
 70
     1
 71
     0
 91
        1
 92
        3
 72
     0
 73
     1
 93
        3
 10
229.3785915798611
 20
270.2968519422743
 10
231.14248046875
 20
270.4145019531249
 10
231.0253472222222
 20
268.6506130642361
 97
        0
 75
     2
 76
     1
 98
        1
 10
0.0
 20
0.0
450
        0
451
        0
460
0.0
461
0.0
452
        0
462
0.0
453
        0
470

  0
HATCH
  5
231
330
A
100
AcDbEntity
  8
LAYER_1
 62
     7
100
AcDbHatch
 10
0.0
 20
0.0
 30
0.0
210
0.0
220
0.0
230
1.0
  2
SOLID
 70
     1
 71
     0
 91
        1
 92
        3
 72
     0
 73
     1
 93
        3
 10
232.8333333333333
 20
266.9601047092013
 10
234.6702582465278
 20
267.0925686306424
 10
234.553125
 20
265.3286797417534
 97
        0
 75
     2
 76
     1
 98
        1
 10
0.0
 20
0.0
450
        0
451
        0
460
0.0
461
0.0
452
        0
462
0.0
453
        0
470

  0
HATCH
  5
230
330
A
100
AcDbEntity
  8
LAYER_1
 62
     7
100
AcDbHatch
 10
0.0
 20
0.0
 30
0.0
210
0.0
220
0.0
230
1.0
  2
SOLID
 70
     1
 71
     0
 91
        1
 92
        3
 72
     0
 73
     1
 93
        3
 10
234.3471082899305
 20
272.4429741753472
 10
235.6700249565972
 20
271.009814453125
 10
233.9722819010416
 20
270.8995713975694
 97
        0
 75
     2
 76
     1
 98
        1
 10
0.0
 20
0.0
450
        0
451
        0
460
0.0
461
0.0
452
        0
462
0.0
453
        0
470

  0
HATCH
  5
22F
330
A
100
AcDbEntity
  8
LAYER_1
 62
     7
100
AcDbHatch
 10
0.0
 20
0.0
 30
0.0
210
0.0
220
0.0
230
1.0
  2
SOLID
 70
     1
 71
     0
 91
        1
 92
        3
 72
     0
 73
     1
 93
        3
 10
236.5519694010417
 20
269.9881713867187
 10
237.6543999565972
 20
268.7093519422743
 10
235.9346082899306
 20
268.5918741861979
 97
        0
 75
     2
 76
     1
 98
        1
 10
0.0
 20
0.0
450
        0
451
        0
460
0.0
461
0.0
452
        0
462
0.0
453
        0
470

  0
HATCH
  5
22E
330
A
100
AcDbEntity
  8
LAYER_1
 62
     7
100
AcDbHatch
 10
0.0
 20
0.0
 30
0.0
210
0.0
220
0.0
230
1.0
  2
SOLID
 70
     1
 71
     0
 91
        1
 92
        3
 72
     0
 73
     1
 93
        3
 10
238.68310546875
 20
267.5481825086805
 10
240.0576985677083
 20
266.0709255642361
 10
238.4701985677083
 20
265.9606825086805
 97
        0
 75
     2
 76
     1
 98
        1
 10
0.0
 20
0.0
450
        0
451
        0
460
0.0
461
0.0
452
        0
462
0.0
453
        0
470

  0
LINE
  5
22D
330
A
100
AcDbEntity
  8
LAYER_1
  6
AI9-LType1
 62
     7
100
AcDbLine
 10
53.19726969401041
 20
156.223883734809
 30
0.0
 11
53.19726969401041
 21
192.1941257052951
 31
0.0
  0
LINE
  5
22C
330
A
100
AcDbEntity
  8
LAYER_1
  6
AI9-LType1
 62
     7
100
AcDbLine
 10
113.0378892686632
 20
196.1725219726562
 30
0.0
 11
113.0378892686632
 21
159.2073364257812
 31
0.0
  0
POLYLINE
  5
20D
330
A
100
AcDbEntity
  8
LAYER_1
 62
     7
100
AcDb2dPolyline
 66
     1
 10
0.0
 20
0.0
 30
0.0
  0
VERTEX
  5
20E
330
20D
100
AcDbEntity
  8
LAYER_1
 62
     7
100
AcDbVertex
100
AcDb2dVertex
 10
53.42550726996527
 20
156.2721150716145
 30
0.0
  0
VERTEX
  5
20F
330
20D
100
AcDbEntity
  8
LAYER_1
 62
     7
100
AcDbVertex
100
AcDb2dVertex
 10
56.65924614800347
 20
157.271881781684
 30
0.0
  0
VERTEX
  5
210
330
20D
100
AcDbEntity
  8
LAYER_1
 62
     7
100
AcDbVertex
100
AcDb2dVertex
 10
60.06937391493055
 20
158.0360039605034
 30
0.0
  0
VERTEX
  5
211
330
20D
100
AcDbEntity
  8
LAYER_1
 62
     7
100
AcDbVertex
100
AcDb2dVertex
 10
63.12689615885416
 20
158.6829928927951
 30
0.0
  0
VERTEX
  5
212
330
20D
100
AcDbEntity
  8
LAYER_1
 62
     7
100
AcDbVertex
100
AcDb2dVertex
 10
65.30230170355903
 20
159.1529039171007
 30
0.0
  0
VERTEX
  5
213
330
20D
100
AcDbEntity
  8
LAYER_1
 62
     7
100
AcDbVertex
100
AcDb2dVertex
 10
66.83106282552083
 20
159.1529039171007
 30
0.0
  0
VERTEX
  5
214
330
20D
100
AcDbEntity
  8
LAYER_1
 62
     7
100
AcDbVertex
100
AcDb2dVertex
 10
67.53661838107638
 20
159.2707261827256
 30
0.0
  0
VERTEX
  5
215
330
20D
100
AcDbEntity
  8
LAYER_1
 62
     7
100
AcDbVertex
100
AcDb2dVertex
 10
69.59437391493054
 20
158.3302151150173
 30
0.0
  0
VERTEX
  5
216
330
20D
100
AcDbEntity
  8
LAYER_1
 62
     7
100
AcDbVertex
100
AcDb2dVertex
 10
72.06381835937499
 20
156.5070705837673
 30
0.0
  0
VERTEX
  5
217
330
20D
100
AcDbEntity
  8
LAYER_1
 62
     7
100
AcDbVertex
100
AcDb2dVertex
 10
74.18048502604166
 20
155.1552151150173
 30
0.0
  0
VERTEX
  5
218
330
20D
100
AcDbEntity
  8
LAYER_1
 62
     7
100
AcDbVertex
100
AcDb2dVertex
 10
76.47354058159722
 20
153.9204928927951
 30
0.0
  0
VERTEX
  5
219
330
20D
100
AcDbEntity
  8
LAYER_1
 62
     7
100
AcDbVertex
100
AcDb2dVertex
 10
77.82591281467013
 20
153.5084594726562
 30
0.0
  0
VERTEX
  5
21A
330
20D
100
AcDbEntity
  8
LAYER_1
 62
     7
100
AcDbVertex
100
AcDb2dVertex
 10
78.53146837022568
 20
153.6262817382812
 30
0.0
  0
VERTEX
  5
21B
330
20D
100
AcDbEntity
  8
LAYER_1
 62
     7
100
AcDbVertex
100
AcDb2dVertex
 10
79.53106282552082
 20
153.8026706271701
 30
0.0
  0
VERTEX
  5
21C
330
20D
100
AcDbEntity
  8
LAYER_1
 62
     7
100
AcDbVertex
100
AcDb2dVertex
 10
80.94217393663193
 20
154.6846150716145
 30
0.0
  0
VERTEX
  5
21D
330
20D
100
AcDbEntity
  8
LAYER_1
 62
     7
100
AcDbVertex
100
AcDb2dVertex
 10
82.99992947048611
 20
156.3306816948784
 30
0.0
  0
VERTEX
  5
21E
330
20D
100
AcDbEntity
  8
LAYER_1
 62
     7
100
AcDbVertex
100
AcDb2dVertex
 10
84.35230170355902
 20
157.154059516059
 30
0.0
  0
VERTEX
  5
21F
330
20D
100
AcDbEntity
  8
LAYER_1
 62
     7
100
AcDbVertex
100
AcDb2dVertex
 10
85.35189615885416
 20
157.8010484483507
 30
0.0
  0
VERTEX
  5
220
330
20D
100
AcDbEntity
  8
LAYER_1
 62
     7
100
AcDbVertex
100
AcDb2dVertex
 10
86.41022949218749
 20
157.8010484483507
 30
0.0
  0
VERTEX
  5
221
330
20D
100
AcDbEntity
  8
LAYER_1
 62
     7
100
AcDbVertex
100
AcDb2dVertex
 10
89.64396837022569
 20
157.9774373372395
 30
0.0
  0
VERTEX
  5
222
330
20D
100
AcDbEntity
  8
LAYER_1
 62
     7
100
AcDbVertex
100
AcDb2dVertex
 10
92.46619059244791
 20
158.0360039605034
 30
0.0
  0
VERTEX
  5
223
330
20D
100
AcDbEntity
  8
LAYER_1
 62
     7
100
AcDbVertex
100
AcDb2dVertex
 10
95.7588406032986
 20
158.2123928493923
 30
0.0
  0
VERTEX
  5
224
330
20D
100
AcDbEntity
  8
LAYER_1
 62
     7
100
AcDbVertex
100
AcDb2dVertex
 10
100.4036905924479
 20
158.3302151150173
 30
0.0
  0
VERTEX
  5
225
330
20D
100
AcDbEntity
  8
LAYER_1
 62
     7
100
AcDbVertex
100
AcDb2dVertex
 10
104.2255072699652
 20
158.5651706271701
 30
0.0
  0
VERTEX
  5
226
330
20D
100
AcDbEntity
  8
LAYER_1
 62
     7
100
AcDbVertex
100
AcDb2dVertex
 10
107.753285047743
 20
158.5066040039062
 30
0.0
  0
VERTEX
  5
227
330
20D
100
AcDbEntity
  8
LAYER_1
 62
     7
100
AcDbVertex
100
AcDb2dVertex
 10
109.6935628255208
 20
158.8001261393229
 30
0.0
  0
VERTEX
  5
228
330
20D
100
AcDbEntity
  8
LAYER_1
 62
     7
100
AcDbVertex
100
AcDb2dVertex
 10
111.3985405815972
 20
158.9765150282118
 30
0.0
  0
VERTEX
  5
229
330
20D
100
AcDbEntity
  8
LAYER_1
 62
     7
100
AcDbVertex
100
AcDb2dVertex
 10
112.927301703559
 20
159.7998928493923
 30
0.0
  0
SEQEND
  5
22A
330
20D
100
AcDbEntity
  8
LAYER_1
 62
     7
  0
POLYLINE
  5
202
330
A
100
AcDbEntity
  8
LAYER_1
 62
     7
100
AcDb2dPolyline
 66
     1
 10
0.0
 20
0.0
 30
0.0
  0
VERTEX
  5
203
330
202
100
AcDbEntity
  8
LAYER_1
 62
     7
100
AcDbVertex
100
AcDb2dVertex
 10
67.53661838107638
 20
159.2707261827256
 30
0.0
  0
VERTEX
  5
204
330
202
100
AcDbEntity
  8
LAYER_1
 62
     7
100
AcDbVertex
100
AcDb2dVertex
 10
69.18285725911457
 20
159.3292928059895
 30
0.0
  0
VERTEX
  5
205
330
202
100
AcDbEntity
  8
LAYER_1
 62
     7
100
AcDbVertex
100
AcDb2dVertex
 10
71.47591281467014
 20
159.1529039171007
 30
0.0
  0
VERTEX
  5
206
330
202
100
AcDbEntity
  8
LAYER_1
 62
     7
100
AcDbVertex
100
AcDb2dVertex
 10
73.88661838107639
 20
158.741559516059
 30
0.0
  0
VERTEX
  5
207
330
202
100
AcDbEntity
  8
LAYER_1
 62
     7
100
AcDbVertex
100
AcDb2dVertex
 10
76.7088406032986
 20
158.4473483615451
 30
0.0
  0
VERTEX
  5
208
330
202
100
AcDbEntity
  8
LAYER_1
 62
     7
100
AcDbVertex
100
AcDb2dVertex
 10
80.11896837022568
 20
158.0360039605034
 30
0.0
  0
VERTEX
  5
209
330
202
100
AcDbEntity
  8
LAYER_1
 62
     7
100
AcDbVertex
100
AcDb2dVertex
 10
82.52967393663194
 20
157.8596150716145
 30
0.0
  0
VERTEX
  5
20A
330
202
100
AcDbEntity
  8
LAYER_1
 62
     7
100
AcDbVertex
100
AcDb2dVertex
 10
84.17591281467013
 20
157.8010484483507
 30
0.0
  0
VERTEX
  5
20B
330
202
100
AcDbEntity
  8
LAYER_1
 62
     7
100
AcDbVertex
100
AcDb2dVertex
 10
85.35189615885416
 20
157.8010484483507
 30
0.0
  0
SEQEND
  5
20C
330
202
100
AcDbEntity
  8
LAYER_1
 62
     7
  0
POLYLINE
  5
1F2
330
A
100
AcDbEntity
  8
LAYER_1
 62
     7
100
AcDb2dPolyline
 66
     1
 10
0.0
 20
0.0
 30
0.0
  0
VERTEX
  5
1F3
330
1F2
100
AcDbEntity
  8
LAYER_1
 62
     7
100
AcDbVertex
100
AcDb2dVertex
 10
53.30785725911457
 20
161.798737250434
 30
0.0
  0
VERTEX
  5
1F4
330
1F2
100
AcDbEntity
  8
LAYER_1
 62
     7
100
AcDbVertex
100
AcDb2dVertex
 10
56.54159613715277
 20
161.7401706271701
 30
0.0
  0
VERTEX
  5
1F5
330
1F2
100
AcDbEntity
  8
LAYER_1
 62
     7
100
AcDbVertex
100
AcDb2dVertex
 10
60.71619059244791
 20
161.3873928493923
 30
0.0
  0
VERTEX
  5
1F6
330
1F2
100
AcDbEntity
  8
LAYER_1
 62
     7
100
AcDbVertex
100
AcDb2dVertex
 10
65.30230170355903
 20
161.2695705837673
 30
0.0
  0
VERTEX
  5
1F7
330
1F2
100
AcDbEntity
  8
LAYER_1
 62
     7
100
AcDbVertex
100
AcDb2dVertex
 10
70.24119059244791
 20
161.1524373372396
 30
0.0
  0
VERTEX
  5
1F8
330
1F2
100
AcDbEntity
  8
LAYER_1
 62
     7
100
AcDbVertex
100
AcDb2dVertex
 10
75.00369059244791
 20
161.2110039605035
 30
0.0
  0
VERTEX
  5
1F9
330
1F2
100
AcDbEntity
  8
LAYER_1
 62
     7
100
AcDbVertex
100
AcDb2dVertex
 10
81.05965169270833
 20
160.5640150282118
 30
0.0
  0
VERTEX
  5
1FA
330
1F2
100
AcDbEntity
  8
LAYER_1
 62
     7
100
AcDbVertex
100
AcDb2dVertex
 10
83.76439615885415
 20
160.5640150282118
 30
0.0
  0
VERTEX
  5
1FB
330
1F2
100
AcDbEntity
  8
LAYER_1
 62
     7
100
AcDbVertex
100
AcDb2dVertex
 10
90.05548502604165
 20
160.3876261393229
 30
0.0
  0
VERTEX
  5
1FC
330
1F2
100
AcDbEntity
  8
LAYER_1
 62
     7
100
AcDbVertex
100
AcDb2dVertex
 10
96.64078504774305
 20
160.446881781684
 30
0.0
  0
VERTEX
  5
1FD
330
1F2
100
AcDbEntity
  8
LAYER_1
 62
     7
100
AcDbVertex
100
AcDb2dVertex
 10
102.6967461480034
 20
160.9760484483506
 30
0.0
  0
VERTEX
  5
1FE
330
1F2
100
AcDbEntity
  8
LAYER_1
 62
     7
100
AcDbVertex
100
AcDb2dVertex
 10
107.5768961588541
 20
161.2695705837673
 30
0.0
  0
VERTEX
  5
1FF
330
1F2
100
AcDbEntity
  8
LAYER_1
 62
     7
100
AcDbVertex
100
AcDb2dVertex
 10
111.2810628255208
 20
161.5637817382812
 30
0.0
  0
VERTEX
  5
200
330
1F2
100
AcDbEntity
  8
LAYER_1
 62
     7
100
AcDbVertex
100
AcDb2dVertex
 10
112.927301703559
 20
161.6223483615451
 30
0.0
  0
SEQEND
  5
201
330
1F2
100
AcDbEntity
  8
LAYER_1
 62
     7
  0
SPLINE
  5
1F1
330
A
100
AcDbEntity
  8
LAYER_1
 62
     7
100
AcDbSpline
210
0.0
220
0.0
230
1.0
 70
     8
 71
     3
 72
    47
 73
    43
 74
     0
 42
0.00000001
 43
0.0000000001
 40
0.0
 40
0.0
 40
0.0
 40
0.0
 40
1.0
 40
1.0
 40
1.0
 40
2.0
 40
2.0
 40
2.0
 40
3.0
 40
3.0
 40
3.0
 40
4.0
 40
4.0
 40
4.0
 40
5.0
 40
5.0
 40
5.0
 40
6.0
 40
6.0
 40
6.0
 40
7.0
 40
7.0
 40
7.0
 40
8.0
 40
8.0
 40
8.0
 40
9.0
 40
9.0
 40
9.0
 40
10.0
 40
10.0
 40
10.0
 40
11.0
 40
11.0
 40
11.0
 40
12.0
 40
12.0
 40
12.0
 40
13.0
 40
13.0
 40
13.0
 40
14.0
 40
14.0
 40
14.0
 40
14.0
 10
112.927301703559
 20
185.846881781684
 30
0.0
 10
112.927301703559
 20
185.846881781684
 30
0.0
 10
105.0485405815972
 20
185.1998928493923
 30
0.0
 10
105.0485405815972
 20
185.1998928493923
 30
0.0
 10
105.0485405815972
 20
185.1998928493923
 30
0.0
 10
97.58146837022568
 20
184.4357706705729
 30
0.0
 10
97.58146837022568
 20
184.4357706705729
 30
0.0
 10
97.58146837022568
 20
184.4357706705729
 30
0.0
 10
90.17313503689235
 20
184.0829928927951
 30
0.0
 10
90.17313503689235
 20
184.0829928927951
 30
0.0
 10
90.17313503689235
 20
184.0829928927951
 30
0.0
 10
84.41104058159721
 20
183.6709594726562
 30
0.0
 10
84.41104058159721
 20
183.6709594726562
 30
0.0
 10
84.41104058159721
 20
183.6709594726562
 30
0.0
 10
79.76619059244791
 20
183.4945705837673
 30
0.0
 10
79.76619059244791
 20
183.4945705837673
 30
0.0
 10
79.76619059244791
 20
183.4945705837673
 30
0.0
 10
77.29674614800346
 20
183.3774373372395
 30
0.0
 10
77.29674614800346
 20
183.3774373372395
 30
0.0
 10
77.29674614800346
 20
183.3774373372395
 30
0.0
 10
75.1800794813368
 20
183.5538262261284
 30
0.0
 10
75.1800794813368
 20
183.5538262261284
 30
0.0
 10
75.1800794813368
 20
183.5538262261284
 30
0.0
 10
74.12174614800346
 20
183.6709594726562
 30
0.0
 10
74.12174614800346
 20
183.6709594726562
 30
0.0
 10
74.12174614800346
 20
183.6709594726562
 30
0.0
 10
71.41717393663194
 20
183.6123928493923
 30
0.0
 10
71.41717393663194
 20
183.6123928493923
 30
0.0
 10
71.41717393663194
 20
183.6123928493923
 30
0.0
 10
65.83146837022569
 20
183.2010484483507
 30
0.0
 10
65.83146837022569
 20
183.2010484483507
 30
0.0
 10
65.83146837022569
 20
183.2010484483507
 30
0.0
 10
61.30409613715277
 20
183.1417928059895
 30
0.0
 10
61.30409613715277
 20
183.1417928059895
 30
0.0
 10
61.30409613715277
 20
183.1417928059895
 30
0.0
 10
57.6588406032986
 20
183.1417928059895
 30
0.0
 10
57.6588406032986
 20
183.1417928059895
 30
0.0
 10
57.6588406032986
 20
183.1417928059895
 30
0.0
 10
54.71896837022569
 20
182.8482706705729
 30
0.0
 10
54.5425794813368
 20
182.8482706705729
 30
0.0
 10
54.36619059244791
 20
182.8482706705729
 30
0.0
 10
53.19020724826388
 20
182.8482706705729
 30
0.0
 10
53.19020724826388
 20
182.8482706705729
 30
0.0
  0
POLYLINE
  5
1E0
330
A
100
AcDbEntity
  8
LAYER_1
 62
     7
100
AcDb2dPolyline
 66
     1
 10
0.0
 20
0.0
 30
0.0
  0
VERTEX
  5
1E1
330
1E0
100
AcDbEntity
  8
LAYER_1
 62
     7
100
AcDbVertex
100
AcDb2dVertex
 10
53.42550726996527
 20
192.2554484049479
 30
0.0
  0
VERTEX
  5
1E2
330
1E0
100
AcDbEntity
  8
LAYER_1
 62
     7
100
AcDbVertex
100
AcDb2dVertex
 10
55.60091281467013
 20
192.6082261827257
 30
0.0
  0
VERTEX
  5
1E3
330
1E0
100
AcDbEntity
  8
LAYER_1
 62
     7
100
AcDbVertex
100
AcDb2dVertex
 10
59.01104058159721
 20
192.7846150716145
 30
0.0
  0
VERTEX
  5
1E4
330
1E0
100
AcDbEntity
  8
LAYER_1
 62
     7
100
AcDbVertex
100
AcDb2dVertex
 10
61.95091281467013
 20
192.8431816948784
 30
0.0
  0
VERTEX
  5
1E5
330
1E0
100
AcDbEntity
  8
LAYER_1
 62
     7
100
AcDbVertex
100
AcDb2dVertex
 10
66.71341281467014
 20
192.9024373372396
 30
0.0
  0
VERTEX
  5
1E6
330
1E0
100
AcDbEntity
  8
LAYER_1
 62
     7
100
AcDbVertex
100
AcDb2dVertex
 10
71.29952392578124
 20
193.0195705837673
 30
0.0
  0
VERTEX
  5
1E7
330
1E0
100
AcDbEntity
  8
LAYER_1
 62
     7
100
AcDbVertex
100
AcDb2dVertex
 10
76.6499294704861
 20
193.666559516059
 30
0.0
  0
VERTEX
  5
1E8
330
1E0
100
AcDbEntity
  8
LAYER_1
 62
     7
100
AcDbVertex
100
AcDb2dVertex
 10
81.5300794813368
 20
194.0779039171007
 30
0.0
  0
VERTEX
  5
1E9
330
1E0
100
AcDbEntity
  8
LAYER_1
 62
     7
100
AcDbVertex
100
AcDb2dVertex
 10
85.46937391493054
 20
194.6663262261284
 30
0.0
  0
VERTEX
  5
1EA
330
1E0
100
AcDbEntity
  8
LAYER_1
 62
     7
100
AcDbVertex
100
AcDb2dVertex
 10
90.29078504774304
 20
195.136237250434
 30
0.0
  0
VERTEX
  5
1EB
330
1E0
100
AcDbEntity
  8
LAYER_1
 62
     7
100
AcDbVertex
100
AcDb2dVertex
 10
93.99495171440971
 20
195.136237250434
 30
0.0
  0
VERTEX
  5
1EC
330
1E0
100
AcDbEntity
  8
LAYER_1
 62
     7
100
AcDbVertex
100
AcDb2dVertex
 10
99.05131835937499
 20
195.8417928059895
 30
0.0
  0
VERTEX
  5
1ED
330
1E0
100
AcDbEntity
  8
LAYER_1
 62
     7
100
AcDbVertex
100
AcDb2dVertex
 10
105.7540961371527
 20
195.9596150716145
 30
0.0
  0
VERTEX
  5
1EE
330
1E0
100
AcDbEntity
  8
LAYER_1
 62
     7
100
AcDbVertex
100
AcDb2dVertex
 10
109.6935628255208
 20
196.0774373372395
 30
0.0
  0
VERTEX
  5
1EF
330
1E0
100
AcDbEntity
  8
LAYER_1
 62
     7
100
AcDbVertex
100
AcDb2dVertex
 10
112.8096516927083
 20
196.2538262261285
 30
0.0
  0
SEQEND
  5
1F0
330
1E0
100
AcDbEntity
  8
LAYER_1
 62
     7
  0
HATCH
  5
1DF
330
A
100
AcDbEntity
  8
LAYER_1
 62
     7
100
AcDbHatch
 10
0.0
 20
0.0
 30
0.0
210
0.0
220
0.0
230
1.0
  2
SOLID
 70
     1
 71
     0
 91
        1
 92
        3
 72
     0
 73
     1
 93
        3
 10
318.7564263237847
 20
273.4131130642361
 10
316.1105929904514
 20
272.2665852864583
 10
316.1105929904514
 20
274.5596408420139
 97
        0
 75
     2
 76
     1
 98
        1
 10
0.0
 20
0.0
450
        0
451
        0
460
0.0
461
0.0
452
        0
462
0.0
453
        0
470

  0
HATCH
  5
1DE
330
A
100
AcDbEntity
  8
LAYER_1
 62
     7
100
AcDbHatch
 10
0.0
 20
0.0
 30
0.0
210
0.0
220
0.0
230
1.0
  2
SOLID
 70
     1
 71
     0
 91
        1
 92
        3
 72
     0
 73
     1
 93
        3
 10
318.8621907552083
 20
232.4908908420139
 10
316.216357421875
 20
231.3443630642361
 10
316.216357421875
 20
233.6374186197916
 97
        0
 75
     2
 76
     1
 98
        1
 10
0.0
 20
0.0
450
        0
451
        0
460
0.0
461
0.0
452
        0
462
0.0
453
        0
470

  0
HATCH
  5
1DD
330
A
100
AcDbEntity
  8
LAYER_1
 62
     7
100
AcDbHatch
 10
0.0
 20
0.0
 30
0.0
210
0.0
220
0.0
230
1.0
  2
SOLID
 70
     1
 71
     0
 91
        1
 92
        3
 72
     0
 73
     1
 93
        3
 10
209.4242540147569
 20
217.006047905816
 10
212.0700873480902
 20
218.1525756835938
 10
212.0700873480902
 20
215.8595201280382
 97
        0
 75
     2
 76
     1
 98
        1
 10
0.0
 20
0.0
450
        0
451
        0
460
0.0
461
0.0
452
        0
462
0.0
453
        0
470

  0
HATCH
  5
1DC
330
A
100
AcDbEntity
  8
LAYER_1
 62
     7
100
AcDbHatch
 10
0.0
 20
0.0
 30
0.0
210
0.0
220
0.0
230
1.0
  2
SOLID
 70
     1
 71
     0
 91
        1
 92
        3
 72
     0
 73
     1
 93
        3
 10
209.2761149088541
 20
176.0838256835937
 10
211.9219482421875
 20
177.2303534613715
 10
211.9219482421875
 20
174.937297905816
 97
        0
 75
     2
 76
     1
 98
        1
 10
0.0
 20
0.0
450
        0
451
        0
460
0.0
461
0.0
452
        0
462
0.0
453
        0
470

  0
MTEXT
  5
1DB
330
A
100
AcDbEntity
  8
LAYER_1
 62
     7
100
AcDbMText
 10
52.56716172960069
 20
264.9863600492477
 30
0.0
 40
3.149801346990797
 41
0.0
 46
0.0
 71
     1
 72
     2
  1
\fArial|b0|i0;\H3.1498;\C7;Land Drain
  7
STD
 73
     1
 44
1.0
  0
SPLINE
  5
1DA
330
A
100
AcDbEntity
  8
LAYER_1
 62
     7
100
AcDbSpline
210
0.0
220
0.0
230
1.0
 70
     8
 71
     3
 72
     8
 73
     4
 74
     0
 42
0.00000001
 43
0.0000000001
 40
0.0
 40
0.0
 40
0.0
 40
0.0
 40
1.0
 40
1.0
 40
1.0
 40
1.0
 10
64.20555555555555
 20
259.7868991427951
 30
0.0
 10
64.20555555555555
 20
255.5620062934027
 30
0.0
 10
61.73352728949652
 20
252.1434380425347
 30
0.0
 10
58.6787611219618
 20
252.1434380425347
 30
0.0
  0
HATCH
  5
1D9
330
A
100
AcDbEntity
  8
LAYER_1
 62
     7
100
AcDbHatch
 10
0.0
 20
0.0
 30
0.0
210
0.0
220
0.0
230
1.0
  2
SOLID
 70
     1
 71
     0
 91
        1
 92
        3
 72
     0
 73
     1
 93
        3
 10
58.96367051866318
 20
251.8433702256944
 10
58.39367947048611
 20
252.1732381184896
 10
58.96367051866318
 20
252.4433336046007
 97
        0
 75
     2
 76
     1
 98
        1
 10
0.0
 20
0.0
450
        0
451
        0
460
0.0
461
0.0
452
        0
462
0.0
453
        0
470

  0
CIRCLE
  5
1D8
330
A
100
AcDbEntity
  8
LAYER_1
 62
     7
100
AcDbCircle
 10
88.19444444444444
 20
173.8269436306423
 30
0.0
 40
2.534901258680555
  0
CIRCLE
  5
1D7
330
A
100
AcDbEntity
  8
LAYER_1
 62
     7
100
AcDbCircle
 10
88.19444444444444
 20
173.8269436306423
 30
0.0
 40
2.534901258680555
  0
MTEXT
  5
1D6
330
A
100
AcDbEntity
  8
LAYER_1
 62
     7
100
AcDbMText
 10
86.29430202907986
 20
174.8020203775829
 30
0.0
 40
1.837384147114223
 41
0.0
 46
0.0
 71
     1
 72
     2
  1
\fHelvetica|b0|i0;\H1.8374;\C7;102
  7
STD
 73
     1
 44
1.0
  0
CIRCLE
  5
1D5
330
A
100
AcDbEntity
  8
LAYER_1
 62
     7
100
AcDbCircle
 10
109.3611111111111
 20
153.3656602647569
 30
0.0
 40
2.534901258680555
  0
CIRCLE
  5
1D4
330
A
100
AcDbEntity
  8
LAYER_1
 62
     7
100
AcDbCircle
 10
109.3611111111111
 20
153.3656602647569
 30
0.0
 40
2.534901258680555
  0
MTEXT
  5
1D3
330
A
100
AcDbEntity
  8
LAYER_1
 62
     7
100
AcDbMText
 10
107.4609686957465
 20
154.3410815212461
 30
0.0
 40
1.837384147114223
 41
0.0
 46
0.0
 71
     1
 72
     2
  1
\fHelvetica|b0|i0;\H1.8374;\C7;105
  7
STD
 73
     1
 44
1.0
  0
LINE
  5
1D2
330
A
100
AcDbEntity
  8
LAYER_1
 62
     7
100
AcDbLine
 10
109.3611111111111
 20
159.9006618923611
 30
0.0
 11
109.3611111111111
 21
155.9005615234375
 31
0.0
  0
HATCH
  5
1D1
330
A
100
AcDbEntity
  8
LAYER_1
 62
     7
100
AcDbHatch
 10
0.0
 20
0.0
 30
0.0
210
0.0
220
0.0
230
1.0
  2
SOLID
 70
     1
 71
     0
 91
        1
 92
        1
 93
        1
 72
     4
 94
        3
 73
     0
 74
     0
 95
       17
 96
       13
 40
0.0
 40
0.0
 40
0.0
 40
0.0
 40
1.0
 40
1.0
 40
1.0
 40
2.0
 40
2.0
 40
2.0
 40
3.0
 40
3.0
 40
3.0
 40
4.0
 40
4.0
 40
4.0
 40
4.0
 10
109.7111328125
 20
159.9006618923611
 10
109.7111328125
 20
159.7073920355902
 10
109.5543809678819
 20
159.5506401909722
 10
109.3611111111111
 20
159.5506401909722
 10
109.1678412543402
 20
159.5506401909722
 10
109.0110894097222
 20
159.7073920355902
 10
109.0110894097222
 20
159.9006618923611
 10
109.0110894097222
 20
160.0939317491319
 10
109.1678412543402
 20
160.25068359375
 10
109.3611111111111
 20
160.25068359375
 10
109.5543809678819
 20
160.25068359375
 10
109.7111328125
 20
160.0939317491319
 10
109.7111328125
 20
159.9006618923611
 97
        0
 97
        0
 75
     2
 76
     1
 98
        1
 10
0.0
 20
0.0
450
        0
451
        0
460
0.0
461
0.0
452
        0
462
0.0
453
        0
470

  0
CIRCLE
  5
1D0
330
A
100
AcDbEntity
  8
LAYER_1
 62
     7
100
AcDbCircle
 10
259.6885416666666
 20
251.7458740234375
 30
0.0
 40
2.534901258680555
  0
CIRCLE
  5
1CF
330
A
100
AcDbEntity
  8
LAYER_1
 62
     7
100
AcDbCircle
 10
259.6885416666666
 20
251.7458740234375
 30
0.0
 40
2.534901258680555
  0
MTEXT
  5
1CE
330
A
100
AcDbEntity
  8
LAYER_1
 62
     7
100
AcDbMText
 10
257.7882269965277
 20
252.7209507703781
 30
0.0
 40
1.837384147114223
 41
0.0
 46
0.0
 71
     1
 72
     2
  1
\fHelvetica|b0|i0;\H1.8374;\C7;104
  7
STD
 73
     1
 44
1.0
  0
LINE
  5
1CD
330
A
100
AcDbEntity
  8
LAYER_1
 62
     7
100
AcDbLine
 10
253.1535400390625
 20
251.7458740234375
 30
0.0
 11
257.1536404079861
 21
251.7458740234375
 31
0.0
  0
HATCH
  5
1CC
330
A
100
AcDbEntity
  8
LAYER_1
 62
     7
100
AcDbHatch
 10
0.0
 20
0.0
 30
0.0
210
0.0
220
0.0
230
1.0
  2
SOLID
 70
     1
 71
     0
 91
        1
 92
        1
 93
        1
 72
     4
 94
        3
 73
     0
 74
     0
 95
       17
 96
       13
 40
0.0
 40
0.0
 40
0.0
 40
0.0
 40
1.0
 40
1.0
 40
1.0
 40
2.0
 40
2.0
 40
2.0
 40
3.0
 40
3.0
 40
3.0
 40
4.0
 40
4.0
 40
4.0
 40
4.0
 10
253.5035617404514
 20
251.7458740234375
 10
253.5035617404514
 20
251.5526041666666
 10
253.3468098958333
 20
251.3958523220486
 10
253.1535400390625
 20
251.3958523220486
 10
252.9602701822916
 20
251.3958523220486
 10
252.8035183376736
 20
251.5526041666666
 10
252.8035183376736
 20
251.7458740234375
 10
252.8035183376736
 20
251.9391438802083
 10
252.9602701822916
 20
252.0958957248264
 10
253.1535400390625
 20
252.0958957248264
 10
253.3468098958333
 20
252.0958957248264
 10
253.5035617404514
 20
251.9391438802083
 10
253.5035617404514
 20
251.7458740234375
 97
        0
 97
        0
 75
     2
 76
     1
 98
        1
 10
0.0
 20
0.0
450
        0
451
        0
460
0.0
461
0.0
452
        0
462
0.0
453
        0
470

  0
POLYLINE
  5
1C6
330
A
100
AcDbEntity
  8
LAYER_1
 62
     7
100
AcDb2dPolyline
 66
     1
 10
0.0
 20
0.0
 30
0.0
 70
     1
  0
VERTEX
  5
1C7
330
1C6
100
AcDbEntity
  8
LAYER_1
 62
     7
100
AcDbVertex
100
AcDb2dVertex
 10
241.9814398871527
 20
251.912444390191
 30
0.0
  0
VERTEX
  5
1C8
330
1C6
100
AcDbEntity
  8
LAYER_1
 62
     7
100
AcDbVertex
100
AcDb2dVertex
 10
236.2884195963542
 20
251.912444390191
 30
0.0
  0
VERTEX
  5
1C9
330
1C6
100
AcDbEntity
  8
LAYER_1
 62
     7
100
AcDbVertex
100
AcDb2dVertex
 10
236.2884195963542
 20
255.8739596896701
 30
0.0
  0
VERTEX
  5
1CA
330
1C6
100
AcDbEntity
  8
LAYER_1
 62
     7
100
AcDbVertex
100
AcDb2dVertex
 10
241.9814398871527
 20
255.8739596896701
 30
0.0
  0
SEQEND
  5
1CB
330
1C6
100
AcDbEntity
  8
LAYER_1
 62
     7
  0
POLYLINE
  5
1C0
330
A
100
AcDbEntity
  8
LAYER_1
 62
     7
100
AcDb2dPolyline
 66
     1
 10
0.0
 20
0.0
 30
0.0
 70
     1
  0
VERTEX
  5
1C1
330
1C0
100
AcDbEntity
  8
LAYER_1
 62
     7
100
AcDbVertex
100
AcDb2dVertex
 10
241.9814398871527
 20
251.912444390191
 30
0.0
  0
VERTEX
  5
1C2
330
1C0
100
AcDbEntity
  8
LAYER_1
 62
     7
100
AcDbVertex
100
AcDb2dVertex
 10
236.2884195963542
 20
251.912444390191
 30
0.0
  0
VERTEX
  5
1C3
330
1C0
100
AcDbEntity
  8
LAYER_1
 62
     7
100
AcDbVertex
100
AcDb2dVertex
 10
236.2884195963542
 20
255.8739596896701
 30
0.0
  0
VERTEX
  5
1C4
330
1C0
100
AcDbEntity
  8
LAYER_1
 62
     7
100
AcDbVertex
100
AcDb2dVertex
 10
241.9814398871527
 20
255.8739596896701
 30
0.0
  0
SEQEND
  5
1C5
330
1C0
100
AcDbEntity
  8
LAYER_1
 62
     7
  0
MTEXT
  5
1BF
330
A
100
AcDbEntity
  8
LAYER_1
 62
     7
100
AcDbMText
 10
237.2344428168402
 20
254.8808533853955
 30
0.0
 40
1.837384147114223
 41
0.0
 46
0.0
 71
     1
 72
     2
  1
\fHelvetica|b0|i0;\H1.8374;\C7;103
  7
STD
 73
     1
 44
1.0
  0
LINE
  5
1BE
330
A
100
AcDbEntity
  8
LAYER_1
 62
     7
100
AcDbLine
 10
245.9815402560764
 20
253.8930297851562
 30
0.0
 11
241.9814398871527
 21
253.8930297851562
 31
0.0
  0
HATCH
  5
1BD
330
A
100
AcDbEntity
  8
LAYER_1
 62
     7
100
AcDbHatch
 10
0.0
 20
0.0
 30
0.0
210
0.0
220
0.0
230
1.0
  2
SOLID
 70
     1
 71
     0
 91
        1
 92
        1
 93
        1
 72
     4
 94
        3
 73
     0
 74
     0
 95
       17
 96
       13
 40
0.0
 40
0.0
 40
0.0
 40
0.0
 40
1.0
 40
1.0
 40
1.0
 40
2.0
 40
2.0
 40
2.0
 40
3.0
 40
3.0
 40
3.0
 40
4.0
 40
4.0
 40
4.0
 40
4.0
 10
246.3315619574653
 20
253.8930297851562
 10
246.3315619574653
 20
253.6997599283854
 10
246.1748101128472
 20
253.5430080837674
 10
245.9815402560764
 20
253.5430080837674
 10
245.7882703993055
 20
253.5430080837674
 10
245.6315185546875
 20
253.6997599283854
 10
245.6315185546875
 20
253.8930297851562
 10
245.6315185546875
 20
254.0862996419271
 10
245.7882703993055
 20
254.2430514865451
 10
245.9815402560764
 20
254.2430514865451
 10
246.1748101128472
 20
254.2430514865451
 10
246.3315619574653
 20
254.0862996419271
 10
246.3315619574653
 20
253.8930297851562
 97
        0
 97
        0
 75
     2
 76
     1
 98
        1
 10
0.0
 20
0.0
450
        0
451
        0
460
0.0
461
0.0
452
        0
462
0.0
453
        0
470

  0
CIRCLE
  5
1BC
330
A
100
AcDbEntity
  8
LAYER_1
 62
     7
100
AcDbCircle
 10
88.89999999999998
 20
200.6378824869791
 30
0.0
 40
2.534901258680555
  0
CIRCLE
  5
1BB
330
A
100
AcDbEntity
  8
LAYER_1
 62
     7
100
AcDbCircle
 10
88.89999999999998
 20
200.6378824869791
 30
0.0
 40
2.534901258680555
  0
MTEXT
  5
1BA
330
A
100
AcDbEntity
  8
LAYER_1
 62
     7
100
AcDbMText
 10
86.9998575846354
 20
201.6133037434684
 30
0.0
 40
1.837384147114223
 41
0.0
 46
0.0
 71
     1
 72
     2
  1
\fHelvetica|b0|i0;\H1.8374;\C7;101
  7
STD
 73
     1
 44
1.0
  0
LINE
  5
1B9
330
A
100
AcDbEntity
  8
LAYER_1
 62
     7
100
AcDbLine
 10
88.89999999999998
 20
194.1028808593749
 30
0.0
 11
88.89999999999998
 21
198.1029812282986
 31
0.0
  0
HATCH
  5
1B8
330
A
100
AcDbEntity
  8
LAYER_1
 62
     7
100
AcDbHatch
 10
0.0
 20
0.0
 30
0.0
210
0.0
220
0.0
230
1.0
  2
SOLID
 70
     1
 71
     0
 91
        1
 92
        1
 93
        1
 72
     4
 94
        3
 73
     0
 74
     0
 95
       17
 96
       13
 40
0.0
 40
0.0
 40
0.0
 40
0.0
 40
1.0
 40
1.0
 40
1.0
 40
2.0
 40
2.0
 40
2.0
 40
3.0
 40
3.0
 40
3.0
 40
4.0
 40
4.0
 40
4.0
 40
4.0
 10
89.25002170138887
 20
194.1028808593749
 10
89.25002170138887
 20
193.9096110026041
 10
89.09326985677083
 20
193.7528591579861
 10
88.89999999999998
 20
193.7528591579861
 10
88.70673014322916
 20
193.7528591579861
 10
88.5499782986111
 20
193.9096110026041
 10
88.5499782986111
 20
194.1028808593749
 10
88.5499782986111
 20
194.2961507161458
 10
88.70673014322916
 20
194.4529025607639
 10
88.89999999999998
 20
194.4529025607639
 10
89.09326985677083
 20
194.4529025607639
 10
89.25002170138887
 20
194.2961507161458
 10
89.25002170138887
 20
194.1028808593749
 97
        0
 97
        0
 75
     2
 76
     1
 98
        1
 10
0.0
 20
0.0
450
        0
451
        0
460
0.0
461
0.0
452
        0
462
0.0
453
        0
470

  0
CIRCLE
  5
1B7
330
A
100
AcDbEntity
  8
LAYER_1
 62
     7
100
AcDbCircle
 10
260.9094835069444
 20
196.3340969509548
 30
0.0
 40
2.534901258680555
  0
CIRCLE
  5
1B6
330
A
100
AcDbEntity
  8
LAYER_1
 62
     7
100
AcDbCircle
 10
260.9094835069444
 20
196.3340969509548
 30
0.0
 40
2.534901258680555
  0
MTEXT
  5
1B5
330
A
100
AcDbEntity
  8
LAYER_1
 62
     7
100
AcDbMText
 10
259.0091688368056
 20
197.3091736978954
 30
0.0
 40
1.837384147114223
 41
0.0
 46
0.0
 71
     1
 72
     2
  1
\fHelvetica|b0|i0;\H1.8374;\C7;105
  7
STD
 73
     1
 44
1.0
  0
CIRCLE
  5
1B4
330
A
100
AcDbEntity
  8
LAYER_1
 62
     7
100
AcDbCircle
 10
288.2473497178819
 20
254.3994588216146
 30
0.0
 40
2.534901258680555
  0
CIRCLE
  5
1B3
330
A
100
AcDbEntity
  8
LAYER_1
 62
     7
100
AcDbCircle
 10
288.2473497178819
 20
254.3994588216146
 30
0.0
 40
2.534901258680555
  0
MTEXT
  5
1B2
330
A
100
AcDbEntity
  8
LAYER_1
 62
     7
100
AcDbMText
 10
286.347035047743
 20
255.3745355685552
 30
0.0
 40
1.837384147114223
 41
0.0
 46
0.0
 71
     1
 72
     2
  1
\fHelvetica|b0|i0;\H1.8374;\C7;105
  7
STD
 73
     1
 44
1.0
  0
CIRCLE
  5
1B1
330
A
100
AcDbEntity
  8
LAYER_1
 62
     7
100
AcDbCircle
 10
174.482373046875
 20
253.8704644097222
 30
0.0
 40
2.534901258680555
  0
CIRCLE
  5
1B0
330
A
100
AcDbEntity
  8
LAYER_1
 62
     7
100
AcDbCircle
 10
174.482373046875
 20
253.8704644097222
 30
0.0
 40
2.534901258680555
  0
MTEXT
  5
1AF
330
A
100
AcDbEntity
  8
LAYER_1
 62
     7
100
AcDbMText
 10
172.5822306315104
 20
254.8455411566628
 30
0.0
 40
1.837384147114223
 41
0.0
 46
0.0
 71
     1
 72
     2
  1
\fHelvetica|b0|i0;\H1.8374;\C7;105
  7
STD
 73
     1
 44
1.0
  0
CIRCLE
  5
1AE
330
A
100
AcDbEntity
  8
LAYER_1
 62
     7
100
AcDbCircle
 10
40.60992431640624
 20
250.6954644097222
 30
0.0
 40
2.534901258680555
  0
CIRCLE
  5
1AD
330
A
100
AcDbEntity
  8
LAYER_1
 62
     7
100
AcDbCircle
 10
40.60992431640624
 20
250.6954644097222
 30
0.0
 40
2.534901258680555
  0
MTEXT
  5
1AC
330
A
100
AcDbEntity
  8
LAYER_1
 62
     7
100
AcDbMText
 10
38.70978190104167
 20
251.6705411566628
 30
0.0
 40
1.837384147114223
 41
0.0
 46
0.0
 71
     1
 72
     2
  1
\fHelvetica|b0|i0;\H1.8374;\C7;105
  7
STD
 73
     1
 44
1.0
  0
POLYLINE
  5
1A7
330
A
100
AcDbEntity
  8
LAYER_1
 62
     7
100
AcDb2dPolyline
 66
     1
 10
0.0
 20
0.0
 30
0.0
  0
VERTEX
  5
1A8
330
1A7
100
AcDbEntity
  8
LAYER_1
 62
     7
100
AcDbVertex
100
AcDb2dVertex
 10
217.2194715711806
 20
273.7844943576389
 30
0.0
  0
VERTEX
  5
1A9
330
1A7
100
AcDbEntity
  8
LAYER_1
 62
     7
100
AcDbVertex
100
AcDb2dVertex
 10
215.2192491319444
 20
273.7844943576389
 30
0.0
  0
VERTEX
  5
1AA
330
1A7
100
AcDbEntity
  8
LAYER_1
 62
     7
100
AcDbVertex
100
AcDb2dVertex
 10
215.2192491319444
 20
274.7842610677083
 30
0.0
  0
SEQEND
  5
1AB
330
1A7
100
AcDbEntity
  8
LAYER_1
 62
     7
  0
HATCH
  5
1A6
330
A
100
AcDbEntity
  8
LAYER_1
 62
     7
100
AcDbHatch
 10
0.0
 20
0.0
 30
0.0
210
0.0
220
0.0
230
1.0
  2
SOLID
 70
     1
 71
     0
 91
        1
 92
        1
 93
        1
 72
     4
 94
        3
 73
     0
 74
     0
 95
       20
 96
       16
 40
0.0
 40
0.0
 40
0.0
 40
0.0
 40
1.0
 40
1.0
 40
1.0
 40
2.0
 40
2.0
 40
2.0
 40
3.0
 40
3.0
 40
3.0
 40
4.0
 40
4.0
 40
4.0
 40
5.0
 40
5.0
 40
5.0
 40
5.0
 10
215.0387261284722
 20
275.2011176215278
 10
214.9505316840278
 20
274.9089735243055
 10
214.8692274305555
 20
274.7194932725694
 10
214.7755208333333
 20
274.4859157986111
 10
214.7755208333333
 20
274.4859157986111
 10
215.6650444878472
 20
274.4859157986111
 10
215.6650444878472
 20
274.4859157986111
 10
215.6250813802083
 20
274.569287109375
 10
215.4900336371528
 20
274.9089735243055
 10
215.4018391927083
 20
275.2011176215278
 10
215.3074435763889
 20
275.5132432725694
 10
215.2433648003472
 20
275.7957411024305
 10
215.2199381510417
 20
275.9795369466145
 10
215.1972005208333
 20
275.7957411024305
 10
215.1324327256944
 20
275.5132432725694
 10
215.0387261284722
 20
275.2011176215278
 97
        0
 97
        0
 75
     2
 76
     1
 98
        1
 10
0.0
 20
0.0
450
        0
451
        0
460
0.0
461
0.0
452
        0
462
0.0
453
        0
470

  0
MTEXT
  5
1A5
330
A
100
AcDbEntity
  8
LAYER_1
 62
     7
100
AcDbMText
 10
214.4096516927083
 20
278.1605693684684
 30
0.0
 40
1.837384147114223
 41
0.0
 46
0.0
 71
     1
 72
     2
  1
\fHelvetica|b0|i0;\H1.8374;\C7;A
  7
STD
 73
     1
 44
1.0
  0
POLYLINE
  5
1A0
330
A
100
AcDbEntity
  8
LAYER_1
 62
     7
100
AcDb2dPolyline
 66
     1
 10
0.0
 20
0.0
 30
0.0
  0
VERTEX
  5
1A1
330
1A0
100
AcDbEntity
  8
LAYER_1
 62
     7
100
AcDbVertex
100
AcDb2dVertex
 10
245.5068060980903
 20
274.7842610677083
 30
0.0
  0
VERTEX
  5
1A2
330
1A0
100
AcDbEntity
  8
LAYER_1
 62
     7
100
AcDbVertex
100
AcDb2dVertex
 10
245.5068060980903
 20
273.7844943576389
 30
0.0
  0
VERTEX
  5
1A3
330
1A0
100
AcDbEntity
  8
LAYER_1
 62
     7
100
AcDbVertex
100
AcDb2dVertex
 10
243.5065836588541
 20
273.7844943576389
 30
0.0
  0
SEQEND
  5
1A4
330
1A0
100
AcDbEntity
  8
LAYER_1
 62
     7
  0
HATCH
  5
19F
330
A
100
AcDbEntity
  8
LAYER_1
 62
     7
100
AcDbHatch
 10
0.0
 20
0.0
 30
0.0
210
0.0
220
0.0
230
1.0
  2
SOLID
 70
     1
 71
     0
 91
        1
 92
        1
 93
        1
 72
     4
 94
        3
 73
     0
 74
     0
 95
       20
 96
       16
 40
0.0
 40
0.0
 40
0.0
 40
0.0
 40
1.0
 40
1.0
 40
1.0
 40
2.0
 40
2.0
 40
2.0
 40
3.0
 40
3.0
 40
3.0
 40
4.0
 40
4.0
 40
4.0
 40
5.0
 40
5.0
 40
5.0
 40
5.0
 10
245.326283094618
 20
275.2011176215278
 10
245.2380886501736
 20
274.9089735243055
 10
245.1567843967014
 20
274.7194932725694
 10
245.0630777994792
 20
274.4859157986111
 10
245.0630777994792
 20
274.4859157986111
 10
245.952601453993
 20
274.4859157986111
 10
245.952601453993
 20
274.4859157986111
 10
245.9126383463542
 20
274.569287109375
 10
245.7775906032986
 20
274.9089735243055
 10
245.6893961588542
 20
275.2011176215278
 10
245.5950005425347
 20
275.5132432725694
 10
245.530921766493
 20
275.7957411024305
 10
245.5074951171875
 20
275.9795369466145
 10
245.4847574869791
 20
275.7957411024305
 10
245.4199896918403
 20
275.5132432725694
 10
245.326283094618
 20
275.2011176215278
 97
        0
 97
        0
 75
     2
 76
     1
 98
        1
 10
0.0
 20
0.0
450
        0
451
        0
460
0.0
461
0.0
452
        0
462
0.0
453
        0
470

  0
MTEXT
  5
19E
330
A
100
AcDbEntity
  8
LAYER_1
 62
     7
100
AcDbMText
 10
244.8959906684028
 20
278.1603971136941
 30
0.0
 40
1.837384147114223
 41
0.0
 46
0.0
 71
     1
 72
     2
  1
\fHelvetica|b0|i0;\H1.8374;\C7;B
  7
STD
 73
     1
 44
1.0
  0
MTEXT
  5
19D
330
A
100
AcDbEntity
  8
LAYER_1
 62
     7
100
AcDbMText
 10
52.38749999999999
 20
197.0849060561921
 30
0.0
 40
3.149801346990797
 41
0.0
 46
0.0
 71
     1
 72
     2
  1
\fArial|b0|i0;\H3.1498;\C7;A
  7
STD
 73
     1
 44
1.0
  0
MTEXT
  5
19C
330
A
100
AcDbEntity
  8
LAYER_1
 62
     7
100
AcDbMText
 10
111.8305555555555
 20
200.6126838339699
 30
0.0
 40
3.149801346990797
 41
0.0
 46
0.0
 71
     1
 72
     2
  1
\fArial|b0|i0;\H3.1498;\C7;B
  7
STD
 73
     1
 44
1.0
  0
MTEXT
  5
19B
330
A
100
AcDbEntity
  8
LAYER_1
 62
     7
100
AcDbMText
 10
117.5752522786458
 20
198.6386360459857
 30
0.0
 40
1.837384147114223
 41
0.0
 46
0.0
 71
     1
 72
     2
  1
\fHelvetica|b0|i0;\H1.8374;\C7;52
  7
STD
 73
     1
 44
1.0
  0
LINE
  5
19A
330
A
100
AcDbEntity
  8
LAYER_1
 62
     7
100
AcDbLine
 10
120.0333279079861
 20
196.4045491536458
 30
0.0
 11
117.6506998697916
 21
196.4045491536458
 31
0.0
  0
LINE
  5
199
330
A
100
AcDbEntity
  8
LAYER_1
 62
     7
100
AcDbLine
 10
119.2388888888888
 20
196.4045491536458
 30
0.0
 11
119.5899441189236
 21
194.5686577690972
 31
0.0
  0
LINE
  5
198
330
A
100
AcDbEntity
  8
LAYER_1
 62
     7
100
AcDbLine
 10
118.4451388888889
 20
196.4045491536458
 30
0.0
 11
118.0940836588541
 21
194.5686577690972
 31
0.0
  0
MTEXT
  5
197
330
A
100
AcDbEntity
  8
LAYER_1
 62
     7
100
AcDbMText
 10
46.84330783420138
 20
194.2289138237635
 30
0.0
 40
1.837384147114223
 41
0.0
 46
0.0
 71
     1
 72
     2
  1
\fHelvetica|b0|i0;\H1.8374;\C7;51
  7
STD
 73
     1
 44
1.0
  0
LINE
  5
196
330
A
100
AcDbEntity
  8
LAYER_1
 62
     7
100
AcDbLine
 10
49.30138346354166
 20
191.9948269314236
 30
0.0
 11
46.91875542534722
 21
191.9948269314236
 31
0.0
  0
LINE
  5
195
330
A
100
AcDbEntity
  8
LAYER_1
 62
     7
100
AcDbLine
 10
48.50694444444444
 20
191.9948269314236
 30
0.0
 11
48.85799967447916
 21
190.1589355468749
 31
0.0
  0
LINE
  5
194
330
A
100
AcDbEntity
  8
LAYER_1
 62
     7
100
AcDbLine
 10
47.71319444444444
 20
191.9948269314236
 30
0.0
 11
47.36213921440971
 21
190.1589355468749
 31
0.0
  0
MTEXT
  5
193
330
A
100
AcDbEntity
  8
LAYER_1
 62
     7
100
AcDbMText
 10
23.35413004557292
 20
255.3182082573573
 30
0.0
 40
1.837384147114223
 41
0.0
 46
0.0
 71
     1
 72
     2
  1
\fHelvetica|b0|i0;\H1.8374;\C7;41
  7
STD
 73
     1
 44
1.0
  0
LINE
  5
192
330
A
100
AcDbEntity
  8
LAYER_1
 62
     7
100
AcDbLine
 10
25.81220567491319
 20
253.0841213650173
 30
0.0
 11
23.42957763671875
 21
253.0841213650173
 31
0.0
  0
LINE
  5
191
330
A
100
AcDbEntity
  8
LAYER_1
 62
     7
100
AcDbLine
 10
25.01776665581597
 20
253.0841213650173
 30
0.0
 11
25.3688218858507
 21
251.2482299804687
 31
0.0
  0
LINE
  5
190
330
A
100
AcDbEntity
  8
LAYER_1
 62
     7
100
AcDbLine
 10
24.22401665581597
 20
253.0841213650173
 30
0.0
 11
23.87296142578125
 21
251.2482299804687
 31
0.0
  0
MTEXT
  5
18F
330
A
100
AcDbEntity
  8
LAYER_1
 62
     7
100
AcDbMText
 10
73.68387451171874
 20
253.9070971462461
 30
0.0
 40
1.837384147114223
 41
0.0
 46
0.0
 71
     1
 72
     2
  1
\fHelvetica|b0|i0;\H1.8374;\C7;42
  7
STD
 73
     1
 44
1.0
  0
LINE
  5
18E
330
A
100
AcDbEntity
  8
LAYER_1
 62
     7
100
AcDbLine
 10
76.14195014105902
 20
251.6730102539062
 30
0.0
 11
73.75932210286457
 21
251.6730102539062
 31
0.0
  0
LINE
  5
18D
330
A
100
AcDbEntity
  8
LAYER_1
 62
     7
100
AcDbLine
 10
75.3475111219618
 20
251.6730102539062
 30
0.0
 11
75.69856635199652
 21
249.8371188693576
 31
0.0
  0
LINE
  5
18C
330
A
100
AcDbEntity
  8
LAYER_1
 62
     7
100
AcDbLine
 10
74.5537611219618
 20
251.6730102539062
 30
0.0
 11
74.20270589192708
 21
249.8371188693576
 31
0.0
  0
MTEXT
  5
18B
330
A
100
AcDbEntity
  8
LAYER_1
 62
     7
100
AcDbMText
 10
117.5752522786458
 20
254.6126527018017
 30
0.0
 40
1.837384147114223
 41
0.0
 46
0.0
 71
     1
 72
     2
  1
\fHelvetica|b0|i0;\H1.8374;\C7;43
  7
STD
 73
     1
 44
1.0
  0
LINE
  5
18A
330
A
100
AcDbEntity
  8
LAYER_1
 62
     7
100
AcDbLine
 10
120.0333279079861
 20
252.3785658094618
 30
0.0
 11
117.6506998697916
 21
252.3785658094618
 31
0.0
  0
LINE
  5
189
330
A
100
AcDbEntity
  8
LAYER_1
 62
     7
100
AcDbLine
 10
119.2388888888888
 20
252.3785658094618
 30
0.0
 11
119.5899441189236
 21
250.5426744249132
 31
0.0
  0
LINE
  5
188
330
A
100
AcDbEntity
  8
LAYER_1
 62
     7
100
AcDbLine
 10
118.4451388888889
 20
252.3785658094618
 30
0.0
 11
118.0940836588541
 21
250.5426744249132
 31
0.0
  0
MTEXT
  5
187
330
A
100
AcDbEntity
  8
LAYER_1
 62
     7
100
AcDbMText
 10
197.391224500868
 20
254.0247471570968
 30
0.0
 40
1.837384147114223
 41
0.0
 46
0.0
 71
     1
 72
     2
  1
\fHelvetica|b0|i0;\H1.8374;\C7;44
  7
STD
 73
     1
 44
1.0
  0
LINE
  5
186
330
A
100
AcDbEntity
  8
LAYER_1
 62
     7
100
AcDbLine
 10
199.8493001302083
 20
251.7906602647569
 30
0.0
 11
197.4666720920139
 21
251.7906602647569
 31
0.0
  0
LINE
  5
185
330
A
100
AcDbEntity
  8
LAYER_1
 62
     7
100
AcDbLine
 10
199.054861111111
 20
251.7906602647569
 30
0.0
 11
199.4059163411458
 21
249.9547688802083
 31
0.0
  0
LINE
  5
184
330
A
100
AcDbEntity
  8
LAYER_1
 62
     7
100
AcDbLine
 10
198.2611111111111
 20
251.7906602647569
 30
0.0
 11
197.9100558810763
 21
249.9547688802083
 31
0.0
  0
MTEXT
  5
183
330
A
100
AcDbEntity
  8
LAYER_1
 62
     7
100
AcDbMText
 10
248.3676133897569
 20
247.1455804904302
 30
0.0
 40
1.837384147114223
 41
0.0
 46
0.0
 71
     1
 72
     2
  1
\fHelvetica|b0|i0;\H1.8374;\C7;45
  7
STD
 73
     1
 44
1.0
  0
LINE
  5
182
330
A
100
AcDbEntity
  8
LAYER_1
 62
     7
100
AcDbLine
 10
250.8256890190972
 20
244.9114935980903
 30
0.0
 11
248.4430609809027
 21
244.9114935980903
 31
0.0
  0
LINE
  5
181
330
A
100
AcDbEntity
  8
LAYER_1
 62
     7
100
AcDbLine
 10
250.03125
 20
244.9114935980903
 30
0.0
 11
250.3823052300347
 21
243.0756022135417
 31
0.0
  0
LINE
  5
180
330
A
100
AcDbEntity
  8
LAYER_1
 62
     7
100
AcDbLine
 10
249.2375
 20
244.9114935980903
 30
0.0
 11
248.8864447699653
 21
243.0756022135417
 31
0.0
  0
MTEXT
  5
17F
330
A
100
AcDbEntity
  8
LAYER_1
 62
     7
100
AcDbMText
 10
268.2113633897569
 20
246.6164138237635
 30
0.0
 40
1.837384147114223
 41
0.0
 46
0.0
 71
     1
 72
     2
  1
\fHelvetica|b0|i0;\H1.8374;\C7;47
  7
STD
 73
     1
 44
1.0
  0
LINE
  5
17E
330
A
100
AcDbEntity
  8
LAYER_1
 62
     7
100
AcDbLine
 10
270.6694390190972
 20
244.3823269314236
 30
0.0
 11
268.2868109809028
 21
244.3823269314236
 31
0.0
  0
LINE
  5
17D
330
A
100
AcDbEntity
  8
LAYER_1
 62
     7
100
AcDbLine
 10
269.875
 20
244.3823269314236
 30
0.0
 11
270.2260552300347
 21
242.546435546875
 31
0.0
  0
LINE
  5
17C
330
A
100
AcDbEntity
  8
LAYER_1
 62
     7
100
AcDbLine
 10
269.0812499999999
 20
244.3823269314236
 30
0.0
 11
268.7301947699652
 21
242.546435546875
 31
0.0
  0
MTEXT
  5
17B
330
A
100
AcDbEntity
  8
LAYER_1
 62
     7
100
AcDbMText
 10
220.7479383680555
 20
261.7269471353954
 30
0.0
 40
1.837384147114223
 41
0.0
 46
0.0
 71
     1
 72
     2
  1
\fHelvetica|b0|i0;\H1.8374;\C7;46
  7
STD
 73
     1
 44
1.0
  0
LINE
  5
17A
330
A
100
AcDbEntity
  8
LAYER_1
 62
     7
100
AcDbLine
 10
223.2060139973958
 20
259.4928602430556
 30
0.0
 11
220.8233859592014
 21
259.4928602430556
 31
0.0
  0
LINE
  5
179
330
A
100
AcDbEntity
  8
LAYER_1
 62
     7
100
AcDbLine
 10
222.4115749782986
 20
259.4928602430556
 30
0.0
 11
222.7626302083333
 21
257.6569688585069
 31
0.0
  0
LINE
  5
178
330
A
100
AcDbEntity
  8
LAYER_1
 62
     7
100
AcDbLine
 10
221.6178249782986
 20
259.4928602430556
 30
0.0
 11
221.2667697482639
 21
257.6569688585069
 31
0.0
  0
SPLINE
  5
177
330
A
100
AcDbEntity
  8
LAYER_1
 62
     7
100
AcDbSpline
210
0.0
220
0.0
230
1.0
 70
     8
 71
     3
 72
     8
 73
     4
 74
     0
 42
0.00000001
 43
0.0000000001
 40
0.0
 40
0.0
 40
0.0
 40
0.0
 40
1.0
 40
1.0
 40
1.0
 40
1.0
 10
221.8972222222222
 20
262.1976047092013
 30
0.0
 10
221.8972222222222
 20
265.9999565972222
 30
0.0
 10
226.8674614800347
 20
269.076771375868
 30
0.0
 10
233.0097222222222
 20
269.076771375868
 30
0.0
  0
HATCH
  5
176
330
A
100
AcDbEntity
  8
LAYER_1
 62
     7
100
AcDbHatch
 10
0.0
 20
0.0
 30
0.0
210
0.0
220
0.0
230
1.0
  2
SOLID
 70
     1
 71
     0
 91
        1
 92
        3
 72
     0
 73
     1
 93
        3
 10
233.3215033637153
 20
269.0771158854166
 10
232.5842529296874
 20
268.761028374566
 10
232.5842529296874
 20
269.4142184787326
 97
        0
 75
     2
 76
     1
 98
        1
 10
0.0
 20
0.0
450
        0
451
        0
460
0.0
461
0.0
452
        0
462
0.0
453
        0
470

  0
MTEXT
  5
175
330
A
100
AcDbEntity
  8
LAYER_1
 62
     7
100
AcDbMText
 10
309.3974799262152
 20
254.9426928493712
 30
0.0
 40
1.837384147114223
 41
0.0
 46
0.0
 71
     1
 72
     2
  1
\fHelvetica|b0|i0;\H1.8374;\C7;48
  7
STD
 73
     1
 44
1.0
  0
LINE
  5
174
330
A
100
AcDbEntity
  8
LAYER_1
 62
     7
100
AcDbLine
 10
311.8555555555555
 20
252.7086059570312
 30
0.0
 11
309.4729275173611
 21
252.7086059570312
 31
0.0
  0
LINE
  5
173
330
A
100
AcDbEntity
  8
LAYER_1
 62
     7
100
AcDbLine
 10
311.0611165364583
 20
252.7086059570312
 30
0.0
 11
311.412171766493
 21
250.8727145724826
 31
0.0
  0
LINE
  5
172
330
A
100
AcDbEntity
  8
LAYER_1
 62
     7
100
AcDbLine
 10
310.2673665364583
 20
252.7086059570312
 30
0.0
 11
309.9163113064236
 21
250.8727145724826
 31
0.0
  0
MTEXT
  5
171
330
A
100
AcDbEntity
  8
LAYER_1
 62
     7
100
AcDbMText
 10
268.6523356119792
 20
198.6386360459857
 30
0.0
 40
1.837384147114223
 41
0.0
 46
0.0
 71
     1
 72
     2
  1
\fHelvetica|b0|i0;\H1.8374;\C7;49
  7
STD
 73
     1
 44
1.0
  0
LINE
  5
170
330
A
100
AcDbEntity
  8
LAYER_1
 62
     7
100
AcDbLine
 10
271.1104112413194
 20
196.4045491536458
 30
0.0
 11
268.727783203125
 21
196.4045491536458
 31
0.0
  0
LINE
  5
16F
330
A
100
AcDbEntity
  8
LAYER_1
 62
     7
100
AcDbLine
 10
270.3159722222222
 20
196.4045491536458
 30
0.0
 11
270.6670274522569
 21
194.5686577690972
 31
0.0
  0
LINE
  5
16E
330
A
100
AcDbEntity
  8
LAYER_1
 62
     7
100
AcDbLine
 10
269.5222222222222
 20
196.4045491536458
 30
0.0
 11
269.1711669921875
 21
194.5686577690972
 31
0.0
  0
MTEXT
  5
16D
330
A
100
AcDbEntity
  8
LAYER_1
 62
     7
100
AcDbMText
 10
323.6856689453124
 20
198.9914138237635
 30
0.0
 40
1.837384147114223
 41
0.0
 46
0.0
 71
     1
 72
     2
  1
\fHelvetica|b0|i0;\H1.8374;\C7;50
  7
STD
 73
     1
 44
1.0
  0
LINE
  5
16C
330
A
100
AcDbEntity
  8
LAYER_1
 62
     7
100
AcDbLine
 10
326.1437445746528
 20
196.7573269314236
 30
0.0
 11
323.7611165364583
 21
196.7573269314236
 31
0.0
  0
LINE
  5
16B
330
A
100
AcDbEntity
  8
LAYER_1
 62
     7
100
AcDbLine
 10
325.3493055555555
 20
196.7573269314236
 30
0.0
 11
325.7003607855903
 21
194.921435546875
 31
0.0
  0
LINE
  5
16A
330
A
100
AcDbEntity
  8
LAYER_1
 62
     7
100
AcDbLine
 10
324.5555555555555
 20
196.7573269314236
 30
0.0
 11
324.2045003255208
 21
194.921435546875
 31
0.0
  0
POLYLINE
  5
165
330
A
100
AcDbEntity
  8
LAYER_1
 62
     7
100
AcDb2dPolyline
 66
     1
 10
0.0
 20
0.0
 30
0.0
  0
VERTEX
  5
166
330
165
100
AcDbEntity
  8
LAYER_1
 62
     7
100
AcDbVertex
100
AcDb2dVertex
 10
73.55106608072915
 20
155.4308227539062
 30
0.0
  0
VERTEX
  5
167
330
165
100
AcDbEntity
  8
LAYER_1
 62
     7
100
AcDbVertex
100
AcDb2dVertex
 10
69.55096571180554
 20
155.4308227539062
 30
0.0
  0
VERTEX
  5
168
330
165
100
AcDbEntity
  8
LAYER_1
 62
     7
100
AcDbVertex
100
AcDb2dVertex
 10
69.55096571180554
 20
151.4307223849826
 30
0.0
  0
SEQEND
  5
169
330
165
100
AcDbEntity
  8
LAYER_1
 62
     7
  0
POLYLINE
  5
15F
330
A
100
AcDbEntity
  8
LAYER_1
 62
     7
100
AcDb2dPolyline
 66
     1
 10
0.0
 20
0.0
 30
0.0
 70
     1
  0
VERTEX
  5
160
330
15F
100
AcDbEntity
  8
LAYER_1
 62
     7
100
AcDbVertex
100
AcDb2dVertex
 10
72.39764811197916
 20
147.4690348307291
 30
0.0
  0
VERTEX
  5
161
330
15F
100
AcDbEntity
  8
LAYER_1
 62
     7
100
AcDbVertex
100
AcDb2dVertex
 10
66.70462782118055
 20
147.4690348307291
 30
0.0
  0
VERTEX
  5
162
330
15F
100
AcDbEntity
  8
LAYER_1
 62
     7
100
AcDbVertex
100
AcDb2dVertex
 10
66.70462782118055
 20
151.4307223849826
 30
0.0
  0
VERTEX
  5
163
330
15F
100
AcDbEntity
  8
LAYER_1
 62
     7
100
AcDbVertex
100
AcDb2dVertex
 10
72.39764811197916
 20
151.4307223849826
 30
0.0
  0
SEQEND
  5
164
330
15F
100
AcDbEntity
  8
LAYER_1
 62
     7
  0
POLYLINE
  5
159
330
A
100
AcDbEntity
  8
LAYER_1
 62
     7
100
AcDb2dPolyline
 66
     1
 10
0.0
 20
0.0
 30
0.0
 70
     1
  0
VERTEX
  5
15A
330
159
100
AcDbEntity
  8
LAYER_1
 62
     7
100
AcDbVertex
100
AcDb2dVertex
 10
72.39764811197916
 20
147.4690348307291
 30
0.0
  0
VERTEX
  5
15B
330
159
100
AcDbEntity
  8
LAYER_1
 62
     7
100
AcDbVertex
100
AcDb2dVertex
 10
66.70462782118055
 20
147.4690348307291
 30
0.0
  0
VERTEX
  5
15C
330
159
100
AcDbEntity
  8
LAYER_1
 62
     7
100
AcDbVertex
100
AcDb2dVertex
 10
66.70462782118055
 20
151.4307223849826
 30
0.0
  0
VERTEX
  5
15D
330
159
100
AcDbEntity
  8
LAYER_1
 62
     7
100
AcDbVertex
100
AcDb2dVertex
 10
72.39764811197916
 20
151.4307223849826
 30
0.0
  0
SEQEND
  5
15E
330
159
100
AcDbEntity
  8
LAYER_1
 62
     7
  0
MTEXT
  5
158
330
A
100
AcDbEntity
  8
LAYER_1
 62
     7
100
AcDbMText
 10
67.65082329644096
 20
150.4377883354822
 30
0.0
 40
1.837384147114223
 41
0.0
 46
0.0
 71
     1
 72
     2
  1
\fHelvetica|b0|i0;\H1.8374;\C7;103
  7
STD
 73
     1
 44
1.0
  0
HATCH
  5
157
330
A
100
AcDbEntity
  8
LAYER_1
 62
     7
100
AcDbHatch
 10
0.0
 20
0.0
 30
0.0
210
0.0
220
0.0
230
1.0
  2
SOLID
 70
     1
 71
     0
 91
        1
 92
        1
 93
        1
 72
     4
 94
        3
 73
     0
 74
     0
 95
       17
 96
       13
 40
0.0
 40
0.0
 40
0.0
 40
0.0
 40
1.0
 40
1.0
 40
1.0
 40
2.0
 40
2.0
 40
2.0
 40
3.0
 40
3.0
 40
3.0
 40
4.0
 40
4.0
 40
4.0
 40
4.0
 10
73.90108778211805
 20
155.4308227539062
 10
73.90108778211805
 20
155.2375528971354
 10
73.7443359375
 20
155.0808010525173
 10
73.55106608072915
 20
155.0808010525173
 10
73.35779622395833
 20
155.0808010525173
 10
73.20104437934027
 20
155.2375528971354
 10
73.20104437934027
 20
155.4308227539062
 10
73.20104437934027
 20
155.6240926106771
 10
73.35779622395833
 20
155.7808444552951
 10
73.55106608072915
 20
155.7808444552951
 10
73.7443359375
 20
155.7808444552951
 10
73.90108778211805
 20
155.6240926106771
 10
73.90108778211805
 20
155.4308227539062
 97
        0
 97
        0
 75
     2
 76
     1
 98
        1
 10
0.0
 20
0.0
450
        0
451
        0
460
0.0
461
0.0
452
        0
462
0.0
453
        0
470

  0
POLYLINE
  5
152
330
A
100
AcDbEntity
  8
LAYER_1
 62
     7
100
AcDb2dPolyline
 66
     1
 10
0.0
 20
0.0
 30
0.0
  0
VERTEX
  5
153
330
152
100
AcDbEntity
  8
LAYER_1
 62
     7
100
AcDbVertex
100
AcDb2dVertex
 10
79.96169976128472
 20
155.632533094618
 30
0.0
  0
VERTEX
  5
154
330
152
100
AcDbEntity
  8
LAYER_1
 62
     7
100
AcDbVertex
100
AcDb2dVertex
 10
83.96180013020833
 20
155.632533094618
 30
0.0
  0
VERTEX
  5
155
330
152
100
AcDbEntity
  8
LAYER_1
 62
     7
100
AcDbVertex
100
AcDb2dVertex
 10
83.96180013020833
 20
151.6324327256944
 30
0.0
  0
SEQEND
  5
156
330
152
100
AcDbEntity
  8
LAYER_1
 62
     7
  0
CIRCLE
  5
151
330
A
100
AcDbEntity
  8
LAYER_1
 62
     7
100
AcDbCircle
 10
83.96180013020833
 20
149.0975314670138
 30
0.0
 40
2.534901258680555
  0
CIRCLE
  5
150
330
A
100
AcDbEntity
  8
LAYER_1
 62
     7
100
AcDbCircle
 10
83.96180013020833
 20
149.0975314670138
 30
0.0
 40
2.534901258680555
  0
MTEXT
  5
14F
330
A
100
AcDbEntity
  8
LAYER_1
 62
     7
100
AcDbMText
 10
82.06165771484375
 20
150.0729527235031
 30
0.0
 40
1.837384147114223
 41
0.0
 46
0.0
 71
     1
 72
     2
  1
\fHelvetica|b0|i0;\H1.8374;\C7;104
  7
STD
 73
     1
 44
1.0
  0
HATCH
  5
14E
330
A
100
AcDbEntity
  8
LAYER_1
 62
     7
100
AcDbHatch
 10
0.0
 20
0.0
 30
0.0
210
0.0
220
0.0
230
1.0
  2
SOLID
 70
     1
 71
     0
 91
        1
 92
        1
 93
        1
 72
     4
 94
        3
 73
     0
 74
     0
 95
       17
 96
       13
 40
0.0
 40
0.0
 40
0.0
 40
0.0
 40
1.0
 40
1.0
 40
1.0
 40
2.0
 40
2.0
 40
2.0
 40
3.0
 40
3.0
 40
3.0
 40
4.0
 40
4.0
 40
4.0
 40
4.0
 10
80.3117214626736
 20
155.632533094618
 10
80.3117214626736
 20
155.4392632378472
 10
80.15496961805554
 20
155.2825113932291
 10
79.96169976128472
 20
155.2825113932291
 10
79.76842990451388
 20
155.2825113932291
 10
79.61167805989582
 20
155.4392632378472
 10
79.61167805989582
 20
155.632533094618
 10
79.61167805989582
 20
155.8258029513889
 10
79.76842990451388
 20
155.9825547960069
 10
79.96169976128472
 20
155.9825547960069
 10
80.15496961805554
 20
155.9825547960069
 10
80.3117214626736
 20
155.8258029513889
 10
80.3117214626736
 20
155.632533094618
 97
        0
 97
        0
 75
     2
 76
     1
 98
        1
 10
0.0
 20
0.0
450
        0
451
        0
460
0.0
461
0.0
452
        0
462
0.0
453
        0
470

  0
HATCH
  5
14D
330
A
100
AcDbEntity
  8
LAYER_1
 62
     1
100
AcDbHatch
 10
0.0
 20
0.0
 30
0.0
210
0.0
220
0.0
230
1.0
  2
SOLID
 70
     1
 71
     0
 91
        1
 92
        3
 72
     0
 73
     1
 93
        7
 10
31.7501722547743
 20
237.9108873155382
 10
29.66520046657986
 20
237.9108873155382
 10
29.66520046657986
 20
234.860944281684
 10
31.7501722547743
 20
234.860944281684
 10
31.7501722547743
 20
233.8194919162326
 10
34.11144070095486
 20
236.3860880533854
 10
31.7501722547743
 20
238.9523396809896
 97
        0
 75
     2
 76
     1
 98
        1
 10
0.0
 20
0.0
450
        0
451
        0
460
0.0
461
0.0
452
        0
462
0.0
453
        0
470

  0
LINE
  5
14C
330
A
100
AcDbEntity
  8
LAYER_1
 62
     7
100
AcDbLine
 10
29.66520046657986
 20
237.9108873155382
 30
0.0
 11
29.66520046657986
 21
234.860944281684
 31
0.0
  0
LINE
  5
14B
330
A
100
AcDbEntity
  8
LAYER_1
 62
     7
100
AcDbLine
 10
29.69482828776042
 20
237.9108873155382
 30
0.0
 11
29.69482828776042
 21
234.860944281684
 31
0.0
  0
LINE
  5
14A
330
A
100
AcDbEntity
  8
LAYER_1
 62
     7
100
AcDbLine
 10
29.72480061848958
 20
237.9108873155382
 30
0.0
 11
29.72480061848958
 21
234.860944281684
 31
0.0
  0
LINE
  5
149
330
A
100
AcDbEntity
  8
LAYER_1
 62
     7
100
AcDbLine
 10
29.75442843967014
 20
237.9108873155382
 30
0.0
 11
29.75442843967014
 21
234.860944281684
 31
0.0
  0
LINE
  5
148
330
A
100
AcDbEntity
  8
LAYER_1
 62
     7
100
AcDbLine
 10
29.7844007703993
 20
237.9108873155382
 30
0.0
 11
29.7844007703993
 21
234.860944281684
 31
0.0
  0
LINE
  5
147
330
A
100
AcDbEntity
  8
LAYER_1
 62
     7
100
AcDbLine
 10
29.81402859157986
 20
237.9108873155382
 30
0.0
 11
29.81402859157986
 21
234.860944281684
 31
0.0
  0
LINE
  5
146
330
A
100
AcDbEntity
  8
LAYER_1
 62
     7
100
AcDbLine
 10
29.84400092230903
 20
237.9108873155382
 30
0.0
 11
29.84400092230903
 21
234.860944281684
 31
0.0
  0
LINE
  5
145
330
A
100
AcDbEntity
  8
LAYER_1
 62
     7
100
AcDbLine
 10
29.87362874348958
 20
237.9108873155382
 30
0.0
 11
29.87362874348958
 21
234.860944281684
 31
0.0
  0
LINE
  5
144
330
A
100
AcDbEntity
  8
LAYER_1
 62
     7
100
AcDbLine
 10
29.90360107421875
 20
237.9108873155382
 30
0.0
 11
29.90360107421875
 21
234.860944281684
 31
0.0
  0
LINE
  5
143
330
A
100
AcDbEntity
  8
LAYER_1
 62
     7
100
AcDbLine
 10
29.9332288953993
 20
237.9108873155382
 30
0.0
 11
29.9332288953993
 21
234.860944281684
 31
0.0
  0
LINE
  5
142
330
A
100
AcDbEntity
  8
LAYER_1
 62
     7
100
AcDbLine
 10
29.96320122612847
 20
237.9108873155382
 30
0.0
 11
29.96320122612847
 21
234.860944281684
 31
0.0
  0
LINE
  5
141
330
A
100
AcDbEntity
  8
LAYER_1
 62
     7
100
AcDbLine
 10
29.99282904730902
 20
237.9108873155382
 30
0.0
 11
29.99282904730902
 21
234.860944281684
 31
0.0
  0
LINE
  5
140
330
A
100
AcDbEntity
  8
LAYER_1
 62
     7
100
AcDbLine
 10
30.02245686848958
 20
237.9108873155382
 30
0.0
 11
30.02245686848958
 21
234.860944281684
 31
0.0
  0
LINE
  5
13F
330
A
100
AcDbEntity
  8
LAYER_1
 62
     7
100
AcDbLine
 10
30.05242919921875
 20
237.9108873155382
 30
0.0
 11
30.05242919921875
 21
234.860944281684
 31
0.0
  0
LINE
  5
13E
330
A
100
AcDbEntity
  8
LAYER_1
 62
     7
100
AcDbLine
 10
30.0820570203993
 20
237.9108873155382
 30
0.0
 11
30.0820570203993
 21
234.860944281684
 31
0.0
  0
LINE
  5
13D
330
A
100
AcDbEntity
  8
LAYER_1
 62
     7
100
AcDbLine
 10
30.11202935112847
 20
237.9108873155382
 30
0.0
 11
30.11202935112847
 21
234.860944281684
 31
0.0
  0
LINE
  5
13C
330
A
100
AcDbEntity
  8
LAYER_1
 62
     7
100
AcDbLine
 10
30.14165717230902
 20
237.9108873155382
 30
0.0
 11
30.14165717230902
 21
234.860944281684
 31
0.0
  0
LINE
  5
13B
330
A
100
AcDbEntity
  8
LAYER_1
 62
     7
100
AcDbLine
 10
30.17162950303819
 20
237.9108873155382
 30
0.0
 11
30.17162950303819
 21
234.860944281684
 31
0.0
  0
LINE
  5
13A
330
A
100
AcDbEntity
  8
LAYER_1
 62
    21
100
AcDbLine
 10
30.20125732421875
 20
237.9108873155382
 30
0.0
 11
30.20125732421875
 21
234.860944281684
 31
0.0
  0
LINE
  5
139
330
A
100
AcDbEntity
  8
LAYER_1
 62
    21
100
AcDbLine
 10
30.23122965494791
 20
237.9108873155382
 30
0.0
 11
30.23122965494791
 21
234.860944281684
 31
0.0
  0
LINE
  5
138
330
A
100
AcDbEntity
  8
LAYER_1
 62
    21
100
AcDbLine
 10
30.26085747612847
 20
237.9108873155382
 30
0.0
 11
30.26085747612847
 21
234.860944281684
 31
0.0
  0
LINE
  5
137
330
A
100
AcDbEntity
  8
LAYER_1
 62
    21
100
AcDbLine
 10
30.29082980685764
 20
237.9108873155382
 30
0.0
 11
30.29082980685764
 21
234.860944281684
 31
0.0
  0
LINE
  5
136
330
A
100
AcDbEntity
  8
LAYER_1
 62
    21
100
AcDbLine
 10
30.32045762803819
 20
237.9108873155382
 30
0.0
 11
30.32045762803819
 21
234.860944281684
 31
0.0
  0
LINE
  5
135
330
A
100
AcDbEntity
  8
LAYER_1
 62
    21
100
AcDbLine
 10
30.35042995876736
 20
237.9108873155382
 30
0.0
 11
30.35042995876736
 21
234.860944281684
 31
0.0
  0
LINE
  5
134
330
A
100
AcDbEntity
  8
LAYER_1
 62
    21
100
AcDbLine
 10
30.38005777994792
 20
237.9108873155382
 30
0.0
 11
30.38005777994792
 21
234.860944281684
 31
0.0
  0
LINE
  5
133
330
A
100
AcDbEntity
  8
LAYER_1
 62
    21
100
AcDbLine
 10
30.40968560112847
 20
237.9108873155382
 30
0.0
 11
30.40968560112847
 21
234.860944281684
 31
0.0
  0
LINE
  5
132
330
A
100
AcDbEntity
  8
LAYER_1
 62
    21
100
AcDbLine
 10
30.43965793185764
 20
237.9108873155382
 30
0.0
 11
30.43965793185764
 21
234.860944281684
 31
0.0
  0
LINE
  5
131
330
A
100
AcDbEntity
  8
LAYER_1
 62
    21
100
AcDbLine
 10
30.46928575303819
 20
237.9108873155382
 30
0.0
 11
30.46928575303819
 21
234.860944281684
 31
0.0
  0
LINE
  5
130
330
A
100
AcDbEntity
  8
LAYER_1
 62
    21
100
AcDbLine
 10
30.49925808376736
 20
237.9108873155382
 30
0.0
 11
30.49925808376736
 21
234.860944281684
 31
0.0
  0
LINE
  5
12F
330
A
100
AcDbEntity
  8
LAYER_1
 62
    21
100
AcDbLine
 10
30.52888590494791
 20
237.9108873155382
 30
0.0
 11
30.52888590494791
 21
234.860944281684
 31
0.0
  0
LINE
  5
12E
330
A
100
AcDbEntity
  8
LAYER_1
 62
    21
100
AcDbLine
 10
30.55885823567708
 20
237.9108873155382
 30
0.0
 11
30.55885823567708
 21
234.860944281684
 31
0.0
  0
LINE
  5
12D
330
A
100
AcDbEntity
  8
LAYER_1
 62
    21
100
AcDbLine
 10
30.58848605685764
 20
237.9108873155382
 30
0.0
 11
30.58848605685764
 21
234.860944281684
 31
0.0
  0
LINE
  5
12C
330
A
100
AcDbEntity
  8
LAYER_1
 62
    21
100
AcDbLine
 10
30.6184583875868
 20
237.9108873155382
 30
0.0
 11
30.6184583875868
 21
234.860944281684
 31
0.0
  0
LINE
  5
12B
330
A
100
AcDbEntity
  8
LAYER_1
 62
    21
100
AcDbLine
 10
30.64808620876736
 20
237.9108873155382
 30
0.0
 11
30.64808620876736
 21
234.860944281684
 31
0.0
  0
LINE
  5
12A
330
A
100
AcDbEntity
  8
LAYER_1
 62
    21
100
AcDbLine
 10
30.67805853949653
 20
237.9108873155382
 30
0.0
 11
30.67805853949653
 21
234.860944281684
 31
0.0
  0
LINE
  5
129
330
A
100
AcDbEntity
  8
LAYER_1
 62
    21
100
AcDbLine
 10
30.70768636067708
 20
237.9108873155382
 30
0.0
 11
30.70768636067708
 21
234.860944281684
 31
0.0
  0
LINE
  5
128
330
A
100
AcDbEntity
  8
LAYER_1
 62
    21
100
AcDbLine
 10
30.73731418185764
 20
237.9108873155382
 30
0.0
 11
30.73731418185764
 21
234.860944281684
 31
0.0
  0
LINE
  5
127
330
A
100
AcDbEntity
  8
LAYER_1
 62
    21
100
AcDbLine
 10
30.7672865125868
 20
237.9108873155382
 30
0.0
 11
30.7672865125868
 21
234.860944281684
 31
0.0
  0
LINE
  5
126
330
A
100
AcDbEntity
  8
LAYER_1
 62
    20
100
AcDbLine
 10
30.79691433376736
 20
237.9108873155382
 30
0.0
 11
30.79691433376736
 21
234.860944281684
 31
0.0
  0
LINE
  5
125
330
A
100
AcDbEntity
  8
LAYER_1
 62
    20
100
AcDbLine
 10
30.82688666449652
 20
237.9108873155382
 30
0.0
 11
30.82688666449652
 21
234.860944281684
 31
0.0
  0
LINE
  5
124
330
A
100
AcDbEntity
  8
LAYER_1
 62
    20
100
AcDbLine
 10
30.85651448567708
 20
237.9108873155382
 30
0.0
 11
30.85651448567708
 21
234.860944281684
 31
0.0
  0
LINE
  5
123
330
A
100
AcDbEntity
  8
LAYER_1
 62
    20
100
AcDbLine
 10
30.88648681640625
 20
237.9108873155382
 30
0.0
 11
30.88648681640625
 21
234.860944281684
 31
0.0
  0
LINE
  5
122
330
A
100
AcDbEntity
  8
LAYER_1
 62
    20
100
AcDbLine
 10
30.9161146375868
 20
237.9108873155382
 30
0.0
 11
30.9161146375868
 21
234.860944281684
 31
0.0
  0
LINE
  5
121
330
A
100
AcDbEntity
  8
LAYER_1
 62
    20
100
AcDbLine
 10
30.94608696831597
 20
237.9108873155382
 30
0.0
 11
30.94608696831597
 21
234.860944281684
 31
0.0
  0
LINE
  5
120
330
A
100
AcDbEntity
  8
LAYER_1
 62
    20
100
AcDbLine
 10
30.97571478949653
 20
237.9108873155382
 30
0.0
 11
30.97571478949653
 21
234.860944281684
 31
0.0
  0
LINE
  5
11F
330
A
100
AcDbEntity
  8
LAYER_1
 62
    20
100
AcDbLine
 10
31.00568712022569
 20
237.9108873155382
 30
0.0
 11
31.00568712022569
 21
234.860944281684
 31
0.0
  0
LINE
  5
11E
330
A
100
AcDbEntity
  8
LAYER_1
 62
    20
100
AcDbLine
 10
31.03531494140625
 20
237.9108873155382
 30
0.0
 11
31.03531494140625
 21
234.860944281684
 31
0.0
  0
LINE
  5
11D
330
A
100
AcDbEntity
  8
LAYER_1
 62
    20
100
AcDbLine
 10
31.0649427625868
 20
237.9108873155382
 30
0.0
 11
31.0649427625868
 21
234.860944281684
 31
0.0
  0
LINE
  5
11C
330
A
100
AcDbEntity
  8
LAYER_1
 62
    20
100
AcDbLine
 10
31.09491509331597
 20
237.9108873155382
 30
0.0
 11
31.09491509331597
 21
234.860944281684
 31
0.0
  0
LINE
  5
11B
330
A
100
AcDbEntity
  8
LAYER_1
 62
    20
100
AcDbLine
 10
31.12454291449653
 20
237.9108873155382
 30
0.0
 11
31.12454291449653
 21
234.860944281684
 31
0.0
  0
LINE
  5
11A
330
A
100
AcDbEntity
  8
LAYER_1
 62
    20
100
AcDbLine
 10
31.1545152452257
 20
237.9108873155382
 30
0.0
 11
31.1545152452257
 21
234.860944281684
 31
0.0
  0
LINE
  5
119
330
A
100
AcDbEntity
  8
LAYER_1
 62
     1
100
AcDbLine
 10
31.18414306640625
 20
237.9108873155382
 30
0.0
 11
31.18414306640625
 21
234.860944281684
 31
0.0
  0
LINE
  5
118
330
A
100
AcDbEntity
  8
LAYER_1
 62
     1
100
AcDbLine
 10
31.21411539713542
 20
237.9108873155382
 30
0.0
 11
31.21411539713542
 21
234.860944281684
 31
0.0
  0
LINE
  5
117
330
A
100
AcDbEntity
  8
LAYER_1
 62
     1
100
AcDbLine
 10
31.24374321831597
 20
237.9108873155382
 30
0.0
 11
31.24374321831597
 21
234.860944281684
 31
0.0
  0
LINE
  5
116
330
A
100
AcDbEntity
  8
LAYER_1
 62
     1
100
AcDbLine
 10
31.27371554904514
 20
237.9108873155382
 30
0.0
 11
31.27371554904514
 21
234.860944281684
 31
0.0
  0
LINE
  5
115
330
A
100
AcDbEntity
  8
LAYER_1
 62
     1
100
AcDbLine
 10
31.30334337022569
 20
237.9108873155382
 30
0.0
 11
31.30334337022569
 21
234.860944281684
 31
0.0
  0
LINE
  5
114
330
A
100
AcDbEntity
  8
LAYER_1
 62
     1
100
AcDbLine
 10
31.33331570095486
 20
237.9108873155382
 30
0.0
 11
31.33331570095486
 21
234.860944281684
 31
0.0
  0
LINE
  5
113
330
A
100
AcDbEntity
  8
LAYER_1
 62
     1
100
AcDbLine
 10
31.36294352213541
 20
237.9108873155382
 30
0.0
 11
31.36294352213541
 21
234.860944281684
 31
0.0
  0
LINE
  5
112
330
A
100
AcDbEntity
  8
LAYER_1
 62
     1
100
AcDbLine
 10
31.39291585286458
 20
237.9108873155382
 30
0.0
 11
31.39291585286458
 21
234.860944281684
 31
0.0
  0
LINE
  5
111
330
A
100
AcDbEntity
  8
LAYER_1
 62
     1
100
AcDbLine
 10
31.42254367404514
 20
237.9108873155382
 30
0.0
 11
31.42254367404514
 21
234.860944281684
 31
0.0
  0
LINE
  5
110
330
A
100
AcDbEntity
  8
LAYER_1
 62
     1
100
AcDbLine
 10
31.45217149522569
 20
237.9108873155382
 30
0.0
 11
31.45217149522569
 21
234.860944281684
 31
0.0
  0
LINE
  5
10F
330
A
100
AcDbEntity
  8
LAYER_1
 62
     1
100
AcDbLine
 10
31.48214382595486
 20
237.9108873155382
 30
0.0
 11
31.48214382595486
 21
234.860944281684
 31
0.0
  0
LINE
  5
10E
330
A
100
AcDbEntity
  8
LAYER_1
 62
     1
100
AcDbLine
 10
31.51177164713542
 20
237.9108873155382
 30
0.0
 11
31.51177164713542
 21
234.860944281684
 31
0.0
  0
LINE
  5
10D
330
A
100
AcDbEntity
  8
LAYER_1
 62
     1
100
AcDbLine
 10
31.54174397786458
 20
237.9108873155382
 30
0.0
 11
31.54174397786458
 21
234.860944281684
 31
0.0
  0
LINE
  5
10C
330
A
100
AcDbEntity
  8
LAYER_1
 62
     1
100
AcDbLine
 10
31.57137179904514
 20
237.9108873155382
 30
0.0
 11
31.57137179904514
 21
234.860944281684
 31
0.0
  0
LINE
  5
10B
330
A
100
AcDbEntity
  8
LAYER_1
 62
     1
100
AcDbLine
 10
31.60134412977431
 20
237.9108873155382
 30
0.0
 11
31.60134412977431
 21
234.860944281684
 31
0.0
  0
LINE
  5
10A
330
A
100
AcDbEntity
  8
LAYER_1
 62
     1
100
AcDbLine
 10
31.63097195095486
 20
237.9108873155382
 30
0.0
 11
31.63097195095486
 21
234.860944281684
 31
0.0
  0
LINE
  5
109
330
A
100
AcDbEntity
  8
LAYER_1
 62
     1
100
AcDbLine
 10
31.66094428168403
 20
237.9108873155382
 30
0.0
 11
31.66094428168403
 21
234.860944281684
 31
0.0
  0
LINE
  5
108
330
A
100
AcDbEntity
  8
LAYER_1
 62
     1
100
AcDbLine
 10
31.69057210286458
 20
237.9108873155382
 30
0.0
 11
31.69057210286458
 21
234.860944281684
 31
0.0
  0
LINE
  5
107
330
A
100
AcDbEntity
  8
LAYER_1
 62
     1
100
AcDbLine
 10
31.72054443359375
 20
237.9108873155382
 30
0.0
 11
31.72054443359375
 21
234.860944281684
 31
0.0
  0
LINE
  5
106
330
A
100
AcDbEntity
  8
LAYER_1
 62
     1
100
AcDbLine
 10
31.7501722547743
 20
237.9108873155382
 30
0.0
 11
31.7501722547743
 21
234.860944281684
 31
0.0
  0
MTEXT
  5
105
330
A
100
AcDbEntity
  8
LAYER_1
 62
     7
100
AcDbMText
 10
26.05577392578125
 20
237.5254630525907
 30
0.0
 40
2.099867620733049
 41
0.0
 46
0.0
 71
     1
 72
     2
  1
\fHelvetica |b1|i0;\H2.0999;\C7;1
  7
STD
 73
     1
 44
1.0
  0
HATCH
  5
104
330
A
100
AcDbEntity
  8
LAYER_1
 62
     1
100
AcDbHatch
 10
0.0
 20
0.0
 30
0.0
210
0.0
220
0.0
230
1.0
  2
SOLID
 70
     1
 71
     0
 91
        1
 92
        3
 72
     0
 73
     1
 93
        7
 10
234.7109103732639
 20
242.2656602647569
 10
234.7109103732639
 20
240.1810329861111
 10
231.6606228298611
 20
240.1810329861111
 10
231.6606228298611
 20
242.2656602647569
 10
230.6188259548611
 20
242.2656602647569
 10
233.1854220920139
 20
244.6269287109375
 10
235.7520182291667
 20
242.2656602647569
 97
        0
 75
     2
 76
     1
 98
        1
 10
0.0
 20
0.0
450
        0
451
        0
460
0.0
461
0.0
452
        0
462
0.0
453
        0
470

  0
LINE
  5
103
330
A
100
AcDbEntity
  8
LAYER_1
 62
     7
100
AcDbLine
 10
231.6606228298611
 20
240.1805162217882
 30
0.0
 11
234.7109103732639
 21
240.1805162217882
 31
0.0
  0
LINE
  5
102
330
A
100
AcDbEntity
  8
LAYER_1
 62
     7
100
AcDbLine
 10
231.6606228298611
 20
240.210316297743
 30
0.0
 11
234.7109103732639
 21
240.210316297743
 31
0.0
  0
LINE
  5
101
330
A
100
AcDbEntity
  8
LAYER_1
 62
     7
100
AcDbLine
 10
231.6606228298611
 20
240.2401163736979
 30
0.0
 11
234.7109103732639
 21
240.2401163736979
 31
0.0
  0
LINE
  5
100
330
A
100
AcDbEntity
  8
LAYER_1
 62
     7
100
AcDbLine
 10
231.6606228298611
 20
240.2699164496528
 30
0.0
 11
234.7109103732639
 21
240.2699164496528
 31
0.0
  0
LINE
  5
FF
330
A
100
AcDbEntity
  8
LAYER_1
 62
     7
100
AcDbLine
 10
231.6606228298611
 20
240.2997165256076
 30
0.0
 11
234.7109103732639
 21
240.2997165256076
 31
0.0
  0
LINE
  5
FE
330
A
100
AcDbEntity
  8
LAYER_1
 62
     7
100
AcDbLine
 10
231.6606228298611
 20
240.3295166015625
 30
0.0
 11
234.7109103732639
 21
240.3295166015625
 31
0.0
  0
LINE
  5
FD
330
A
100
AcDbEntity
  8
LAYER_1
 62
     7
100
AcDbLine
 10
231.6606228298611
 20
240.3593166775173
 30
0.0
 11
234.7109103732639
 21
240.3593166775173
 31
0.0
  0
LINE
  5
FC
330
A
100
AcDbEntity
  8
LAYER_1
 62
     7
100
AcDbLine
 10
231.6606228298611
 20
240.3891167534722
 30
0.0
 11
234.7109103732639
 21
240.3891167534722
 31
0.0
  0
LINE
  5
FB
330
A
100
AcDbEntity
  8
LAYER_1
 62
     7
100
AcDbLine
 10
231.6606228298611
 20
240.4187445746527
 30
0.0
 11
234.7109103732639
 21
240.4187445746527
 31
0.0
  0
LINE
  5
FA
330
A
100
AcDbEntity
  8
LAYER_1
 62
     7
100
AcDbLine
 10
231.6606228298611
 20
240.4485446506076
 30
0.0
 11
234.7109103732639
 21
240.4485446506076
 31
0.0
  0
LINE
  5
F9
330
A
100
AcDbEntity
  8
LAYER_1
 62
     7
100
AcDbLine
 10
231.6606228298611
 20
240.4783447265625
 30
0.0
 11
234.7109103732639
 21
240.4783447265625
 31
0.0
  0
LINE
  5
F8
330
A
100
AcDbEntity
  8
LAYER_1
 62
     7
100
AcDbLine
 10
231.6606228298611
 20
240.5081448025173
 30
0.0
 11
234.7109103732639
 21
240.5081448025173
 31
0.0
  0
LINE
  5
F7
330
A
100
AcDbEntity
  8
LAYER_1
 62
     7
100
AcDbLine
 10
231.6606228298611
 20
240.5379448784722
 30
0.0
 11
234.7109103732639
 21
240.5379448784722
 31
0.0
  0
LINE
  5
F6
330
A
100
AcDbEntity
  8
LAYER_1
 62
     7
100
AcDbLine
 10
231.6606228298611
 20
240.567744954427
 30
0.0
 11
234.7109103732639
 21
240.567744954427
 31
0.0
  0
LINE
  5
F5
330
A
100
AcDbEntity
  8
LAYER_1
 62
     7
100
AcDbLine
 10
231.6606228298611
 20
240.5975450303819
 30
0.0
 11
234.7109103732639
 21
240.5975450303819
 31
0.0
  0
LINE
  5
F4
330
A
100
AcDbEntity
  8
LAYER_1
 62
     7
100
AcDbLine
 10
231.6606228298611
 20
240.6273451063368
 30
0.0
 11
234.7109103732639
 21
240.6273451063368
 31
0.0
  0
LINE
  5
F3
330
A
100
AcDbEntity
  8
LAYER_1
 62
     7
100
AcDbLine
 10
231.6606228298611
 20
240.6571451822916
 30
0.0
 11
234.7109103732639
 21
240.6571451822916
 31
0.0
  0
LINE
  5
F2
330
A
100
AcDbEntity
  8
LAYER_1
 62
     7
100
AcDbLine
 10
231.6606228298611
 20
240.6869452582465
 30
0.0
 11
234.7109103732639
 21
240.6869452582465
 31
0.0
  0
LINE
  5
F1
330
A
100
AcDbEntity
  8
LAYER_1
 62
    21
100
AcDbLine
 10
231.6609673394097
 20
240.7167453342013
 30
0.0
 11
234.7109103732639
 21
240.7167453342013
 31
0.0
  0
LINE
  5
F0
330
A
100
AcDbEntity
  8
LAYER_1
 62
    21
100
AcDbLine
 10
231.6609673394097
 20
240.7465454101562
 30
0.0
 11
234.7109103732639
 21
240.7465454101562
 31
0.0
  0
LINE
  5
EF
330
A
100
AcDbEntity
  8
LAYER_1
 62
    21
100
AcDbLine
 10
231.6609673394097
 20
240.7763454861111
 30
0.0
 11
234.7109103732639
 21
240.7763454861111
 31
0.0
  0
LINE
  5
EE
330
A
100
AcDbEntity
  8
LAYER_1
 62
    21
100
AcDbLine
 10
231.6609673394097
 20
240.8061455620659
 30
0.0
 11
234.7109103732639
 21
240.8061455620659
 31
0.0
  0
LINE
  5
ED
330
A
100
AcDbEntity
  8
LAYER_1
 62
    21
100
AcDbLine
 10
231.6609673394097
 20
240.8357733832465
 30
0.0
 11
234.7109103732639
 21
240.8357733832465
 31
0.0
  0
LINE
  5
EC
330
A
100
AcDbEntity
  8
LAYER_1
 62
    21
100
AcDbLine
 10
231.6609673394097
 20
240.8655734592013
 30
0.0
 11
234.7109103732639
 21
240.8655734592013
 31
0.0
  0
LINE
  5
EB
330
A
100
AcDbEntity
  8
LAYER_1
 62
    21
100
AcDbLine
 10
231.6609673394097
 20
240.8953735351563
 30
0.0
 11
234.7109103732639
 21
240.8953735351563
 31
0.0
  0
LINE
  5
EA
330
A
100
AcDbEntity
  8
LAYER_1
 62
    21
100
AcDbLine
 10
231.6609673394097
 20
240.9251736111111
 30
0.0
 11
234.7109103732639
 21
240.9251736111111
 31
0.0
  0
LINE
  5
E9
330
A
100
AcDbEntity
  8
LAYER_1
 62
    21
100
AcDbLine
 10
231.6609673394097
 20
240.9549736870659
 30
0.0
 11
234.7109103732639
 21
240.9549736870659
 31
0.0
  0
LINE
  5
E8
330
A
100
AcDbEntity
  8
LAYER_1
 62
    21
100
AcDbLine
 10
231.6609673394097
 20
240.9847737630208
 30
0.0
 11
234.7109103732639
 21
240.9847737630208
 31
0.0
  0
LINE
  5
E7
330
A
100
AcDbEntity
  8
LAYER_1
 62
    21
100
AcDbLine
 10
231.6609673394097
 20
241.0145738389757
 30
0.0
 11
234.7109103732639
 21
241.0145738389757
 31
0.0
  0
LINE
  5
E6
330
A
100
AcDbEntity
  8
LAYER_1
 62
    21
100
AcDbLine
 10
231.6609673394097
 20
241.0443739149305
 30
0.0
 11
234.7109103732639
 21
241.0443739149305
 31
0.0
  0
LINE
  5
E5
330
A
100
AcDbEntity
  8
LAYER_1
 62
    21
100
AcDbLine
 10
231.6609673394097
 20
241.0741739908854
 30
0.0
 11
234.7109103732639
 21
241.0741739908854
 31
0.0
  0
LINE
  5
E4
330
A
100
AcDbEntity
  8
LAYER_1
 62
    21
100
AcDbLine
 10
231.6609673394097
 20
241.1039740668403
 30
0.0
 11
234.7109103732639
 21
241.1039740668403
 31
0.0
  0
LINE
  5
E3
330
A
100
AcDbEntity
  8
LAYER_1
 62
    21
100
AcDbLine
 10
231.6609673394097
 20
241.1337741427951
 30
0.0
 11
234.7109103732639
 21
241.1337741427951
 31
0.0
  0
LINE
  5
E2
330
A
100
AcDbEntity
  8
LAYER_1
 62
    21
100
AcDbLine
 10
231.6609673394097
 20
241.16357421875
 30
0.0
 11
234.7109103732639
 21
241.16357421875
 31
0.0
  0
LINE
  5
E1
330
A
100
AcDbEntity
  8
LAYER_1
 62
    21
100
AcDbLine
 10
231.6609673394097
 20
241.1933742947049
 30
0.0
 11
234.7109103732639
 21
241.1933742947049
 31
0.0
  0
LINE
  5
E0
330
A
100
AcDbEntity
  8
LAYER_1
 62
    21
100
AcDbLine
 10
231.6609673394097
 20
241.2231743706597
 30
0.0
 11
234.7109103732639
 21
241.2231743706597
 31
0.0
  0
LINE
  5
DF
330
A
100
AcDbEntity
  8
LAYER_1
 62
    21
100
AcDbLine
 10
231.6609673394097
 20
241.2528021918403
 30
0.0
 11
234.7109103732639
 21
241.2528021918403
 31
0.0
  0
LINE
  5
DE
330
A
100
AcDbEntity
  8
LAYER_1
 62
    21
100
AcDbLine
 10
231.6609673394097
 20
241.2826022677951
 30
0.0
 11
234.7109103732639
 21
241.2826022677951
 31
0.0
  0
LINE
  5
DD
330
A
100
AcDbEntity
  8
LAYER_1
 62
    20
100
AcDbLine
 10
231.6609673394097
 20
241.31240234375
 30
0.0
 11
234.7109103732639
 21
241.31240234375
 31
0.0
  0
LINE
  5
DC
330
A
100
AcDbEntity
  8
LAYER_1
 62
    20
100
AcDbLine
 10
231.6609673394097
 20
241.3422024197048
 30
0.0
 11
234.7109103732639
 21
241.3422024197048
 31
0.0
  0
LINE
  5
DB
330
A
100
AcDbEntity
  8
LAYER_1
 62
    20
100
AcDbLine
 10
231.6609673394097
 20
241.3720024956597
 30
0.0
 11
234.7109103732639
 21
241.3720024956597
 31
0.0
  0
LINE
  5
DA
330
A
100
AcDbEntity
  8
LAYER_1
 62
    20
100
AcDbLine
 10
231.6609673394097
 20
241.4018025716146
 30
0.0
 11
234.7109103732639
 21
241.4018025716146
 31
0.0
  0
LINE
  5
D9
330
A
100
AcDbEntity
  8
LAYER_1
 62
    20
100
AcDbLine
 10
231.6609673394097
 20
241.4316026475694
 30
0.0
 11
234.7109103732639
 21
241.4316026475694
 31
0.0
  0
LINE
  5
D8
330
A
100
AcDbEntity
  8
LAYER_1
 62
    20
100
AcDbLine
 10
231.6609673394097
 20
241.4614027235243
 30
0.0
 11
234.7109103732639
 21
241.4614027235243
 31
0.0
  0
LINE
  5
D7
330
A
100
AcDbEntity
  8
LAYER_1
 62
    20
100
AcDbLine
 10
231.6609673394097
 20
241.4912027994791
 30
0.0
 11
234.7109103732639
 21
241.4912027994791
 31
0.0
  0
LINE
  5
D6
330
A
100
AcDbEntity
  8
LAYER_1
 62
    20
100
AcDbLine
 10
231.6609673394097
 20
241.521002875434
 30
0.0
 11
234.7109103732639
 21
241.521002875434
 31
0.0
  0
LINE
  5
D5
330
A
100
AcDbEntity
  8
LAYER_1
 62
    20
100
AcDbLine
 10
231.6609673394097
 20
241.5508029513889
 30
0.0
 11
234.7109103732639
 21
241.5508029513889
 31
0.0
  0
LINE
  5
D4
330
A
100
AcDbEntity
  8
LAYER_1
 62
    20
100
AcDbLine
 10
231.6609673394097
 20
241.5806030273437
 30
0.0
 11
234.7109103732639
 21
241.5806030273437
 31
0.0
  0
LINE
  5
D3
330
A
100
AcDbEntity
  8
LAYER_1
 62
    20
100
AcDbLine
 10
231.6609673394097
 20
241.6104031032986
 30
0.0
 11
234.7109103732639
 21
241.6104031032986
 31
0.0
  0
LINE
  5
D2
330
A
100
AcDbEntity
  8
LAYER_1
 62
    20
100
AcDbLine
 10
231.6609673394097
 20
241.6402031792534
 30
0.0
 11
234.7109103732639
 21
241.6402031792534
 31
0.0
  0
LINE
  5
D1
330
A
100
AcDbEntity
  8
LAYER_1
 62
    20
100
AcDbLine
 10
231.6609673394097
 20
241.669831000434
 30
0.0
 11
234.7109103732639
 21
241.669831000434
 31
0.0
  0
LINE
  5
D0
330
A
100
AcDbEntity
  8
LAYER_1
 62
     1
100
AcDbLine
 10
231.6609673394097
 20
241.6996310763888
 30
0.0
 11
234.7109103732639
 21
241.6996310763888
 31
0.0
  0
LINE
  5
CF
330
A
100
AcDbEntity
  8
LAYER_1
 62
     1
100
AcDbLine
 10
231.6609673394097
 20
241.7294311523437
 30
0.0
 11
234.7109103732639
 21
241.7294311523437
 31
0.0
  0
LINE
  5
CE
330
A
100
AcDbEntity
  8
LAYER_1
 62
     1
100
AcDbLine
 10
231.6613118489583
 20
241.7592312282986
 30
0.0
 11
234.7109103732639
 21
241.7592312282986
 31
0.0
  0
LINE
  5
CD
330
A
100
AcDbEntity
  8
LAYER_1
 62
     1
100
AcDbLine
 10
231.6613118489583
 20
241.7890313042534
 30
0.0
 11
234.7109103732639
 21
241.7890313042534
 31
0.0
  0
LINE
  5
CC
330
A
100
AcDbEntity
  8
LAYER_1
 62
     1
100
AcDbLine
 10
231.6613118489583
 20
241.8188313802083
 30
0.0
 11
234.7109103732639
 21
241.8188313802083
 31
0.0
  0
LINE
  5
CB
330
A
100
AcDbEntity
  8
LAYER_1
 62
     1
100
AcDbLine
 10
231.6613118489583
 20
241.8486314561631
 30
0.0
 11
234.7109103732639
 21
241.8486314561631
 31
0.0
  0
LINE
  5
CA
330
A
100
AcDbEntity
  8
LAYER_1
 62
     1
100
AcDbLine
 10
231.6613118489583
 20
241.878431532118
 30
0.0
 11
234.7109103732639
 21
241.878431532118
 31
0.0
  0
LINE
  5
C9
330
A
100
AcDbEntity
  8
LAYER_1
 62
     1
100
AcDbLine
 10
231.6613118489583
 20
241.9082316080729
 30
0.0
 11
234.7109103732639
 21
241.9082316080729
 31
0.0
  0
LINE
  5
C8
330
A
100
AcDbEntity
  8
LAYER_1
 62
     1
100
AcDbLine
 10
231.6613118489583
 20
241.9380316840277
 30
0.0
 11
234.7109103732639
 21
241.9380316840277
 31
0.0
  0
LINE
  5
C7
330
A
100
AcDbEntity
  8
LAYER_1
 62
     1
100
AcDbLine
 10
231.6613118489583
 20
241.9678317599826
 30
0.0
 11
234.7109103732639
 21
241.9678317599826
 31
0.0
  0
LINE
  5
C6
330
A
100
AcDbEntity
  8
LAYER_1
 62
     1
100
AcDbLine
 10
231.6613118489583
 20
241.9976318359375
 30
0.0
 11
234.7109103732639
 21
241.9976318359375
 31
0.0
  0
LINE
  5
C5
330
A
100
AcDbEntity
  8
LAYER_1
 62
     1
100
AcDbLine
 10
231.6613118489583
 20
242.0274319118923
 30
0.0
 11
234.7109103732639
 21
242.0274319118923
 31
0.0
  0
LINE
  5
C4
330
A
100
AcDbEntity
  8
LAYER_1
 62
     1
100
AcDbLine
 10
231.6613118489583
 20
242.0572319878472
 30
0.0
 11
234.7109103732639
 21
242.0572319878472
 31
0.0
  0
LINE
  5
C3
330
A
100
AcDbEntity
  8
LAYER_1
 62
     1
100
AcDbLine
 10
231.6613118489583
 20
242.0868598090277
 30
0.0
 11
234.7109103732639
 21
242.0868598090277
 31
0.0
  0
LINE
  5
C2
330
A
100
AcDbEntity
  8
LAYER_1
 62
     1
100
AcDbLine
 10
231.6613118489583
 20
242.1166598849826
 30
0.0
 11
234.7109103732639
 21
242.1166598849826
 31
0.0
  0
LINE
  5
C1
330
A
100
AcDbEntity
  8
LAYER_1
 62
     1
100
AcDbLine
 10
231.6613118489583
 20
242.1464599609375
 30
0.0
 11
234.7109103732639
 21
242.1464599609375
 31
0.0
  0
LINE
  5
C0
330
A
100
AcDbEntity
  8
LAYER_1
 62
     1
100
AcDbLine
 10
231.6613118489583
 20
242.1762600368923
 30
0.0
 11
234.7109103732639
 21
242.1762600368923
 31
0.0
  0
LINE
  5
BF
330
A
100
AcDbEntity
  8
LAYER_1
 62
     1
100
AcDbLine
 10
231.6613118489583
 20
242.2060601128472
 30
0.0
 11
234.7109103732639
 21
242.2060601128472
 31
0.0
  0
LINE
  5
BE
330
A
100
AcDbEntity
  8
LAYER_1
 62
     1
100
AcDbLine
 10
231.6613118489583
 20
242.2358601888021
 30
0.0
 11
234.7109103732639
 21
242.2358601888021
 31
0.0
  0
LINE
  5
BD
330
A
100
AcDbEntity
  8
LAYER_1
 62
     1
100
AcDbLine
 10
231.6613118489583
 20
242.2656602647569
 30
0.0
 11
234.7109103732639
 21
242.2656602647569
 31
0.0
  0
MTEXT
  5
BC
330
A
100
AcDbEntity
  8
LAYER_1
 62
     7
100
AcDbMText
 10
232.5112169053819
 20
239.8366053594483
 30
0.0
 40
2.099867620733049
 41
0.0
 46
0.0
 71
     1
 72
     2
  1
\fHelvetica |b1|i0;\H2.0999;\C7;2
  7
STD
 73
     1
 44
1.0
  0
HATCH
  5
BB
330
A
100
AcDbEntity
  8
LAYER_1
 62
     1
100
AcDbHatch
 10
0.0
 20
0.0
 30
0.0
210
0.0
220
0.0
230
1.0
  2
SOLID
 70
     1
 71
     0
 91
        1
 92
        3
 72
     0
 73
     1
 93
        7
 10
346.095326063368
 20
245.7703559027778
 10
344.6208251953125
 20
244.2965440538194
 10
342.4641954210069
 20
246.453173828125
 10
343.9386962890625
 20
247.9269856770833
 10
343.2021348741319
 20
248.6635470920139
 10
346.6865044487847
 20
248.5185085720486
 10
346.8318874782986
 20
245.0337944878472
 97
        0
 75
     2
 76
     1
 98
        1
 10
0.0
 20
0.0
450
        0
451
        0
460
0.0
461
0.0
452
        0
462
0.0
453
        0
470

  0
LINE
  5
BA
330
A
100
AcDbEntity
  8
LAYER_1
 62
     7
100
AcDbLine
 10
342.4641954210069
 20
246.4526570638021
 30
0.0
 11
344.6208251953125
 21
244.2958550347222
 31
0.0
  0
LINE
  5
B9
330
A
100
AcDbEntity
  8
LAYER_1
 62
     7
100
AcDbLine
 10
342.4931342230902
 20
246.4815958658854
 30
0.0
 11
344.6497639973958
 21
244.3247938368055
 31
0.0
  0
LINE
  5
B8
330
A
100
AcDbEntity
  8
LAYER_1
 62
     7
100
AcDbLine
 10
342.5220730251736
 20
246.5105346679687
 30
0.0
 11
344.6787027994791
 21
244.3537326388888
 31
0.0
  0
LINE
  5
B7
330
A
100
AcDbEntity
  8
LAYER_1
 62
     7
100
AcDbLine
 10
342.5510118272569
 20
246.5393012152778
 30
0.0
 11
344.7076416015625
 21
244.3826714409722
 31
0.0
  0
LINE
  5
B6
330
A
100
AcDbEntity
  8
LAYER_1
 62
     7
100
AcDbLine
 10
342.5799506293403
 20
246.5682400173611
 30
0.0
 11
344.7365804036458
 21
244.4116102430555
 31
0.0
  0
LINE
  5
B5
330
A
100
AcDbEntity
  8
LAYER_1
 62
     7
100
AcDbLine
 10
342.6088894314236
 20
246.5971788194444
 30
0.0
 11
344.7655192057291
 21
244.4405490451389
 31
0.0
  0
LINE
  5
B4
330
A
100
AcDbEntity
  8
LAYER_1
 62
     7
100
AcDbLine
 10
342.6378282335069
 20
246.6261176215278
 30
0.0
 11
344.7944580078125
 21
244.4694878472222
 31
0.0
  0
LINE
  5
B3
330
A
100
AcDbEntity
  8
LAYER_1
 62
     7
100
AcDbLine
 10
342.6664225260416
 20
246.6550564236111
 30
0.0
 11
344.8230523003472
 21
244.4984266493055
 31
0.0
  0
LINE
  5
B2
330
A
100
AcDbEntity
  8
LAYER_1
 62
     7
100
AcDbLine
 10
342.695361328125
 20
246.6839952256944
 30
0.0
 11
344.8519911024305
 21
244.5273654513889
 31
0.0
  0
LINE
  5
B1
330
A
100
AcDbEntity
  8
LAYER_1
 62
     7
100
AcDbLine
 10
342.7243001302083
 20
246.7127617730035
 30
0.0
 11
344.8809299045138
 21
244.5563042534722
 31
0.0
  0
LINE
  5
B0
330
A
100
AcDbEntity
  8
LAYER_1
 62
     7
100
AcDbLine
 10
342.7532389322916
 20
246.7417005750868
 30
0.0
 11
344.9098687065972
 21
244.5852430555556
 31
0.0
  0
LINE
  5
AF
330
A
100
AcDbEntity
  8
LAYER_1
 62
     7
100
AcDbLine
 10
342.782177734375
 20
246.7706393771701
 30
0.0
 11
344.9388075086805
 21
244.6141818576389
 31
0.0
  0
LINE
  5
AE
330
A
100
AcDbEntity
  8
LAYER_1
 62
     7
100
AcDbLine
 10
342.8111165364583
 20
246.7995781792534
 30
0.0
 11
344.9677463107639
 21
244.6431206597222
 31
0.0
  0
LINE
  5
AD
330
A
100
AcDbEntity
  8
LAYER_1
 62
    21
100
AcDbLine
 10
342.8400553385416
 20
246.8285169813368
 30
0.0
 11
344.9966851128472
 21
244.6720594618055
 31
0.0
  0
LINE
  5
AC
330
A
100
AcDbEntity
  8
LAYER_1
 62
    21
100
AcDbLine
 10
342.868994140625
 20
246.8574557834201
 30
0.0
 11
345.0256239149305
 21
244.7009982638888
 31
0.0
  0
LINE
  5
AB
330
A
100
AcDbEntity
  8
LAYER_1
 62
    21
100
AcDbLine
 10
342.8979329427083
 20
246.8862223307291
 30
0.0
 11
345.0545627170139
 21
244.7295925564236
 31
0.0
  0
LINE
  5
AA
330
A
100
AcDbEntity
  8
LAYER_1
 62
    21
100
AcDbLine
 10
342.9268717447917
 20
246.9151611328125
 30
0.0
 11
345.0835015190972
 21
244.7585313585069
 31
0.0
  0
LINE
  5
A9
330
A
100
AcDbEntity
  8
LAYER_1
 62
    21
100
AcDbLine
 10
342.9558105468749
 20
246.9440999348958
 30
0.0
 11
345.1124403211805
 21
244.7874701605903
 31
0.0
  0
LINE
  5
A8
330
A
100
AcDbEntity
  8
LAYER_1
 62
    21
100
AcDbLine
 10
342.9847493489583
 20
246.9730387369792
 30
0.0
 11
345.1413791232639
 21
244.8164089626736
 31
0.0
  0
LINE
  5
A7
330
A
100
AcDbEntity
  8
LAYER_1
 62
    21
100
AcDbLine
 10
343.0136881510417
 20
247.0019775390625
 30
0.0
 11
345.1703179253472
 21
244.8453477647569
 31
0.0
  0
LINE
  5
A6
330
A
100
AcDbEntity
  8
LAYER_1
 62
    21
100
AcDbLine
 10
343.0422824435764
 20
247.0307440863715
 30
0.0
 11
345.1989122178819
 21
244.8739420572917
 31
0.0
  0
LINE
  5
A5
330
A
100
AcDbEntity
  8
LAYER_1
 62
    21
100
AcDbLine
 10
343.0712212456597
 20
247.0596828884549
 30
0.0
 11
345.2278510199653
 21
244.902880859375
 31
0.0
  0
LINE
  5
A4
330
A
100
AcDbEntity
  8
LAYER_1
 62
    21
100
AcDbLine
 10
343.100160047743
 20
247.0886216905382
 30
0.0
 11
345.2567898220486
 21
244.9318196614583
 31
0.0
  0
LINE
  5
A3
330
A
100
AcDbEntity
  8
LAYER_1
 62
    21
100
AcDbLine
 10
343.1290988498263
 20
247.1175604926215
 30
0.0
 11
345.2857286241319
 21
244.9607584635416
 31
0.0
  0
LINE
  5
A2
330
A
100
AcDbEntity
  8
LAYER_1
 62
    21
100
AcDbLine
 10
343.1580376519097
 20
247.1464992947048
 30
0.0
 11
345.3146674262153
 21
244.989697265625
 31
0.0
  0
LINE
  5
A1
330
A
100
AcDbEntity
  8
LAYER_1
 62
    21
100
AcDbLine
 10
343.186976453993
 20
247.1754380967882
 30
0.0
 11
345.3436062282986
 21
245.0186360677083
 31
0.0
  0
LINE
  5
A0
330
A
100
AcDbEntity
  8
LAYER_1
 62
    21
100
AcDbLine
 10
343.2159152560763
 20
247.2042046440972
 30
0.0
 11
345.3725450303819
 21
245.0475748697916
 31
0.0
  0
LINE
  5
9F
330
A
100
AcDbEntity
  8
LAYER_1
 62
    21
100
AcDbLine
 10
343.2448540581597
 20
247.2331434461805
 30
0.0
 11
345.4014838324653
 21
245.076513671875
 31
0.0
  0
LINE
  5
9E
330
A
100
AcDbEntity
  8
LAYER_1
 62
    20
100
AcDbLine
 10
343.273792860243
 20
247.2620822482639
 30
0.0
 11
345.4304226345485
 21
245.1054524739583
 31
0.0
  0
LINE
  5
9D
330
A
100
AcDbEntity
  8
LAYER_1
 62
    20
100
AcDbLine
 10
343.3027316623264
 20
247.2910210503472
 30
0.0
 11
345.4593614366319
 21
245.1343912760417
 31
0.0
  0
LINE
  5
9C
330
A
100
AcDbEntity
  8
LAYER_1
 62
    20
100
AcDbLine
 10
343.3316704644097
 20
247.3199598524305
 30
0.0
 11
345.4883002387152
 21
245.163330078125
 31
0.0
  0
LINE
  5
9B
330
A
100
AcDbEntity
  8
LAYER_1
 62
    20
100
AcDbLine
 10
343.360609266493
 20
247.3488986545139
 30
0.0
 11
345.5172390407986
 21
245.1922688802083
 31
0.0
  0
LINE
  5
9A
330
A
100
AcDbEntity
  8
LAYER_1
 62
    20
100
AcDbLine
 10
343.3892035590278
 20
247.3776652018229
 30
0.0
 11
345.5458333333333
 21
245.2210354275173
 31
0.0
  0
LINE
  5
99
330
A
100
AcDbEntity
  8
LAYER_1
 62
    20
100
AcDbLine
 10
343.4181423611111
 20
247.4066040039062
 30
0.0
 11
345.5747721354167
 21
245.2499742296007
 31
0.0
  0
LINE
  5
98
330
A
100
AcDbEntity
  8
LAYER_1
 62
    20
100
AcDbLine
 10
343.4470811631944
 20
247.4355428059896
 30
0.0
 11
345.6037109374999
 21
245.278913031684
 31
0.0
  0
LINE
  5
97
330
A
100
AcDbEntity
  8
LAYER_1
 62
    20
100
AcDbLine
 10
343.4760199652778
 20
247.4644816080729
 30
0.0
 11
345.6326497395833
 21
245.3078518337673
 31
0.0
  0
LINE
  5
96
330
A
100
AcDbEntity
  8
LAYER_1
 62
    20
100
AcDbLine
 10
343.5049587673611
 20
247.4934204101562
 30
0.0
 11
345.6615885416666
 21
245.3367906358506
 31
0.0
  0
LINE
  5
95
330
A
100
AcDbEntity
  8
LAYER_1
 62
    20
100
AcDbLine
 10
343.5338975694445
 20
247.5221869574653
 30
0.0
 11
345.69052734375
 21
245.3655571831597
 31
0.0
  0
LINE
  5
94
330
A
100
AcDbEntity
  8
LAYER_1
 62
     1
100
AcDbLine
 10
343.5628363715277
 20
247.5511257595486
 30
0.0
 11
345.7194661458333
 21
245.394495985243
 31
0.0
  0
LINE
  5
93
330
A
100
AcDbEntity
  8
LAYER_1
 62
     1
100
AcDbLine
 10
343.5917751736111
 20
247.5800645616319
 30
0.0
 11
345.7484049479166
 21
245.4234347873263
 31
0.0
  0
LINE
  5
92
330
A
100
AcDbEntity
  8
LAYER_1
 62
     1
100
AcDbLine
 10
343.6207139756944
 20
247.6090033637153
 30
0.0
 11
345.7773437499999
 21
245.4523735894097
 31
0.0
  0
LINE
  5
91
330
A
100
AcDbEntity
  8
LAYER_1
 62
     1
100
AcDbLine
 10
343.6496527777777
 20
247.6379421657986
 30
0.0
 11
345.8062825520833
 21
245.481312391493
 31
0.0
  0
LINE
  5
90
330
A
100
AcDbEntity
  8
LAYER_1
 62
     1
100
AcDbLine
 10
343.6785915798611
 20
247.6668809678819
 30
0.0
 11
345.8352213541667
 21
245.5102511935764
 31
0.0
  0
LINE
  5
8F
330
A
100
AcDbEntity
  8
LAYER_1
 62
     1
100
AcDbLine
 10
343.7075303819444
 20
247.695647515191
 30
0.0
 11
345.86416015625
 21
245.5390177408854
 31
0.0
  0
LINE
  5
8E
330
A
100
AcDbEntity
  8
LAYER_1
 62
     1
100
AcDbLine
 10
343.7364691840277
 20
247.7245863172743
 30
0.0
 11
345.8930989583333
 21
245.5679565429687
 31
0.0
  0
LINE
  5
8D
330
A
100
AcDbEntity
  8
LAYER_1
 62
     1
100
AcDbLine
 10
343.7650634765625
 20
247.7535251193576
 30
0.0
 11
345.9216932508681
 21
245.5968953450521
 31
0.0
  0
LINE
  5
8C
330
A
100
AcDbEntity
  8
LAYER_1
 62
     1
100
AcDbLine
 10
343.7940022786458
 20
247.7824639214409
 30
0.0
 11
345.9506320529513
 21
245.6258341471354
 31
0.0
  0
LINE
  5
8B
330
A
100
AcDbEntity
  8
LAYER_1
 62
     1
100
AcDbLine
 10
343.8229410807291
 20
247.8114027235243
 30
0.0
 11
345.9795708550347
 21
245.6547729492188
 31
0.0
  0
LINE
  5
8A
330
A
100
AcDbEntity
  8
LAYER_1
 62
     1
100
AcDbLine
 10
343.8518798828125
 20
247.8403415256076
 30
0.0
 11
346.008509657118
 21
245.6837117513021
 31
0.0
  0
LINE
  5
89
330
A
100
AcDbEntity
  8
LAYER_1
 62
     1
100
AcDbLine
 10
343.8808186848958
 20
247.8691080729166
 30
0.0
 11
346.0374484592013
 21
245.7124782986111
 31
0.0
  0
LINE
  5
88
330
A
100
AcDbEntity
  8
LAYER_1
 62
     1
100
AcDbLine
 10
343.9097574869791
 20
247.898046875
 30
0.0
 11
346.0663872612847
 21
245.7414171006945
 31
0.0
  0
LINE
  5
87
330
A
100
AcDbEntity
  8
LAYER_1
 62
     1
100
AcDbLine
 10
343.9386962890625
 20
247.9269856770833
 30
0.0
 11
346.095326063368
 21
245.7703559027778
 31
0.0
  0
MTEXT
  5
86
330
A
100
AcDbEntity
  8
LAYER_1
 62
     7
100
AcDbMText
 10
343.9318060980903
 20
247.7870244675212
 30
0.0
 40
2.099867620733049
 41
0.0
 46
0.0
 71
     1
 72
     2
  1
\fHelvetica |b1|i0;\H2.0999;\C7;2
  7
STD
 73
     1
 44
1.0
  0
MTEXT
  5
85
330
A
100
AcDbEntity
  8
LAYER_1
 62
     7
100
AcDbMText
 10
350.1619167751735
 20
248.2640388144387
 30
0.0
 40
3.149801346990797
 41
0.0
 46
0.0
 71
     1
 72
     2
  1
\fArial|b0|i0;\H3.1498;\C7;Direction of Photograph
  7
STD
 73
     1
 44
1.0
  0
MTEXT
  5
84
330
A
100
AcDbEntity
  8
LAYER_1
 62
     7
100
AcDbMText
 10
122.7666666666666
 20
279.2821282784144
 30
0.0
 40
3.149801346990797
 41
0.0
 46
0.0
 71
     1
 72
     2
  1
\fArial|b0|i0;\H3.1498;\C7;Trench 1 Plan
  7
STD
 73
     1
 44
1.0
  0
MTEXT
  5
83
330
A
100
AcDbEntity
  8
LAYER_1
 62
     7
100
AcDbMText
 10
120.2972222222222
 20
178.7404616117477
 30
0.0
 40
3.149801346990797
 41
0.0
 46
0.0
 71
     1
 72
     2
  1
\fArial|b0|i0;\H3.1498;\C7;Gully [103] Section
  7
STD
 73
     1
 44
1.0
  0
HATCH
  5
82
330
A
100
AcDbEntity
  8
LAYER_1
 62
     7
100
AcDbHatch
 10
0.0
 20
0.0
 30
0.0
210
0.0
220
0.0
230
1.0
  2
SOLID
 70
     1
 71
     0
 91
        1
 92
        3
 72
     0
 73
     1
 93
        4
 10
137.2276272243923
 20
163.3745239257812
 10
124.7308878580729
 20
163.3745239257812
 10
124.7308878580729
 20
164.6002888997396
 10
137.2276272243923
 20
164.6002888997396
 97
        0
 75
     2
 76
     1
 98
        1
 10
0.0
 20
0.0
450
        0
451
        0
460
0.0
461
0.0
452
        0
462
0.0
453
        0
470

  0
POLYLINE
  5
7C
330
A
100
AcDbEntity
  8
LAYER_1
 62
     7
100
AcDb2dPolyline
 66
     1
 10
0.0
 20
0.0
 30
0.0
 70
     1
  0
VERTEX
  5
7D
330
7C
100
AcDbEntity
  8
LAYER_1
 62
     7
100
AcDbVertex
100
AcDb2dVertex
 10
137.2276272243923
 20
163.3745239257812
 30
0.0
  0
VERTEX
  5
7E
330
7C
100
AcDbEntity
  8
LAYER_1
 62
     7
100
AcDbVertex
100
AcDb2dVertex
 10
124.7308878580729
 20
163.3745239257812
 30
0.0
  0
VERTEX
  5
7F
330
7C
100
AcDbEntity
  8
LAYER_1
 62
     7
100
AcDbVertex
100
AcDb2dVertex
 10
124.7308878580729
 20
164.6002888997396
 30
0.0
  0
VERTEX
  5
80
330
7C
100
AcDbEntity
  8
LAYER_1
 62
     7
100
AcDbVertex
100
AcDb2dVertex
 10
137.2276272243923
 20
164.6002888997396
 30
0.0
  0
SEQEND
  5
81
330
7C
100
AcDbEntity
  8
LAYER_1
 62
     7
  0
POLYLINE
  5
76
330
A
100
AcDbEntity
  8
LAYER_1
 62
     7
100
AcDb2dPolyline
 66
     1
 10
0.0
 20
0.0
 30
0.0
 70
     1
  0
VERTEX
  5
77
330
76
100
AcDbEntity
  8
LAYER_1
 62
     7
100
AcDbVertex
100
AcDb2dVertex
 10
149.7271226671007
 20
163.3610880533854
 30
0.0
  0
VERTEX
  5
78
330
76
100
AcDbEntity
  8
LAYER_1
 62
     7
100
AcDbVertex
100
AcDb2dVertex
 10
137.2305555555555
 20
163.3610880533854
 30
0.0
  0
VERTEX
  5
79
330
76
100
AcDbEntity
  8
LAYER_1
 62
     7
100
AcDbVertex
100
AcDb2dVertex
 10
137.2305555555555
 20
164.5866807725694
 30
0.0
  0
VERTEX
  5
7A
330
76
100
AcDbEntity
  8
LAYER_1
 62
     7
100
AcDbVertex
100
AcDb2dVertex
 10
149.7271226671007
 20
164.5866807725694
 30
0.0
  0
SEQEND
  5
7B
330
76
100
AcDbEntity
  8
LAYER_1
 62
     7
  0
POLYLINE
  5
70
330
A
100
AcDbEntity
  8
LAYER_1
 62
     7
100
AcDb2dPolyline
 66
     1
 10
0.0
 20
0.0
 30
0.0
 70
     1
  0
VERTEX
  5
71
330
70
100
AcDbEntity
  8
LAYER_1
 62
     7
100
AcDbVertex
100
AcDb2dVertex
 10
149.7271226671007
 20
163.3610880533854
 30
0.0
  0
VERTEX
  5
72
330
70
100
AcDbEntity
  8
LAYER_1
 62
     7
100
AcDbVertex
100
AcDb2dVertex
 10
137.2305555555555
 20
163.3610880533854
 30
0.0
  0
VERTEX
  5
73
330
70
100
AcDbEntity
  8
LAYER_1
 62
     7
100
AcDbVertex
100
AcDb2dVertex
 10
137.2305555555555
 20
164.5866807725694
 30
0.0
  0
VERTEX
  5
74
330
70
100
AcDbEntity
  8
LAYER_1
 62
     7
100
AcDbVertex
100
AcDb2dVertex
 10
149.7271226671007
 20
164.5866807725694
 30
0.0
  0
SEQEND
  5
75
330
70
100
AcDbEntity
  8
LAYER_1
 62
     7
  0
MTEXT
  5
6F
330
A
100
AcDbEntity
  8
LAYER_1
 62
     7
100
AcDbMText
 10
123.7075222439236
 20
167.925166870488
 30
0.0
 40
2.624834567970699
 41
0.0
 46
0.0
 71
     1
 72
     2
  1
\fMyriad Roman|b0|i0;\H2.6248;\C7;0
  7
STD
 73
     1
 44
1.0
  0
MTEXT
  5
6E
330
A
100
AcDbEntity
  8
LAYER_1
 62
     7
100
AcDbMText
 10
147.225983344184
 20
167.807344604863
 30
0.0
 40
2.624834567970699
 41
0.0
 46
0.0
 71
     1
 72
     2
  1
\fMyriad Roman|b0|i0;\H2.6248;\C7;0.5m
  7
STD
 73
     1
 44
1.0
  0
MTEXT
  5
6D
330
A
100
AcDbEntity
  8
LAYER_1
 62
     7
100
AcDbMText
 10
153.8738118489583
 20
227.4927626278665
 30
0.0
 40
2.624834567970699
 41
0.0
 46
0.0
 71
     1
 72
     2
  1
\fHelvetica|b0|i0;\H2.6248;\C7;0
  7
STD
 73
     1
 44
1.0
  0
HATCH
  5
6C
330
A
100
AcDbEntity
  8
LAYER_1
 62
     7
100
AcDbHatch
 10
0.0
 20
0.0
 30
0.0
210
0.0
220
0.0
230
1.0
  2
SOLID
 70
     1
 71
     0
 91
        1
 92
        3
 72
     0
 73
     1
 93
        4
 10
165.0288587782118
 20
221.0635091145833
 10
154.9128526475694
 20
221.0635091145833
 10
154.9128526475694
 20
223.459228515625
 10
165.0288587782118
 20
223.459228515625
 97
        0
 75
     2
 76
     1
 98
        1
 10
0.0
 20
0.0
450
        0
451
        0
460
0.0
461
0.0
452
        0
462
0.0
453
        0
470

  0
POLYLINE
  5
66
330
A
100
AcDbEntity
  8
LAYER_1
 62
     7
100
AcDb2dPolyline
 66
     1
 10
0.0
 20
0.0
 30
0.0
 70
     1
  0
VERTEX
  5
67
330
66
100
AcDbEntity
  8
LAYER_1
 62
     7
100
AcDbVertex
100
AcDb2dVertex
 10
165.0288587782118
 20
221.0635091145833
 30
0.0
  0
VERTEX
  5
68
330
66
100
AcDbEntity
  8
LAYER_1
 62
     7
100
AcDbVertex
100
AcDb2dVertex
 10
154.9128526475694
 20
221.0635091145833
 30
0.0
  0
VERTEX
  5
69
330
66
100
AcDbEntity
  8
LAYER_1
 62
     7
100
AcDbVertex
100
AcDb2dVertex
 10
154.9128526475694
 20
223.459228515625
 30
0.0
  0
VERTEX
  5
6A
330
66
100
AcDbEntity
  8
LAYER_1
 62
     7
100
AcDbVertex
100
AcDb2dVertex
 10
165.0288587782118
 20
223.459228515625
 30
0.0
  0
SEQEND
  5
6B
330
66
100
AcDbEntity
  8
LAYER_1
 62
     7
  0
POLYLINE
  5
60
330
A
100
AcDbEntity
  8
LAYER_1
 62
     7
100
AcDb2dPolyline
 66
     1
 10
0.0
 20
0.0
 30
0.0
 70
     1
  0
VERTEX
  5
61
330
60
100
AcDbEntity
  8
LAYER_1
 62
     7
100
AcDbVertex
100
AcDb2dVertex
 10
174.8785590277777
 20
221.0635091145833
 30
0.0
  0
VERTEX
  5
62
330
60
100
AcDbEntity
  8
LAYER_1
 62
     7
100
AcDbVertex
100
AcDb2dVertex
 10
164.7625528971354
 20
221.0635091145833
 30
0.0
  0
VERTEX
  5
63
330
60
100
AcDbEntity
  8
LAYER_1
 62
     7
100
AcDbVertex
100
AcDb2dVertex
 10
164.7625528971354
 20
223.459228515625
 30
0.0
  0
VERTEX
  5
64
330
60
100
AcDbEntity
  8
LAYER_1
 62
     7
100
AcDbVertex
100
AcDb2dVertex
 10
174.8785590277777
 20
223.459228515625
 30
0.0
  0
SEQEND
  5
65
330
60
100
AcDbEntity
  8
LAYER_1
 62
     7
  0
POLYLINE
  5
5A
330
A
100
AcDbEntity
  8
LAYER_1
 62
     7
100
AcDb2dPolyline
 66
     1
 10
0.0
 20
0.0
 30
0.0
 70
     1
  0
VERTEX
  5
5B
330
5A
100
AcDbEntity
  8
LAYER_1
 62
     7
100
AcDbVertex
100
AcDb2dVertex
 10
174.8785590277777
 20
221.0635091145833
 30
0.0
  0
VERTEX
  5
5C
330
5A
100
AcDbEntity
  8
LAYER_1
 62
     7
100
AcDbVertex
100
AcDb2dVertex
 10
164.7625528971354
 20
221.0635091145833
 30
0.0
  0
VERTEX
  5
5D
330
5A
100
AcDbEntity
  8
LAYER_1
 62
     7
100
AcDbVertex
100
AcDb2dVertex
 10
164.7625528971354
 20
223.459228515625
 30
0.0
  0
VERTEX
  5
5E
330
5A
100
AcDbEntity
  8
LAYER_1
 62
     7
100
AcDbVertex
100
AcDb2dVertex
 10
174.8785590277777
 20
223.459228515625
 30
0.0
  0
SEQEND
  5
5F
330
5A
100
AcDbEntity
  8
LAYER_1
 62
     7
  0
HATCH
  5
59
330
A
100
AcDbEntity
  8
LAYER_1
 62
     7
100
AcDbHatch
 10
0.0
 20
0.0
 30
0.0
210
0.0
220
0.0
230
1.0
  2
SOLID
 70
     1
 71
     0
 91
        1
 92
        3
 72
     0
 73
     1
 93
        4
 10
185.127545844184
 20
221.0635091145833
 10
175.0115397135416
 20
221.0635091145833
 10
175.0115397135416
 20
223.459228515625
 10
185.127545844184
 20
223.459228515625
 97
        0
 75
     2
 76
     1
 98
        1
 10
0.0
 20
0.0
450
        0
451
        0
460
0.0
461
0.0
452
        0
462
0.0
453
        0
470

  0
POLYLINE
  5
53
330
A
100
AcDbEntity
  8
LAYER_1
 62
     7
100
AcDb2dPolyline
 66
     1
 10
0.0
 20
0.0
 30
0.0
 70
     1
  0
VERTEX
  5
54
330
53
100
AcDbEntity
  8
LAYER_1
 62
     7
100
AcDbVertex
100
AcDb2dVertex
 10
185.127545844184
 20
221.0635091145833
 30
0.0
  0
VERTEX
  5
55
330
53
100
AcDbEntity
  8
LAYER_1
 62
     7
100
AcDbVertex
100
AcDb2dVertex
 10
175.0115397135416
 20
221.0635091145833
 30
0.0
  0
VERTEX
  5
56
330
53
100
AcDbEntity
  8
LAYER_1
 62
     7
100
AcDbVertex
100
AcDb2dVertex
 10
175.0115397135416
 20
223.459228515625
 30
0.0
  0
VERTEX
  5
57
330
53
100
AcDbEntity
  8
LAYER_1
 62
     7
100
AcDbVertex
100
AcDb2dVertex
 10
185.127545844184
 20
223.459228515625
 30
0.0
  0
SEQEND
  5
58
330
53
100
AcDbEntity
  8
LAYER_1
 62
     7
  0
POLYLINE
  5
4D
330
A
100
AcDbEntity
  8
LAYER_1
 62
     7
100
AcDb2dPolyline
 66
     1
 10
0.0
 20
0.0
 30
0.0
 70
     1
  0
VERTEX
  5
4E
330
4D
100
AcDbEntity
  8
LAYER_1
 62
     7
100
AcDbVertex
100
AcDb2dVertex
 10
195.1103990342881
 20
221.0635091145833
 30
0.0
  0
VERTEX
  5
4F
330
4D
100
AcDbEntity
  8
LAYER_1
 62
     7
100
AcDbVertex
100
AcDb2dVertex
 10
184.9942206488715
 20
221.0635091145833
 30
0.0
  0
VERTEX
  5
50
330
4D
100
AcDbEntity
  8
LAYER_1
 62
     7
100
AcDbVertex
100
AcDb2dVertex
 10
184.9942206488715
 20
223.459228515625
 30
0.0
  0
VERTEX
  5
51
330
4D
100
AcDbEntity
  8
LAYER_1
 62
     7
100
AcDbVertex
100
AcDb2dVertex
 10
195.1103990342881
 20
223.459228515625
 30
0.0
  0
SEQEND
  5
52
330
4D
100
AcDbEntity
  8
LAYER_1
 62
     7
  0
POLYLINE
  5
47
330
A
100
AcDbEntity
  8
LAYER_1
 62
     7
100
AcDb2dPolyline
 66
     1
 10
0.0
 20
0.0
 30
0.0
 70
     1
  0
VERTEX
  5
48
330
47
100
AcDbEntity
  8
LAYER_1
 62
     7
100
AcDbVertex
100
AcDb2dVertex
 10
195.1103990342881
 20
221.0635091145833
 30
0.0
  0
VERTEX
  5
49
330
47
100
AcDbEntity
  8
LAYER_1
 62
     7
100
AcDbVertex
100
AcDb2dVertex
 10
184.9942206488715
 20
221.0635091145833
 30
0.0
  0
VERTEX
  5
4A
330
47
100
AcDbEntity
  8
LAYER_1
 62
     7
100
AcDbVertex
100
AcDb2dVertex
 10
184.9942206488715
 20
223.459228515625
 30
0.0
  0
VERTEX
  5
4B
330
47
100
AcDbEntity
  8
LAYER_1
 62
     7
100
AcDbVertex
100
AcDb2dVertex
 10
195.1103990342881
 20
223.459228515625
 30
0.0
  0
SEQEND
  5
4C
330
47
100
AcDbEntity
  8
LAYER_1
 62
     7
  0
MTEXT
  5
46
330
A
100
AcDbEntity
  8
LAYER_1
 62
     7
100
AcDbMText
 10
173.9568237304687
 20
227.4116306291686
 30
0.0
 40
2.624834567970699
 41
0.0
 46
0.0
 71
     1
 72
     2
  1
\fHelvetica|b0|i0;\H2.6248;\C7;1
  7
STD
 73
     1
 44
1.0
  0
MTEXT
  5
45
330
A
100
AcDbEntity
  8
LAYER_1
 62
     7
100
AcDbMText
 10
192.9492906358506
 20
226.936035197311
 30
0.0
 40
2.624834567970699
 41
0.0
 46
0.0
 71
     1
 72
     2
  1
\fHelvetica|b0|i0;\H2.6248;\C7;2m
  7
STD
 73
     1
 44
1.0
  0
INSERT
  5
3F
330
A
100
AcDbEntity
  8
LAYER_1
 62
     7
100
AcDbBlockReference
  2
AI9-BLK2
 10
99.81879950629339
 20
85.62354193793401
 30
0.0
  0
INSERT
  5
38
330
A
100
AcDbEntity
  8
LAYER_1
 62
     7
100
AcDbBlockReference
  2
AI9-BLK1
 10
254.3510552300347
 20
85.62354193793401
 30
0.0
  0
POLYLINE
  5
31
330
A
100
AcDbEntity
  8
LAYER_1
 62
     7
100
AcDb2dPolyline
 66
     1
 10
0.0
 20
0.0
 30
0.0
 70
     1
  0
VERTEX
  5
32
330
31
100
AcDbEntity
  8
LAYER_1
 62
     7
100
AcDbVertex
100
AcDb2dVertex
 10
164.9330851236979
 20
36.78776312934028
 30
0.0
  0
VERTEX
  5
33
330
31
100
AcDbEntity
  8
LAYER_1
 62
     7
100
AcDbVertex
100
AcDb2dVertex
 10
34.70451388888888
 20
36.78776312934028
 30
0.0
  0
VERTEX
  5
34
330
31
100
AcDbEntity
  8
LAYER_1
 62
     7
100
AcDbVertex
100
AcDb2dVertex
 10
34.70451388888888
 20
134.4593207465277
 30
0.0
  0
VERTEX
  5
35
330
31
100
AcDbEntity
  8
LAYER_1
 62
     7
100
AcDbVertex
100
AcDb2dVertex
 10
164.9330851236979
 20
134.4593207465277
 30
0.0
  0
SEQEND
  5
36
330
31
100
AcDbEntity
  8
LAYER_1
 62
     7
  0
POLYLINE
  5
2B
330
A
100
AcDbEntity
  8
LAYER_1
 62
     7
100
AcDb2dPolyline
 66
     1
 10
0.0
 20
0.0
 30
0.0
 70
     1
  0
VERTEX
  5
2C
330
2B
100
AcDbEntity
  8
LAYER_1
 62
     7
100
AcDbVertex
100
AcDb2dVertex
 10
319.4654269748264
 20
36.78776312934028
 30
0.0
  0
VERTEX
  5
2D
330
2B
100
AcDbEntity
  8
LAYER_1
 62
     7
100
AcDbVertex
100
AcDb2dVertex
 10
189.236683485243
 20
36.78776312934028
 30
0.0
  0
VERTEX
  5
2E
330
2B
100
AcDbEntity
  8
LAYER_1
 62
     7
100
AcDbVertex
100
AcDb2dVertex
 10
189.236683485243
 20
134.4593207465277
 30
0.0
  0
VERTEX
  5
2F
330
2B
100
AcDbEntity
  8
LAYER_1
 62
     7
100
AcDbVertex
100
AcDb2dVertex
 10
319.4654269748264
 20
134.4593207465277
 30
0.0
  0
SEQEND
  5
30
330
2B
100
AcDbEntity
  8
LAYER_1
 62
     7
  0
MTEXT
  5
2A
330
A
100
AcDbEntity
  8
LAYER_1
 62
     7
100
AcDbMText
 10
34.33709445529514
 20
34.68965052233802
 30
0.0
 40
3.149801346990797
 41
0.0
 46
0.0
 71
     1
 72
     2
  1
\fArial|b0|i0;\H3.1498;\C7;Plate 1: View along Trench 1, Looking east, Scales 1x1m & 1x2m
  7
STD
 73
     1
 44
1.0
  0
MTEXT
  5
29
330
A
100
AcDbEntity
  8
LAYER_1
 62
     7
100
AcDbMText
 10
189.3243611653645
 20
34.92460603449079
 30
0.0
 40
3.149801346990797
 41
0.0
 46
0.0
 71
     1
 72
     2
  1
\fArial|b0|i0;\H3.1498;\C7;Plate 2: View of Gully [103], Looking north, Scales 1x1m & 1x2m
  7
STD
 73
     1
 44
1.0
  0
VIEWPORT
  5
330
102
{ACAD_XDICTIONARY
360
331
102
}
330
B
100
AcDbEntity
 67
     1
  8
0
  6
Continuous
370
     0
100
AcDbViewport
 10
145.3409271240234
 20
101.8116638660431
 30
0.0
 40
391.5722810355825
 41
222.1517806396485
 68
     1
 69
     1
 12
145.3409271240234
 22
101.8116638660431
 13
0.0
 23
0.0
 14
10.0
 24
10.0
 15
10.0
 25
10.0
 16
0.0
 26
0.0
 36
1.0
 17
0.0
 27
0.0
 37
0.0
 42
50.0
 43
0.0
 44
0.0
 45
222.1517806396485
 50
0.0
 51
0.0
 72
   100
 90
   819232
  1

281
     0
 71
     1
 74
     0
110
0.0
120
0.0
130
0.0
111
1.0
121
0.0
131
0.0
112
0.0
122
1.0
132
0.0
 79
     0
146
0.0
170
     0
 61
     5
348
2F0
292
     1
282
     1
141
0.0
142
0.0
 63
   250
421
  3355443
  0
VIEWPORT
  5
335
102
{ACAD_XDICTIONARY
360
336
102
}
330
B
100
AcDbEntity
 67
     1
  8
0
  6
Continuous
370
     0
100
AcDbViewport
 10
145.3409210443497
 20
101.8116623163223
 30
0.0
 40
232.5454736709595
 41
162.8986597061157
 68
     2
 69
     2
 12
209.9999294704861
 22
140.3676638245521
 13
0.0
 23
0.0
 14
10.0
 24
10.0
 15
10.0
 25
10.0
 16
0.0
 26
0.0
 36
1.0
 17
0.0
 27
0.0
 37
0.0
 42
50.0
 43
0.0
 44
0.0
 45
320.6600058082435
 50
0.0
 51
0.0
 72
   100
 90
   819232
  1

281
     0
 71
     1
 74
     0
110
0.0
120
0.0
130
0.0
111
1.0
121
0.0
131
0.0
112
0.0
122
1.0
132
0.0
 79
     0
146
0.0
170
     0
 61
     5
348
2F0
292
     1
282
     1
141
0.0
142
0.0
 63
   250
421
  3355443
  0
ENDSEC
  0
SECTION
  2
OBJECTS
  0
DICTIONARY
  5
19
330
0
100
AcDbDictionary
281
     1
  3
ACAD_CIP_PREVIOUS_PRODUCT_INFO
350
322
  3
ACAD_COLOR
350
303
  3
ACAD_DETAILVIEWSTYLE
350
31C
  3
ACAD_GROUP
350
1A
  3
ACAD_IMAGE_VARS
350
323
  3
ACAD_LAYOUT
350
1E
  3
ACAD_MATERIAL
350
2D1
  3
ACAD_MLEADERSTYLE
350
318
  3
ACAD_MLINESTYLE
350
1B
  3
ACAD_PLOTSETTINGS
350
22
  3
ACAD_PLOTSTYLENAME
350
1F
  3
ACAD_SCALELIST
350
306
  3
ACAD_SECTIONVIEWSTYLE
350
31A
  3
ACAD_TABLESTYLE
350
304
  3
ACAD_VISUALSTYLE
350
2EA
  3
ACAD_WIPEOUT_VARS
350
23
  3
ACDB_RECOMPOSE_DATA
350
357
  3
AcDbVariableDictionary
350
34B
  3
AcDsDecomposeData
350
35D
  0
DICTIONARY
  5
327
330
2
100
AcDbDictionary
280
     1
281
     1
  3
ACAD_LAYERSTATES
360
328
  0
DICTIONARY
  5
338
330
14
100
AcDbDictionary
280
     1
281
     1
  3
ADSK_XREC_LAYER_RECONCILED
360
339
  0
DICTIONARY
  5
33A
330
28
100
AcDbDictionary
280
     1
281
     1
  3
ADSK_XREC_LAYER_RECONCILED
360
33B
  0
IMAGEDEF_REACTOR
  5
3B
330
3A
100
AcDbRasterImageDefReactor
 90
        2
330
3A
  0
IMAGEDEF_REACTOR
  5
42
330
41
100
AcDbRasterImageDefReactor
 90
        2
330
41
  0
IMAGEDEF_REACTOR
  5
2A2
330
2A1
100
AcDbRasterImageDefReactor
 90
        2
330
2A1
  0
DICTIONARY
  5
331
330
330
100
AcDbDictionary
280
     1
281
     1
  3
ASDK_XREC_ANNOTATION_SCALE_INFO
360
332
  0
DICTIONARY
  5
336
330
335
100
AcDbDictionary
280
     1
281
     1
  3
ASDK_XREC_ANNOTATION_SCALE_INFO
360
337
  0
XRECORD
  5
322
102
{ACAD_REACTORS
330
19
102
}
330
19
100
AcDbXrecord
280
     1
300
ACD
300
2015
300
ACD_F_S
  0
DICTIONARY
  5
303
102
{ACAD_REACTORS
330
19
102
}
330
19
100
AcDbDictionary
281
     1
  0
DICTIONARY
  5
31C
102
{ACAD_REACTORS
330
19
102
}
330
19
100
AcDbDictionary
281
     1
  3
Metric50
350
31D
  0
DICTIONARY
  5
1A
102
{ACAD_REACTORS
330
19
102
}
330
19
100
AcDbDictionary
281
     1
  0
RASTERVARIABLES
  5
323
102
{ACAD_REACTORS
330
19
102
}
330
19
100
AcDbRasterVariables
 90
        0
 70
     1
 71
     1
 72
     0
  0
DICTIONARY
  5
1E
102
{ACAD_REACTORS
330
19
102
}
330
19
100
AcDbDictionary
281
     1
  3
Layout1
350
21
  3
Model
350
20
  0
DICTIONARY
  5
2D1
102
{ACAD_REACTORS
330
19
102
}
330
19
100
AcDbDictionary
281
     1
  3
ByBlock
350
2DA
  3
ByLayer
350
2D2
  3
Global
350
2E2
  0
DICTIONARY
  5
318
102
{ACAD_REACTORS
330
19
102
}
330
19
100
AcDbDictionary
281
     1
  3
Standard
350
319
  0
DICTIONARY
  5
1B
102
{ACAD_REACTORS
330
19
102
}
330
19
100
AcDbDictionary
281
     1
  3
Standard
350
1C
  0
DICTIONARY
  5
22
102
{ACAD_REACTORS
330
19
102
}
330
19
100
AcDbDictionary
281
     1
  0
ACDBDICTIONARYWDFLT
  5
1F
102
{ACAD_REACTORS
330
19
102
}
330
19
100
AcDbDictionary
281
     1
  3
Normal
350
1D
100
AcDbDictionaryWithDefault
340
1D
  0
DICTIONARY
  5
306
102
{ACAD_REACTORS
330
19
102
}
330
19
100
AcDbDictionary
281
     1
  3
A0
350
307
  3
A1
350
308
  3
A2
350
309
  3
A3
350
30A
  3
A4
350
30B
  3
A5
350
30C
  3
A6
350
30D
  3
A7
350
30E
  3
A8
350
30F
  3
A9
350
310
  3
B0
350
311
  3
B1
350
312
  3
B2
350
313
  3
B3
350
314
  3
B4
350
315
  3
B5
350
316
  3
B6
350
317
  0
DICTIONARY
  5
31A
102
{ACAD_REACTORS
330
19
102
}
330
19
100
AcDbDictionary
281
     1
  3
Metric50
350
31B
  0
DICTIONARY
  5
304
102
{ACAD_REACTORS
330
19
102
}
330
19
100
AcDbDictionary
281
     1
  3
Standard
350
305
  0
DICTIONARY
  5
2EA
102
{ACAD_REACTORS
330
19
102
}
330
19
100
AcDbDictionary
281
     1
  3
2dWireframe
350
2F0
  3
Basic
350
2EF
  3
Brighten
350
2F6
  3
ColorChange
350
2FA
  3
Conceptual
350
2F3
  3
Dim
350
2F5
  3
EdgeColorOff
350
302
  3
Facepattern
350
2F9
  3
Flat
350
2EB
  3
FlatWithEdges
350
2EC
  3
Gouraud
350
2ED
  3
GouraudWithEdges
350
2EE
  3
Hidden
350
2F2
  3
JitterOff
350
300
  3
Linepattern
350
2F8
  3
OverhangOff
350
301
  3
Realistic
350
2F4
  3
Shaded
350
2FF
  3
Shaded with edges
350
2FE
  3
Shades of Gray
350
2FB
  3
Sketchy
350
2FC
  3
Thicken
350
2F7
  3
Wireframe
350
2F1
  3
X-Ray
350
2FD
  0
WIPEOUTVARIABLES
  5
23
330
19
100
AcDbWipeoutVariables
 70
     1
  0
XRECORD
  5
357
102
{ACAD_REACTORS
330
19
102
}
330
19
100
AcDbXrecord
280
     1
 90
        1
330
305
  0
DICTIONARY
  5
34B
102
{ACAD_REACTORS
330
19
102
}
330
19
100
AcDbDictionary
281
     1
  3
CANNOSCALE
350
351
  3
CMLEADERSTYLE
350
34D
  3
CTABLESTYLE
350
34C
  3
CVIEWDETAILSTYLE
350
34E
  3
CVIEWSECTIONSTYLE
350
34F
  3
LAYEREVAL
350
353
  3
LAYERNOTIFY
350
354
  3
LIGHTINGUNITS
350
352
  3
MSLTSCALE
350
350
  0
DICTIONARY
  5
35D
102
{ACAD_REACTORS
330
19
102
}
330
19
100
AcDbDictionary
281
     1
  3
AcDsRecords
350
35F
  3
AcDsSchemas
350
35E
1001
ACAD
1070
     2
  0
DICTIONARY
  5
328
102
{ACAD_REACTORS
330
327
102
}
330
327
100
AcDbDictionary
281
     1
  0
XRECORD
  5
339
102
{ACAD_REACTORS
330
338
102
}
330
338
100
AcDbXrecord
280
     1
290
     1
  0
XRECORD
  5
33B
102
{ACAD_REACTORS
330
33A
102
}
330
33A
100
AcDbXrecord
280
     1
290
     1
  0
XRECORD
  5
332
102
{ACAD_REACTORS
330
331
102
}
330
331
100
AcDbXrecord
280
     1
 90
        1
340
307
  0
XRECORD
  5
337
102
{ACAD_REACTORS
330
336
102
}
330
336
100
AcDbXrecord
280
     1
 90
        1
340
307
  0
ACDBDETAILVIEWSTYLE
  5
31D
102
{ACAD_XDICTIONARY
360
394
102
}
102
{ACAD_REACTORS
330
31C
102
}
330
31C
100
AcDbModelDocViewStyle
 70
     0
  3
Metric50
290
     0
100
AcDbDetailViewStyle
 70
     0
 71
     0
 90
        3
 71
     1
340
17
 62
   256
 40
5.0
340
0
 62
   256
 40
5.0
300

 40
0.0
280
     1
 71
     2
340
13
 90
       25
 62
   256
 71
     3
340
17
 62
   256
 40
5.0
 90
        0
 40
15.0
 90
        1
300
%<\AcVar ViewDetailId>% (%<\AcVar ViewScale \f "%sn">%)
 71
     4
340
13
 90
       25
 62
   256
340
13
 90
       25
 62
   256
280
     0
  0
LAYOUT
  5
21
102
{ACAD_REACTORS
330
1E
102
}
330
1E
100
AcDbPlotSettings
  1

  2
Adobe PDF
  4
A4
  6

 40
3.174999952316284
 41
3.174999952316284
 42
3.175003051757812
 43
3.17498779296875
 44
209.9733276367187
 45
297.0318298339844
 46
0.0
 47
0.0
 48
0.0
 49
0.0
140
0.0
141
0.0
142
1.0
143
1.0
 70
     0
 72
     1
 73
     1
 74
     0
  7

 75
     0
147
1.0
 76
     0
 77
     2
 78
   300
148
0.0
149
0.0
100
AcDbLayout
  1
Layout1
 70
     0
 71
     1
 10
-3.17498779296875
 20
-3.174999952316284
 11
293.8568420410156
 21
206.7983276844024
 12
0.0
 22
0.0
 32
0.0
 14
29.06818420886992
 24
20.36233246326446
 34
0.0
 15
261.6136578798294
 25
183.2609921693802
 35
0.0
146
0.0
 13
0.0
 23
0.0
 33
0.0
 16
1.0
 26
0.0
 36
0.0
 17
0.0
 27
1.0
 37
0.0
 76
     0
330
B
331
330
1001
ACAD_PSEXT
1000
Adobe PDF
1000
Adobe PDF Converter
1000
Documents\*.pdf
1000

1070
     0
  0
LAYOUT
  5
20
102
{ACAD_REACTORS
330
1E
102
}
330
1E
100
AcDbPlotSettings
  1

  2

  4

  6

 40
0.0
 41
0.0
 42
0.0
 43
0.0
 44
0.0
 45
0.0
 46
0.0
 47
0.0
 48
0.0
 49
0.0
140
0.0
141
0.0
142
1.0
143
1.0
 70
  1024
 72
     0
 73
     0
 74
     0
  7

 75
     0
147
1.0
 76
     0
 77
     2
 78
   300
148
0.0
149
0.0
100
AcDbLayout
  1
Model
 70
     0
 71
     0
 10
0.0
 20
0.0
 11
0.0
 21
0.0
 12
0.0
 22
0.0
 32
0.0
 14
0.0
 24
0.0
 34
0.0
 15
0.0
 25
0.0
 35
0.0
146
0.0
 13
0.0
 23
0.0
 33
0.0
 16
0.0
 26
0.0
 36
0.0
 17
0.0
 27
0.0
 37
0.0
 76
     0
330
A
  0
MATERIAL
  5
2DA
102
{ACAD_XDICTIONARY
360
2DB
102
}
102
{ACAD_REACTORS
330
2D1
102
}
330
2D1
100
AcDbMaterial
  1
ByBlock
 72
     0
 43
0.0208333333333333
 43
0.0
 43
0.0
 43
0.0
 43
0.0
 43
0.0208333333333333
 43
0.0
 43
0.0
 43
0.0
 43
0.0
 43
1.0
 43
0.0
 43
0.0
 43
0.0
 43
0.0
 43
1.0
 77
     0
 47
0.0208333333333333
 47
0.0
 47
0.0
 47
0.0
 47
0.0
 47
0.0208333333333333
 47
0.0
 47
0.0
 47
0.0
 47
0.0
 47
1.0
 47
0.0
 47
0.0
 47
0.0
 47
0.0
 47
1.0
171
     0
 49
0.0208333333333333
 49
0.0
 49
0.0
 49
0.0
 49
0.0
 49
0.0208333333333333
 49
0.0
 49
0.0
 49
0.0
 49
0.0
 49
1.0
 49
0.0
 49
0.0
 49
0.0
 49
0.0
 49
1.0
175
     0
142
0.0208333333333333
142
0.0
142
0.0
142
0.0
142
0.0
142
0.0208333333333333
142
0.0
142
0.0
142
0.0
142
0.0
142
1.0
142
0.0
142
0.0
142
0.0
142
0.0
142
1.0
179
     0
144
0.0208333333333333
144
0.0
144
0.0
144
0.0
144
0.0
144
0.0208333333333333
144
0.0
144
0.0
144
0.0
144
0.0
144
1.0
144
0.0
144
0.0
144
0.0
144
0.0
144
1.0
147
0.0208333333333333
147
0.0
147
0.0
147
0.0
147
0.0
147
0.0208333333333333
147
0.0
147
0.0
147
0.0
147
0.0
147
1.0
147
0.0
147
0.0
147
0.0
147
0.0
147
1.0
  0
MATERIAL
  5
2D2
102
{ACAD_XDICTIONARY
360
2D3
102
}
102
{ACAD_REACTORS
330
2D1
102
}
330
2D1
100
AcDbMaterial
  1
ByLayer
 72
     0
 43
0.0208333333333333
 43
0.0
 43
0.0
 43
0.0
 43
0.0
 43
0.0208333333333333
 43
0.0
 43
0.0
 43
0.0
 43
0.0
 43
1.0
 43
0.0
 43
0.0
 43
0.0
 43
0.0
 43
1.0
 77
     0
 47
0.0208333333333333
 47
0.0
 47
0.0
 47
0.0
 47
0.0
 47
0.0208333333333333
 47
0.0
 47
0.0
 47
0.0
 47
0.0
 47
1.0
 47
0.0
 47
0.0
 47
0.0
 47
0.0
 47
1.0
171
     0
 49
0.0208333333333333
 49
0.0
 49
0.0
 49
0.0
 49
0.0
 49
0.0208333333333333
 49
0.0
 49
0.0
 49
0.0
 49
0.0
 49
1.0
 49
0.0
 49
0.0
 49
0.0
 49
0.0
 49
1.0
175
     0
142
0.0208333333333333
142
0.0
142
0.0
142
0.0
142
0.0
142
0.0208333333333333
142
0.0
142
0.0
142
0.0
142
0.0
142
1.0
142
0.0
142
0.0
142
0.0
142
0.0
142
1.0
179
     0
144
0.0208333333333333
144
0.0
144
0.0
144
0.0
144
0.0
144
0.0208333333333333
144
0.0
144
0.0
144
0.0
144
0.0
144
1.0
144
0.0
144
0.0
144
0.0
144
0.0
144
1.0
147
0.0208333333333333
147
0.0
147
0.0
147
0.0
147
0.0
147
0.0208333333333333
147
0.0
147
0.0
147
0.0
147
0.0
147
1.0
147
0.0
147
0.0
147
0.0
147
0.0
147
1.0
  0
MATERIAL
  5
2E2
102
{ACAD_XDICTIONARY
360
2E3
102
}
102
{ACAD_REACTORS
330
2D1
102
}
330
2D1
100
AcDbMaterial
  1
Global
 72
     0
 43
0.0208333333333333
 43
0.0
 43
0.0
 43
0.0
 43
0.0
 43
0.0208333333333333
 43
0.0
 43
0.0
 43
0.0
 43
0.0
 43
1.0
 43
0.0
 43
0.0
 43
0.0
 43
0.0
 43
1.0
 77
     0
 47
0.0208333333333333
 47
0.0
 47
0.0
 47
0.0
 47
0.0
 47
0.0208333333333333
 47
0.0
 47
0.0
 47
0.0
 47
0.0
 47
1.0
 47
0.0
 47
0.0
 47
0.0
 47
0.0
 47
1.0
171
     0
 49
0.0208333333333333
 49
0.0
 49
0.0
 49
0.0
 49
0.0
 49
0.0208333333333333
 49
0.0
 49
0.0
 49
0.0
 49
0.0
 49
1.0
 49
0.0
 49
0.0
 49
0.0
 49
0.0
 49
1.0
175
     0
142
0.0208333333333333
142
0.0
142
0.0
142
0.0
142
0.0
142
0.0208333333333333
142
0.0
142
0.0
142
0.0
142
0.0
142
1.0
142
0.0
142
0.0
142
0.0
142
0.0
142
1.0
179
     0
144
0.0208333333333333
144
0.0
144
0.0
144
0.0
144
0.0
144
0.0208333333333333
144
0.0
144
0.0
144
0.0
144
0.0
144
1.0
144
0.0
144
0.0
144
0.0
144
0.0
144
1.0
147
0.0208333333333333
147
0.0
147
0.0
147
0.0
147
0.0
147
0.0208333333333333
147
0.0
147
0.0
147
0.0
147
0.0
147
1.0
147
0.0
147
0.0
147
0.0
147
0.0
147
1.0
  0
MLEADERSTYLE
  5
319
102
{ACAD_XDICTIONARY
360
390
102
}
102
{ACAD_REACTORS
330
318
102
}
330
318
100
AcDbMLeaderStyle
179
     2
170
     2
171
     1
172
     0
 90
        2
 40
0.0
 41
0.0
173
     1
 91
-1056964608
340
11
 92
       -2
290
     1
 42
2.0
291
     1
 43
0.36
  3
Standard
 44
4.0
300

342
17
174
     1
178
     6
175
     1
176
     0
 93
-1056964608
 45
4.0
292
     0
297
     0
 46
4.0
 94
-1056964608
 47
1.0
 49
1.0
140
1.0
293
     1
141
0.0
294
     1
177
     0
142
1.0
295
     0
296
     0
143
0.125
271
     0
272
     9
273
     9
  0
MLINESTYLE
  5
1C
102
{ACAD_REACTORS
330
1B
102
}
330
1B
100
AcDbMlineStyle
  2
STANDARD
 70
     0
  3

 62
     0
 51
90.0
 52
90.0
 71
     2
 49
0.5
 62
   256
  6
BYLAYER
 49
-0.5
 62
   256
  6
BYLAYER
  0
ACDBPLACEHOLDER
  5
1D
102
{ACAD_REACTORS
330
1F
102
}
330
1F
  0
SCALE
  5
307
102
{ACAD_REACTORS
330
306
102
}
330
306
100
AcDbScale
 70
     0
300
1:1
140
1.0
141
1.0
290
     1
  0
SCALE
  5
308
102
{ACAD_REACTORS
330
306
102
}
330
306
100
AcDbScale
 70
     0
300
1:2
140
1.0
141
2.0
290
     0
  0
SCALE
  5
309
102
{ACAD_REACTORS
330
306
102
}
330
306
100
AcDbScale
 70
     0
300
1:4
140
1.0
141
4.0
290
     0
  0
SCALE
  5
30A
102
{ACAD_REACTORS
330
306
102
}
330
306
100
AcDbScale
 70
     0
300
1:5
140
1.0
141
5.0
290
     0
  0
SCALE
  5
30B
102
{ACAD_REACTORS
330
306
102
}
330
306
100
AcDbScale
 70
     0
300
1:8
140
1.0
141
8.0
290
     0
  0
SCALE
  5
30C
102
{ACAD_REACTORS
330
306
102
}
330
306
100
AcDbScale
 70
     0
300
1:10
140
1.0
141
10.0
290
     0
  0
SCALE
  5
30D
102
{ACAD_REACTORS
330
306
102
}
330
306
100
AcDbScale
 70
     0
300
1:16
140
1.0
141
16.0
290
     0
  0
SCALE
  5
30E
102
{ACAD_REACTORS
330
306
102
}
330
306
100
AcDbScale
 70
     0
300
1:20
140
1.0
141
20.0
290
     0
  0
SCALE
  5
30F
102
{ACAD_REACTORS
330
306
102
}
330
306
100
AcDbScale
 70
     0
300
1:30
140
1.0
141
30.0
290
     0
  0
SCALE
  5
310
102
{ACAD_REACTORS
330
306
102
}
330
306
100
AcDbScale
 70
     0
300
1:40
140
1.0
141
40.0
290
     0
  0
SCALE
  5
311
102
{ACAD_REACTORS
330
306
102
}
330
306
100
AcDbScale
 70
     0
300
1:50
140
1.0
141
50.0
290
     0
  0
SCALE
  5
312
102
{ACAD_REACTORS
330
306
102
}
330
306
100
AcDbScale
 70
     0
300
1:100
140
1.0
141
100.0
290
     0
  0
SCALE
  5
313
102
{ACAD_REACTORS
330
306
102
}
330
306
100
AcDbScale
 70
     0
300
2:1
140
2.0
141
1.0
290
     0
  0
SCALE
  5
314
102
{ACAD_REACTORS
330
306
102
}
330
306
100
AcDbScale
 70
     0
300
4:1
140
4.0
141
1.0
290
     0
  0
SCALE
  5
315
102
{ACAD_REACTORS
330
306
102
}
330
306
100
AcDbScale
 70
     0
300
8:1
140
8.0
141
1.0
290
     0
  0
SCALE
  5
316
102
{ACAD_REACTORS
330
306
102
}
330
306
100
AcDbScale
 70
     0
300
10:1
140
10.0
141
1.0
290
     0
  0
SCALE
  5
317
102
{ACAD_REACTORS
330
306
102
}
330
306
100
AcDbScale
 70
     0
300
100:1
140
100.0
141
1.0
290
     0
  0
ACDBSECTIONVIEWSTYLE
  5
31B
102
{ACAD_XDICTIONARY
360
392
102
}
102
{ACAD_REACTORS
330
31A
102
}
330
31A
100
AcDbModelDocViewStyle
 70
     0
  3
Metric50
290
     0
100
AcDbSectionViewStyle
 70
     0
 71
     0
 90
      102
 71
     1
340
17
 62
   256
 40
5.0
340
0
340
0
 62
   256
 40
5.0
300
I, O, Q, S, X, Z
 40
10.0
 90
        0
 40
2.5
 90
        0
 71
     2
340
13
 90
       25
 62
   256
340
13
 90
       50
 62
   256
 40
5.0
 40
2.5
 40
5.0
 71
     3
340
17
 62
   256
 40
5.0
 90
        0
 40
15.0
 90
        1
300
%<\AcVar ViewSectionStartId>%-%<\AcVar ViewSectionEndId>% (%<\AcVar ViewScale \f "%sn">%)
 71
     4
 62
   256
 62
   257
300
ANSI31
 40
1.0
 90
        0
290
     0
290
     0
 90
        6
 40
0.0
 40
1.570796326794896
 40
0.2617993877991494
 40
1.308996938995747
 40
-0.2617993877991494
 40
1.832595714594046
  0
TABLESTYLE
  5
305
102
{ACAD_XDICTIONARY
360
355
102
}
102
{ACAD_REACTORS
330
304
102
}
330
304
100
AcDbTableStyle
280
     0
  3
Standard
 70
     0
 71
     0
 40
1.5
 41
1.5
280
     0
281
     0
  7
Standard
140
4.5
170
     2
 62
     0
 63
     7
283
     0
 90
      512
 91
        0
  1

274
    -2
284
     1
 64
     0
275
    -2
285
     1
 65
     0
276
    -2
286
     1
 66
     0
277
    -2
287
     1
 67
     0
278
    -2
288
     1
 68
     0
279
    -2
289
     1
 69
     0
  7
Standard
140
6.0
170
     5
 62
     0
 63
     7
283
     0
 90
      512
 91
        0
  1

274
    -2
284
     1
 64
     0
275
    -2
285
     1
 65
     0
276
    -2
286
     1
 66
     0
277
    -2
287
     1
 67
     0
278
    -2
288
     1
 68
     0
279
    -2
289
     1
 69
     0
  7
Standard
140
4.5
170
     5
 62
     0
 63
     7
283
     0
 90
      512
 91
        0
  1

274
    -2
284
     1
 64
     0
275
    -2
285
     1
 65
     0
276
    -2
286
     1
 66
     0
277
    -2
287
     1
 67
     0
278
    -2
288
     1
 68
     0
279
    -2
289
     1
 69
     0
  0
VISUALSTYLE
  5
2F0
102
{ACAD_XDICTIONARY
360
36A
102
}
102
{ACAD_REACTORS
330
2EA
102
}
330
2EA
100
AcDbVisualStyle
  2
2dWireframe
 70
     4
177
     2
291
     0
 71
     0
176
     1
 72
     2
176
     1
 73
     0
176
     1
 90
        0
176
     1
 40
0.6
176
     1
 41
30.0
176
     1
 63
     7
421
 16777215
176
     1
 74
     1
176
     1
 91
        4
176
     1
 64
     7
176
     1
 65
   257
176
     1
 75
     1
176
     1
175
     1
176
     1
 42
1.0
176
     1
 92
        0
176
     1
 66
   257
176
     1
 43
1.0
176
     1
 76
     1
176
     1
 77
     6
176
     1
 78
     2
176
     1
 67
     7
176
     1
 79
     5
176
     1
170
     0
176
     1
171
     0
176
     1
290
     0
176
     1
 93
        1
176
     1
 44
0.0
176
     1
173
     0
176
     1
1001
ACAD
1000
AcDbSavedByObjectVersion
1070
     0
  0
VISUALSTYLE
  5
2EF
102
{ACAD_XDICTIONARY
360
368
102
}
102
{ACAD_REACTORS
330
2EA
102
}
330
2EA
100
AcDbVisualStyle
  2
Basic
 70
     7
177
     2
291
     1
 71
     1
176
     1
 72
     0
176
     1
 73
     1
176
     1
 90
        0
176
     1
 40
0.6
176
     1
 41
30.0
176
     1
 63
     7
421
 16777215
176
     1
 74
     0
176
     1
 91
        4
176
     1
 64
     7
176
     1
 65
   257
176
     1
 75
     1
176
     1
175
     1
176
     1
 42
1.0
176
     1
 92
        8
176
     1
 66
     7
176
     1
 43
1.0
176
     1
 76
     1
176
     1
 77
     6
176
     1
 78
     2
176
     1
 67
     7
176
     1
 79
     5
176
     1
170
     0
176
     1
171
     0
176
     1
290
     0
176
     1
 93
        1
176
     1
 44
0.0
176
     1
173
     0
176
     1
1001
ACAD
1000
AcDbSavedByObjectVersion
1070
     0
  0
VISUALSTYLE
  5
2F6
102
{ACAD_XDICTIONARY
360
376
102
}
102
{ACAD_REACTORS
330
2EA
102
}
330
2EA
100
AcDbVisualStyle
  2
Brighten
 70
    12
177
     2
291
     1
 71
     2
176
     1
 72
     2
176
     1
 73
     0
176
     1
 90
        0
176
     1
 40
0.6
176
     1
 41
30.0
176
     1
 63
     7
421
 16777215
176
     1
 74
     1
176
     1
 91
        4
176
     1
 64
     7
176
     1
 65
   257
176
     1
 75
     1
176
     1
175
     1
176
     1
 42
1.0
176
     1
 92
        8
176
     1
 66
     7
176
     1
 43
1.0
176
     1
 76
     1
176
     1
 77
     6
176
     1
 78
     2
176
     1
 67
     7
176
     1
 79
     5
176
     1
170
     0
176
     1
171
     0
176
     1
290
     0
176
     1
 93
        1
176
     1
 44
50.0
176
     1
173
     0
176
     1
1001
ACAD
1000
AcDbSavedByObjectVersion
1070
     0
  0
VISUALSTYLE
  5
2FA
102
{ACAD_XDICTIONARY
360
37E
102
}
102
{ACAD_REACTORS
330
2EA
102
}
330
2EA
100
AcDbVisualStyle
  2
ColorChange
 70
    16
177
     2
291
     1
 71
     2
176
     1
 72
     2
176
     1
 73
     3
176
     1
 90
        0
176
     1
 40
0.6
176
     1
 41
30.0
176
     1
 63
     8
421
  8421504
176
     1
 74
     1
176
     1
 91
        4
176
     1
 64
     7
176
     1
 65
   257
176
     1
 75
     1
176
     1
175
     1
176
     1
 42
1.0
176
     1
 92
        8
176
     1
 66
     8
424
  8421504
176
     1
 43
1.0
176
     1
 76
     1
176
     1
 77
     6
176
     1
 78
     2
176
     1
 67
     7
176
     1
 79
     5
176
     1
170
     0
176
     1
171
     0
176
     1
290
     0
176
     1
 93
        1
176
     1
 44
0.0
176
     1
173
     0
176
     1
1001
ACAD
1000
AcDbSavedByObjectVersion
1070
     0
  0
VISUALSTYLE
  5
2F3
102
{ACAD_XDICTIONARY
360
370
102
}
102
{ACAD_REACTORS
330
2EA
102
}
330
2EA
100
AcDbVisualStyle
  2
Conceptual
 70
     9
177
     2
291
     0
 71
     3
176
     1
 72
     2
176
     1
 73
     0
176
     1
 90
        0
176
     1
 40
0.6
176
     1
 41
30.0
176
     1
 63
     7
421
 16777215
176
     1
 74
     2
176
     1
 91
        2
176
     1
 64
     7
176
     1
 65
   257
176
     1
 75
     1
176
     1
175
     1
176
     1
 42
179.0
176
     1
 92
        8
176
     1
 66
     7
176
     1
 43
1.0
176
     1
 76
     1
176
     1
 77
     6
176
     1
 78
     2
176
     1
 67
     7
176
     1
 79
     3
176
     1
170
     0
176
     1
171
     0
176
     1
290
     0
176
     1
 93
        1
176
     1
 44
0.0
176
     1
173
     0
176
     1
1001
ACAD
1000
AcDbSavedByObjectVersion
1070
     0
  0
VISUALSTYLE
  5
2F5
102
{ACAD_XDICTIONARY
360
374
102
}
102
{ACAD_REACTORS
330
2EA
102
}
330
2EA
100
AcDbVisualStyle
  2
Dim
 70
    11
177
     2
291
     1
 71
     2
176
     1
 72
     2
176
     1
 73
     0
176
     1
 90
        0
176
     1
 40
0.6
176
     1
 41
30.0
176
     1
 63
     7
421
 16777215
176
     1
 74
     1
176
     1
 91
        4
176
     1
 64
     7
176
     1
 65
   257
176
     1
 75
     1
176
     1
175
     1
176
     1
 42
1.0
176
     1
 92
        8
176
     1
 66
     7
176
     1
 43
1.0
176
     1
 76
     1
176
     1
 77
     6
176
     1
 78
     2
176
     1
 67
     7
176
     1
 79
     5
176
     1
170
     0
176
     1
171
     0
176
     1
290
     0
176
     1
 93
        1
176
     1
 44
-50.0
176
     1
173
     0
176
     1
1001
ACAD
1000
AcDbSavedByObjectVersion
1070
     0
  0
VISUALSTYLE
  5
302
102
{ACAD_XDICTIONARY
360
38E
102
}
102
{ACAD_REACTORS
330
2EA
102
}
330
2EA
100
AcDbVisualStyle
  2
EdgeColorOff
 70
    22
177
     2
291
     1
 71
     2
176
     0
 72
     2
176
     0
 73
     0
176
     0
 90
        0
176
     0
 40
0.6
176
     0
 41
30.0
176
     0
 63
     7
421
 16777215
176
     0
 74
     1
176
     0
 91
        4
176
     0
 64
     7
176
     0
 65
   257
176
     0
 75
     1
176
     0
175
     1
176
     0
 42
1.0
176
     0
 92
        8
176
     2
 66
     7
176
     0
 43
1.0
176
     0
 76
     1
176
     0
 77
     6
176
     0
 78
     2
176
     0
 67
     7
176
     0
 79
     5
176
     0
170
     0
176
     0
171
     0
176
     0
290
     0
176
     0
 93
        1
176
     0
 44
0.0
176
     0
173
     0
176
     0
1001
ACAD
1000
AcDbSavedByObjectVersion
1070
     0
  0
VISUALSTYLE
  5
2F9
102
{ACAD_XDICTIONARY
360
37C
102
}
102
{ACAD_REACTORS
330
2EA
102
}
330
2EA
100
AcDbVisualStyle
  2
Facepattern
 70
    15
177
     2
291
     1
 71
     2
176
     1
 72
     2
176
     1
 73
     0
176
     1
 90
        0
176
     1
 40
0.6
176
     1
 41
30.0
176
     1
 63
     7
421
 16777215
176
     1
 74
     1
176
     1
 91
        4
176
     1
 64
     7
176
     1
 65
   257
176
     1
 75
     1
176
     1
175
     1
176
     1
 42
1.0
176
     1
 92
        8
176
     1
 66
     7
176
     1
 43
1.0
176
     1
 76
     1
176
     1
 77
     6
176
     1
 78
     2
176
     1
 67
     7
176
     1
 79
     5
176
     1
170
     0
176
     1
171
     0
176
     1
290
     0
176
     1
 93
        1
176
     1
 44
0.0
176
     1
173
     0
176
     1
1001
ACAD
1000
AcDbSavedByObjectVersion
1070
     0
  0
VISUALSTYLE
  5
2EB
102
{ACAD_XDICTIONARY
360
360
102
}
102
{ACAD_REACTORS
330
2EA
102
}
330
2EA
100
AcDbVisualStyle
  2
Flat
 70
     0
177
     2
291
     1
 71
     2
176
     1
 72
     1
176
     1
 73
     1
176
     1
 90
        2
176
     1
 40
0.6
176
     1
 41
30.0
176
     1
 63
     7
421
 16777215
176
     1
 74
     0
176
     1
 91
        0
176
     1
 64
     7
176
     1
 65
   257
176
     1
 75
     1
176
     1
175
     1
176
     1
 42
1.0
176
     1
 92
        8
176
     1
 66
     7
176
     1
 43
1.0
176
     1
 76
     1
176
     1
 77
     6
176
     1
 78
     2
176
     1
 67
     7
176
     1
 79
     5
176
     1
170
     0
176
     1
171
     0
176
     1
290
     0
176
     1
 93
       13
176
     1
 44
0.0
176
     1
173
     0
176
     1
1001
ACAD
1000
AcDbSavedByObjectVersion
1070
     0
  0
VISUALSTYLE
  5
2EC
102
{ACAD_XDICTIONARY
360
362
102
}
102
{ACAD_REACTORS
330
2EA
102
}
330
2EA
100
AcDbVisualStyle
  2
FlatWithEdges
 70
     1
177
     2
291
     1
 71
     2
176
     1
 72
     1
176
     1
 73
     1
176
     1
 90
        2
176
     1
 40
0.6
176
     1
 41
30.0
176
     1
 63
     7
421
 16777215
176
     1
 74
     1
176
     1
 91
        0
176
     1
 64
     7
176
     1
 65
   257
176
     1
 75
     1
176
     1
175
     1
176
     1
 42
1.0
176
     1
 92
        0
176
     1
 66
   257
176
     1
 43
1.0
176
     1
 76
     1
176
     1
 77
     6
176
     1
 78
     2
176
     1
 67
     7
176
     1
 79
     5
176
     1
170
     0
176
     1
171
     0
176
     1
290
     0
176
     1
 93
       13
176
     1
 44
0.0
176
     1
173
     0
176
     1
1001
ACAD
1000
AcDbSavedByObjectVersion
1070
     0
  0
VISUALSTYLE
  5
2ED
102
{ACAD_XDICTIONARY
360
364
102
}
102
{ACAD_REACTORS
330
2EA
102
}
330
2EA
100
AcDbVisualStyle
  2
Gouraud
 70
     2
177
     2
291
     1
 71
     2
176
     1
 72
     2
176
     1
 73
     1
176
     1
 90
        2
176
     1
 40
0.6
176
     1
 41
30.0
176
     1
 63
     7
421
 16777215
176
     1
 74
     0
176
     1
 91
        0
176
     1
 64
     7
176
     1
 65
   257
176
     1
 75
     1
176
     1
175
     1
176
     1
 42
1.0
176
     1
 92
        0
176
     1
 66
     7
176
     1
 43
1.0
176
     1
 76
     1
176
     1
 77
     6
176
     1
 78
     2
176
     1
 67
     7
176
     1
 79
     5
176
     1
170
     0
176
     1
171
     0
176
     1
290
     0
176
     1
 93
       13
176
     1
 44
0.0
176
     1
173
     0
176
     1
1001
ACAD
1000
AcDbSavedByObjectVersion
1070
     0
  0
VISUALSTYLE
  5
2EE
102
{ACAD_XDICTIONARY
360
366
102
}
102
{ACAD_REACTORS
330
2EA
102
}
330
2EA
100
AcDbVisualStyle
  2
GouraudWithEdges
 70
     3
177
     2
291
     1
 71
     2
176
     1
 72
     2
176
     1
 73
     1
176
     1
 90
        2
176
     1
 40
0.6
176
     1
 41
30.0
176
     1
 63
     7
421
 16777215
176
     1
 74
     1
176
     1
 91
        0
176
     1
 64
     7
176
     1
 65
   257
176
     1
 75
     1
176
     1
175
     1
176
     1
 42
1.0
176
     1
 92
        0
176
     1
 66
   257
176
     1
 43
1.0
176
     1
 76
     1
176
     1
 77
     6
176
     1
 78
     2
176
     1
 67
     7
176
     1
 79
     5
176
     1
170
     0
176
     1
171
     0
176
     1
290
     0
176
     1
 93
       13
176
     1
 44
0.0
176
     1
173
     0
176
     1
1001
ACAD
1000
AcDbSavedByObjectVersion
1070
     0
  0
VISUALSTYLE
  5
2F2
102
{ACAD_XDICTIONARY
360
36E
102
}
102
{ACAD_REACTORS
330
2EA
102
}
330
2EA
100
AcDbVisualStyle
  2
Hidden
 70
     6
177
     2
291
     0
 71
     1
176
     1
 72
     2
176
     1
 73
     2
176
     1
 90
        0
176
     1
 40
0.6
176
     1
 41
30.0
176
     1
 63
     7
421
 16777215
176
     1
 74
     2
176
     1
 91
        2
176
     1
 64
     7
176
     1
 65
   257
176
     1
 75
     2
176
     1
175
     1
176
     1
 42
40.0
176
     1
 92
        0
176
     1
 66
   257
176
     1
 43
1.0
176
     1
 76
     1
176
     1
 77
     6
176
     1
 78
     2
176
     1
 67
     7
176
     1
 79
     3
176
     1
170
     0
176
     1
171
     0
176
     1
290
     0
176
     1
 93
        1
176
     1
 44
0.0
176
     1
173
     0
176
     1
1001
ACAD
1000
AcDbSavedByObjectVersion
1070
     0
  0
VISUALSTYLE
  5
300
102
{ACAD_XDICTIONARY
360
38A
102
}
102
{ACAD_REACTORS
330
2EA
102
}
330
2EA
100
AcDbVisualStyle
  2
JitterOff
 70
    20
177
     2
291
     1
 71
     2
176
     0
 72
     2
176
     0
 73
     0
176
     0
 90
        0
176
     0
 40
0.6
176
     0
 41
30.0
176
     0
 63
     7
421
 16777215
176
     0
 74
     1
176
     0
 91
        4
176
     0
 64
     7
176
     0
 65
   257
176
     0
 75
     1
176
     0
175
     1
176
     0
 42
1.0
176
     0
 92
       10
176
     2
 66
     7
176
     0
 43
1.0
176
     0
 76
     1
176
     0
 77
     6
176
     0
 78
     2
176
     0
 67
     7
176
     0
 79
     5
176
     0
170
     0
176
     0
171
     0
176
     0
290
     0
176
     0
 93
        1
176
     0
 44
0.0
176
     0
173
     0
176
     0
1001
ACAD
1000
AcDbSavedByObjectVersion
1070
     0
  0
VISUALSTYLE
  5
2F8
102
{ACAD_XDICTIONARY
360
37A
102
}
102
{ACAD_REACTORS
330
2EA
102
}
330
2EA
100
AcDbVisualStyle
  2
Linepattern
 70
    14
177
     2
291
     1
 71
     2
176
     1
 72
     2
176
     1
 73
     0
176
     1
 90
        0
176
     1
 40
0.6
176
     1
 41
30.0
176
     1
 63
     7
421
 16777215
176
     1
 74
     1
176
     1
 91
        4
176
     1
 64
     7
176
     1
 65
   257
176
     1
 75
     7
176
     1
175
     7
176
     1
 42
1.0
176
     1
 92
        8
176
     1
 66
     7
176
     1
 43
1.0
176
     1
 76
     1
176
     1
 77
     6
176
     1
 78
     2
176
     1
 67
     7
176
     1
 79
     5
176
     1
170
     0
176
     1
171
     0
176
     1
290
     0
176
     1
 93
        1
176
     1
 44
0.0
176
     1
173
     0
176
     1
1001
ACAD
1000
AcDbSavedByObjectVersion
1070
     0
  0
VISUALSTYLE
  5
301
102
{ACAD_XDICTIONARY
360
38C
102
}
102
{ACAD_REACTORS
330
2EA
102
}
330
2EA
100
AcDbVisualStyle
  2
OverhangOff
 70
    21
177
     2
291
     1
 71
     2
176
     0
 72
     2
176
     0
 73
     0
176
     0
 90
        0
176
     0
 40
0.6
176
     0
 41
30.0
176
     0
 63
     7
421
 16777215
176
     0
 74
     1
176
     0
 91
        4
176
     0
 64
     7
176
     0
 65
   257
176
     0
 75
     1
176
     0
175
     1
176
     0
 42
1.0
176
     0
 92
        9
176
     2
 66
     7
176
     0
 43
1.0
176
     0
 76
     1
176
     0
 77
     6
176
     0
 78
     2
176
     0
 67
     7
176
     0
 79
     5
176
     0
170
     0
176
     0
171
     0
176
     0
290
     0
176
     0
 93
        1
176
     0
 44
0.0
176
     0
173
     0
176
     0
1001
ACAD
1000
AcDbSavedByObjectVersion
1070
     0
  0
VISUALSTYLE
  5
2F4
102
{ACAD_XDICTIONARY
360
372
102
}
102
{ACAD_REACTORS
330
2EA
102
}
330
2EA
100
AcDbVisualStyle
  2
Realistic
 70
     8
177
     2
291
     0
 71
     2
176
     1
 72
     3
176
     1
 73
     0
176
     1
 90
        2
176
     1
 40
0.6
176
     1
 41
30.0
176
     1
 63
     7
421
 16777215
176
     1
 74
     0
176
     1
 91
        0
176
     1
 64
     7
176
     1
 65
   257
176
     1
 75
     1
176
     1
175
     1
176
     1
 42
1.0
176
     1
 92
        8
176
     1
 66
   257
176
     1
 43
1.0
176
     1
 76
     1
176
     1
 77
     6
176
     1
 78
     2
176
     1
 67
     7
176
     1
 79
     3
176
     1
170
     0
176
     1
171
     0
176
     1
290
     0
176
     1
 93
       13
176
     1
 44
0.0
176
     1
173
     0
176
     1
1001
ACAD
1000
AcDbSavedByObjectVersion
1070
     0
  0
VISUALSTYLE
  5
2FF
102
{ACAD_XDICTIONARY
360
388
102
}
102
{ACAD_REACTORS
330
2EA
102
}
330
2EA
100
AcDbVisualStyle
  2
Shaded
 70
    27
177
     2
291
     0
 71
     2
176
     1
 72
     2
176
     1
 73
     1
176
     1
 90
        2
176
     1
 40
0.6
176
     1
 41
30.0
176
     1
 63
     7
421
 16777215
176
     1
 74
     0
176
     1
 91
        4
176
     1
 64
     7
176
     1
 65
   257
176
     1
 75
     1
176
     1
175
     1
176
     1
 42
1.0
176
     1
 92
        8
176
     1
 66
   257
176
     1
 43
1.0
176
     1
 76
     1
176
     1
 77
     6
176
     1
 78
     2
176
     1
 67
     8
425
  7895160
176
     1
 79
     3
176
     1
170
     0
176
     1
171
     0
176
     1
290
     0
176
     1
 93
        5
176
     1
 44
0.0
176
     1
173
     0
176
     1
1001
ACAD
1000
AcDbSavedByObjectVersion
1070
     0
  0
VISUALSTYLE
  5
2FE
102
{ACAD_XDICTIONARY
360
386
102
}
102
{ACAD_REACTORS
330
2EA
102
}
330
2EA
100
AcDbVisualStyle
  2
Shaded with edges
 70
    26
177
     2
291
     0
 71
     2
176
     1
 72
     2
176
     1
 73
     1
176
     1
 90
        2
176
     1
 40
0.6
176
     1
 41
30.0
176
     1
 63
     7
421
 16777215
176
     1
 74
     1
176
     1
 91
       10
176
     1
 64
     7
176
     1
 65
   257
176
     1
 75
     2
176
     1
175
     1
176
     1
 42
1.0
176
     1
 92
        8
176
     1
 66
   257
176
     1
 43
1.0
176
     1
 76
     1
176
     1
 77
     6
176
     1
 78
     2
176
     1
 67
     7
176
     1
 79
     3
176
     1
170
     0
176
     1
171
     0
176
     1
290
     0
176
     1
 93
        5
176
     1
 44
0.0
176
     1
173
     0
176
     1
1001
ACAD
1000
AcDbSavedByObjectVersion
1070
     0
  0
VISUALSTYLE
  5
2FB
102
{ACAD_XDICTIONARY
360
380
102
}
102
{ACAD_REACTORS
330
2EA
102
}
330
2EA
100
AcDbVisualStyle
  2
Shades of Gray
 70
    23
177
     2
291
     0
 71
     2
176
     1
 72
     2
176
     1
 73
     3
176
     1
 90
        0
176
     1
 40
0.6
176
     1
 41
30.0
176
     1
 63
     7
421
 16777215
176
     1
 74
     2
176
     1
 91
        2
176
     1
 64
     7
176
     1
 65
     7
176
     1
 75
     1
176
     1
175
     1
176
     1
 42
40.0
176
     1
 92
        8
176
     1
 66
     7
176
     1
 43
1.0
176
     1
 76
     1
176
     1
 77
     6
176
     1
 78
     2
176
     1
 67
     7
176
     1
 79
     3
176
     1
170
     0
176
     1
171
     0
176
     1
290
     0
176
     1
 93
        1
176
     1
 44
0.0
176
     1
173
     0
176
     1
1001
ACAD
1000
AcDbSavedByObjectVersion
1070
     0
  0
VISUALSTYLE
  5
2FC
102
{ACAD_XDICTIONARY
360
382
102
}
102
{ACAD_REACTORS
330
2EA
102
}
330
2EA
100
AcDbVisualStyle
  2
Sketchy
 70
    24
177
     2
291
     0
 71
     1
176
     1
 72
     2
176
     1
 73
     2
176
     1
 90
        0
176
     1
 40
0.6
176
     1
 41
30.0
176
     1
 63
     7
421
 16777215
176
     1
 74
     2
176
     1
 91
        2
176
     1
 64
     7
176
     1
 65
     7
176
     1
 75
     1
176
     1
175
     1
176
     1
 42
40.0
176
     1
 92
       11
176
     1
 66
     7
176
     1
 43
1.0
176
     1
 76
     1
176
     1
 77
     6
176
     1
 78
     2
176
     1
 67
     7
176
     1
 79
     6
176
     1
170
     0
176
     1
171
     0
176
     1
290
     0
176
     1
 93
        1
176
     1
 44
0.0
176
     1
173
     0
176
     1
1001
ACAD
1000
AcDbSavedByObjectVersion
1070
     0
  0
VISUALSTYLE
  5
2F7
102
{ACAD_XDICTIONARY
360
378
102
}
102
{ACAD_REACTORS
330
2EA
102
}
330
2EA
100
AcDbVisualStyle
  2
Thicken
 70
    13
177
     2
291
     1
 71
     2
176
     1
 72
     2
176
     1
 73
     0
176
     1
 90
        0
176
     1
 40
0.6
176
     1
 41
30.0
176
     1
 63
     7
421
 16777215
176
     1
 74
     1
176
     1
 91
        4
176
     1
 64
     7
176
     1
 65
   257
176
     1
 75
     1
176
     1
175
     1
176
     1
 42
1.0
176
     1
 92
       12
176
     1
 66
     7
176
     1
 43
1.0
176
     1
 76
     1
176
     1
 77
     6
176
     1
 78
     2
176
     1
 67
     7
176
     1
 79
     5
176
     1
170
     0
176
     1
171
     0
176
     1
290
     0
176
     1
 93
        1
176
     1
 44
0.0
176
     1
173
     0
176
     1
1001
ACAD
1000
AcDbSavedByObjectVersion
1070
     0
  0
VISUALSTYLE
  5
2F1
102
{ACAD_XDICTIONARY
360
36C
102
}
102
{ACAD_REACTORS
330
2EA
102
}
330
2EA
100
AcDbVisualStyle
  2
Wireframe
 70
     5
177
     2
291
     0
 71
     0
176
     1
 72
     2
176
     1
 73
     0
176
     1
 90
        0
176
     1
 40
0.6
176
     1
 41
30.0
176
     1
 63
     7
421
 16777215
176
     1
 74
     1
176
     1
 91
        4
176
     1
 64
     7
176
     1
 65
   257
176
     1
 75
     1
176
     1
175
     1
176
     1
 42
1.0
176
     1
 92
        0
176
     1
 66
   257
176
     1
 43
1.0
176
     1
 76
     1
176
     1
 77
     6
176
     1
 78
     2
176
     1
 67
     7
176
     1
 79
     3
176
     1
170
     0
176
     1
171
     0
176
     1
290
     0
176
     1
 93
        1
176
     1
 44
0.0
176
     1
173
     0
176
     1
1001
ACAD
1000
AcDbSavedByObjectVersion
1070
     0
  0
VISUALSTYLE
  5
2FD
102
{ACAD_XDICTIONARY
360
384
102
}
102
{ACAD_REACTORS
330
2EA
102
}
330
2EA
100
AcDbVisualStyle
  2
X-Ray
 70
    25
177
     2
291
     0
 71
     2
176
     1
 72
     2
176
     1
 73
     1
176
     1
 90
        1
176
     1
 40
0.5
176
     1
 41
30.0
176
     1
 63
     7
421
 16777215
176
     1
 74
     1
176
     1
 91
        0
176
     1
 64
     7
176
     1
 65
   257
176
     1
 75
     1
176
     1
175
     1
176
     1
 42
1.0
176
     1
 92
        8
176
     1
 66
     7
176
     1
 43
1.0
176
     1
 76
     1
176
     1
 77
     6
176
     1
 78
     2
176
     1
 67
     7
176
     1
 79
     3
176
     1
170
     0
176
     1
171
     0
176
     1
290
     0
176
     1
 93
       13
176
     1
 44
0.0
176
     1
173
     0
176
     1
1001
ACAD
1000
AcDbSavedByObjectVersion
1070
     0
  0
DICTIONARYVAR
  5
351
102
{ACAD_REACTORS
330
34B
102
}
330
34B
100
DictionaryVariables
280
     0
  1
1:1
  0
DICTIONARYVAR
  5
34D
102
{ACAD_REACTORS
330
34B
102
}
330
34B
100
DictionaryVariables
280
     0
  1
STANDARD
  0
DICTIONARYVAR
  5
34C
102
{ACAD_REACTORS
330
34B
102
}
330
34B
100
DictionaryVariables
280
     0
  1
STANDARD
  0
DICTIONARYVAR
  5
34E
102
{ACAD_REACTORS
330
34B
102
}
330
34B
100
DictionaryVariables
280
     0
  1
Metric50
  0
DICTIONARYVAR
  5
34F
102
{ACAD_REACTORS
330
34B
102
}
330
34B
100
DictionaryVariables
280
     0
  1
Metric50
  0
DICTIONARYVAR
  5
353
102
{ACAD_REACTORS
330
34B
102
}
330
34B
100
DictionaryVariables
280
     0
  1
1
  0
DICTIONARYVAR
  5
354
102
{ACAD_REACTORS
330
34B
102
}
330
34B
100
DictionaryVariables
280
     0
  1
15
  0
DICTIONARYVAR
  5
352
102
{ACAD_REACTORS
330
34B
102
}
330
34B
100
DictionaryVariables
280
     0
  1
0
  0
DICTIONARYVAR
  5
350
102
{ACAD_REACTORS
330
34B
102
}
330
34B
100
DictionaryVariables
280
     0
  1
0
  0
DICTIONARY
  5
35F
102
{ACAD_REACTORS
330
35D
102
}
330
35D
100
AcDbDictionary
281
     1
  0
DICTIONARY
  5
35E
102
{ACAD_REACTORS
330
35D
102
}
330
35D
100
AcDbDictionary
281
     1
  3
8796085141760
350
358
  3
8796085141776
350
359
  3
8796085141792
350
35A
  3
8796085141808
350
35B
  3
8796085141824
350
35C
  0
DICTIONARY
  5
394
330
31D
100
AcDbDictionary
280
     1
281
     1
  3
ACAD_XREC_ROUNDTRIP
360
395
  0
DICTIONARY
  5
2DB
330
2DA
100
AcDbDictionary
280
     1
281
     1
  3
BUMPTILE
360
2DD
  3
DIFFUSETILE
360
2DC
  3
OPACITYTILE
360
2E0
  3
REFLECTIONTILE
360
2DF
  3
REFRACTIONTILE
360
2E1
  3
SPECULARTILE
360
2DE
  0
DICTIONARY
  5
2D3
330
2D2
100
AcDbDictionary
280
     1
281
     1
  3
BUMPTILE
360
2D5
  3
DIFFUSETILE
360
2D4
  3
OPACITYTILE
360
2D8
  3
REFLECTIONTILE
360
2D7
  3
REFRACTIONTILE
360
2D9
  3
SPECULARTILE
360
2D6
  0
DICTIONARY
  5
2E3
330
2E2
100
AcDbDictionary
280
     1
281
     1
  3
BUMPTILE
360
2E5
  3
DIFFUSETILE
360
2E4
  3
OPACITYTILE
360
2E8
  3
REFLECTIONTILE
360
2E7
  3
REFRACTIONTILE
360
2E9
  3
SPECULARTILE
360
2E6
  0
DICTIONARY
  5
390
330
319
100
AcDbDictionary
280
     1
281
     1
  3
ACAD_XREC_ROUNDTRIP
360
391
  0
DICTIONARY
  5
392
330
31B
100
AcDbDictionary
280
     1
281
     1
  3
ACAD_XREC_ROUNDTRIP
360
393
  0
DICTIONARY
  5
355
330
305
100
AcDbDictionary
280
     1
281
     1
  3
ACAD_ROUNDTRIP_2008_TABLESTYLE_CELLSTYLEMAP
360
356
  0
DICTIONARY
  5
36A
330
2F0
100
AcDbDictionary
280
     1
281
     1
  3
ACAD_XREC_ROUNDTRIP
360
36B
  0
DICTIONARY
  5
368
330
2EF
100
AcDbDictionary
280
     1
281
     1
  3
ACAD_XREC_ROUNDTRIP
360
369
  0
DICTIONARY
  5
376
330
2F6
100
AcDbDictionary
280
     1
281
     1
  3
ACAD_XREC_ROUNDTRIP
360
377
  0
DICTIONARY
  5
37E
330
2FA
100
AcDbDictionary
280
     1
281
     1
  3
ACAD_XREC_ROUNDTRIP
360
37F
  0
DICTIONARY
  5
370
330
2F3
100
AcDbDictionary
280
     1
281
     1
  3
ACAD_XREC_ROUNDTRIP
360
371
  0
DICTIONARY
  5
374
330
2F5
100
AcDbDictionary
280
     1
281
     1
  3
ACAD_XREC_ROUNDTRIP
360
375
  0
DICTIONARY
  5
38E
330
302
100
AcDbDictionary
280
     1
281
     1
  3
ACAD_XREC_ROUNDTRIP
360
38F
  0
DICTIONARY
  5
37C
330
2F9
100
AcDbDictionary
280
     1
281
     1
  3
ACAD_XREC_ROUNDTRIP
360
37D
  0
DICTIONARY
  5
360
330
2EB
100
AcDbDictionary
280
     1
281
     1
  3
ACAD_XREC_ROUNDTRIP
360
361
  0
DICTIONARY
  5
362
330
2EC
100
AcDbDictionary
280
     1
281
     1
  3
ACAD_XREC_ROUNDTRIP
360
363
  0
DICTIONARY
  5
364
330
2ED
100
AcDbDictionary
280
     1
281
     1
  3
ACAD_XREC_ROUNDTRIP
360
365
  0
DICTIONARY
  5
366
330
2EE
100
AcDbDictionary
280
     1
281
     1
  3
ACAD_XREC_ROUNDTRIP
360
367
  0
DICTIONARY
  5
36E
330
2F2
100
AcDbDictionary
280
     1
281
     1
  3
ACAD_XREC_ROUNDTRIP
360
36F
  0
DICTIONARY
  5
38A
330
300
100
AcDbDictionary
280
     1
281
     1
  3
ACAD_XREC_ROUNDTRIP
360
38B
  0
DICTIONARY
  5
37A
330
2F8
100
AcDbDictionary
280
     1
281
     1
  3
ACAD_XREC_ROUNDTRIP
360
37B
  0
DICTIONARY
  5
38C
330
301
100
AcDbDictionary
280
     1
281
     1
  3
ACAD_XREC_ROUNDTRIP
360
38D
  0
DICTIONARY
  5
372
330
2F4
100
AcDbDictionary
280
     1
281
     1
  3
ACAD_XREC_ROUNDTRIP
360
373
  0
DICTIONARY
  5
388
330
2FF
100
AcDbDictionary
280
     1
281
     1
  3
ACAD_XREC_ROUNDTRIP
360
389
  0
DICTIONARY
  5
386
330
2FE
100
AcDbDictionary
280
     1
281
     1
  3
ACAD_XREC_ROUNDTRIP
360
387
  0
DICTIONARY
  5
380
330
2FB
100
AcDbDictionary
280
     1
281
     1
  3
ACAD_XREC_ROUNDTRIP
360
381
  0
DICTIONARY
  5
382
330
2FC
100
AcDbDictionary
280
     1
281
     1
  3
ACAD_XREC_ROUNDTRIP
360
383
  0
DICTIONARY
  5
378
330
2F7
100
AcDbDictionary
280
     1
281
     1
  3
ACAD_XREC_ROUNDTRIP
360
379
  0
DICTIONARY
  5
36C
330
2F1
100
AcDbDictionary
280
     1
281
     1
  3
ACAD_XREC_ROUNDTRIP
360
36D
  0
DICTIONARY
  5
384
330
2FD
100
AcDbDictionary
280
     1
281
     1
  3
ACAD_XREC_ROUNDTRIP
360
385
  0
XRECORD
  5
358
102
{ACAD_REACTORS
330
35E
102
}
330
35E
100
AcDbXrecord
280
     1
  1
AcDb_Thumbnail_Schema
102
{ATTRRECORD
341
359
  2
AcDbDs::TreatedAsObjectData
280
     1
291
     1
102
ATTRRECORD}
102
{ATTRRECORD
341
35A
  2
AcDbDs::Legacy
280
     1
291
     1
102
ATTRRECORD}
  2
AcDbDs::ID
280
    10
 91
        8
102
{ATTRRECORD
341
35B
  2
AcDs:Indexable
280
     1
291
     1
102
ATTRRECORD}
102
{ATTRRECORD
341
35C
  2
AcDbDs::HandleAttribute
280
     7
282
     1
102
ATTRRECORD}
  2
Thumbnail_Data
280
    15
 91
        0
  0
XRECORD
  5
359
102
{ACAD_REACTORS
330
35E
102
}
330
35E
100
AcDbXrecord
280
     1
  1
AcDbDs::TreatedAsObjectDataSchema
  2
AcDbDs::TreatedAsObjectData
280
     1
 91
        0
  0
XRECORD
  5
35A
102
{ACAD_REACTORS
330
35E
102
}
330
35E
100
AcDbXrecord
280
     1
  1
AcDbDs::LegacySchema
  2
AcDbDs::Legacy
280
     1
 91
        0
  0
XRECORD
  5
35B
102
{ACAD_REACTORS
330
35E
102
}
330
35E
100
AcDbXrecord
280
     1
  1
AcDbDs::IndexedPropertySchema
  2
AcDs:Indexable
280
     1
 91
        0
  0
XRECORD
  5
35C
102
{ACAD_REACTORS
330
35E
102
}
330
35E
100
AcDbXrecord
280
     1
  1
AcDbDs::HandleAttributeSchema
  2
AcDbDs::HandleAttribute
280
     7
 91
        1
284
     1
  0
XRECORD
  5
395
102
{ACAD_REACTORS
330
394
102
}
330
394
100
AcDbXrecord
280
     1
102
DISPLAYNAME
  1
Metric50
102
FLAGS
 90
        0
  0
XRECORD
  5
2DD
102
{ACAD_REACTORS
330
2DB
102
}
330
2DB
100
AcDbXrecord
280
     1
270
     1
271
     1
  0
XRECORD
  5
2DC
102
{ACAD_REACTORS
330
2DB
102
}
330
2DB
100
AcDbXrecord
280
     1
270
     1
271
     1
  0
XRECORD
  5
2E0
102
{ACAD_REACTORS
330
2DB
102
}
330
2DB
100
AcDbXrecord
280
     1
270
     1
271
     1
  0
XRECORD
  5
2DF
102
{ACAD_REACTORS
330
2DB
102
}
330
2DB
100
AcDbXrecord
280
     1
270
     1
271
     1
  0
XRECORD
  5
2E1
102
{ACAD_REACTORS
330
2DB
102
}
330
2DB
100
AcDbXrecord
280
     1
270
     1
271
     1
  0
XRECORD
  5
2DE
102
{ACAD_REACTORS
330
2DB
102
}
330
2DB
100
AcDbXrecord
280
     1
270
     1
271
     1
  0
XRECORD
  5
2D5
102
{ACAD_REACTORS
330
2D3
102
}
330
2D3
100
AcDbXrecord
280
     1
270
     1
271
     1
  0
XRECORD
  5
2D4
102
{ACAD_REACTORS
330
2D3
102
}
330
2D3
100
AcDbXrecord
280
     1
270
     1
271
     1
  0
XRECORD
  5
2D8
102
{ACAD_REACTORS
330
2D3
102
}
330
2D3
100
AcDbXrecord
280
     1
270
     1
271
     1
  0
XRECORD
  5
2D7
102
{ACAD_REACTORS
330
2D3
102
}
330
2D3
100
AcDbXrecord
280
     1
270
     1
271
     1
  0
XRECORD
  5
2D9
102
{ACAD_REACTORS
330
2D3
102
}
330
2D3
100
AcDbXrecord
280
     1
270
     1
271
     1
  0
XRECORD
  5
2D6
102
{ACAD_REACTORS
330
2D3
102
}
330
2D3
100
AcDbXrecord
280
     1
270
     1
271
     1
  0
XRECORD
  5
2E5
102
{ACAD_REACTORS
330
2E3
102
}
330
2E3
100
AcDbXrecord
280
     1
270
     1
271
     1
  0
XRECORD
  5
2E4
102
{ACAD_REACTORS
330
2E3
102
}
330
2E3
100
AcDbXrecord
280
     1
270
     1
271
     1
  0
XRECORD
  5
2E8
102
{ACAD_REACTORS
330
2E3
102
}
330
2E3
100
AcDbXrecord
280
     1
270
     1
271
     1
  0
XRECORD
  5
2E7
102
{ACAD_REACTORS
330
2E3
102
}
330
2E3
100
AcDbXrecord
280
     1
270
     1
271
     1
  0
XRECORD
  5
2E9
102
{ACAD_REACTORS
330
2E3
102
}
330
2E3
100
AcDbXrecord
280
     1
270
     1
271
     1
  0
XRECORD
  5
2E6
102
{ACAD_REACTORS
330
2E3
102
}
330
2E3
100
AcDbXrecord
280
     1
270
     1
271
     1
  0
XRECORD
  5
391
102
{ACAD_REACTORS
330
390
102
}
330
390
100
AcDbXrecord
280
     1
102
ACAD_ROUNDTRIP_2012_MLEADER_STYLE
298
     1
  0
XRECORD
  5
393
102
{ACAD_REACTORS
330
392
102
}
330
392
100
AcDbXrecord
280
     1
102
DISPLAYNAME
  1
Metric50
102
FLAGS
 90
        0
  0
CELLSTYLEMAP
  5
356
102
{ACAD_REACTORS
330
355
102
}
330
355
100
AcDbCellStyleMap
 90
        3
300
CELLSTYLE
  1
TABLEFORMAT_BEGIN
 90
        5
170
     1
 91
        0
 92
    32768
 62
   257
 93
        1
300
CONTENTFORMAT
  1
CONTENTFORMAT_BEGIN
 90
        0
 91
        0
 92
      512
 93
        0
300

 40
0.0
140
1.0
 94
        5
 62
     0
340
17
144
6.0
309
CONTENTFORMAT_END
171
     1
301
MARGIN
  1
CELLMARGIN_BEGIN
 40
1.5
 40
1.5
 40
1.5
 40
1.5
 40
4.5
 40
4.5
309
CELLMARGIN_END
 94
        6
 95
        1
302
GRIDFORMAT
  1
GRIDFORMAT_BEGIN
 90
        0
 91
        1
 62
     0
 92
       -2
340
0
 93
        0
 40
1.125
309
GRIDFORMAT_END
 95
        2
302
GRIDFORMAT
  1
GRIDFORMAT_BEGIN
 90
        0
 91
        1
 62
     0
 92
       -2
340
0
 93
        0
 40
1.125
309
GRIDFORMAT_END
 95
        4
302
GRIDFORMAT
  1
GRIDFORMAT_BEGIN
 90
        0
 91
        1
 62
     0
 92
       -2
340
0
 93
        0
 40
1.125
309
GRIDFORMAT_END
 95
        8
302
GRIDFORMAT
  1
GRIDFORMAT_BEGIN
 90
        0
 91
        1
 62
     0
 92
       -2
340
0
 93
        0
 40
1.125
309
GRIDFORMAT_END
 95
       16
302
GRIDFORMAT
  1
GRIDFORMAT_BEGIN
 90
        0
 91
        1
 62
     0
 92
       -2
340
0
 93
        0
 40
1.125
309
GRIDFORMAT_END
 95
       32
302
GRIDFORMAT
  1
GRIDFORMAT_BEGIN
 90
        0
 91
        1
 62
     0
 92
       -2
340
0
 93
        0
 40
1.125
309
GRIDFORMAT_END
309
TABLEFORMAT_END
  1
CELLSTYLE_BEGIN
 90
        1
 91
        1
300
_TITLE
309
CELLSTYLE_END
300
CELLSTYLE
  1
TABLEFORMAT_BEGIN
 90
        5
170
     1
 91
        0
 92
        0
 62
   257
 93
        1
300
CONTENTFORMAT
  1
CONTENTFORMAT_BEGIN
 90
        0
 91
        0
 92
      512
 93
        0
300

 40
0.0
140
1.0
 94
        5
 62
     0
340
17
144
4.5
309
CONTENTFORMAT_END
171
     1
301
MARGIN
  1
CELLMARGIN_BEGIN
 40
1.5
 40
1.5
 40
1.5
 40
1.5
 40
4.5
 40
4.5
309
CELLMARGIN_END
 94
        6
 95
        1
302
GRIDFORMAT
  1
GRIDFORMAT_BEGIN
 90
        0
 91
        1
 62
     0
 92
       -2
340
0
 93
        0
 40
1.125
309
GRIDFORMAT_END
 95
        2
302
GRIDFORMAT
  1
GRIDFORMAT_BEGIN
 90
        0
 91
        1
 62
     0
 92
       -2
340
0
 93
        0
 40
1.125
309
GRIDFORMAT_END
 95
        4
302
GRIDFORMAT
  1
GRIDFORMAT_BEGIN
 90
        0
 91
        1
 62
     0
 92
       -2
340
0
 93
        0
 40
1.125
309
GRIDFORMAT_END
 95
        8
302
GRIDFORMAT
  1
GRIDFORMAT_BEGIN
 90
        0
 91
        1
 62
     0
 92
       -2
340
0
 93
        0
 40
1.125
309
GRIDFORMAT_END
 95
       16
302
GRIDFORMAT
  1
GRIDFORMAT_BEGIN
 90
        0
 91
        1
 62
     0
 92
       -2
340
0
 93
        0
 40
1.125
309
GRIDFORMAT_END
 95
       32
302
GRIDFORMAT
  1
GRIDFORMAT_BEGIN
 90
        0
 91
        1
 62
     0
 92
       -2
340
0
 93
        0
 40
1.125
309
GRIDFORMAT_END
309
TABLEFORMAT_END
  1
CELLSTYLE_BEGIN
 90
        2
 91
        1
300
_HEADER
309
CELLSTYLE_END
300
CELLSTYLE
  1
TABLEFORMAT_BEGIN
 90
        5
170
     1
 91
        0
 92
        0
 62
   257
 93
        1
300
CONTENTFORMAT
  1
CONTENTFORMAT_BEGIN
 90
        0
 91
        0
 92
      512
 93
        0
300

 40
0.0
140
1.0
 94
        2
 62
     0
340
17
144
4.5
309
CONTENTFORMAT_END
171
     1
301
MARGIN
  1
CELLMARGIN_BEGIN
 40
1.5
 40
1.5
 40
1.5
 40
1.5
 40
4.5
 40
4.5
309
CELLMARGIN_END
 94
        6
 95
        1
302
GRIDFORMAT
  1
GRIDFORMAT_BEGIN
 90
        0
 91
        1
 62
     0
 92
       -2
340
0
 93
        0
 40
1.125
309
GRIDFORMAT_END
 95
        2
302
GRIDFORMAT
  1
GRIDFORMAT_BEGIN
 90
        0
 91
        1
 62
     0
 92
       -2
340
0
 93
        0
 40
1.125
309
GRIDFORMAT_END
 95
        4
302
GRIDFORMAT
  1
GRIDFORMAT_BEGIN
 90
        0
 91
        1
 62
     0
 92
       -2
340
0
 93
        0
 40
1.125
309
GRIDFORMAT_END
 95
        8
302
GRIDFORMAT
  1
GRIDFORMAT_BEGIN
 90
        0
 91
        1
 62
     0
 92
       -2
340
0
 93
        0
 40
1.125
309
GRIDFORMAT_END
 95
       16
302
GRIDFORMAT
  1
GRIDFORMAT_BEGIN
 90
        0
 91
        1
 62
     0
 92
       -2
340
0
 93
        0
 40
1.125
309
GRIDFORMAT_END
 95
       32
302
GRIDFORMAT
  1
GRIDFORMAT_BEGIN
 90
        0
 91
        1
 62
     0
 92
       -2
340
0
 93
        0
 40
1.125
309
GRIDFORMAT_END
309
TABLEFORMAT_END
  1
CELLSTYLE_BEGIN
 90
        3
 91
        2
300
_DATA
309
CELLSTYLE_END
  0
XRECORD
  5
36B
102
{ACAD_REACTORS
330
36A
102
}
330
36A
100
AcDbXrecord
280
     1
102
RTVSPost2010Prop28
280
     1
102
RTVSPost2010PropOp28
 70
     1
102
RTVSPost2010Prop29
280
     1
102
RTVSPost2010PropOp29
 70
     1
102
RTVSPost2010Prop30
280
     0
102
RTVSPost2010PropOp30
 70
     1
102
RTVSPost2010Prop31
280
     0
102
RTVSPost2010PropOp31
 70
     1
102
RTVSPost2010Prop32
280
     0
102
RTVSPost2010PropOp32
 70
     1
102
RTVSPost2010Prop33
280
     0
102
RTVSPost2010PropOp33
 70
     1
102
RTVSPost2010Prop34
280
     0
102
RTVSPost2010PropOp34
 70
     1
102
RTVSPost2010Prop35
280
     0
102
RTVSPost2010PropOp35
 70
     1
102
RTVSPost2010Prop36
280
     0
102
RTVSPost2010PropOp36
 70
     1
102
RTVSPost2010Prop37
 90
       50
102
RTVSPost2010PropOp37
 70
     1
102
RTVSPost2010Prop38
140
0.0
102
RTVSPost2010PropOp38
 70
     1
102
RTVSPost2010Prop39
140
1.0
102
RTVSPost2010PropOp39
 70
     1
102
RTVSPost2010Prop40
 90
        0
102
RTVSPost2010PropOp40
 70
     1
102
RTVSPost2010Prop41ColorIndex
 90
       18
102
RTVSPost2010Prop41ColorRGB
 90
        0
102
RTVSPost2010PropOp41
 70
     1
102
RTVSPost2010Prop42
 90
       50
102
RTVSPost2010PropOp42
 70
     1
102
RTVSPost2010Prop43
 90
        3
102
RTVSPost2010PropOp43
 70
     1
102
RTVSPost2010Prop44ColorIndex
 90
        5
102
RTVSPost2010Prop44ColorRGB
 90
      255
102
RTVSPost2010PropOp44
 70
     1
102
RTVSPost2010Prop45
280
     0
102
RTVSPost2010PropOp45
 70
     1
102
RTVSPost2010Prop46
 90
       50
102
RTVSPost2010PropOp46
 70
     1
102
RTVSPost2010Prop47
 90
       50
102
RTVSPost2010PropOp47
 70
     1
102
RTVSPost2010Prop48
 90
       50
102
RTVSPost2010PropOp48
 70
     1
102
RTVSPost2010Prop49
280
     0
102
RTVSPost2010PropOp49
 70
     1
102
RTVSPost2010Prop50
 90
       50
102
RTVSPost2010PropOp50
 70
     1
102
RTVSPost2010Prop51ColorIndex
 90
      256
102
RTVSPost2010Prop51ColorRGB
 90
-16777216
102
RTVSPost2010PropOp51
 70
     0
102
RTVSPost2010Prop52
140
1.0
102
RTVSPost2010PropOp52
 70
     0
102
RTVSPost2010Prop53
 90
        2
102
RTVSPost2010PropOp53
 70
     1
102
RTVSPost2010Prop54
  1
strokes_ogs.tif
102
RTVSPost2010PropOp54
 70
     1
102
RTVSPost2010Prop55
280
     0
102
RTVSPost2010PropOp55
 70
     1
102
RTVSPost2010Prop56
140
1.0
102
RTVSPost2010PropOp56
 70
     1
102
RTVSPost2010Prop57
140
1.0
102
RTVSPost2010PropOp57
 70
     1
  0
XRECORD
  5
369
102
{ACAD_REACTORS
330
368
102
}
330
368
100
AcDbXrecord
280
     1
102
RTVSPost2010Prop28
280
     0
102
RTVSPost2010PropOp28
 70
     1
102
RTVSPost2010Prop29
280
     1
102
RTVSPost2010PropOp29
 70
     1
102
RTVSPost2010Prop30
280
     1
102
RTVSPost2010PropOp30
 70
     1
102
RTVSPost2010Prop31
280
     0
102
RTVSPost2010PropOp31
 70
     1
102
RTVSPost2010Prop32
280
     0
102
RTVSPost2010PropOp32
 70
     1
102
RTVSPost2010Prop33
280
     0
102
RTVSPost2010PropOp33
 70
     1
102
RTVSPost2010Prop34
280
     0
102
RTVSPost2010PropOp34
 70
     1
102
RTVSPost2010Prop35
280
     0
102
RTVSPost2010PropOp35
 70
     1
102
RTVSPost2010Prop36
280
     0
102
RTVSPost2010PropOp36
 70
     1
102
RTVSPost2010Prop37
 90
       50
102
RTVSPost2010PropOp37
 70
     1
102
RTVSPost2010Prop38
140
0.0
102
RTVSPost2010PropOp38
 70
     1
102
RTVSPost2010Prop39
140
1.0
102
RTVSPost2010PropOp39
 70
     1
102
RTVSPost2010Prop40
 90
        0
102
RTVSPost2010PropOp40
 70
     1
102
RTVSPost2010Prop41ColorIndex
 90
       18
102
RTVSPost2010Prop41ColorRGB
 90
        0
102
RTVSPost2010PropOp41
 70
     1
102
RTVSPost2010Prop42
 90
       50
102
RTVSPost2010PropOp42
 70
     1
102
RTVSPost2010Prop43
 90
        3
102
RTVSPost2010PropOp43
 70
     1
102
RTVSPost2010Prop44ColorIndex
 90
        5
102
RTVSPost2010Prop44ColorRGB
 90
      255
102
RTVSPost2010PropOp44
 70
     1
102
RTVSPost2010Prop45
280
     0
102
RTVSPost2010PropOp45
 70
     1
102
RTVSPost2010Prop46
 90
       50
102
RTVSPost2010PropOp46
 70
     1
102
RTVSPost2010Prop47
 90
       50
102
RTVSPost2010PropOp47
 70
     1
102
RTVSPost2010Prop48
 90
       50
102
RTVSPost2010PropOp48
 70
     1
102
RTVSPost2010Prop49
280
     0
102
RTVSPost2010PropOp49
 70
     1
102
RTVSPost2010Prop50
 90
       50
102
RTVSPost2010PropOp50
 70
     1
102
RTVSPost2010Prop51ColorIndex
 90
      256
102
RTVSPost2010Prop51ColorRGB
 90
-16777216
102
RTVSPost2010PropOp51
 70
     0
102
RTVSPost2010Prop52
140
1.0
102
RTVSPost2010PropOp52
 70
     0
102
RTVSPost2010Prop53
 90
        2
102
RTVSPost2010PropOp53
 70
     1
102
RTVSPost2010Prop54
  1
strokes_ogs.tif
102
RTVSPost2010PropOp54
 70
     1
102
RTVSPost2010Prop55
280
     0
102
RTVSPost2010PropOp55
 70
     1
102
RTVSPost2010Prop56
140
1.0
102
RTVSPost2010PropOp56
 70
     1
102
RTVSPost2010Prop57
140
1.0
102
RTVSPost2010PropOp57
 70
     1
  0
XRECORD
  5
377
102
{ACAD_REACTORS
330
376
102
}
330
376
100
AcDbXrecord
280
     1
102
RTVSPost2010Prop28
280
     0
102
RTVSPost2010PropOp28
 70
     1
102
RTVSPost2010Prop29
280
     1
102
RTVSPost2010PropOp29
 70
     1
102
RTVSPost2010Prop30
280
     1
102
RTVSPost2010PropOp30
 70
     1
102
RTVSPost2010Prop31
280
     0
102
RTVSPost2010PropOp31
 70
     1
102
RTVSPost2010Prop32
280
     0
102
RTVSPost2010PropOp32
 70
     1
102
RTVSPost2010Prop33
280
     0
102
RTVSPost2010PropOp33
 70
     1
102
RTVSPost2010Prop34
280
     0
102
RTVSPost2010PropOp34
 70
     1
102
RTVSPost2010Prop35
280
     0
102
RTVSPost2010PropOp35
 70
     1
102
RTVSPost2010Prop36
280
     0
102
RTVSPost2010PropOp36
 70
     1
102
RTVSPost2010Prop37
 90
       50
102
RTVSPost2010PropOp37
 70
     1
102
RTVSPost2010Prop38
140
0.0
102
RTVSPost2010PropOp38
 70
     1
102
RTVSPost2010Prop39
140
1.0
102
RTVSPost2010PropOp39
 70
     1
102
RTVSPost2010Prop40
 90
        0
102
RTVSPost2010PropOp40
 70
     1
102
RTVSPost2010Prop41ColorIndex
 90
       18
102
RTVSPost2010Prop41ColorRGB
 90
        0
102
RTVSPost2010PropOp41
 70
     1
102
RTVSPost2010Prop42
 90
       50
102
RTVSPost2010PropOp42
 70
     1
102
RTVSPost2010Prop43
 90
        3
102
RTVSPost2010PropOp43
 70
     1
102
RTVSPost2010Prop44ColorIndex
 90
        5
102
RTVSPost2010Prop44ColorRGB
 90
      255
102
RTVSPost2010PropOp44
 70
     1
102
RTVSPost2010Prop45
280
     0
102
RTVSPost2010PropOp45
 70
     1
102
RTVSPost2010Prop46
 90
       50
102
RTVSPost2010PropOp46
 70
     1
102
RTVSPost2010Prop47
 90
       50
102
RTVSPost2010PropOp47
 70
     1
102
RTVSPost2010Prop48
 90
       50
102
RTVSPost2010PropOp48
 70
     1
102
RTVSPost2010Prop49
280
     0
102
RTVSPost2010PropOp49
 70
     1
102
RTVSPost2010Prop50
 90
       50
102
RTVSPost2010PropOp50
 70
     1
102
RTVSPost2010Prop51ColorIndex
 90
      256
102
RTVSPost2010Prop51ColorRGB
 90
-16777216
102
RTVSPost2010PropOp51
 70
     0
102
RTVSPost2010Prop52
140
1.0
102
RTVSPost2010PropOp52
 70
     0
102
RTVSPost2010Prop53
 90
        2
102
RTVSPost2010PropOp53
 70
     1
102
RTVSPost2010Prop54
  1
strokes_ogs.tif
102
RTVSPost2010PropOp54
 70
     1
102
RTVSPost2010Prop55
280
     0
102
RTVSPost2010PropOp55
 70
     1
102
RTVSPost2010Prop56
140
1.0
102
RTVSPost2010PropOp56
 70
     1
102
RTVSPost2010Prop57
140
1.0
102
RTVSPost2010PropOp57
 70
     1
  0
XRECORD
  5
37F
102
{ACAD_REACTORS
330
37E
102
}
330
37E
100
AcDbXrecord
280
     1
102
RTVSPost2010Prop28
280
     0
102
RTVSPost2010PropOp28
 70
     1
102
RTVSPost2010Prop29
280
     1
102
RTVSPost2010PropOp29
 70
     1
102
RTVSPost2010Prop30
280
     1
102
RTVSPost2010PropOp30
 70
     1
102
RTVSPost2010Prop31
280
     0
102
RTVSPost2010PropOp31
 70
     1
102
RTVSPost2010Prop32
280
     0
102
RTVSPost2010PropOp32
 70
     1
102
RTVSPost2010Prop33
280
     0
102
RTVSPost2010PropOp33
 70
     1
102
RTVSPost2010Prop34
280
     0
102
RTVSPost2010PropOp34
 70
     1
102
RTVSPost2010Prop35
280
     0
102
RTVSPost2010PropOp35
 70
     1
102
RTVSPost2010Prop36
280
     0
102
RTVSPost2010PropOp36
 70
     1
102
RTVSPost2010Prop37
 90
       50
102
RTVSPost2010PropOp37
 70
     1
102
RTVSPost2010Prop38
140
0.0
102
RTVSPost2010PropOp38
 70
     1
102
RTVSPost2010Prop39
140
1.0
102
RTVSPost2010PropOp39
 70
     1
102
RTVSPost2010Prop40
 90
        0
102
RTVSPost2010PropOp40
 70
     1
102
RTVSPost2010Prop41ColorIndex
 90
       18
102
RTVSPost2010Prop41ColorRGB
 90
        0
102
RTVSPost2010PropOp41
 70
     1
102
RTVSPost2010Prop42
 90
       50
102
RTVSPost2010PropOp42
 70
     1
102
RTVSPost2010Prop43
 90
        3
102
RTVSPost2010PropOp43
 70
     1
102
RTVSPost2010Prop44ColorIndex
 90
        5
102
RTVSPost2010Prop44ColorRGB
 90
      255
102
RTVSPost2010PropOp44
 70
     1
102
RTVSPost2010Prop45
280
     0
102
RTVSPost2010PropOp45
 70
     1
102
RTVSPost2010Prop46
 90
       50
102
RTVSPost2010PropOp46
 70
     1
102
RTVSPost2010Prop47
 90
       50
102
RTVSPost2010PropOp47
 70
     1
102
RTVSPost2010Prop48
 90
       50
102
RTVSPost2010PropOp48
 70
     1
102
RTVSPost2010Prop49
280
     0
102
RTVSPost2010PropOp49
 70
     1
102
RTVSPost2010Prop50
 90
       50
102
RTVSPost2010PropOp50
 70
     1
102
RTVSPost2010Prop51ColorIndex
 90
      256
102
RTVSPost2010Prop51ColorRGB
 90
-16777216
102
RTVSPost2010PropOp51
 70
     0
102
RTVSPost2010Prop52
140
1.0
102
RTVSPost2010PropOp52
 70
     0
102
RTVSPost2010Prop53
 90
        2
102
RTVSPost2010PropOp53
 70
     1
102
RTVSPost2010Prop54
  1
strokes_ogs.tif
102
RTVSPost2010PropOp54
 70
     1
102
RTVSPost2010Prop55
280
     0
102
RTVSPost2010PropOp55
 70
     1
102
RTVSPost2010Prop56
140
1.0
102
RTVSPost2010PropOp56
 70
     1
102
RTVSPost2010Prop57
140
1.0
102
RTVSPost2010PropOp57
 70
     1
  0
XRECORD
  5
371
102
{ACAD_REACTORS
330
370
102
}
330
370
100
AcDbXrecord
280
     1
102
RTVSPost2010Prop28
280
     0
102
RTVSPost2010PropOp28
 70
     1
102
RTVSPost2010Prop29
280
     1
102
RTVSPost2010PropOp29
 70
     1
102
RTVSPost2010Prop30
280
     1
102
RTVSPost2010PropOp30
 70
     1
102
RTVSPost2010Prop31
280
     0
102
RTVSPost2010PropOp31
 70
     1
102
RTVSPost2010Prop32
280
     0
102
RTVSPost2010PropOp32
 70
     1
102
RTVSPost2010Prop33
280
     0
102
RTVSPost2010PropOp33
 70
     1
102
RTVSPost2010Prop34
280
     0
102
RTVSPost2010PropOp34
 70
     1
102
RTVSPost2010Prop35
280
     0
102
RTVSPost2010PropOp35
 70
     1
102
RTVSPost2010Prop36
280
     0
102
RTVSPost2010PropOp36
 70
     1
102
RTVSPost2010Prop37
 90
       50
102
RTVSPost2010PropOp37
 70
     1
102
RTVSPost2010Prop38
140
0.0
102
RTVSPost2010PropOp38
 70
     1
102
RTVSPost2010Prop39
140
1.0
102
RTVSPost2010PropOp39
 70
     1
102
RTVSPost2010Prop40
 90
        0
102
RTVSPost2010PropOp40
 70
     1
102
RTVSPost2010Prop41ColorIndex
 90
       18
102
RTVSPost2010Prop41ColorRGB
 90
        0
102
RTVSPost2010PropOp41
 70
     1
102
RTVSPost2010Prop42
 90
       50
102
RTVSPost2010PropOp42
 70
     1
102
RTVSPost2010Prop43
 90
        3
102
RTVSPost2010PropOp43
 70
     1
102
RTVSPost2010Prop44ColorIndex
 90
        5
102
RTVSPost2010Prop44ColorRGB
 90
      255
102
RTVSPost2010PropOp44
 70
     1
102
RTVSPost2010Prop45
280
     0
102
RTVSPost2010PropOp45
 70
     1
102
RTVSPost2010Prop46
 90
       50
102
RTVSPost2010PropOp46
 70
     1
102
RTVSPost2010Prop47
 90
       50
102
RTVSPost2010PropOp47
 70
     1
102
RTVSPost2010Prop48
 90
       50
102
RTVSPost2010PropOp48
 70
     1
102
RTVSPost2010Prop49
280
     0
102
RTVSPost2010PropOp49
 70
     1
102
RTVSPost2010Prop50
 90
       50
102
RTVSPost2010PropOp50
 70
     1
102
RTVSPost2010Prop51ColorIndex
 90
      256
102
RTVSPost2010Prop51ColorRGB
 90
-16777216
102
RTVSPost2010PropOp51
 70
     0
102
RTVSPost2010Prop52
140
1.0
102
RTVSPost2010PropOp52
 70
     0
102
RTVSPost2010Prop53
 90
        2
102
RTVSPost2010PropOp53
 70
     1
102
RTVSPost2010Prop54
  1
strokes_ogs.tif
102
RTVSPost2010PropOp54
 70
     1
102
RTVSPost2010Prop55
280
     0
102
RTVSPost2010PropOp55
 70
     1
102
RTVSPost2010Prop56
140
1.0
102
RTVSPost2010PropOp56
 70
     1
102
RTVSPost2010Prop57
140
1.0
102
RTVSPost2010PropOp57
 70
     1
  0
XRECORD
  5
375
102
{ACAD_REACTORS
330
374
102
}
330
374
100
AcDbXrecord
280
     1
102
RTVSPost2010Prop28
280
     0
102
RTVSPost2010PropOp28
 70
     1
102
RTVSPost2010Prop29
280
     1
102
RTVSPost2010PropOp29
 70
     1
102
RTVSPost2010Prop30
280
     1
102
RTVSPost2010PropOp30
 70
     1
102
RTVSPost2010Prop31
280
     0
102
RTVSPost2010PropOp31
 70
     1
102
RTVSPost2010Prop32
280
     0
102
RTVSPost2010PropOp32
 70
     1
102
RTVSPost2010Prop33
280
     0
102
RTVSPost2010PropOp33
 70
     1
102
RTVSPost2010Prop34
280
     0
102
RTVSPost2010PropOp34
 70
     1
102
RTVSPost2010Prop35
280
     0
102
RTVSPost2010PropOp35
 70
     1
102
RTVSPost2010Prop36
280
     0
102
RTVSPost2010PropOp36
 70
     1
102
RTVSPost2010Prop37
 90
       50
102
RTVSPost2010PropOp37
 70
     1
102
RTVSPost2010Prop38
140
0.0
102
RTVSPost2010PropOp38
 70
     1
102
RTVSPost2010Prop39
140
1.0
102
RTVSPost2010PropOp39
 70
     1
102
RTVSPost2010Prop40
 90
        0
102
RTVSPost2010PropOp40
 70
     1
102
RTVSPost2010Prop41ColorIndex
 90
       18
102
RTVSPost2010Prop41ColorRGB
 90
        0
102
RTVSPost2010PropOp41
 70
     1
102
RTVSPost2010Prop42
 90
       50
102
RTVSPost2010PropOp42
 70
     1
102
RTVSPost2010Prop43
 90
        3
102
RTVSPost2010PropOp43
 70
     1
102
RTVSPost2010Prop44ColorIndex
 90
        5
102
RTVSPost2010Prop44ColorRGB
 90
      255
102
RTVSPost2010PropOp44
 70
     1
102
RTVSPost2010Prop45
280
     0
102
RTVSPost2010PropOp45
 70
     1
102
RTVSPost2010Prop46
 90
       50
102
RTVSPost2010PropOp46
 70
     1
102
RTVSPost2010Prop47
 90
       50
102
RTVSPost2010PropOp47
 70
     1
102
RTVSPost2010Prop48
 90
       50
102
RTVSPost2010PropOp48
 70
     1
102
RTVSPost2010Prop49
280
     0
102
RTVSPost2010PropOp49
 70
     1
102
RTVSPost2010Prop50
 90
       50
102
RTVSPost2010PropOp50
 70
     1
102
RTVSPost2010Prop51ColorIndex
 90
      256
102
RTVSPost2010Prop51ColorRGB
 90
-16777216
102
RTVSPost2010PropOp51
 70
     0
102
RTVSPost2010Prop52
140
1.0
102
RTVSPost2010PropOp52
 70
     0
102
RTVSPost2010Prop53
 90
        2
102
RTVSPost2010PropOp53
 70
     1
102
RTVSPost2010Prop54
  1
strokes_ogs.tif
102
RTVSPost2010PropOp54
 70
     1
102
RTVSPost2010Prop55
280
     0
102
RTVSPost2010PropOp55
 70
     1
102
RTVSPost2010Prop56
140
1.0
102
RTVSPost2010PropOp56
 70
     1
102
RTVSPost2010Prop57
140
1.0
102
RTVSPost2010PropOp57
 70
     1
  0
XRECORD
  5
38F
102
{ACAD_REACTORS
330
38E
102
}
330
38E
100
AcDbXrecord
280
     1
102
RTVSPost2010Prop28
280
     0
102
RTVSPost2010PropOp28
 70
     0
102
RTVSPost2010Prop29
280
     1
102
RTVSPost2010PropOp29
 70
     0
102
RTVSPost2010Prop30
280
     1
102
RTVSPost2010PropOp30
 70
     0
102
RTVSPost2010Prop31
280
     0
102
RTVSPost2010PropOp31
 70
     0
102
RTVSPost2010Prop32
280
     0
102
RTVSPost2010PropOp32
 70
     0
102
RTVSPost2010Prop33
280
     0
102
RTVSPost2010PropOp33
 70
     0
102
RTVSPost2010Prop34
280
     0
102
RTVSPost2010PropOp34
 70
     0
102
RTVSPost2010Prop35
280
     0
102
RTVSPost2010PropOp35
 70
     0
102
RTVSPost2010Prop36
280
     0
102
RTVSPost2010PropOp36
 70
     0
102
RTVSPost2010Prop37
 90
       50
102
RTVSPost2010PropOp37
 70
     0
102
RTVSPost2010Prop38
140
0.0
102
RTVSPost2010PropOp38
 70
     0
102
RTVSPost2010Prop39
140
1.0
102
RTVSPost2010PropOp39
 70
     0
102
RTVSPost2010Prop40
 90
        0
102
RTVSPost2010PropOp40
 70
     0
102
RTVSPost2010Prop41ColorIndex
 90
       18
102
RTVSPost2010Prop41ColorRGB
 90
        0
102
RTVSPost2010PropOp41
 70
     0
102
RTVSPost2010Prop42
 90
       50
102
RTVSPost2010PropOp42
 70
     0
102
RTVSPost2010Prop43
 90
        3
102
RTVSPost2010PropOp43
 70
     0
102
RTVSPost2010Prop44ColorIndex
 90
        5
102
RTVSPost2010Prop44ColorRGB
 90
      255
102
RTVSPost2010PropOp44
 70
     0
102
RTVSPost2010Prop45
280
     0
102
RTVSPost2010PropOp45
 70
     0
102
RTVSPost2010Prop46
 90
       50
102
RTVSPost2010PropOp46
 70
     0
102
RTVSPost2010Prop47
 90
       50
102
RTVSPost2010PropOp47
 70
     0
102
RTVSPost2010Prop48
 90
       50
102
RTVSPost2010PropOp48
 70
     0
102
RTVSPost2010Prop49
280
     0
102
RTVSPost2010PropOp49
 70
     0
102
RTVSPost2010Prop50
 90
       50
102
RTVSPost2010PropOp50
 70
     0
102
RTVSPost2010Prop51ColorIndex
 90
      256
102
RTVSPost2010Prop51ColorRGB
 90
-16777216
102
RTVSPost2010PropOp51
 70
     0
102
RTVSPost2010Prop52
140
1.0
102
RTVSPost2010PropOp52
 70
     0
102
RTVSPost2010Prop53
 90
        2
102
RTVSPost2010PropOp53
 70
     0
102
RTVSPost2010Prop54
  1
strokes_ogs.tif
102
RTVSPost2010PropOp54
 70
     0
102
RTVSPost2010Prop55
280
     0
102
RTVSPost2010PropOp55
 70
     0
102
RTVSPost2010Prop56
140
1.0
102
RTVSPost2010PropOp56
 70
     0
102
RTVSPost2010Prop57
140
1.0
102
RTVSPost2010PropOp57
 70
     0
  0
XRECORD
  5
37D
102
{ACAD_REACTORS
330
37C
102
}
330
37C
100
AcDbXrecord
280
     1
102
RTVSPost2010Prop28
280
     0
102
RTVSPost2010PropOp28
 70
     1
102
RTVSPost2010Prop29
280
     1
102
RTVSPost2010PropOp29
 70
     1
102
RTVSPost2010Prop30
280
     1
102
RTVSPost2010PropOp30
 70
     1
102
RTVSPost2010Prop31
280
     0
102
RTVSPost2010PropOp31
 70
     1
102
RTVSPost2010Prop32
280
     0
102
RTVSPost2010PropOp32
 70
     1
102
RTVSPost2010Prop33
280
     0
102
RTVSPost2010PropOp33
 70
     1
102
RTVSPost2010Prop34
280
     0
102
RTVSPost2010PropOp34
 70
     1
102
RTVSPost2010Prop35
280
     0
102
RTVSPost2010PropOp35
 70
     1
102
RTVSPost2010Prop36
280
     0
102
RTVSPost2010PropOp36
 70
     1
102
RTVSPost2010Prop37
 90
       50
102
RTVSPost2010PropOp37
 70
     1
102
RTVSPost2010Prop38
140
0.0
102
RTVSPost2010PropOp38
 70
     1
102
RTVSPost2010Prop39
140
1.0
102
RTVSPost2010PropOp39
 70
     1
102
RTVSPost2010Prop40
 90
        0
102
RTVSPost2010PropOp40
 70
     1
102
RTVSPost2010Prop41ColorIndex
 90
       18
102
RTVSPost2010Prop41ColorRGB
 90
        0
102
RTVSPost2010PropOp41
 70
     1
102
RTVSPost2010Prop42
 90
       50
102
RTVSPost2010PropOp42
 70
     1
102
RTVSPost2010Prop43
 90
        3
102
RTVSPost2010PropOp43
 70
     1
102
RTVSPost2010Prop44ColorIndex
 90
        5
102
RTVSPost2010Prop44ColorRGB
 90
      255
102
RTVSPost2010PropOp44
 70
     1
102
RTVSPost2010Prop45
280
     0
102
RTVSPost2010PropOp45
 70
     1
102
RTVSPost2010Prop46
 90
       50
102
RTVSPost2010PropOp46
 70
     1
102
RTVSPost2010Prop47
 90
       50
102
RTVSPost2010PropOp47
 70
     1
102
RTVSPost2010Prop48
 90
       50
102
RTVSPost2010PropOp48
 70
     1
102
RTVSPost2010Prop49
280
     0
102
RTVSPost2010PropOp49
 70
     1
102
RTVSPost2010Prop50
 90
       50
102
RTVSPost2010PropOp50
 70
     1
102
RTVSPost2010Prop51ColorIndex
 90
      256
102
RTVSPost2010Prop51ColorRGB
 90
-16777216
102
RTVSPost2010PropOp51
 70
     0
102
RTVSPost2010Prop52
140
1.0
102
RTVSPost2010PropOp52
 70
     0
102
RTVSPost2010Prop53
 90
        2
102
RTVSPost2010PropOp53
 70
     1
102
RTVSPost2010Prop54
  1
strokes_ogs.tif
102
RTVSPost2010PropOp54
 70
     1
102
RTVSPost2010Prop55
280
     0
102
RTVSPost2010PropOp55
 70
     1
102
RTVSPost2010Prop56
140
1.0
102
RTVSPost2010PropOp56
 70
     1
102
RTVSPost2010Prop57
140
1.0
102
RTVSPost2010PropOp57
 70
     1
  0
XRECORD
  5
361
102
{ACAD_REACTORS
330
360
102
}
330
360
100
AcDbXrecord
280
     1
102
RTVSPost2010Prop28
280
     0
102
RTVSPost2010PropOp28
 70
     1
102
RTVSPost2010Prop29
280
     1
102
RTVSPost2010PropOp29
 70
     1
102
RTVSPost2010Prop30
280
     1
102
RTVSPost2010PropOp30
 70
     1
102
RTVSPost2010Prop31
280
     0
102
RTVSPost2010PropOp31
 70
     1
102
RTVSPost2010Prop32
280
     0
102
RTVSPost2010PropOp32
 70
     1
102
RTVSPost2010Prop33
280
     0
102
RTVSPost2010PropOp33
 70
     1
102
RTVSPost2010Prop34
280
     0
102
RTVSPost2010PropOp34
 70
     1
102
RTVSPost2010Prop35
280
     0
102
RTVSPost2010PropOp35
 70
     1
102
RTVSPost2010Prop36
280
     0
102
RTVSPost2010PropOp36
 70
     1
102
RTVSPost2010Prop37
 90
       50
102
RTVSPost2010PropOp37
 70
     1
102
RTVSPost2010Prop38
140
0.0
102
RTVSPost2010PropOp38
 70
     1
102
RTVSPost2010Prop39
140
1.0
102
RTVSPost2010PropOp39
 70
     1
102
RTVSPost2010Prop40
 90
        0
102
RTVSPost2010PropOp40
 70
     1
102
RTVSPost2010Prop41ColorIndex
 90
       18
102
RTVSPost2010Prop41ColorRGB
 90
        0
102
RTVSPost2010PropOp41
 70
     1
102
RTVSPost2010Prop42
 90
       50
102
RTVSPost2010PropOp42
 70
     1
102
RTVSPost2010Prop43
 90
        3
102
RTVSPost2010PropOp43
 70
     1
102
RTVSPost2010Prop44ColorIndex
 90
        5
102
RTVSPost2010Prop44ColorRGB
 90
      255
102
RTVSPost2010PropOp44
 70
     1
102
RTVSPost2010Prop45
280
     0
102
RTVSPost2010PropOp45
 70
     1
102
RTVSPost2010Prop46
 90
       50
102
RTVSPost2010PropOp46
 70
     1
102
RTVSPost2010Prop47
 90
       50
102
RTVSPost2010PropOp47
 70
     1
102
RTVSPost2010Prop48
 90
       50
102
RTVSPost2010PropOp48
 70
     1
102
RTVSPost2010Prop49
280
     0
102
RTVSPost2010PropOp49
 70
     1
102
RTVSPost2010Prop50
 90
       50
102
RTVSPost2010PropOp50
 70
     1
102
RTVSPost2010Prop51ColorIndex
 90
      256
102
RTVSPost2010Prop51ColorRGB
 90
-16777216
102
RTVSPost2010PropOp51
 70
     0
102
RTVSPost2010Prop52
140
1.0
102
RTVSPost2010PropOp52
 70
     0
102
RTVSPost2010Prop53
 90
        2
102
RTVSPost2010PropOp53
 70
     1
102
RTVSPost2010Prop54
  1
strokes_ogs.tif
102
RTVSPost2010PropOp54
 70
     1
102
RTVSPost2010Prop55
280
     0
102
RTVSPost2010PropOp55
 70
     1
102
RTVSPost2010Prop56
140
1.0
102
RTVSPost2010PropOp56
 70
     1
102
RTVSPost2010Prop57
140
1.0
102
RTVSPost2010PropOp57
 70
     1
  0
XRECORD
  5
363
102
{ACAD_REACTORS
330
362
102
}
330
362
100
AcDbXrecord
280
     1
102
RTVSPost2010Prop28
280
     0
102
RTVSPost2010PropOp28
 70
     1
102
RTVSPost2010Prop29
280
     1
102
RTVSPost2010PropOp29
 70
     1
102
RTVSPost2010Prop30
280
     1
102
RTVSPost2010PropOp30
 70
     1
102
RTVSPost2010Prop31
280
     0
102
RTVSPost2010PropOp31
 70
     1
102
RTVSPost2010Prop32
280
     0
102
RTVSPost2010PropOp32
 70
     1
102
RTVSPost2010Prop33
280
     0
102
RTVSPost2010PropOp33
 70
     1
102
RTVSPost2010Prop34
280
     0
102
RTVSPost2010PropOp34
 70
     1
102
RTVSPost2010Prop35
280
     0
102
RTVSPost2010PropOp35
 70
     1
102
RTVSPost2010Prop36
280
     0
102
RTVSPost2010PropOp36
 70
     1
102
RTVSPost2010Prop37
 90
       50
102
RTVSPost2010PropOp37
 70
     1
102
RTVSPost2010Prop38
140
0.0
102
RTVSPost2010PropOp38
 70
     1
102
RTVSPost2010Prop39
140
1.0
102
RTVSPost2010PropOp39
 70
     1
102
RTVSPost2010Prop40
 90
        0
102
RTVSPost2010PropOp40
 70
     1
102
RTVSPost2010Prop41ColorIndex
 90
       18
102
RTVSPost2010Prop41ColorRGB
 90
        0
102
RTVSPost2010PropOp41
 70
     1
102
RTVSPost2010Prop42
 90
       50
102
RTVSPost2010PropOp42
 70
     1
102
RTVSPost2010Prop43
 90
        3
102
RTVSPost2010PropOp43
 70
     1
102
RTVSPost2010Prop44ColorIndex
 90
        5
102
RTVSPost2010Prop44ColorRGB
 90
      255
102
RTVSPost2010PropOp44
 70
     1
102
RTVSPost2010Prop45
280
     0
102
RTVSPost2010PropOp45
 70
     1
102
RTVSPost2010Prop46
 90
       50
102
RTVSPost2010PropOp46
 70
     1
102
RTVSPost2010Prop47
 90
       50
102
RTVSPost2010PropOp47
 70
     1
102
RTVSPost2010Prop48
 90
       50
102
RTVSPost2010PropOp48
 70
     1
102
RTVSPost2010Prop49
280
     0
102
RTVSPost2010PropOp49
 70
     1
102
RTVSPost2010Prop50
 90
       50
102
RTVSPost2010PropOp50
 70
     1
102
RTVSPost2010Prop51ColorIndex
 90
      256
102
RTVSPost2010Prop51ColorRGB
 90
-16777216
102
RTVSPost2010PropOp51
 70
     0
102
RTVSPost2010Prop52
140
1.0
102
RTVSPost2010PropOp52
 70
     0
102
RTVSPost2010Prop53
 90
        2
102
RTVSPost2010PropOp53
 70
     1
102
RTVSPost2010Prop54
  1
strokes_ogs.tif
102
RTVSPost2010PropOp54
 70
     1
102
RTVSPost2010Prop55
280
     0
102
RTVSPost2010PropOp55
 70
     1
102
RTVSPost2010Prop56
140
1.0
102
RTVSPost2010PropOp56
 70
     1
102
RTVSPost2010Prop57
140
1.0
102
RTVSPost2010PropOp57
 70
     1
  0
XRECORD
  5
365
102
{ACAD_REACTORS
330
364
102
}
330
364
100
AcDbXrecord
280
     1
102
RTVSPost2010Prop28
280
     0
102
RTVSPost2010PropOp28
 70
     1
102
RTVSPost2010Prop29
280
     1
102
RTVSPost2010PropOp29
 70
     1
102
RTVSPost2010Prop30
280
     1
102
RTVSPost2010PropOp30
 70
     1
102
RTVSPost2010Prop31
280
     0
102
RTVSPost2010PropOp31
 70
     1
102
RTVSPost2010Prop32
280
     0
102
RTVSPost2010PropOp32
 70
     1
102
RTVSPost2010Prop33
280
     0
102
RTVSPost2010PropOp33
 70
     1
102
RTVSPost2010Prop34
280
     0
102
RTVSPost2010PropOp34
 70
     1
102
RTVSPost2010Prop35
280
     0
102
RTVSPost2010PropOp35
 70
     1
102
RTVSPost2010Prop36
280
     0
102
RTVSPost2010PropOp36
 70
     1
102
RTVSPost2010Prop37
 90
       50
102
RTVSPost2010PropOp37
 70
     1
102
RTVSPost2010Prop38
140
0.0
102
RTVSPost2010PropOp38
 70
     1
102
RTVSPost2010Prop39
140
1.0
102
RTVSPost2010PropOp39
 70
     1
102
RTVSPost2010Prop40
 90
        0
102
RTVSPost2010PropOp40
 70
     1
102
RTVSPost2010Prop41ColorIndex
 90
       18
102
RTVSPost2010Prop41ColorRGB
 90
        0
102
RTVSPost2010PropOp41
 70
     1
102
RTVSPost2010Prop42
 90
       50
102
RTVSPost2010PropOp42
 70
     1
102
RTVSPost2010Prop43
 90
        3
102
RTVSPost2010PropOp43
 70
     1
102
RTVSPost2010Prop44ColorIndex
 90
        5
102
RTVSPost2010Prop44ColorRGB
 90
      255
102
RTVSPost2010PropOp44
 70
     1
102
RTVSPost2010Prop45
280
     0
102
RTVSPost2010PropOp45
 70
     1
102
RTVSPost2010Prop46
 90
       50
102
RTVSPost2010PropOp46
 70
     1
102
RTVSPost2010Prop47
 90
       50
102
RTVSPost2010PropOp47
 70
     1
102
RTVSPost2010Prop48
 90
       50
102
RTVSPost2010PropOp48
 70
     1
102
RTVSPost2010Prop49
280
     0
102
RTVSPost2010PropOp49
 70
     1
102
RTVSPost2010Prop50
 90
       50
102
RTVSPost2010PropOp50
 70
     1
102
RTVSPost2010Prop51ColorIndex
 90
      256
102
RTVSPost2010Prop51ColorRGB
 90
-16777216
102
RTVSPost2010PropOp51
 70
     0
102
RTVSPost2010Prop52
140
1.0
102
RTVSPost2010PropOp52
 70
     0
102
RTVSPost2010Prop53
 90
        2
102
RTVSPost2010PropOp53
 70
     1
102
RTVSPost2010Prop54
  1
strokes_ogs.tif
102
RTVSPost2010PropOp54
 70
     1
102
RTVSPost2010Prop55
280
     0
102
RTVSPost2010PropOp55
 70
     1
102
RTVSPost2010Prop56
140
1.0
102
RTVSPost2010PropOp56
 70
     1
102
RTVSPost2010Prop57
140
1.0
102
RTVSPost2010PropOp57
 70
     1
  0
XRECORD
  5
367
102
{ACAD_REACTORS
330
366
102
}
330
366
100
AcDbXrecord
280
     1
102
RTVSPost2010Prop28
280
     0
102
RTVSPost2010PropOp28
 70
     1
102
RTVSPost2010Prop29
280
     1
102
RTVSPost2010PropOp29
 70
     1
102
RTVSPost2010Prop30
280
     1
102
RTVSPost2010PropOp30
 70
     1
102
RTVSPost2010Prop31
280
     0
102
RTVSPost2010PropOp31
 70
     1
102
RTVSPost2010Prop32
280
     0
102
RTVSPost2010PropOp32
 70
     1
102
RTVSPost2010Prop33
280
     0
102
RTVSPost2010PropOp33
 70
     1
102
RTVSPost2010Prop34
280
     0
102
RTVSPost2010PropOp34
 70
     1
102
RTVSPost2010Prop35
280
     0
102
RTVSPost2010PropOp35
 70
     1
102
RTVSPost2010Prop36
280
     0
102
RTVSPost2010PropOp36
 70
     1
102
RTVSPost2010Prop37
 90
       50
102
RTVSPost2010PropOp37
 70
     1
102
RTVSPost2010Prop38
140
0.0
102
RTVSPost2010PropOp38
 70
     1
102
RTVSPost2010Prop39
140
1.0
102
RTVSPost2010PropOp39
 70
     1
102
RTVSPost2010Prop40
 90
        0
102
RTVSPost2010PropOp40
 70
     1
102
RTVSPost2010Prop41ColorIndex
 90
       18
102
RTVSPost2010Prop41ColorRGB
 90
        0
102
RTVSPost2010PropOp41
 70
     1
102
RTVSPost2010Prop42
 90
       50
102
RTVSPost2010PropOp42
 70
     1
102
RTVSPost2010Prop43
 90
        3
102
RTVSPost2010PropOp43
 70
     1
102
RTVSPost2010Prop44ColorIndex
 90
        5
102
RTVSPost2010Prop44ColorRGB
 90
      255
102
RTVSPost2010PropOp44
 70
     1
102
RTVSPost2010Prop45
280
     0
102
RTVSPost2010PropOp45
 70
     1
102
RTVSPost2010Prop46
 90
       50
102
RTVSPost2010PropOp46
 70
     1
102
RTVSPost2010Prop47
 90
       50
102
RTVSPost2010PropOp47
 70
     1
102
RTVSPost2010Prop48
 90
       50
102
RTVSPost2010PropOp48
 70
     1
102
RTVSPost2010Prop49
280
     0
102
RTVSPost2010PropOp49
 70
     1
102
RTVSPost2010Prop50
 90
       50
102
RTVSPost2010PropOp50
 70
     1
102
RTVSPost2010Prop51ColorIndex
 90
      256
102
RTVSPost2010Prop51ColorRGB
 90
-16777216
102
RTVSPost2010PropOp51
 70
     0
102
RTVSPost2010Prop52
140
1.0
102
RTVSPost2010PropOp52
 70
     0
102
RTVSPost2010Prop53
 90
        2
102
RTVSPost2010PropOp53
 70
     1
102
RTVSPost2010Prop54
  1
strokes_ogs.tif
102
RTVSPost2010PropOp54
 70
     1
102
RTVSPost2010Prop55
280
     0
102
RTVSPost2010PropOp55
 70
     1
102
RTVSPost2010Prop56
140
1.0
102
RTVSPost2010PropOp56
 70
     1
102
RTVSPost2010Prop57
140
1.0
102
RTVSPost2010PropOp57
 70
     1
  0
XRECORD
  5
36F
102
{ACAD_REACTORS
330
36E
102
}
330
36E
100
AcDbXrecord
280
     1
102
RTVSPost2010Prop28
280
     0
102
RTVSPost2010PropOp28
 70
     1
102
RTVSPost2010Prop29
280
     1
102
RTVSPost2010PropOp29
 70
     1
102
RTVSPost2010Prop30
280
     1
102
RTVSPost2010PropOp30
 70
     1
102
RTVSPost2010Prop31
280
     0
102
RTVSPost2010PropOp31
 70
     1
102
RTVSPost2010Prop32
280
     0
102
RTVSPost2010PropOp32
 70
     1
102
RTVSPost2010Prop33
280
     0
102
RTVSPost2010PropOp33
 70
     1
102
RTVSPost2010Prop34
280
     0
102
RTVSPost2010PropOp34
 70
     1
102
RTVSPost2010Prop35
280
     0
102
RTVSPost2010PropOp35
 70
     1
102
RTVSPost2010Prop36
280
     0
102
RTVSPost2010PropOp36
 70
     1
102
RTVSPost2010Prop37
 90
       50
102
RTVSPost2010PropOp37
 70
     1
102
RTVSPost2010Prop38
140
0.0
102
RTVSPost2010PropOp38
 70
     1
102
RTVSPost2010Prop39
140
1.0
102
RTVSPost2010PropOp39
 70
     1
102
RTVSPost2010Prop40
 90
        0
102
RTVSPost2010PropOp40
 70
     1
102
RTVSPost2010Prop41ColorIndex
 90
       18
102
RTVSPost2010Prop41ColorRGB
 90
        0
102
RTVSPost2010PropOp41
 70
     1
102
RTVSPost2010Prop42
 90
       50
102
RTVSPost2010PropOp42
 70
     1
102
RTVSPost2010Prop43
 90
        3
102
RTVSPost2010PropOp43
 70
     1
102
RTVSPost2010Prop44ColorIndex
 90
        5
102
RTVSPost2010Prop44ColorRGB
 90
      255
102
RTVSPost2010PropOp44
 70
     1
102
RTVSPost2010Prop45
280
     0
102
RTVSPost2010PropOp45
 70
     1
102
RTVSPost2010Prop46
 90
       50
102
RTVSPost2010PropOp46
 70
     1
102
RTVSPost2010Prop47
 90
       50
102
RTVSPost2010PropOp47
 70
     1
102
RTVSPost2010Prop48
 90
       50
102
RTVSPost2010PropOp48
 70
     1
102
RTVSPost2010Prop49
280
     0
102
RTVSPost2010PropOp49
 70
     1
102
RTVSPost2010Prop50
 90
       50
102
RTVSPost2010PropOp50
 70
     1
102
RTVSPost2010Prop51ColorIndex
 90
      256
102
RTVSPost2010Prop51ColorRGB
 90
-16777216
102
RTVSPost2010PropOp51
 70
     0
102
RTVSPost2010Prop52
140
1.0
102
RTVSPost2010PropOp52
 70
     0
102
RTVSPost2010Prop53
 90
        2
102
RTVSPost2010PropOp53
 70
     1
102
RTVSPost2010Prop54
  1
strokes_ogs.tif
102
RTVSPost2010PropOp54
 70
     1
102
RTVSPost2010Prop55
280
     0
102
RTVSPost2010PropOp55
 70
     1
102
RTVSPost2010Prop56
140
1.0
102
RTVSPost2010PropOp56
 70
     1
102
RTVSPost2010Prop57
140
1.0
102
RTVSPost2010PropOp57
 70
     1
  0
XRECORD
  5
38B
102
{ACAD_REACTORS
330
38A
102
}
330
38A
100
AcDbXrecord
280
     1
102
RTVSPost2010Prop28
280
     0
102
RTVSPost2010PropOp28
 70
     0
102
RTVSPost2010Prop29
280
     1
102
RTVSPost2010PropOp29
 70
     0
102
RTVSPost2010Prop30
280
     1
102
RTVSPost2010PropOp30
 70
     0
102
RTVSPost2010Prop31
280
     0
102
RTVSPost2010PropOp31
 70
     0
102
RTVSPost2010Prop32
280
     0
102
RTVSPost2010PropOp32
 70
     0
102
RTVSPost2010Prop33
280
     0
102
RTVSPost2010PropOp33
 70
     0
102
RTVSPost2010Prop34
280
     0
102
RTVSPost2010PropOp34
 70
     0
102
RTVSPost2010Prop35
280
     0
102
RTVSPost2010PropOp35
 70
     0
102
RTVSPost2010Prop36
280
     0
102
RTVSPost2010PropOp36
 70
     0
102
RTVSPost2010Prop37
 90
       50
102
RTVSPost2010PropOp37
 70
     0
102
RTVSPost2010Prop38
140
0.0
102
RTVSPost2010PropOp38
 70
     0
102
RTVSPost2010Prop39
140
1.0
102
RTVSPost2010PropOp39
 70
     0
102
RTVSPost2010Prop40
 90
        0
102
RTVSPost2010PropOp40
 70
     0
102
RTVSPost2010Prop41ColorIndex
 90
       18
102
RTVSPost2010Prop41ColorRGB
 90
        0
102
RTVSPost2010PropOp41
 70
     0
102
RTVSPost2010Prop42
 90
       50
102
RTVSPost2010PropOp42
 70
     0
102
RTVSPost2010Prop43
 90
        3
102
RTVSPost2010PropOp43
 70
     0
102
RTVSPost2010Prop44ColorIndex
 90
        5
102
RTVSPost2010Prop44ColorRGB
 90
      255
102
RTVSPost2010PropOp44
 70
     0
102
RTVSPost2010Prop45
280
     0
102
RTVSPost2010PropOp45
 70
     0
102
RTVSPost2010Prop46
 90
       50
102
RTVSPost2010PropOp46
 70
     0
102
RTVSPost2010Prop47
 90
       50
102
RTVSPost2010PropOp47
 70
     0
102
RTVSPost2010Prop48
 90
       50
102
RTVSPost2010PropOp48
 70
     0
102
RTVSPost2010Prop49
280
     0
102
RTVSPost2010PropOp49
 70
     0
102
RTVSPost2010Prop50
 90
       50
102
RTVSPost2010PropOp50
 70
     0
102
RTVSPost2010Prop51ColorIndex
 90
      256
102
RTVSPost2010Prop51ColorRGB
 90
-16777216
102
RTVSPost2010PropOp51
 70
     0
102
RTVSPost2010Prop52
140
1.0
102
RTVSPost2010PropOp52
 70
     0
102
RTVSPost2010Prop53
 90
        2
102
RTVSPost2010PropOp53
 70
     0
102
RTVSPost2010Prop54
  1
strokes_ogs.tif
102
RTVSPost2010PropOp54
 70
     0
102
RTVSPost2010Prop55
280
     0
102
RTVSPost2010PropOp55
 70
     0
102
RTVSPost2010Prop56
140
1.0
102
RTVSPost2010PropOp56
 70
     0
102
RTVSPost2010Prop57
140
1.0
102
RTVSPost2010PropOp57
 70
     0
  0
XRECORD
  5
37B
102
{ACAD_REACTORS
330
37A
102
}
330
37A
100
AcDbXrecord
280
     1
102
RTVSPost2010Prop28
280
     0
102
RTVSPost2010PropOp28
 70
     1
102
RTVSPost2010Prop29
280
     1
102
RTVSPost2010PropOp29
 70
     1
102
RTVSPost2010Prop30
280
     1
102
RTVSPost2010PropOp30
 70
     1
102
RTVSPost2010Prop31
280
     0
102
RTVSPost2010PropOp31
 70
     1
102
RTVSPost2010Prop32
280
     0
102
RTVSPost2010PropOp32
 70
     1
102
RTVSPost2010Prop33
280
     0
102
RTVSPost2010PropOp33
 70
     1
102
RTVSPost2010Prop34
280
     0
102
RTVSPost2010PropOp34
 70
     1
102
RTVSPost2010Prop35
280
     0
102
RTVSPost2010PropOp35
 70
     1
102
RTVSPost2010Prop36
280
     0
102
RTVSPost2010PropOp36
 70
     1
102
RTVSPost2010Prop37
 90
       50
102
RTVSPost2010PropOp37
 70
     1
102
RTVSPost2010Prop38
140
0.0
102
RTVSPost2010PropOp38
 70
     1
102
RTVSPost2010Prop39
140
1.0
102
RTVSPost2010PropOp39
 70
     1
102
RTVSPost2010Prop40
 90
        0
102
RTVSPost2010PropOp40
 70
     1
102
RTVSPost2010Prop41ColorIndex
 90
       18
102
RTVSPost2010Prop41ColorRGB
 90
        0
102
RTVSPost2010PropOp41
 70
     1
102
RTVSPost2010Prop42
 90
       50
102
RTVSPost2010PropOp42
 70
     1
102
RTVSPost2010Prop43
 90
        3
102
RTVSPost2010PropOp43
 70
     1
102
RTVSPost2010Prop44ColorIndex
 90
        5
102
RTVSPost2010Prop44ColorRGB
 90
      255
102
RTVSPost2010PropOp44
 70
     1
102
RTVSPost2010Prop45
280
     0
102
RTVSPost2010PropOp45
 70
     1
102
RTVSPost2010Prop46
 90
       50
102
RTVSPost2010PropOp46
 70
     1
102
RTVSPost2010Prop47
 90
       50
102
RTVSPost2010PropOp47
 70
     1
102
RTVSPost2010Prop48
 90
       50
102
RTVSPost2010PropOp48
 70
     1
102
RTVSPost2010Prop49
280
     0
102
RTVSPost2010PropOp49
 70
     1
102
RTVSPost2010Prop50
 90
       50
102
RTVSPost2010PropOp50
 70
     1
102
RTVSPost2010Prop51ColorIndex
 90
      256
102
RTVSPost2010Prop51ColorRGB
 90
-16777216
102
RTVSPost2010PropOp51
 70
     0
102
RTVSPost2010Prop52
140
1.0
102
RTVSPost2010PropOp52
 70
     0
102
RTVSPost2010Prop53
 90
        2
102
RTVSPost2010PropOp53
 70
     1
102
RTVSPost2010Prop54
  1
strokes_ogs.tif
102
RTVSPost2010PropOp54
 70
     1
102
RTVSPost2010Prop55
280
     0
102
RTVSPost2010PropOp55
 70
     1
102
RTVSPost2010Prop56
140
1.0
102
RTVSPost2010PropOp56
 70
     1
102
RTVSPost2010Prop57
140
1.0
102
RTVSPost2010PropOp57
 70
     1
  0
XRECORD
  5
38D
102
{ACAD_REACTORS
330
38C
102
}
330
38C
100
AcDbXrecord
280
     1
102
RTVSPost2010Prop28
280
     0
102
RTVSPost2010PropOp28
 70
     0
102
RTVSPost2010Prop29
280
     1
102
RTVSPost2010PropOp29
 70
     0
102
RTVSPost2010Prop30
280
     1
102
RTVSPost2010PropOp30
 70
     0
102
RTVSPost2010Prop31
280
     0
102
RTVSPost2010PropOp31
 70
     0
102
RTVSPost2010Prop32
280
     0
102
RTVSPost2010PropOp32
 70
     0
102
RTVSPost2010Prop33
280
     0
102
RTVSPost2010PropOp33
 70
     0
102
RTVSPost2010Prop34
280
     0
102
RTVSPost2010PropOp34
 70
     0
102
RTVSPost2010Prop35
280
     0
102
RTVSPost2010PropOp35
 70
     0
102
RTVSPost2010Prop36
280
     0
102
RTVSPost2010PropOp36
 70
     0
102
RTVSPost2010Prop37
 90
       50
102
RTVSPost2010PropOp37
 70
     0
102
RTVSPost2010Prop38
140
0.0
102
RTVSPost2010PropOp38
 70
     0
102
RTVSPost2010Prop39
140
1.0
102
RTVSPost2010PropOp39
 70
     0
102
RTVSPost2010Prop40
 90
        0
102
RTVSPost2010PropOp40
 70
     0
102
RTVSPost2010Prop41ColorIndex
 90
       18
102
RTVSPost2010Prop41ColorRGB
 90
        0
102
RTVSPost2010PropOp41
 70
     0
102
RTVSPost2010Prop42
 90
       50
102
RTVSPost2010PropOp42
 70
     0
102
RTVSPost2010Prop43
 90
        3
102
RTVSPost2010PropOp43
 70
     0
102
RTVSPost2010Prop44ColorIndex
 90
        5
102
RTVSPost2010Prop44ColorRGB
 90
      255
102
RTVSPost2010PropOp44
 70
     0
102
RTVSPost2010Prop45
280
     0
102
RTVSPost2010PropOp45
 70
     0
102
RTVSPost2010Prop46
 90
       50
102
RTVSPost2010PropOp46
 70
     0
102
RTVSPost2010Prop47
 90
       50
102
RTVSPost2010PropOp47
 70
     0
102
RTVSPost2010Prop48
 90
       50
102
RTVSPost2010PropOp48
 70
     0
102
RTVSPost2010Prop49
280
     0
102
RTVSPost2010PropOp49
 70
     0
102
RTVSPost2010Prop50
 90
       50
102
RTVSPost2010PropOp50
 70
     0
102
RTVSPost2010Prop51ColorIndex
 90
      256
102
RTVSPost2010Prop51ColorRGB
 90
-16777216
102
RTVSPost2010PropOp51
 70
     0
102
RTVSPost2010Prop52
140
1.0
102
RTVSPost2010PropOp52
 70
     0
102
RTVSPost2010Prop53
 90
        2
102
RTVSPost2010PropOp53
 70
     0
102
RTVSPost2010Prop54
  1
strokes_ogs.tif
102
RTVSPost2010PropOp54
 70
     0
102
RTVSPost2010Prop55
280
     0
102
RTVSPost2010PropOp55
 70
     0
102
RTVSPost2010Prop56
140
1.0
102
RTVSPost2010PropOp56
 70
     0
102
RTVSPost2010Prop57
140
1.0
102
RTVSPost2010PropOp57
 70
     0
  0
XRECORD
  5
373
102
{ACAD_REACTORS
330
372
102
}
330
372
100
AcDbXrecord
280
     1
102
RTVSPost2010Prop28
280
     0
102
RTVSPost2010PropOp28
 70
     1
102
RTVSPost2010Prop29
280
     1
102
RTVSPost2010PropOp29
 70
     1
102
RTVSPost2010Prop30
280
     1
102
RTVSPost2010PropOp30
 70
     1
102
RTVSPost2010Prop31
280
     0
102
RTVSPost2010PropOp31
 70
     1
102
RTVSPost2010Prop32
280
     0
102
RTVSPost2010PropOp32
 70
     1
102
RTVSPost2010Prop33
280
     0
102
RTVSPost2010PropOp33
 70
     1
102
RTVSPost2010Prop34
280
     0
102
RTVSPost2010PropOp34
 70
     1
102
RTVSPost2010Prop35
280
     0
102
RTVSPost2010PropOp35
 70
     1
102
RTVSPost2010Prop36
280
     0
102
RTVSPost2010PropOp36
 70
     1
102
RTVSPost2010Prop37
 90
       50
102
RTVSPost2010PropOp37
 70
     1
102
RTVSPost2010Prop38
140
0.0
102
RTVSPost2010PropOp38
 70
     1
102
RTVSPost2010Prop39
140
1.0
102
RTVSPost2010PropOp39
 70
     1
102
RTVSPost2010Prop40
 90
        0
102
RTVSPost2010PropOp40
 70
     1
102
RTVSPost2010Prop41ColorIndex
 90
       18
102
RTVSPost2010Prop41ColorRGB
 90
        0
102
RTVSPost2010PropOp41
 70
     1
102
RTVSPost2010Prop42
 90
       50
102
RTVSPost2010PropOp42
 70
     1
102
RTVSPost2010Prop43
 90
        3
102
RTVSPost2010PropOp43
 70
     1
102
RTVSPost2010Prop44ColorIndex
 90
        5
102
RTVSPost2010Prop44ColorRGB
 90
      255
102
RTVSPost2010PropOp44
 70
     1
102
RTVSPost2010Prop45
280
     0
102
RTVSPost2010PropOp45
 70
     1
102
RTVSPost2010Prop46
 90
       50
102
RTVSPost2010PropOp46
 70
     1
102
RTVSPost2010Prop47
 90
       50
102
RTVSPost2010PropOp47
 70
     1
102
RTVSPost2010Prop48
 90
       50
102
RTVSPost2010PropOp48
 70
     1
102
RTVSPost2010Prop49
280
     0
102
RTVSPost2010PropOp49
 70
     1
102
RTVSPost2010Prop50
 90
       50
102
RTVSPost2010PropOp50
 70
     1
102
RTVSPost2010Prop51ColorIndex
 90
      256
102
RTVSPost2010Prop51ColorRGB
 90
-16777216
102
RTVSPost2010PropOp51
 70
     0
102
RTVSPost2010Prop52
140
1.0
102
RTVSPost2010PropOp52
 70
     0
102
RTVSPost2010Prop53
 90
        2
102
RTVSPost2010PropOp53
 70
     1
102
RTVSPost2010Prop54
  1
strokes_ogs.tif
102
RTVSPost2010PropOp54
 70
     1
102
RTVSPost2010Prop55
280
     0
102
RTVSPost2010PropOp55
 70
     1
102
RTVSPost2010Prop56
140
1.0
102
RTVSPost2010PropOp56
 70
     1
102
RTVSPost2010Prop57
140
1.0
102
RTVSPost2010PropOp57
 70
     1
  0
XRECORD
  5
389
102
{ACAD_REACTORS
330
388
102
}
330
388
100
AcDbXrecord
280
     1
102
RTVSPost2010Prop28
280
     0
102
RTVSPost2010PropOp28
 70
     1
102
RTVSPost2010Prop29
280
     1
102
RTVSPost2010PropOp29
 70
     1
102
RTVSPost2010Prop30
280
     1
102
RTVSPost2010PropOp30
 70
     1
102
RTVSPost2010Prop31
280
     0
102
RTVSPost2010PropOp31
 70
     1
102
RTVSPost2010Prop32
280
     0
102
RTVSPost2010PropOp32
 70
     1
102
RTVSPost2010Prop33
280
     0
102
RTVSPost2010PropOp33
 70
     1
102
RTVSPost2010Prop34
280
     0
102
RTVSPost2010PropOp34
 70
     1
102
RTVSPost2010Prop35
280
     0
102
RTVSPost2010PropOp35
 70
     1
102
RTVSPost2010Prop36
280
     0
102
RTVSPost2010PropOp36
 70
     1
102
RTVSPost2010Prop37
 90
       50
102
RTVSPost2010PropOp37
 70
     1
102
RTVSPost2010Prop38
140
0.0
102
RTVSPost2010PropOp38
 70
     1
102
RTVSPost2010Prop39
140
1.0
102
RTVSPost2010PropOp39
 70
     1
102
RTVSPost2010Prop40
 90
        0
102
RTVSPost2010PropOp40
 70
     1
102
RTVSPost2010Prop41ColorIndex
 90
       18
102
RTVSPost2010Prop41ColorRGB
 90
        0
102
RTVSPost2010PropOp41
 70
     1
102
RTVSPost2010Prop42
 90
       50
102
RTVSPost2010PropOp42
 70
     1
102
RTVSPost2010Prop43
 90
        3
102
RTVSPost2010PropOp43
 70
     1
102
RTVSPost2010Prop44ColorIndex
 90
        5
102
RTVSPost2010Prop44ColorRGB
 90
      255
102
RTVSPost2010PropOp44
 70
     1
102
RTVSPost2010Prop45
280
     0
102
RTVSPost2010PropOp45
 70
     1
102
RTVSPost2010Prop46
 90
       50
102
RTVSPost2010PropOp46
 70
     1
102
RTVSPost2010Prop47
 90
       50
102
RTVSPost2010PropOp47
 70
     1
102
RTVSPost2010Prop48
 90
       50
102
RTVSPost2010PropOp48
 70
     1
102
RTVSPost2010Prop49
280
     0
102
RTVSPost2010PropOp49
 70
     1
102
RTVSPost2010Prop50
 90
       50
102
RTVSPost2010PropOp50
 70
     1
102
RTVSPost2010Prop51ColorIndex
 90
      256
102
RTVSPost2010Prop51ColorRGB
 90
-16777216
102
RTVSPost2010PropOp51
 70
     0
102
RTVSPost2010Prop52
140
1.0
102
RTVSPost2010PropOp52
 70
     0
102
RTVSPost2010Prop53
 90
        2
102
RTVSPost2010PropOp53
 70
     1
102
RTVSPost2010Prop54
  1
strokes_ogs.tif
102
RTVSPost2010PropOp54
 70
     1
102
RTVSPost2010Prop55
280
     0
102
RTVSPost2010PropOp55
 70
     1
102
RTVSPost2010Prop56
140
1.0
102
RTVSPost2010PropOp56
 70
     1
102
RTVSPost2010Prop57
140
1.0
102
RTVSPost2010PropOp57
 70
     1
  0
XRECORD
  5
387
102
{ACAD_REACTORS
330
386
102
}
330
386
100
AcDbXrecord
280
     1
102
RTVSPost2010Prop28
280
     0
102
RTVSPost2010PropOp28
 70
     1
102
RTVSPost2010Prop29
280
     1
102
RTVSPost2010PropOp29
 70
     1
102
RTVSPost2010Prop30
280
     1
102
RTVSPost2010PropOp30
 70
     1
102
RTVSPost2010Prop31
280
     0
102
RTVSPost2010PropOp31
 70
     1
102
RTVSPost2010Prop32
280
     0
102
RTVSPost2010PropOp32
 70
     1
102
RTVSPost2010Prop33
280
     0
102
RTVSPost2010PropOp33
 70
     1
102
RTVSPost2010Prop34
280
     0
102
RTVSPost2010PropOp34
 70
     1
102
RTVSPost2010Prop35
280
     0
102
RTVSPost2010PropOp35
 70
     1
102
RTVSPost2010Prop36
280
     0
102
RTVSPost2010PropOp36
 70
     1
102
RTVSPost2010Prop37
 90
       50
102
RTVSPost2010PropOp37
 70
     1
102
RTVSPost2010Prop38
140
0.0
102
RTVSPost2010PropOp38
 70
     1
102
RTVSPost2010Prop39
140
1.0
102
RTVSPost2010PropOp39
 70
     1
102
RTVSPost2010Prop40
 90
        0
102
RTVSPost2010PropOp40
 70
     1
102
RTVSPost2010Prop41ColorIndex
 90
       18
102
RTVSPost2010Prop41ColorRGB
 90
        0
102
RTVSPost2010PropOp41
 70
     1
102
RTVSPost2010Prop42
 90
       50
102
RTVSPost2010PropOp42
 70
     1
102
RTVSPost2010Prop43
 90
        3
102
RTVSPost2010PropOp43
 70
     1
102
RTVSPost2010Prop44ColorIndex
 90
        5
102
RTVSPost2010Prop44ColorRGB
 90
      255
102
RTVSPost2010PropOp44
 70
     1
102
RTVSPost2010Prop45
280
     0
102
RTVSPost2010PropOp45
 70
     1
102
RTVSPost2010Prop46
 90
       50
102
RTVSPost2010PropOp46
 70
     1
102
RTVSPost2010Prop47
 90
       50
102
RTVSPost2010PropOp47
 70
     1
102
RTVSPost2010Prop48
 90
       50
102
RTVSPost2010PropOp48
 70
     1
102
RTVSPost2010Prop49
280
     0
102
RTVSPost2010PropOp49
 70
     1
102
RTVSPost2010Prop50
 90
       50
102
RTVSPost2010PropOp50
 70
     1
102
RTVSPost2010Prop51ColorIndex
 90
      256
102
RTVSPost2010Prop51ColorRGB
 90
-16777216
102
RTVSPost2010PropOp51
 70
     0
102
RTVSPost2010Prop52
140
1.0
102
RTVSPost2010PropOp52
 70
     0
102
RTVSPost2010Prop53
 90
        2
102
RTVSPost2010PropOp53
 70
     1
102
RTVSPost2010Prop54
  1
strokes_ogs.tif
102
RTVSPost2010PropOp54
 70
     1
102
RTVSPost2010Prop55
280
     0
102
RTVSPost2010PropOp55
 70
     1
102
RTVSPost2010Prop56
140
1.0
102
RTVSPost2010PropOp56
 70
     1
102
RTVSPost2010Prop57
140
1.0
102
RTVSPost2010PropOp57
 70
     1
  0
XRECORD
  5
381
102
{ACAD_REACTORS
330
380
102
}
330
380
100
AcDbXrecord
280
     1
102
RTVSPost2010Prop28
280
     0
102
RTVSPost2010PropOp28
 70
     1
102
RTVSPost2010Prop29
280
     1
102
RTVSPost2010PropOp29
 70
     1
102
RTVSPost2010Prop30
280
     1
102
RTVSPost2010PropOp30
 70
     1
102
RTVSPost2010Prop31
280
     0
102
RTVSPost2010PropOp31
 70
     1
102
RTVSPost2010Prop32
280
     0
102
RTVSPost2010PropOp32
 70
     1
102
RTVSPost2010Prop33
280
     0
102
RTVSPost2010PropOp33
 70
     1
102
RTVSPost2010Prop34
280
     0
102
RTVSPost2010PropOp34
 70
     1
102
RTVSPost2010Prop35
280
     0
102
RTVSPost2010PropOp35
 70
     1
102
RTVSPost2010Prop36
280
     0
102
RTVSPost2010PropOp36
 70
     1
102
RTVSPost2010Prop37
 90
       50
102
RTVSPost2010PropOp37
 70
     1
102
RTVSPost2010Prop38
140
0.0
102
RTVSPost2010PropOp38
 70
     1
102
RTVSPost2010Prop39
140
1.0
102
RTVSPost2010PropOp39
 70
     1
102
RTVSPost2010Prop40
 90
        0
102
RTVSPost2010PropOp40
 70
     1
102
RTVSPost2010Prop41ColorIndex
 90
       18
102
RTVSPost2010Prop41ColorRGB
 90
        0
102
RTVSPost2010PropOp41
 70
     1
102
RTVSPost2010Prop42
 90
       50
102
RTVSPost2010PropOp42
 70
     1
102
RTVSPost2010Prop43
 90
        3
102
RTVSPost2010PropOp43
 70
     1
102
RTVSPost2010Prop44ColorIndex
 90
        5
102
RTVSPost2010Prop44ColorRGB
 90
      255
102
RTVSPost2010PropOp44
 70
     1
102
RTVSPost2010Prop45
280
     0
102
RTVSPost2010PropOp45
 70
     1
102
RTVSPost2010Prop46
 90
       50
102
RTVSPost2010PropOp46
 70
     1
102
RTVSPost2010Prop47
 90
       50
102
RTVSPost2010PropOp47
 70
     1
102
RTVSPost2010Prop48
 90
       50
102
RTVSPost2010PropOp48
 70
     1
102
RTVSPost2010Prop49
280
     0
102
RTVSPost2010PropOp49
 70
     1
102
RTVSPost2010Prop50
 90
       50
102
RTVSPost2010PropOp50
 70
     1
102
RTVSPost2010Prop51ColorIndex
 90
      256
102
RTVSPost2010Prop51ColorRGB
 90
-16777216
102
RTVSPost2010PropOp51
 70
     0
102
RTVSPost2010Prop52
140
1.0
102
RTVSPost2010PropOp52
 70
     0
102
RTVSPost2010Prop53
 90
        2
102
RTVSPost2010PropOp53
 70
     1
102
RTVSPost2010Prop54
  1
strokes_ogs.tif
102
RTVSPost2010PropOp54
 70
     1
102
RTVSPost2010Prop55
280
     0
102
RTVSPost2010PropOp55
 70
     1
102
RTVSPost2010Prop56
140
1.0
102
RTVSPost2010PropOp56
 70
     1
102
RTVSPost2010Prop57
140
1.0
102
RTVSPost2010PropOp57
 70
     1
  0
XRECORD
  5
383
102
{ACAD_REACTORS
330
382
102
}
330
382
100
AcDbXrecord
280
     1
102
RTVSPost2010Prop28
280
     0
102
RTVSPost2010PropOp28
 70
     1
102
RTVSPost2010Prop29
280
     1
102
RTVSPost2010PropOp29
 70
     1
102
RTVSPost2010Prop30
280
     1
102
RTVSPost2010PropOp30
 70
     1
102
RTVSPost2010Prop31
280
     0
102
RTVSPost2010PropOp31
 70
     1
102
RTVSPost2010Prop32
280
     0
102
RTVSPost2010PropOp32
 70
     1
102
RTVSPost2010Prop33
280
     0
102
RTVSPost2010PropOp33
 70
     1
102
RTVSPost2010Prop34
280
     0
102
RTVSPost2010PropOp34
 70
     1
102
RTVSPost2010Prop35
280
     0
102
RTVSPost2010PropOp35
 70
     1
102
RTVSPost2010Prop36
280
     0
102
RTVSPost2010PropOp36
 70
     1
102
RTVSPost2010Prop37
 90
       50
102
RTVSPost2010PropOp37
 70
     1
102
RTVSPost2010Prop38
140
0.0
102
RTVSPost2010PropOp38
 70
     1
102
RTVSPost2010Prop39
140
1.0
102
RTVSPost2010PropOp39
 70
     1
102
RTVSPost2010Prop40
 90
        0
102
RTVSPost2010PropOp40
 70
     1
102
RTVSPost2010Prop41ColorIndex
 90
       18
102
RTVSPost2010Prop41ColorRGB
 90
        0
102
RTVSPost2010PropOp41
 70
     1
102
RTVSPost2010Prop42
 90
       50
102
RTVSPost2010PropOp42
 70
     1
102
RTVSPost2010Prop43
 90
        3
102
RTVSPost2010PropOp43
 70
     1
102
RTVSPost2010Prop44ColorIndex
 90
        5
102
RTVSPost2010Prop44ColorRGB
 90
      255
102
RTVSPost2010PropOp44
 70
     1
102
RTVSPost2010Prop45
280
     0
102
RTVSPost2010PropOp45
 70
     1
102
RTVSPost2010Prop46
 90
       50
102
RTVSPost2010PropOp46
 70
     1
102
RTVSPost2010Prop47
 90
       50
102
RTVSPost2010PropOp47
 70
     1
102
RTVSPost2010Prop48
 90
       50
102
RTVSPost2010PropOp48
 70
     1
102
RTVSPost2010Prop49
280
     0
102
RTVSPost2010PropOp49
 70
     1
102
RTVSPost2010Prop50
 90
       50
102
RTVSPost2010PropOp50
 70
     1
102
RTVSPost2010Prop51ColorIndex
 90
      256
102
RTVSPost2010Prop51ColorRGB
 90
-16777216
102
RTVSPost2010PropOp51
 70
     0
102
RTVSPost2010Prop52
140
1.0
102
RTVSPost2010PropOp52
 70
     0
102
RTVSPost2010Prop53
 90
        2
102
RTVSPost2010PropOp53
 70
     1
102
RTVSPost2010Prop54
  1
strokes_ogs.tif
102
RTVSPost2010PropOp54
 70
     1
102
RTVSPost2010Prop55
280
     0
102
RTVSPost2010PropOp55
 70
     1
102
RTVSPost2010Prop56
140
1.0
102
RTVSPost2010PropOp56
 70
     1
102
RTVSPost2010Prop57
140
1.0
102
RTVSPost2010PropOp57
 70
     1
  0
XRECORD
  5
379
102
{ACAD_REACTORS
330
378
102
}
330
378
100
AcDbXrecord
280
     1
102
RTVSPost2010Prop28
280
     0
102
RTVSPost2010PropOp28
 70
     1
102
RTVSPost2010Prop29
280
     1
102
RTVSPost2010PropOp29
 70
     1
102
RTVSPost2010Prop30
280
     1
102
RTVSPost2010PropOp30
 70
     1
102
RTVSPost2010Prop31
280
     0
102
RTVSPost2010PropOp31
 70
     1
102
RTVSPost2010Prop32
280
     0
102
RTVSPost2010PropOp32
 70
     1
102
RTVSPost2010Prop33
280
     0
102
RTVSPost2010PropOp33
 70
     1
102
RTVSPost2010Prop34
280
     0
102
RTVSPost2010PropOp34
 70
     1
102
RTVSPost2010Prop35
280
     0
102
RTVSPost2010PropOp35
 70
     1
102
RTVSPost2010Prop36
280
     0
102
RTVSPost2010PropOp36
 70
     1
102
RTVSPost2010Prop37
 90
       50
102
RTVSPost2010PropOp37
 70
     1
102
RTVSPost2010Prop38
140
0.0
102
RTVSPost2010PropOp38
 70
     1
102
RTVSPost2010Prop39
140
1.0
102
RTVSPost2010PropOp39
 70
     1
102
RTVSPost2010Prop40
 90
        0
102
RTVSPost2010PropOp40
 70
     1
102
RTVSPost2010Prop41ColorIndex
 90
       18
102
RTVSPost2010Prop41ColorRGB
 90
        0
102
RTVSPost2010PropOp41
 70
     1
102
RTVSPost2010Prop42
 90
       50
102
RTVSPost2010PropOp42
 70
     1
102
RTVSPost2010Prop43
 90
        3
102
RTVSPost2010PropOp43
 70
     1
102
RTVSPost2010Prop44ColorIndex
 90
        5
102
RTVSPost2010Prop44ColorRGB
 90
      255
102
RTVSPost2010PropOp44
 70
     1
102
RTVSPost2010Prop45
280
     0
102
RTVSPost2010PropOp45
 70
     1
102
RTVSPost2010Prop46
 90
       50
102
RTVSPost2010PropOp46
 70
     1
102
RTVSPost2010Prop47
 90
       50
102
RTVSPost2010PropOp47
 70
     1
102
RTVSPost2010Prop48
 90
       50
102
RTVSPost2010PropOp48
 70
     1
102
RTVSPost2010Prop49
280
     0
102
RTVSPost2010PropOp49
 70
     1
102
RTVSPost2010Prop50
 90
       50
102
RTVSPost2010PropOp50
 70
     1
102
RTVSPost2010Prop51ColorIndex
 90
      256
102
RTVSPost2010Prop51ColorRGB
 90
-16777216
102
RTVSPost2010PropOp51
 70
     0
102
RTVSPost2010Prop52
140
1.0
102
RTVSPost2010PropOp52
 70
     0
102
RTVSPost2010Prop53
 90
        2
102
RTVSPost2010PropOp53
 70
     1
102
RTVSPost2010Prop54
  1
strokes_ogs.tif
102
RTVSPost2010PropOp54
 70
     1
102
RTVSPost2010Prop55
280
     0
102
RTVSPost2010PropOp55
 70
     1
102
RTVSPost2010Prop56
140
1.0
102
RTVSPost2010PropOp56
 70
     1
102
RTVSPost2010Prop57
140
1.0
102
RTVSPost2010PropOp57
 70
     1
  0
XRECORD
  5
36D
102
{ACAD_REACTORS
330
36C
102
}
330
36C
100
AcDbXrecord
280
     1
102
RTVSPost2010Prop28
280
     0
102
RTVSPost2010PropOp28
 70
     1
102
RTVSPost2010Prop29
280
     1
102
RTVSPost2010PropOp29
 70
     1
102
RTVSPost2010Prop30
280
     1
102
RTVSPost2010PropOp30
 70
     1
102
RTVSPost2010Prop31
280
     0
102
RTVSPost2010PropOp31
 70
     1
102
RTVSPost2010Prop32
280
     0
102
RTVSPost2010PropOp32
 70
     1
102
RTVSPost2010Prop33
280
     0
102
RTVSPost2010PropOp33
 70
     1
102
RTVSPost2010Prop34
280
     0
102
RTVSPost2010PropOp34
 70
     1
102
RTVSPost2010Prop35
280
     0
102
RTVSPost2010PropOp35
 70
     1
102
RTVSPost2010Prop36
280
     0
102
RTVSPost2010PropOp36
 70
     1
102
RTVSPost2010Prop37
 90
       50
102
RTVSPost2010PropOp37
 70
     1
102
RTVSPost2010Prop38
140
0.0
102
RTVSPost2010PropOp38
 70
     1
102
RTVSPost2010Prop39
140
1.0
102
RTVSPost2010PropOp39
 70
     1
102
RTVSPost2010Prop40
 90
        0
102
RTVSPost2010PropOp40
 70
     1
102
RTVSPost2010Prop41ColorIndex
 90
       18
102
RTVSPost2010Prop41ColorRGB
 90
        0
102
RTVSPost2010PropOp41
 70
     1
102
RTVSPost2010Prop42
 90
       50
102
RTVSPost2010PropOp42
 70
     1
102
RTVSPost2010Prop43
 90
        3
102
RTVSPost2010PropOp43
 70
     1
102
RTVSPost2010Prop44ColorIndex
 90
        5
102
RTVSPost2010Prop44ColorRGB
 90
      255
102
RTVSPost2010PropOp44
 70
     1
102
RTVSPost2010Prop45
280
     0
102
RTVSPost2010PropOp45
 70
     1
102
RTVSPost2010Prop46
 90
       50
102
RTVSPost2010PropOp46
 70
     1
102
RTVSPost2010Prop47
 90
       50
102
RTVSPost2010PropOp47
 70
     1
102
RTVSPost2010Prop48
 90
       50
102
RTVSPost2010PropOp48
 70
     1
102
RTVSPost2010Prop49
280
     0
102
RTVSPost2010PropOp49
 70
     1
102
RTVSPost2010Prop50
 90
       50
102
RTVSPost2010PropOp50
 70
     1
102
RTVSPost2010Prop51ColorIndex
 90
      256
102
RTVSPost2010Prop51ColorRGB
 90
-16777216
102
RTVSPost2010PropOp51
 70
     0
102
RTVSPost2010Prop52
140
1.0
102
RTVSPost2010PropOp52
 70
     0
102
RTVSPost2010Prop53
 90
        2
102
RTVSPost2010PropOp53
 70
     1
102
RTVSPost2010Prop54
  1
strokes_ogs.tif
102
RTVSPost2010PropOp54
 70
     1
102
RTVSPost2010Prop55
280
     0
102
RTVSPost2010PropOp55
 70
     1
102
RTVSPost2010Prop56
140
1.0
102
RTVSPost2010PropOp56
 70
     1
102
RTVSPost2010Prop57
140
1.0
102
RTVSPost2010PropOp57
 70
     1
  0
XRECORD
  5
385
102
{ACAD_REACTORS
330
384
102
}
330
384
100
AcDbXrecord
280
     1
102
RTVSPost2010Prop28
280
     0
102
RTVSPost2010PropOp28
 70
     1
102
RTVSPost2010Prop29
280
     1
102
RTVSPost2010PropOp29
 70
     1
102
RTVSPost2010Prop30
280
     1
102
RTVSPost2010PropOp30
 70
     1
102
RTVSPost2010Prop31
280
     0
102
RTVSPost2010PropOp31
 70
     1
102
RTVSPost2010Prop32
280
     0
102
RTVSPost2010PropOp32
 70
     1
102
RTVSPost2010Prop33
280
     0
102
RTVSPost2010PropOp33
 70
     1
102
RTVSPost2010Prop34
280
     0
102
RTVSPost2010PropOp34
 70
     1
102
RTVSPost2010Prop35
280
     0
102
RTVSPost2010PropOp35
 70
     1
102
RTVSPost2010Prop36
280
     0
102
RTVSPost2010PropOp36
 70
     1
102
RTVSPost2010Prop37
 90
       50
102
RTVSPost2010PropOp37
 70
     1
102
RTVSPost2010Prop38
140
0.0
102
RTVSPost2010PropOp38
 70
     1
102
RTVSPost2010Prop39
140
1.0
102
RTVSPost2010PropOp39
 70
     1
102
RTVSPost2010Prop40
 90
        0
102
RTVSPost2010PropOp40
 70
     1
102
RTVSPost2010Prop41ColorIndex
 90
       18
102
RTVSPost2010Prop41ColorRGB
 90
        0
102
RTVSPost2010PropOp41
 70
     1
102
RTVSPost2010Prop42
 90
       50
102
RTVSPost2010PropOp42
 70
     1
102
RTVSPost2010Prop43
 90
        3
102
RTVSPost2010PropOp43
 70
     1
102
RTVSPost2010Prop44ColorIndex
 90
        5
102
RTVSPost2010Prop44ColorRGB
 90
      255
102
RTVSPost2010PropOp44
 70
     1
102
RTVSPost2010Prop45
280
     0
102
RTVSPost2010PropOp45
 70
     1
102
RTVSPost2010Prop46
 90
       50
102
RTVSPost2010PropOp46
 70
     1
102
RTVSPost2010Prop47
 90
       50
102
RTVSPost2010PropOp47
 70
     1
102
RTVSPost2010Prop48
 90
       50
102
RTVSPost2010PropOp48
 70
     1
102
RTVSPost2010Prop49
280
     0
102
RTVSPost2010PropOp49
 70
     1
102
RTVSPost2010Prop50
 90
       50
102
RTVSPost2010PropOp50
 70
     1
102
RTVSPost2010Prop51ColorIndex
 90
      256
102
RTVSPost2010Prop51ColorRGB
 90
-16777216
102
RTVSPost2010PropOp51
 70
     0
102
RTVSPost2010Prop52
140
1.0
102
RTVSPost2010PropOp52
 70
     0
102
RTVSPost2010Prop53
 90
        2
102
RTVSPost2010PropOp53
 70
     1
102
RTVSPost2010Prop54
  1
strokes_ogs.tif
102
RTVSPost2010PropOp54
 70
     1
102
RTVSPost2010Prop55
280
     0
102
RTVSPost2010PropOp55
 70
     1
102
RTVSPost2010Prop56
140
1.0
102
RTVSPost2010PropOp56
 70
     1
102
RTVSPost2010Prop57
140
1.0
102
RTVSPost2010PropOp57
 70
     1
  0
ENDSEC
  0
EOF
