  0
SECTION
  2
HEADER
  9
$ACADVER
  1
AC1024
  9
$ACADMAINTVER
 70
   182
  9
$DWGCODEPAGE
  3
ANSI_1252
  9
$LASTSAVEDBY
  1
gf659
  9
$INSBASE
 10
0.0
 20
0.0
 30
0.0
  9
$EXTMIN
 10
0.0
 20
-17.974777060097
 30
0.0
  9
$EXTMAX
 10
419.9998589409721
 20
298.7101047092013
 30
0.0
  9
$LIMMIN
 10
0.0
 20
0.0
  9
$LIMMAX
 10
419.9998589409721
 20
298.7101047092013
  9
$ORTHOMODE
 70
     0
  9
$REGENMODE
 70
     1
  9
$FILLMODE
 70
     1
  9
$QTEXTMODE
 70
     0
  9
$MIRRTEXT
 70
     1
  9
$LTSCALE
 40
1.0
  9
$ATTMODE
 70
     1
  9
$TEXTSIZE
 40
0.0
  9
$TRACEWID
 40
0.05
  9
$TEXTSTYLE
  7
Standard
  9
$CLAYER
  8
0
  9
$CELTYPE
  6
Continuous
  9
$CECOLOR
 62
   256
  9
$CELTSCALE
 40
1.0
  9
$DISPSILH
 70
     0
  9
$DIMSCALE
 40
1.0
  9
$DIMASZ
 40
0.18
  9
$DIMEXO
 40
0.0625
  9
$DIMDLI
 40
0.38
  9
$DIMRND
 40
0.0
  9
$DIMDLE
 40
0.0
  9
$DIMEXE
 40
0.18
  9
$DIMTP
 40
0.0
  9
$DIMTM
 40
0.0
  9
$DIMTXT
 40
0.18
  9
$DIMCEN
 40
0.09
  9
$DIMTSZ
 40
0.0
  9
$DIMTOL
 70
     0
  9
$DIMLIM
 70
     0
  9
$DIMTIH
 70
     1
  9
$DIMTOH
 70
     1
  9
$DIMSE1
 70
     0
  9
$DIMSE2
 70
     0
  9
$DIMTAD
 70
     0
  9
$DIMZIN
 70
     0
  9
$DIMBLK
  1

  9
$DIMASO
 70
     1
  9
$DIMSHO
 70
     1
  9
$DIMPOST
  1

  9
$DIMAPOST
  1

  9
$DIMALT
 70
     0
  9
$DIMALTD
 70
     2
  9
$DIMALTF
 40
25.4
  9
$DIMLFAC
 40
1.0
  9
$DIMTOFL
 70
     0
  9
$DIMTVP
 40
0.0
  9
$DIMTIX
 70
     0
  9
$DIMSOXD
 70
     0
  9
$DIMSAH
 70
     0
  9
$DIMBLK1
  1

  9
$DIMBLK2
  1

  9
$DIMSTYLE
  2
Standard
  9
$DIMCLRD
 70
     0
  9
$DIMCLRE
 70
     0
  9
$DIMCLRT
 70
     0
  9
$DIMTFAC
 40
1.0
  9
$DIMGAP
 40
0.09
  9
$DIMJUST
 70
     0
  9
$DIMSD1
 70
     0
  9
$DIMSD2
 70
     0
  9
$DIMTOLJ
 70
     1
  9
$DIMTZIN
 70
     0
  9
$DIMALTZ
 70
     0
  9
$DIMALTTZ
 70
     0
  9
$DIMUPT
 70
     0
  9
$DIMDEC
 70
     4
  9
$DIMTDEC
 70
     4
  9
$DIMALTU
 70
     2
  9
$DIMALTTD
 70
     2
  9
$DIMTXSTY
  7
Standard
  9
$DIMAUNIT
 70
     0
  9
$DIMADEC
 70
     0
  9
$DIMALTRND
 40
0.0
  9
$DIMAZIN
 70
     0
  9
$DIMDSEP
 70
     0
  9
$DIMATFIT
 70
     3
  9
$DIMFRAC
 70
     0
  9
$DIMLDRBLK
  1

  9
$DIMLUNIT
 70
     2
  9
$DIMLWD
 70
     0
  9
$DIMLWE
 70
     0
  9
$DIMTMOVE
 70
     0
  9
$DIMFXL
 40
1.0
  9
$DIMFXLON
 70
     0
  9
$DIMJOGANG
 40
0.7853981633974483
  9
$DIMTFILL
 70
     0
  9
$DIMTFILLCLR
 70
     0
  9
$DIMARCSYM
 70
     0
  9
$DIMLTYPE
  6

  9
$DIMLTEX1
  6

  9
$DIMLTEX2
  6

  9
$DIMTXTDIRECTION
 70
     0
  9
$LUNITS
 70
     2
  9
$LUPREC
 70
     4
  9
$SKETCHINC
 40
0.1
  9
$FILLETRAD
 40
0.0
  9
$AUNITS
 70
     0
  9
$AUPREC
 70
     0
  9
$MENU
  1
acad
  9
$ELEVATION
 40
0.0
  9
$PELEVATION
 40
0.0
  9
$THICKNESS
 40
0.0
  9
$LIMCHECK
 70
     0
  9
$CHAMFERA
 40
0.0
  9
$CHAMFERB
 40
0.0
  9
$CHAMFERC
 40
0.0
  9
$CHAMFERD
 40
0.0
  9
$SKPOLY
 70
     0
  9
$TDCREATE
 40
2457267.509013958
  9
$TDUCREATE
 40
2457267.467347292
  9
$TDUPDATE
 40
2457267.510079734
  9
$TDUUPDATE
 40
2457267.468413067
  9
$TDINDWG
 40
0.0010666667
  9
$TDUSRTIMER
 40
0.0010666667
  9
$USRTIMER
 70
     1
  9
$ANGBASE
 50
0.0
  9
$ANGDIR
 70
     0
  9
$PDMODE
 70
     0
  9
$PDSIZE
 40
0.0
  9
$PLINEWID
 40
0.0
  9
$SPLFRAME
 70
     0
  9
$SPLINETYPE
 70
     6
  9
$SPLINESEGS
 70
     8
  9
$HANDSEED
  5
44F
  9
$SURFTAB1
 70
     6
  9
$SURFTAB2
 70
     6
  9
$SURFTYPE
 70
     6
  9
$SURFU
 70
     6
  9
$SURFV
 70
     6
  9
$UCSBASE
  2

  9
$UCSNAME
  2

  9
$UCSORG
 10
0.0
 20
0.0
 30
0.0
  9
$UCSXDIR
 10
1.0
 20
0.0
 30
0.0
  9
$UCSYDIR
 10
0.0
 20
1.0
 30
0.0
  9
$UCSORTHOREF
  2

  9
$UCSORTHOVIEW
 70
     0
  9
$UCSORGTOP
 10
0.0
 20
0.0
 30
0.0
  9
$UCSORGBOTTOM
 10
0.0
 20
0.0
 30
0.0
  9
$UCSORGLEFT
 10
0.0
 20
0.0
 30
0.0
  9
$UCSORGRIGHT
 10
0.0
 20
0.0
 30
0.0
  9
$UCSORGFRONT
 10
0.0
 20
0.0
 30
0.0
  9
$UCSORGBACK
 10
0.0
 20
0.0
 30
0.0
  9
$PUCSBASE
  2

  9
$PUCSNAME
  2

  9
$PUCSORG
 10
0.0
 20
0.0
 30
0.0
  9
$PUCSXDIR
 10
1.0
 20
0.0
 30
0.0
  9
$PUCSYDIR
 10
0.0
 20
1.0
 30
0.0
  9
$PUCSORTHOREF
  2

  9
$PUCSORTHOVIEW
 70
     0
  9
$PUCSORGTOP
 10
0.0
 20
0.0
 30
0.0
  9
$PUCSORGBOTTOM
 10
0.0
 20
0.0
 30
0.0
  9
$PUCSORGLEFT
 10
0.0
 20
0.0
 30
0.0
  9
$PUCSORGRIGHT
 10
0.0
 20
0.0
 30
0.0
  9
$PUCSORGFRONT
 10
0.0
 20
0.0
 30
0.0
  9
$PUCSORGBACK
 10
0.0
 20
0.0
 30
0.0
  9
$USERI1
 70
     0
  9
$USERI2
 70
     0
  9
$USERI3
 70
     0
  9
$USERI4
 70
     0
  9
$USERI5
 70
     0
  9
$USERR1
 40
0.0
  9
$USERR2
 40
0.0
  9
$USERR3
 40
0.0
  9
$USERR4
 40
0.0
  9
$USERR5
 40
0.0
  9
$WORLDVIEW
 70
     1
  9
$SHADEDGE
 70
     3
  9
$SHADEDIF
 70
    70
  9
$TILEMODE
 70
     1
  9
$MAXACTVP
 70
    16
  9
$PINSBASE
 10
0.0
 20
0.0
 30
0.0
  9
$PLIMCHECK
 70
     0
  9
$PEXTMIN
 10
1.000000000000000E+20
 20
1.000000000000000E+20
 30
1.000000000000000E+20
  9
$PEXTMAX
 10
-1.000000000000000E+20
 20
-1.000000000000000E+20
 30
-1.000000000000000E+20
  9
$PLIMMIN
 10
0.0
 20
0.0
  9
$PLIMMAX
 10
12.0
 20
9.0
  9
$UNITMODE
 70
     0
  9
$VISRETAIN
 70
     0
  9
$PLINEGEN
 70
     1
  9
$PSLTSCALE
 70
     0
  9
$TREEDEPTH
 70
  3020
  9
$CMLSTYLE
  2
Standard
  9
$CMLJUST
 70
     0
  9
$CMLSCALE
 40
1.0
  9
$PROXYGRAPHICS
 70
     0
  9
$MEASUREMENT
 70
     1
  9
$CELWEIGHT
370
     0
  9
$ENDCAPS
280
     0
  9
$JOINSTYLE
280
     0
  9
$LWDISPLAY
290
     0
  9
$INSUNITS
 70
     0
  9
$HYPERLINKBASE
  1

  9
$STYLESHEET
  1

  9
$XEDIT
290
     1
  9
$CEPSNTYPE
380
     0
  9
$PSTYLEMODE
290
     1
  9
$FINGERPRINTGUID
  2

  9
$VERSIONGUID
  2

  9
$EXTNAMES
290
     1
  9
$PSVPSCALE
 40
0.0
  9
$OLESTARTUP
290
     0
  9
$SORTENTS
280
   127
  9
$INDEXCTL
280
     0
  9
$HIDETEXT
280
     0
  9
$XCLIPFRAME
280
     2
  9
$HALOGAP
280
     0
  9
$OBSCOLOR
 70
   257
  9
$OBSLTYPE
280
     0
  9
$INTERSECTIONDISPLAY
280
     0
  9
$INTERSECTIONCOLOR
 70
   257
  9
$DIMASSOC
280
     1
  9
$PROJECTNAME
  1

  9
$CAMERADISPLAY
290
     0
  9
$LENSLENGTH
 40
50.0
  9
$CAMERAHEIGHT
 40
0.0
  9
$STEPSPERSEC
 40
2.0
  9
$STEPSIZE
 40
6.0
  9
$3DDWFPREC
 40
2.0
  9
$PSOLWIDTH
 40
0.25
  9
$PSOLHEIGHT
 40
4.0
  9
$LOFTANG1
 40
1.570796326794896
  9
$LOFTANG2
 40
1.570796326794896
  9
$LOFTMAG1
 40
0.0
  9
$LOFTMAG2
 40
0.0
  9
$LOFTPARAM
 70
     7
  9
$LOFTNORMALS
280
     1
  9
$LATITUDE
 40
37.795
  9
$LONGITUDE
 40
-122.394
  9
$NORTHDIRECTION
 40
0.0
  9
$TIMEZONE
 70
 -8000
  9
$LIGHTGLYPHDISPLAY
280
     1
  9
$TILEMODELIGHTSYNCH
280
     1
  9
$CMATERIAL
347
375
  9
$SOLIDHIST
280
     0
  9
$SHOWHIST
280
     1
  9
$DWFFRAME
280
     2
  9
$DGNFRAME
280
     0
  9
$REALWORLDSCALE
290
     1
  9
$INTERFERECOLOR
 62
     1
  9
$INTERFEREOBJVS
345
397
  9
$INTERFEREVPVS
346
394
  9
$CSHADOW
280
     0
  9
$SHADOWPLANELOCATION
 40
0.0
  0
ENDSEC
  0
SECTION
  2
CLASSES
  0
CLASS
  1
IMAGE
  2
AcDbRasterImage
  3
ISM
 90
     2175
 91
        3
280
     0
281
     1
  0
CLASS
  1
DICTIONARYVAR
  2
AcDbDictionaryVar
  3
ObjectDBX Classes
 90
        0
 91
       18
280
     0
281
     0
  0
CLASS
  1
RASTERVARIABLES
  2
AcDbRasterVariables
  3
ISM
 90
        0
 91
        1
280
     0
281
     0
  0
CLASS
  1
IMAGEDEF
  2
AcDbRasterImageDef
  3
ISM
 90
        0
 91
        3
280
     0
281
     0
  0
CLASS
  1
IMAGEDEF_REACTOR
  2
AcDbRasterImageDefReactor
  3
ISM
 90
        1
 91
        3
280
     0
281
     0
  0
CLASS
  1
IDBUFFER
  2
AcDbIdBuffer
  3
ObjectDBX Classes
 90
        0
 91
        0
280
     0
281
     0
  0
CLASS
  1
SPATIAL_FILTER
  2
AcDbSpatialFilter
  3
ObjectDBX Classes
 90
        0
 91
        0
280
     0
281
     0
  0
CLASS
  1
SORTENTSTABLE
  2
AcDbSortentsTable
  3
ObjectDBX Classes
 90
        0
 91
        0
280
     0
281
     0
  0
CLASS
  1
LAYER_INDEX
  2
AcDbLayerIndex
  3
ObjectDBX Classes
 90
        0
 91
        0
280
     0
281
     0
  0
CLASS
  1
SPATIAL_INDEX
  2
AcDbSpatialIndex
  3
ObjectDBX Classes
 90
        0
 91
        0
280
     0
281
     0
  0
CLASS
  1
OBJECT_PTR
  2
CAseDLPNTableRecord
  3
"ASE-LPNTableRecord"
 90
        1
 91
        0
280
     0
281
     0
  0
CLASS
  1
PLOTSETTINGS
  2
AcDbPlotSettings
  3
ObjectDBX Classes
 90
        0
 91
        0
280
     0
281
     0
  0
CLASS
  1
ACDBDICTIONARYWDFLT
  2
AcDbDictionaryWithDefault
  3
ObjectDBX Classes
 90
        0
 91
        1
280
     0
281
     0
  0
CLASS
  1
WIPEOUT
  2
AcDbWipeout
  3
WipeOut|Product Desc: Object Enabler for WipeOut entity | Company: Autodesk, Inc. | WEB Address: www.autodesk.com
 90
     2175
 91
        0
280
     0
281
     1
  0
CLASS
  1
WIPEOUTVARIABLES
  2
AcDbWipeoutVariables
  3
"WipeOut|Product Desc:     WipeOut Dbx Application|Company:          Autodesk, Inc.|WEB Address:      www.autodesk.com"
 90
        0
 91
        1
280
     0
281
     0
  0
CLASS
  1
RTEXT
  2
RText
  3
RText|AutoCAD Express Tool|expresstools@autodesk.com
 90
        0
 91
        0
280
     0
281
     1
  0
CLASS
  1
ARCALIGNEDTEXT
  2
AcDbArcAlignedText
  3
ATEXT|AutoCAD Express Tool|expresstools@autodesk.com
 90
        0
 91
        0
280
     0
281
     1
  0
CLASS
  1
MATERIAL
  2
AcDbMaterial
  3
ObjectDBX Classes
 90
     1153
 91
        3
280
     0
281
     0
  0
CLASS
  1
VISUALSTYLE
  2
AcDbVisualStyle
  3
ObjectDBX Classes
 90
     4095
 91
       24
280
     0
281
     0
  0
CLASS
  1
TABLESTYLE
  2
AcDbTableStyle
  3
ObjectDBX Classes
 90
     4095
 91
        1
280
     0
281
     0
  0
CLASS
  1
SCALE
  2
AcDbScale
  3
ObjectDBX Classes
 90
     1153
 91
       17
280
     0
281
     0
  0
CLASS
  1
MLEADERSTYLE
  2
AcDbMLeaderStyle
  3
ACDB_MLEADERSTYLE_CLASS
 90
     4095
 91
        1
280
     0
281
     0
  0
CLASS
  1
ACDBSECTIONVIEWSTYLE
  2
AcDbSectionViewStyle
  3
ObjectDBX Classes
 90
     1025
 91
        1
280
     0
281
     0
  0
CLASS
  1
ACDBDETAILVIEWSTYLE
  2
AcDbDetailViewStyle
  3
ObjectDBX Classes
 90
     1025
 91
        1
280
     0
281
     0
  0
CLASS
  1
CELLSTYLEMAP
  2
AcDbCellStyleMap
  3
ObjectDBX Classes
 90
     1152
 91
        1
280
     0
281
     0
  0
ENDSEC
  0
SECTION
  2
TABLES
  0
TABLE
  2
VPORT
  5
7
330
0
100
AcDbSymbolTable
 70
     1
  0
VPORT
  5
15
330
7
100
AcDbSymbolTableRecord
100
AcDbViewportTableRecord
  2
*ACTIVE
 70
     0
 10
0.0
 20
0.0
 11
1.0
 21
1.0
 12
11.16643954103877
 22
4.579183999999999
 13
0.0
 23
0.0
 14
1.0
 24
1.0
 15
0.0
 25
0.0
 16
0.0
 26
0.0
 36
1.0
 17
0.0
 27
0.0
 37
0.0
 40
8.769507065885798
 41
1.762633996937212
 42
50.0
 43
0.0
 44
0.0
 50
0.0
 51
0.0
 71
     0
 72
   100
 73
     1
 74
     1
 75
     0
 76
     0
 77
     0
 78
     0
281
     0
 65
     0
110
0.0
120
0.0
130
0.0
111
1.0
121
0.0
131
0.0
112
0.0
122
1.0
132
0.0
 79
     0
146
0.0
348
393
 60
     3
 61
     5
292
     1
282
     1
141
0.0
142
0.0
 63
   250
421
  3355443
1001
ACAD_NAV_VCDISPLAY
1070
     3
  0
ENDTAB
  0
TABLE
  2
LTYPE
  5
4
330
0
100
AcDbSymbolTable
 70
     4
  0
LTYPE
  5
11
330
4
100
AcDbSymbolTableRecord
100
AcDbLinetypeTableRecord
  2
ByBlock
 70
     0
  3

 72
    65
 73
     0
 40
0.0
  0
LTYPE
  5
12
330
4
100
AcDbSymbolTableRecord
100
AcDbLinetypeTableRecord
  2
ByLayer
 70
     0
  3

 72
    65
 73
     0
 40
0.0
  0
LTYPE
  5
13
330
4
100
AcDbSymbolTableRecord
100
AcDbLinetypeTableRecord
  2
Continuous
 70
     0
  3
Solid line
 72
    65
 73
     0
 40
0.0
  0
LTYPE
  5
1D7
330
4
100
AcDbSymbolTableRecord
100
AcDbLinetypeTableRecord
  2
AI9-LType1
 70
     0
  3
Illustrator Dash Style No.1
 72
    65
 73
     4
 40
3.174999999999999
 49
0.3527777777777778
 74
     0
 49
-0.7055555555555556
 74
     0
 49
1.41111111111111
 74
     0
 49
-0.7055555555555556
 74
     0
  0
LTYPE
  5
290
330
4
100
AcDbSymbolTableRecord
100
AcDbLinetypeTableRecord
  2
AI9-LType2
 70
     0
  3
Illustrator Dash Style No.2
 72
    65
 73
     4
 40
4.233333333333332
 49
1.058333333333333
 74
     0
 49
-1.058333333333333
 74
     0
 49
1.058333333333333
 74
     0
 49
-1.058333333333333
 74
     0
  0
LTYPE
  5
292
330
4
100
AcDbSymbolTableRecord
100
AcDbLinetypeTableRecord
  2
AI9-LType3
 70
     0
  3
Illustrator Dash Style No.3
 72
    65
 73
     4
 40
4.233333333333332
 49
1.058333333333333
 74
     0
 49
-1.058333333333333
 74
     0
 49
1.058333333333333
 74
     0
 49
-1.058333333333333
 74
     0
  0
ENDTAB
  0
TABLE
  2
LAYER
  5
2
330
0
100
AcDbSymbolTable
 70
     2
  0
LAYER
  5
14
102
{ACAD_XDICTIONARY
360
3C7
102
}
330
2
100
AcDbSymbolTableRecord
100
AcDbLayerTableRecord
  2
0
 70
     0
 62
     7
  6
Continuous
370
    -3
390
1D
347
385
  0
LAYER
  5
28
102
{ACAD_XDICTIONARY
360
3C9
102
}
330
2
100
AcDbSymbolTableRecord
100
AcDbLayerTableRecord
  2
LAYER_1
 70
     0
 62
   160
  6
Continuous
370
    -3
390
1D
347
385
  0
ENDTAB
  0
TABLE
  2
STYLE
  5
3
330
0
100
AcDbSymbolTable
 70
     5
  0
STYLE
  5
17
330
3
100
AcDbSymbolTableRecord
100
AcDbTextStyleTableRecord
  2
Standard
 70
     0
 40
0.0
 41
1.0
 50
0.0
 71
     0
 42
0.0
  3
txt
  4

  0
STYLE
  5
24
330
3
100
AcDbSymbolTableRecord
100
AcDbTextStyleTableRecord
  2
STD
 70
     0
 40
0.0
 41
1.0
 50
0.0
 71
     0
 42
0.0
  3
txt
  4

  0
STYLE
  5
25
330
3
100
AcDbSymbolTableRecord
100
AcDbTextStyleTableRecord
  2
TATESTD
 70
     4
 40
0.0
 41
1.0
 50
0.0
 71
     0
 42
0.0
  3
txt
  4

  0
STYLE
  5
26
330
3
100
AcDbSymbolTableRecord
100
AcDbTextStyleTableRecord
  2
KANJISTD
 70
     0
 40
0.0
 41
1.0
 50
0.0
 71
     0
 42
0.0
  3
txt
  4
extfont
  0
STYLE
  5
27
330
3
100
AcDbSymbolTableRecord
100
AcDbTextStyleTableRecord
  2
KANJITATE
 70
     4
 40
0.0
 41
1.0
 50
0.0
 71
     0
 42
0.0
  3
txt
  4
extfont
  0
ENDTAB
  0
TABLE
  2
VIEW
  5
5
330
0
100
AcDbSymbolTable
 70
     0
  0
ENDTAB
  0
TABLE
  2
UCS
  5
6
330
0
100
AcDbSymbolTable
 70
     0
  0
ENDTAB
  0
TABLE
  2
APPID
  5
8
330
0
100
AcDbSymbolTable
 70
     2
  0
APPID
  5
16
330
8
100
AcDbSymbolTableRecord
100
AcDbRegAppTableRecord
  2
ACAD
 70
     0
  0
APPID
  5
3CB
330
8
100
AcDbSymbolTableRecord
100
AcDbRegAppTableRecord
  2
ACAD_NAV_VCDISPLAY
 70
     0
  0
ENDTAB
  0
TABLE
  2
DIMSTYLE
  5
9
330
0
100
AcDbSymbolTable
 70
     1
100
AcDbDimStyleTable
 71
     0
  0
DIMSTYLE
105
18
330
9
100
AcDbSymbolTableRecord
100
AcDbDimStyleTableRecord
  2
Standard
 70
     0
289
     0
340
17
  0
ENDTAB
  0
TABLE
  2
BLOCK_RECORD
  5
1
330
0
100
AcDbSymbolTable
 70
     3
  0
BLOCK_RECORD
  5
A
330
1
100
AcDbSymbolTableRecord
100
AcDbBlockTableRecord
  2
*MODEL_SPACE
340
20
 70
     0
280
     1
281
     0
  0
BLOCK_RECORD
  5
B
330
1
100
AcDbSymbolTableRecord
100
AcDbBlockTableRecord
  2
*PAPER_SPACE
340
21
 70
     0
280
     1
281
     0
  0
BLOCK_RECORD
  5
78
330
1
100
AcDbSymbolTableRecord
100
AcDbBlockTableRecord
  2
AI9-BLK1
340
0
102
{BLKREFS
331
79
102
}
 70
     0
280
     1
281
     0
  0
BLOCK_RECORD
  5
7F
330
1
100
AcDbSymbolTableRecord
100
AcDbBlockTableRecord
  2
AI9-BLK2
340
0
102
{BLKREFS
331
80
102
}
 70
     0
280
     1
281
     0
  0
BLOCK_RECORD
  5
341
330
1
100
AcDbSymbolTableRecord
100
AcDbBlockTableRecord
  2
AI9-BLK3
340
0
102
{BLKREFS
331
342
102
}
 70
     0
280
     1
281
     0
  0
ENDTAB
  0
ENDSEC
  0
SECTION
  2
BLOCKS
  0
BLOCK
  5
D
330
A
100
AcDbEntity
  8
0
100
AcDbBlockBegin
  2
*MODEL_SPACE
 70
     0
 10
0.0
 20
0.0
 30
0.0
  3
*MODEL_SPACE
  1

  0
ENDBLK
  5
E
330
A
100
AcDbEntity
  8
0
100
AcDbBlockEnd
  0
BLOCK
  5
F
330
B
100
AcDbEntity
 67
     1
  8
0
100
AcDbBlockBegin
  2
*PAPER_SPACE
 70
     0
 10
0.0
 20
0.0
 30
0.0
  3
*PAPER_SPACE
  1

  0
ENDBLK
  5
10
330
B
100
AcDbEntity
 67
     1
  8
0
100
AcDbBlockEnd
  0
BLOCK
  5
7A
330
78
100
AcDbEntity
  8
LAYER_1
 62
     7
100
AcDbBlockBegin
  2
AI9-BLK1
 70
     0
 10
0.0
 20
0.0
 30
0.0
  3
AI9-BLK1
  1

  0
IMAGE
  5
7B
330
78
100
AcDbEntity
  8
LAYER_1
 62
     7
160
               296
310
28010000030000009400000024000000D2277DD2E5174BC0388EE333E95144C0000000000000008000000000000000000000000000000000000000000000F03F000000000000F03F000000000000000000000000000000000000000000000000000000000000F03F0000000000000000410063004400620052006100730074
310
006500720049006D0061006700650020002800490053004D0029000000840000000600000005000000D2277DD2E5174BC0388EE333E95144C00000000000000080F2499FB4E3174B40388EE333E95144C00000000000000080F2499FB4E3174B40C8711CC7ED5144400000000000000080D2277DD2E5174BC0C8711CC7ED51
310
44400000000000000080D2277DD2E5174BC0388EE333E95144C000000000000000800800000015000000
100
AcDbRasterImage
 90
        0
 10
-54.18670111762152
 20
-40.63992928134069
 30
0.0
 11
0.0423333350155089
 21
0.0
 31
0.0
 12
0.0
 22
0.0423333323871096
 32
0.0
 13
2560.0
 23
1920.0
340
7D
 70
     7
280
     0
281
    50
282
    50
283
     0
290
     0
360
7C
 71
     1
 91
        2
 14
-0.5
 24
-0.5
 14
2559.5
 24
1919.5
  0
ENDBLK
  5
7E
330
78
100
AcDbEntity
  8
LAYER_1
100
AcDbBlockEnd
  0
BLOCK
  5
81
330
7F
100
AcDbEntity
  8
LAYER_1
 62
     7
100
AcDbBlockBegin
  2
AI9-BLK2
 70
     0
 10
0.0
 20
0.0
 30
0.0
  3
AI9-BLK2
  1

  0
IMAGE
  5
82
330
7F
100
AcDbEntity
  8
LAYER_1
 62
     7
160
               296
310
28010000030000009400000024000000D2277DD2E5174BC0388EE333E95144C0000000000000008000000000000000000000000000000000000000000000F03F000000000000F03F000000000000000000000000000000000000000000000000000000000000F03F0000000000000000410063004400620052006100730074
310
006500720049006D0061006700650020002800490053004D0029000000840000000600000005000000D2277DD2E5174BC0388EE333E95144C00000000000000080F2499FB4E3174B40388EE333E95144C00000000000000080F2499FB4E3174B40C8711CC7ED5144400000000000000080D2277DD2E5174BC0C8711CC7ED51
310
44400000000000000080D2277DD2E5174BC0388EE333E95144C000000000000000800800000015000000
100
AcDbRasterImage
 90
        0
 10
-54.18670111762152
 20
-40.63992928134069
 30
0.0
 11
0.0423333350155089
 21
0.0
 31
0.0
 12
0.0
 22
0.0423333323871096
 32
0.0
 13
2560.0
 23
1920.0
340
84
 70
     7
280
     0
281
    50
282
    50
283
     0
290
     0
360
83
 71
     1
 91
        2
 14
-0.5
 24
-0.5
 14
2559.5
 24
1919.5
  0
ENDBLK
  5
85
330
7F
100
AcDbEntity
  8
LAYER_1
100
AcDbBlockEnd
  0
BLOCK
  5
343
330
341
100
AcDbEntity
  8
LAYER_1
 62
     7
100
AcDbBlockBegin
  2
AI9-BLK3
 70
     0
 10
0.0
 20
0.0
 30
0.0
  3
AI9-BLK3
  1

  0
IMAGE
  5
344
330
341
100
AcDbEntity
  8
LAYER_1
 62
     7
160
               296
310
28010000030000009400000024000000666666660E1926C07DD297FCEFF527C0000000000000008000000000000000000000000000000000000000000000F03F000000000000F03F000000000000000000000000000000000000000000000000000000000000F03F0000000000000000410063004400620052006100730074
310
006500720049006D0061006700650020002800490053004D0029000000840000000600000005000000666666660E1926C07DD297FCEFF527C00000000000000080CCCC5C971E1926407DD297FCEFF527C00000000000000080CCCC5C971E192640711CC771ECF527400000000000000080666666660E1926C0711CC771ECF5
310
27400000000000000080666666660E1926C07DD297FCEFF527C000000000000000800800000015000000
100
AcDbRasterImage
 90
        0
 10
-11.04893798828125
 20
-11.98034657815264
 30
0.0
 11
0.0423333323871096
 21
0.0
 31
0.0
 12
0.0
 22
0.0423333323871096
 32
0.0
 13
522.0
 23
566.0
340
346
 70
     7
280
     0
281
    50
282
    50
283
     0
290
     0
360
345
 71
     1
 91
        2
 14
-0.5
 24
-0.5
 14
521.4999999999999
 24
565.5
  0
ENDBLK
  5
347
330
341
100
AcDbEntity
  8
LAYER_1
100
AcDbBlockEnd
  0
ENDSEC
  0
SECTION
  2
ENTITIES
  0
POLYLINE
  5
36D
330
A
100
AcDbEntity
  8
LAYER_1
 62
     7
100
AcDb2dPolyline
 66
     1
 10
0.0
 20
0.0
 30
0.0
 70
     1
  0
VERTEX
  5
36E
330
36D
100
AcDbEntity
  8
LAYER_1
 62
     7
100
AcDbVertex
100
AcDb2dVertex
 10
298.5371609157986
 20
19.47340223524305
 30
0.0
  0
VERTEX
  5
36F
330
36D
100
AcDbEntity
  8
LAYER_1
 62
     7
100
AcDbVertex
100
AcDb2dVertex
 10
61.89372422960069
 20
19.47340223524305
 30
0.0
  0
VERTEX
  5
370
330
36D
100
AcDbEntity
  8
LAYER_1
 62
     7
100
AcDbVertex
100
AcDb2dVertex
 10
61.89372422960069
 20
14.70022243923611
 30
0.0
  0
VERTEX
  5
371
330
36D
100
AcDbEntity
  8
LAYER_1
 62
     7
100
AcDbVertex
100
AcDb2dVertex
 10
298.5371609157986
 20
14.70022243923611
 30
0.0
  0
SEQEND
  5
372
330
36D
100
AcDbEntity
  8
LAYER_1
 62
     7
  0
POLYLINE
  5
367
330
A
100
AcDbEntity
  8
LAYER_1
 62
     7
100
AcDb2dPolyline
 66
     1
 10
0.0
 20
0.0
 30
0.0
 70
     1
  0
VERTEX
  5
368
330
367
100
AcDbEntity
  8
LAYER_1
 62
     7
100
AcDbVertex
100
AcDb2dVertex
 10
318.4336208767361
 20
0.0
 30
0.0
  0
VERTEX
  5
369
330
367
100
AcDbEntity
  8
LAYER_1
 62
     7
100
AcDbVertex
100
AcDb2dVertex
 10
39.88042534722222
 20
0.0
 30
0.0
  0
VERTEX
  5
36A
330
367
100
AcDbEntity
  8
LAYER_1
 62
     7
100
AcDbVertex
100
AcDb2dVertex
 10
39.88042534722222
 20
14.70022243923611
 30
0.0
  0
VERTEX
  5
36B
330
367
100
AcDbEntity
  8
LAYER_1
 62
     7
100
AcDbVertex
100
AcDb2dVertex
 10
318.4336208767361
 20
14.70022243923611
 30
0.0
  0
SEQEND
  5
36C
330
367
100
AcDbEntity
  8
LAYER_1
 62
     7
  0
POLYLINE
  5
361
330
A
100
AcDbEntity
  8
LAYER_1
 62
     7
100
AcDb2dPolyline
 66
     1
 10
0.0
 20
0.0
 30
0.0
 70
     1
  0
VERTEX
  5
362
330
361
100
AcDbEntity
  8
LAYER_1
 62
     7
100
AcDbVertex
100
AcDb2dVertex
 10
188.0851603190104
 20
268.1369493272569
 30
0.0
  0
VERTEX
  5
363
330
361
100
AcDbEntity
  8
LAYER_1
 62
     7
100
AcDbVertex
100
AcDb2dVertex
 10
171.5759182400173
 20
268.1369493272569
 30
0.0
  0
VERTEX
  5
364
330
361
100
AcDbEntity
  8
LAYER_1
 62
     7
100
AcDbVertex
100
AcDb2dVertex
 10
171.5759182400173
 20
284.64619140625
 30
0.0
  0
VERTEX
  5
365
330
361
100
AcDbEntity
  8
LAYER_1
 62
     7
100
AcDbVertex
100
AcDb2dVertex
 10
188.0851603190104
 20
284.64619140625
 30
0.0
  0
SEQEND
  5
366
330
361
100
AcDbEntity
  8
LAYER_1
 62
     7
  0
POLYLINE
  5
35B
330
A
100
AcDbEntity
  8
LAYER_1
 62
     7
100
AcDb2dPolyline
 66
     1
 10
0.0
 20
0.0
 30
0.0
 70
     1
  0
VERTEX
  5
35C
330
35B
100
AcDbEntity
  8
LAYER_1
 62
     7
100
AcDbVertex
100
AcDb2dVertex
 10
358.2568576388888
 20
110.0301486545139
 30
0.0
  0
VERTEX
  5
35D
330
35B
100
AcDbEntity
  8
LAYER_1
 62
     7
100
AcDbVertex
100
AcDb2dVertex
 10
339.842822265625
 20
110.0301486545139
 30
0.0
  0
VERTEX
  5
35E
330
35B
100
AcDbEntity
  8
LAYER_1
 62
     7
100
AcDbVertex
100
AcDb2dVertex
 10
339.842822265625
 20
119.5544596354166
 30
0.0
  0
VERTEX
  5
35F
330
35B
100
AcDbEntity
  8
LAYER_1
 62
     7
100
AcDbVertex
100
AcDb2dVertex
 10
358.2568576388888
 20
119.5544596354166
 30
0.0
  0
SEQEND
  5
360
330
35B
100
AcDbEntity
  8
LAYER_1
 62
     7
  0
POLYLINE
  5
355
330
A
100
AcDbEntity
  8
LAYER_1
 62
     7
100
AcDb2dPolyline
 66
     1
 10
0.0
 20
0.0
 30
0.0
 70
     1
  0
VERTEX
  5
356
330
355
100
AcDbEntity
  8
LAYER_1
 62
     7
100
AcDbVertex
100
AcDb2dVertex
 10
419.9998589409721
 20
1.710145399305555
 30
0.0
  0
VERTEX
  5
357
330
355
100
AcDbEntity
  8
LAYER_1
 62
     7
100
AcDbVertex
100
AcDb2dVertex
 10
0.0
 20
1.710145399305555
 30
0.0
  0
VERTEX
  5
358
330
355
100
AcDbEntity
  8
LAYER_1
 62
     7
100
AcDbVertex
100
AcDb2dVertex
 10
0.0
 20
298.7101047092013
 30
0.0
  0
VERTEX
  5
359
330
355
100
AcDbEntity
  8
LAYER_1
 62
     7
100
AcDbVertex
100
AcDb2dVertex
 10
419.9998589409721
 20
298.7101047092013
 30
0.0
  0
SEQEND
  5
35A
330
355
100
AcDbEntity
  8
LAYER_1
 62
     7
  0
POLYLINE
  5
34F
330
A
100
AcDbEntity
  8
LAYER_1
 62
     7
100
AcDb2dPolyline
 66
     1
 10
0.0
 20
0.0
 30
0.0
 70
     1
  0
VERTEX
  5
350
330
34F
100
AcDbEntity
  8
LAYER_1
 62
     7
100
AcDbVertex
100
AcDb2dVertex
 10
20.99992404513889
 20
283.7101589626736
 30
0.0
  0
VERTEX
  5
351
330
34F
100
AcDbEntity
  8
LAYER_1
 62
     7
100
AcDbVertex
100
AcDb2dVertex
 10
20.99992404513889
 20
16.71009114583333
 30
0.0
  0
VERTEX
  5
352
330
34F
100
AcDbEntity
  8
LAYER_1
 62
     7
100
AcDbVertex
100
AcDb2dVertex
 10
404.0001464843749
 20
16.71009114583333
 30
0.0
  0
VERTEX
  5
353
330
34F
100
AcDbEntity
  8
LAYER_1
 62
     7
100
AcDbVertex
100
AcDb2dVertex
 10
404.0001464843749
 20
283.7101589626736
 30
0.0
  0
SEQEND
  5
354
330
34F
100
AcDbEntity
  8
LAYER_1
 62
     7
  0
POLYLINE
  5
349
330
A
100
AcDbEntity
  8
LAYER_1
 62
     7
100
AcDb2dPolyline
 66
     1
 10
0.0
 20
0.0
 30
0.0
 70
     1
  0
VERTEX
  5
34A
330
349
100
AcDbEntity
  8
LAYER_1
 62
     7
100
AcDbVertex
100
AcDb2dVertex
 10
406.0000244140624
 20
14.71021321614583
 30
0.0
  0
VERTEX
  5
34B
330
349
100
AcDbEntity
  8
LAYER_1
 62
     7
100
AcDbVertex
100
AcDb2dVertex
 10
18.99987386067708
 20
14.71021321614583
 30
0.0
  0
VERTEX
  5
34C
330
349
100
AcDbEntity
  8
LAYER_1
 62
     7
100
AcDbVertex
100
AcDb2dVertex
 10
18.99987386067708
 20
285.7102091471354
 30
0.0
  0
VERTEX
  5
34D
330
349
100
AcDbEntity
  8
LAYER_1
 62
     7
100
AcDbVertex
100
AcDb2dVertex
 10
406.0000244140624
 20
285.7102091471354
 30
0.0
  0
SEQEND
  5
34E
330
349
100
AcDbEntity
  8
LAYER_1
 62
     7
  0
LINE
  5
348
330
A
100
AcDbEntity
  8
LAYER_1
 62
     7
100
AcDbLine
 10
336.3150444878472
 20
285.3045491536458
 30
0.0
 11
336.3150444878472
 21
14.71021321614583
 31
0.0
  0
INSERT
  5
342
330
A
100
AcDbEntity
  8
LAYER_1
 62
     7
100
AcDbBlockReference
  2
AI9-BLK3
 10
389.0131198459201
 20
29.68638780381944
 30
0.0
  0
MTEXT
  5
340
330
A
100
AcDbEntity
  8
LAYER_1
 62
     7
100
AcDbMText
 10
342.4948567708333
 20
37.48468946086035
 30
0.0
 40
2.887318041589524
 41
0.0
 46
0.0
 71
     1
 72
     2
  1
\fArial |b1|i0;\H2.8873;\C7;Cambrian
  7
STD
 73
     1
 44
1.0
  0
MTEXT
  5
33F
330
A
100
AcDbEntity
  8
LAYER_1
 62
     7
100
AcDbMText
 10
342.4948567708333
 20
32.82795389228397
 30
0.0
 40
2.887318041589524
 41
0.0
 46
0.0
 71
     1
 72
     2
  1
\fArial |b1|i0;\H2.8873;\C7;Archaeological
  7
STD
 73
     1
 44
1.0
  0
MTEXT
  5
33E
330
A
100
AcDbEntity
  8
LAYER_1
 62
     7
100
AcDbMText
 10
342.4948567708333
 20
28.17121832370758
 30
0.0
 40
2.887318041589524
 41
0.0
 46
0.0
 71
     1
 72
     2
  1
\fArial |b1|i0;\H2.8873;\C7;Projects 
  7
STD
 73
     1
 44
1.0
  0
MTEXT
  5
33D
330
A
100
AcDbEntity
  8
LAYER_1
 62
     7
100
AcDbMText
 10
342.4948567708333
 20
23.5148272646798
 30
0.0
 40
2.887318041589524
 41
0.0
 46
0.0
 71
     1
 72
     2
  1
\fArial |b1|i0;\H2.8873;\C7;Limited
  7
STD
 73
     1
 44
1.0
  0
MTEXT
  5
33C
330
A
100
AcDbEntity
  8
LAYER_1
 62
     7
100
AcDbMText
 10
339.2151258680555
 20
57.05868848429785
 30
0.0
 40
2.887318041589524
 41
0.0
 46
0.0
 71
     1
 72
     2
  1
\fArial |b1|i0;\H2.8873;\C7;Plan: 
  7
STD
 73
     1
 44
1.0
  0
MTEXT
  5
33B
330
A
100
AcDbEntity
  8
LAYER_1
 62
     7
100
AcDbMText
 10
349.7819227430555
 20
57.05868848429785
 30
0.0
 40
2.887318041589524
 41
0.0
 46
0.0
 71
     1
 72
     2
  1
\fArial|b0|i0;\H2.8873;\C7;1:50                     
  7
STD
 73
     1
 44
1.0
  0
MTEXT
  5
33A
330
A
100
AcDbEntity
  8
LAYER_1
 62
     7
100
AcDbMText
 10
379.9881754557291
 20
57.05868848429785
 30
0.0
 40
2.887318041589524
 41
0.0
 46
0.0
 71
     1
 72
     2
  1
\fArial |b1|i0;\H2.8873;\C7;Section:
  7
STD
 73
     1
 44
1.0
  0
MTEXT
  5
339
330
A
100
AcDbEntity
  8
LAYER_1
 62
     7
100
AcDbMText
 10
395.2968017578125
 20
57.05868848429785
 30
0.0
 40
2.887318041589524
 41
0.0
 46
0.0
 71
     1
 72
     2
  1
\fArial|b0|i0;\H2.8873;\C7; 1:20
  7
STD
 73
     1
 44
1.0
  0
MTEXT
  5
338
330
A
100
AcDbEntity
  8
LAYER_1
 62
     7
100
AcDbMText
 10
339.7119086371528
 20
49.04987500773535
 30
0.0
 40
2.887318041589524
 41
0.0
 46
0.0
 71
     1
 72
     2
  1
\fArial |b1|i0;\H2.8873;\C7;Figure 07:
  7
STD
 73
     1
 44
1.0
  0
MTEXT
  5
337
330
A
100
AcDbEntity
  8
LAYER_1
 62
     7
100
AcDbMText
 10
339.0628526475694
 20
92.88423644436729
 30
0.0
 40
2.887318041589524
 41
0.0
 46
0.0
 71
     1
 72
     2
  1
\fArial |b1|i0;\H2.8873;\C7;Job Title:       
  7
STD
 73
     1
 44
1.0
  0
MTEXT
  5
336
330
A
100
AcDbEntity
  8
LAYER_1
 62
     7
100
AcDbMText
 10
363.7934705946181
 20
92.88423644436729
 30
0.0
 40
2.887318041589524
 41
0.0
 46
0.0
 71
     1
 72
     2
  1
\fArial|b0|i0;\H2.8873;\C7;Oswald Park, Oswestry
  7
STD
 73
     1
 44
1.0
  0
MTEXT
  5
335
330
A
100
AcDbEntity
  8
LAYER_1
 62
     7
100
AcDbMText
 10
339.0628526475694
 20
83.57076530721451
 30
0.0
 40
2.887318041589524
 41
0.0
 46
0.0
 71
     1
 72
     2
  1
\fArial |b1|i0;\H2.8873;\C7;Drawing Title:                      
  7
STD
 73
     1
 44
1.0
  0
MTEXT
  5
334
330
A
100
AcDbEntity
  8
LAYER_1
 62
     7
100
AcDbMText
 10
388.3845621744791
 20
83.57076530721451
 30
0.0
 40
2.887318041589524
 41
0.0
 46
0.0
 71
     1
 72
     2
  1
\fArial|b0|i0;\H2.8873;\C7;Trench 2
  7
STD
 73
     1
 44
1.0
  0
MTEXT
  5
333
330
A
100
AcDbEntity
  8
LAYER_1
 62
     7
100
AcDbMText
 10
339.0628526475694
 20
74.25763867961035
 30
0.0
 40
2.887318041589524
 41
0.0
 46
0.0
 71
     1
 72
     2
  1
\fArial |b1|i0;\H2.8873;\C7;Date:          
  7
STD
 73
     1
 44
1.0
  0
MTEXT
  5
332
330
A
100
AcDbEntity
  8
LAYER_1
 62
     7
100
AcDbMText
 10
384.7138129340277
 20
74.25763867961035
 30
0.0
 40
2.887318041589524
 41
0.0
 46
0.0
 71
     1
 72
     2
  1
\fArial|b0|i0;\H2.8873;\C7;29/08/2007
  7
STD
 73
     1
 44
1.0
  0
MTEXT
  5
331
330
A
100
AcDbEntity
  8
LAYER_1
 62
     7
100
AcDbMText
 10
339.0628526475694
 20
64.94416754245758
 30
0.0
 40
2.887318041589524
 41
0.0
 46
0.0
 71
     1
 72
     2
  1
\fArial |b1|i0;\H2.8873;\C7;Drawn By:          
  7
STD
 73
     1
 44
1.0
  0
MTEXT
  5
330
330
A
100
AcDbEntity
  8
LAYER_1
 62
     7
100
AcDbMText
 10
385.7924723307291
 20
64.94416754245758
 30
0.0
 40
2.887318041589524
 41
0.0
 46
0.0
 71
     1
 72
     2
  1
\fArial|b0|i0;\H2.8873;\C7;C E Smith
  7
STD
 73
     1
 44
1.0
  0
LINE
  5
32F
330
A
100
AcDbEntity
  8
LAYER_1
 62
     7
100
AcDbLine
 10
336.3150444878472
 20
42.82839355468749
 30
0.0
 11
405.8959825303818
 21
42.81116807725694
 31
0.0
  0
LINE
  5
32E
330
A
100
AcDbEntity
  8
LAYER_1
 62
     7
100
AcDbLine
 10
336.3150444878472
 20
52.00061577690972
 30
0.0
 11
405.8959825303818
 21
51.98339029947916
 31
0.0
  0
LINE
  5
32D
330
A
100
AcDbEntity
  8
LAYER_1
 62
     7
100
AcDbLine
 10
336.3150444878472
 20
59.76172688802083
 30
0.0
 11
405.8959825303818
 21
59.74450141059027
 31
0.0
  0
LINE
  5
32C
330
A
100
AcDbEntity
  8
LAYER_1
 62
     7
100
AcDbLine
 10
336.4325222439236
 20
67.46427137586805
 30
0.0
 11
405.9590277777777
 21
67.37607693142361
 31
0.0
  0
LINE
  5
32B
330
A
100
AcDbEntity
  8
LAYER_1
 62
     7
100
AcDbLine
 10
336.3150444878472
 20
76.69506022135415
 30
0.0
 11
405.8959825303818
 21
76.6778347439236
 31
0.0
  0
LINE
  5
32A
330
A
100
AcDbEntity
  8
LAYER_1
 62
     7
100
AcDbLine
 10
336.3150444878472
 20
86.28930664062499
 30
0.0
 11
405.8959825303818
 21
86.27208116319444
 31
0.0
  0
LINE
  5
329
330
A
100
AcDbEntity
  8
LAYER_1
 62
     7
100
AcDbLine
 10
336.3736111111111
 20
95.51010470920138
 30
0.0
 11
405.8708333333332
 21
95.51010470920138
 31
0.0
  0
POLYLINE
  5
323
330
A
100
AcDbEntity
  8
LAYER_1
 62
     7
100
AcDb2dPolyline
 66
     1
 10
0.0
 20
0.0
 30
0.0
 70
     1
  0
VERTEX
  5
324
330
323
100
AcDbEntity
  8
LAYER_1
 62
     7
100
AcDbVertex
100
AcDb2dVertex
 10
399.8291693793402
 20
283.0101155598958
 30
0.0
  0
VERTEX
  5
325
330
323
100
AcDbEntity
  8
LAYER_1
 62
     7
100
AcDbVertex
100
AcDb2dVertex
 10
397.1502631293402
 20
276.4451416015624
 30
0.0
  0
VERTEX
  5
326
330
323
100
AcDbEntity
  8
LAYER_1
 62
     7
100
AcDbVertex
100
AcDb2dVertex
 10
399.8264133029514
 20
278.0078369140625
 30
0.0
  0
VERTEX
  5
327
330
323
100
AcDbEntity
  8
LAYER_1
 62
     7
100
AcDbVertex
100
AcDb2dVertex
 10
402.5032524956596
 20
276.4451416015624
 30
0.0
  0
SEQEND
  5
328
330
323
100
AcDbEntity
  8
LAYER_1
 62
     7
  0
POLYLINE
  5
31D
330
A
100
AcDbEntity
  8
LAYER_1
 62
     7
100
AcDb2dPolyline
 66
     1
 10
0.0
 20
0.0
 30
0.0
 70
     1
  0
VERTEX
  5
31E
330
31D
100
AcDbEntity
  8
LAYER_1
 62
     7
100
AcDbVertex
100
AcDb2dVertex
 10
399.8291693793402
 20
283.0101155598958
 30
0.0
  0
VERTEX
  5
31F
330
31D
100
AcDbEntity
  8
LAYER_1
 62
     7
100
AcDbVertex
100
AcDb2dVertex
 10
397.1502631293402
 20
276.4451416015624
 30
0.0
  0
VERTEX
  5
320
330
31D
100
AcDbEntity
  8
LAYER_1
 62
     7
100
AcDbVertex
100
AcDb2dVertex
 10
399.8264133029514
 20
278.0078369140625
 30
0.0
  0
VERTEX
  5
321
330
31D
100
AcDbEntity
  8
LAYER_1
 62
     7
100
AcDbVertex
100
AcDb2dVertex
 10
402.5032524956596
 20
276.4451416015624
 30
0.0
  0
SEQEND
  5
322
330
31D
100
AcDbEntity
  8
LAYER_1
 62
     7
  0
HATCH
  5
31C
330
A
100
AcDbEntity
  8
LAYER_1
 62
     7
100
AcDbHatch
 10
0.0
 20
0.0
 30
0.0
210
0.0
220
0.0
230
1.0
  2
SOLID
 70
     1
 71
     0
 91
        1
 92
        3
 72
     0
 73
     1
 93
        3
 10
399.8291693793402
 20
283.0101155598958
 10
397.1502631293402
 20
276.4451416015624
 10
399.8264133029514
 20
278.0078369140625
 97
        0
 75
     2
 76
     1
 98
        1
 10
0.0
 20
0.0
450
        0
451
        0
460
0.0
461
0.0
452
        0
462
0.0
453
        0
470

  0
POLYLINE
  5
316
330
A
100
AcDbEntity
  8
LAYER_1
 62
     7
100
AcDb2dPolyline
 66
     1
 10
0.0
 20
0.0
 30
0.0
 70
     1
  0
VERTEX
  5
317
330
316
100
AcDbEntity
  8
LAYER_1
 62
     7
100
AcDbVertex
100
AcDb2dVertex
 10
402.0126708984374
 20
157.5666097005208
 30
0.0
  0
VERTEX
  5
318
330
316
100
AcDbEntity
  8
LAYER_1
 62
     7
100
AcDbVertex
100
AcDb2dVertex
 10
387.7258599175347
 20
157.5666097005208
 30
0.0
  0
VERTEX
  5
319
330
316
100
AcDbEntity
  8
LAYER_1
 62
     7
100
AcDbVertex
100
AcDb2dVertex
 10
387.7258599175347
 20
217.8886813693576
 30
0.0
  0
VERTEX
  5
31A
330
316
100
AcDbEntity
  8
LAYER_1
 62
     7
100
AcDbVertex
100
AcDb2dVertex
 10
402.0126708984374
 20
217.8886813693576
 30
0.0
  0
SEQEND
  5
31B
330
316
100
AcDbEntity
  8
LAYER_1
 62
     7
  0
POLYLINE
  5
311
330
A
100
AcDbEntity
  8
LAYER_1
 62
     7
100
AcDb2dPolyline
 66
     1
 10
0.0
 20
0.0
 30
0.0
  0
VERTEX
  5
312
330
311
100
AcDbEntity
  8
LAYER_1
 62
     7
100
AcDbVertex
100
AcDb2dVertex
 10
393.1708333333333
 20
285.7102091471354
 30
0.0
  0
VERTEX
  5
313
330
311
100
AcDbEntity
  8
LAYER_1
 62
     7
100
AcDbVertex
100
AcDb2dVertex
 10
393.1708333333333
 20
273.4864935980902
 30
0.0
  0
VERTEX
  5
314
330
311
100
AcDbEntity
  8
LAYER_1
 62
     7
100
AcDbVertex
100
AcDb2dVertex
 10
406.0000244140624
 20
273.4864935980902
 30
0.0
  0
SEQEND
  5
315
330
311
100
AcDbEntity
  8
LAYER_1
 62
     7
  0
HATCH
  5
310
330
A
100
AcDbEntity
  8
LAYER_1
 62
     1
100
AcDbHatch
 10
0.0
 20
0.0
 30
0.0
210
0.0
220
0.0
230
1.0
  2
SOLID
 70
     1
 71
     0
 91
        1
 92
        3
 72
     0
 73
     1
 93
        7
 10
346.095326063368
 20
245.7703559027778
 10
344.6208251953125
 20
244.2965440538194
 10
342.4641954210069
 20
246.453173828125
 10
343.9386962890625
 20
247.9269856770833
 10
343.2021348741319
 20
248.6635470920139
 10
346.6865044487847
 20
248.5185085720486
 10
346.8318874782986
 20
245.0337944878472
 97
        0
 75
     2
 76
     1
 98
        1
 10
0.0
 20
0.0
450
        0
451
        0
460
0.0
461
0.0
452
        0
462
0.0
453
        0
470

  0
LINE
  5
30F
330
A
100
AcDbEntity
  8
LAYER_1
 62
     7
100
AcDbLine
 10
342.4641954210069
 20
246.4526570638021
 30
0.0
 11
344.6208251953125
 21
244.2958550347222
 31
0.0
  0
LINE
  5
30E
330
A
100
AcDbEntity
  8
LAYER_1
 62
     7
100
AcDbLine
 10
342.4931342230902
 20
246.4815958658854
 30
0.0
 11
344.6497639973958
 21
244.3247938368055
 31
0.0
  0
LINE
  5
30D
330
A
100
AcDbEntity
  8
LAYER_1
 62
     7
100
AcDbLine
 10
342.5220730251736
 20
246.5105346679687
 30
0.0
 11
344.6787027994791
 21
244.3537326388888
 31
0.0
  0
LINE
  5
30C
330
A
100
AcDbEntity
  8
LAYER_1
 62
     7
100
AcDbLine
 10
342.5510118272569
 20
246.5393012152778
 30
0.0
 11
344.7076416015625
 21
244.3826714409722
 31
0.0
  0
LINE
  5
30B
330
A
100
AcDbEntity
  8
LAYER_1
 62
     7
100
AcDbLine
 10
342.5799506293403
 20
246.5682400173611
 30
0.0
 11
344.7365804036458
 21
244.4116102430555
 31
0.0
  0
LINE
  5
30A
330
A
100
AcDbEntity
  8
LAYER_1
 62
     7
100
AcDbLine
 10
342.6088894314236
 20
246.5971788194444
 30
0.0
 11
344.7655192057291
 21
244.4405490451389
 31
0.0
  0
LINE
  5
309
330
A
100
AcDbEntity
  8
LAYER_1
 62
     7
100
AcDbLine
 10
342.6378282335069
 20
246.6261176215278
 30
0.0
 11
344.7944580078125
 21
244.4694878472222
 31
0.0
  0
LINE
  5
308
330
A
100
AcDbEntity
  8
LAYER_1
 62
     7
100
AcDbLine
 10
342.6664225260416
 20
246.6550564236111
 30
0.0
 11
344.8230523003472
 21
244.4984266493055
 31
0.0
  0
LINE
  5
307
330
A
100
AcDbEntity
  8
LAYER_1
 62
     7
100
AcDbLine
 10
342.695361328125
 20
246.6839952256944
 30
0.0
 11
344.8519911024305
 21
244.5273654513889
 31
0.0
  0
LINE
  5
306
330
A
100
AcDbEntity
  8
LAYER_1
 62
     7
100
AcDbLine
 10
342.7243001302083
 20
246.7127617730035
 30
0.0
 11
344.8809299045138
 21
244.5563042534722
 31
0.0
  0
LINE
  5
305
330
A
100
AcDbEntity
  8
LAYER_1
 62
     7
100
AcDbLine
 10
342.7532389322916
 20
246.7417005750868
 30
0.0
 11
344.9098687065972
 21
244.5852430555556
 31
0.0
  0
LINE
  5
304
330
A
100
AcDbEntity
  8
LAYER_1
 62
     7
100
AcDbLine
 10
342.782177734375
 20
246.7706393771701
 30
0.0
 11
344.9388075086805
 21
244.6141818576389
 31
0.0
  0
LINE
  5
303
330
A
100
AcDbEntity
  8
LAYER_1
 62
     7
100
AcDbLine
 10
342.8111165364583
 20
246.7995781792534
 30
0.0
 11
344.9677463107639
 21
244.6431206597222
 31
0.0
  0
LINE
  5
302
330
A
100
AcDbEntity
  8
LAYER_1
 62
    21
100
AcDbLine
 10
342.8400553385416
 20
246.8285169813368
 30
0.0
 11
344.9966851128472
 21
244.6720594618055
 31
0.0
  0
LINE
  5
301
330
A
100
AcDbEntity
  8
LAYER_1
 62
    21
100
AcDbLine
 10
342.868994140625
 20
246.8574557834201
 30
0.0
 11
345.0256239149305
 21
244.7009982638888
 31
0.0
  0
LINE
  5
300
330
A
100
AcDbEntity
  8
LAYER_1
 62
    21
100
AcDbLine
 10
342.8979329427083
 20
246.8862223307291
 30
0.0
 11
345.0545627170139
 21
244.7295925564236
 31
0.0
  0
LINE
  5
2FF
330
A
100
AcDbEntity
  8
LAYER_1
 62
    21
100
AcDbLine
 10
342.9268717447917
 20
246.9151611328125
 30
0.0
 11
345.0835015190972
 21
244.7585313585069
 31
0.0
  0
LINE
  5
2FE
330
A
100
AcDbEntity
  8
LAYER_1
 62
    21
100
AcDbLine
 10
342.9558105468749
 20
246.9440999348958
 30
0.0
 11
345.1124403211805
 21
244.7874701605903
 31
0.0
  0
LINE
  5
2FD
330
A
100
AcDbEntity
  8
LAYER_1
 62
    21
100
AcDbLine
 10
342.9847493489583
 20
246.9730387369792
 30
0.0
 11
345.1413791232639
 21
244.8164089626736
 31
0.0
  0
LINE
  5
2FC
330
A
100
AcDbEntity
  8
LAYER_1
 62
    21
100
AcDbLine
 10
343.0136881510417
 20
247.0019775390625
 30
0.0
 11
345.1703179253472
 21
244.8453477647569
 31
0.0
  0
LINE
  5
2FB
330
A
100
AcDbEntity
  8
LAYER_1
 62
    21
100
AcDbLine
 10
343.0422824435764
 20
247.0307440863715
 30
0.0
 11
345.1989122178819
 21
244.8739420572917
 31
0.0
  0
LINE
  5
2FA
330
A
100
AcDbEntity
  8
LAYER_1
 62
    21
100
AcDbLine
 10
343.0712212456597
 20
247.0596828884549
 30
0.0
 11
345.2278510199653
 21
244.902880859375
 31
0.0
  0
LINE
  5
2F9
330
A
100
AcDbEntity
  8
LAYER_1
 62
    21
100
AcDbLine
 10
343.100160047743
 20
247.0886216905382
 30
0.0
 11
345.2567898220486
 21
244.9318196614583
 31
0.0
  0
LINE
  5
2F8
330
A
100
AcDbEntity
  8
LAYER_1
 62
    21
100
AcDbLine
 10
343.1290988498263
 20
247.1175604926215
 30
0.0
 11
345.2857286241319
 21
244.9607584635416
 31
0.0
  0
LINE
  5
2F7
330
A
100
AcDbEntity
  8
LAYER_1
 62
    21
100
AcDbLine
 10
343.1580376519097
 20
247.1464992947048
 30
0.0
 11
345.3146674262153
 21
244.989697265625
 31
0.0
  0
LINE
  5
2F6
330
A
100
AcDbEntity
  8
LAYER_1
 62
    21
100
AcDbLine
 10
343.186976453993
 20
247.1754380967882
 30
0.0
 11
345.3436062282986
 21
245.0186360677083
 31
0.0
  0
LINE
  5
2F5
330
A
100
AcDbEntity
  8
LAYER_1
 62
    21
100
AcDbLine
 10
343.2159152560763
 20
247.2042046440972
 30
0.0
 11
345.3725450303819
 21
245.0475748697916
 31
0.0
  0
LINE
  5
2F4
330
A
100
AcDbEntity
  8
LAYER_1
 62
    21
100
AcDbLine
 10
343.2448540581597
 20
247.2331434461805
 30
0.0
 11
345.4014838324653
 21
245.076513671875
 31
0.0
  0
LINE
  5
2F3
330
A
100
AcDbEntity
  8
LAYER_1
 62
    20
100
AcDbLine
 10
343.273792860243
 20
247.2620822482639
 30
0.0
 11
345.4304226345485
 21
245.1054524739583
 31
0.0
  0
LINE
  5
2F2
330
A
100
AcDbEntity
  8
LAYER_1
 62
    20
100
AcDbLine
 10
343.3027316623264
 20
247.2910210503472
 30
0.0
 11
345.4593614366319
 21
245.1343912760417
 31
0.0
  0
LINE
  5
2F1
330
A
100
AcDbEntity
  8
LAYER_1
 62
    20
100
AcDbLine
 10
343.3316704644097
 20
247.3199598524305
 30
0.0
 11
345.4883002387152
 21
245.163330078125
 31
0.0
  0
LINE
  5
2F0
330
A
100
AcDbEntity
  8
LAYER_1
 62
    20
100
AcDbLine
 10
343.360609266493
 20
247.3488986545139
 30
0.0
 11
345.5172390407986
 21
245.1922688802083
 31
0.0
  0
LINE
  5
2EF
330
A
100
AcDbEntity
  8
LAYER_1
 62
    20
100
AcDbLine
 10
343.3892035590278
 20
247.3776652018229
 30
0.0
 11
345.5458333333333
 21
245.2210354275173
 31
0.0
  0
LINE
  5
2EE
330
A
100
AcDbEntity
  8
LAYER_1
 62
    20
100
AcDbLine
 10
343.4181423611111
 20
247.4066040039062
 30
0.0
 11
345.5747721354167
 21
245.2499742296007
 31
0.0
  0
LINE
  5
2ED
330
A
100
AcDbEntity
  8
LAYER_1
 62
    20
100
AcDbLine
 10
343.4470811631944
 20
247.4355428059896
 30
0.0
 11
345.6037109374999
 21
245.278913031684
 31
0.0
  0
LINE
  5
2EC
330
A
100
AcDbEntity
  8
LAYER_1
 62
    20
100
AcDbLine
 10
343.4760199652778
 20
247.4644816080729
 30
0.0
 11
345.6326497395833
 21
245.3078518337673
 31
0.0
  0
LINE
  5
2EB
330
A
100
AcDbEntity
  8
LAYER_1
 62
    20
100
AcDbLine
 10
343.5049587673611
 20
247.4934204101562
 30
0.0
 11
345.6615885416666
 21
245.3367906358506
 31
0.0
  0
LINE
  5
2EA
330
A
100
AcDbEntity
  8
LAYER_1
 62
    20
100
AcDbLine
 10
343.5338975694445
 20
247.5221869574653
 30
0.0
 11
345.69052734375
 21
245.3655571831597
 31
0.0
  0
LINE
  5
2E9
330
A
100
AcDbEntity
  8
LAYER_1
 62
     1
100
AcDbLine
 10
343.5628363715277
 20
247.5511257595486
 30
0.0
 11
345.7194661458333
 21
245.394495985243
 31
0.0
  0
LINE
  5
2E8
330
A
100
AcDbEntity
  8
LAYER_1
 62
     1
100
AcDbLine
 10
343.5917751736111
 20
247.5800645616319
 30
0.0
 11
345.7484049479166
 21
245.4234347873263
 31
0.0
  0
LINE
  5
2E7
330
A
100
AcDbEntity
  8
LAYER_1
 62
     1
100
AcDbLine
 10
343.6207139756944
 20
247.6090033637153
 30
0.0
 11
345.7773437499999
 21
245.4523735894097
 31
0.0
  0
LINE
  5
2E6
330
A
100
AcDbEntity
  8
LAYER_1
 62
     1
100
AcDbLine
 10
343.6496527777777
 20
247.6379421657986
 30
0.0
 11
345.8062825520833
 21
245.481312391493
 31
0.0
  0
LINE
  5
2E5
330
A
100
AcDbEntity
  8
LAYER_1
 62
     1
100
AcDbLine
 10
343.6785915798611
 20
247.6668809678819
 30
0.0
 11
345.8352213541667
 21
245.5102511935764
 31
0.0
  0
LINE
  5
2E4
330
A
100
AcDbEntity
  8
LAYER_1
 62
     1
100
AcDbLine
 10
343.7075303819444
 20
247.695647515191
 30
0.0
 11
345.86416015625
 21
245.5390177408854
 31
0.0
  0
LINE
  5
2E3
330
A
100
AcDbEntity
  8
LAYER_1
 62
     1
100
AcDbLine
 10
343.7364691840277
 20
247.7245863172743
 30
0.0
 11
345.8930989583333
 21
245.5679565429687
 31
0.0
  0
LINE
  5
2E2
330
A
100
AcDbEntity
  8
LAYER_1
 62
     1
100
AcDbLine
 10
343.7650634765625
 20
247.7535251193576
 30
0.0
 11
345.9216932508681
 21
245.5968953450521
 31
0.0
  0
LINE
  5
2E1
330
A
100
AcDbEntity
  8
LAYER_1
 62
     1
100
AcDbLine
 10
343.7940022786458
 20
247.7824639214409
 30
0.0
 11
345.9506320529513
 21
245.6258341471354
 31
0.0
  0
LINE
  5
2E0
330
A
100
AcDbEntity
  8
LAYER_1
 62
     1
100
AcDbLine
 10
343.8229410807291
 20
247.8114027235243
 30
0.0
 11
345.9795708550347
 21
245.6547729492188
 31
0.0
  0
LINE
  5
2DF
330
A
100
AcDbEntity
  8
LAYER_1
 62
     1
100
AcDbLine
 10
343.8518798828125
 20
247.8403415256076
 30
0.0
 11
346.008509657118
 21
245.6837117513021
 31
0.0
  0
LINE
  5
2DE
330
A
100
AcDbEntity
  8
LAYER_1
 62
     1
100
AcDbLine
 10
343.8808186848958
 20
247.8691080729166
 30
0.0
 11
346.0374484592013
 21
245.7124782986111
 31
0.0
  0
LINE
  5
2DD
330
A
100
AcDbEntity
  8
LAYER_1
 62
     1
100
AcDbLine
 10
343.9097574869791
 20
247.898046875
 30
0.0
 11
346.0663872612847
 21
245.7414171006945
 31
0.0
  0
LINE
  5
2DC
330
A
100
AcDbEntity
  8
LAYER_1
 62
     1
100
AcDbLine
 10
343.9386962890625
 20
247.9269856770833
 30
0.0
 11
346.095326063368
 21
245.7703559027778
 31
0.0
  0
MTEXT
  5
2DB
330
A
100
AcDbEntity
  8
LAYER_1
 62
     7
100
AcDbMText
 10
343.9318060980903
 20
247.7870244675212
 30
0.0
 40
2.099867620733049
 41
0.0
 46
0.0
 71
     1
 72
     2
  1
\fHelvetica |b1|i0;\H2.0999;\C7;2
  7
STD
 73
     1
 44
1.0
  0
MTEXT
  5
2DA
330
A
100
AcDbEntity
  8
LAYER_1
 62
     7
100
AcDbMText
 10
350.1619167751735
 20
248.2640388144387
 30
0.0
 40
3.149801346990797
 41
0.0
 46
0.0
 71
     1
 72
     2
  1
\fArial|b0|i0;\H3.1498;\C7;Direction of Photograph
  7
STD
 73
     1
 44
1.0
  0
LINE
  5
2D9
330
A
100
AcDbEntity
  8
LAYER_1
 62
     7
100
AcDbLine
 10
187.1596354166666
 20
272.7203043619791
 30
0.0
 11
330.5527777777777
 21
272.7223714192708
 31
0.0
  0
LINE
  5
2D8
330
A
100
AcDbEntity
  8
LAYER_1
 62
     7
100
AcDbLine
 10
330.5527777777777
 20
231.8001491970486
 30
0.0
 11
183.85234375
 21
231.8091064453124
 31
0.0
  0
POLYLINE
  5
2BF
330
A
100
AcDbEntity
  8
LAYER_1
 62
     7
100
AcDb2dPolyline
 66
     1
 10
0.0
 20
0.0
 30
0.0
 70
     1
  0
VERTEX
  5
2C0
330
2BF
100
AcDbEntity
  8
LAYER_1
 62
     7
100
AcDbVertex
100
AcDb2dVertex
 10
186.7741292317708
 20
272.7223714192708
 30
0.0
  0
VERTEX
  5
2C1
330
2BF
100
AcDbEntity
  8
LAYER_1
 62
     7
100
AcDbVertex
100
AcDb2dVertex
 10
26.45833333333333
 20
272.7223714192708
 30
0.0
  0
VERTEX
  5
2C2
330
2BF
100
AcDbEntity
  8
LAYER_1
 62
     7
100
AcDbVertex
100
AcDb2dVertex
 10
26.45833333333333
 20
231.8001491970486
 30
0.0
  0
VERTEX
  5
2C3
330
2BF
100
AcDbEntity
  8
LAYER_1
 62
     7
100
AcDbVertex
100
AcDb2dVertex
 10
183.604296875
 20
231.8001491970486
 30
0.0
  0
VERTEX
  5
2C4
330
2BF
100
AcDbEntity
  8
LAYER_1
 62
     7
100
AcDbVertex
100
AcDb2dVertex
 10
183.7972222222222
 20
231.8001491970486
 30
0.0
  0
VERTEX
  5
2C5
330
2BF
100
AcDbEntity
  8
LAYER_1
 62
     7
100
AcDbVertex
100
AcDb2dVertex
 10
184.6206000434028
 20
233.6815158420139
 30
0.0
  0
VERTEX
  5
2C6
330
2BF
100
AcDbEntity
  8
LAYER_1
 62
     7
100
AcDbVertex
100
AcDb2dVertex
 10
185.3261555989583
 20
235.3279269748264
 30
0.0
  0
VERTEX
  5
2C7
330
2BF
100
AcDbEntity
  8
LAYER_1
 62
     7
100
AcDbVertex
100
AcDb2dVertex
 10
186.9722222222222
 20
238.7378824869792
 30
0.0
  0
VERTEX
  5
2C8
330
2BF
100
AcDbEntity
  8
LAYER_1
 62
     7
100
AcDbVertex
100
AcDb2dVertex
 10
187.442822265625
 20
241.7954047309028
 30
0.0
  0
VERTEX
  5
2C9
330
2BF
100
AcDbEntity
  8
LAYER_1
 62
     7
100
AcDbVertex
100
AcDb2dVertex
 10
187.6777777777777
 20
244.7351047092014
 30
0.0
  0
VERTEX
  5
2CA
330
2BF
100
AcDbEntity
  8
LAYER_1
 62
     7
100
AcDbVertex
100
AcDb2dVertex
 10
187.6777777777777
 20
247.3223714192708
 30
0.0
  0
VERTEX
  5
2CB
330
2BF
100
AcDbEntity
  8
LAYER_1
 62
     7
100
AcDbVertex
100
AcDb2dVertex
 10
186.9722222222222
 20
250.3795491536458
 30
0.0
  0
VERTEX
  5
2CC
330
2BF
100
AcDbEntity
  8
LAYER_1
 62
     7
100
AcDbVertex
100
AcDb2dVertex
 10
186.3844889322916
 20
252.6140380859374
 30
0.0
  0
VERTEX
  5
2CD
330
2BF
100
AcDbEntity
  8
LAYER_1
 62
     7
100
AcDbVertex
100
AcDb2dVertex
 10
186.2666666666666
 20
255.3184380425347
 30
0.0
  0
VERTEX
  5
2CE
330
2BF
100
AcDbEntity
  8
LAYER_1
 62
     7
100
AcDbVertex
100
AcDb2dVertex
 10
186.2666666666666
 20
255.7890380859375
 30
0.0
  0
VERTEX
  5
2CF
330
2BF
100
AcDbEntity
  8
LAYER_1
 62
     7
100
AcDbVertex
100
AcDb2dVertex
 10
186.2666666666666
 20
257.2001491970486
 30
0.0
  0
VERTEX
  5
2D0
330
2BF
100
AcDbEntity
  8
LAYER_1
 62
     7
100
AcDbVertex
100
AcDb2dVertex
 10
186.2666666666666
 20
259.0815158420138
 30
0.0
  0
VERTEX
  5
2D1
330
2BF
100
AcDbEntity
  8
LAYER_1
 62
     7
100
AcDbVertex
100
AcDb2dVertex
 10
186.2666666666666
 20
261.5509602864583
 30
0.0
  0
VERTEX
  5
2D2
330
2BF
100
AcDbEntity
  8
LAYER_1
 62
     7
100
AcDbVertex
100
AcDb2dVertex
 10
186.2666666666666
 20
264.4906602647569
 30
0.0
  0
VERTEX
  5
2D3
330
2BF
100
AcDbEntity
  8
LAYER_1
 62
     7
100
AcDbVertex
100
AcDb2dVertex
 10
186.501966688368
 20
266.9601047092013
 30
0.0
  0
VERTEX
  5
2D4
330
2BF
100
AcDbEntity
  8
LAYER_1
 62
     7
100
AcDbVertex
100
AcDb2dVertex
 10
186.7372667100694
 20
270.1351047092014
 30
0.0
  0
VERTEX
  5
2D5
330
2BF
100
AcDbEntity
  8
LAYER_1
 62
     7
100
AcDbVertex
100
AcDb2dVertex
 10
186.9722222222222
 20
271.5462158203124
 30
0.0
  0
VERTEX
  5
2D6
330
2BF
100
AcDbEntity
  8
LAYER_1
 62
     7
100
AcDbVertex
100
AcDb2dVertex
 10
187.0900444878472
 20
272.7223714192708
 30
0.0
  0
SEQEND
  5
2D7
330
2BF
100
AcDbEntity
  8
LAYER_1
 62
     7
  0
HATCH
  5
2BE
330
A
100
AcDbEntity
  8
LAYER_1
 62
     7
100
AcDbHatch
 10
0.0
 20
0.0
 30
0.0
210
0.0
220
0.0
230
1.0
  2
_U
 70
     0
 71
     0
 91
        1
 92
        3
 72
     0
 73
     1
 93
       23
 10
186.7741292317708
 20
272.7223714192708
 10
26.45833333333333
 20
272.7223714192708
 10
26.45833333333333
 20
231.8001491970486
 10
183.604296875
 20
231.8001491970486
 10
183.7972222222222
 20
231.8001491970486
 10
184.6206000434028
 20
233.6815158420139
 10
185.3261555989583
 20
235.3279269748264
 10
186.9722222222222
 20
238.7378824869792
 10
187.442822265625
 20
241.7954047309028
 10
187.6777777777777
 20
244.7351047092014
 10
187.6777777777777
 20
247.3223714192708
 10
186.9722222222222
 20
250.3795491536458
 10
186.3844889322916
 20
252.6140380859374
 10
186.2666666666666
 20
255.3184380425347
 10
186.2666666666666
 20
255.7890380859375
 10
186.2666666666666
 20
257.2001491970486
 10
186.2666666666666
 20
259.0815158420138
 10
186.2666666666666
 20
261.5509602864583
 10
186.2666666666666
 20
264.4906602647569
 10
186.501966688368
 20
266.9601047092013
 10
186.7372667100694
 20
270.1351047092014
 10
186.9722222222222
 20
271.5462158203124
 10
187.0900444878472
 20
272.7223714192708
 97
        0
 75
     2
 76
     0
 52
45.0
 41
2.0
 77
     0
 78
     1
 53
45.0
 43
0.0
 44
0.0
 45
-1.414213562373094
 46
1.414213562373095
 79
     0
 98
        1
 10
0.0
 20
0.0
  0
POLYLINE
  5
2A5
330
A
100
AcDbEntity
  8
LAYER_1
 62
     7
100
AcDb2dPolyline
 66
     1
 10
0.0
 20
0.0
 30
0.0
 70
     1
  0
VERTEX
  5
2A6
330
2A5
100
AcDbEntity
  8
LAYER_1
 62
     7
100
AcDbVertex
100
AcDb2dVertex
 10
186.7741292317708
 20
272.7223714192708
 30
0.0
  0
VERTEX
  5
2A7
330
2A5
100
AcDbEntity
  8
LAYER_1
 62
     7
100
AcDbVertex
100
AcDb2dVertex
 10
26.45833333333333
 20
272.7223714192708
 30
0.0
  0
VERTEX
  5
2A8
330
2A5
100
AcDbEntity
  8
LAYER_1
 62
     7
100
AcDbVertex
100
AcDb2dVertex
 10
26.45833333333333
 20
231.8001491970486
 30
0.0
  0
VERTEX
  5
2A9
330
2A5
100
AcDbEntity
  8
LAYER_1
 62
     7
100
AcDbVertex
100
AcDb2dVertex
 10
183.604296875
 20
231.8001491970486
 30
0.0
  0
VERTEX
  5
2AA
330
2A5
100
AcDbEntity
  8
LAYER_1
 62
     7
100
AcDbVertex
100
AcDb2dVertex
 10
183.7972222222222
 20
231.8001491970486
 30
0.0
  0
VERTEX
  5
2AB
330
2A5
100
AcDbEntity
  8
LAYER_1
 62
     7
100
AcDbVertex
100
AcDb2dVertex
 10
184.6206000434028
 20
233.6815158420139
 30
0.0
  0
VERTEX
  5
2AC
330
2A5
100
AcDbEntity
  8
LAYER_1
 62
     7
100
AcDbVertex
100
AcDb2dVertex
 10
185.3261555989583
 20
235.3279269748264
 30
0.0
  0
VERTEX
  5
2AD
330
2A5
100
AcDbEntity
  8
LAYER_1
 62
     7
100
AcDbVertex
100
AcDb2dVertex
 10
186.9722222222222
 20
238.7378824869792
 30
0.0
  0
VERTEX
  5
2AE
330
2A5
100
AcDbEntity
  8
LAYER_1
 62
     7
100
AcDbVertex
100
AcDb2dVertex
 10
187.442822265625
 20
241.7954047309028
 30
0.0
  0
VERTEX
  5
2AF
330
2A5
100
AcDbEntity
  8
LAYER_1
 62
     7
100
AcDbVertex
100
AcDb2dVertex
 10
187.6777777777777
 20
244.7351047092014
 30
0.0
  0
VERTEX
  5
2B0
330
2A5
100
AcDbEntity
  8
LAYER_1
 62
     7
100
AcDbVertex
100
AcDb2dVertex
 10
187.6777777777777
 20
247.3223714192708
 30
0.0
  0
VERTEX
  5
2B1
330
2A5
100
AcDbEntity
  8
LAYER_1
 62
     7
100
AcDbVertex
100
AcDb2dVertex
 10
186.9722222222222
 20
250.3795491536458
 30
0.0
  0
VERTEX
  5
2B2
330
2A5
100
AcDbEntity
  8
LAYER_1
 62
     7
100
AcDbVertex
100
AcDb2dVertex
 10
186.3844889322916
 20
252.6140380859374
 30
0.0
  0
VERTEX
  5
2B3
330
2A5
100
AcDbEntity
  8
LAYER_1
 62
     7
100
AcDbVertex
100
AcDb2dVertex
 10
186.2666666666666
 20
255.3184380425347
 30
0.0
  0
VERTEX
  5
2B4
330
2A5
100
AcDbEntity
  8
LAYER_1
 62
     7
100
AcDbVertex
100
AcDb2dVertex
 10
186.2666666666666
 20
255.7890380859375
 30
0.0
  0
VERTEX
  5
2B5
330
2A5
100
AcDbEntity
  8
LAYER_1
 62
     7
100
AcDbVertex
100
AcDb2dVertex
 10
186.2666666666666
 20
257.2001491970486
 30
0.0
  0
VERTEX
  5
2B6
330
2A5
100
AcDbEntity
  8
LAYER_1
 62
     7
100
AcDbVertex
100
AcDb2dVertex
 10
186.2666666666666
 20
259.0815158420138
 30
0.0
  0
VERTEX
  5
2B7
330
2A5
100
AcDbEntity
  8
LAYER_1
 62
     7
100
AcDbVertex
100
AcDb2dVertex
 10
186.2666666666666
 20
261.5509602864583
 30
0.0
  0
VERTEX
  5
2B8
330
2A5
100
AcDbEntity
  8
LAYER_1
 62
     7
100
AcDbVertex
100
AcDb2dVertex
 10
186.2666666666666
 20
264.4906602647569
 30
0.0
  0
VERTEX
  5
2B9
330
2A5
100
AcDbEntity
  8
LAYER_1
 62
     7
100
AcDbVertex
100
AcDb2dVertex
 10
186.501966688368
 20
266.9601047092013
 30
0.0
  0
VERTEX
  5
2BA
330
2A5
100
AcDbEntity
  8
LAYER_1
 62
     7
100
AcDbVertex
100
AcDb2dVertex
 10
186.7372667100694
 20
270.1351047092014
 30
0.0
  0
VERTEX
  5
2BB
330
2A5
100
AcDbEntity
  8
LAYER_1
 62
     7
100
AcDbVertex
100
AcDb2dVertex
 10
186.9722222222222
 20
271.5462158203124
 30
0.0
  0
VERTEX
  5
2BC
330
2A5
100
AcDbEntity
  8
LAYER_1
 62
     7
100
AcDbVertex
100
AcDb2dVertex
 10
187.0900444878472
 20
272.7223714192708
 30
0.0
  0
SEQEND
  5
2BD
330
2A5
100
AcDbEntity
  8
LAYER_1
 62
     7
  0
LINE
  5
2A4
330
A
100
AcDbEntity
  8
LAYER_1
 62
     7
100
AcDbLine
 10
262.0256944444444
 20
272.7223714192708
 30
0.0
 11
280.4011447482638
 21
231.8387342664931
 31
0.0
  0
LINE
  5
2A3
330
A
100
AcDbEntity
  8
LAYER_1
 62
     7
100
AcDbLine
 10
263.3486111111111
 20
272.6341769748263
 30
0.0
 11
281.7054578993055
 21
231.7567409939236
 31
0.0
  0
HATCH
  5
2A2
330
A
100
AcDbEntity
  8
LAYER_1
 62
     7
100
AcDbHatch
 10
0.0
 20
0.0
 30
0.0
210
0.0
220
0.0
230
1.0
  2
SOLID
 70
     1
 71
     0
 91
        1
 92
        3
 72
     0
 73
     1
 93
        3
 10
260.5263888888889
 20
265.4904269748264
 10
263.5690972222222
 20
266.9897325303819
 10
263.525
 20
264.035218641493
 97
        0
 75
     2
 76
     1
 98
        1
 10
0.0
 20
0.0
450
        0
451
        0
460
0.0
461
0.0
452
        0
462
0.0
453
        0
470

  0
HATCH
  5
2A1
330
A
100
AcDbEntity
  8
LAYER_1
 62
     7
100
AcDbHatch
 10
0.0
 20
0.0
 30
0.0
210
0.0
220
0.0
230
1.0
  2
SOLID
 70
     1
 71
     0
 91
        1
 92
        3
 72
     0
 73
     1
 93
        3
 10
260.4381944444444
 20
259.6254964192708
 10
263.4809027777778
 20
261.1248019748264
 10
263.4368055555555
 20
258.1702880859375
 97
        0
 75
     2
 76
     1
 98
        1
 10
0.0
 20
0.0
450
        0
451
        0
460
0.0
461
0.0
452
        0
462
0.0
453
        0
470

  0
HATCH
  5
2A0
330
A
100
AcDbEntity
  8
LAYER_1
 62
     7
100
AcDbHatch
 10
0.0
 20
0.0
 30
0.0
210
0.0
220
0.0
230
1.0
  2
SOLID
 70
     1
 71
     0
 91
        1
 92
        3
 72
     0
 73
     1
 93
        3
 10
260.35
 20
254.3779269748263
 10
263.3927083333333
 20
255.8772325303819
 10
263.3486111111111
 20
252.922718641493
 97
        0
 75
     2
 76
     1
 98
        1
 10
0.0
 20
0.0
450
        0
451
        0
460
0.0
461
0.0
452
        0
462
0.0
453
        0
470

  0
HATCH
  5
29F
330
A
100
AcDbEntity
  8
LAYER_1
 62
     7
100
AcDbHatch
 10
0.0
 20
0.0
 30
0.0
210
0.0
220
0.0
230
1.0
  2
SOLID
 70
     1
 71
     0
 91
        1
 92
        3
 72
     0
 73
     1
 93
        3
 10
260.5263888888889
 20
248.5129964192708
 10
263.5690972222222
 20
250.0123019748264
 10
263.525
 20
247.0577880859375
 97
        0
 75
     2
 76
     1
 98
        1
 10
0.0
 20
0.0
450
        0
451
        0
460
0.0
461
0.0
452
        0
462
0.0
453
        0
470

  0
HATCH
  5
29E
330
A
100
AcDbEntity
  8
LAYER_1
 62
     7
100
AcDbHatch
 10
0.0
 20
0.0
 30
0.0
210
0.0
220
0.0
230
1.0
  2
SOLID
 70
     1
 71
     0
 91
        1
 92
        3
 72
     0
 73
     1
 93
        3
 10
260.3940972222222
 20
243.2654269748264
 10
263.4368055555555
 20
244.7647325303819
 10
263.3927083333333
 20
241.810218641493
 97
        0
 75
     2
 76
     1
 98
        1
 10
0.0
 20
0.0
450
        0
451
        0
460
0.0
461
0.0
452
        0
462
0.0
453
        0
470

  0
HATCH
  5
29D
330
A
100
AcDbEntity
  8
LAYER_1
 62
     7
100
AcDbHatch
 10
0.0
 20
0.0
 30
0.0
210
0.0
220
0.0
230
1.0
  2
SOLID
 70
     1
 71
     0
 91
        1
 92
        3
 72
     0
 73
     1
 93
        3
 10
260.3059027777778
 20
238.7675103081597
 10
263.3486111111111
 20
240.2668158637152
 10
263.3045138888889
 20
237.3123019748264
 97
        0
 75
     2
 76
     1
 98
        1
 10
0.0
 20
0.0
450
        0
451
        0
460
0.0
461
0.0
452
        0
462
0.0
453
        0
470

  0
HATCH
  5
29C
330
A
100
AcDbEntity
  8
LAYER_1
 62
     7
100
AcDbHatch
 10
0.0
 20
0.0
 30
0.0
210
0.0
220
0.0
230
1.0
  2
SOLID
 70
     1
 71
     0
 91
        1
 92
        3
 72
     0
 73
     1
 93
        3
 10
260.2618055555556
 20
234.269593641493
 10
263.3045138888889
 20
235.7688991970486
 10
263.2604166666666
 20
232.8143853081597
 97
        0
 75
     2
 76
     1
 98
        1
 10
0.0
 20
0.0
450
        0
451
        0
460
0.0
461
0.0
452
        0
462
0.0
453
        0
470

  0
HATCH
  5
29B
330
A
100
AcDbEntity
  8
LAYER_1
 62
     7
100
AcDbHatch
 10
0.0
 20
0.0
 30
0.0
210
0.0
220
0.0
230
1.0
  2
SOLID
 70
     1
 71
     0
 91
        1
 92
        3
 72
     0
 73
     1
 93
        3
 10
285.0885416666666
 20
233.9609130859375
 10
282.0458333333333
 20
232.4616075303819
 10
282.0899305555556
 20
235.4161214192708
 97
        0
 75
     2
 76
     1
 98
        1
 10
0.0
 20
0.0
450
        0
451
        0
460
0.0
461
0.0
452
        0
462
0.0
453
        0
470

  0
HATCH
  5
29A
330
A
100
AcDbEntity
  8
LAYER_1
 62
     7
100
AcDbHatch
 10
0.0
 20
0.0
 30
0.0
210
0.0
220
0.0
230
1.0
  2
SOLID
 70
     1
 71
     0
 91
        1
 92
        3
 72
     0
 73
     1
 93
        3
 10
285.1326388888888
 20
238.6793158637153
 10
282.0899305555556
 20
237.1800103081597
 10
282.1340277777778
 20
240.1345241970486
 97
        0
 75
     2
 76
     1
 98
        1
 10
0.0
 20
0.0
450
        0
451
        0
460
0.0
461
0.0
452
        0
462
0.0
453
        0
470

  0
HATCH
  5
299
330
A
100
AcDbEntity
  8
LAYER_1
 62
     7
100
AcDbHatch
 10
0.0
 20
0.0
 30
0.0
210
0.0
220
0.0
230
1.0
  2
SOLID
 70
     1
 71
     0
 91
        1
 92
        3
 72
     0
 73
     1
 93
        3
 10
285.1767361111111
 20
243.2213297526041
 10
282.1340277777778
 20
241.7220241970486
 10
282.178125
 20
244.6765380859375
 97
        0
 75
     2
 76
     1
 98
        1
 10
0.0
 20
0.0
450
        0
451
        0
460
0.0
461
0.0
452
        0
462
0.0
453
        0
470

  0
HATCH
  5
298
330
A
100
AcDbEntity
  8
LAYER_1
 62
     7
100
AcDbHatch
 10
0.0
 20
0.0
 30
0.0
210
0.0
220
0.0
230
1.0
  2
SOLID
 70
     1
 71
     0
 91
        1
 92
        3
 72
     0
 73
     1
 93
        3
 10
285.1767361111111
 20
247.9397325303819
 10
282.1340277777778
 20
246.4404269748264
 10
282.178125
 20
249.3949408637153
 97
        0
 75
     2
 76
     1
 98
        1
 10
0.0
 20
0.0
450
        0
451
        0
460
0.0
461
0.0
452
        0
462
0.0
453
        0
470

  0
HATCH
  5
297
330
A
100
AcDbEntity
  8
LAYER_1
 62
     7
100
AcDbHatch
 10
0.0
 20
0.0
 30
0.0
210
0.0
220
0.0
230
1.0
  2
SOLID
 70
     1
 71
     0
 91
        1
 92
        3
 72
     0
 73
     1
 93
        3
 10
285.2649305555555
 20
252.922718641493
 10
282.2222222222222
 20
251.4234130859375
 10
282.2663194444444
 20
254.3779269748263
 97
        0
 75
     2
 76
     1
 98
        1
 10
0.0
 20
0.0
450
        0
451
        0
460
0.0
461
0.0
452
        0
462
0.0
453
        0
470

  0
HATCH
  5
296
330
A
100
AcDbEntity
  8
LAYER_1
 62
     7
100
AcDbHatch
 10
0.0
 20
0.0
 30
0.0
210
0.0
220
0.0
230
1.0
  2
SOLID
 70
     1
 71
     0
 91
        1
 92
        3
 72
     0
 73
     1
 93
        3
 10
285.3531249999999
 20
258.3466769748264
 10
282.3104166666666
 20
256.8473714192708
 10
282.3545138888889
 20
259.8018853081597
 97
        0
 75
     2
 76
     1
 98
        1
 10
0.0
 20
0.0
450
        0
451
        0
460
0.0
461
0.0
452
        0
462
0.0
453
        0
470

  0
HATCH
  5
295
330
A
100
AcDbEntity
  8
LAYER_1
 62
     7
100
AcDbHatch
 10
0.0
 20
0.0
 30
0.0
210
0.0
220
0.0
230
1.0
  2
SOLID
 70
     1
 71
     0
 91
        1
 92
        3
 72
     0
 73
     1
 93
        3
 10
285.3972222222222
 20
263.9911214192708
 10
282.3545138888889
 20
262.4918158637153
 10
282.3986111111111
 20
265.4463297526041
 97
        0
 75
     2
 76
     1
 98
        1
 10
0.0
 20
0.0
450
        0
451
        0
460
0.0
461
0.0
452
        0
462
0.0
453
        0
470

  0
HATCH
  5
294
330
A
100
AcDbEntity
  8
LAYER_1
 62
     7
100
AcDbHatch
 10
0.0
 20
0.0
 30
0.0
210
0.0
220
0.0
230
1.0
  2
SOLID
 70
     1
 71
     0
 91
        1
 92
        3
 72
     0
 73
     1
 93
        3
 10
285.4854166666667
 20
269.0623019748264
 10
282.4427083333333
 20
267.5629964192708
 10
282.4868055555555
 20
270.5175103081597
 97
        0
 75
     2
 76
     1
 98
        1
 10
0.0
 20
0.0
450
        0
451
        0
460
0.0
461
0.0
452
        0
462
0.0
453
        0
470

  0
LINE
  5
293
330
A
100
AcDbEntity
  8
LAYER_1
  6
AI9-LType3
 62
     7
100
AcDbLine
 10
28.92760552300347
 20
182.704610188802
 30
0.0
 11
28.92760552300347
 21
156.3634101019965
 31
0.0
  0
LINE
  5
291
330
A
100
AcDbEntity
  8
LAYER_1
  6
AI9-LType2
 62
     7
100
AcDbLine
 10
234.2444444444444
 20
171.7684990776909
 30
0.0
 11
234.2444444444444
 21
152.9534545898437
 31
0.0
  0
POLYLINE
  5
28B
330
A
100
AcDbEntity
  8
LAYER_1
 62
     7
100
AcDb2dPolyline
 66
     1
 10
0.0
 20
0.0
 30
0.0
  0
VERTEX
  5
28C
330
28B
100
AcDbEntity
  8
LAYER_1
 62
     7
100
AcDbVertex
100
AcDb2dVertex
 10
233.8916666666666
 20
153.0712768554687
 30
0.0
  0
VERTEX
  5
28D
330
28B
100
AcDbEntity
  8
LAYER_1
 62
     7
100
AcDbVertex
100
AcDb2dVertex
 10
227.4238444010416
 20
152.6006768120659
 30
0.0
  0
VERTEX
  5
28E
330
28B
100
AcDbEntity
  8
LAYER_1
 62
     7
100
AcDbVertex
100
AcDb2dVertex
 10
218.3825358072916
 20
152.3681328667534
 30
0.0
  0
SEQEND
  5
28F
330
28B
100
AcDbEntity
  8
LAYER_1
 62
     7
  0
POLYLINE
  5
243
330
A
100
AcDbEntity
  8
LAYER_1
 62
     7
100
AcDb2dPolyline
 66
     1
 10
0.0
 20
0.0
 30
0.0
 70
     1
  0
VERTEX
  5
244
330
243
100
AcDbEntity
  8
LAYER_1
 62
     7
100
AcDbVertex
100
AcDb2dVertex
 10
200.6718166775173
 20
161.1259101019965
 30
0.0
  0
VERTEX
  5
245
330
243
100
AcDbEntity
  8
LAYER_1
 62
     7
100
AcDbVertex
100
AcDb2dVertex
 10
204.6698499891493
 20
160.0090101453993
 30
0.0
  0
VERTEX
  5
246
330
243
100
AcDbEntity
  8
LAYER_1
 62
     7
100
AcDbVertex
100
AcDb2dVertex
 10
208.3151055230035
 20
158.3036878797743
 30
0.0
  0
VERTEX
  5
247
330
243
100
AcDbEntity
  8
LAYER_1
 62
     7
100
AcDbVertex
100
AcDb2dVertex
 10
211.0789333767361
 20
156.9514879014757
 30
0.0
  0
VERTEX
  5
248
330
243
100
AcDbEntity
  8
LAYER_1
 62
     7
100
AcDbVertex
100
AcDb2dVertex
 10
213.4305555555556
 20
155.5403767903646
 30
0.0
  0
VERTEX
  5
249
330
243
100
AcDbEntity
  8
LAYER_1
 62
     7
100
AcDbVertex
100
AcDb2dVertex
 10
215.3708333333333
 20
154.3645657009548
 30
0.0
  0
VERTEX
  5
24A
330
243
100
AcDbEntity
  8
LAYER_1
 62
     7
100
AcDbVertex
100
AcDb2dVertex
 10
217.0168999565972
 20
153.1884101019965
 30
0.0
  0
VERTEX
  5
24B
330
243
100
AcDbEntity
  8
LAYER_1
 62
     7
100
AcDbVertex
100
AcDb2dVertex
 10
218.4280110677083
 20
152.3653767903645
 30
0.0
  0
VERTEX
  5
24C
330
243
100
AcDbEntity
  8
LAYER_1
 62
     7
100
AcDbVertex
100
AcDb2dVertex
 10
217.4289333767361
 20
152.1300767686631
 30
0.0
  0
VERTEX
  5
24D
330
243
100
AcDbEntity
  8
LAYER_1
 62
     7
100
AcDbVertex
100
AcDb2dVertex
 10
211.3724555121528
 20
151.8362101236979
 30
0.0
  0
VERTEX
  5
24E
330
243
100
AcDbEntity
  8
LAYER_1
 62
     7
100
AcDbVertex
100
AcDb2dVertex
 10
203.1412611219618
 20
151.5423434787326
 30
0.0
  0
VERTEX
  5
24F
330
243
100
AcDbEntity
  8
LAYER_1
 62
     7
100
AcDbVertex
100
AcDb2dVertex
 10
195.8504055447048
 20
151.5423434787326
 30
0.0
  0
VERTEX
  5
250
330
243
100
AcDbEntity
  8
LAYER_1
 62
     7
100
AcDbVertex
100
AcDb2dVertex
 10
188.7948499891493
 20
151.6009101019965
 30
0.0
  0
VERTEX
  5
251
330
243
100
AcDbEntity
  8
LAYER_1
 62
     7
100
AcDbVertex
100
AcDb2dVertex
 10
181.7982055664062
 20
151.7187323676215
 30
0.0
  0
VERTEX
  5
252
330
243
100
AcDbEntity
  8
LAYER_1
 62
     7
100
AcDbVertex
100
AcDb2dVertex
 10
175.3892944335937
 20
151.7772989908854
 30
0.0
  0
VERTEX
  5
253
330
243
100
AcDbEntity
  8
LAYER_1
 62
     7
100
AcDbVertex
100
AcDb2dVertex
 10
169.1567721896701
 20
152.1889879014756
 30
0.0
  0
VERTEX
  5
254
330
243
100
AcDbEntity
  8
LAYER_1
 62
     7
100
AcDbVertex
100
AcDb2dVertex
 10
163.6301500108507
 20
152.306465657552
 30
0.0
  0
VERTEX
  5
255
330
243
100
AcDbEntity
  8
LAYER_1
 62
     7
100
AcDbVertex
100
AcDb2dVertex
 10
157.9267944335937
 20
152.6006768120659
 30
0.0
  0
VERTEX
  5
256
330
243
100
AcDbEntity
  8
LAYER_1
 62
     7
100
AcDbVertex
100
AcDb2dVertex
 10
148.9898722330729
 20
153.1884101019965
 30
0.0
  0
VERTEX
  5
257
330
243
100
AcDbEntity
  8
LAYER_1
 62
     7
100
AcDbVertex
100
AcDb2dVertex
 10
142.9337388780382
 20
153.4826212565104
 30
0.0
  0
VERTEX
  5
258
330
243
100
AcDbEntity
  8
LAYER_1
 62
     7
100
AcDbVertex
100
AcDb2dVertex
 10
136.760127766927
 20
153.4237101236979
 30
0.0
  0
VERTEX
  5
259
330
243
100
AcDbEntity
  8
LAYER_1
 62
     7
100
AcDbVertex
100
AcDb2dVertex
 10
127.7053833007812
 20
153.6590101453993
 30
0.0
  0
VERTEX
  5
25A
330
243
100
AcDbEntity
  8
LAYER_1
 62
     7
100
AcDbVertex
100
AcDb2dVertex
 10
122.7664944118923
 20
153.893965657552
 30
0.0
  0
VERTEX
  5
25B
330
243
100
AcDbEntity
  8
LAYER_1
 62
     7
100
AcDbVertex
100
AcDb2dVertex
 10
109.7137166341146
 20
154.4231323242187
 30
0.0
  0
VERTEX
  5
25C
330
243
100
AcDbEntity
  8
LAYER_1
 62
     7
100
AcDbVertex
100
AcDb2dVertex
 10
102.9523722330729
 20
155.0701212565104
 30
0.0
  0
VERTEX
  5
25D
330
243
100
AcDbEntity
  8
LAYER_1
 62
     7
100
AcDbVertex
100
AcDb2dVertex
 10
95.60260552300347
 20
155.4228990342882
 30
0.0
  0
VERTEX
  5
25E
330
243
100
AcDbEntity
  8
LAYER_1
 62
     7
100
AcDbVertex
100
AcDb2dVertex
 10
90.54623887803819
 20
155.6578545464409
 30
0.0
  0
VERTEX
  5
25F
330
243
100
AcDbEntity
  8
LAYER_1
 62
     7
100
AcDbVertex
100
AcDb2dVertex
 10
80.31568332248262
 20
155.8342434353298
 30
0.0
  0
VERTEX
  5
260
330
243
100
AcDbEntity
  8
LAYER_1
 62
     7
100
AcDbVertex
100
AcDb2dVertex
 10
73.61290554470485
 20
155.2465101453993
 30
0.0
  0
VERTEX
  5
261
330
243
100
AcDbEntity
  8
LAYER_1
 62
     7
100
AcDbVertex
100
AcDb2dVertex
 10
67.90954996744791
 20
155.6578545464409
 30
0.0
  0
VERTEX
  5
262
330
243
100
AcDbEntity
  8
LAYER_1
 62
     7
100
AcDbVertex
100
AcDb2dVertex
 10
60.61886664496527
 20
155.9520657009548
 30
0.0
  0
VERTEX
  5
263
330
243
100
AcDbEntity
  8
LAYER_1
 62
     7
100
AcDbVertex
100
AcDb2dVertex
 10
48.56568332248263
 20
156.2459323459201
 30
0.0
  0
VERTEX
  5
264
330
243
100
AcDbEntity
  8
LAYER_1
 62
     7
100
AcDbVertex
100
AcDb2dVertex
 10
41.98038330078125
 20
156.1870212131076
 30
0.0
  0
VERTEX
  5
265
330
243
100
AcDbEntity
  8
LAYER_1
 62
     7
100
AcDbVertex
100
AcDb2dVertex
 10
34.51331108940972
 20
156.3634101019965
 30
0.0
  0
VERTEX
  5
266
330
243
100
AcDbEntity
  8
LAYER_1
 62
     7
100
AcDbVertex
100
AcDb2dVertex
 10
29.16290554470486
 20
156.3634101019965
 30
0.0
  0
VERTEX
  5
267
330
243
100
AcDbEntity
  8
LAYER_1
 62
     7
100
AcDbVertex
100
AcDb2dVertex
 10
29.16290554470486
 20
171.356465657552
 30
0.0
  0
VERTEX
  5
268
330
243
100
AcDbEntity
  8
LAYER_1
 62
     7
100
AcDbVertex
100
AcDb2dVertex
 10
34.39566107855902
 20
171.7681545681423
 30
0.0
  0
VERTEX
  5
269
330
243
100
AcDbEntity
  8
LAYER_1
 62
     7
100
AcDbVertex
100
AcDb2dVertex
 10
38.80538330078124
 20
172.1209323459201
 30
0.0
  0
VERTEX
  5
26A
330
243
100
AcDbEntity
  8
LAYER_1
 62
     7
100
AcDbVertex
100
AcDb2dVertex
 10
42.86232774522569
 20
172.4737101236979
 30
0.0
  0
VERTEX
  5
26B
330
243
100
AcDbEntity
  8
LAYER_1
 62
     7
100
AcDbVertex
100
AcDb2dVertex
 10
47.91886664496527
 20
172.4737101236979
 30
0.0
  0
VERTEX
  5
26C
330
243
100
AcDbEntity
  8
LAYER_1
 62
     7
100
AcDbVertex
100
AcDb2dVertex
 10
52.2698499891493
 20
172.5911878797742
 30
0.0
  0
VERTEX
  5
26D
330
243
100
AcDbEntity
  8
LAYER_1
 62
     7
100
AcDbVertex
100
AcDb2dVertex
 10
57.32621663411458
 20
172.5911878797742
 30
0.0
  0
VERTEX
  5
26E
330
243
100
AcDbEntity
  8
LAYER_1
 62
     7
100
AcDbVertex
100
AcDb2dVertex
 10
63.02957221137152
 20
172.297321234809
 30
0.0
  0
VERTEX
  5
26F
330
243
100
AcDbEntity
  8
LAYER_1
 62
     7
100
AcDbVertex
100
AcDb2dVertex
 10
67.73316107855902
 20
172.0034545898437
 30
0.0
  0
VERTEX
  5
270
330
243
100
AcDbEntity
  8
LAYER_1
 62
     7
100
AcDbVertex
100
AcDb2dVertex
 10
72.73096110026042
 20
171.8270657009548
 30
0.0
  0
VERTEX
  5
271
330
243
100
AcDbEntity
  8
LAYER_1
 62
     7
100
AcDbVertex
100
AcDb2dVertex
 10
77.6698499891493
 20
171.356465657552
 30
0.0
  0
VERTEX
  5
272
330
243
100
AcDbEntity
  8
LAYER_1
 62
     7
100
AcDbVertex
100
AcDb2dVertex
 10
83.25538330078124
 20
171.2389879014756
 30
0.0
  0
VERTEX
  5
273
330
243
100
AcDbEntity
  8
LAYER_1
 62
     7
100
AcDbVertex
100
AcDb2dVertex
 10
86.90081108940971
 20
170.8272989908854
 30
0.0
  0
VERTEX
  5
274
330
243
100
AcDbEntity
  8
LAYER_1
 62
     7
100
AcDbVertex
100
AcDb2dVertex
 10
90.72262776692708
 20
170.4745212131076
 30
0.0
  0
VERTEX
  5
275
330
243
100
AcDbEntity
  8
LAYER_1
 62
     7
100
AcDbVertex
100
AcDb2dVertex
 10
95.54403889973958
 20
169.4161878797743
 30
0.0
  0
VERTEX
  5
276
330
243
100
AcDbEntity
  8
LAYER_1
 62
     7
100
AcDbVertex
100
AcDb2dVertex
 10
100.3065388997395
 20
169.2397989908854
 30
0.0
  0
VERTEX
  5
277
330
243
100
AcDbEntity
  8
LAYER_1
 62
     7
100
AcDbVertex
100
AcDb2dVertex
 10
107.2442721896701
 20
169.122321234809
 30
0.0
  0
VERTEX
  5
278
330
243
100
AcDbEntity
  8
LAYER_1
 62
     7
100
AcDbVertex
100
AcDb2dVertex
 10
113.4767944335937
 20
168.7695434570312
 30
0.0
  0
VERTEX
  5
279
330
243
100
AcDbEntity
  8
LAYER_1
 62
     7
100
AcDbVertex
100
AcDb2dVertex
 10
119.7093166775173
 20
168.1814656575521
 30
0.0
  0
VERTEX
  5
27A
330
243
100
AcDbEntity
  8
LAYER_1
 62
     7
100
AcDbVertex
100
AcDb2dVertex
 10
124.4718166775173
 20
167.5937323676215
 30
0.0
  0
VERTEX
  5
27B
330
243
100
AcDbEntity
  8
LAYER_1
 62
     7
100
AcDbVertex
100
AcDb2dVertex
 10
130.7629055447048
 20
166.8292656792534
 30
0.0
  0
VERTEX
  5
27C
330
243
100
AcDbEntity
  8
LAYER_1
 62
     7
100
AcDbVertex
100
AcDb2dVertex
 10
138.9357055664062
 20
166.1237101236979
 30
0.0
  0
VERTEX
  5
27D
330
243
100
AcDbEntity
  8
LAYER_1
 62
     7
100
AcDbVertex
100
AcDb2dVertex
 10
146.5204277886284
 20
165.6534545898437
 30
0.0
  0
VERTEX
  5
27E
330
243
100
AcDbEntity
  8
LAYER_1
 62
     7
100
AcDbVertex
100
AcDb2dVertex
 10
153.2817721896701
 20
165.5945434570312
 30
0.0
  0
VERTEX
  5
27F
330
243
100
AcDbEntity
  8
LAYER_1
 62
     7
100
AcDbVertex
100
AcDb2dVertex
 10
156.5745944552951
 20
165.3592434353298
 30
0.0
  0
VERTEX
  5
280
330
243
100
AcDbEntity
  8
LAYER_1
 62
     7
100
AcDbVertex
100
AcDb2dVertex
 10
161.9248277452257
 20
164.7715101453993
 30
0.0
  0
VERTEX
  5
281
330
243
100
AcDbEntity
  8
LAYER_1
 62
     7
100
AcDbVertex
100
AcDb2dVertex
 10
164.0414944118923
 20
164.4772989908854
 30
0.0
  0
VERTEX
  5
282
330
243
100
AcDbEntity
  8
LAYER_1
 62
     7
100
AcDbVertex
100
AcDb2dVertex
 10
171.4498277452257
 20
163.1840101453993
 30
0.0
  0
VERTEX
  5
283
330
243
100
AcDbEntity
  8
LAYER_1
 62
     7
100
AcDbVertex
100
AcDb2dVertex
 10
174.213483344184
 20
163.0076212565104
 30
0.0
  0
VERTEX
  5
284
330
243
100
AcDbEntity
  8
LAYER_1
 62
     7
100
AcDbVertex
100
AcDb2dVertex
 10
179.8579277886284
 20
162.6548434787326
 30
0.0
  0
VERTEX
  5
285
330
243
100
AcDbEntity
  8
LAYER_1
 62
     7
100
AcDbVertex
100
AcDb2dVertex
 10
185.0906833224826
 20
162.5370212131076
 30
0.0
  0
VERTEX
  5
286
330
243
100
AcDbEntity
  8
LAYER_1
 62
     7
100
AcDbVertex
100
AcDb2dVertex
 10
189.5593166775173
 20
162.4784545898437
 30
0.0
  0
VERTEX
  5
287
330
243
100
AcDbEntity
  8
LAYER_1
 62
     7
100
AcDbVertex
100
AcDb2dVertex
 10
193.145661078559
 20
162.2431545681423
 30
0.0
  0
VERTEX
  5
288
330
243
100
AcDbEntity
  8
LAYER_1
 62
     7
100
AcDbVertex
100
AcDb2dVertex
 10
196.320661078559
 20
161.5375990125867
 30
0.0
  0
VERTEX
  5
289
330
243
100
AcDbEntity
  8
LAYER_1
 62
     7
100
AcDbVertex
100
AcDb2dVertex
 10
198.1434611002604
 20
161.3612101236979
 30
0.0
  0
SEQEND
  5
28A
330
243
100
AcDbEntity
  8
LAYER_1
 62
     7
  0
HATCH
  5
242
330
A
100
AcDbEntity
  8
LAYER_1
 62
     7
100
AcDbHatch
 10
0.0
 20
0.0
 30
0.0
210
0.0
220
0.0
230
1.0
  2
_U
 70
     0
 71
     0
 91
        1
 92
        3
 72
     0
 73
     1
 93
       70
 10
200.6718166775173
 20
161.1259101019965
 10
204.6698499891493
 20
160.0090101453993
 10
208.3151055230035
 20
158.3036878797743
 10
211.0789333767361
 20
156.9514879014757
 10
213.4305555555556
 20
155.5403767903646
 10
215.3708333333333
 20
154.3645657009548
 10
217.0168999565972
 20
153.1884101019965
 10
218.4280110677083
 20
152.3653767903645
 10
217.4289333767361
 20
152.1300767686631
 10
211.3724555121528
 20
151.8362101236979
 10
203.1412611219618
 20
151.5423434787326
 10
195.8504055447048
 20
151.5423434787326
 10
188.7948499891493
 20
151.6009101019965
 10
181.7982055664062
 20
151.7187323676215
 10
175.3892944335937
 20
151.7772989908854
 10
169.1567721896701
 20
152.1889879014756
 10
163.6301500108507
 20
152.306465657552
 10
157.9267944335937
 20
152.6006768120659
 10
148.9898722330729
 20
153.1884101019965
 10
142.9337388780382
 20
153.4826212565104
 10
136.760127766927
 20
153.4237101236979
 10
127.7053833007812
 20
153.6590101453993
 10
122.7664944118923
 20
153.893965657552
 10
109.7137166341146
 20
154.4231323242187
 10
102.9523722330729
 20
155.0701212565104
 10
95.60260552300347
 20
155.4228990342882
 10
90.54623887803819
 20
155.6578545464409
 10
80.31568332248262
 20
155.8342434353298
 10
73.61290554470485
 20
155.2465101453993
 10
67.90954996744791
 20
155.6578545464409
 10
60.61886664496527
 20
155.9520657009548
 10
48.56568332248263
 20
156.2459323459201
 10
41.98038330078125
 20
156.1870212131076
 10
34.51331108940972
 20
156.3634101019965
 10
29.16290554470486
 20
156.3634101019965
 10
29.16290554470486
 20
171.356465657552
 10
34.39566107855902
 20
171.7681545681423
 10
38.80538330078124
 20
172.1209323459201
 10
42.86232774522569
 20
172.4737101236979
 10
47.91886664496527
 20
172.4737101236979
 10
52.2698499891493
 20
172.5911878797742
 10
57.32621663411458
 20
172.5911878797742
 10
63.02957221137152
 20
172.297321234809
 10
67.73316107855902
 20
172.0034545898437
 10
72.73096110026042
 20
171.8270657009548
 10
77.6698499891493
 20
171.356465657552
 10
83.25538330078124
 20
171.2389879014756
 10
86.90081108940971
 20
170.8272989908854
 10
90.72262776692708
 20
170.4745212131076
 10
95.54403889973958
 20
169.4161878797743
 10
100.3065388997395
 20
169.2397989908854
 10
107.2442721896701
 20
169.122321234809
 10
113.4767944335937
 20
168.7695434570312
 10
119.7093166775173
 20
168.1814656575521
 10
124.4718166775173
 20
167.5937323676215
 10
130.7629055447048
 20
166.8292656792534
 10
138.9357055664062
 20
166.1237101236979
 10
146.5204277886284
 20
165.6534545898437
 10
153.2817721896701
 20
165.5945434570312
 10
156.5745944552951
 20
165.3592434353298
 10
161.9248277452257
 20
164.7715101453993
 10
164.0414944118923
 20
164.4772989908854
 10
171.4498277452257
 20
163.1840101453993
 10
174.213483344184
 20
163.0076212565104
 10
179.8579277886284
 20
162.6548434787326
 10
185.0906833224826
 20
162.5370212131076
 10
189.5593166775173
 20
162.4784545898437
 10
193.145661078559
 20
162.2431545681423
 10
196.320661078559
 20
161.5375990125867
 10
198.1434611002604
 20
161.3612101236979
 97
        0
 75
     2
 76
     0
 52
45.0
 41
2.0
 77
     0
 78
     1
 53
45.0
 43
0.0
 44
0.0
 45
-1.414213562373094
 46
1.414213562373095
 79
     0
 98
        1
 10
0.0
 20
0.0
  0
POLYLINE
  5
1FA
330
A
100
AcDbEntity
  8
LAYER_1
 62
     7
100
AcDb2dPolyline
 66
     1
 10
0.0
 20
0.0
 30
0.0
 70
     1
  0
VERTEX
  5
1FB
330
1FA
100
AcDbEntity
  8
LAYER_1
 62
     7
100
AcDbVertex
100
AcDb2dVertex
 10
200.6718166775173
 20
161.1259101019965
 30
0.0
  0
VERTEX
  5
1FC
330
1FA
100
AcDbEntity
  8
LAYER_1
 62
     7
100
AcDbVertex
100
AcDb2dVertex
 10
204.6698499891493
 20
160.0090101453993
 30
0.0
  0
VERTEX
  5
1FD
330
1FA
100
AcDbEntity
  8
LAYER_1
 62
     7
100
AcDbVertex
100
AcDb2dVertex
 10
208.3151055230035
 20
158.3036878797743
 30
0.0
  0
VERTEX
  5
1FE
330
1FA
100
AcDbEntity
  8
LAYER_1
 62
     7
100
AcDbVertex
100
AcDb2dVertex
 10
211.0789333767361
 20
156.9514879014757
 30
0.0
  0
VERTEX
  5
1FF
330
1FA
100
AcDbEntity
  8
LAYER_1
 62
     7
100
AcDbVertex
100
AcDb2dVertex
 10
213.4305555555556
 20
155.5403767903646
 30
0.0
  0
VERTEX
  5
200
330
1FA
100
AcDbEntity
  8
LAYER_1
 62
     7
100
AcDbVertex
100
AcDb2dVertex
 10
215.3708333333333
 20
154.3645657009548
 30
0.0
  0
VERTEX
  5
201
330
1FA
100
AcDbEntity
  8
LAYER_1
 62
     7
100
AcDbVertex
100
AcDb2dVertex
 10
217.0168999565972
 20
153.1884101019965
 30
0.0
  0
VERTEX
  5
202
330
1FA
100
AcDbEntity
  8
LAYER_1
 62
     7
100
AcDbVertex
100
AcDb2dVertex
 10
218.4280110677083
 20
152.3653767903645
 30
0.0
  0
VERTEX
  5
203
330
1FA
100
AcDbEntity
  8
LAYER_1
 62
     7
100
AcDbVertex
100
AcDb2dVertex
 10
217.4289333767361
 20
152.1300767686631
 30
0.0
  0
VERTEX
  5
204
330
1FA
100
AcDbEntity
  8
LAYER_1
 62
     7
100
AcDbVertex
100
AcDb2dVertex
 10
211.3724555121528
 20
151.8362101236979
 30
0.0
  0
VERTEX
  5
205
330
1FA
100
AcDbEntity
  8
LAYER_1
 62
     7
100
AcDbVertex
100
AcDb2dVertex
 10
203.1412611219618
 20
151.5423434787326
 30
0.0
  0
VERTEX
  5
206
330
1FA
100
AcDbEntity
  8
LAYER_1
 62
     7
100
AcDbVertex
100
AcDb2dVertex
 10
195.8504055447048
 20
151.5423434787326
 30
0.0
  0
VERTEX
  5
207
330
1FA
100
AcDbEntity
  8
LAYER_1
 62
     7
100
AcDbVertex
100
AcDb2dVertex
 10
188.7948499891493
 20
151.6009101019965
 30
0.0
  0
VERTEX
  5
208
330
1FA
100
AcDbEntity
  8
LAYER_1
 62
     7
100
AcDbVertex
100
AcDb2dVertex
 10
181.7982055664062
 20
151.7187323676215
 30
0.0
  0
VERTEX
  5
209
330
1FA
100
AcDbEntity
  8
LAYER_1
 62
     7
100
AcDbVertex
100
AcDb2dVertex
 10
175.3892944335937
 20
151.7772989908854
 30
0.0
  0
VERTEX
  5
20A
330
1FA
100
AcDbEntity
  8
LAYER_1
 62
     7
100
AcDbVertex
100
AcDb2dVertex
 10
169.1567721896701
 20
152.1889879014756
 30
0.0
  0
VERTEX
  5
20B
330
1FA
100
AcDbEntity
  8
LAYER_1
 62
     7
100
AcDbVertex
100
AcDb2dVertex
 10
163.6301500108507
 20
152.306465657552
 30
0.0
  0
VERTEX
  5
20C
330
1FA
100
AcDbEntity
  8
LAYER_1
 62
     7
100
AcDbVertex
100
AcDb2dVertex
 10
157.9267944335937
 20
152.6006768120659
 30
0.0
  0
VERTEX
  5
20D
330
1FA
100
AcDbEntity
  8
LAYER_1
 62
     7
100
AcDbVertex
100
AcDb2dVertex
 10
148.9898722330729
 20
153.1884101019965
 30
0.0
  0
VERTEX
  5
20E
330
1FA
100
AcDbEntity
  8
LAYER_1
 62
     7
100
AcDbVertex
100
AcDb2dVertex
 10
142.9337388780382
 20
153.4826212565104
 30
0.0
  0
VERTEX
  5
20F
330
1FA
100
AcDbEntity
  8
LAYER_1
 62
     7
100
AcDbVertex
100
AcDb2dVertex
 10
136.760127766927
 20
153.4237101236979
 30
0.0
  0
VERTEX
  5
210
330
1FA
100
AcDbEntity
  8
LAYER_1
 62
     7
100
AcDbVertex
100
AcDb2dVertex
 10
127.7053833007812
 20
153.6590101453993
 30
0.0
  0
VERTEX
  5
211
330
1FA
100
AcDbEntity
  8
LAYER_1
 62
     7
100
AcDbVertex
100
AcDb2dVertex
 10
122.7664944118923
 20
153.893965657552
 30
0.0
  0
VERTEX
  5
212
330
1FA
100
AcDbEntity
  8
LAYER_1
 62
     7
100
AcDbVertex
100
AcDb2dVertex
 10
109.7137166341146
 20
154.4231323242187
 30
0.0
  0
VERTEX
  5
213
330
1FA
100
AcDbEntity
  8
LAYER_1
 62
     7
100
AcDbVertex
100
AcDb2dVertex
 10
102.9523722330729
 20
155.0701212565104
 30
0.0
  0
VERTEX
  5
214
330
1FA
100
AcDbEntity
  8
LAYER_1
 62
     7
100
AcDbVertex
100
AcDb2dVertex
 10
95.60260552300347
 20
155.4228990342882
 30
0.0
  0
VERTEX
  5
215
330
1FA
100
AcDbEntity
  8
LAYER_1
 62
     7
100
AcDbVertex
100
AcDb2dVertex
 10
90.54623887803819
 20
155.6578545464409
 30
0.0
  0
VERTEX
  5
216
330
1FA
100
AcDbEntity
  8
LAYER_1
 62
     7
100
AcDbVertex
100
AcDb2dVertex
 10
80.31568332248262
 20
155.8342434353298
 30
0.0
  0
VERTEX
  5
217
330
1FA
100
AcDbEntity
  8
LAYER_1
 62
     7
100
AcDbVertex
100
AcDb2dVertex
 10
73.61290554470485
 20
155.2465101453993
 30
0.0
  0
VERTEX
  5
218
330
1FA
100
AcDbEntity
  8
LAYER_1
 62
     7
100
AcDbVertex
100
AcDb2dVertex
 10
67.90954996744791
 20
155.6578545464409
 30
0.0
  0
VERTEX
  5
219
330
1FA
100
AcDbEntity
  8
LAYER_1
 62
     7
100
AcDbVertex
100
AcDb2dVertex
 10
60.61886664496527
 20
155.9520657009548
 30
0.0
  0
VERTEX
  5
21A
330
1FA
100
AcDbEntity
  8
LAYER_1
 62
     7
100
AcDbVertex
100
AcDb2dVertex
 10
48.56568332248263
 20
156.2459323459201
 30
0.0
  0
VERTEX
  5
21B
330
1FA
100
AcDbEntity
  8
LAYER_1
 62
     7
100
AcDbVertex
100
AcDb2dVertex
 10
41.98038330078125
 20
156.1870212131076
 30
0.0
  0
VERTEX
  5
21C
330
1FA
100
AcDbEntity
  8
LAYER_1
 62
     7
100
AcDbVertex
100
AcDb2dVertex
 10
34.51331108940972
 20
156.3634101019965
 30
0.0
  0
VERTEX
  5
21D
330
1FA
100
AcDbEntity
  8
LAYER_1
 62
     7
100
AcDbVertex
100
AcDb2dVertex
 10
29.16290554470486
 20
156.3634101019965
 30
0.0
  0
VERTEX
  5
21E
330
1FA
100
AcDbEntity
  8
LAYER_1
 62
     7
100
AcDbVertex
100
AcDb2dVertex
 10
29.16290554470486
 20
171.356465657552
 30
0.0
  0
VERTEX
  5
21F
330
1FA
100
AcDbEntity
  8
LAYER_1
 62
     7
100
AcDbVertex
100
AcDb2dVertex
 10
34.39566107855902
 20
171.7681545681423
 30
0.0
  0
VERTEX
  5
220
330
1FA
100
AcDbEntity
  8
LAYER_1
 62
     7
100
AcDbVertex
100
AcDb2dVertex
 10
38.80538330078124
 20
172.1209323459201
 30
0.0
  0
VERTEX
  5
221
330
1FA
100
AcDbEntity
  8
LAYER_1
 62
     7
100
AcDbVertex
100
AcDb2dVertex
 10
42.86232774522569
 20
172.4737101236979
 30
0.0
  0
VERTEX
  5
222
330
1FA
100
AcDbEntity
  8
LAYER_1
 62
     7
100
AcDbVertex
100
AcDb2dVertex
 10
47.91886664496527
 20
172.4737101236979
 30
0.0
  0
VERTEX
  5
223
330
1FA
100
AcDbEntity
  8
LAYER_1
 62
     7
100
AcDbVertex
100
AcDb2dVertex
 10
52.2698499891493
 20
172.5911878797742
 30
0.0
  0
VERTEX
  5
224
330
1FA
100
AcDbEntity
  8
LAYER_1
 62
     7
100
AcDbVertex
100
AcDb2dVertex
 10
57.32621663411458
 20
172.5911878797742
 30
0.0
  0
VERTEX
  5
225
330
1FA
100
AcDbEntity
  8
LAYER_1
 62
     7
100
AcDbVertex
100
AcDb2dVertex
 10
63.02957221137152
 20
172.297321234809
 30
0.0
  0
VERTEX
  5
226
330
1FA
100
AcDbEntity
  8
LAYER_1
 62
     7
100
AcDbVertex
100
AcDb2dVertex
 10
67.73316107855902
 20
172.0034545898437
 30
0.0
  0
VERTEX
  5
227
330
1FA
100
AcDbEntity
  8
LAYER_1
 62
     7
100
AcDbVertex
100
AcDb2dVertex
 10
72.73096110026042
 20
171.8270657009548
 30
0.0
  0
VERTEX
  5
228
330
1FA
100
AcDbEntity
  8
LAYER_1
 62
     7
100
AcDbVertex
100
AcDb2dVertex
 10
77.6698499891493
 20
171.356465657552
 30
0.0
  0
VERTEX
  5
229
330
1FA
100
AcDbEntity
  8
LAYER_1
 62
     7
100
AcDbVertex
100
AcDb2dVertex
 10
83.25538330078124
 20
171.2389879014756
 30
0.0
  0
VERTEX
  5
22A
330
1FA
100
AcDbEntity
  8
LAYER_1
 62
     7
100
AcDbVertex
100
AcDb2dVertex
 10
86.90081108940971
 20
170.8272989908854
 30
0.0
  0
VERTEX
  5
22B
330
1FA
100
AcDbEntity
  8
LAYER_1
 62
     7
100
AcDbVertex
100
AcDb2dVertex
 10
90.72262776692708
 20
170.4745212131076
 30
0.0
  0
VERTEX
  5
22C
330
1FA
100
AcDbEntity
  8
LAYER_1
 62
     7
100
AcDbVertex
100
AcDb2dVertex
 10
95.54403889973958
 20
169.4161878797743
 30
0.0
  0
VERTEX
  5
22D
330
1FA
100
AcDbEntity
  8
LAYER_1
 62
     7
100
AcDbVertex
100
AcDb2dVertex
 10
100.3065388997395
 20
169.2397989908854
 30
0.0
  0
VERTEX
  5
22E
330
1FA
100
AcDbEntity
  8
LAYER_1
 62
     7
100
AcDbVertex
100
AcDb2dVertex
 10
107.2442721896701
 20
169.122321234809
 30
0.0
  0
VERTEX
  5
22F
330
1FA
100
AcDbEntity
  8
LAYER_1
 62
     7
100
AcDbVertex
100
AcDb2dVertex
 10
113.4767944335937
 20
168.7695434570312
 30
0.0
  0
VERTEX
  5
230
330
1FA
100
AcDbEntity
  8
LAYER_1
 62
     7
100
AcDbVertex
100
AcDb2dVertex
 10
119.7093166775173
 20
168.1814656575521
 30
0.0
  0
VERTEX
  5
231
330
1FA
100
AcDbEntity
  8
LAYER_1
 62
     7
100
AcDbVertex
100
AcDb2dVertex
 10
124.4718166775173
 20
167.5937323676215
 30
0.0
  0
VERTEX
  5
232
330
1FA
100
AcDbEntity
  8
LAYER_1
 62
     7
100
AcDbVertex
100
AcDb2dVertex
 10
130.7629055447048
 20
166.8292656792534
 30
0.0
  0
VERTEX
  5
233
330
1FA
100
AcDbEntity
  8
LAYER_1
 62
     7
100
AcDbVertex
100
AcDb2dVertex
 10
138.9357055664062
 20
166.1237101236979
 30
0.0
  0
VERTEX
  5
234
330
1FA
100
AcDbEntity
  8
LAYER_1
 62
     7
100
AcDbVertex
100
AcDb2dVertex
 10
146.5204277886284
 20
165.6534545898437
 30
0.0
  0
VERTEX
  5
235
330
1FA
100
AcDbEntity
  8
LAYER_1
 62
     7
100
AcDbVertex
100
AcDb2dVertex
 10
153.2817721896701
 20
165.5945434570312
 30
0.0
  0
VERTEX
  5
236
330
1FA
100
AcDbEntity
  8
LAYER_1
 62
     7
100
AcDbVertex
100
AcDb2dVertex
 10
156.5745944552951
 20
165.3592434353298
 30
0.0
  0
VERTEX
  5
237
330
1FA
100
AcDbEntity
  8
LAYER_1
 62
     7
100
AcDbVertex
100
AcDb2dVertex
 10
161.9248277452257
 20
164.7715101453993
 30
0.0
  0
VERTEX
  5
238
330
1FA
100
AcDbEntity
  8
LAYER_1
 62
     7
100
AcDbVertex
100
AcDb2dVertex
 10
164.0414944118923
 20
164.4772989908854
 30
0.0
  0
VERTEX
  5
239
330
1FA
100
AcDbEntity
  8
LAYER_1
 62
     7
100
AcDbVertex
100
AcDb2dVertex
 10
171.4498277452257
 20
163.1840101453993
 30
0.0
  0
VERTEX
  5
23A
330
1FA
100
AcDbEntity
  8
LAYER_1
 62
     7
100
AcDbVertex
100
AcDb2dVertex
 10
174.213483344184
 20
163.0076212565104
 30
0.0
  0
VERTEX
  5
23B
330
1FA
100
AcDbEntity
  8
LAYER_1
 62
     7
100
AcDbVertex
100
AcDb2dVertex
 10
179.8579277886284
 20
162.6548434787326
 30
0.0
  0
VERTEX
  5
23C
330
1FA
100
AcDbEntity
  8
LAYER_1
 62
     7
100
AcDbVertex
100
AcDb2dVertex
 10
185.0906833224826
 20
162.5370212131076
 30
0.0
  0
VERTEX
  5
23D
330
1FA
100
AcDbEntity
  8
LAYER_1
 62
     7
100
AcDbVertex
100
AcDb2dVertex
 10
189.5593166775173
 20
162.4784545898437
 30
0.0
  0
VERTEX
  5
23E
330
1FA
100
AcDbEntity
  8
LAYER_1
 62
     7
100
AcDbVertex
100
AcDb2dVertex
 10
193.145661078559
 20
162.2431545681423
 30
0.0
  0
VERTEX
  5
23F
330
1FA
100
AcDbEntity
  8
LAYER_1
 62
     7
100
AcDbVertex
100
AcDb2dVertex
 10
196.320661078559
 20
161.5375990125867
 30
0.0
  0
VERTEX
  5
240
330
1FA
100
AcDbEntity
  8
LAYER_1
 62
     7
100
AcDbVertex
100
AcDb2dVertex
 10
198.1434611002604
 20
161.3612101236979
 30
0.0
  0
SEQEND
  5
241
330
1FA
100
AcDbEntity
  8
LAYER_1
 62
     7
  0
SPLINE
  5
1F9
330
A
100
AcDbEntity
  8
LAYER_1
 62
     7
100
AcDbSpline
210
0.0
220
0.0
230
1.0
 70
     8
 71
     3
 72
   131
 73
   127
 74
     0
 42
0.00000001
 43
0.0000000001
 40
0.0
 40
0.0
 40
0.0
 40
0.0
 40
1.0
 40
1.0
 40
1.0
 40
2.0
 40
2.0
 40
2.0
 40
3.0
 40
3.0
 40
3.0
 40
4.0
 40
4.0
 40
4.0
 40
5.0
 40
5.0
 40
5.0
 40
6.0
 40
6.0
 40
6.0
 40
7.0
 40
7.0
 40
7.0
 40
8.0
 40
8.0
 40
8.0
 40
9.0
 40
9.0
 40
9.0
 40
10.0
 40
10.0
 40
10.0
 40
11.0
 40
11.0
 40
11.0
 40
12.0
 40
12.0
 40
12.0
 40
13.0
 40
13.0
 40
13.0
 40
14.0
 40
14.0
 40
14.0
 40
15.0
 40
15.0
 40
15.0
 40
16.0
 40
16.0
 40
16.0
 40
17.0
 40
17.0
 40
17.0
 40
18.0
 40
18.0
 40
18.0
 40
19.0
 40
19.0
 40
19.0
 40
20.0
 40
20.0
 40
20.0
 40
21.0
 40
21.0
 40
21.0
 40
22.0
 40
22.0
 40
22.0
 40
23.0
 40
23.0
 40
23.0
 40
24.0
 40
24.0
 40
24.0
 40
25.0
 40
25.0
 40
25.0
 40
26.0
 40
26.0
 40
26.0
 40
27.0
 40
27.0
 40
27.0
 40
28.0
 40
28.0
 40
28.0
 40
29.0
 40
29.0
 40
29.0
 40
30.0
 40
30.0
 40
30.0
 40
31.0
 40
31.0
 40
31.0
 40
32.0
 40
32.0
 40
32.0
 40
33.0
 40
33.0
 40
33.0
 40
34.0
 40
34.0
 40
34.0
 40
35.0
 40
35.0
 40
35.0
 40
36.0
 40
36.0
 40
36.0
 40
37.0
 40
37.0
 40
37.0
 40
38.0
 40
38.0
 40
38.0
 40
39.0
 40
39.0
 40
39.0
 40
40.0
 40
40.0
 40
40.0
 40
41.0
 40
41.0
 40
41.0
 40
42.0
 40
42.0
 40
42.0
 40
42.0
 10
29.16273328993055
 20
182.6453545464409
 30
0.0
 10
29.16273328993055
 20
182.6453545464409
 30
0.0
 10
32.10260552300347
 20
182.3518324110242
 30
0.0
 10
32.10260552300347
 20
182.3518324110242
 30
0.0
 10
32.10260552300347
 20
182.3518324110242
 30
0.0
 10
36.86510552300347
 20
182.2925767686631
 30
0.0
 10
36.86510552300347
 20
182.2925767686631
 30
0.0
 10
36.86510552300347
 20
182.2925767686631
 30
0.0
 10
41.39247775607638
 20
182.0576212565104
 30
0.0
 10
41.39247775607638
 20
182.0576212565104
 30
0.0
 10
41.39247775607638
 20
182.0576212565104
 30
0.0
 10
45.91967773437499
 20
182.0576212565104
 30
0.0
 10
45.91967773437499
 20
182.0576212565104
 30
0.0
 10
45.91967773437499
 20
182.0576212565104
 30
0.0
 10
49.80023328993055
 20
181.8812323676215
 30
0.0
 10
49.80023328993055
 20
181.8812323676215
 30
0.0
 10
49.80023328993055
 20
181.8812323676215
 30
0.0
 10
53.26927218967013
 20
181.6462768554687
 30
0.0
 10
53.26927218967013
 20
181.6462768554687
 30
0.0
 10
53.26927218967013
 20
181.6462768554687
 30
0.0
 10
55.79745551215277
 20
181.4698879665798
 30
0.0
 10
55.79745551215277
 20
181.4698879665798
 30
0.0
 10
55.79745551215277
 20
181.4698879665798
 30
0.0
 10
58.79606662326388
 20
181.3520657009548
 30
0.0
 10
58.79606662326388
 20
181.3520657009548
 30
0.0
 10
58.79606662326388
 20
181.3520657009548
 30
0.0
 10
60.79525553385416
 20
181.117110188802
 30
0.0
 10
60.79525553385416
 20
181.117110188802
 30
0.0
 10
60.79525553385416
 20
181.117110188802
 30
0.0
 10
68.0859388563368
 20
180.4115546332465
 30
0.0
 10
68.0859388563368
 20
180.4115546332465
 30
0.0
 10
68.0859388563368
 20
180.4115546332465
 30
0.0
 10
74.3771999782986
 20
179.411787923177
 30
0.0
 10
74.3771999782986
 20
179.411787923177
 30
0.0
 10
74.3771999782986
 20
179.411787923177
 30
0.0
 10
79.55121663411458
 20
178.9411878797743
 30
0.0
 10
79.55121663411458
 20
178.9411878797743
 30
0.0
 10
79.55121663411458
 20
178.9411878797743
 30
0.0
 10
83.02025553385416
 20
178.7062323676215
 30
0.0
 10
83.02025553385416
 20
178.7062323676215
 30
0.0
 10
83.02025553385416
 20
178.7062323676215
 30
0.0
 10
86.72442220052081
 20
178.5298434787326
 30
0.0
 10
86.72442220052081
 20
178.5298434787326
 30
0.0
 10
86.72442220052081
 20
178.5298434787326
 30
0.0
 10
90.54606662326388
 20
178.4712768554687
 30
0.0
 10
90.54606662326388
 20
178.4712768554687
 30
0.0
 10
90.54606662326388
 20
178.4712768554687
 30
0.0
 10
94.19149441189235
 20
178.7647989908854
 30
0.0
 10
94.19149441189235
 20
178.7647989908854
 30
0.0
 10
94.19149441189235
 20
178.7647989908854
 30
0.0
 10
97.30792778862847
 20
178.7062323676215
 30
0.0
 10
97.30792778862847
 20
178.7062323676215
 30
0.0
 10
97.30792778862847
 20
178.7062323676215
 30
0.0
 10
101.4820054796007
 20
178.4712768554687
 30
0.0
 10
101.4820054796007
 20
178.4712768554687
 30
0.0
 10
101.4820054796007
 20
178.4712768554687
 30
0.0
 10
104.7162611219618
 20
178.7062323676215
 30
0.0
 10
104.7162611219618
 20
178.7062323676215
 30
0.0
 10
104.7162611219618
 20
178.7062323676215
 30
0.0
 10
107.7148722330729
 20
178.5298434787326
 30
0.0
 10
107.7148722330729
 20
178.5298434787326
 30
0.0
 10
107.7148722330729
 20
178.5298434787326
 30
0.0
 10
113.7120944552951
 20
177.8828545464409
 30
0.0
 10
113.7120944552951
 20
177.8828545464409
 30
0.0
 10
113.7120944552951
 20
177.8828545464409
 30
0.0
 10
117.4162611219618
 20
177.9421101888021
 30
0.0
 10
117.8276055230034
 20
177.824287923177
 30
0.0
 10
118.2389499240451
 20
177.706465657552
 30
0.0
 10
121.3553833007812
 20
177.2365546332465
 30
0.0
 10
121.3553833007812
 20
177.2365546332465
 30
0.0
 10
121.3553833007812
 20
177.2365546332465
 30
0.0
 10
125.7651055230034
 20
177.0601657443576
 30
0.0
 10
125.7651055230034
 20
177.0601657443576
 30
0.0
 10
125.7651055230034
 20
177.0601657443576
 30
0.0
 10
129.8806165907118
 20
177.0601657443576
 30
0.0
 10
129.8806165907118
 20
177.0601657443576
 30
0.0
 10
129.8806165907118
 20
177.0601657443576
 30
0.0
 10
133.1734388563368
 20
176.8837768554687
 30
0.0
 10
133.1734388563368
 20
176.8837768554687
 30
0.0
 10
133.1734388563368
 20
176.8837768554687
 30
0.0
 10
140.0526055230034
 20
176.6481323242187
 30
0.0
 10
140.0526055230034
 20
176.6481323242187
 30
0.0
 10
140.0526055230034
 20
176.6481323242187
 30
0.0
 10
147.8722832573784
 20
176.4131768120659
 30
0.0
 10
147.8722832573784
 20
176.4131768120659
 30
0.0
 10
147.8722832573784
 20
176.4131768120659
 30
0.0
 10
153.9873277452256
 20
176.0018324110243
 30
0.0
 10
153.9873277452256
 20
176.0018324110243
 30
0.0
 10
153.9873277452256
 20
176.0018324110243
 30
0.0
 10
162.6889499240451
 20
175.8254435221354
 30
0.0
 10
162.6889499240451
 20
175.8254435221354
 30
0.0
 10
162.6889499240451
 20
175.8254435221354
 30
0.0
 10
168.5690388997396
 20
175.8840101453993
 30
0.0
 10
168.5690388997396
 20
175.8840101453993
 30
0.0
 10
168.5690388997396
 20
175.8840101453993
 30
0.0
 10
178.2111721462673
 20
175.7076212565104
 30
0.0
 10
178.2111721462673
 20
175.7076212565104
 30
0.0
 10
178.2111721462673
 20
175.7076212565104
 30
0.0
 10
187.2662611219618
 20
175.1784545898437
 30
0.0
 10
187.2662611219618
 20
175.1784545898437
 30
0.0
 10
187.2662611219618
 20
175.1784545898437
 30
0.0
 10
194.733161078559
 20
175.2962768554687
 30
0.0
 10
194.733161078559
 20
175.2962768554687
 30
0.0
 10
194.733161078559
 20
175.2962768554687
 30
0.0
 10
198.2609388563368
 20
174.649287923177
 30
0.0
 10
198.2609388563368
 20
174.649287923177
 30
0.0
 10
198.2609388563368
 20
174.649287923177
 30
0.0
 10
202.2593166775173
 20
174.7078545464409
 30
0.0
 10
202.2593166775173
 20
174.7078545464409
 30
0.0
 10
202.2593166775173
 20
174.7078545464409
 30
0.0
 10
204.7287611219618
 20
174.4728990342882
 30
0.0
 10
204.7287611219618
 20
174.4728990342882
 30
0.0
 10
204.7287611219618
 20
174.4728990342882
 30
0.0
 10
212.9013888888889
 20
173.1203545464409
 30
0.0
 10
212.9013888888889
 20
173.1203545464409
 30
0.0
 10
212.9013888888889
 20
173.1203545464409
 30
0.0
 10
220.6625
 20
172.1798434787326
 30
0.0
 10
220.6625
 20
172.1798434787326
 30
0.0
 10
220.6625
 20
172.1798434787326
 30
0.0
 10
226.3655110677083
 20
171.8270657009548
 30
0.0
 10
226.3655110677083
 20
171.8270657009548
 30
0.0
 10
226.3655110677083
 20
171.8270657009548
 30
0.0
 10
231.1280110677083
 20
171.9448879665798
 30
0.0
 10
231.1280110677083
 20
171.9448879665798
 30
0.0
 10
231.1280110677083
 20
171.9448879665798
 30
0.0
 10
234.0094889322916
 20
171.7684990776909
 30
0.0
 10
234.0094889322916
 20
171.7684990776909
 30
0.0
  0
POLYLINE
  5
1F3
330
A
100
AcDbEntity
  8
LAYER_1
 62
     7
100
AcDb2dPolyline
 66
     1
 10
0.0
 20
0.0
 30
0.0
  0
VERTEX
  5
1F4
330
1F3
100
AcDbEntity
  8
LAYER_1
 62
     7
100
AcDbVertex
100
AcDb2dVertex
 10
214.1243977864583
 20
222.7926025390625
 30
0.0
  0
VERTEX
  5
1F5
330
1F3
100
AcDbEntity
  8
LAYER_1
 62
     7
100
AcDbVertex
100
AcDb2dVertex
 10
322.1126383463541
 20
222.7926025390625
 30
0.0
  0
VERTEX
  5
1F6
330
1F3
100
AcDbEntity
  8
LAYER_1
 62
     7
100
AcDbVertex
100
AcDb2dVertex
 10
322.1126383463541
 20
181.8703803168402
 30
0.0
  0
VERTEX
  5
1F7
330
1F3
100
AcDbEntity
  8
LAYER_1
 62
     7
100
AcDbVertex
100
AcDb2dVertex
 10
213.9762586805555
 20
181.8703803168402
 30
0.0
  0
SEQEND
  5
1F8
330
1F3
100
AcDbEntity
  8
LAYER_1
 62
     7
  0
HATCH
  5
1F2
330
A
100
AcDbEntity
  8
LAYER_1
 62
     7
100
AcDbHatch
 10
0.0
 20
0.0
 30
0.0
210
0.0
220
0.0
230
1.0
  2
SOLID
 70
     1
 71
     0
 91
        1
 92
        3
 72
     0
 73
     1
 93
        3
 10
212.8014811197917
 20
222.7926025390625
 10
215.447314453125
 20
223.9391303168403
 10
215.447314453125
 20
221.6460747612847
 97
        0
 75
     2
 76
     1
 98
        1
 10
0.0
 20
0.0
450
        0
451
        0
460
0.0
461
0.0
452
        0
462
0.0
453
        0
470

  0
HATCH
  5
1F1
330
A
100
AcDbEntity
  8
LAYER_1
 62
     7
100
AcDbHatch
 10
0.0
 20
0.0
 30
0.0
210
0.0
220
0.0
230
1.0
  2
SOLID
 70
     1
 71
     0
 91
        1
 92
        3
 72
     0
 73
     1
 93
        3
 10
212.6533420138889
 20
181.8703803168402
 10
215.2991753472222
 20
183.016908094618
 10
215.2991753472222
 20
180.7238525390625
 97
        0
 75
     2
 76
     1
 98
        1
 10
0.0
 20
0.0
450
        0
451
        0
460
0.0
461
0.0
452
        0
462
0.0
453
        0
470

  0
CIRCLE
  5
1F0
330
A
100
AcDbEntity
  8
LAYER_1
 62
     7
100
AcDbCircle
 10
264.2867106119791
 20
202.1206515842014
 30
0.0
 40
2.534901258680555
  0
CIRCLE
  5
1EF
330
A
100
AcDbEntity
  8
LAYER_1
 62
     7
100
AcDbCircle
 10
264.2867106119791
 20
202.1206515842014
 30
0.0
 40
2.534901258680555
  0
MTEXT
  5
1EE
330
A
100
AcDbEntity
  8
LAYER_1
 62
     7
100
AcDbMText
 10
262.3863959418403
 20
203.0953838215934
 30
0.0
 40
1.837384147114223
 41
0.0
 46
0.0
 71
     1
 72
     2
  1
\fHelvetica|b0|i0;\H1.8374;\C7;203
  7
STD
 73
     1
 44
1.0
  0
MTEXT
  5
1ED
330
A
100
AcDbEntity
  8
LAYER_1
 62
     7
100
AcDbMText
 10
272.0295627170139
 20
204.4251906792323
 30
0.0
 40
1.837384147114223
 41
0.0
 46
0.0
 71
     1
 72
     2
  1
\fHelvetica|b0|i0;\H1.8374;\C7;62
  7
STD
 73
     1
 44
1.0
  0
LINE
  5
1EC
330
A
100
AcDbEntity
  8
LAYER_1
 62
     7
100
AcDbLine
 10
274.4876383463541
 20
202.1909315321181
 30
0.0
 11
272.1050103081597
 21
202.1909315321181
 31
0.0
  0
LINE
  5
1EB
330
A
100
AcDbEntity
  8
LAYER_1
 62
     7
100
AcDbLine
 10
273.6931993272569
 20
202.1909315321181
 30
0.0
 11
274.0442545572916
 21
200.3550401475695
 31
0.0
  0
LINE
  5
1EA
330
A
100
AcDbEntity
  8
LAYER_1
 62
     7
100
AcDbLine
 10
272.899449327257
 20
202.1909315321181
 30
0.0
 11
272.5483940972222
 21
200.3550401475695
 31
0.0
  0
MTEXT
  5
1E9
330
A
100
AcDbEntity
  8
LAYER_1
 62
     7
100
AcDbMText
 10
327.0628960503472
 20
204.77796845701
 30
0.0
 40
1.837384147114223
 41
0.0
 46
0.0
 71
     1
 72
     2
  1
\fHelvetica|b0|i0;\H1.8374;\C7;63
  7
STD
 73
     1
 44
1.0
  0
LINE
  5
1E8
330
A
100
AcDbEntity
  8
LAYER_1
 62
     7
100
AcDbLine
 10
329.5209716796875
 20
202.5437093098958
 30
0.0
 11
327.138343641493
 21
202.5437093098958
 31
0.0
  0
LINE
  5
1E7
330
A
100
AcDbEntity
  8
LAYER_1
 62
     7
100
AcDbLine
 10
328.7265326605902
 20
202.5437093098958
 30
0.0
 11
329.077587890625
 21
200.7078179253472
 31
0.0
  0
LINE
  5
1E6
330
A
100
AcDbEntity
  8
LAYER_1
 62
     7
100
AcDbLine
 10
327.9327826605903
 20
202.5437093098958
 30
0.0
 11
327.5817274305556
 21
200.7078179253472
 31
0.0
  0
HATCH
  5
1E5
330
A
100
AcDbEntity
  8
LAYER_1
 62
     7
100
AcDbHatch
 10
0.0
 20
0.0
 30
0.0
210
0.0
220
0.0
230
1.0
  2
SOLID
 70
     1
 71
     0
 91
        1
 92
        3
 72
     0
 73
     1
 93
        3
 10
331.5997422960069
 20
272.7745646158854
 10
328.87294921875
 20
271.5474216037326
 10
328.87294921875
 20
273.7290283203125
 97
        0
 75
     2
 76
     1
 98
        1
 10
0.0
 20
0.0
450
        0
451
        0
460
0.0
461
0.0
452
        0
462
0.0
453
        0
470

  0
HATCH
  5
1E4
330
A
100
AcDbEntity
  8
LAYER_1
 62
     7
100
AcDbHatch
 10
0.0
 20
0.0
 30
0.0
210
0.0
220
0.0
230
1.0
  2
SOLID
 70
     1
 71
     0
 91
        1
 92
        3
 72
     0
 73
     1
 93
        3
 10
331.9160020616319
 20
231.9364027235243
 10
329.189208984375
 20
230.7092597113715
 10
329.189208984375
 20
232.8908664279514
 97
        0
 75
     2
 76
     1
 98
        1
 10
0.0
 20
0.0
450
        0
451
        0
460
0.0
461
0.0
452
        0
462
0.0
453
        0
470

  0
POLYLINE
  5
1DE
330
A
100
AcDbEntity
  8
LAYER_1
 62
     7
100
AcDb2dPolyline
 66
     1
 10
0.0
 20
0.0
 30
0.0
 70
     1
  0
VERTEX
  5
1DF
330
1DE
100
AcDbEntity
  8
LAYER_1
 62
     7
100
AcDbVertex
100
AcDb2dVertex
 10
187.0898722330729
 20
253.7898491753472
 30
0.0
  0
VERTEX
  5
1E0
330
1DE
100
AcDbEntity
  8
LAYER_1
 62
     7
100
AcDbVertex
100
AcDb2dVertex
 10
107.3620944552951
 20
253.7898491753472
 30
0.0
  0
VERTEX
  5
1E1
330
1DE
100
AcDbEntity
  8
LAYER_1
 62
     7
100
AcDbVertex
100
AcDb2dVertex
 10
107.3620944552951
 20
272.7223714192708
 30
0.0
  0
VERTEX
  5
1E2
330
1DE
100
AcDbEntity
  8
LAYER_1
 62
     7
100
AcDbVertex
100
AcDb2dVertex
 10
187.0898722330729
 20
272.7223714192708
 30
0.0
  0
SEQEND
  5
1E3
330
1DE
100
AcDbEntity
  8
LAYER_1
 62
     7
  0
POLYLINE
  5
1D8
330
A
100
AcDbEntity
  8
LAYER_1
  6
AI9-LType1
 62
     7
100
AcDb2dPolyline
 66
     1
 10
0.0
 20
0.0
 30
0.0
 70
     1
  0
VERTEX
  5
1D9
330
1D8
100
AcDbEntity
  8
LAYER_1
  6
AI9-LType1
 62
     7
100
AcDbVertex
100
AcDb2dVertex
 10
187.0898722330729
 20
253.7898491753472
 30
0.0
  0
VERTEX
  5
1DA
330
1D8
100
AcDbEntity
  8
LAYER_1
  6
AI9-LType1
 62
     7
100
AcDbVertex
100
AcDb2dVertex
 10
107.3620944552951
 20
253.7898491753472
 30
0.0
  0
VERTEX
  5
1DB
330
1D8
100
AcDbEntity
  8
LAYER_1
  6
AI9-LType1
 62
     7
100
AcDbVertex
100
AcDb2dVertex
 10
107.3620944552951
 20
272.7223714192708
 30
0.0
  0
VERTEX
  5
1DC
330
1D8
100
AcDbEntity
  8
LAYER_1
  6
AI9-LType1
 62
     7
100
AcDbVertex
100
AcDb2dVertex
 10
187.0898722330729
 20
272.7223714192708
 30
0.0
  0
SEQEND
  5
1DD
330
1D8
100
AcDbEntity
  8
LAYER_1
  6
AI9-LType1
 62
     7
  0
CIRCLE
  5
1D6
330
A
100
AcDbEntity
  8
LAYER_1
 62
     7
100
AcDbCircle
 10
145.3802734375
 20
263.394775390625
 30
0.0
 40
2.534901258680555
  0
CIRCLE
  5
1D5
330
A
100
AcDbEntity
  8
LAYER_1
 62
     7
100
AcDbCircle
 10
145.3802734375
 20
263.394775390625
 30
0.0
 40
2.534901258680555
  0
MTEXT
  5
1D4
330
A
100
AcDbEntity
  8
LAYER_1
 62
     7
100
AcDbMText
 10
143.4801310221354
 20
264.3698521375656
 30
0.0
 40
1.837384147114223
 41
0.0
 46
0.0
 71
     1
 72
     2
  1
\fHelvetica|b0|i0;\H1.8374;\C7;203
  7
STD
 73
     1
 44
1.0
  0
CIRCLE
  5
1D3
330
A
100
AcDbEntity
  8
LAYER_1
 62
     7
100
AcDbCircle
 10
100.4240166558159
 20
252.8491658528646
 30
0.0
 40
2.534901258680555
  0
CIRCLE
  5
1D2
330
A
100
AcDbEntity
  8
LAYER_1
 62
     7
100
AcDbCircle
 10
100.4240166558159
 20
252.8491658528646
 30
0.0
 40
2.534901258680555
  0
MTEXT
  5
1D1
330
A
100
AcDbEntity
  8
LAYER_1
 62
     7
100
AcDbMText
 10
98.52387424045138
 20
253.8242425998052
 30
0.0
 40
1.837384147114223
 41
0.0
 46
0.0
 71
     1
 72
     2
  1
\fHelvetica|b0|i0;\H1.8374;\C7;202
  7
STD
 73
     1
 44
1.0
  0
CIRCLE
  5
1D0
330
A
100
AcDbEntity
  8
LAYER_1
 62
     7
100
AcDbCircle
 10
237.4501057942708
 20
250.1664699978298
 30
0.0
 40
2.534901258680555
  0
CIRCLE
  5
1CF
330
A
100
AcDbEntity
  8
LAYER_1
 62
     7
100
AcDbCircle
 10
237.4501057942708
 20
250.1664699978298
 30
0.0
 40
2.534901258680555
  0
MTEXT
  5
1CE
330
A
100
AcDbEntity
  8
LAYER_1
 62
     7
100
AcDbMText
 10
235.5497911241319
 20
251.1415467447704
 30
0.0
 40
1.837384147114223
 41
0.0
 46
0.0
 71
     1
 72
     2
  1
\fHelvetica|b0|i0;\H1.8374;\C7;203
  7
STD
 73
     1
 44
1.0
  0
CIRCLE
  5
1CD
330
A
100
AcDbEntity
  8
LAYER_1
 62
     7
100
AcDbCircle
 10
309.9421495225694
 20
249.6373033311632
 30
0.0
 40
2.534901258680555
  0
CIRCLE
  5
1CC
330
A
100
AcDbEntity
  8
LAYER_1
 62
     7
100
AcDbCircle
 10
309.9421495225694
 20
249.6373033311632
 30
0.0
 40
2.534901258680555
  0
MTEXT
  5
1CB
330
A
100
AcDbEntity
  8
LAYER_1
 62
     7
100
AcDbMText
 10
308.0418348524306
 20
250.6123800781038
 30
0.0
 40
1.837384147114223
 41
0.0
 46
0.0
 71
     1
 72
     2
  1
\fHelvetica|b0|i0;\H1.8374;\C7;203
  7
STD
 73
     1
 44
1.0
  0
CIRCLE
  5
1CA
330
A
100
AcDbEntity
  8
LAYER_1
 62
     7
100
AcDbCircle
 10
175.8977905273437
 20
169.7343424479166
 30
0.0
 40
2.534901258680555
  0
CIRCLE
  5
1C9
330
A
100
AcDbEntity
  8
LAYER_1
 62
     7
100
AcDbCircle
 10
175.8977905273437
 20
169.7343424479166
 30
0.0
 40
2.534901258680555
  0
MTEXT
  5
1C8
330
A
100
AcDbEntity
  8
LAYER_1
 62
     7
100
AcDbMText
 10
173.9976481119791
 20
170.7094191948572
 30
0.0
 40
1.837384147114223
 41
0.0
 46
0.0
 71
     1
 72
     2
  1
\fHelvetica|b0|i0;\H1.8374;\C7;201
  7
STD
 73
     1
 44
1.0
  0
CIRCLE
  5
1C7
330
A
100
AcDbEntity
  8
LAYER_1
 62
     7
100
AcDbCircle
 10
90.34900716145832
 20
162.8581041124131
 30
0.0
 40
2.534901258680555
  0
CIRCLE
  5
1C6
330
A
100
AcDbEntity
  8
LAYER_1
 62
     7
100
AcDbCircle
 10
90.34900716145832
 20
162.8581041124131
 30
0.0
 40
2.534901258680555
  0
MTEXT
  5
1C5
330
A
100
AcDbEntity
  8
LAYER_1
 62
     7
100
AcDbMText
 10
88.44886474609374
 20
163.8335253689024
 30
0.0
 40
1.837384147114223
 41
0.0
 46
0.0
 71
     1
 72
     2
  1
\fHelvetica|b0|i0;\H1.8374;\C7;202
  7
STD
 73
     1
 44
1.0
  0
MTEXT
  5
1C4
330
A
100
AcDbEntity
  8
LAYER_1
 62
     7
100
AcDbMText
 10
270.2277777777778
 20
269.0515727228588
 30
0.0
 40
3.149801346990797
 41
0.0
 46
0.0
 71
     1
 72
     2
  1
\fArial|b0|i0;\H3.1498;\C7;Land 
  7
STD
 73
     1
 44
1.0
  0
MTEXT
  5
1C3
330
A
100
AcDbEntity
  8
LAYER_1
 62
     7
100
AcDbMText
 10
270.2277777777778
 20
263.9716071738137
 30
0.0
 40
3.149801346990797
 41
0.0
 46
0.0
 71
     1
 72
     2
  1
\fArial|b0|i0;\H3.1498;\C7;Drain
  7
STD
 73
     1
 44
1.0
  0
POLYLINE
  5
1BE
330
A
100
AcDbEntity
  8
LAYER_1
 62
     7
100
AcDb2dPolyline
 66
     1
 10
0.0
 20
0.0
 30
0.0
  0
VERTEX
  5
1BF
330
1BE
100
AcDbEntity
  8
LAYER_1
 62
     7
100
AcDbVertex
100
AcDb2dVertex
 10
109.3647284613715
 20
273.702845594618
 30
0.0
  0
VERTEX
  5
1C0
330
1BE
100
AcDbEntity
  8
LAYER_1
 62
     7
100
AcDbVertex
100
AcDb2dVertex
 10
107.3645060221354
 20
273.702845594618
 30
0.0
  0
VERTEX
  5
1C1
330
1BE
100
AcDbEntity
  8
LAYER_1
 62
     7
100
AcDbVertex
100
AcDb2dVertex
 10
107.3645060221354
 20
274.7026123046875
 30
0.0
  0
SEQEND
  5
1C2
330
1BE
100
AcDbEntity
  8
LAYER_1
 62
     7
  0
HATCH
  5
1BD
330
A
100
AcDbEntity
  8
LAYER_1
 62
     7
100
AcDbHatch
 10
0.0
 20
0.0
 30
0.0
210
0.0
220
0.0
230
1.0
  2
SOLID
 70
     1
 71
     0
 91
        1
 92
        1
 93
        1
 72
     4
 94
        3
 73
     0
 74
     0
 95
       20
 96
       16
 40
0.0
 40
0.0
 40
0.0
 40
0.0
 40
1.0
 40
1.0
 40
1.0
 40
2.0
 40
2.0
 40
2.0
 40
3.0
 40
3.0
 40
3.0
 40
4.0
 40
4.0
 40
4.0
 40
5.0
 40
5.0
 40
5.0
 40
5.0
 10
107.1839830186632
 20
275.1194688585069
 10
107.0957885742187
 20
274.8273247612847
 10
107.0144843207465
 20
274.6378445095486
 10
106.9207777235243
 20
274.4042670355902
 10
106.9207777235243
 20
274.4042670355902
 10
107.8103013780382
 20
274.4042670355902
 10
107.8103013780382
 20
274.4042670355902
 10
107.7703382703993
 20
274.4876383463541
 10
107.6352905273437
 20
274.8273247612847
 10
107.5470960828993
 20
275.1194688585069
 10
107.4527004665798
 20
275.4315945095486
 10
107.3886216905382
 20
275.7140923394097
 10
107.3651950412326
 20
275.8978881835937
 10
107.3424574110243
 20
275.7140923394097
 10
107.2776896158854
 20
275.4315945095486
 10
107.1839830186632
 20
275.1194688585069
 97
        0
 97
        0
 75
     2
 76
     1
 98
        1
 10
0.0
 20
0.0
450
        0
451
        0
460
0.0
461
0.0
452
        0
462
0.0
453
        0
470

  0
POLYLINE
  5
1B8
330
A
100
AcDbEntity
  8
LAYER_1
 62
     7
100
AcDb2dPolyline
 66
     1
 10
0.0
 20
0.0
 30
0.0
  0
VERTEX
  5
1B9
330
1B8
100
AcDbEntity
  8
LAYER_1
 62
     7
100
AcDbVertex
100
AcDb2dVertex
 10
187.421979437934
 20
274.3910034179687
 30
0.0
  0
VERTEX
  5
1BA
330
1B8
100
AcDbEntity
  8
LAYER_1
 62
     7
100
AcDbVertex
100
AcDb2dVertex
 10
187.421979437934
 20
273.3912367078993
 30
0.0
  0
VERTEX
  5
1BB
330
1B8
100
AcDbEntity
  8
LAYER_1
 62
     7
100
AcDbVertex
100
AcDb2dVertex
 10
185.4217569986979
 20
273.3912367078993
 30
0.0
  0
SEQEND
  5
1BC
330
1B8
100
AcDbEntity
  8
LAYER_1
 62
     7
  0
HATCH
  5
1B7
330
A
100
AcDbEntity
  8
LAYER_1
 62
     7
100
AcDbHatch
 10
0.0
 20
0.0
 30
0.0
210
0.0
220
0.0
230
1.0
  2
SOLID
 70
     1
 71
     0
 91
        1
 92
        1
 93
        1
 72
     4
 94
        3
 73
     0
 74
     0
 95
       20
 96
       16
 40
0.0
 40
0.0
 40
0.0
 40
0.0
 40
1.0
 40
1.0
 40
1.0
 40
2.0
 40
2.0
 40
2.0
 40
3.0
 40
3.0
 40
3.0
 40
4.0
 40
4.0
 40
4.0
 40
5.0
 40
5.0
 40
5.0
 40
5.0
 10
187.2414564344618
 20
274.8078599717882
 10
187.1532619900173
 20
274.515715874566
 10
187.0719577365451
 20
274.3262356228298
 10
186.9782511393229
 20
274.0926581488715
 10
186.9782511393229
 20
274.0926581488715
 10
187.8677747938368
 20
274.0926581488715
 10
187.8677747938368
 20
274.0926581488715
 10
187.8278116861979
 20
274.1760294596354
 10
187.6927639431423
 20
274.515715874566
 10
187.6045694986979
 20
274.8078599717882
 10
187.5101738823784
 20
275.1199856228299
 10
187.4460951063368
 20
275.402483452691
 10
187.4226684570312
 20
275.586279296875
 10
187.3999308268229
 20
275.402483452691
 10
187.335163031684
 20
275.1199856228299
 10
187.2414564344618
 20
274.8078599717882
 97
        0
 97
        0
 75
     2
 76
     1
 98
        1
 10
0.0
 20
0.0
450
        0
451
        0
460
0.0
461
0.0
452
        0
462
0.0
453
        0
470

  0
HATCH
  5
1B6
330
A
100
AcDbEntity
  8
LAYER_1
 62
     1
100
AcDbHatch
 10
0.0
 20
0.0
 30
0.0
210
0.0
220
0.0
230
1.0
  2
SOLID
 70
     1
 71
     0
 91
        1
 92
        3
 72
     0
 73
     1
 93
        7
 10
148.2803548177083
 20
228.8601047092014
 10
148.2803548177083
 20
226.7754774305555
 10
145.2300672743055
 20
226.7754774305555
 10
145.2300672743055
 20
228.8601047092014
 10
144.1882703993055
 20
228.8601047092014
 10
146.7548665364583
 20
231.2213731553819
 10
149.3214626736111
 20
228.8601047092014
 97
        0
 75
     2
 76
     1
 98
        1
 10
0.0
 20
0.0
450
        0
451
        0
460
0.0
461
0.0
452
        0
462
0.0
453
        0
470

  0
LINE
  5
1B5
330
A
100
AcDbEntity
  8
LAYER_1
 62
     7
100
AcDbLine
 10
145.2300672743055
 20
226.7749606662326
 30
0.0
 11
148.2803548177083
 21
226.7749606662326
 31
0.0
  0
LINE
  5
1B4
330
A
100
AcDbEntity
  8
LAYER_1
 62
     7
100
AcDbLine
 10
145.2300672743055
 20
226.8047607421875
 30
0.0
 11
148.2803548177083
 21
226.8047607421875
 31
0.0
  0
LINE
  5
1B3
330
A
100
AcDbEntity
  8
LAYER_1
 62
     7
100
AcDbLine
 10
145.2300672743055
 20
226.8345608181423
 30
0.0
 11
148.2803548177083
 21
226.8345608181423
 31
0.0
  0
LINE
  5
1B2
330
A
100
AcDbEntity
  8
LAYER_1
 62
     7
100
AcDbLine
 10
145.2300672743055
 20
226.8643608940972
 30
0.0
 11
148.2803548177083
 21
226.8643608940972
 31
0.0
  0
LINE
  5
1B1
330
A
100
AcDbEntity
  8
LAYER_1
 62
     7
100
AcDbLine
 10
145.2300672743055
 20
226.8941609700521
 30
0.0
 11
148.2803548177083
 21
226.8941609700521
 31
0.0
  0
LINE
  5
1B0
330
A
100
AcDbEntity
  8
LAYER_1
 62
     7
100
AcDbLine
 10
145.2300672743055
 20
226.9239610460069
 30
0.0
 11
148.2803548177083
 21
226.9239610460069
 31
0.0
  0
LINE
  5
1AF
330
A
100
AcDbEntity
  8
LAYER_1
 62
     7
100
AcDbLine
 10
145.2300672743055
 20
226.9537611219618
 30
0.0
 11
148.2803548177083
 21
226.9537611219618
 31
0.0
  0
LINE
  5
1AE
330
A
100
AcDbEntity
  8
LAYER_1
 62
     7
100
AcDbLine
 10
145.2300672743055
 20
226.9835611979166
 30
0.0
 11
148.2803548177083
 21
226.9835611979166
 31
0.0
  0
LINE
  5
1AD
330
A
100
AcDbEntity
  8
LAYER_1
 62
     7
100
AcDbLine
 10
145.2300672743055
 20
227.0131890190972
 30
0.0
 11
148.2803548177083
 21
227.0131890190972
 31
0.0
  0
LINE
  5
1AC
330
A
100
AcDbEntity
  8
LAYER_1
 62
     7
100
AcDbLine
 10
145.2300672743055
 20
227.042989095052
 30
0.0
 11
148.2803548177083
 21
227.042989095052
 31
0.0
  0
LINE
  5
1AB
330
A
100
AcDbEntity
  8
LAYER_1
 62
     7
100
AcDbLine
 10
145.2300672743055
 20
227.0727891710069
 30
0.0
 11
148.2803548177083
 21
227.0727891710069
 31
0.0
  0
LINE
  5
1AA
330
A
100
AcDbEntity
  8
LAYER_1
 62
     7
100
AcDbLine
 10
145.2300672743055
 20
227.1025892469618
 30
0.0
 11
148.2803548177083
 21
227.1025892469618
 31
0.0
  0
LINE
  5
1A9
330
A
100
AcDbEntity
  8
LAYER_1
 62
     7
100
AcDbLine
 10
145.2300672743055
 20
227.1323893229166
 30
0.0
 11
148.2803548177083
 21
227.1323893229166
 31
0.0
  0
LINE
  5
1A8
330
A
100
AcDbEntity
  8
LAYER_1
 62
     7
100
AcDbLine
 10
145.2300672743055
 20
227.1621893988715
 30
0.0
 11
148.2803548177083
 21
227.1621893988715
 31
0.0
  0
LINE
  5
1A7
330
A
100
AcDbEntity
  8
LAYER_1
 62
     7
100
AcDbLine
 10
145.2300672743055
 20
227.1919894748263
 30
0.0
 11
148.2803548177083
 21
227.1919894748263
 31
0.0
  0
LINE
  5
1A6
330
A
100
AcDbEntity
  8
LAYER_1
 62
     7
100
AcDbLine
 10
145.2300672743055
 20
227.2217895507812
 30
0.0
 11
148.2803548177083
 21
227.2217895507812
 31
0.0
  0
LINE
  5
1A5
330
A
100
AcDbEntity
  8
LAYER_1
 62
     7
100
AcDbLine
 10
145.2300672743055
 20
227.2515896267361
 30
0.0
 11
148.2803548177083
 21
227.2515896267361
 31
0.0
  0
LINE
  5
1A4
330
A
100
AcDbEntity
  8
LAYER_1
 62
     7
100
AcDbLine
 10
145.2300672743055
 20
227.2813897026909
 30
0.0
 11
148.2803548177083
 21
227.2813897026909
 31
0.0
  0
LINE
  5
1A3
330
A
100
AcDbEntity
  8
LAYER_1
 62
    21
100
AcDbLine
 10
145.2304117838541
 20
227.3111897786458
 30
0.0
 11
148.2803548177083
 21
227.3111897786458
 31
0.0
  0
LINE
  5
1A2
330
A
100
AcDbEntity
  8
LAYER_1
 62
    21
100
AcDbLine
 10
145.2304117838541
 20
227.3409898546007
 30
0.0
 11
148.2803548177083
 21
227.3409898546007
 31
0.0
  0
LINE
  5
1A1
330
A
100
AcDbEntity
  8
LAYER_1
 62
    21
100
AcDbLine
 10
145.2304117838541
 20
227.3707899305555
 30
0.0
 11
148.2803548177083
 21
227.3707899305555
 31
0.0
  0
LINE
  5
1A0
330
A
100
AcDbEntity
  8
LAYER_1
 62
    21
100
AcDbLine
 10
145.2304117838541
 20
227.4005900065104
 30
0.0
 11
148.2803548177083
 21
227.4005900065104
 31
0.0
  0
LINE
  5
19F
330
A
100
AcDbEntity
  8
LAYER_1
 62
    21
100
AcDbLine
 10
145.2304117838541
 20
227.4302178276909
 30
0.0
 11
148.2803548177083
 21
227.4302178276909
 31
0.0
  0
LINE
  5
19E
330
A
100
AcDbEntity
  8
LAYER_1
 62
    21
100
AcDbLine
 10
145.2304117838541
 20
227.4600179036458
 30
0.0
 11
148.2803548177083
 21
227.4600179036458
 31
0.0
  0
LINE
  5
19D
330
A
100
AcDbEntity
  8
LAYER_1
 62
    21
100
AcDbLine
 10
145.2304117838541
 20
227.4898179796007
 30
0.0
 11
148.2803548177083
 21
227.4898179796007
 31
0.0
  0
LINE
  5
19C
330
A
100
AcDbEntity
  8
LAYER_1
 62
    21
100
AcDbLine
 10
145.2304117838541
 20
227.5196180555555
 30
0.0
 11
148.2803548177083
 21
227.5196180555555
 31
0.0
  0
LINE
  5
19B
330
A
100
AcDbEntity
  8
LAYER_1
 62
    21
100
AcDbLine
 10
145.2304117838541
 20
227.5494181315104
 30
0.0
 11
148.2803548177083
 21
227.5494181315104
 31
0.0
  0
LINE
  5
19A
330
A
100
AcDbEntity
  8
LAYER_1
 62
    21
100
AcDbLine
 10
145.2304117838541
 20
227.5792182074653
 30
0.0
 11
148.2803548177083
 21
227.5792182074653
 31
0.0
  0
LINE
  5
199
330
A
100
AcDbEntity
  8
LAYER_1
 62
    21
100
AcDbLine
 10
145.2304117838541
 20
227.6090182834201
 30
0.0
 11
148.2803548177083
 21
227.6090182834201
 31
0.0
  0
LINE
  5
198
330
A
100
AcDbEntity
  8
LAYER_1
 62
    21
100
AcDbLine
 10
145.2304117838541
 20
227.638818359375
 30
0.0
 11
148.2803548177083
 21
227.638818359375
 31
0.0
  0
LINE
  5
197
330
A
100
AcDbEntity
  8
LAYER_1
 62
    21
100
AcDbLine
 10
145.2304117838541
 20
227.6686184353299
 30
0.0
 11
148.2803548177083
 21
227.6686184353299
 31
0.0
  0
LINE
  5
196
330
A
100
AcDbEntity
  8
LAYER_1
 62
    21
100
AcDbLine
 10
145.2304117838541
 20
227.6984185112847
 30
0.0
 11
148.2803548177083
 21
227.6984185112847
 31
0.0
  0
LINE
  5
195
330
A
100
AcDbEntity
  8
LAYER_1
 62
    21
100
AcDbLine
 10
145.2304117838541
 20
227.7282185872396
 30
0.0
 11
148.2803548177083
 21
227.7282185872396
 31
0.0
  0
LINE
  5
194
330
A
100
AcDbEntity
  8
LAYER_1
 62
    21
100
AcDbLine
 10
145.2304117838541
 20
227.7580186631944
 30
0.0
 11
148.2803548177083
 21
227.7580186631944
 31
0.0
  0
LINE
  5
193
330
A
100
AcDbEntity
  8
LAYER_1
 62
    21
100
AcDbLine
 10
145.2304117838541
 20
227.7878187391493
 30
0.0
 11
148.2803548177083
 21
227.7878187391493
 31
0.0
  0
LINE
  5
192
330
A
100
AcDbEntity
  8
LAYER_1
 62
    21
100
AcDbLine
 10
145.2304117838541
 20
227.8176188151042
 30
0.0
 11
148.2803548177083
 21
227.8176188151042
 31
0.0
  0
LINE
  5
191
330
A
100
AcDbEntity
  8
LAYER_1
 62
    21
100
AcDbLine
 10
145.2304117838541
 20
227.8472466362847
 30
0.0
 11
148.2803548177083
 21
227.8472466362847
 31
0.0
  0
LINE
  5
190
330
A
100
AcDbEntity
  8
LAYER_1
 62
    21
100
AcDbLine
 10
145.2304117838541
 20
227.8770467122396
 30
0.0
 11
148.2803548177083
 21
227.8770467122396
 31
0.0
  0
LINE
  5
18F
330
A
100
AcDbEntity
  8
LAYER_1
 62
    20
100
AcDbLine
 10
145.2304117838541
 20
227.9068467881944
 30
0.0
 11
148.2803548177083
 21
227.9068467881944
 31
0.0
  0
LINE
  5
18E
330
A
100
AcDbEntity
  8
LAYER_1
 62
    20
100
AcDbLine
 10
145.2304117838541
 20
227.9366468641493
 30
0.0
 11
148.2803548177083
 21
227.9366468641493
 31
0.0
  0
LINE
  5
18D
330
A
100
AcDbEntity
  8
LAYER_1
 62
    20
100
AcDbLine
 10
145.2304117838541
 20
227.9664469401041
 30
0.0
 11
148.2803548177083
 21
227.9664469401041
 31
0.0
  0
LINE
  5
18C
330
A
100
AcDbEntity
  8
LAYER_1
 62
    20
100
AcDbLine
 10
145.2304117838541
 20
227.996247016059
 30
0.0
 11
148.2803548177083
 21
227.996247016059
 31
0.0
  0
LINE
  5
18B
330
A
100
AcDbEntity
  8
LAYER_1
 62
    20
100
AcDbLine
 10
145.2304117838541
 20
228.0260470920139
 30
0.0
 11
148.2803548177083
 21
228.0260470920139
 31
0.0
  0
LINE
  5
18A
330
A
100
AcDbEntity
  8
LAYER_1
 62
    20
100
AcDbLine
 10
145.2304117838541
 20
228.0558471679687
 30
0.0
 11
148.2803548177083
 21
228.0558471679687
 31
0.0
  0
LINE
  5
189
330
A
100
AcDbEntity
  8
LAYER_1
 62
    20
100
AcDbLine
 10
145.2304117838541
 20
228.0856472439236
 30
0.0
 11
148.2803548177083
 21
228.0856472439236
 31
0.0
  0
LINE
  5
188
330
A
100
AcDbEntity
  8
LAYER_1
 62
    20
100
AcDbLine
 10
145.2304117838541
 20
228.1154473198784
 30
0.0
 11
148.2803548177083
 21
228.1154473198784
 31
0.0
  0
LINE
  5
187
330
A
100
AcDbEntity
  8
LAYER_1
 62
    20
100
AcDbLine
 10
145.2304117838541
 20
228.1452473958333
 30
0.0
 11
148.2803548177083
 21
228.1452473958333
 31
0.0
  0
LINE
  5
186
330
A
100
AcDbEntity
  8
LAYER_1
 62
    20
100
AcDbLine
 10
145.2304117838541
 20
228.1750474717882
 30
0.0
 11
148.2803548177083
 21
228.1750474717882
 31
0.0
  0
LINE
  5
185
330
A
100
AcDbEntity
  8
LAYER_1
 62
    20
100
AcDbLine
 10
145.2304117838541
 20
228.204847547743
 30
0.0
 11
148.2803548177083
 21
228.204847547743
 31
0.0
  0
LINE
  5
184
330
A
100
AcDbEntity
  8
LAYER_1
 62
    20
100
AcDbLine
 10
145.2304117838541
 20
228.2346476236979
 30
0.0
 11
148.2803548177083
 21
228.2346476236979
 31
0.0
  0
LINE
  5
183
330
A
100
AcDbEntity
  8
LAYER_1
 62
    20
100
AcDbLine
 10
145.2304117838541
 20
228.2642754448784
 30
0.0
 11
148.2803548177083
 21
228.2642754448784
 31
0.0
  0
LINE
  5
182
330
A
100
AcDbEntity
  8
LAYER_1
 62
     1
100
AcDbLine
 10
145.2304117838541
 20
228.2940755208333
 30
0.0
 11
148.2803548177083
 21
228.2940755208333
 31
0.0
  0
LINE
  5
181
330
A
100
AcDbEntity
  8
LAYER_1
 62
     1
100
AcDbLine
 10
145.2304117838541
 20
228.3238755967882
 30
0.0
 11
148.2803548177083
 21
228.3238755967882
 31
0.0
  0
LINE
  5
180
330
A
100
AcDbEntity
  8
LAYER_1
 62
     1
100
AcDbLine
 10
145.2307562934028
 20
228.353675672743
 30
0.0
 11
148.2803548177083
 21
228.353675672743
 31
0.0
  0
LINE
  5
17F
330
A
100
AcDbEntity
  8
LAYER_1
 62
     1
100
AcDbLine
 10
145.2307562934028
 20
228.3834757486979
 30
0.0
 11
148.2803548177083
 21
228.3834757486979
 31
0.0
  0
LINE
  5
17E
330
A
100
AcDbEntity
  8
LAYER_1
 62
     1
100
AcDbLine
 10
145.2307562934028
 20
228.4132758246527
 30
0.0
 11
148.2803548177083
 21
228.4132758246527
 31
0.0
  0
LINE
  5
17D
330
A
100
AcDbEntity
  8
LAYER_1
 62
     1
100
AcDbLine
 10
145.2307562934028
 20
228.4430759006076
 30
0.0
 11
148.2803548177083
 21
228.4430759006076
 31
0.0
  0
LINE
  5
17C
330
A
100
AcDbEntity
  8
LAYER_1
 62
     1
100
AcDbLine
 10
145.2307562934028
 20
228.4728759765625
 30
0.0
 11
148.2803548177083
 21
228.4728759765625
 31
0.0
  0
LINE
  5
17B
330
A
100
AcDbEntity
  8
LAYER_1
 62
     1
100
AcDbLine
 10
145.2307562934028
 20
228.5026760525173
 30
0.0
 11
148.2803548177083
 21
228.5026760525173
 31
0.0
  0
LINE
  5
17A
330
A
100
AcDbEntity
  8
LAYER_1
 62
     1
100
AcDbLine
 10
145.2307562934028
 20
228.5324761284722
 30
0.0
 11
148.2803548177083
 21
228.5324761284722
 31
0.0
  0
LINE
  5
179
330
A
100
AcDbEntity
  8
LAYER_1
 62
     1
100
AcDbLine
 10
145.2307562934028
 20
228.5622762044271
 30
0.0
 11
148.2803548177083
 21
228.5622762044271
 31
0.0
  0
LINE
  5
178
330
A
100
AcDbEntity
  8
LAYER_1
 62
     1
100
AcDbLine
 10
145.2307562934028
 20
228.5920762803819
 30
0.0
 11
148.2803548177083
 21
228.5920762803819
 31
0.0
  0
LINE
  5
177
330
A
100
AcDbEntity
  8
LAYER_1
 62
     1
100
AcDbLine
 10
145.2307562934028
 20
228.6218763563368
 30
0.0
 11
148.2803548177083
 21
228.6218763563368
 31
0.0
  0
LINE
  5
176
330
A
100
AcDbEntity
  8
LAYER_1
 62
     1
100
AcDbLine
 10
145.2307562934028
 20
228.6516764322917
 30
0.0
 11
148.2803548177083
 21
228.6516764322917
 31
0.0
  0
LINE
  5
175
330
A
100
AcDbEntity
  8
LAYER_1
 62
     1
100
AcDbLine
 10
145.2307562934028
 20
228.6813042534722
 30
0.0
 11
148.2803548177083
 21
228.6813042534722
 31
0.0
  0
LINE
  5
174
330
A
100
AcDbEntity
  8
LAYER_1
 62
     1
100
AcDbLine
 10
145.2307562934028
 20
228.7111043294271
 30
0.0
 11
148.2803548177083
 21
228.7111043294271
 31
0.0
  0
LINE
  5
173
330
A
100
AcDbEntity
  8
LAYER_1
 62
     1
100
AcDbLine
 10
145.2307562934028
 20
228.7409044053819
 30
0.0
 11
148.2803548177083
 21
228.7409044053819
 31
0.0
  0
LINE
  5
172
330
A
100
AcDbEntity
  8
LAYER_1
 62
     1
100
AcDbLine
 10
145.2307562934028
 20
228.7707044813368
 30
0.0
 11
148.2803548177083
 21
228.7707044813368
 31
0.0
  0
LINE
  5
171
330
A
100
AcDbEntity
  8
LAYER_1
 62
     1
100
AcDbLine
 10
145.2307562934028
 20
228.8005045572917
 30
0.0
 11
148.2803548177083
 21
228.8005045572917
 31
0.0
  0
LINE
  5
170
330
A
100
AcDbEntity
  8
LAYER_1
 62
     1
100
AcDbLine
 10
145.2307562934028
 20
228.8303046332465
 30
0.0
 11
148.2803548177083
 21
228.8303046332465
 31
0.0
  0
LINE
  5
16F
330
A
100
AcDbEntity
  8
LAYER_1
 62
     1
100
AcDbLine
 10
145.2307562934028
 20
228.8601047092014
 30
0.0
 11
148.2803548177083
 21
228.8601047092014
 31
0.0
  0
MTEXT
  5
16E
330
A
100
AcDbEntity
  8
LAYER_1
 62
     7
100
AcDbMText
 10
145.9134019639757
 20
226.5774663620525
 30
0.0
 40
2.099867620733049
 41
0.0
 46
0.0
 71
     1
 72
     2
  1
\fHelvetica |b1|i0;\H2.0999;\C7;4
  7
STD
 73
     1
 44
1.0
  0
HATCH
  5
16D
330
A
100
AcDbEntity
  8
LAYER_1
 62
     1
100
AcDbHatch
 10
0.0
 20
0.0
 30
0.0
210
0.0
220
0.0
230
1.0
  2
SOLID
 70
     1
 71
     0
 91
        1
 92
        3
 72
     0
 73
     1
 93
        7
 10
26.21390380859375
 20
259.1040812174479
 10
24.1289320203993
 20
259.1040812174479
 10
24.1289320203993
 20
256.0541381835938
 10
26.21390380859375
 20
256.0541381835938
 10
26.21390380859375
 20
255.0126858181423
 10
28.5751722547743
 20
257.5792819552951
 10
26.21390380859375
 20
260.1455335828993
 97
        0
 75
     2
 76
     1
 98
        1
 10
0.0
 20
0.0
450
        0
451
        0
460
0.0
461
0.0
452
        0
462
0.0
453
        0
470

  0
LINE
  5
16C
330
A
100
AcDbEntity
  8
LAYER_1
 62
     7
100
AcDbLine
 10
24.1289320203993
 20
259.1040812174479
 30
0.0
 11
24.1289320203993
 21
256.0541381835938
 31
0.0
  0
LINE
  5
16B
330
A
100
AcDbEntity
  8
LAYER_1
 62
     7
100
AcDbLine
 10
24.15873209635416
 20
259.1040812174479
 30
0.0
 11
24.15873209635416
 21
256.0541381835938
 31
0.0
  0
LINE
  5
16A
330
A
100
AcDbEntity
  8
LAYER_1
 62
     7
100
AcDbLine
 10
24.18853217230902
 20
259.1040812174479
 30
0.0
 11
24.18853217230902
 21
256.0541381835938
 31
0.0
  0
LINE
  5
169
330
A
100
AcDbEntity
  8
LAYER_1
 62
     7
100
AcDbLine
 10
24.21833224826389
 20
259.1040812174479
 30
0.0
 11
24.21833224826389
 21
256.0541381835938
 31
0.0
  0
LINE
  5
168
330
A
100
AcDbEntity
  8
LAYER_1
 62
     7
100
AcDbLine
 10
24.24813232421875
 20
259.1040812174479
 30
0.0
 11
24.24813232421875
 21
256.0541381835938
 31
0.0
  0
LINE
  5
167
330
A
100
AcDbEntity
  8
LAYER_1
 62
     7
100
AcDbLine
 10
24.27793240017361
 20
259.1040812174479
 30
0.0
 11
24.27793240017361
 21
256.0541381835938
 31
0.0
  0
LINE
  5
166
330
A
100
AcDbEntity
  8
LAYER_1
 62
     7
100
AcDbLine
 10
24.30756022135417
 20
259.1040812174479
 30
0.0
 11
24.30756022135417
 21
256.0541381835938
 31
0.0
  0
LINE
  5
165
330
A
100
AcDbEntity
  8
LAYER_1
 62
     7
100
AcDbLine
 10
24.33736029730903
 20
259.1040812174479
 30
0.0
 11
24.33736029730903
 21
256.0541381835938
 31
0.0
  0
LINE
  5
164
330
A
100
AcDbEntity
  8
LAYER_1
 62
     7
100
AcDbLine
 10
24.36716037326389
 20
259.1040812174479
 30
0.0
 11
24.36716037326389
 21
256.0541381835938
 31
0.0
  0
LINE
  5
163
330
A
100
AcDbEntity
  8
LAYER_1
 62
     7
100
AcDbLine
 10
24.39696044921875
 20
259.1040812174479
 30
0.0
 11
24.39696044921875
 21
256.0541381835938
 31
0.0
  0
LINE
  5
162
330
A
100
AcDbEntity
  8
LAYER_1
 62
     7
100
AcDbLine
 10
24.42676052517361
 20
259.1040812174479
 30
0.0
 11
24.42676052517361
 21
256.0541381835938
 31
0.0
  0
LINE
  5
161
330
A
100
AcDbEntity
  8
LAYER_1
 62
     7
100
AcDbLine
 10
24.45656060112847
 20
259.1040812174479
 30
0.0
 11
24.45656060112847
 21
256.0541381835938
 31
0.0
  0
LINE
  5
160
330
A
100
AcDbEntity
  8
LAYER_1
 62
     7
100
AcDbLine
 10
24.48636067708334
 20
259.1040812174479
 30
0.0
 11
24.48636067708334
 21
256.0541381835938
 31
0.0
  0
LINE
  5
15F
330
A
100
AcDbEntity
  8
LAYER_1
 62
     7
100
AcDbLine
 10
24.5161607530382
 20
259.1040812174479
 30
0.0
 11
24.5161607530382
 21
256.0541381835938
 31
0.0
  0
LINE
  5
15E
330
A
100
AcDbEntity
  8
LAYER_1
 62
     7
100
AcDbLine
 10
24.54596082899306
 20
259.1040812174479
 30
0.0
 11
24.54596082899306
 21
256.0541381835938
 31
0.0
  0
LINE
  5
15D
330
A
100
AcDbEntity
  8
LAYER_1
 62
     7
100
AcDbLine
 10
24.57576090494792
 20
259.1040812174479
 30
0.0
 11
24.57576090494792
 21
256.0541381835938
 31
0.0
  0
LINE
  5
15C
330
A
100
AcDbEntity
  8
LAYER_1
 62
     7
100
AcDbLine
 10
24.60556098090278
 20
259.1040812174479
 30
0.0
 11
24.60556098090278
 21
256.0541381835938
 31
0.0
  0
LINE
  5
15B
330
A
100
AcDbEntity
  8
LAYER_1
 62
     7
100
AcDbLine
 10
24.63536105685764
 20
259.1040812174479
 30
0.0
 11
24.63536105685764
 21
256.0541381835938
 31
0.0
  0
LINE
  5
15A
330
A
100
AcDbEntity
  8
LAYER_1
 62
    21
100
AcDbLine
 10
24.66498887803819
 20
259.1040812174479
 30
0.0
 11
24.66498887803819
 21
256.0541381835938
 31
0.0
  0
LINE
  5
159
330
A
100
AcDbEntity
  8
LAYER_1
 62
    21
100
AcDbLine
 10
24.69478895399305
 20
259.1040812174479
 30
0.0
 11
24.69478895399305
 21
256.0541381835938
 31
0.0
  0
LINE
  5
158
330
A
100
AcDbEntity
  8
LAYER_1
 62
    21
100
AcDbLine
 10
24.72458902994791
 20
259.1040812174479
 30
0.0
 11
24.72458902994791
 21
256.0541381835938
 31
0.0
  0
LINE
  5
157
330
A
100
AcDbEntity
  8
LAYER_1
 62
    21
100
AcDbLine
 10
24.75438910590277
 20
259.1040812174479
 30
0.0
 11
24.75438910590277
 21
256.0541381835938
 31
0.0
  0
LINE
  5
156
330
A
100
AcDbEntity
  8
LAYER_1
 62
    21
100
AcDbLine
 10
24.78418918185764
 20
259.1040812174479
 30
0.0
 11
24.78418918185764
 21
256.0541381835938
 31
0.0
  0
LINE
  5
155
330
A
100
AcDbEntity
  8
LAYER_1
 62
    21
100
AcDbLine
 10
24.8139892578125
 20
259.1040812174479
 30
0.0
 11
24.8139892578125
 21
256.0541381835938
 31
0.0
  0
LINE
  5
154
330
A
100
AcDbEntity
  8
LAYER_1
 62
    21
100
AcDbLine
 10
24.84378933376736
 20
259.1040812174479
 30
0.0
 11
24.84378933376736
 21
256.0541381835938
 31
0.0
  0
LINE
  5
153
330
A
100
AcDbEntity
  8
LAYER_1
 62
    21
100
AcDbLine
 10
24.87358940972222
 20
259.1040812174479
 30
0.0
 11
24.87358940972222
 21
256.0541381835938
 31
0.0
  0
LINE
  5
152
330
A
100
AcDbEntity
  8
LAYER_1
 62
    21
100
AcDbLine
 10
24.90338948567708
 20
259.1040812174479
 30
0.0
 11
24.90338948567708
 21
256.0541381835938
 31
0.0
  0
LINE
  5
151
330
A
100
AcDbEntity
  8
LAYER_1
 62
    21
100
AcDbLine
 10
24.93318956163194
 20
259.1040812174479
 30
0.0
 11
24.93318956163194
 21
256.0541381835938
 31
0.0
  0
LINE
  5
150
330
A
100
AcDbEntity
  8
LAYER_1
 62
    21
100
AcDbLine
 10
24.96298963758681
 20
259.1040812174479
 30
0.0
 11
24.96298963758681
 21
256.0541381835938
 31
0.0
  0
LINE
  5
14F
330
A
100
AcDbEntity
  8
LAYER_1
 62
    21
100
AcDbLine
 10
24.99278971354167
 20
259.1040812174479
 30
0.0
 11
24.99278971354167
 21
256.0541381835938
 31
0.0
  0
LINE
  5
14E
330
A
100
AcDbEntity
  8
LAYER_1
 62
    21
100
AcDbLine
 10
25.02241753472222
 20
259.1040812174479
 30
0.0
 11
25.02241753472222
 21
256.0541381835938
 31
0.0
  0
LINE
  5
14D
330
A
100
AcDbEntity
  8
LAYER_1
 62
    21
100
AcDbLine
 10
25.05221761067708
 20
259.1040812174479
 30
0.0
 11
25.05221761067708
 21
256.0541381835938
 31
0.0
  0
LINE
  5
14C
330
A
100
AcDbEntity
  8
LAYER_1
 62
    21
100
AcDbLine
 10
25.08201768663194
 20
259.1040812174479
 30
0.0
 11
25.08201768663194
 21
256.0541381835938
 31
0.0
  0
LINE
  5
14B
330
A
100
AcDbEntity
  8
LAYER_1
 62
    21
100
AcDbLine
 10
25.1118177625868
 20
259.1040812174479
 30
0.0
 11
25.1118177625868
 21
256.0541381835938
 31
0.0
  0
LINE
  5
14A
330
A
100
AcDbEntity
  8
LAYER_1
 62
    21
100
AcDbLine
 10
25.14161783854166
 20
259.1040812174479
 30
0.0
 11
25.14161783854166
 21
256.0541381835938
 31
0.0
  0
LINE
  5
149
330
A
100
AcDbEntity
  8
LAYER_1
 62
    21
100
AcDbLine
 10
25.17141791449653
 20
259.1040812174479
 30
0.0
 11
25.17141791449653
 21
256.0541381835938
 31
0.0
  0
LINE
  5
148
330
A
100
AcDbEntity
  8
LAYER_1
 62
    21
100
AcDbLine
 10
25.20121799045139
 20
259.1040812174479
 30
0.0
 11
25.20121799045139
 21
256.0541381835938
 31
0.0
  0
LINE
  5
147
330
A
100
AcDbEntity
  8
LAYER_1
 62
    21
100
AcDbLine
 10
25.23101806640625
 20
259.1040812174479
 30
0.0
 11
25.23101806640625
 21
256.0541381835938
 31
0.0
  0
LINE
  5
146
330
A
100
AcDbEntity
  8
LAYER_1
 62
    20
100
AcDbLine
 10
25.26081814236111
 20
259.1040812174479
 30
0.0
 11
25.26081814236111
 21
256.0541381835938
 31
0.0
  0
LINE
  5
145
330
A
100
AcDbEntity
  8
LAYER_1
 62
    20
100
AcDbLine
 10
25.29061821831597
 20
259.1040812174479
 30
0.0
 11
25.29061821831597
 21
256.0541381835938
 31
0.0
  0
LINE
  5
144
330
A
100
AcDbEntity
  8
LAYER_1
 62
    20
100
AcDbLine
 10
25.32041829427083
 20
259.1040812174479
 30
0.0
 11
25.32041829427083
 21
256.0541381835938
 31
0.0
  0
LINE
  5
143
330
A
100
AcDbEntity
  8
LAYER_1
 62
    20
100
AcDbLine
 10
25.35004611545139
 20
259.1040812174479
 30
0.0
 11
25.35004611545139
 21
256.0541381835938
 31
0.0
  0
LINE
  5
142
330
A
100
AcDbEntity
  8
LAYER_1
 62
    20
100
AcDbLine
 10
25.37984619140625
 20
259.1040812174479
 30
0.0
 11
25.37984619140625
 21
256.0541381835938
 31
0.0
  0
LINE
  5
141
330
A
100
AcDbEntity
  8
LAYER_1
 62
    20
100
AcDbLine
 10
25.40964626736111
 20
259.1040812174479
 30
0.0
 11
25.40964626736111
 21
256.0541381835938
 31
0.0
  0
LINE
  5
140
330
A
100
AcDbEntity
  8
LAYER_1
 62
    20
100
AcDbLine
 10
25.43944634331597
 20
259.1040812174479
 30
0.0
 11
25.43944634331597
 21
256.0541381835938
 31
0.0
  0
LINE
  5
13F
330
A
100
AcDbEntity
  8
LAYER_1
 62
    20
100
AcDbLine
 10
25.46924641927083
 20
259.1040812174479
 30
0.0
 11
25.46924641927083
 21
256.0541381835938
 31
0.0
  0
LINE
  5
13E
330
A
100
AcDbEntity
  8
LAYER_1
 62
    20
100
AcDbLine
 10
25.49904649522569
 20
259.1040812174479
 30
0.0
 11
25.49904649522569
 21
256.0541381835938
 31
0.0
  0
LINE
  5
13D
330
A
100
AcDbEntity
  8
LAYER_1
 62
    20
100
AcDbLine
 10
25.52884657118056
 20
259.1040812174479
 30
0.0
 11
25.52884657118056
 21
256.0541381835938
 31
0.0
  0
LINE
  5
13C
330
A
100
AcDbEntity
  8
LAYER_1
 62
    20
100
AcDbLine
 10
25.55864664713542
 20
259.1040812174479
 30
0.0
 11
25.55864664713542
 21
256.0541381835938
 31
0.0
  0
LINE
  5
13B
330
A
100
AcDbEntity
  8
LAYER_1
 62
    20
100
AcDbLine
 10
25.58844672309028
 20
259.1040812174479
 30
0.0
 11
25.58844672309028
 21
256.0541381835938
 31
0.0
  0
LINE
  5
13A
330
A
100
AcDbEntity
  8
LAYER_1
 62
    20
100
AcDbLine
 10
25.61824679904514
 20
259.1040812174479
 30
0.0
 11
25.61824679904514
 21
256.0541381835938
 31
0.0
  0
LINE
  5
139
330
A
100
AcDbEntity
  8
LAYER_1
 62
     1
100
AcDbLine
 10
25.648046875
 20
259.1040812174479
 30
0.0
 11
25.648046875
 21
256.0541381835938
 31
0.0
  0
LINE
  5
138
330
A
100
AcDbEntity
  8
LAYER_1
 62
     1
100
AcDbLine
 10
25.67784695095486
 20
259.1040812174479
 30
0.0
 11
25.67784695095486
 21
256.0541381835938
 31
0.0
  0
LINE
  5
137
330
A
100
AcDbEntity
  8
LAYER_1
 62
     1
100
AcDbLine
 10
25.70747477213541
 20
259.1040812174479
 30
0.0
 11
25.70747477213541
 21
256.0541381835938
 31
0.0
  0
LINE
  5
136
330
A
100
AcDbEntity
  8
LAYER_1
 62
     1
100
AcDbLine
 10
25.73727484809028
 20
259.1040812174479
 30
0.0
 11
25.73727484809028
 21
256.0541381835938
 31
0.0
  0
LINE
  5
135
330
A
100
AcDbEntity
  8
LAYER_1
 62
     1
100
AcDbLine
 10
25.76707492404514
 20
259.1040812174479
 30
0.0
 11
25.76707492404514
 21
256.0541381835938
 31
0.0
  0
LINE
  5
134
330
A
100
AcDbEntity
  8
LAYER_1
 62
     1
100
AcDbLine
 10
25.796875
 20
259.1040812174479
 30
0.0
 11
25.796875
 21
256.0541381835938
 31
0.0
  0
LINE
  5
133
330
A
100
AcDbEntity
  8
LAYER_1
 62
     1
100
AcDbLine
 10
25.82667507595486
 20
259.1040812174479
 30
0.0
 11
25.82667507595486
 21
256.0541381835938
 31
0.0
  0
LINE
  5
132
330
A
100
AcDbEntity
  8
LAYER_1
 62
     1
100
AcDbLine
 10
25.85647515190972
 20
259.1040812174479
 30
0.0
 11
25.85647515190972
 21
256.0541381835938
 31
0.0
  0
LINE
  5
131
330
A
100
AcDbEntity
  8
LAYER_1
 62
     1
100
AcDbLine
 10
25.88627522786458
 20
259.1040812174479
 30
0.0
 11
25.88627522786458
 21
256.0541381835938
 31
0.0
  0
LINE
  5
130
330
A
100
AcDbEntity
  8
LAYER_1
 62
     1
100
AcDbLine
 10
25.91607530381944
 20
259.1040812174479
 30
0.0
 11
25.91607530381944
 21
256.0541381835938
 31
0.0
  0
LINE
  5
12F
330
A
100
AcDbEntity
  8
LAYER_1
 62
     1
100
AcDbLine
 10
25.9458753797743
 20
259.1040812174479
 30
0.0
 11
25.9458753797743
 21
256.0541381835938
 31
0.0
  0
LINE
  5
12E
330
A
100
AcDbEntity
  8
LAYER_1
 62
     1
100
AcDbLine
 10
25.97567545572916
 20
259.1040812174479
 30
0.0
 11
25.97567545572916
 21
256.0541381835938
 31
0.0
  0
LINE
  5
12D
330
A
100
AcDbEntity
  8
LAYER_1
 62
     1
100
AcDbLine
 10
26.00547553168403
 20
259.1040812174479
 30
0.0
 11
26.00547553168403
 21
256.0541381835938
 31
0.0
  0
LINE
  5
12C
330
A
100
AcDbEntity
  8
LAYER_1
 62
     1
100
AcDbLine
 10
26.03527560763889
 20
259.1040812174479
 30
0.0
 11
26.03527560763889
 21
256.0541381835938
 31
0.0
  0
LINE
  5
12B
330
A
100
AcDbEntity
  8
LAYER_1
 62
     1
100
AcDbLine
 10
26.06490342881944
 20
259.1040812174479
 30
0.0
 11
26.06490342881944
 21
256.0541381835938
 31
0.0
  0
LINE
  5
12A
330
A
100
AcDbEntity
  8
LAYER_1
 62
     1
100
AcDbLine
 10
26.0947035047743
 20
259.1040812174479
 30
0.0
 11
26.0947035047743
 21
256.0541381835938
 31
0.0
  0
LINE
  5
129
330
A
100
AcDbEntity
  8
LAYER_1
 62
     1
100
AcDbLine
 10
26.12450358072917
 20
259.1040812174479
 30
0.0
 11
26.12450358072917
 21
256.0541381835938
 31
0.0
  0
LINE
  5
128
330
A
100
AcDbEntity
  8
LAYER_1
 62
     1
100
AcDbLine
 10
26.15430365668403
 20
259.1040812174479
 30
0.0
 11
26.15430365668403
 21
256.0541381835938
 31
0.0
  0
LINE
  5
127
330
A
100
AcDbEntity
  8
LAYER_1
 62
     1
100
AcDbLine
 10
26.18410373263889
 20
259.1040812174479
 30
0.0
 11
26.18410373263889
 21
256.0541381835938
 31
0.0
  0
LINE
  5
126
330
A
100
AcDbEntity
  8
LAYER_1
 62
     1
100
AcDbLine
 10
26.21390380859375
 20
259.1040812174479
 30
0.0
 11
26.21390380859375
 21
256.0541381835938
 31
0.0
  0
MTEXT
  5
125
330
A
100
AcDbEntity
  8
LAYER_1
 62
     7
100
AcDbMText
 10
22.09942626953125
 20
258.7446674254205
 30
0.0
 40
2.099867620733049
 41
0.0
 46
0.0
 71
     1
 72
     2
  1
\fHelvetica |b1|i0;\H2.0999;\C7;3
  7
STD
 73
     1
 44
1.0
  0
HATCH
  5
124
330
A
100
AcDbEntity
  8
LAYER_1
 62
     1
100
AcDbHatch
 10
0.0
 20
0.0
 30
0.0
210
0.0
220
0.0
230
1.0
  2
SOLID
 70
     1
 71
     0
 91
        1
 92
        3
 72
     0
 73
     1
 93
        7
 10
315.1239176432292
 20
203.565869140625
 10
317.2082004123264
 20
203.565869140625
 10
317.2082004123264
 20
200.5159261067708
 10
315.1239176432292
 20
200.5159261067708
 10
315.1239176432292
 20
199.4744737413194
 10
312.7626491970486
 20
202.0410698784722
 10
315.1239176432292
 20
204.6073215060764
 97
        0
 75
     2
 76
     1
 98
        1
 10
0.0
 20
0.0
450
        0
451
        0
460
0.0
461
0.0
452
        0
462
0.0
453
        0
470

  0
LINE
  5
123
330
A
100
AcDbEntity
  8
LAYER_1
 62
     7
100
AcDbLine
 10
317.2095784505208
 20
200.5150648328993
 30
0.0
 11
317.2095784505208
 21
203.5656968858507
 31
0.0
  0
LINE
  5
122
330
A
100
AcDbEntity
  8
LAYER_1
 62
     7
100
AcDbLine
 10
317.1799506293402
 20
200.5150648328993
 30
0.0
 11
317.1799506293402
 21
203.5656968858507
 31
0.0
  0
LINE
  5
121
330
A
100
AcDbEntity
  8
LAYER_1
 62
     7
100
AcDbLine
 10
317.1499782986111
 20
200.5150648328993
 30
0.0
 11
317.1499782986111
 21
203.5656968858507
 31
0.0
  0
LINE
  5
120
330
A
100
AcDbEntity
  8
LAYER_1
 62
     7
100
AcDbLine
 10
317.1203504774305
 20
200.5150648328993
 30
0.0
 11
317.1203504774305
 21
203.5656968858507
 31
0.0
  0
LINE
  5
11F
330
A
100
AcDbEntity
  8
LAYER_1
 62
     7
100
AcDbLine
 10
317.0903781467014
 20
200.5150648328993
 30
0.0
 11
317.0903781467014
 21
203.5656968858507
 31
0.0
  0
LINE
  5
11E
330
A
100
AcDbEntity
  8
LAYER_1
 62
     7
100
AcDbLine
 10
317.0607503255208
 20
200.5150648328993
 30
0.0
 11
317.0607503255208
 21
203.5656968858507
 31
0.0
  0
LINE
  5
11D
330
A
100
AcDbEntity
  8
LAYER_1
 62
     7
100
AcDbLine
 10
317.0307779947917
 20
200.5150648328993
 30
0.0
 11
317.0307779947917
 21
203.5656968858507
 31
0.0
  0
LINE
  5
11C
330
A
100
AcDbEntity
  8
LAYER_1
 62
     7
100
AcDbLine
 10
317.0011501736111
 20
200.5152370876736
 30
0.0
 11
317.0011501736111
 21
203.5656968858507
 31
0.0
  0
LINE
  5
11B
330
A
100
AcDbEntity
  8
LAYER_1
 62
     7
100
AcDbLine
 10
316.9711778428819
 20
200.5152370876736
 30
0.0
 11
316.9711778428819
 21
203.5656968858507
 31
0.0
  0
LINE
  5
11A
330
A
100
AcDbEntity
  8
LAYER_1
 62
     7
100
AcDbLine
 10
316.9415500217013
 20
200.5152370876736
 30
0.0
 11
316.9415500217013
 21
203.5656968858507
 31
0.0
  0
LINE
  5
119
330
A
100
AcDbEntity
  8
LAYER_1
 62
     7
100
AcDbLine
 10
316.9115776909722
 20
200.5152370876736
 30
0.0
 11
316.9115776909722
 21
203.5656968858507
 31
0.0
  0
LINE
  5
118
330
A
100
AcDbEntity
  8
LAYER_1
 62
     7
100
AcDbLine
 10
316.8819498697916
 20
200.5152370876736
 30
0.0
 11
316.8819498697916
 21
203.5656968858507
 31
0.0
  0
LINE
  5
117
330
A
100
AcDbEntity
  8
LAYER_1
 62
     7
100
AcDbLine
 10
316.8519775390625
 20
200.5152370876736
 30
0.0
 11
316.8523220486111
 21
203.5656968858507
 31
0.0
  0
LINE
  5
116
330
A
100
AcDbEntity
  8
LAYER_1
 62
     7
100
AcDbLine
 10
316.8223497178819
 20
200.5152370876736
 30
0.0
 11
316.8223497178819
 21
203.5656968858507
 31
0.0
  0
LINE
  5
115
330
A
100
AcDbEntity
  8
LAYER_1
 62
     7
100
AcDbLine
 10
316.7923773871527
 20
200.5152370876736
 30
0.0
 11
316.7927218967014
 21
203.5656968858507
 31
0.0
  0
LINE
  5
114
330
A
100
AcDbEntity
  8
LAYER_1
 62
     7
100
AcDbLine
 10
316.7627495659722
 20
200.5152370876736
 30
0.0
 11
316.7627495659722
 21
203.5656968858507
 31
0.0
  0
LINE
  5
113
330
A
100
AcDbEntity
  8
LAYER_1
 62
     7
100
AcDbLine
 10
316.732777235243
 20
200.5152370876736
 30
0.0
 11
316.7331217447916
 21
203.5656968858507
 31
0.0
  0
LINE
  5
112
330
A
100
AcDbEntity
  8
LAYER_1
 62
     7
100
AcDbLine
 10
316.7031494140625
 20
200.5152370876736
 30
0.0
 11
316.7031494140625
 21
203.5656968858507
 31
0.0
  0
LINE
  5
111
330
A
100
AcDbEntity
  8
LAYER_1
 62
    21
100
AcDbLine
 10
316.6731770833333
 20
200.5152370876736
 30
0.0
 11
316.6735215928819
 21
203.5656968858507
 31
0.0
  0
LINE
  5
110
330
A
100
AcDbEntity
  8
LAYER_1
 62
    21
100
AcDbLine
 10
316.6435492621527
 20
200.5152370876736
 30
0.0
 11
316.6435492621527
 21
203.5656968858507
 31
0.0
  0
LINE
  5
10F
330
A
100
AcDbEntity
  8
LAYER_1
 62
    21
100
AcDbLine
 10
316.6135769314236
 20
200.5152370876736
 30
0.0
 11
316.6139214409722
 21
203.5656968858507
 31
0.0
  0
LINE
  5
10E
330
A
100
AcDbEntity
  8
LAYER_1
 62
    21
100
AcDbLine
 10
316.5839491102431
 20
200.5154093424479
 30
0.0
 11
316.5839491102431
 21
203.5656968858507
 31
0.0
  0
LINE
  5
10D
330
A
100
AcDbEntity
  8
LAYER_1
 62
    21
100
AcDbLine
 10
316.5539767795138
 20
200.5154093424479
 30
0.0
 11
316.5543212890625
 21
203.5656968858507
 31
0.0
  0
LINE
  5
10C
330
A
100
AcDbEntity
  8
LAYER_1
 62
    21
100
AcDbLine
 10
316.5243489583333
 20
200.5154093424479
 30
0.0
 11
316.5243489583333
 21
203.5656968858507
 31
0.0
  0
LINE
  5
10B
330
A
100
AcDbEntity
  8
LAYER_1
 62
    21
100
AcDbLine
 10
316.4943766276041
 20
200.5154093424479
 30
0.0
 11
316.4947211371528
 21
203.5656968858507
 31
0.0
  0
LINE
  5
10A
330
A
100
AcDbEntity
  8
LAYER_1
 62
    21
100
AcDbLine
 10
316.4647488064236
 20
200.5154093424479
 30
0.0
 11
316.4650933159722
 21
203.5656968858507
 31
0.0
  0
LINE
  5
109
330
A
100
AcDbEntity
  8
LAYER_1
 62
    21
100
AcDbLine
 10
316.4347764756944
 20
200.5154093424479
 30
0.0
 11
316.435120985243
 21
203.5656968858507
 31
0.0
  0
LINE
  5
108
330
A
100
AcDbEntity
  8
LAYER_1
 62
    21
100
AcDbLine
 10
316.4051486545139
 20
200.5154093424479
 30
0.0
 11
316.4054931640625
 21
203.5656968858507
 31
0.0
  0
LINE
  5
107
330
A
100
AcDbEntity
  8
LAYER_1
 62
    21
100
AcDbLine
 10
316.3751763237847
 20
200.5154093424479
 30
0.0
 11
316.3755208333333
 21
203.5656968858507
 31
0.0
  0
LINE
  5
106
330
A
100
AcDbEntity
  8
LAYER_1
 62
    21
100
AcDbLine
 10
316.3455485026041
 20
200.5154093424479
 30
0.0
 11
316.3458930121528
 21
203.5656968858507
 31
0.0
  0
LINE
  5
105
330
A
100
AcDbEntity
  8
LAYER_1
 62
    21
100
AcDbLine
 10
316.315576171875
 20
200.5154093424479
 30
0.0
 11
316.3159206814236
 21
203.5656968858507
 31
0.0
  0
LINE
  5
104
330
A
100
AcDbEntity
  8
LAYER_1
 62
    21
100
AcDbLine
 10
316.2859483506944
 20
200.5154093424479
 30
0.0
 11
316.286292860243
 21
203.5656968858507
 31
0.0
  0
LINE
  5
103
330
A
100
AcDbEntity
  8
LAYER_1
 62
    21
100
AcDbLine
 10
316.2559760199652
 20
200.5154093424479
 30
0.0
 11
316.2563205295139
 21
203.5656968858507
 31
0.0
  0
LINE
  5
102
330
A
100
AcDbEntity
  8
LAYER_1
 62
    21
100
AcDbLine
 10
316.2263481987847
 20
200.5154093424479
 30
0.0
 11
316.2266927083333
 21
203.5656968858507
 31
0.0
  0
LINE
  5
101
330
A
100
AcDbEntity
  8
LAYER_1
 62
    21
100
AcDbLine
 10
316.1963758680556
 20
200.5154093424479
 30
0.0
 11
316.1967203776042
 21
203.5656968858507
 31
0.0
  0
LINE
  5
100
330
A
100
AcDbEntity
  8
LAYER_1
 62
    21
100
AcDbLine
 10
316.166748046875
 20
200.5155815972222
 30
0.0
 11
316.1670925564236
 21
203.5655246310763
 31
0.0
  0
LINE
  5
FF
330
A
100
AcDbEntity
  8
LAYER_1
 62
    21
100
AcDbLine
 10
316.1371202256944
 20
200.5155815972222
 30
0.0
 11
316.1374647352431
 21
203.5655246310763
 31
0.0
  0
LINE
  5
FE
330
A
100
AcDbEntity
  8
LAYER_1
 62
    21
100
AcDbLine
 10
316.1071478949653
 20
200.5155815972222
 30
0.0
 11
316.1074924045138
 21
203.5655246310763
 31
0.0
  0
LINE
  5
FD
330
A
100
AcDbEntity
  8
LAYER_1
 62
    20
100
AcDbLine
 10
316.0775200737847
 20
200.5155815972222
 30
0.0
 11
316.0778645833333
 21
203.5655246310763
 31
0.0
  0
LINE
  5
FC
330
A
100
AcDbEntity
  8
LAYER_1
 62
    20
100
AcDbLine
 10
316.0475477430555
 20
200.5155815972222
 30
0.0
 11
316.0478922526041
 21
203.5655246310763
 31
0.0
  0
LINE
  5
FB
330
A
100
AcDbEntity
  8
LAYER_1
 62
    20
100
AcDbLine
 10
316.017919921875
 20
200.5155815972222
 30
0.0
 11
316.0182644314236
 21
203.5655246310763
 31
0.0
  0
LINE
  5
FA
330
A
100
AcDbEntity
  8
LAYER_1
 62
    20
100
AcDbLine
 10
315.9879475911458
 20
200.5155815972222
 30
0.0
 11
315.9882921006944
 21
203.5655246310763
 31
0.0
  0
LINE
  5
F9
330
A
100
AcDbEntity
  8
LAYER_1
 62
    20
100
AcDbLine
 10
315.9583197699653
 20
200.5155815972222
 30
0.0
 11
315.9586642795139
 21
203.5655246310763
 31
0.0
  0
LINE
  5
F8
330
A
100
AcDbEntity
  8
LAYER_1
 62
    20
100
AcDbLine
 10
315.9283474392361
 20
200.5155815972222
 30
0.0
 11
315.9286919487847
 21
203.5655246310763
 31
0.0
  0
LINE
  5
F7
330
A
100
AcDbEntity
  8
LAYER_1
 62
    20
100
AcDbLine
 10
315.8987196180555
 20
200.5155815972222
 30
0.0
 11
315.8990641276042
 21
203.5655246310763
 31
0.0
  0
LINE
  5
F6
330
A
100
AcDbEntity
  8
LAYER_1
 62
    20
100
AcDbLine
 10
315.8687472873264
 20
200.5155815972222
 30
0.0
 11
315.8690917968749
 21
203.5655246310763
 31
0.0
  0
LINE
  5
F5
330
A
100
AcDbEntity
  8
LAYER_1
 62
    20
100
AcDbLine
 10
315.8391194661458
 20
200.5155815972222
 30
0.0
 11
315.8394639756944
 21
203.5655246310763
 31
0.0
  0
LINE
  5
F4
330
A
100
AcDbEntity
  8
LAYER_1
 62
    20
100
AcDbLine
 10
315.8091471354167
 20
200.5155815972222
 30
0.0
 11
315.8098361545139
 21
203.5655246310763
 31
0.0
  0
LINE
  5
F3
330
A
100
AcDbEntity
  8
LAYER_1
 62
    20
100
AcDbLine
 10
315.7795193142361
 20
200.5155815972222
 30
0.0
 11
315.7798638237847
 21
203.5655246310763
 31
0.0
  0
LINE
  5
F2
330
A
100
AcDbEntity
  8
LAYER_1
 62
    20
100
AcDbLine
 10
315.7495469835069
 20
200.5157538519965
 30
0.0
 11
315.7502360026041
 21
203.5655246310763
 31
0.0
  0
LINE
  5
F1
330
A
100
AcDbEntity
  8
LAYER_1
 62
    20
100
AcDbLine
 10
315.7199191623263
 20
200.5157538519965
 30
0.0
 11
315.720263671875
 21
203.5655246310763
 31
0.0
  0
LINE
  5
F0
330
A
100
AcDbEntity
  8
LAYER_1
 62
     1
100
AcDbLine
 10
315.6899468315972
 20
200.5157538519965
 30
0.0
 11
315.6906358506944
 21
203.5655246310763
 31
0.0
  0
LINE
  5
EF
330
A
100
AcDbEntity
  8
LAYER_1
 62
     1
100
AcDbLine
 10
315.6603190104166
 20
200.5157538519965
 30
0.0
 11
315.6606635199652
 21
203.5655246310763
 31
0.0
  0
LINE
  5
EE
330
A
100
AcDbEntity
  8
LAYER_1
 62
     1
100
AcDbLine
 10
315.6303466796875
 20
200.5157538519965
 30
0.0
 11
315.6310356987847
 21
203.5655246310763
 31
0.0
  0
LINE
  5
ED
330
A
100
AcDbEntity
  8
LAYER_1
 62
     1
100
AcDbLine
 10
315.6007188585069
 20
200.5157538519965
 30
0.0
 11
315.6010633680555
 21
203.5655246310763
 31
0.0
  0
LINE
  5
EC
330
A
100
AcDbEntity
  8
LAYER_1
 62
     1
100
AcDbLine
 10
315.5707465277778
 20
200.5157538519965
 30
0.0
 11
315.571435546875
 21
203.5655246310763
 31
0.0
  0
LINE
  5
EB
330
A
100
AcDbEntity
  8
LAYER_1
 62
     1
100
AcDbLine
 10
315.5411187065972
 20
200.5157538519965
 30
0.0
 11
315.5414632161458
 21
203.5655246310763
 31
0.0
  0
LINE
  5
EA
330
A
100
AcDbEntity
  8
LAYER_1
 62
     1
100
AcDbLine
 10
315.511146375868
 20
200.5157538519965
 30
0.0
 11
315.5118353949653
 21
203.5655246310763
 31
0.0
  0
LINE
  5
E9
330
A
100
AcDbEntity
  8
LAYER_1
 62
     1
100
AcDbLine
 10
315.4815185546874
 20
200.5157538519965
 30
0.0
 11
315.4818630642361
 21
203.5655246310763
 31
0.0
  0
LINE
  5
E8
330
A
100
AcDbEntity
  8
LAYER_1
 62
     1
100
AcDbLine
 10
315.4515462239583
 20
200.5157538519965
 30
0.0
 11
315.4522352430555
 21
203.5655246310763
 31
0.0
  0
LINE
  5
E7
330
A
100
AcDbEntity
  8
LAYER_1
 62
     1
100
AcDbLine
 10
315.4219184027777
 20
200.5157538519965
 30
0.0
 11
315.4226074218749
 21
203.5655246310763
 31
0.0
  0
LINE
  5
E6
330
A
100
AcDbEntity
  8
LAYER_1
 62
     1
100
AcDbLine
 10
315.3919460720486
 20
200.5157538519965
 30
0.0
 11
315.3926350911458
 21
203.5655246310763
 31
0.0
  0
LINE
  5
E5
330
A
100
AcDbEntity
  8
LAYER_1
 62
     1
100
AcDbLine
 10
315.3623182508681
 20
200.5157538519965
 30
0.0
 11
315.3630072699652
 21
203.5655246310763
 31
0.0
  0
LINE
  5
E4
330
A
100
AcDbEntity
  8
LAYER_1
 62
     1
100
AcDbLine
 10
315.3323459201388
 20
200.5159261067708
 30
0.0
 11
315.3330349392361
 21
203.5655246310763
 31
0.0
  0
LINE
  5
E3
330
A
100
AcDbEntity
  8
LAYER_1
 62
     1
100
AcDbLine
 10
315.3027180989583
 20
200.5159261067708
 30
0.0
 11
315.3034071180556
 21
203.5655246310763
 31
0.0
  0
LINE
  5
E2
330
A
100
AcDbEntity
  8
LAYER_1
 62
     1
100
AcDbLine
 10
315.2727457682291
 20
200.5159261067708
 30
0.0
 11
315.2734347873264
 21
203.5655246310763
 31
0.0
  0
LINE
  5
E1
330
A
100
AcDbEntity
  8
LAYER_1
 62
     1
100
AcDbLine
 10
315.2431179470486
 20
200.5159261067708
 30
0.0
 11
315.2438069661458
 21
203.5655246310763
 31
0.0
  0
LINE
  5
E0
330
A
100
AcDbEntity
  8
LAYER_1
 62
     1
100
AcDbLine
 10
315.2131456163194
 20
200.5159261067708
 30
0.0
 11
315.2138346354166
 21
203.5655246310763
 31
0.0
  0
LINE
  5
DF
330
A
100
AcDbEntity
  8
LAYER_1
 62
     1
100
AcDbLine
 10
315.1835177951389
 20
200.5159261067708
 30
0.0
 11
315.1842068142361
 21
203.5655246310763
 31
0.0
  0
LINE
  5
DE
330
A
100
AcDbEntity
  8
LAYER_1
 62
     1
100
AcDbLine
 10
315.1535454644097
 20
200.5159261067708
 30
0.0
 11
315.1542344835069
 21
203.5655246310763
 31
0.0
  0
LINE
  5
DD
330
A
100
AcDbEntity
  8
LAYER_1
 62
     1
100
AcDbLine
 10
315.1239176432292
 20
200.5159261067708
 30
0.0
 11
315.1246066623264
 21
203.5655246310763
 31
0.0
  0
MTEXT
  5
DC
330
A
100
AcDbEntity
  8
LAYER_1
 62
     7
100
AcDbMText
 10
317.6233344184027
 20
203.1730379223823
 30
0.0
 40
2.099867620733049
 41
0.0
 46
0.0
 71
     1
 72
     2
  1
\fHelvetica |b1|i0;\H2.0999;\C7;5
  7
STD
 73
     1
 44
1.0
  0
MTEXT
  5
DB
330
A
100
AcDbEntity
  8
LAYER_1
 62
     7
100
AcDbMText
 10
105.9625244140625
 20
279.8208347307311
 30
0.0
 40
2.624834567970699
 41
0.0
 46
0.0
 71
     1
 72
     2
  1
\fArial|b0|i0;\H2.6248;\C7;C
  7
STD
 73
     1
 44
1.0
  0
MTEXT
  5
DA
330
A
100
AcDbEntity
  8
LAYER_1
 62
     7
100
AcDbMText
 10
186.1751993815104
 20
279.3535075280401
 30
0.0
 40
2.624834567970699
 41
0.0
 46
0.0
 71
     1
 72
     2
  1
\fArial|b0|i0;\H2.6248;\C7;D
  7
STD
 73
     1
 44
1.0
  0
MTEXT
  5
D9
330
A
100
AcDbEntity
  8
LAYER_1
 62
     7
100
AcDbMText
 10
27.51666666666667
 20
187.7404948327276
 30
0.0
 40
2.624834567970699
 41
0.0
 46
0.0
 71
     1
 72
     2
  1
\fArial|b0|i0;\H2.6248;\C7;C
  7
STD
 73
     1
 44
1.0
  0
MTEXT
  5
D8
330
A
100
AcDbEntity
  8
LAYER_1
 62
     7
100
AcDbMText
 10
233.1861111111111
 20
176.4516059438387
 30
0.0
 40
2.624834567970699
 41
0.0
 46
0.0
 71
     1
 72
     2
  1
\fArial|b0|i0;\H2.6248;\C7;D
  7
STD
 73
     1
 44
1.0
  0
MTEXT
  5
D7
330
A
100
AcDbEntity
  8
LAYER_1
 62
     7
100
AcDbMText
 10
22.23705783420139
 20
254.9068638563156
 30
0.0
 40
1.837384147114223
 41
0.0
 46
0.0
 71
     1
 72
     2
  1
\fHelvetica|b0|i0;\H1.8374;\C7;53
  7
STD
 73
     1
 44
1.0
  0
LINE
  5
D6
330
A
100
AcDbEntity
  8
LAYER_1
 62
     7
100
AcDbLine
 10
24.69513346354167
 20
252.6726047092014
 30
0.0
 11
22.31250542534722
 21
252.6726047092014
 31
0.0
  0
LINE
  5
D5
330
A
100
AcDbEntity
  8
LAYER_1
 62
     7
100
AcDbLine
 10
23.90069444444444
 20
252.6726047092014
 30
0.0
 11
24.25174967447917
 21
250.8367133246527
 31
0.0
  0
LINE
  5
D4
330
A
100
AcDbEntity
  8
LAYER_1
 62
     7
100
AcDbLine
 10
23.10694444444444
 20
252.6726047092014
 30
0.0
 11
22.75588921440972
 21
250.8367133246527
 31
0.0
  0
POLYLINE
  5
CE
330
A
100
AcDbEntity
  8
LAYER_1
 62
     7
100
AcDb2dPolyline
 66
     1
 10
0.0
 20
0.0
 30
0.0
 70
     1
  0
VERTEX
  5
CF
330
CE
100
AcDbEntity
  8
LAYER_1
 62
     7
100
AcDbVertex
100
AcDb2dVertex
 10
54.03873426649305
 20
250.3786878797743
 30
0.0
  0
VERTEX
  5
D0
330
CE
100
AcDbEntity
  8
LAYER_1
 62
     7
100
AcDbVertex
100
AcDb2dVertex
 10
49.80540093315972
 20
250.3786878797743
 30
0.0
  0
VERTEX
  5
D1
330
CE
100
AcDbEntity
  8
LAYER_1
 62
     7
100
AcDbVertex
100
AcDb2dVertex
 10
49.80540093315972
 20
256.0231323242188
 30
0.0
  0
VERTEX
  5
D2
330
CE
100
AcDbEntity
  8
LAYER_1
 62
     7
100
AcDbVertex
100
AcDb2dVertex
 10
54.03873426649305
 20
256.0231323242188
 30
0.0
  0
SEQEND
  5
D3
330
CE
100
AcDbEntity
  8
LAYER_1
 62
     7
  0
POLYLINE
  5
C8
330
A
100
AcDbEntity
  8
LAYER_1
 62
     7
100
AcDb2dPolyline
 66
     1
 10
0.0
 20
0.0
 30
0.0
 70
     1
  0
VERTEX
  5
C9
330
C8
100
AcDbEntity
  8
LAYER_1
 62
     7
100
AcDbVertex
100
AcDb2dVertex
 10
54.03873426649305
 20
250.3786878797743
 30
0.0
  0
VERTEX
  5
CA
330
C8
100
AcDbEntity
  8
LAYER_1
 62
     7
100
AcDbVertex
100
AcDb2dVertex
 10
49.80540093315972
 20
250.3786878797743
 30
0.0
  0
VERTEX
  5
CB
330
C8
100
AcDbEntity
  8
LAYER_1
 62
     7
100
AcDbVertex
100
AcDb2dVertex
 10
49.80540093315972
 20
256.0231323242188
 30
0.0
  0
VERTEX
  5
CC
330
C8
100
AcDbEntity
  8
LAYER_1
 62
     7
100
AcDbVertex
100
AcDb2dVertex
 10
54.03873426649305
 20
256.0231323242188
 30
0.0
  0
SEQEND
  5
CD
330
C8
100
AcDbEntity
  8
LAYER_1
 62
     7
  0
MTEXT
  5
C7
330
A
100
AcDbEntity
  8
LAYER_1
 62
     7
100
AcDbMText
 10
50.66150716145833
 20
255.2251906792323
 30
0.0
 40
1.837384147114223
 41
0.0
 46
0.0
 71
     1
 72
     2
  1
\fHelvetica|b0|i0;\H1.8374;\C7;54
  7
STD
 73
     1
 44
1.0
  0
LINE
  5
C6
330
A
100
AcDbEntity
  8
LAYER_1
 62
     7
100
AcDbLine
 10
53.1195827907986
 20
252.990931532118
 30
0.0
 11
50.73695475260416
 21
252.990931532118
 31
0.0
  0
LINE
  5
C5
330
A
100
AcDbEntity
  8
LAYER_1
 62
     7
100
AcDbLine
 10
52.32514377170138
 20
252.990931532118
 30
0.0
 11
52.67619900173611
 21
251.1550401475694
 31
0.0
  0
LINE
  5
C4
330
A
100
AcDbEntity
  8
LAYER_1
 62
     7
100
AcDbLine
 10
51.53139377170138
 20
252.990931532118
 30
0.0
 11
51.18033854166666
 21
251.1550401475694
 31
0.0
  0
POLYLINE
  5
BE
330
A
100
AcDbEntity
  8
LAYER_1
 62
     7
100
AcDb2dPolyline
 66
     1
 10
0.0
 20
0.0
 30
0.0
 70
     1
  0
VERTEX
  5
BF
330
BE
100
AcDbEntity
  8
LAYER_1
 62
     7
100
AcDbVertex
100
AcDb2dVertex
 10
87.08236762152777
 20
250.0259101019965
 30
0.0
  0
VERTEX
  5
C0
330
BE
100
AcDbEntity
  8
LAYER_1
 62
     7
100
AcDbVertex
100
AcDb2dVertex
 10
82.84903428819443
 20
250.0259101019965
 30
0.0
  0
VERTEX
  5
C1
330
BE
100
AcDbEntity
  8
LAYER_1
 62
     7
100
AcDbVertex
100
AcDb2dVertex
 10
82.84903428819443
 20
255.670354546441
 30
0.0
  0
VERTEX
  5
C2
330
BE
100
AcDbEntity
  8
LAYER_1
 62
     7
100
AcDbVertex
100
AcDb2dVertex
 10
87.08236762152777
 20
255.670354546441
 30
0.0
  0
SEQEND
  5
C3
330
BE
100
AcDbEntity
  8
LAYER_1
 62
     7
  0
POLYLINE
  5
B8
330
A
100
AcDbEntity
  8
LAYER_1
 62
     7
100
AcDb2dPolyline
 66
     1
 10
0.0
 20
0.0
 30
0.0
 70
     1
  0
VERTEX
  5
B9
330
B8
100
AcDbEntity
  8
LAYER_1
 62
     7
100
AcDbVertex
100
AcDb2dVertex
 10
87.08236762152777
 20
250.0259101019965
 30
0.0
  0
VERTEX
  5
BA
330
B8
100
AcDbEntity
  8
LAYER_1
 62
     7
100
AcDbVertex
100
AcDb2dVertex
 10
82.84903428819443
 20
250.0259101019965
 30
0.0
  0
VERTEX
  5
BB
330
B8
100
AcDbEntity
  8
LAYER_1
 62
     7
100
AcDbVertex
100
AcDb2dVertex
 10
82.84903428819443
 20
255.670354546441
 30
0.0
  0
VERTEX
  5
BC
330
B8
100
AcDbEntity
  8
LAYER_1
 62
     7
100
AcDbVertex
100
AcDb2dVertex
 10
87.08236762152777
 20
255.670354546441
 30
0.0
  0
SEQEND
  5
BD
330
B8
100
AcDbEntity
  8
LAYER_1
 62
     7
  0
MTEXT
  5
B7
330
A
100
AcDbEntity
  8
LAYER_1
 62
     7
100
AcDbMText
 10
83.67792426215277
 20
254.968531065517
 30
0.0
 40
1.837384147114223
 41
0.0
 46
0.0
 71
     1
 72
     2
  1
\fHelvetica|b0|i0;\H1.8374;\C7;55
  7
STD
 73
     1
 44
1.0
  0
LINE
  5
B6
330
A
100
AcDbEntity
  8
LAYER_1
 62
     7
100
AcDbLine
 10
86.13599989149305
 20
252.7342719184027
 30
0.0
 11
83.75337185329859
 21
252.7342719184027
 31
0.0
  0
LINE
  5
B5
330
A
100
AcDbEntity
  8
LAYER_1
 62
     7
100
AcDbLine
 10
85.34156087239583
 20
252.7342719184027
 30
0.0
 11
85.69261610243055
 21
250.8983805338541
 31
0.0
  0
LINE
  5
B4
330
A
100
AcDbEntity
  8
LAYER_1
 62
     7
100
AcDbLine
 10
84.54781087239583
 20
252.7342719184027
 30
0.0
 11
84.1967556423611
 21
250.8983805338541
 31
0.0
  0
POLYLINE
  5
AE
330
A
100
AcDbEntity
  8
LAYER_1
 62
     7
100
AcDb2dPolyline
 66
     1
 10
0.0
 20
0.0
 30
0.0
 70
     1
  0
VERTEX
  5
AF
330
AE
100
AcDbEntity
  8
LAYER_1
 62
     7
100
AcDbVertex
100
AcDb2dVertex
 10
156.345667860243
 20
242.0267428927951
 30
0.0
  0
VERTEX
  5
B0
330
AE
100
AcDbEntity
  8
LAYER_1
 62
     7
100
AcDbVertex
100
AcDb2dVertex
 10
152.1123345269097
 20
242.0267428927951
 30
0.0
  0
VERTEX
  5
B1
330
AE
100
AcDbEntity
  8
LAYER_1
 62
     7
100
AcDbVertex
100
AcDb2dVertex
 10
152.1123345269097
 20
247.6711873372396
 30
0.0
  0
VERTEX
  5
B2
330
AE
100
AcDbEntity
  8
LAYER_1
 62
     7
100
AcDbVertex
100
AcDb2dVertex
 10
156.345667860243
 20
247.6711873372396
 30
0.0
  0
SEQEND
  5
B3
330
AE
100
AcDbEntity
  8
LAYER_1
 62
     7
  0
POLYLINE
  5
A8
330
A
100
AcDbEntity
  8
LAYER_1
 62
     7
100
AcDb2dPolyline
 66
     1
 10
0.0
 20
0.0
 30
0.0
 70
     1
  0
VERTEX
  5
A9
330
A8
100
AcDbEntity
  8
LAYER_1
 62
     7
100
AcDbVertex
100
AcDb2dVertex
 10
156.345667860243
 20
242.0267428927951
 30
0.0
  0
VERTEX
  5
AA
330
A8
100
AcDbEntity
  8
LAYER_1
 62
     7
100
AcDbVertex
100
AcDb2dVertex
 10
152.1123345269097
 20
242.0267428927951
 30
0.0
  0
VERTEX
  5
AB
330
A8
100
AcDbEntity
  8
LAYER_1
 62
     7
100
AcDbVertex
100
AcDb2dVertex
 10
152.1123345269097
 20
247.6711873372396
 30
0.0
  0
VERTEX
  5
AC
330
A8
100
AcDbEntity
  8
LAYER_1
 62
     7
100
AcDbVertex
100
AcDb2dVertex
 10
156.345667860243
 20
247.6711873372396
 30
0.0
  0
SEQEND
  5
AD
330
A8
100
AcDbEntity
  8
LAYER_1
 62
     7
  0
MTEXT
  5
A7
330
A
100
AcDbEntity
  8
LAYER_1
 62
     7
100
AcDbMText
 10
152.941224500868
 20
246.9693638563156
 30
0.0
 40
1.837384147114223
 41
0.0
 46
0.0
 71
     1
 72
     2
  1
\fHelvetica|b0|i0;\H1.8374;\C7;56
  7
STD
 73
     1
 44
1.0
  0
LINE
  5
A6
330
A
100
AcDbEntity
  8
LAYER_1
 62
     7
100
AcDbLine
 10
155.3993001302083
 20
244.7351047092014
 30
0.0
 11
153.0166720920138
 21
244.7351047092014
 31
0.0
  0
LINE
  5
A5
330
A
100
AcDbEntity
  8
LAYER_1
 62
     7
100
AcDbLine
 10
154.6048611111111
 20
244.7351047092014
 30
0.0
 11
154.9559163411458
 21
242.8992133246528
 31
0.0
  0
LINE
  5
A4
330
A
100
AcDbEntity
  8
LAYER_1
 62
     7
100
AcDbLine
 10
153.8111111111111
 20
244.7351047092014
 30
0.0
 11
153.4600558810764
 21
242.8992133246528
 31
0.0
  0
MTEXT
  5
A3
330
A
100
AcDbEntity
  8
LAYER_1
 62
     7
100
AcDbMText
 10
153.6474690755208
 20
265.3138083007601
 30
0.0
 40
1.837384147114223
 41
0.0
 46
0.0
 71
     1
 72
     2
  1
\fHelvetica|b0|i0;\H1.8374;\C7;57
  7
STD
 73
     1
 44
1.0
  0
LINE
  5
A2
330
A
100
AcDbEntity
  8
LAYER_1
 62
     7
100
AcDbLine
 10
156.1055447048611
 20
263.0795491536458
 30
0.0
 11
153.7229166666666
 21
263.0795491536458
 31
0.0
  0
LINE
  5
A1
330
A
100
AcDbEntity
  8
LAYER_1
 62
     7
100
AcDbLine
 10
155.3111056857638
 20
263.0795491536458
 30
0.0
 11
155.6621609157986
 21
261.2436577690972
 31
0.0
  0
LINE
  5
A0
330
A
100
AcDbEntity
  8
LAYER_1
 62
     7
100
AcDbLine
 10
154.5173556857639
 20
263.0795491536458
 30
0.0
 11
154.1663004557291
 21
261.2436577690972
 31
0.0
  0
MTEXT
  5
9F
330
A
100
AcDbEntity
  8
LAYER_1
 62
     7
100
AcDbMText
 10
200.566224500868
 20
254.0249194118711
 30
0.0
 40
1.837384147114223
 41
0.0
 46
0.0
 71
     1
 72
     2
  1
\fHelvetica|b0|i0;\H1.8374;\C7;58
  7
STD
 73
     1
 44
1.0
  0
LINE
  5
9E
330
A
100
AcDbEntity
  8
LAYER_1
 62
     7
100
AcDbLine
 10
203.0243001302083
 20
251.7906602647569
 30
0.0
 11
200.6416720920138
 21
251.7906602647569
 31
0.0
  0
LINE
  5
9D
330
A
100
AcDbEntity
  8
LAYER_1
 62
     7
100
AcDbLine
 10
202.2298611111111
 20
251.7906602647569
 30
0.0
 11
202.5809163411458
 21
249.9547688802083
 31
0.0
  0
LINE
  5
9C
330
A
100
AcDbEntity
  8
LAYER_1
 62
     7
100
AcDbLine
 10
201.4361111111111
 20
251.7906602647569
 30
0.0
 11
201.0850558810763
 21
249.9547688802083
 31
0.0
  0
MTEXT
  5
9B
330
A
100
AcDbEntity
  8
LAYER_1
 62
     7
100
AcDbMText
 10
270.7690022786458
 20
242.3832527452045
 30
0.0
 40
1.837384147114223
 41
0.0
 46
0.0
 71
     1
 72
     2
  1
\fHelvetica|b0|i0;\H1.8374;\C7;60
  7
STD
 73
     1
 44
1.0
  0
LINE
  5
9A
330
A
100
AcDbEntity
  8
LAYER_1
 62
     7
100
AcDbLine
 10
273.2270779079861
 20
240.1489935980902
 30
0.0
 11
270.8444498697916
 21
240.1489935980902
 31
0.0
  0
LINE
  5
99
330
A
100
AcDbEntity
  8
LAYER_1
 62
     7
100
AcDbLine
 10
272.4326388888889
 20
240.1489935980902
 30
0.0
 11
272.7836941189236
 21
238.3131022135416
 31
0.0
  0
LINE
  5
98
330
A
100
AcDbEntity
  8
LAYER_1
 62
     7
100
AcDbLine
 10
271.6388888888888
 20
240.1489935980902
 30
0.0
 11
271.2878336588541
 21
238.3131022135416
 31
0.0
  0
MTEXT
  5
97
330
A
100
AcDbEntity
  8
LAYER_1
 62
     7
100
AcDbMText
 10
242.1940022786458
 20
253.3193638563156
 30
0.0
 40
1.837384147114223
 41
0.0
 46
0.0
 71
     1
 72
     2
  1
\fHelvetica|b0|i0;\H1.8374;\C7;59
  7
STD
 73
     1
 44
1.0
  0
LINE
  5
96
330
A
100
AcDbEntity
  8
LAYER_1
 62
     7
100
AcDbLine
 10
244.6520779079861
 20
251.0851047092014
 30
0.0
 11
242.2694498697917
 21
251.0851047092014
 31
0.0
  0
LINE
  5
95
330
A
100
AcDbEntity
  8
LAYER_1
 62
     7
100
AcDbLine
 10
243.8576388888888
 20
251.0851047092014
 30
0.0
 11
244.2086941189236
 21
249.2492133246527
 31
0.0
  0
LINE
  5
94
330
A
100
AcDbEntity
  8
LAYER_1
 62
     7
100
AcDbLine
 10
243.0638888888889
 20
251.0851047092014
 30
0.0
 11
242.7128336588542
 21
249.2492133246527
 31
0.0
  0
MTEXT
  5
93
330
A
100
AcDbEntity
  8
LAYER_1
 62
     7
100
AcDbMText
 10
315.2190022786458
 20
251.9082527452045
 30
0.0
 40
1.837384147114223
 41
0.0
 46
0.0
 71
     1
 72
     2
  1
\fHelvetica|b0|i0;\H1.8374;\C7;61
  7
STD
 73
     1
 44
1.0
  0
LINE
  5
92
330
A
100
AcDbEntity
  8
LAYER_1
 62
     7
100
AcDbLine
 10
317.6770779079861
 20
249.6739935980902
 30
0.0
 11
315.2944498697916
 21
249.6739935980902
 31
0.0
  0
LINE
  5
91
330
A
100
AcDbEntity
  8
LAYER_1
 62
     7
100
AcDbLine
 10
316.8826388888888
 20
249.6739935980902
 30
0.0
 11
317.2336941189236
 21
247.8381022135416
 31
0.0
  0
LINE
  5
90
330
A
100
AcDbEntity
  8
LAYER_1
 62
     7
100
AcDbLine
 10
316.0888888888889
 20
249.6739935980902
 30
0.0
 11
315.7378336588541
 21
247.8381022135416
 31
0.0
  0
MTEXT
  5
8F
330
A
100
AcDbEntity
  8
LAYER_1
 62
     7
100
AcDbMText
 10
24.08914116753472
 20
184.5276971896489
 30
0.0
 40
1.837384147114223
 41
0.0
 46
0.0
 71
     1
 72
     2
  1
\fHelvetica|b0|i0;\H1.8374;\C7;64
  7
STD
 73
     1
 44
1.0
  0
LINE
  5
8E
330
A
100
AcDbEntity
  8
LAYER_1
 62
     7
100
AcDbLine
 10
26.547216796875
 20
182.2934380425347
 30
0.0
 11
24.16458875868056
 21
182.2934380425347
 31
0.0
  0
LINE
  5
8D
330
A
100
AcDbEntity
  8
LAYER_1
 62
     7
100
AcDbLine
 10
25.75277777777778
 20
182.2934380425347
 30
0.0
 11
26.1038330078125
 21
180.457546657986
 31
0.0
  0
LINE
  5
8C
330
A
100
AcDbEntity
  8
LAYER_1
 62
     7
100
AcDbLine
 10
24.95902777777778
 20
182.2934380425347
 30
0.0
 11
24.60797254774305
 21
180.457546657986
 31
0.0
  0
MTEXT
  5
8B
330
A
100
AcDbEntity
  8
LAYER_1
 62
     7
100
AcDbMText
 10
237.2551133897569
 20
173.7679749674267
 30
0.0
 40
1.837384147114223
 41
0.0
 46
0.0
 71
     1
 72
     2
  1
\fHelvetica|b0|i0;\H1.8374;\C7;65
  7
STD
 73
     1
 44
1.0
  0
LINE
  5
8A
330
A
100
AcDbEntity
  8
LAYER_1
 62
     7
100
AcDbLine
 10
239.7131890190972
 20
171.5337158203125
 30
0.0
 11
237.3305609809027
 21
171.5337158203125
 31
0.0
  0
LINE
  5
89
330
A
100
AcDbEntity
  8
LAYER_1
 62
     7
100
AcDbLine
 10
238.91875
 20
171.5337158203125
 30
0.0
 11
239.2698052300347
 21
169.6978244357638
 31
0.0
  0
LINE
  5
88
330
A
100
AcDbEntity
  8
LAYER_1
 62
     7
100
AcDbLine
 10
238.125
 20
171.5337158203125
 30
0.0
 11
237.7739447699652
 21
169.6978244357638
 31
0.0
  0
MTEXT
  5
87
330
A
100
AcDbEntity
  8
LAYER_1
 62
     7
100
AcDbMText
 10
26.45833333333333
 20
230.073828166061
 30
0.0
 40
2.624834567970699
 41
0.0
 46
0.0
 71
     1
 72
     2
  1
\fArial|b0|i0;\H2.6248;\C7;Trench 2 Plan
  7
STD
 73
     1
 44
1.0
  0
MTEXT
  5
86
330
A
100
AcDbEntity
  8
LAYER_1
 62
     7
100
AcDbMText
 10
29.63333333333333
 20
150.6988281660609
 30
0.0
 40
2.624834567970699
 41
0.0
 46
0.0
 71
     1
 72
     2
  1
\fArial|b0|i0;\H2.6248;\C7;Section Through Burnt Mound (202)
  7
STD
 73
     1
 44
1.0
  0
INSERT
  5
80
330
A
100
AcDbEntity
  8
LAYER_1
 62
     7
100
AcDbBlockReference
  2
AI9-BLK2
 10
240.9436048719618
 20
79.63579372829861
 30
0.0
  0
INSERT
  5
79
330
A
100
AcDbEntity
  8
LAYER_1
 62
     7
100
AcDbBlockReference
  2
AI9-BLK1
 10
112.3921061197916
 20
79.8125271267361
 30
0.0
  0
POLYLINE
  5
72
330
A
100
AcDbEntity
  8
LAYER_1
 62
     7
100
AcDb2dPolyline
 66
     1
 10
0.0
 20
0.0
 30
0.0
 70
     1
  0
VERTEX
  5
73
330
72
100
AcDbEntity
  8
LAYER_1
 62
     7
100
AcDbVertex
100
AcDb2dVertex
 10
168.2043755425347
 20
37.95323893229166
 30
0.0
  0
VERTEX
  5
74
330
72
100
AcDbEntity
  8
LAYER_1
 62
     7
100
AcDbVertex
100
AcDb2dVertex
 10
56.57983669704861
 20
37.95323893229166
 30
0.0
  0
VERTEX
  5
75
330
72
100
AcDbEntity
  8
LAYER_1
 62
     7
100
AcDbVertex
100
AcDb2dVertex
 10
56.57983669704861
 20
121.6718153211805
 30
0.0
  0
VERTEX
  5
76
330
72
100
AcDbEntity
  8
LAYER_1
 62
     7
100
AcDbVertex
100
AcDb2dVertex
 10
168.2043755425347
 20
121.6718153211805
 30
0.0
  0
SEQEND
  5
77
330
72
100
AcDbEntity
  8
LAYER_1
 62
     7
  0
POLYLINE
  5
6C
330
A
100
AcDbEntity
  8
LAYER_1
 62
     7
100
AcDb2dPolyline
 66
     1
 10
0.0
 20
0.0
 30
0.0
 70
     1
  0
VERTEX
  5
6D
330
6C
100
AcDbEntity
  8
LAYER_1
 62
     7
100
AcDbVertex
100
AcDb2dVertex
 10
296.7560465494791
 20
37.77650553385416
 30
0.0
  0
VERTEX
  5
6E
330
6C
100
AcDbEntity
  8
LAYER_1
 62
     7
100
AcDbVertex
100
AcDb2dVertex
 10
185.1313354492187
 20
37.77650553385416
 30
0.0
  0
VERTEX
  5
6F
330
6C
100
AcDbEntity
  8
LAYER_1
 62
     7
100
AcDbVertex
100
AcDb2dVertex
 10
185.1313354492187
 20
121.495081922743
 30
0.0
  0
VERTEX
  5
70
330
6C
100
AcDbEntity
  8
LAYER_1
 62
     7
100
AcDbVertex
100
AcDb2dVertex
 10
296.7560465494791
 20
121.495081922743
 30
0.0
  0
SEQEND
  5
71
330
6C
100
AcDbEntity
  8
LAYER_1
 62
     7
  0
MTEXT
  5
6B
330
A
100
AcDbEntity
  8
LAYER_1
 62
     7
100
AcDbMText
 10
56.09166666666666
 20
36.22243927717209
 30
0.0
 40
2.624834567970699
 41
0.0
 46
0.0
 71
     1
 72
     2
  1
\fArial|b0|i0;\H2.6248;\C7;Plate 3: View of Burnt Mound (202) in Trench 2, Looking east
  7
STD
 73
     1
 44
1.0
  0
MTEXT
  5
6A
330
A
100
AcDbEntity
  8
LAYER_1
 62
     7
100
AcDbMText
 10
56.09166666666666
 20
31.98910594383875
 30
0.0
 40
2.624834567970699
 41
0.0
 46
0.0
 71
     1
 72
     2
  1
\fArial|b0|i0;\H2.6248;\C7;Scales 1x1m & 1x2m
  7
STD
 73
     1
 44
1.0
  0
MTEXT
  5
69
330
A
100
AcDbEntity
  8
LAYER_1
 62
     7
100
AcDbMText
 10
184.5027777777777
 20
36.0460503882832
 30
0.0
 40
2.624834567970699
 41
0.0
 46
0.0
 71
     1
 72
     2
  1
\fArial|b0|i0;\H2.6248;\C7;Plate 4: View of section through Burnt Mound (202)
  7
STD
 73
     1
 44
1.0
  0
MTEXT
  5
68
330
A
100
AcDbEntity
  8
LAYER_1
 62
     7
100
AcDbMText
 10
184.5027777777777
 20
31.81271705494987
 30
0.0
 40
2.624834567970699
 41
0.0
 46
0.0
 71
     1
 72
     2
  1
\fArial|b0|i0;\H2.6248;\C7;Looking north, Scales 1x1m & 1x2m
  7
STD
 73
     1
 44
1.0
  0
MTEXT
  5
67
330
A
100
AcDbEntity
  8
LAYER_1
 62
     7
100
AcDbMText
 10
67.17884521484375
 20
138.9417508006095
 30
0.0
 40
2.624834567970699
 41
0.0
 46
0.0
 71
     1
 72
     2
  1
\fHelvetica|b0|i0;\H2.6248;\C7;0
  7
STD
 73
     1
 44
1.0
  0
MTEXT
  5
66
330
A
100
AcDbEntity
  8
LAYER_1
 62
     7
100
AcDbMText
 10
117.1795830620659
 20
138.9417508006095
 30
0.0
 40
2.624834567970699
 41
0.0
 46
0.0
 71
     1
 72
     2
  1
\fHelvetica|b0|i0;\H2.6248;\C7;1
  7
STD
 73
     1
 44
1.0
  0
MTEXT
  5
65
330
A
100
AcDbEntity
  8
LAYER_1
 62
     7
100
AcDbMText
 10
165.7085761176215
 20
138.9417508006095
 30
0.0
 40
2.624834567970699
 41
0.0
 46
0.0
 71
     1
 72
     2
  1
\fHelvetica|b0|i0;\H2.6248;\C7;2m
  7
STD
 73
     1
 44
1.0
  0
HATCH
  5
64
330
A
100
AcDbEntity
  8
LAYER_1
 62
     7
100
AcDbHatch
 10
0.0
 20
0.0
 30
0.0
210
0.0
220
0.0
230
1.0
  2
SOLID
 70
     1
 71
     0
 91
        1
 92
        3
 72
     0
 73
     1
 93
        4
 10
117.8525824652777
 20
133.2497477213541
 10
67.8659695095486
 20
133.2497477213541
 10
67.8659695095486
 20
135.3698594835069
 10
117.8525824652777
 20
135.3698594835069
 97
        0
 75
     2
 76
     1
 98
        1
 10
0.0
 20
0.0
450
        0
451
        0
460
0.0
461
0.0
452
        0
462
0.0
453
        0
470

  0
POLYLINE
  5
5E
330
A
100
AcDbEntity
  8
LAYER_1
 62
     7
100
AcDb2dPolyline
 66
     1
 10
0.0
 20
0.0
 30
0.0
 70
     1
  0
VERTEX
  5
5F
330
5E
100
AcDbEntity
  8
LAYER_1
 62
     7
100
AcDbVertex
100
AcDb2dVertex
 10
117.8525824652777
 20
133.2497477213541
 30
0.0
  0
VERTEX
  5
60
330
5E
100
AcDbEntity
  8
LAYER_1
 62
     7
100
AcDbVertex
100
AcDb2dVertex
 10
67.8659695095486
 20
133.2497477213541
 30
0.0
  0
VERTEX
  5
61
330
5E
100
AcDbEntity
  8
LAYER_1
 62
     7
100
AcDbVertex
100
AcDb2dVertex
 10
67.8659695095486
 20
135.3698594835069
 30
0.0
  0
VERTEX
  5
62
330
5E
100
AcDbEntity
  8
LAYER_1
 62
     7
100
AcDbVertex
100
AcDb2dVertex
 10
117.8525824652777
 20
135.3698594835069
 30
0.0
  0
SEQEND
  5
63
330
5E
100
AcDbEntity
  8
LAYER_1
 62
     7
  0
POLYLINE
  5
58
330
A
100
AcDbEntity
  8
LAYER_1
 62
     7
100
AcDb2dPolyline
 66
     1
 10
0.0
 20
0.0
 30
0.0
 70
     1
  0
VERTEX
  5
59
330
58
100
AcDbEntity
  8
LAYER_1
 62
     7
100
AcDbVertex
100
AcDb2dVertex
 10
167.8509087456597
 20
133.2263210720486
 30
0.0
  0
VERTEX
  5
5A
330
58
100
AcDbEntity
  8
LAYER_1
 62
     7
100
AcDbVertex
100
AcDb2dVertex
 10
117.8642957899305
 20
133.2263210720486
 30
0.0
  0
VERTEX
  5
5B
330
58
100
AcDbEntity
  8
LAYER_1
 62
     7
100
AcDbVertex
100
AcDb2dVertex
 10
117.8642957899305
 20
135.3464328342014
 30
0.0
  0
VERTEX
  5
5C
330
58
100
AcDbEntity
  8
LAYER_1
 62
     7
100
AcDbVertex
100
AcDb2dVertex
 10
167.8509087456597
 20
135.3464328342014
 30
0.0
  0
SEQEND
  5
5D
330
58
100
AcDbEntity
  8
LAYER_1
 62
     7
  0
POLYLINE
  5
52
330
A
100
AcDbEntity
  8
LAYER_1
 62
     7
100
AcDb2dPolyline
 66
     1
 10
0.0
 20
0.0
 30
0.0
 70
     1
  0
VERTEX
  5
53
330
52
100
AcDbEntity
  8
LAYER_1
 62
     7
100
AcDbVertex
100
AcDb2dVertex
 10
167.8509087456597
 20
133.2263210720486
 30
0.0
  0
VERTEX
  5
54
330
52
100
AcDbEntity
  8
LAYER_1
 62
     7
100
AcDbVertex
100
AcDb2dVertex
 10
117.8642957899305
 20
133.2263210720486
 30
0.0
  0
VERTEX
  5
55
330
52
100
AcDbEntity
  8
LAYER_1
 62
     7
100
AcDbVertex
100
AcDb2dVertex
 10
117.8642957899305
 20
135.3464328342014
 30
0.0
  0
VERTEX
  5
56
330
52
100
AcDbEntity
  8
LAYER_1
 62
     7
100
AcDbVertex
100
AcDb2dVertex
 10
167.8509087456597
 20
135.3464328342014
 30
0.0
  0
SEQEND
  5
57
330
52
100
AcDbEntity
  8
LAYER_1
 62
     7
  0
MTEXT
  5
51
330
A
100
AcDbEntity
  8
LAYER_1
 62
     7
100
AcDbMText
 10
125.7442626953125
 20
219.4922173804707
 30
0.0
 40
2.624834567970699
 41
0.0
 46
0.0
 71
     1
 72
     2
  1
\fHelvetica|b0|i0;\H2.6248;\C7;0
  7
STD
 73
     1
 44
1.0
  0
HATCH
  5
50
330
A
100
AcDbEntity
  8
LAYER_1
 62
     7
100
AcDbHatch
 10
0.0
 20
0.0
 30
0.0
210
0.0
220
0.0
230
1.0
  2
SOLID
 70
     1
 71
     0
 91
        1
 92
        3
 72
     0
 73
     1
 93
        4
 10
136.899309624566
 20
213.0629638671875
 10
126.7833034939236
 20
213.0629638671875
 10
126.7833034939236
 20
215.4586832682292
 10
136.899309624566
 20
215.4586832682292
 97
        0
 75
     2
 76
     1
 98
        1
 10
0.0
 20
0.0
450
        0
451
        0
460
0.0
461
0.0
452
        0
462
0.0
453
        0
470

  0
POLYLINE
  5
4A
330
A
100
AcDbEntity
  8
LAYER_1
 62
     7
100
AcDb2dPolyline
 66
     1
 10
0.0
 20
0.0
 30
0.0
 70
     1
  0
VERTEX
  5
4B
330
4A
100
AcDbEntity
  8
LAYER_1
 62
     7
100
AcDbVertex
100
AcDb2dVertex
 10
136.899309624566
 20
213.0629638671875
 30
0.0
  0
VERTEX
  5
4C
330
4A
100
AcDbEntity
  8
LAYER_1
 62
     7
100
AcDbVertex
100
AcDb2dVertex
 10
126.7833034939236
 20
213.0629638671875
 30
0.0
  0
VERTEX
  5
4D
330
4A
100
AcDbEntity
  8
LAYER_1
 62
     7
100
AcDbVertex
100
AcDb2dVertex
 10
126.7833034939236
 20
215.4586832682292
 30
0.0
  0
VERTEX
  5
4E
330
4A
100
AcDbEntity
  8
LAYER_1
 62
     7
100
AcDbVertex
100
AcDb2dVertex
 10
136.899309624566
 20
215.4586832682292
 30
0.0
  0
SEQEND
  5
4F
330
4A
100
AcDbEntity
  8
LAYER_1
 62
     7
  0
POLYLINE
  5
44
330
A
100
AcDbEntity
  8
LAYER_1
 62
     7
100
AcDb2dPolyline
 66
     1
 10
0.0
 20
0.0
 30
0.0
 70
     1
  0
VERTEX
  5
45
330
44
100
AcDbEntity
  8
LAYER_1
 62
     7
100
AcDbVertex
100
AcDb2dVertex
 10
146.7490098741319
 20
213.0629638671875
 30
0.0
  0
VERTEX
  5
46
330
44
100
AcDbEntity
  8
LAYER_1
 62
     7
100
AcDbVertex
100
AcDb2dVertex
 10
136.6330037434896
 20
213.0629638671875
 30
0.0
  0
VERTEX
  5
47
330
44
100
AcDbEntity
  8
LAYER_1
 62
     7
100
AcDbVertex
100
AcDb2dVertex
 10
136.6330037434896
 20
215.4586832682292
 30
0.0
  0
VERTEX
  5
48
330
44
100
AcDbEntity
  8
LAYER_1
 62
     7
100
AcDbVertex
100
AcDb2dVertex
 10
146.7490098741319
 20
215.4586832682292
 30
0.0
  0
SEQEND
  5
49
330
44
100
AcDbEntity
  8
LAYER_1
 62
     7
  0
POLYLINE
  5
3E
330
A
100
AcDbEntity
  8
LAYER_1
 62
     7
100
AcDb2dPolyline
 66
     1
 10
0.0
 20
0.0
 30
0.0
 70
     1
  0
VERTEX
  5
3F
330
3E
100
AcDbEntity
  8
LAYER_1
 62
     7
100
AcDbVertex
100
AcDb2dVertex
 10
146.7490098741319
 20
213.0629638671875
 30
0.0
  0
VERTEX
  5
40
330
3E
100
AcDbEntity
  8
LAYER_1
 62
     7
100
AcDbVertex
100
AcDb2dVertex
 10
136.6330037434896
 20
213.0629638671875
 30
0.0
  0
VERTEX
  5
41
330
3E
100
AcDbEntity
  8
LAYER_1
 62
     7
100
AcDbVertex
100
AcDb2dVertex
 10
136.6330037434896
 20
215.4586832682292
 30
0.0
  0
VERTEX
  5
42
330
3E
100
AcDbEntity
  8
LAYER_1
 62
     7
100
AcDbVertex
100
AcDb2dVertex
 10
146.7490098741319
 20
215.4586832682292
 30
0.0
  0
SEQEND
  5
43
330
3E
100
AcDbEntity
  8
LAYER_1
 62
     7
  0
HATCH
  5
3D
330
A
100
AcDbEntity
  8
LAYER_1
 62
     7
100
AcDbHatch
 10
0.0
 20
0.0
 30
0.0
210
0.0
220
0.0
230
1.0
  2
SOLID
 70
     1
 71
     0
 91
        1
 92
        3
 72
     0
 73
     1
 93
        4
 10
156.9979966905381
 20
213.0629638671875
 10
146.8819905598958
 20
213.0629638671875
 10
146.8819905598958
 20
215.4586832682292
 10
156.9979966905381
 20
215.4586832682292
 97
        0
 75
     2
 76
     1
 98
        1
 10
0.0
 20
0.0
450
        0
451
        0
460
0.0
461
0.0
452
        0
462
0.0
453
        0
470

  0
POLYLINE
  5
37
330
A
100
AcDbEntity
  8
LAYER_1
 62
     7
100
AcDb2dPolyline
 66
     1
 10
0.0
 20
0.0
 30
0.0
 70
     1
  0
VERTEX
  5
38
330
37
100
AcDbEntity
  8
LAYER_1
 62
     7
100
AcDbVertex
100
AcDb2dVertex
 10
156.9979966905381
 20
213.0629638671875
 30
0.0
  0
VERTEX
  5
39
330
37
100
AcDbEntity
  8
LAYER_1
 62
     7
100
AcDbVertex
100
AcDb2dVertex
 10
146.8819905598958
 20
213.0629638671875
 30
0.0
  0
VERTEX
  5
3A
330
37
100
AcDbEntity
  8
LAYER_1
 62
     7
100
AcDbVertex
100
AcDb2dVertex
 10
146.8819905598958
 20
215.4586832682292
 30
0.0
  0
VERTEX
  5
3B
330
37
100
AcDbEntity
  8
LAYER_1
 62
     7
100
AcDbVertex
100
AcDb2dVertex
 10
156.9979966905381
 20
215.4586832682292
 30
0.0
  0
SEQEND
  5
3C
330
37
100
AcDbEntity
  8
LAYER_1
 62
     7
  0
POLYLINE
  5
31
330
A
100
AcDbEntity
  8
LAYER_1
 62
     7
100
AcDb2dPolyline
 66
     1
 10
0.0
 20
0.0
 30
0.0
 70
     1
  0
VERTEX
  5
32
330
31
100
AcDbEntity
  8
LAYER_1
 62
     7
100
AcDbVertex
100
AcDb2dVertex
 10
166.9808498806423
 20
213.0629638671875
 30
0.0
  0
VERTEX
  5
33
330
31
100
AcDbEntity
  8
LAYER_1
 62
     7
100
AcDbVertex
100
AcDb2dVertex
 10
156.8646714952256
 20
213.0629638671875
 30
0.0
  0
VERTEX
  5
34
330
31
100
AcDbEntity
  8
LAYER_1
 62
     7
100
AcDbVertex
100
AcDb2dVertex
 10
156.8646714952256
 20
215.4586832682292
 30
0.0
  0
VERTEX
  5
35
330
31
100
AcDbEntity
  8
LAYER_1
 62
     7
100
AcDbVertex
100
AcDb2dVertex
 10
166.9808498806423
 20
215.4586832682292
 30
0.0
  0
SEQEND
  5
36
330
31
100
AcDbEntity
  8
LAYER_1
 62
     7
  0
POLYLINE
  5
2B
330
A
100
AcDbEntity
  8
LAYER_1
 62
     7
100
AcDb2dPolyline
 66
     1
 10
0.0
 20
0.0
 30
0.0
 70
     1
  0
VERTEX
  5
2C
330
2B
100
AcDbEntity
  8
LAYER_1
 62
     7
100
AcDbVertex
100
AcDb2dVertex
 10
166.9808498806423
 20
213.0629638671875
 30
0.0
  0
VERTEX
  5
2D
330
2B
100
AcDbEntity
  8
LAYER_1
 62
     7
100
AcDbVertex
100
AcDb2dVertex
 10
156.8646714952256
 20
213.0629638671875
 30
0.0
  0
VERTEX
  5
2E
330
2B
100
AcDbEntity
  8
LAYER_1
 62
     7
100
AcDbVertex
100
AcDb2dVertex
 10
156.8646714952256
 20
215.4586832682292
 30
0.0
  0
VERTEX
  5
2F
330
2B
100
AcDbEntity
  8
LAYER_1
 62
     7
100
AcDbVertex
100
AcDb2dVertex
 10
166.9808498806423
 20
215.4586832682292
 30
0.0
  0
SEQEND
  5
30
330
2B
100
AcDbEntity
  8
LAYER_1
 62
     7
  0
MTEXT
  5
2A
330
A
100
AcDbEntity
  8
LAYER_1
 62
     7
100
AcDbMText
 10
145.8272745768229
 20
219.4110853817727
 30
0.0
 40
2.624834567970699
 41
0.0
 46
0.0
 71
     1
 72
     2
  1
\fHelvetica|b0|i0;\H2.6248;\C7;1
  7
STD
 73
     1
 44
1.0
  0
MTEXT
  5
29
330
A
100
AcDbEntity
  8
LAYER_1
 62
     7
100
AcDbMText
 10
164.8197414822048
 20
218.9354899499151
 30
0.0
 40
2.624834567970699
 41
0.0
 46
0.0
 71
     1
 72
     2
  1
\fHelvetica|b0|i0;\H2.6248;\C7;2m
  7
STD
 73
     1
 44
1.0
  0
ENDSEC
  0
SECTION
  2
OBJECTS
  0
DICTIONARY
  5
19
330
0
100
AcDbDictionary
281
     1
  3
ACAD_CIP_PREVIOUS_PRODUCT_INFO
350
3C5
  3
ACAD_COLOR
350
3A6
  3
ACAD_DETAILVIEWSTYLE
350
3BF
  3
ACAD_GROUP
350
1A
  3
ACAD_IMAGE_VARS
350
3C6
  3
ACAD_LAYOUT
350
1E
  3
ACAD_MATERIAL
350
374
  3
ACAD_MLEADERSTYLE
350
3BB
  3
ACAD_MLINESTYLE
350
1B
  3
ACAD_PLOTSETTINGS
350
22
  3
ACAD_PLOTSTYLENAME
350
1F
  3
ACAD_SCALELIST
350
3A9
  3
ACAD_SECTIONVIEWSTYLE
350
3BD
  3
ACAD_TABLESTYLE
350
3A7
  3
ACAD_VISUALSTYLE
350
38D
  3
ACAD_WIPEOUT_VARS
350
23
  3
ACDB_RECOMPOSE_DATA
350
418
  3
AcDbVariableDictionary
350
40C
  0
DICTIONARY
  5
3C7
330
14
100
AcDbDictionary
280
     1
281
     1
  3
ADSK_XREC_LAYER_RECONCILED
360
3C8
  0
DICTIONARY
  5
3C9
330
28
100
AcDbDictionary
280
     1
281
     1
  3
ADSK_XREC_LAYER_RECONCILED
360
3CA
  0
IMAGEDEF_REACTOR
  5
7C
330
7B
100
AcDbRasterImageDefReactor
 90
        2
330
7B
  0
IMAGEDEF_REACTOR
  5
83
330
82
100
AcDbRasterImageDefReactor
 90
        2
330
82
  0
IMAGEDEF_REACTOR
  5
345
330
344
100
AcDbRasterImageDefReactor
 90
        2
330
344
  0
XRECORD
  5
3C5
102
{ACAD_REACTORS
330
19
102
}
330
19
100
AcDbXrecord
280
     1
300
ACD
300
2015
300
ACD_F_S
  0
DICTIONARY
  5
3A6
102
{ACAD_REACTORS
330
19
102
}
330
19
100
AcDbDictionary
281
     1
  0
DICTIONARY
  5
3BF
102
{ACAD_REACTORS
330
19
102
}
330
19
100
AcDbDictionary
281
     1
  3
Metric50
350
3C0
  0
DICTIONARY
  5
1A
102
{ACAD_REACTORS
330
19
102
}
330
19
100
AcDbDictionary
281
     1
  0
RASTERVARIABLES
  5
3C6
102
{ACAD_REACTORS
330
19
102
}
330
19
100
AcDbRasterVariables
 90
        0
 70
     1
 71
     1
 72
     0
  0
DICTIONARY
  5
1E
102
{ACAD_REACTORS
330
19
102
}
330
19
100
AcDbDictionary
281
     1
  3
Layout1
350
21
  3
Model
350
20
  0
DICTIONARY
  5
374
102
{ACAD_REACTORS
330
19
102
}
330
19
100
AcDbDictionary
281
     1
  3
ByBlock
350
37D
  3
ByLayer
350
375
  3
Global
350
385
  0
DICTIONARY
  5
3BB
102
{ACAD_REACTORS
330
19
102
}
330
19
100
AcDbDictionary
281
     1
  3
Standard
350
3BC
  0
DICTIONARY
  5
1B
102
{ACAD_REACTORS
330
19
102
}
330
19
100
AcDbDictionary
281
     1
  3
Standard
350
1C
  0
DICTIONARY
  5
22
102
{ACAD_REACTORS
330
19
102
}
330
19
100
AcDbDictionary
281
     1
  0
ACDBDICTIONARYWDFLT
  5
1F
102
{ACAD_REACTORS
330
19
102
}
330
19
100
AcDbDictionary
281
     1
  3
Normal
350
1D
100
AcDbDictionaryWithDefault
340
1D
  0
DICTIONARY
  5
3A9
102
{ACAD_REACTORS
330
19
102
}
330
19
100
AcDbDictionary
281
     1
  3
A0
350
3AA
  3
A1
350
3AB
  3
A2
350
3AC
  3
A3
350
3AD
  3
A4
350
3AE
  3
A5
350
3AF
  3
A6
350
3B0
  3
A7
350
3B1
  3
A8
350
3B2
  3
A9
350
3B3
  3
B0
350
3B4
  3
B1
350
3B5
  3
B2
350
3B6
  3
B3
350
3B7
  3
B4
350
3B8
  3
B5
350
3B9
  3
B6
350
3BA
  0
DICTIONARY
  5
3BD
102
{ACAD_REACTORS
330
19
102
}
330
19
100
AcDbDictionary
281
     1
  3
Metric50
350
3BE
  0
DICTIONARY
  5
3A7
102
{ACAD_REACTORS
330
19
102
}
330
19
100
AcDbDictionary
281
     1
  3
Standard
350
3A8
  0
DICTIONARY
  5
38D
102
{ACAD_REACTORS
330
19
102
}
330
19
100
AcDbDictionary
281
     1
  3
2dWireframe
350
393
  3
Basic
350
392
  3
Brighten
350
399
  3
ColorChange
350
39D
  3
Conceptual
350
396
  3
Dim
350
398
  3
EdgeColorOff
350
3A5
  3
Facepattern
350
39C
  3
Flat
350
38E
  3
FlatWithEdges
350
38F
  3
Gouraud
350
390
  3
GouraudWithEdges
350
391
  3
Hidden
350
395
  3
JitterOff
350
3A3
  3
Linepattern
350
39B
  3
OverhangOff
350
3A4
  3
Realistic
350
397
  3
Shaded
350
3A2
  3
Shaded with edges
350
3A1
  3
Shades of Gray
350
39E
  3
Sketchy
350
39F
  3
Thicken
350
39A
  3
Wireframe
350
394
  3
X-Ray
350
3A0
  0
WIPEOUTVARIABLES
  5
23
330
19
100
AcDbWipeoutVariables
 70
     1
  0
XRECORD
  5
418
102
{ACAD_REACTORS
330
19
102
}
330
19
100
AcDbXrecord
280
     1
 90
        1
330
3A8
  0
DICTIONARY
  5
40C
102
{ACAD_REACTORS
330
19
102
}
330
19
100
AcDbDictionary
281
     1
  3
CANNOSCALE
350
412
  3
CMLEADERSTYLE
350
40E
  3
CTABLESTYLE
350
40D
  3
CVIEWDETAILSTYLE
350
40F
  3
CVIEWSECTIONSTYLE
350
410
  3
LAYEREVAL
350
414
  3
LAYERNOTIFY
350
415
  3
LIGHTINGUNITS
350
413
  3
MSLTSCALE
350
411
  0
XRECORD
  5
3C8
102
{ACAD_REACTORS
330
3C7
102
}
330
3C7
100
AcDbXrecord
280
     1
290
     1
  0
XRECORD
  5
3CA
102
{ACAD_REACTORS
330
3C9
102
}
330
3C9
100
AcDbXrecord
280
     1
290
     1
  0
ACDBDETAILVIEWSTYLE
  5
3C0
102
{ACAD_XDICTIONARY
360
44D
102
}
102
{ACAD_REACTORS
330
3BF
102
}
330
3BF
100
AcDbModelDocViewStyle
 70
     0
  3
Metric50
290
     0
100
AcDbDetailViewStyle
 70
     0
 71
     0
 90
        3
 71
     1
340
17
 62
   256
 40
5.0
340
0
 62
   256
 40
5.0
300

 40
0.0
280
     1
 71
     2
340
13
 90
       25
 62
   256
 71
     3
340
17
 62
   256
 40
5.0
 90
        0
 40
15.0
 90
        1
300
%<\AcVar ViewDetailId>% (%<\AcVar ViewScale \f "%sn">%)
 71
     4
340
13
 90
       25
 62
   256
340
13
 90
       25
 62
   256
280
     0
  0
LAYOUT
  5
21
102
{ACAD_REACTORS
330
1E
102
}
330
1E
100
AcDbPlotSettings
  1

  2

  4

  6

 40
0.0
 41
0.0
 42
0.0
 43
0.0
 44
0.0
 45
0.0
 46
0.0
 47
0.0
 48
0.0
 49
0.0
140
0.0
141
0.0
142
1.0
143
1.0
 70
     0
 72
     0
 73
     0
 74
     0
  7

 75
     0
147
1.0
 76
     0
 77
     2
 78
   300
148
0.0
149
0.0
100
AcDbLayout
  1
Layout1
 70
     0
 71
     1
 10
0.0
 20
0.0
 11
12.0
 21
9.0
 12
0.0
 22
0.0
 32
0.0
 14
1.000000000000000E+20
 24
1.000000000000000E+20
 34
1.000000000000000E+20
 15
-1.000000000000000E+20
 25
-1.000000000000000E+20
 35
-1.000000000000000E+20
146
0.0
 13
0.0
 23
0.0
 33
0.0
 16
1.0
 26
0.0
 36
0.0
 17
0.0
 27
1.0
 37
0.0
 76
     0
330
B
  0
LAYOUT
  5
20
102
{ACAD_REACTORS
330
1E
102
}
330
1E
100
AcDbPlotSettings
  1

  2

  4

  6

 40
0.0
 41
0.0
 42
0.0
 43
0.0
 44
0.0
 45
0.0
 46
0.0
 47
0.0
 48
0.0
 49
0.0
140
0.0
141
0.0
142
1.0
143
1.0
 70
  1024
 72
     0
 73
     0
 74
     0
  7

 75
     0
147
1.0
 76
     0
 77
     2
 78
   300
148
0.0
149
0.0
100
AcDbLayout
  1
Model
 70
     0
 71
     0
 10
0.0
 20
0.0
 11
0.0
 21
0.0
 12
0.0
 22
0.0
 32
0.0
 14
0.0
 24
0.0
 34
0.0
 15
0.0
 25
0.0
 35
0.0
146
0.0
 13
0.0
 23
0.0
 33
0.0
 16
0.0
 26
0.0
 36
0.0
 17
0.0
 27
0.0
 37
0.0
 76
     0
330
A
331
15
  0
MATERIAL
  5
37D
102
{ACAD_XDICTIONARY
360
37E
102
}
102
{ACAD_REACTORS
330
374
102
}
330
374
100
AcDbMaterial
  1
ByBlock
 72
     0
 43
0.0208333333333333
 43
0.0
 43
0.0
 43
0.0
 43
0.0
 43
0.0208333333333333
 43
0.0
 43
0.0
 43
0.0
 43
0.0
 43
1.0
 43
0.0
 43
0.0
 43
0.0
 43
0.0
 43
1.0
 77
     0
 47
0.0208333333333333
 47
0.0
 47
0.0
 47
0.0
 47
0.0
 47
0.0208333333333333
 47
0.0
 47
0.0
 47
0.0
 47
0.0
 47
1.0
 47
0.0
 47
0.0
 47
0.0
 47
0.0
 47
1.0
171
     0
 49
0.0208333333333333
 49
0.0
 49
0.0
 49
0.0
 49
0.0
 49
0.0208333333333333
 49
0.0
 49
0.0
 49
0.0
 49
0.0
 49
1.0
 49
0.0
 49
0.0
 49
0.0
 49
0.0
 49
1.0
175
     0
142
0.0208333333333333
142
0.0
142
0.0
142
0.0
142
0.0
142
0.0208333333333333
142
0.0
142
0.0
142
0.0
142
0.0
142
1.0
142
0.0
142
0.0
142
0.0
142
0.0
142
1.0
179
     0
144
0.0208333333333333
144
0.0
144
0.0
144
0.0
144
0.0
144
0.0208333333333333
144
0.0
144
0.0
144
0.0
144
0.0
144
1.0
144
0.0
144
0.0
144
0.0
144
0.0
144
1.0
147
0.0208333333333333
147
0.0
147
0.0
147
0.0
147
0.0
147
0.0208333333333333
147
0.0
147
0.0
147
0.0
147
0.0
147
1.0
147
0.0
147
0.0
147
0.0
147
0.0
147
1.0
  0
MATERIAL
  5
375
102
{ACAD_XDICTIONARY
360
376
102
}
102
{ACAD_REACTORS
330
374
102
}
330
374
100
AcDbMaterial
  1
ByLayer
 72
     0
 43
0.0208333333333333
 43
0.0
 43
0.0
 43
0.0
 43
0.0
 43
0.0208333333333333
 43
0.0
 43
0.0
 43
0.0
 43
0.0
 43
1.0
 43
0.0
 43
0.0
 43
0.0
 43
0.0
 43
1.0
 77
     0
 47
0.0208333333333333
 47
0.0
 47
0.0
 47
0.0
 47
0.0
 47
0.0208333333333333
 47
0.0
 47
0.0
 47
0.0
 47
0.0
 47
1.0
 47
0.0
 47
0.0
 47
0.0
 47
0.0
 47
1.0
171
     0
 49
0.0208333333333333
 49
0.0
 49
0.0
 49
0.0
 49
0.0
 49
0.0208333333333333
 49
0.0
 49
0.0
 49
0.0
 49
0.0
 49
1.0
 49
0.0
 49
0.0
 49
0.0
 49
0.0
 49
1.0
175
     0
142
0.0208333333333333
142
0.0
142
0.0
142
0.0
142
0.0
142
0.0208333333333333
142
0.0
142
0.0
142
0.0
142
0.0
142
1.0
142
0.0
142
0.0
142
0.0
142
0.0
142
1.0
179
     0
144
0.0208333333333333
144
0.0
144
0.0
144
0.0
144
0.0
144
0.0208333333333333
144
0.0
144
0.0
144
0.0
144
0.0
144
1.0
144
0.0
144
0.0
144
0.0
144
0.0
144
1.0
147
0.0208333333333333
147
0.0
147
0.0
147
0.0
147
0.0
147
0.0208333333333333
147
0.0
147
0.0
147
0.0
147
0.0
147
1.0
147
0.0
147
0.0
147
0.0
147
0.0
147
1.0
  0
MATERIAL
  5
385
102
{ACAD_XDICTIONARY
360
386
102
}
102
{ACAD_REACTORS
330
374
102
}
330
374
100
AcDbMaterial
  1
Global
 72
     0
 43
0.0208333333333333
 43
0.0
 43
0.0
 43
0.0
 43
0.0
 43
0.0208333333333333
 43
0.0
 43
0.0
 43
0.0
 43
0.0
 43
1.0
 43
0.0
 43
0.0
 43
0.0
 43
0.0
 43
1.0
 77
     0
 47
0.0208333333333333
 47
0.0
 47
0.0
 47
0.0
 47
0.0
 47
0.0208333333333333
 47
0.0
 47
0.0
 47
0.0
 47
0.0
 47
1.0
 47
0.0
 47
0.0
 47
0.0
 47
0.0
 47
1.0
171
     0
 49
0.0208333333333333
 49
0.0
 49
0.0
 49
0.0
 49
0.0
 49
0.0208333333333333
 49
0.0
 49
0.0
 49
0.0
 49
0.0
 49
1.0
 49
0.0
 49
0.0
 49
0.0
 49
0.0
 49
1.0
175
     0
142
0.0208333333333333
142
0.0
142
0.0
142
0.0
142
0.0
142
0.0208333333333333
142
0.0
142
0.0
142
0.0
142
0.0
142
1.0
142
0.0
142
0.0
142
0.0
142
0.0
142
1.0
179
     0
144
0.0208333333333333
144
0.0
144
0.0
144
0.0
144
0.0
144
0.0208333333333333
144
0.0
144
0.0
144
0.0
144
0.0
144
1.0
144
0.0
144
0.0
144
0.0
144
0.0
144
1.0
147
0.0208333333333333
147
0.0
147
0.0
147
0.0
147
0.0
147
0.0208333333333333
147
0.0
147
0.0
147
0.0
147
0.0
147
1.0
147
0.0
147
0.0
147
0.0
147
0.0
147
1.0
  0
MLEADERSTYLE
  5
3BC
102
{ACAD_XDICTIONARY
360
449
102
}
102
{ACAD_REACTORS
330
3BB
102
}
330
3BB
100
AcDbMLeaderStyle
179
     2
170
     2
171
     1
172
     0
 90
        2
 40
0.0
 41
0.0
173
     1
 91
-1056964608
340
11
 92
       -2
290
     1
 42
2.0
291
     1
 43
0.36
  3
Standard
 44
4.0
300

342
17
174
     1
178
     6
175
     1
176
     0
 93
-1056964608
 45
4.0
292
     0
297
     0
 46
4.0
 94
-1056964608
 47
1.0
 49
1.0
140
1.0
293
     1
141
0.0
294
     1
177
     0
142
1.0
295
     0
296
     0
143
0.125
271
     0
272
     9
273
     9
  0
MLINESTYLE
  5
1C
102
{ACAD_REACTORS
330
1B
102
}
330
1B
100
AcDbMlineStyle
  2
STANDARD
 70
     0
  3

 62
     0
 51
90.0
 52
90.0
 71
     2
 49
0.5
 62
   256
  6
BYLAYER
 49
-0.5
 62
   256
  6
BYLAYER
  0
ACDBPLACEHOLDER
  5
1D
102
{ACAD_REACTORS
330
1F
102
}
330
1F
  0
SCALE
  5
3AA
102
{ACAD_REACTORS
330
3A9
102
}
330
3A9
100
AcDbScale
 70
     0
300
1:1
140
1.0
141
1.0
290
     1
  0
SCALE
  5
3AB
102
{ACAD_REACTORS
330
3A9
102
}
330
3A9
100
AcDbScale
 70
     0
300
1:2
140
1.0
141
2.0
290
     0
  0
SCALE
  5
3AC
102
{ACAD_REACTORS
330
3A9
102
}
330
3A9
100
AcDbScale
 70
     0
300
1:4
140
1.0
141
4.0
290
     0
  0
SCALE
  5
3AD
102
{ACAD_REACTORS
330
3A9
102
}
330
3A9
100
AcDbScale
 70
     0
300
1:5
140
1.0
141
5.0
290
     0
  0
SCALE
  5
3AE
102
{ACAD_REACTORS
330
3A9
102
}
330
3A9
100
AcDbScale
 70
     0
300
1:8
140
1.0
141
8.0
290
     0
  0
SCALE
  5
3AF
102
{ACAD_REACTORS
330
3A9
102
}
330
3A9
100
AcDbScale
 70
     0
300
1:10
140
1.0
141
10.0
290
     0
  0
SCALE
  5
3B0
102
{ACAD_REACTORS
330
3A9
102
}
330
3A9
100
AcDbScale
 70
     0
300
1:16
140
1.0
141
16.0
290
     0
  0
SCALE
  5
3B1
102
{ACAD_REACTORS
330
3A9
102
}
330
3A9
100
AcDbScale
 70
     0
300
1:20
140
1.0
141
20.0
290
     0
  0
SCALE
  5
3B2
102
{ACAD_REACTORS
330
3A9
102
}
330
3A9
100
AcDbScale
 70
     0
300
1:30
140
1.0
141
30.0
290
     0
  0
SCALE
  5
3B3
102
{ACAD_REACTORS
330
3A9
102
}
330
3A9
100
AcDbScale
 70
     0
300
1:40
140
1.0
141
40.0
290
     0
  0
SCALE
  5
3B4
102
{ACAD_REACTORS
330
3A9
102
}
330
3A9
100
AcDbScale
 70
     0
300
1:50
140
1.0
141
50.0
290
     0
  0
SCALE
  5
3B5
102
{ACAD_REACTORS
330
3A9
102
}
330
3A9
100
AcDbScale
 70
     0
300
1:100
140
1.0
141
100.0
290
     0
  0
SCALE
  5
3B6
102
{ACAD_REACTORS
330
3A9
102
}
330
3A9
100
AcDbScale
 70
     0
300
2:1
140
2.0
141
1.0
290
     0
  0
SCALE
  5
3B7
102
{ACAD_REACTORS
330
3A9
102
}
330
3A9
100
AcDbScale
 70
     0
300
4:1
140
4.0
141
1.0
290
     0
  0
SCALE
  5
3B8
102
{ACAD_REACTORS
330
3A9
102
}
330
3A9
100
AcDbScale
 70
     0
300
8:1
140
8.0
141
1.0
290
     0
  0
SCALE
  5
3B9
102
{ACAD_REACTORS
330
3A9
102
}
330
3A9
100
AcDbScale
 70
     0
300
10:1
140
10.0
141
1.0
290
     0
  0
SCALE
  5
3BA
102
{ACAD_REACTORS
330
3A9
102
}
330
3A9
100
AcDbScale
 70
     0
300
100:1
140
100.0
141
1.0
290
     0
  0
ACDBSECTIONVIEWSTYLE
  5
3BE
102
{ACAD_XDICTIONARY
360
44B
102
}
102
{ACAD_REACTORS
330
3BD
102
}
330
3BD
100
AcDbModelDocViewStyle
 70
     0
  3
Metric50
290
     0
100
AcDbSectionViewStyle
 70
     0
 71
     0
 90
      102
 71
     1
340
17
 62
   256
 40
5.0
340
0
340
0
 62
   256
 40
5.0
300
I, O, Q, S, X, Z
 40
10.0
 90
        0
 40
2.5
 90
        0
 71
     2
340
13
 90
       25
 62
   256
340
13
 90
       50
 62
   256
 40
5.0
 40
2.5
 40
5.0
 71
     3
340
17
 62
   256
 40
5.0
 90
        0
 40
15.0
 90
        1
300
%<\AcVar ViewSectionStartId>%-%<\AcVar ViewSectionEndId>% (%<\AcVar ViewScale \f "%sn">%)
 71
     4
 62
   256
 62
   257
300
ANSI31
 40
1.0
 90
        0
290
     0
290
     0
 90
        6
 40
0.0
 40
1.570796326794896
 40
0.2617993877991494
 40
1.308996938995747
 40
-0.2617993877991494
 40
1.832595714594046
  0
TABLESTYLE
  5
3A8
102
{ACAD_XDICTIONARY
360
416
102
}
102
{ACAD_REACTORS
330
3A7
102
}
330
3A7
100
AcDbTableStyle
280
     0
  3
Standard
 70
     0
 71
     0
 40
1.5
 41
1.5
280
     0
281
     0
  7
Standard
140
4.5
170
     2
 62
     0
 63
     7
283
     0
 90
      512
 91
        0
  1

274
    -2
284
     1
 64
     0
275
    -2
285
     1
 65
     0
276
    -2
286
     1
 66
     0
277
    -2
287
     1
 67
     0
278
    -2
288
     1
 68
     0
279
    -2
289
     1
 69
     0
  7
Standard
140
6.0
170
     5
 62
     0
 63
     7
283
     0
 90
      512
 91
        0
  1

274
    -2
284
     1
 64
     0
275
    -2
285
     1
 65
     0
276
    -2
286
     1
 66
     0
277
    -2
287
     1
 67
     0
278
    -2
288
     1
 68
     0
279
    -2
289
     1
 69
     0
  7
Standard
140
4.5
170
     5
 62
     0
 63
     7
283
     0
 90
      512
 91
        0
  1

274
    -2
284
     1
 64
     0
275
    -2
285
     1
 65
     0
276
    -2
286
     1
 66
     0
277
    -2
287
     1
 67
     0
278
    -2
288
     1
 68
     0
279
    -2
289
     1
 69
     0
  0
VISUALSTYLE
  5
393
102
{ACAD_XDICTIONARY
360
423
102
}
102
{ACAD_REACTORS
330
38D
102
}
330
38D
100
AcDbVisualStyle
  2
2dWireframe
 70
     4
177
     2
291
     0
 71
     0
176
     1
 72
     2
176
     1
 73
     0
176
     1
 90
        0
176
     1
 40
0.6
176
     1
 41
30.0
176
     1
 63
     7
421
 16777215
176
     1
 74
     1
176
     1
 91
        4
176
     1
 64
     7
176
     1
 65
   257
176
     1
 75
     1
176
     1
175
     1
176
     1
 42
1.0
176
     1
 92
        0
176
     1
 66
   257
176
     1
 43
1.0
176
     1
 76
     1
176
     1
 77
     6
176
     1
 78
     2
176
     1
 67
     7
176
     1
 79
     5
176
     1
170
     0
176
     1
171
     0
176
     1
290
     0
176
     1
 93
        1
176
     1
 44
0.0
176
     1
173
     0
176
     1
1001
ACAD
1000
AcDbSavedByObjectVersion
1070
     0
  0
VISUALSTYLE
  5
392
102
{ACAD_XDICTIONARY
360
421
102
}
102
{ACAD_REACTORS
330
38D
102
}
330
38D
100
AcDbVisualStyle
  2
Basic
 70
     7
177
     2
291
     1
 71
     1
176
     1
 72
     0
176
     1
 73
     1
176
     1
 90
        0
176
     1
 40
0.6
176
     1
 41
30.0
176
     1
 63
     7
421
 16777215
176
     1
 74
     0
176
     1
 91
        4
176
     1
 64
     7
176
     1
 65
   257
176
     1
 75
     1
176
     1
175
     1
176
     1
 42
1.0
176
     1
 92
        8
176
     1
 66
     7
176
     1
 43
1.0
176
     1
 76
     1
176
     1
 77
     6
176
     1
 78
     2
176
     1
 67
     7
176
     1
 79
     5
176
     1
170
     0
176
     1
171
     0
176
     1
290
     0
176
     1
 93
        1
176
     1
 44
0.0
176
     1
173
     0
176
     1
1001
ACAD
1000
AcDbSavedByObjectVersion
1070
     0
  0
VISUALSTYLE
  5
399
102
{ACAD_XDICTIONARY
360
42F
102
}
102
{ACAD_REACTORS
330
38D
102
}
330
38D
100
AcDbVisualStyle
  2
Brighten
 70
    12
177
     2
291
     1
 71
     2
176
     1
 72
     2
176
     1
 73
     0
176
     1
 90
        0
176
     1
 40
0.6
176
     1
 41
30.0
176
     1
 63
     7
421
 16777215
176
     1
 74
     1
176
     1
 91
        4
176
     1
 64
     7
176
     1
 65
   257
176
     1
 75
     1
176
     1
175
     1
176
     1
 42
1.0
176
     1
 92
        8
176
     1
 66
     7
176
     1
 43
1.0
176
     1
 76
     1
176
     1
 77
     6
176
     1
 78
     2
176
     1
 67
     7
176
     1
 79
     5
176
     1
170
     0
176
     1
171
     0
176
     1
290
     0
176
     1
 93
        1
176
     1
 44
50.0
176
     1
173
     0
176
     1
1001
ACAD
1000
AcDbSavedByObjectVersion
1070
     0
  0
VISUALSTYLE
  5
39D
102
{ACAD_XDICTIONARY
360
437
102
}
102
{ACAD_REACTORS
330
38D
102
}
330
38D
100
AcDbVisualStyle
  2
ColorChange
 70
    16
177
     2
291
     1
 71
     2
176
     1
 72
     2
176
     1
 73
     3
176
     1
 90
        0
176
     1
 40
0.6
176
     1
 41
30.0
176
     1
 63
     8
421
  8421504
176
     1
 74
     1
176
     1
 91
        4
176
     1
 64
     7
176
     1
 65
   257
176
     1
 75
     1
176
     1
175
     1
176
     1
 42
1.0
176
     1
 92
        8
176
     1
 66
     8
424
  8421504
176
     1
 43
1.0
176
     1
 76
     1
176
     1
 77
     6
176
     1
 78
     2
176
     1
 67
     7
176
     1
 79
     5
176
     1
170
     0
176
     1
171
     0
176
     1
290
     0
176
     1
 93
        1
176
     1
 44
0.0
176
     1
173
     0
176
     1
1001
ACAD
1000
AcDbSavedByObjectVersion
1070
     0
  0
VISUALSTYLE
  5
396
102
{ACAD_XDICTIONARY
360
429
102
}
102
{ACAD_REACTORS
330
38D
102
}
330
38D
100
AcDbVisualStyle
  2
Conceptual
 70
     9
177
     2
291
     0
 71
     3
176
     1
 72
     2
176
     1
 73
     0
176
     1
 90
        0
176
     1
 40
0.6
176
     1
 41
30.0
176
     1
 63
     7
421
 16777215
176
     1
 74
     2
176
     1
 91
        2
176
     1
 64
     7
176
     1
 65
   257
176
     1
 75
     1
176
     1
175
     1
176
     1
 42
179.0
176
     1
 92
        8
176
     1
 66
     7
176
     1
 43
1.0
176
     1
 76
     1
176
     1
 77
     6
176
     1
 78
     2
176
     1
 67
     7
176
     1
 79
     3
176
     1
170
     0
176
     1
171
     0
176
     1
290
     0
176
     1
 93
        1
176
     1
 44
0.0
176
     1
173
     0
176
     1
1001
ACAD
1000
AcDbSavedByObjectVersion
1070
     0
  0
VISUALSTYLE
  5
398
102
{ACAD_XDICTIONARY
360
42D
102
}
102
{ACAD_REACTORS
330
38D
102
}
330
38D
100
AcDbVisualStyle
  2
Dim
 70
    11
177
     2
291
     1
 71
     2
176
     1
 72
     2
176
     1
 73
     0
176
     1
 90
        0
176
     1
 40
0.6
176
     1
 41
30.0
176
     1
 63
     7
421
 16777215
176
     1
 74
     1
176
     1
 91
        4
176
     1
 64
     7
176
     1
 65
   257
176
     1
 75
     1
176
     1
175
     1
176
     1
 42
1.0
176
     1
 92
        8
176
     1
 66
     7
176
     1
 43
1.0
176
     1
 76
     1
176
     1
 77
     6
176
     1
 78
     2
176
     1
 67
     7
176
     1
 79
     5
176
     1
170
     0
176
     1
171
     0
176
     1
290
     0
176
     1
 93
        1
176
     1
 44
-50.0
176
     1
173
     0
176
     1
1001
ACAD
1000
AcDbSavedByObjectVersion
1070
     0
  0
VISUALSTYLE
  5
3A5
102
{ACAD_XDICTIONARY
360
447
102
}
102
{ACAD_REACTORS
330
38D
102
}
330
38D
100
AcDbVisualStyle
  2
EdgeColorOff
 70
    22
177
     2
291
     1
 71
     2
176
     0
 72
     2
176
     0
 73
     0
176
     0
 90
        0
176
     0
 40
0.6
176
     0
 41
30.0
176
     0
 63
     7
421
 16777215
176
     0
 74
     1
176
     0
 91
        4
176
     0
 64
     7
176
     0
 65
   257
176
     0
 75
     1
176
     0
175
     1
176
     0
 42
1.0
176
     0
 92
        8
176
     2
 66
     7
176
     0
 43
1.0
176
     0
 76
     1
176
     0
 77
     6
176
     0
 78
     2
176
     0
 67
     7
176
     0
 79
     5
176
     0
170
     0
176
     0
171
     0
176
     0
290
     0
176
     0
 93
        1
176
     0
 44
0.0
176
     0
173
     0
176
     0
1001
ACAD
1000
AcDbSavedByObjectVersion
1070
     0
  0
VISUALSTYLE
  5
39C
102
{ACAD_XDICTIONARY
360
435
102
}
102
{ACAD_REACTORS
330
38D
102
}
330
38D
100
AcDbVisualStyle
  2
Facepattern
 70
    15
177
     2
291
     1
 71
     2
176
     1
 72
     2
176
     1
 73
     0
176
     1
 90
        0
176
     1
 40
0.6
176
     1
 41
30.0
176
     1
 63
     7
421
 16777215
176
     1
 74
     1
176
     1
 91
        4
176
     1
 64
     7
176
     1
 65
   257
176
     1
 75
     1
176
     1
175
     1
176
     1
 42
1.0
176
     1
 92
        8
176
     1
 66
     7
176
     1
 43
1.0
176
     1
 76
     1
176
     1
 77
     6
176
     1
 78
     2
176
     1
 67
     7
176
     1
 79
     5
176
     1
170
     0
176
     1
171
     0
176
     1
290
     0
176
     1
 93
        1
176
     1
 44
0.0
176
     1
173
     0
176
     1
1001
ACAD
1000
AcDbSavedByObjectVersion
1070
     0
  0
VISUALSTYLE
  5
38E
102
{ACAD_XDICTIONARY
360
419
102
}
102
{ACAD_REACTORS
330
38D
102
}
330
38D
100
AcDbVisualStyle
  2
Flat
 70
     0
177
     2
291
     1
 71
     2
176
     1
 72
     1
176
     1
 73
     1
176
     1
 90
        2
176
     1
 40
0.6
176
     1
 41
30.0
176
     1
 63
     7
421
 16777215
176
     1
 74
     0
176
     1
 91
        0
176
     1
 64
     7
176
     1
 65
   257
176
     1
 75
     1
176
     1
175
     1
176
     1
 42
1.0
176
     1
 92
        8
176
     1
 66
     7
176
     1
 43
1.0
176
     1
 76
     1
176
     1
 77
     6
176
     1
 78
     2
176
     1
 67
     7
176
     1
 79
     5
176
     1
170
     0
176
     1
171
     0
176
     1
290
     0
176
     1
 93
       13
176
     1
 44
0.0
176
     1
173
     0
176
     1
1001
ACAD
1000
AcDbSavedByObjectVersion
1070
     0
  0
VISUALSTYLE
  5
38F
102
{ACAD_XDICTIONARY
360
41B
102
}
102
{ACAD_REACTORS
330
38D
102
}
330
38D
100
AcDbVisualStyle
  2
FlatWithEdges
 70
     1
177
     2
291
     1
 71
     2
176
     1
 72
     1
176
     1
 73
     1
176
     1
 90
        2
176
     1
 40
0.6
176
     1
 41
30.0
176
     1
 63
     7
421
 16777215
176
     1
 74
     1
176
     1
 91
        0
176
     1
 64
     7
176
     1
 65
   257
176
     1
 75
     1
176
     1
175
     1
176
     1
 42
1.0
176
     1
 92
        0
176
     1
 66
   257
176
     1
 43
1.0
176
     1
 76
     1
176
     1
 77
     6
176
     1
 78
     2
176
     1
 67
     7
176
     1
 79
     5
176
     1
170
     0
176
     1
171
     0
176
     1
290
     0
176
     1
 93
       13
176
     1
 44
0.0
176
     1
173
     0
176
     1
1001
ACAD
1000
AcDbSavedByObjectVersion
1070
     0
  0
VISUALSTYLE
  5
390
102
{ACAD_XDICTIONARY
360
41D
102
}
102
{ACAD_REACTORS
330
38D
102
}
330
38D
100
AcDbVisualStyle
  2
Gouraud
 70
     2
177
     2
291
     1
 71
     2
176
     1
 72
     2
176
     1
 73
     1
176
     1
 90
        2
176
     1
 40
0.6
176
     1
 41
30.0
176
     1
 63
     7
421
 16777215
176
     1
 74
     0
176
     1
 91
        0
176
     1
 64
     7
176
     1
 65
   257
176
     1
 75
     1
176
     1
175
     1
176
     1
 42
1.0
176
     1
 92
        0
176
     1
 66
     7
176
     1
 43
1.0
176
     1
 76
     1
176
     1
 77
     6
176
     1
 78
     2
176
     1
 67
     7
176
     1
 79
     5
176
     1
170
     0
176
     1
171
     0
176
     1
290
     0
176
     1
 93
       13
176
     1
 44
0.0
176
     1
173
     0
176
     1
1001
ACAD
1000
AcDbSavedByObjectVersion
1070
     0
  0
VISUALSTYLE
  5
391
102
{ACAD_XDICTIONARY
360
41F
102
}
102
{ACAD_REACTORS
330
38D
102
}
330
38D
100
AcDbVisualStyle
  2
GouraudWithEdges
 70
     3
177
     2
291
     1
 71
     2
176
     1
 72
     2
176
     1
 73
     1
176
     1
 90
        2
176
     1
 40
0.6
176
     1
 41
30.0
176
     1
 63
     7
421
 16777215
176
     1
 74
     1
176
     1
 91
        0
176
     1
 64
     7
176
     1
 65
   257
176
     1
 75
     1
176
     1
175
     1
176
     1
 42
1.0
176
     1
 92
        0
176
     1
 66
   257
176
     1
 43
1.0
176
     1
 76
     1
176
     1
 77
     6
176
     1
 78
     2
176
     1
 67
     7
176
     1
 79
     5
176
     1
170
     0
176
     1
171
     0
176
     1
290
     0
176
     1
 93
       13
176
     1
 44
0.0
176
     1
173
     0
176
     1
1001
ACAD
1000
AcDbSavedByObjectVersion
1070
     0
  0
VISUALSTYLE
  5
395
102
{ACAD_XDICTIONARY
360
427
102
}
102
{ACAD_REACTORS
330
38D
102
}
330
38D
100
AcDbVisualStyle
  2
Hidden
 70
     6
177
     2
291
     0
 71
     1
176
     1
 72
     2
176
     1
 73
     2
176
     1
 90
        0
176
     1
 40
0.6
176
     1
 41
30.0
176
     1
 63
     7
421
 16777215
176
     1
 74
     2
176
     1
 91
        2
176
     1
 64
     7
176
     1
 65
   257
176
     1
 75
     2
176
     1
175
     1
176
     1
 42
40.0
176
     1
 92
        0
176
     1
 66
   257
176
     1
 43
1.0
176
     1
 76
     1
176
     1
 77
     6
176
     1
 78
     2
176
     1
 67
     7
176
     1
 79
     3
176
     1
170
     0
176
     1
171
     0
176
     1
290
     0
176
     1
 93
        1
176
     1
 44
0.0
176
     1
173
     0
176
     1
1001
ACAD
1000
AcDbSavedByObjectVersion
1070
     0
  0
VISUALSTYLE
  5
3A3
102
{ACAD_XDICTIONARY
360
443
102
}
102
{ACAD_REACTORS
330
38D
102
}
330
38D
100
AcDbVisualStyle
  2
JitterOff
 70
    20
177
     2
291
     1
 71
     2
176
     0
 72
     2
176
     0
 73
     0
176
     0
 90
        0
176
     0
 40
0.6
176
     0
 41
30.0
176
     0
 63
     7
421
 16777215
176
     0
 74
     1
176
     0
 91
        4
176
     0
 64
     7
176
     0
 65
   257
176
     0
 75
     1
176
     0
175
     1
176
     0
 42
1.0
176
     0
 92
       10
176
     2
 66
     7
176
     0
 43
1.0
176
     0
 76
     1
176
     0
 77
     6
176
     0
 78
     2
176
     0
 67
     7
176
     0
 79
     5
176
     0
170
     0
176
     0
171
     0
176
     0
290
     0
176
     0
 93
        1
176
     0
 44
0.0
176
     0
173
     0
176
     0
1001
ACAD
1000
AcDbSavedByObjectVersion
1070
     0
  0
VISUALSTYLE
  5
39B
102
{ACAD_XDICTIONARY
360
433
102
}
102
{ACAD_REACTORS
330
38D
102
}
330
38D
100
AcDbVisualStyle
  2
Linepattern
 70
    14
177
     2
291
     1
 71
     2
176
     1
 72
     2
176
     1
 73
     0
176
     1
 90
        0
176
     1
 40
0.6
176
     1
 41
30.0
176
     1
 63
     7
421
 16777215
176
     1
 74
     1
176
     1
 91
        4
176
     1
 64
     7
176
     1
 65
   257
176
     1
 75
     7
176
     1
175
     7
176
     1
 42
1.0
176
     1
 92
        8
176
     1
 66
     7
176
     1
 43
1.0
176
     1
 76
     1
176
     1
 77
     6
176
     1
 78
     2
176
     1
 67
     7
176
     1
 79
     5
176
     1
170
     0
176
     1
171
     0
176
     1
290
     0
176
     1
 93
        1
176
     1
 44
0.0
176
     1
173
     0
176
     1
1001
ACAD
1000
AcDbSavedByObjectVersion
1070
     0
  0
VISUALSTYLE
  5
3A4
102
{ACAD_XDICTIONARY
360
445
102
}
102
{ACAD_REACTORS
330
38D
102
}
330
38D
100
AcDbVisualStyle
  2
OverhangOff
 70
    21
177
     2
291
     1
 71
     2
176
     0
 72
     2
176
     0
 73
     0
176
     0
 90
        0
176
     0
 40
0.6
176
     0
 41
30.0
176
     0
 63
     7
421
 16777215
176
     0
 74
     1
176
     0
 91
        4
176
     0
 64
     7
176
     0
 65
   257
176
     0
 75
     1
176
     0
175
     1
176
     0
 42
1.0
176
     0
 92
        9
176
     2
 66
     7
176
     0
 43
1.0
176
     0
 76
     1
176
     0
 77
     6
176
     0
 78
     2
176
     0
 67
     7
176
     0
 79
     5
176
     0
170
     0
176
     0
171
     0
176
     0
290
     0
176
     0
 93
        1
176
     0
 44
0.0
176
     0
173
     0
176
     0
1001
ACAD
1000
AcDbSavedByObjectVersion
1070
     0
  0
VISUALSTYLE
  5
397
102
{ACAD_XDICTIONARY
360
42B
102
}
102
{ACAD_REACTORS
330
38D
102
}
330
38D
100
AcDbVisualStyle
  2
Realistic
 70
     8
177
     2
291
     0
 71
     2
176
     1
 72
     3
176
     1
 73
     0
176
     1
 90
        2
176
     1
 40
0.6
176
     1
 41
30.0
176
     1
 63
     7
421
 16777215
176
     1
 74
     0
176
     1
 91
        0
176
     1
 64
     7
176
     1
 65
   257
176
     1
 75
     1
176
     1
175
     1
176
     1
 42
1.0
176
     1
 92
        8
176
     1
 66
   257
176
     1
 43
1.0
176
     1
 76
     1
176
     1
 77
     6
176
     1
 78
     2
176
     1
 67
     7
176
     1
 79
     3
176
     1
170
     0
176
     1
171
     0
176
     1
290
     0
176
     1
 93
       13
176
     1
 44
0.0
176
     1
173
     0
176
     1
1001
ACAD
1000
AcDbSavedByObjectVersion
1070
     0
  0
VISUALSTYLE
  5
3A2
102
{ACAD_XDICTIONARY
360
441
102
}
102
{ACAD_REACTORS
330
38D
102
}
330
38D
100
AcDbVisualStyle
  2
Shaded
 70
    27
177
     2
291
     0
 71
     2
176
     1
 72
     2
176
     1
 73
     1
176
     1
 90
        2
176
     1
 40
0.6
176
     1
 41
30.0
176
     1
 63
     7
421
 16777215
176
     1
 74
     0
176
     1
 91
        4
176
     1
 64
     7
176
     1
 65
   257
176
     1
 75
     1
176
     1
175
     1
176
     1
 42
1.0
176
     1
 92
        8
176
     1
 66
   257
176
     1
 43
1.0
176
     1
 76
     1
176
     1
 77
     6
176
     1
 78
     2
176
     1
 67
     8
425
  7895160
176
     1
 79
     3
176
     1
170
     0
176
     1
171
     0
176
     1
290
     0
176
     1
 93
        5
176
     1
 44
0.0
176
     1
173
     0
176
     1
1001
ACAD
1000
AcDbSavedByObjectVersion
1070
     0
  0
VISUALSTYLE
  5
3A1
102
{ACAD_XDICTIONARY
360
43F
102
}
102
{ACAD_REACTORS
330
38D
102
}
330
38D
100
AcDbVisualStyle
  2
Shaded with edges
 70
    26
177
     2
291
     0
 71
     2
176
     1
 72
     2
176
     1
 73
     1
176
     1
 90
        2
176
     1
 40
0.6
176
     1
 41
30.0
176
     1
 63
     7
421
 16777215
176
     1
 74
     1
176
     1
 91
       10
176
     1
 64
     7
176
     1
 65
   257
176
     1
 75
     2
176
     1
175
     1
176
     1
 42
1.0
176
     1
 92
        8
176
     1
 66
   257
176
     1
 43
1.0
176
     1
 76
     1
176
     1
 77
     6
176
     1
 78
     2
176
     1
 67
     7
176
     1
 79
     3
176
     1
170
     0
176
     1
171
     0
176
     1
290
     0
176
     1
 93
        5
176
     1
 44
0.0
176
     1
173
     0
176
     1
1001
ACAD
1000
AcDbSavedByObjectVersion
1070
     0
  0
VISUALSTYLE
  5
39E
102
{ACAD_XDICTIONARY
360
439
102
}
102
{ACAD_REACTORS
330
38D
102
}
330
38D
100
AcDbVisualStyle
  2
Shades of Gray
 70
    23
177
     2
291
     0
 71
     2
176
     1
 72
     2
176
     1
 73
     3
176
     1
 90
        0
176
     1
 40
0.6
176
     1
 41
30.0
176
     1
 63
     7
421
 16777215
176
     1
 74
     2
176
     1
 91
        2
176
     1
 64
     7
176
     1
 65
     7
176
     1
 75
     1
176
     1
175
     1
176
     1
 42
40.0
176
     1
 92
        8
176
     1
 66
     7
176
     1
 43
1.0
176
     1
 76
     1
176
     1
 77
     6
176
     1
 78
     2
176
     1
 67
     7
176
     1
 79
     3
176
     1
170
     0
176
     1
171
     0
176
     1
290
     0
176
     1
 93
        1
176
     1
 44
0.0
176
     1
173
     0
176
     1
1001
ACAD
1000
AcDbSavedByObjectVersion
1070
     0
  0
VISUALSTYLE
  5
39F
102
{ACAD_XDICTIONARY
360
43B
102
}
102
{ACAD_REACTORS
330
38D
102
}
330
38D
100
AcDbVisualStyle
  2
Sketchy
 70
    24
177
     2
291
     0
 71
     1
176
     1
 72
     2
176
     1
 73
     2
176
     1
 90
        0
176
     1
 40
0.6
176
     1
 41
30.0
176
     1
 63
     7
421
 16777215
176
     1
 74
     2
176
     1
 91
        2
176
     1
 64
     7
176
     1
 65
     7
176
     1
 75
     1
176
     1
175
     1
176
     1
 42
40.0
176
     1
 92
       11
176
     1
 66
     7
176
     1
 43
1.0
176
     1
 76
     1
176
     1
 77
     6
176
     1
 78
     2
176
     1
 67
     7
176
     1
 79
     6
176
     1
170
     0
176
     1
171
     0
176
     1
290
     0
176
     1
 93
        1
176
     1
 44
0.0
176
     1
173
     0
176
     1
1001
ACAD
1000
AcDbSavedByObjectVersion
1070
     0
  0
VISUALSTYLE
  5
39A
102
{ACAD_XDICTIONARY
360
431
102
}
102
{ACAD_REACTORS
330
38D
102
}
330
38D
100
AcDbVisualStyle
  2
Thicken
 70
    13
177
     2
291
     1
 71
     2
176
     1
 72
     2
176
     1
 73
     0
176
     1
 90
        0
176
     1
 40
0.6
176
     1
 41
30.0
176
     1
 63
     7
421
 16777215
176
     1
 74
     1
176
     1
 91
        4
176
     1
 64
     7
176
     1
 65
   257
176
     1
 75
     1
176
     1
175
     1
176
     1
 42
1.0
176
     1
 92
       12
176
     1
 66
     7
176
     1
 43
1.0
176
     1
 76
     1
176
     1
 77
     6
176
     1
 78
     2
176
     1
 67
     7
176
     1
 79
     5
176
     1
170
     0
176
     1
171
     0
176
     1
290
     0
176
     1
 93
        1
176
     1
 44
0.0
176
     1
173
     0
176
     1
1001
ACAD
1000
AcDbSavedByObjectVersion
1070
     0
  0
VISUALSTYLE
  5
394
102
{ACAD_XDICTIONARY
360
425
102
}
102
{ACAD_REACTORS
330
38D
102
}
330
38D
100
AcDbVisualStyle
  2
Wireframe
 70
     5
177
     2
291
     0
 71
     0
176
     1
 72
     2
176
     1
 73
     0
176
     1
 90
        0
176
     1
 40
0.6
176
     1
 41
30.0
176
     1
 63
     7
421
 16777215
176
     1
 74
     1
176
     1
 91
        4
176
     1
 64
     7
176
     1
 65
   257
176
     1
 75
     1
176
     1
175
     1
176
     1
 42
1.0
176
     1
 92
        0
176
     1
 66
   257
176
     1
 43
1.0
176
     1
 76
     1
176
     1
 77
     6
176
     1
 78
     2
176
     1
 67
     7
176
     1
 79
     3
176
     1
170
     0
176
     1
171
     0
176
     1
290
     0
176
     1
 93
        1
176
     1
 44
0.0
176
     1
173
     0
176
     1
1001
ACAD
1000
AcDbSavedByObjectVersion
1070
     0
  0
VISUALSTYLE
  5
3A0
102
{ACAD_XDICTIONARY
360
43D
102
}
102
{ACAD_REACTORS
330
38D
102
}
330
38D
100
AcDbVisualStyle
  2
X-Ray
 70
    25
177
     2
291
     0
 71
     2
176
     1
 72
     2
176
     1
 73
     1
176
     1
 90
        1
176
     1
 40
0.5
176
     1
 41
30.0
176
     1
 63
     7
421
 16777215
176
     1
 74
     1
176
     1
 91
        0
176
     1
 64
     7
176
     1
 65
   257
176
     1
 75
     1
176
     1
175
     1
176
     1
 42
1.0
176
     1
 92
        8
176
     1
 66
     7
176
     1
 43
1.0
176
     1
 76
     1
176
     1
 77
     6
176
     1
 78
     2
176
     1
 67
     7
176
     1
 79
     3
176
     1
170
     0
176
     1
171
     0
176
     1
290
     0
176
     1
 93
       13
176
     1
 44
0.0
176
     1
173
     0
176
     1
1001
ACAD
1000
AcDbSavedByObjectVersion
1070
     0
  0
DICTIONARYVAR
  5
412
102
{ACAD_REACTORS
330
40C
102
}
330
40C
100
DictionaryVariables
280
     0
  1
1:1
  0
DICTIONARYVAR
  5
40E
102
{ACAD_REACTORS
330
40C
102
}
330
40C
100
DictionaryVariables
280
     0
  1
STANDARD
  0
DICTIONARYVAR
  5
40D
102
{ACAD_REACTORS
330
40C
102
}
330
40C
100
DictionaryVariables
280
     0
  1
STANDARD
  0
DICTIONARYVAR
  5
40F
102
{ACAD_REACTORS
330
40C
102
}
330
40C
100
DictionaryVariables
280
     0
  1
Metric50
  0
DICTIONARYVAR
  5
410
102
{ACAD_REACTORS
330
40C
102
}
330
40C
100
DictionaryVariables
280
     0
  1
Metric50
  0
DICTIONARYVAR
  5
414
102
{ACAD_REACTORS
330
40C
102
}
330
40C
100
DictionaryVariables
280
     0
  1
1
  0
DICTIONARYVAR
  5
415
102
{ACAD_REACTORS
330
40C
102
}
330
40C
100
DictionaryVariables
280
     0
  1
15
  0
DICTIONARYVAR
  5
413
102
{ACAD_REACTORS
330
40C
102
}
330
40C
100
DictionaryVariables
280
     0
  1
0
  0
DICTIONARYVAR
  5
411
102
{ACAD_REACTORS
330
40C
102
}
330
40C
100
DictionaryVariables
280
     0
  1
0
  0
DICTIONARY
  5
44D
330
3C0
100
AcDbDictionary
280
     1
281
     1
  3
ACAD_XREC_ROUNDTRIP
360
44E
  0
DICTIONARY
  5
37E
330
37D
100
AcDbDictionary
280
     1
281
     1
  3
BUMPTILE
360
380
  3
DIFFUSETILE
360
37F
  3
OPACITYTILE
360
383
  3
REFLECTIONTILE
360
382
  3
REFRACTIONTILE
360
384
  3
SPECULARTILE
360
381
  0
DICTIONARY
  5
376
330
375
100
AcDbDictionary
280
     1
281
     1
  3
BUMPTILE
360
378
  3
DIFFUSETILE
360
377
  3
OPACITYTILE
360
37B
  3
REFLECTIONTILE
360
37A
  3
REFRACTIONTILE
360
37C
  3
SPECULARTILE
360
379
  0
DICTIONARY
  5
386
330
385
100
AcDbDictionary
280
     1
281
     1
  3
BUMPTILE
360
388
  3
DIFFUSETILE
360
387
  3
OPACITYTILE
360
38B
  3
REFLECTIONTILE
360
38A
  3
REFRACTIONTILE
360
38C
  3
SPECULARTILE
360
389
  0
DICTIONARY
  5
449
330
3BC
100
AcDbDictionary
280
     1
281
     1
  3
ACAD_XREC_ROUNDTRIP
360
44A
  0
DICTIONARY
  5
44B
330
3BE
100
AcDbDictionary
280
     1
281
     1
  3
ACAD_XREC_ROUNDTRIP
360
44C
  0
DICTIONARY
  5
416
330
3A8
100
AcDbDictionary
280
     1
281
     1
  3
ACAD_ROUNDTRIP_2008_TABLESTYLE_CELLSTYLEMAP
360
417
  0
DICTIONARY
  5
423
330
393
100
AcDbDictionary
280
     1
281
     1
  3
ACAD_XREC_ROUNDTRIP
360
424
  0
DICTIONARY
  5
421
330
392
100
AcDbDictionary
280
     1
281
     1
  3
ACAD_XREC_ROUNDTRIP
360
422
  0
DICTIONARY
  5
42F
330
399
100
AcDbDictionary
280
     1
281
     1
  3
ACAD_XREC_ROUNDTRIP
360
430
  0
DICTIONARY
  5
437
330
39D
100
AcDbDictionary
280
     1
281
     1
  3
ACAD_XREC_ROUNDTRIP
360
438
  0
DICTIONARY
  5
429
330
396
100
AcDbDictionary
280
     1
281
     1
  3
ACAD_XREC_ROUNDTRIP
360
42A
  0
DICTIONARY
  5
42D
330
398
100
AcDbDictionary
280
     1
281
     1
  3
ACAD_XREC_ROUNDTRIP
360
42E
  0
DICTIONARY
  5
447
330
3A5
100
AcDbDictionary
280
     1
281
     1
  3
ACAD_XREC_ROUNDTRIP
360
448
  0
DICTIONARY
  5
435
330
39C
100
AcDbDictionary
280
     1
281
     1
  3
ACAD_XREC_ROUNDTRIP
360
436
  0
DICTIONARY
  5
419
330
38E
100
AcDbDictionary
280
     1
281
     1
  3
ACAD_XREC_ROUNDTRIP
360
41A
  0
DICTIONARY
  5
41B
330
38F
100
AcDbDictionary
280
     1
281
     1
  3
ACAD_XREC_ROUNDTRIP
360
41C
  0
DICTIONARY
  5
41D
330
390
100
AcDbDictionary
280
     1
281
     1
  3
ACAD_XREC_ROUNDTRIP
360
41E
  0
DICTIONARY
  5
41F
330
391
100
AcDbDictionary
280
     1
281
     1
  3
ACAD_XREC_ROUNDTRIP
360
420
  0
DICTIONARY
  5
427
330
395
100
AcDbDictionary
280
     1
281
     1
  3
ACAD_XREC_ROUNDTRIP
360
428
  0
DICTIONARY
  5
443
330
3A3
100
AcDbDictionary
280
     1
281
     1
  3
ACAD_XREC_ROUNDTRIP
360
444
  0
DICTIONARY
  5
433
330
39B
100
AcDbDictionary
280
     1
281
     1
  3
ACAD_XREC_ROUNDTRIP
360
434
  0
DICTIONARY
  5
445
330
3A4
100
AcDbDictionary
280
     1
281
     1
  3
ACAD_XREC_ROUNDTRIP
360
446
  0
DICTIONARY
  5
42B
330
397
100
AcDbDictionary
280
     1
281
     1
  3
ACAD_XREC_ROUNDTRIP
360
42C
  0
DICTIONARY
  5
441
330
3A2
100
AcDbDictionary
280
     1
281
     1
  3
ACAD_XREC_ROUNDTRIP
360
442
  0
DICTIONARY
  5
43F
330
3A1
100
AcDbDictionary
280
     1
281
     1
  3
ACAD_XREC_ROUNDTRIP
360
440
  0
DICTIONARY
  5
439
330
39E
100
AcDbDictionary
280
     1
281
     1
  3
ACAD_XREC_ROUNDTRIP
360
43A
  0
DICTIONARY
  5
43B
330
39F
100
AcDbDictionary
280
     1
281
     1
  3
ACAD_XREC_ROUNDTRIP
360
43C
  0
DICTIONARY
  5
431
330
39A
100
AcDbDictionary
280
     1
281
     1
  3
ACAD_XREC_ROUNDTRIP
360
432
  0
DICTIONARY
  5
425
330
394
100
AcDbDictionary
280
     1
281
     1
  3
ACAD_XREC_ROUNDTRIP
360
426
  0
DICTIONARY
  5
43D
330
3A0
100
AcDbDictionary
280
     1
281
     1
  3
ACAD_XREC_ROUNDTRIP
360
43E
  0
XRECORD
  5
44E
102
{ACAD_REACTORS
330
44D
102
}
330
44D
100
AcDbXrecord
280
     1
102
DISPLAYNAME
  1
Metric50
102
FLAGS
 90
        0
  0
XRECORD
  5
380
102
{ACAD_REACTORS
330
37E
102
}
330
37E
100
AcDbXrecord
280
     1
270
     1
271
     1
  0
XRECORD
  5
37F
102
{ACAD_REACTORS
330
37E
102
}
330
37E
100
AcDbXrecord
280
     1
270
     1
271
     1
  0
XRECORD
  5
383
102
{ACAD_REACTORS
330
37E
102
}
330
37E
100
AcDbXrecord
280
     1
270
     1
271
     1
  0
XRECORD
  5
382
102
{ACAD_REACTORS
330
37E
102
}
330
37E
100
AcDbXrecord
280
     1
270
     1
271
     1
  0
XRECORD
  5
384
102
{ACAD_REACTORS
330
37E
102
}
330
37E
100
AcDbXrecord
280
     1
270
     1
271
     1
  0
XRECORD
  5
381
102
{ACAD_REACTORS
330
37E
102
}
330
37E
100
AcDbXrecord
280
     1
270
     1
271
     1
  0
XRECORD
  5
378
102
{ACAD_REACTORS
330
376
102
}
330
376
100
AcDbXrecord
280
     1
270
     1
271
     1
  0
XRECORD
  5
377
102
{ACAD_REACTORS
330
376
102
}
330
376
100
AcDbXrecord
280
     1
270
     1
271
     1
  0
XRECORD
  5
37B
102
{ACAD_REACTORS
330
376
102
}
330
376
100
AcDbXrecord
280
     1
270
     1
271
     1
  0
XRECORD
  5
37A
102
{ACAD_REACTORS
330
376
102
}
330
376
100
AcDbXrecord
280
     1
270
     1
271
     1
  0
XRECORD
  5
37C
102
{ACAD_REACTORS
330
376
102
}
330
376
100
AcDbXrecord
280
     1
270
     1
271
     1
  0
XRECORD
  5
379
102
{ACAD_REACTORS
330
376
102
}
330
376
100
AcDbXrecord
280
     1
270
     1
271
     1
  0
XRECORD
  5
388
102
{ACAD_REACTORS
330
386
102
}
330
386
100
AcDbXrecord
280
     1
270
     1
271
     1
  0
XRECORD
  5
387
102
{ACAD_REACTORS
330
386
102
}
330
386
100
AcDbXrecord
280
     1
270
     1
271
     1
  0
XRECORD
  5
38B
102
{ACAD_REACTORS
330
386
102
}
330
386
100
AcDbXrecord
280
     1
270
     1
271
     1
  0
XRECORD
  5
38A
102
{ACAD_REACTORS
330
386
102
}
330
386
100
AcDbXrecord
280
     1
270
     1
271
     1
  0
XRECORD
  5
38C
102
{ACAD_REACTORS
330
386
102
}
330
386
100
AcDbXrecord
280
     1
270
     1
271
     1
  0
XRECORD
  5
389
102
{ACAD_REACTORS
330
386
102
}
330
386
100
AcDbXrecord
280
     1
270
     1
271
     1
  0
XRECORD
  5
44A
102
{ACAD_REACTORS
330
449
102
}
330
449
100
AcDbXrecord
280
     1
102
ACAD_ROUNDTRIP_2012_MLEADER_STYLE
298
     1
  0
XRECORD
  5
44C
102
{ACAD_REACTORS
330
44B
102
}
330
44B
100
AcDbXrecord
280
     1
102
DISPLAYNAME
  1
Metric50
102
FLAGS
 90
        0
  0
CELLSTYLEMAP
  5
417
102
{ACAD_REACTORS
330
416
102
}
330
416
100
AcDbCellStyleMap
 90
        3
300
CELLSTYLE
  1
TABLEFORMAT_BEGIN
 90
        5
170
     1
 91
        0
 92
    32768
 62
   257
 93
        1
300
CONTENTFORMAT
  1
CONTENTFORMAT_BEGIN
 90
        0
 91
        0
 92
      512
 93
        0
300

 40
0.0
140
1.0
 94
        5
 62
     0
340
17
144
6.0
309
CONTENTFORMAT_END
171
     1
301
MARGIN
  1
CELLMARGIN_BEGIN
 40
1.5
 40
1.5
 40
1.5
 40
1.5
 40
4.5
 40
4.5
309
CELLMARGIN_END
 94
        6
 95
        1
302
GRIDFORMAT
  1
GRIDFORMAT_BEGIN
 90
        0
 91
        1
 62
     0
 92
       -2
340
0
 93
        0
 40
1.125
309
GRIDFORMAT_END
 95
        2
302
GRIDFORMAT
  1
GRIDFORMAT_BEGIN
 90
        0
 91
        1
 62
     0
 92
       -2
340
0
 93
        0
 40
1.125
309
GRIDFORMAT_END
 95
        4
302
GRIDFORMAT
  1
GRIDFORMAT_BEGIN
 90
        0
 91
        1
 62
     0
 92
       -2
340
0
 93
        0
 40
1.125
309
GRIDFORMAT_END
 95
        8
302
GRIDFORMAT
  1
GRIDFORMAT_BEGIN
 90
        0
 91
        1
 62
     0
 92
       -2
340
0
 93
        0
 40
1.125
309
GRIDFORMAT_END
 95
       16
302
GRIDFORMAT
  1
GRIDFORMAT_BEGIN
 90
        0
 91
        1
 62
     0
 92
       -2
340
0
 93
        0
 40
1.125
309
GRIDFORMAT_END
 95
       32
302
GRIDFORMAT
  1
GRIDFORMAT_BEGIN
 90
        0
 91
        1
 62
     0
 92
       -2
340
0
 93
        0
 40
1.125
309
GRIDFORMAT_END
309
TABLEFORMAT_END
  1
CELLSTYLE_BEGIN
 90
        1
 91
        1
300
_TITLE
309
CELLSTYLE_END
300
CELLSTYLE
  1
TABLEFORMAT_BEGIN
 90
        5
170
     1
 91
        0
 92
        0
 62
   257
 93
        1
300
CONTENTFORMAT
  1
CONTENTFORMAT_BEGIN
 90
        0
 91
        0
 92
      512
 93
        0
300

 40
0.0
140
1.0
 94
        5
 62
     0
340
17
144
4.5
309
CONTENTFORMAT_END
171
     1
301
MARGIN
  1
CELLMARGIN_BEGIN
 40
1.5
 40
1.5
 40
1.5
 40
1.5
 40
4.5
 40
4.5
309
CELLMARGIN_END
 94
        6
 95
        1
302
GRIDFORMAT
  1
GRIDFORMAT_BEGIN
 90
        0
 91
        1
 62
     0
 92
       -2
340
0
 93
        0
 40
1.125
309
GRIDFORMAT_END
 95
        2
302
GRIDFORMAT
  1
GRIDFORMAT_BEGIN
 90
        0
 91
        1
 62
     0
 92
       -2
340
0
 93
        0
 40
1.125
309
GRIDFORMAT_END
 95
        4
302
GRIDFORMAT
  1
GRIDFORMAT_BEGIN
 90
        0
 91
        1
 62
     0
 92
       -2
340
0
 93
        0
 40
1.125
309
GRIDFORMAT_END
 95
        8
302
GRIDFORMAT
  1
GRIDFORMAT_BEGIN
 90
        0
 91
        1
 62
     0
 92
       -2
340
0
 93
        0
 40
1.125
309
GRIDFORMAT_END
 95
       16
302
GRIDFORMAT
  1
GRIDFORMAT_BEGIN
 90
        0
 91
        1
 62
     0
 92
       -2
340
0
 93
        0
 40
1.125
309
GRIDFORMAT_END
 95
       32
302
GRIDFORMAT
  1
GRIDFORMAT_BEGIN
 90
        0
 91
        1
 62
     0
 92
       -2
340
0
 93
        0
 40
1.125
309
GRIDFORMAT_END
309
TABLEFORMAT_END
  1
CELLSTYLE_BEGIN
 90
        2
 91
        1
300
_HEADER
309
CELLSTYLE_END
300
CELLSTYLE
  1
TABLEFORMAT_BEGIN
 90
        5
170
     1
 91
        0
 92
        0
 62
   257
 93
        1
300
CONTENTFORMAT
  1
CONTENTFORMAT_BEGIN
 90
        0
 91
        0
 92
      512
 93
        0
300

 40
0.0
140
1.0
 94
        2
 62
     0
340
17
144
4.5
309
CONTENTFORMAT_END
171
     1
301
MARGIN
  1
CELLMARGIN_BEGIN
 40
1.5
 40
1.5
 40
1.5
 40
1.5
 40
4.5
 40
4.5
309
CELLMARGIN_END
 94
        6
 95
        1
302
GRIDFORMAT
  1
GRIDFORMAT_BEGIN
 90
        0
 91
        1
 62
     0
 92
       -2
340
0
 93
        0
 40
1.125
309
GRIDFORMAT_END
 95
        2
302
GRIDFORMAT
  1
GRIDFORMAT_BEGIN
 90
        0
 91
        1
 62
     0
 92
       -2
340
0
 93
        0
 40
1.125
309
GRIDFORMAT_END
 95
        4
302
GRIDFORMAT
  1
GRIDFORMAT_BEGIN
 90
        0
 91
        1
 62
     0
 92
       -2
340
0
 93
        0
 40
1.125
309
GRIDFORMAT_END
 95
        8
302
GRIDFORMAT
  1
GRIDFORMAT_BEGIN
 90
        0
 91
        1
 62
     0
 92
       -2
340
0
 93
        0
 40
1.125
309
GRIDFORMAT_END
 95
       16
302
GRIDFORMAT
  1
GRIDFORMAT_BEGIN
 90
        0
 91
        1
 62
     0
 92
       -2
340
0
 93
        0
 40
1.125
309
GRIDFORMAT_END
 95
       32
302
GRIDFORMAT
  1
GRIDFORMAT_BEGIN
 90
        0
 91
        1
 62
     0
 92
       -2
340
0
 93
        0
 40
1.125
309
GRIDFORMAT_END
309
TABLEFORMAT_END
  1
CELLSTYLE_BEGIN
 90
        3
 91
        2
300
_DATA
309
CELLSTYLE_END
  0
XRECORD
  5
424
102
{ACAD_REACTORS
330
423
102
}
330
423
100
AcDbXrecord
280
     1
102
RTVSPost2010Prop28
280
     1
102
RTVSPost2010PropOp28
 70
     1
102
RTVSPost2010Prop29
280
     1
102
RTVSPost2010PropOp29
 70
     1
102
RTVSPost2010Prop30
280
     0
102
RTVSPost2010PropOp30
 70
     1
102
RTVSPost2010Prop31
280
     0
102
RTVSPost2010PropOp31
 70
     1
102
RTVSPost2010Prop32
280
     0
102
RTVSPost2010PropOp32
 70
     1
102
RTVSPost2010Prop33
280
     0
102
RTVSPost2010PropOp33
 70
     1
102
RTVSPost2010Prop34
280
     0
102
RTVSPost2010PropOp34
 70
     1
102
RTVSPost2010Prop35
280
     0
102
RTVSPost2010PropOp35
 70
     1
102
RTVSPost2010Prop36
280
     0
102
RTVSPost2010PropOp36
 70
     1
102
RTVSPost2010Prop37
 90
       50
102
RTVSPost2010PropOp37
 70
     1
102
RTVSPost2010Prop38
140
0.0
102
RTVSPost2010PropOp38
 70
     1
102
RTVSPost2010Prop39
140
1.0
102
RTVSPost2010PropOp39
 70
     1
102
RTVSPost2010Prop40
 90
        0
102
RTVSPost2010PropOp40
 70
     1
102
RTVSPost2010Prop41ColorIndex
 90
       18
102
RTVSPost2010Prop41ColorRGB
 90
        0
102
RTVSPost2010PropOp41
 70
     1
102
RTVSPost2010Prop42
 90
       50
102
RTVSPost2010PropOp42
 70
     1
102
RTVSPost2010Prop43
 90
        3
102
RTVSPost2010PropOp43
 70
     1
102
RTVSPost2010Prop44ColorIndex
 90
        5
102
RTVSPost2010Prop44ColorRGB
 90
      255
102
RTVSPost2010PropOp44
 70
     1
102
RTVSPost2010Prop45
280
     0
102
RTVSPost2010PropOp45
 70
     1
102
RTVSPost2010Prop46
 90
       50
102
RTVSPost2010PropOp46
 70
     1
102
RTVSPost2010Prop47
 90
       50
102
RTVSPost2010PropOp47
 70
     1
102
RTVSPost2010Prop48
 90
       50
102
RTVSPost2010PropOp48
 70
     1
102
RTVSPost2010Prop49
280
     0
102
RTVSPost2010PropOp49
 70
     1
102
RTVSPost2010Prop50
 90
       50
102
RTVSPost2010PropOp50
 70
     1
102
RTVSPost2010Prop51ColorIndex
 90
      256
102
RTVSPost2010Prop51ColorRGB
 90
-16777216
102
RTVSPost2010PropOp51
 70
     0
102
RTVSPost2010Prop52
140
1.0
102
RTVSPost2010PropOp52
 70
     0
102
RTVSPost2010Prop53
 90
        2
102
RTVSPost2010PropOp53
 70
     1
102
RTVSPost2010Prop54
  1
strokes_ogs.tif
102
RTVSPost2010PropOp54
 70
     1
102
RTVSPost2010Prop55
280
     0
102
RTVSPost2010PropOp55
 70
     1
102
RTVSPost2010Prop56
140
1.0
102
RTVSPost2010PropOp56
 70
     1
102
RTVSPost2010Prop57
140
1.0
102
RTVSPost2010PropOp57
 70
     1
  0
XRECORD
  5
422
102
{ACAD_REACTORS
330
421
102
}
330
421
100
AcDbXrecord
280
     1
102
RTVSPost2010Prop28
280
     0
102
RTVSPost2010PropOp28
 70
     1
102
RTVSPost2010Prop29
280
     1
102
RTVSPost2010PropOp29
 70
     1
102
RTVSPost2010Prop30
280
     1
102
RTVSPost2010PropOp30
 70
     1
102
RTVSPost2010Prop31
280
     0
102
RTVSPost2010PropOp31
 70
     1
102
RTVSPost2010Prop32
280
     0
102
RTVSPost2010PropOp32
 70
     1
102
RTVSPost2010Prop33
280
     0
102
RTVSPost2010PropOp33
 70
     1
102
RTVSPost2010Prop34
280
     0
102
RTVSPost2010PropOp34
 70
     1
102
RTVSPost2010Prop35
280
     0
102
RTVSPost2010PropOp35
 70
     1
102
RTVSPost2010Prop36
280
     0
102
RTVSPost2010PropOp36
 70
     1
102
RTVSPost2010Prop37
 90
       50
102
RTVSPost2010PropOp37
 70
     1
102
RTVSPost2010Prop38
140
0.0
102
RTVSPost2010PropOp38
 70
     1
102
RTVSPost2010Prop39
140
1.0
102
RTVSPost2010PropOp39
 70
     1
102
RTVSPost2010Prop40
 90
        0
102
RTVSPost2010PropOp40
 70
     1
102
RTVSPost2010Prop41ColorIndex
 90
       18
102
RTVSPost2010Prop41ColorRGB
 90
        0
102
RTVSPost2010PropOp41
 70
     1
102
RTVSPost2010Prop42
 90
       50
102
RTVSPost2010PropOp42
 70
     1
102
RTVSPost2010Prop43
 90
        3
102
RTVSPost2010PropOp43
 70
     1
102
RTVSPost2010Prop44ColorIndex
 90
        5
102
RTVSPost2010Prop44ColorRGB
 90
      255
102
RTVSPost2010PropOp44
 70
     1
102
RTVSPost2010Prop45
280
     0
102
RTVSPost2010PropOp45
 70
     1
102
RTVSPost2010Prop46
 90
       50
102
RTVSPost2010PropOp46
 70
     1
102
RTVSPost2010Prop47
 90
       50
102
RTVSPost2010PropOp47
 70
     1
102
RTVSPost2010Prop48
 90
       50
102
RTVSPost2010PropOp48
 70
     1
102
RTVSPost2010Prop49
280
     0
102
RTVSPost2010PropOp49
 70
     1
102
RTVSPost2010Prop50
 90
       50
102
RTVSPost2010PropOp50
 70
     1
102
RTVSPost2010Prop51ColorIndex
 90
      256
102
RTVSPost2010Prop51ColorRGB
 90
-16777216
102
RTVSPost2010PropOp51
 70
     0
102
RTVSPost2010Prop52
140
1.0
102
RTVSPost2010PropOp52
 70
     0
102
RTVSPost2010Prop53
 90
        2
102
RTVSPost2010PropOp53
 70
     1
102
RTVSPost2010Prop54
  1
strokes_ogs.tif
102
RTVSPost2010PropOp54
 70
     1
102
RTVSPost2010Prop55
280
     0
102
RTVSPost2010PropOp55
 70
     1
102
RTVSPost2010Prop56
140
1.0
102
RTVSPost2010PropOp56
 70
     1
102
RTVSPost2010Prop57
140
1.0
102
RTVSPost2010PropOp57
 70
     1
  0
XRECORD
  5
430
102
{ACAD_REACTORS
330
42F
102
}
330
42F
100
AcDbXrecord
280
     1
102
RTVSPost2010Prop28
280
     0
102
RTVSPost2010PropOp28
 70
     1
102
RTVSPost2010Prop29
280
     1
102
RTVSPost2010PropOp29
 70
     1
102
RTVSPost2010Prop30
280
     1
102
RTVSPost2010PropOp30
 70
     1
102
RTVSPost2010Prop31
280
     0
102
RTVSPost2010PropOp31
 70
     1
102
RTVSPost2010Prop32
280
     0
102
RTVSPost2010PropOp32
 70
     1
102
RTVSPost2010Prop33
280
     0
102
RTVSPost2010PropOp33
 70
     1
102
RTVSPost2010Prop34
280
     0
102
RTVSPost2010PropOp34
 70
     1
102
RTVSPost2010Prop35
280
     0
102
RTVSPost2010PropOp35
 70
     1
102
RTVSPost2010Prop36
280
     0
102
RTVSPost2010PropOp36
 70
     1
102
RTVSPost2010Prop37
 90
       50
102
RTVSPost2010PropOp37
 70
     1
102
RTVSPost2010Prop38
140
0.0
102
RTVSPost2010PropOp38
 70
     1
102
RTVSPost2010Prop39
140
1.0
102
RTVSPost2010PropOp39
 70
     1
102
RTVSPost2010Prop40
 90
        0
102
RTVSPost2010PropOp40
 70
     1
102
RTVSPost2010Prop41ColorIndex
 90
       18
102
RTVSPost2010Prop41ColorRGB
 90
        0
102
RTVSPost2010PropOp41
 70
     1
102
RTVSPost2010Prop42
 90
       50
102
RTVSPost2010PropOp42
 70
     1
102
RTVSPost2010Prop43
 90
        3
102
RTVSPost2010PropOp43
 70
     1
102
RTVSPost2010Prop44ColorIndex
 90
        5
102
RTVSPost2010Prop44ColorRGB
 90
      255
102
RTVSPost2010PropOp44
 70
     1
102
RTVSPost2010Prop45
280
     0
102
RTVSPost2010PropOp45
 70
     1
102
RTVSPost2010Prop46
 90
       50
102
RTVSPost2010PropOp46
 70
     1
102
RTVSPost2010Prop47
 90
       50
102
RTVSPost2010PropOp47
 70
     1
102
RTVSPost2010Prop48
 90
       50
102
RTVSPost2010PropOp48
 70
     1
102
RTVSPost2010Prop49
280
     0
102
RTVSPost2010PropOp49
 70
     1
102
RTVSPost2010Prop50
 90
       50
102
RTVSPost2010PropOp50
 70
     1
102
RTVSPost2010Prop51ColorIndex
 90
      256
102
RTVSPost2010Prop51ColorRGB
 90
-16777216
102
RTVSPost2010PropOp51
 70
     0
102
RTVSPost2010Prop52
140
1.0
102
RTVSPost2010PropOp52
 70
     0
102
RTVSPost2010Prop53
 90
        2
102
RTVSPost2010PropOp53
 70
     1
102
RTVSPost2010Prop54
  1
strokes_ogs.tif
102
RTVSPost2010PropOp54
 70
     1
102
RTVSPost2010Prop55
280
     0
102
RTVSPost2010PropOp55
 70
     1
102
RTVSPost2010Prop56
140
1.0
102
RTVSPost2010PropOp56
 70
     1
102
RTVSPost2010Prop57
140
1.0
102
RTVSPost2010PropOp57
 70
     1
  0
XRECORD
  5
438
102
{ACAD_REACTORS
330
437
102
}
330
437
100
AcDbXrecord
280
     1
102
RTVSPost2010Prop28
280
     0
102
RTVSPost2010PropOp28
 70
     1
102
RTVSPost2010Prop29
280
     1
102
RTVSPost2010PropOp29
 70
     1
102
RTVSPost2010Prop30
280
     1
102
RTVSPost2010PropOp30
 70
     1
102
RTVSPost2010Prop31
280
     0
102
RTVSPost2010PropOp31
 70
     1
102
RTVSPost2010Prop32
280
     0
102
RTVSPost2010PropOp32
 70
     1
102
RTVSPost2010Prop33
280
     0
102
RTVSPost2010PropOp33
 70
     1
102
RTVSPost2010Prop34
280
     0
102
RTVSPost2010PropOp34
 70
     1
102
RTVSPost2010Prop35
280
     0
102
RTVSPost2010PropOp35
 70
     1
102
RTVSPost2010Prop36
280
     0
102
RTVSPost2010PropOp36
 70
     1
102
RTVSPost2010Prop37
 90
       50
102
RTVSPost2010PropOp37
 70
     1
102
RTVSPost2010Prop38
140
0.0
102
RTVSPost2010PropOp38
 70
     1
102
RTVSPost2010Prop39
140
1.0
102
RTVSPost2010PropOp39
 70
     1
102
RTVSPost2010Prop40
 90
        0
102
RTVSPost2010PropOp40
 70
     1
102
RTVSPost2010Prop41ColorIndex
 90
       18
102
RTVSPost2010Prop41ColorRGB
 90
        0
102
RTVSPost2010PropOp41
 70
     1
102
RTVSPost2010Prop42
 90
       50
102
RTVSPost2010PropOp42
 70
     1
102
RTVSPost2010Prop43
 90
        3
102
RTVSPost2010PropOp43
 70
     1
102
RTVSPost2010Prop44ColorIndex
 90
        5
102
RTVSPost2010Prop44ColorRGB
 90
      255
102
RTVSPost2010PropOp44
 70
     1
102
RTVSPost2010Prop45
280
     0
102
RTVSPost2010PropOp45
 70
     1
102
RTVSPost2010Prop46
 90
       50
102
RTVSPost2010PropOp46
 70
     1
102
RTVSPost2010Prop47
 90
       50
102
RTVSPost2010PropOp47
 70
     1
102
RTVSPost2010Prop48
 90
       50
102
RTVSPost2010PropOp48
 70
     1
102
RTVSPost2010Prop49
280
     0
102
RTVSPost2010PropOp49
 70
     1
102
RTVSPost2010Prop50
 90
       50
102
RTVSPost2010PropOp50
 70
     1
102
RTVSPost2010Prop51ColorIndex
 90
      256
102
RTVSPost2010Prop51ColorRGB
 90
-16777216
102
RTVSPost2010PropOp51
 70
     0
102
RTVSPost2010Prop52
140
1.0
102
RTVSPost2010PropOp52
 70
     0
102
RTVSPost2010Prop53
 90
        2
102
RTVSPost2010PropOp53
 70
     1
102
RTVSPost2010Prop54
  1
strokes_ogs.tif
102
RTVSPost2010PropOp54
 70
     1
102
RTVSPost2010Prop55
280
     0
102
RTVSPost2010PropOp55
 70
     1
102
RTVSPost2010Prop56
140
1.0
102
RTVSPost2010PropOp56
 70
     1
102
RTVSPost2010Prop57
140
1.0
102
RTVSPost2010PropOp57
 70
     1
  0
XRECORD
  5
42A
102
{ACAD_REACTORS
330
429
102
}
330
429
100
AcDbXrecord
280
     1
102
RTVSPost2010Prop28
280
     0
102
RTVSPost2010PropOp28
 70
     1
102
RTVSPost2010Prop29
280
     1
102
RTVSPost2010PropOp29
 70
     1
102
RTVSPost2010Prop30
280
     1
102
RTVSPost2010PropOp30
 70
     1
102
RTVSPost2010Prop31
280
     0
102
RTVSPost2010PropOp31
 70
     1
102
RTVSPost2010Prop32
280
     0
102
RTVSPost2010PropOp32
 70
     1
102
RTVSPost2010Prop33
280
     0
102
RTVSPost2010PropOp33
 70
     1
102
RTVSPost2010Prop34
280
     0
102
RTVSPost2010PropOp34
 70
     1
102
RTVSPost2010Prop35
280
     0
102
RTVSPost2010PropOp35
 70
     1
102
RTVSPost2010Prop36
280
     0
102
RTVSPost2010PropOp36
 70
     1
102
RTVSPost2010Prop37
 90
       50
102
RTVSPost2010PropOp37
 70
     1
102
RTVSPost2010Prop38
140
0.0
102
RTVSPost2010PropOp38
 70
     1
102
RTVSPost2010Prop39
140
1.0
102
RTVSPost2010PropOp39
 70
     1
102
RTVSPost2010Prop40
 90
        0
102
RTVSPost2010PropOp40
 70
     1
102
RTVSPost2010Prop41ColorIndex
 90
       18
102
RTVSPost2010Prop41ColorRGB
 90
        0
102
RTVSPost2010PropOp41
 70
     1
102
RTVSPost2010Prop42
 90
       50
102
RTVSPost2010PropOp42
 70
     1
102
RTVSPost2010Prop43
 90
        3
102
RTVSPost2010PropOp43
 70
     1
102
RTVSPost2010Prop44ColorIndex
 90
        5
102
RTVSPost2010Prop44ColorRGB
 90
      255
102
RTVSPost2010PropOp44
 70
     1
102
RTVSPost2010Prop45
280
     0
102
RTVSPost2010PropOp45
 70
     1
102
RTVSPost2010Prop46
 90
       50
102
RTVSPost2010PropOp46
 70
     1
102
RTVSPost2010Prop47
 90
       50
102
RTVSPost2010PropOp47
 70
     1
102
RTVSPost2010Prop48
 90
       50
102
RTVSPost2010PropOp48
 70
     1
102
RTVSPost2010Prop49
280
     0
102
RTVSPost2010PropOp49
 70
     1
102
RTVSPost2010Prop50
 90
       50
102
RTVSPost2010PropOp50
 70
     1
102
RTVSPost2010Prop51ColorIndex
 90
      256
102
RTVSPost2010Prop51ColorRGB
 90
-16777216
102
RTVSPost2010PropOp51
 70
     0
102
RTVSPost2010Prop52
140
1.0
102
RTVSPost2010PropOp52
 70
     0
102
RTVSPost2010Prop53
 90
        2
102
RTVSPost2010PropOp53
 70
     1
102
RTVSPost2010Prop54
  1
strokes_ogs.tif
102
RTVSPost2010PropOp54
 70
     1
102
RTVSPost2010Prop55
280
     0
102
RTVSPost2010PropOp55
 70
     1
102
RTVSPost2010Prop56
140
1.0
102
RTVSPost2010PropOp56
 70
     1
102
RTVSPost2010Prop57
140
1.0
102
RTVSPost2010PropOp57
 70
     1
  0
XRECORD
  5
42E
102
{ACAD_REACTORS
330
42D
102
}
330
42D
100
AcDbXrecord
280
     1
102
RTVSPost2010Prop28
280
     0
102
RTVSPost2010PropOp28
 70
     1
102
RTVSPost2010Prop29
280
     1
102
RTVSPost2010PropOp29
 70
     1
102
RTVSPost2010Prop30
280
     1
102
RTVSPost2010PropOp30
 70
     1
102
RTVSPost2010Prop31
280
     0
102
RTVSPost2010PropOp31
 70
     1
102
RTVSPost2010Prop32
280
     0
102
RTVSPost2010PropOp32
 70
     1
102
RTVSPost2010Prop33
280
     0
102
RTVSPost2010PropOp33
 70
     1
102
RTVSPost2010Prop34
280
     0
102
RTVSPost2010PropOp34
 70
     1
102
RTVSPost2010Prop35
280
     0
102
RTVSPost2010PropOp35
 70
     1
102
RTVSPost2010Prop36
280
     0
102
RTVSPost2010PropOp36
 70
     1
102
RTVSPost2010Prop37
 90
       50
102
RTVSPost2010PropOp37
 70
     1
102
RTVSPost2010Prop38
140
0.0
102
RTVSPost2010PropOp38
 70
     1
102
RTVSPost2010Prop39
140
1.0
102
RTVSPost2010PropOp39
 70
     1
102
RTVSPost2010Prop40
 90
        0
102
RTVSPost2010PropOp40
 70
     1
102
RTVSPost2010Prop41ColorIndex
 90
       18
102
RTVSPost2010Prop41ColorRGB
 90
        0
102
RTVSPost2010PropOp41
 70
     1
102
RTVSPost2010Prop42
 90
       50
102
RTVSPost2010PropOp42
 70
     1
102
RTVSPost2010Prop43
 90
        3
102
RTVSPost2010PropOp43
 70
     1
102
RTVSPost2010Prop44ColorIndex
 90
        5
102
RTVSPost2010Prop44ColorRGB
 90
      255
102
RTVSPost2010PropOp44
 70
     1
102
RTVSPost2010Prop45
280
     0
102
RTVSPost2010PropOp45
 70
     1
102
RTVSPost2010Prop46
 90
       50
102
RTVSPost2010PropOp46
 70
     1
102
RTVSPost2010Prop47
 90
       50
102
RTVSPost2010PropOp47
 70
     1
102
RTVSPost2010Prop48
 90
       50
102
RTVSPost2010PropOp48
 70
     1
102
RTVSPost2010Prop49
280
     0
102
RTVSPost2010PropOp49
 70
     1
102
RTVSPost2010Prop50
 90
       50
102
RTVSPost2010PropOp50
 70
     1
102
RTVSPost2010Prop51ColorIndex
 90
      256
102
RTVSPost2010Prop51ColorRGB
 90
-16777216
102
RTVSPost2010PropOp51
 70
     0
102
RTVSPost2010Prop52
140
1.0
102
RTVSPost2010PropOp52
 70
     0
102
RTVSPost2010Prop53
 90
        2
102
RTVSPost2010PropOp53
 70
     1
102
RTVSPost2010Prop54
  1
strokes_ogs.tif
102
RTVSPost2010PropOp54
 70
     1
102
RTVSPost2010Prop55
280
     0
102
RTVSPost2010PropOp55
 70
     1
102
RTVSPost2010Prop56
140
1.0
102
RTVSPost2010PropOp56
 70
     1
102
RTVSPost2010Prop57
140
1.0
102
RTVSPost2010PropOp57
 70
     1
  0
XRECORD
  5
448
102
{ACAD_REACTORS
330
447
102
}
330
447
100
AcDbXrecord
280
     1
102
RTVSPost2010Prop28
280
     0
102
RTVSPost2010PropOp28
 70
     0
102
RTVSPost2010Prop29
280
     1
102
RTVSPost2010PropOp29
 70
     0
102
RTVSPost2010Prop30
280
     1
102
RTVSPost2010PropOp30
 70
     0
102
RTVSPost2010Prop31
280
     0
102
RTVSPost2010PropOp31
 70
     0
102
RTVSPost2010Prop32
280
     0
102
RTVSPost2010PropOp32
 70
     0
102
RTVSPost2010Prop33
280
     0
102
RTVSPost2010PropOp33
 70
     0
102
RTVSPost2010Prop34
280
     0
102
RTVSPost2010PropOp34
 70
     0
102
RTVSPost2010Prop35
280
     0
102
RTVSPost2010PropOp35
 70
     0
102
RTVSPost2010Prop36
280
     0
102
RTVSPost2010PropOp36
 70
     0
102
RTVSPost2010Prop37
 90
       50
102
RTVSPost2010PropOp37
 70
     0
102
RTVSPost2010Prop38
140
0.0
102
RTVSPost2010PropOp38
 70
     0
102
RTVSPost2010Prop39
140
1.0
102
RTVSPost2010PropOp39
 70
     0
102
RTVSPost2010Prop40
 90
        0
102
RTVSPost2010PropOp40
 70
     0
102
RTVSPost2010Prop41ColorIndex
 90
       18
102
RTVSPost2010Prop41ColorRGB
 90
        0
102
RTVSPost2010PropOp41
 70
     0
102
RTVSPost2010Prop42
 90
       50
102
RTVSPost2010PropOp42
 70
     0
102
RTVSPost2010Prop43
 90
        3
102
RTVSPost2010PropOp43
 70
     0
102
RTVSPost2010Prop44ColorIndex
 90
        5
102
RTVSPost2010Prop44ColorRGB
 90
      255
102
RTVSPost2010PropOp44
 70
     0
102
RTVSPost2010Prop45
280
     0
102
RTVSPost2010PropOp45
 70
     0
102
RTVSPost2010Prop46
 90
       50
102
RTVSPost2010PropOp46
 70
     0
102
RTVSPost2010Prop47
 90
       50
102
RTVSPost2010PropOp47
 70
     0
102
RTVSPost2010Prop48
 90
       50
102
RTVSPost2010PropOp48
 70
     0
102
RTVSPost2010Prop49
280
     0
102
RTVSPost2010PropOp49
 70
     0
102
RTVSPost2010Prop50
 90
       50
102
RTVSPost2010PropOp50
 70
     0
102
RTVSPost2010Prop51ColorIndex
 90
      256
102
RTVSPost2010Prop51ColorRGB
 90
-16777216
102
RTVSPost2010PropOp51
 70
     0
102
RTVSPost2010Prop52
140
1.0
102
RTVSPost2010PropOp52
 70
     0
102
RTVSPost2010Prop53
 90
        2
102
RTVSPost2010PropOp53
 70
     0
102
RTVSPost2010Prop54
  1
strokes_ogs.tif
102
RTVSPost2010PropOp54
 70
     0
102
RTVSPost2010Prop55
280
     0
102
RTVSPost2010PropOp55
 70
     0
102
RTVSPost2010Prop56
140
1.0
102
RTVSPost2010PropOp56
 70
     0
102
RTVSPost2010Prop57
140
1.0
102
RTVSPost2010PropOp57
 70
     0
  0
XRECORD
  5
436
102
{ACAD_REACTORS
330
435
102
}
330
435
100
AcDbXrecord
280
     1
102
RTVSPost2010Prop28
280
     0
102
RTVSPost2010PropOp28
 70
     1
102
RTVSPost2010Prop29
280
     1
102
RTVSPost2010PropOp29
 70
     1
102
RTVSPost2010Prop30
280
     1
102
RTVSPost2010PropOp30
 70
     1
102
RTVSPost2010Prop31
280
     0
102
RTVSPost2010PropOp31
 70
     1
102
RTVSPost2010Prop32
280
     0
102
RTVSPost2010PropOp32
 70
     1
102
RTVSPost2010Prop33
280
     0
102
RTVSPost2010PropOp33
 70
     1
102
RTVSPost2010Prop34
280
     0
102
RTVSPost2010PropOp34
 70
     1
102
RTVSPost2010Prop35
280
     0
102
RTVSPost2010PropOp35
 70
     1
102
RTVSPost2010Prop36
280
     0
102
RTVSPost2010PropOp36
 70
     1
102
RTVSPost2010Prop37
 90
       50
102
RTVSPost2010PropOp37
 70
     1
102
RTVSPost2010Prop38
140
0.0
102
RTVSPost2010PropOp38
 70
     1
102
RTVSPost2010Prop39
140
1.0
102
RTVSPost2010PropOp39
 70
     1
102
RTVSPost2010Prop40
 90
        0
102
RTVSPost2010PropOp40
 70
     1
102
RTVSPost2010Prop41ColorIndex
 90
       18
102
RTVSPost2010Prop41ColorRGB
 90
        0
102
RTVSPost2010PropOp41
 70
     1
102
RTVSPost2010Prop42
 90
       50
102
RTVSPost2010PropOp42
 70
     1
102
RTVSPost2010Prop43
 90
        3
102
RTVSPost2010PropOp43
 70
     1
102
RTVSPost2010Prop44ColorIndex
 90
        5
102
RTVSPost2010Prop44ColorRGB
 90
      255
102
RTVSPost2010PropOp44
 70
     1
102
RTVSPost2010Prop45
280
     0
102
RTVSPost2010PropOp45
 70
     1
102
RTVSPost2010Prop46
 90
       50
102
RTVSPost2010PropOp46
 70
     1
102
RTVSPost2010Prop47
 90
       50
102
RTVSPost2010PropOp47
 70
     1
102
RTVSPost2010Prop48
 90
       50
102
RTVSPost2010PropOp48
 70
     1
102
RTVSPost2010Prop49
280
     0
102
RTVSPost2010PropOp49
 70
     1
102
RTVSPost2010Prop50
 90
       50
102
RTVSPost2010PropOp50
 70
     1
102
RTVSPost2010Prop51ColorIndex
 90
      256
102
RTVSPost2010Prop51ColorRGB
 90
-16777216
102
RTVSPost2010PropOp51
 70
     0
102
RTVSPost2010Prop52
140
1.0
102
RTVSPost2010PropOp52
 70
     0
102
RTVSPost2010Prop53
 90
        2
102
RTVSPost2010PropOp53
 70
     1
102
RTVSPost2010Prop54
  1
strokes_ogs.tif
102
RTVSPost2010PropOp54
 70
     1
102
RTVSPost2010Prop55
280
     0
102
RTVSPost2010PropOp55
 70
     1
102
RTVSPost2010Prop56
140
1.0
102
RTVSPost2010PropOp56
 70
     1
102
RTVSPost2010Prop57
140
1.0
102
RTVSPost2010PropOp57
 70
     1
  0
XRECORD
  5
41A
102
{ACAD_REACTORS
330
419
102
}
330
419
100
AcDbXrecord
280
     1
102
RTVSPost2010Prop28
280
     0
102
RTVSPost2010PropOp28
 70
     1
102
RTVSPost2010Prop29
280
     1
102
RTVSPost2010PropOp29
 70
     1
102
RTVSPost2010Prop30
280
     1
102
RTVSPost2010PropOp30
 70
     1
102
RTVSPost2010Prop31
280
     0
102
RTVSPost2010PropOp31
 70
     1
102
RTVSPost2010Prop32
280
     0
102
RTVSPost2010PropOp32
 70
     1
102
RTVSPost2010Prop33
280
     0
102
RTVSPost2010PropOp33
 70
     1
102
RTVSPost2010Prop34
280
     0
102
RTVSPost2010PropOp34
 70
     1
102
RTVSPost2010Prop35
280
     0
102
RTVSPost2010PropOp35
 70
     1
102
RTVSPost2010Prop36
280
     0
102
RTVSPost2010PropOp36
 70
     1
102
RTVSPost2010Prop37
 90
       50
102
RTVSPost2010PropOp37
 70
     1
102
RTVSPost2010Prop38
140
0.0
102
RTVSPost2010PropOp38
 70
     1
102
RTVSPost2010Prop39
140
1.0
102
RTVSPost2010PropOp39
 70
     1
102
RTVSPost2010Prop40
 90
        0
102
RTVSPost2010PropOp40
 70
     1
102
RTVSPost2010Prop41ColorIndex
 90
       18
102
RTVSPost2010Prop41ColorRGB
 90
        0
102
RTVSPost2010PropOp41
 70
     1
102
RTVSPost2010Prop42
 90
       50
102
RTVSPost2010PropOp42
 70
     1
102
RTVSPost2010Prop43
 90
        3
102
RTVSPost2010PropOp43
 70
     1
102
RTVSPost2010Prop44ColorIndex
 90
        5
102
RTVSPost2010Prop44ColorRGB
 90
      255
102
RTVSPost2010PropOp44
 70
     1
102
RTVSPost2010Prop45
280
     0
102
RTVSPost2010PropOp45
 70
     1
102
RTVSPost2010Prop46
 90
       50
102
RTVSPost2010PropOp46
 70
     1
102
RTVSPost2010Prop47
 90
       50
102
RTVSPost2010PropOp47
 70
     1
102
RTVSPost2010Prop48
 90
       50
102
RTVSPost2010PropOp48
 70
     1
102
RTVSPost2010Prop49
280
     0
102
RTVSPost2010PropOp49
 70
     1
102
RTVSPost2010Prop50
 90
       50
102
RTVSPost2010PropOp50
 70
     1
102
RTVSPost2010Prop51ColorIndex
 90
      256
102
RTVSPost2010Prop51ColorRGB
 90
-16777216
102
RTVSPost2010PropOp51
 70
     0
102
RTVSPost2010Prop52
140
1.0
102
RTVSPost2010PropOp52
 70
     0
102
RTVSPost2010Prop53
 90
        2
102
RTVSPost2010PropOp53
 70
     1
102
RTVSPost2010Prop54
  1
strokes_ogs.tif
102
RTVSPost2010PropOp54
 70
     1
102
RTVSPost2010Prop55
280
     0
102
RTVSPost2010PropOp55
 70
     1
102
RTVSPost2010Prop56
140
1.0
102
RTVSPost2010PropOp56
 70
     1
102
RTVSPost2010Prop57
140
1.0
102
RTVSPost2010PropOp57
 70
     1
  0
XRECORD
  5
41C
102
{ACAD_REACTORS
330
41B
102
}
330
41B
100
AcDbXrecord
280
     1
102
RTVSPost2010Prop28
280
     0
102
RTVSPost2010PropOp28
 70
     1
102
RTVSPost2010Prop29
280
     1
102
RTVSPost2010PropOp29
 70
     1
102
RTVSPost2010Prop30
280
     1
102
RTVSPost2010PropOp30
 70
     1
102
RTVSPost2010Prop31
280
     0
102
RTVSPost2010PropOp31
 70
     1
102
RTVSPost2010Prop32
280
     0
102
RTVSPost2010PropOp32
 70
     1
102
RTVSPost2010Prop33
280
     0
102
RTVSPost2010PropOp33
 70
     1
102
RTVSPost2010Prop34
280
     0
102
RTVSPost2010PropOp34
 70
     1
102
RTVSPost2010Prop35
280
     0
102
RTVSPost2010PropOp35
 70
     1
102
RTVSPost2010Prop36
280
     0
102
RTVSPost2010PropOp36
 70
     1
102
RTVSPost2010Prop37
 90
       50
102
RTVSPost2010PropOp37
 70
     1
102
RTVSPost2010Prop38
140
0.0
102
RTVSPost2010PropOp38
 70
     1
102
RTVSPost2010Prop39
140
1.0
102
RTVSPost2010PropOp39
 70
     1
102
RTVSPost2010Prop40
 90
        0
102
RTVSPost2010PropOp40
 70
     1
102
RTVSPost2010Prop41ColorIndex
 90
       18
102
RTVSPost2010Prop41ColorRGB
 90
        0
102
RTVSPost2010PropOp41
 70
     1
102
RTVSPost2010Prop42
 90
       50
102
RTVSPost2010PropOp42
 70
     1
102
RTVSPost2010Prop43
 90
        3
102
RTVSPost2010PropOp43
 70
     1
102
RTVSPost2010Prop44ColorIndex
 90
        5
102
RTVSPost2010Prop44ColorRGB
 90
      255
102
RTVSPost2010PropOp44
 70
     1
102
RTVSPost2010Prop45
280
     0
102
RTVSPost2010PropOp45
 70
     1
102
RTVSPost2010Prop46
 90
       50
102
RTVSPost2010PropOp46
 70
     1
102
RTVSPost2010Prop47
 90
       50
102
RTVSPost2010PropOp47
 70
     1
102
RTVSPost2010Prop48
 90
       50
102
RTVSPost2010PropOp48
 70
     1
102
RTVSPost2010Prop49
280
     0
102
RTVSPost2010PropOp49
 70
     1
102
RTVSPost2010Prop50
 90
       50
102
RTVSPost2010PropOp50
 70
     1
102
RTVSPost2010Prop51ColorIndex
 90
      256
102
RTVSPost2010Prop51ColorRGB
 90
-16777216
102
RTVSPost2010PropOp51
 70
     0
102
RTVSPost2010Prop52
140
1.0
102
RTVSPost2010PropOp52
 70
     0
102
RTVSPost2010Prop53
 90
        2
102
RTVSPost2010PropOp53
 70
     1
102
RTVSPost2010Prop54
  1
strokes_ogs.tif
102
RTVSPost2010PropOp54
 70
     1
102
RTVSPost2010Prop55
280
     0
102
RTVSPost2010PropOp55
 70
     1
102
RTVSPost2010Prop56
140
1.0
102
RTVSPost2010PropOp56
 70
     1
102
RTVSPost2010Prop57
140
1.0
102
RTVSPost2010PropOp57
 70
     1
  0
XRECORD
  5
41E
102
{ACAD_REACTORS
330
41D
102
}
330
41D
100
AcDbXrecord
280
     1
102
RTVSPost2010Prop28
280
     0
102
RTVSPost2010PropOp28
 70
     1
102
RTVSPost2010Prop29
280
     1
102
RTVSPost2010PropOp29
 70
     1
102
RTVSPost2010Prop30
280
     1
102
RTVSPost2010PropOp30
 70
     1
102
RTVSPost2010Prop31
280
     0
102
RTVSPost2010PropOp31
 70
     1
102
RTVSPost2010Prop32
280
     0
102
RTVSPost2010PropOp32
 70
     1
102
RTVSPost2010Prop33
280
     0
102
RTVSPost2010PropOp33
 70
     1
102
RTVSPost2010Prop34
280
     0
102
RTVSPost2010PropOp34
 70
     1
102
RTVSPost2010Prop35
280
     0
102
RTVSPost2010PropOp35
 70
     1
102
RTVSPost2010Prop36
280
     0
102
RTVSPost2010PropOp36
 70
     1
102
RTVSPost2010Prop37
 90
       50
102
RTVSPost2010PropOp37
 70
     1
102
RTVSPost2010Prop38
140
0.0
102
RTVSPost2010PropOp38
 70
     1
102
RTVSPost2010Prop39
140
1.0
102
RTVSPost2010PropOp39
 70
     1
102
RTVSPost2010Prop40
 90
        0
102
RTVSPost2010PropOp40
 70
     1
102
RTVSPost2010Prop41ColorIndex
 90
       18
102
RTVSPost2010Prop41ColorRGB
 90
        0
102
RTVSPost2010PropOp41
 70
     1
102
RTVSPost2010Prop42
 90
       50
102
RTVSPost2010PropOp42
 70
     1
102
RTVSPost2010Prop43
 90
        3
102
RTVSPost2010PropOp43
 70
     1
102
RTVSPost2010Prop44ColorIndex
 90
        5
102
RTVSPost2010Prop44ColorRGB
 90
      255
102
RTVSPost2010PropOp44
 70
     1
102
RTVSPost2010Prop45
280
     0
102
RTVSPost2010PropOp45
 70
     1
102
RTVSPost2010Prop46
 90
       50
102
RTVSPost2010PropOp46
 70
     1
102
RTVSPost2010Prop47
 90
       50
102
RTVSPost2010PropOp47
 70
     1
102
RTVSPost2010Prop48
 90
       50
102
RTVSPost2010PropOp48
 70
     1
102
RTVSPost2010Prop49
280
     0
102
RTVSPost2010PropOp49
 70
     1
102
RTVSPost2010Prop50
 90
       50
102
RTVSPost2010PropOp50
 70
     1
102
RTVSPost2010Prop51ColorIndex
 90
      256
102
RTVSPost2010Prop51ColorRGB
 90
-16777216
102
RTVSPost2010PropOp51
 70
     0
102
RTVSPost2010Prop52
140
1.0
102
RTVSPost2010PropOp52
 70
     0
102
RTVSPost2010Prop53
 90
        2
102
RTVSPost2010PropOp53
 70
     1
102
RTVSPost2010Prop54
  1
strokes_ogs.tif
102
RTVSPost2010PropOp54
 70
     1
102
RTVSPost2010Prop55
280
     0
102
RTVSPost2010PropOp55
 70
     1
102
RTVSPost2010Prop56
140
1.0
102
RTVSPost2010PropOp56
 70
     1
102
RTVSPost2010Prop57
140
1.0
102
RTVSPost2010PropOp57
 70
     1
  0
XRECORD
  5
420
102
{ACAD_REACTORS
330
41F
102
}
330
41F
100
AcDbXrecord
280
     1
102
RTVSPost2010Prop28
280
     0
102
RTVSPost2010PropOp28
 70
     1
102
RTVSPost2010Prop29
280
     1
102
RTVSPost2010PropOp29
 70
     1
102
RTVSPost2010Prop30
280
     1
102
RTVSPost2010PropOp30
 70
     1
102
RTVSPost2010Prop31
280
     0
102
RTVSPost2010PropOp31
 70
     1
102
RTVSPost2010Prop32
280
     0
102
RTVSPost2010PropOp32
 70
     1
102
RTVSPost2010Prop33
280
     0
102
RTVSPost2010PropOp33
 70
     1
102
RTVSPost2010Prop34
280
     0
102
RTVSPost2010PropOp34
 70
     1
102
RTVSPost2010Prop35
280
     0
102
RTVSPost2010PropOp35
 70
     1
102
RTVSPost2010Prop36
280
     0
102
RTVSPost2010PropOp36
 70
     1
102
RTVSPost2010Prop37
 90
       50
102
RTVSPost2010PropOp37
 70
     1
102
RTVSPost2010Prop38
140
0.0
102
RTVSPost2010PropOp38
 70
     1
102
RTVSPost2010Prop39
140
1.0
102
RTVSPost2010PropOp39
 70
     1
102
RTVSPost2010Prop40
 90
        0
102
RTVSPost2010PropOp40
 70
     1
102
RTVSPost2010Prop41ColorIndex
 90
       18
102
RTVSPost2010Prop41ColorRGB
 90
        0
102
RTVSPost2010PropOp41
 70
     1
102
RTVSPost2010Prop42
 90
       50
102
RTVSPost2010PropOp42
 70
     1
102
RTVSPost2010Prop43
 90
        3
102
RTVSPost2010PropOp43
 70
     1
102
RTVSPost2010Prop44ColorIndex
 90
        5
102
RTVSPost2010Prop44ColorRGB
 90
      255
102
RTVSPost2010PropOp44
 70
     1
102
RTVSPost2010Prop45
280
     0
102
RTVSPost2010PropOp45
 70
     1
102
RTVSPost2010Prop46
 90
       50
102
RTVSPost2010PropOp46
 70
     1
102
RTVSPost2010Prop47
 90
       50
102
RTVSPost2010PropOp47
 70
     1
102
RTVSPost2010Prop48
 90
       50
102
RTVSPost2010PropOp48
 70
     1
102
RTVSPost2010Prop49
280
     0
102
RTVSPost2010PropOp49
 70
     1
102
RTVSPost2010Prop50
 90
       50
102
RTVSPost2010PropOp50
 70
     1
102
RTVSPost2010Prop51ColorIndex
 90
      256
102
RTVSPost2010Prop51ColorRGB
 90
-16777216
102
RTVSPost2010PropOp51
 70
     0
102
RTVSPost2010Prop52
140
1.0
102
RTVSPost2010PropOp52
 70
     0
102
RTVSPost2010Prop53
 90
        2
102
RTVSPost2010PropOp53
 70
     1
102
RTVSPost2010Prop54
  1
strokes_ogs.tif
102
RTVSPost2010PropOp54
 70
     1
102
RTVSPost2010Prop55
280
     0
102
RTVSPost2010PropOp55
 70
     1
102
RTVSPost2010Prop56
140
1.0
102
RTVSPost2010PropOp56
 70
     1
102
RTVSPost2010Prop57
140
1.0
102
RTVSPost2010PropOp57
 70
     1
  0
XRECORD
  5
428
102
{ACAD_REACTORS
330
427
102
}
330
427
100
AcDbXrecord
280
     1
102
RTVSPost2010Prop28
280
     0
102
RTVSPost2010PropOp28
 70
     1
102
RTVSPost2010Prop29
280
     1
102
RTVSPost2010PropOp29
 70
     1
102
RTVSPost2010Prop30
280
     1
102
RTVSPost2010PropOp30
 70
     1
102
RTVSPost2010Prop31
280
     0
102
RTVSPost2010PropOp31
 70
     1
102
RTVSPost2010Prop32
280
     0
102
RTVSPost2010PropOp32
 70
     1
102
RTVSPost2010Prop33
280
     0
102
RTVSPost2010PropOp33
 70
     1
102
RTVSPost2010Prop34
280
     0
102
RTVSPost2010PropOp34
 70
     1
102
RTVSPost2010Prop35
280
     0
102
RTVSPost2010PropOp35
 70
     1
102
RTVSPost2010Prop36
280
     0
102
RTVSPost2010PropOp36
 70
     1
102
RTVSPost2010Prop37
 90
       50
102
RTVSPost2010PropOp37
 70
     1
102
RTVSPost2010Prop38
140
0.0
102
RTVSPost2010PropOp38
 70
     1
102
RTVSPost2010Prop39
140
1.0
102
RTVSPost2010PropOp39
 70
     1
102
RTVSPost2010Prop40
 90
        0
102
RTVSPost2010PropOp40
 70
     1
102
RTVSPost2010Prop41ColorIndex
 90
       18
102
RTVSPost2010Prop41ColorRGB
 90
        0
102
RTVSPost2010PropOp41
 70
     1
102
RTVSPost2010Prop42
 90
       50
102
RTVSPost2010PropOp42
 70
     1
102
RTVSPost2010Prop43
 90
        3
102
RTVSPost2010PropOp43
 70
     1
102
RTVSPost2010Prop44ColorIndex
 90
        5
102
RTVSPost2010Prop44ColorRGB
 90
      255
102
RTVSPost2010PropOp44
 70
     1
102
RTVSPost2010Prop45
280
     0
102
RTVSPost2010PropOp45
 70
     1
102
RTVSPost2010Prop46
 90
       50
102
RTVSPost2010PropOp46
 70
     1
102
RTVSPost2010Prop47
 90
       50
102
RTVSPost2010PropOp47
 70
     1
102
RTVSPost2010Prop48
 90
       50
102
RTVSPost2010PropOp48
 70
     1
102
RTVSPost2010Prop49
280
     0
102
RTVSPost2010PropOp49
 70
     1
102
RTVSPost2010Prop50
 90
       50
102
RTVSPost2010PropOp50
 70
     1
102
RTVSPost2010Prop51ColorIndex
 90
      256
102
RTVSPost2010Prop51ColorRGB
 90
-16777216
102
RTVSPost2010PropOp51
 70
     0
102
RTVSPost2010Prop52
140
1.0
102
RTVSPost2010PropOp52
 70
     0
102
RTVSPost2010Prop53
 90
        2
102
RTVSPost2010PropOp53
 70
     1
102
RTVSPost2010Prop54
  1
strokes_ogs.tif
102
RTVSPost2010PropOp54
 70
     1
102
RTVSPost2010Prop55
280
     0
102
RTVSPost2010PropOp55
 70
     1
102
RTVSPost2010Prop56
140
1.0
102
RTVSPost2010PropOp56
 70
     1
102
RTVSPost2010Prop57
140
1.0
102
RTVSPost2010PropOp57
 70
     1
  0
XRECORD
  5
444
102
{ACAD_REACTORS
330
443
102
}
330
443
100
AcDbXrecord
280
     1
102
RTVSPost2010Prop28
280
     0
102
RTVSPost2010PropOp28
 70
     0
102
RTVSPost2010Prop29
280
     1
102
RTVSPost2010PropOp29
 70
     0
102
RTVSPost2010Prop30
280
     1
102
RTVSPost2010PropOp30
 70
     0
102
RTVSPost2010Prop31
280
     0
102
RTVSPost2010PropOp31
 70
     0
102
RTVSPost2010Prop32
280
     0
102
RTVSPost2010PropOp32
 70
     0
102
RTVSPost2010Prop33
280
     0
102
RTVSPost2010PropOp33
 70
     0
102
RTVSPost2010Prop34
280
     0
102
RTVSPost2010PropOp34
 70
     0
102
RTVSPost2010Prop35
280
     0
102
RTVSPost2010PropOp35
 70
     0
102
RTVSPost2010Prop36
280
     0
102
RTVSPost2010PropOp36
 70
     0
102
RTVSPost2010Prop37
 90
       50
102
RTVSPost2010PropOp37
 70
     0
102
RTVSPost2010Prop38
140
0.0
102
RTVSPost2010PropOp38
 70
     0
102
RTVSPost2010Prop39
140
1.0
102
RTVSPost2010PropOp39
 70
     0
102
RTVSPost2010Prop40
 90
        0
102
RTVSPost2010PropOp40
 70
     0
102
RTVSPost2010Prop41ColorIndex
 90
       18
102
RTVSPost2010Prop41ColorRGB
 90
        0
102
RTVSPost2010PropOp41
 70
     0
102
RTVSPost2010Prop42
 90
       50
102
RTVSPost2010PropOp42
 70
     0
102
RTVSPost2010Prop43
 90
        3
102
RTVSPost2010PropOp43
 70
     0
102
RTVSPost2010Prop44ColorIndex
 90
        5
102
RTVSPost2010Prop44ColorRGB
 90
      255
102
RTVSPost2010PropOp44
 70
     0
102
RTVSPost2010Prop45
280
     0
102
RTVSPost2010PropOp45
 70
     0
102
RTVSPost2010Prop46
 90
       50
102
RTVSPost2010PropOp46
 70
     0
102
RTVSPost2010Prop47
 90
       50
102
RTVSPost2010PropOp47
 70
     0
102
RTVSPost2010Prop48
 90
       50
102
RTVSPost2010PropOp48
 70
     0
102
RTVSPost2010Prop49
280
     0
102
RTVSPost2010PropOp49
 70
     0
102
RTVSPost2010Prop50
 90
       50
102
RTVSPost2010PropOp50
 70
     0
102
RTVSPost2010Prop51ColorIndex
 90
      256
102
RTVSPost2010Prop51ColorRGB
 90
-16777216
102
RTVSPost2010PropOp51
 70
     0
102
RTVSPost2010Prop52
140
1.0
102
RTVSPost2010PropOp52
 70
     0
102
RTVSPost2010Prop53
 90
        2
102
RTVSPost2010PropOp53
 70
     0
102
RTVSPost2010Prop54
  1
strokes_ogs.tif
102
RTVSPost2010PropOp54
 70
     0
102
RTVSPost2010Prop55
280
     0
102
RTVSPost2010PropOp55
 70
     0
102
RTVSPost2010Prop56
140
1.0
102
RTVSPost2010PropOp56
 70
     0
102
RTVSPost2010Prop57
140
1.0
102
RTVSPost2010PropOp57
 70
     0
  0
XRECORD
  5
434
102
{ACAD_REACTORS
330
433
102
}
330
433
100
AcDbXrecord
280
     1
102
RTVSPost2010Prop28
280
     0
102
RTVSPost2010PropOp28
 70
     1
102
RTVSPost2010Prop29
280
     1
102
RTVSPost2010PropOp29
 70
     1
102
RTVSPost2010Prop30
280
     1
102
RTVSPost2010PropOp30
 70
     1
102
RTVSPost2010Prop31
280
     0
102
RTVSPost2010PropOp31
 70
     1
102
RTVSPost2010Prop32
280
     0
102
RTVSPost2010PropOp32
 70
     1
102
RTVSPost2010Prop33
280
     0
102
RTVSPost2010PropOp33
 70
     1
102
RTVSPost2010Prop34
280
     0
102
RTVSPost2010PropOp34
 70
     1
102
RTVSPost2010Prop35
280
     0
102
RTVSPost2010PropOp35
 70
     1
102
RTVSPost2010Prop36
280
     0
102
RTVSPost2010PropOp36
 70
     1
102
RTVSPost2010Prop37
 90
       50
102
RTVSPost2010PropOp37
 70
     1
102
RTVSPost2010Prop38
140
0.0
102
RTVSPost2010PropOp38
 70
     1
102
RTVSPost2010Prop39
140
1.0
102
RTVSPost2010PropOp39
 70
     1
102
RTVSPost2010Prop40
 90
        0
102
RTVSPost2010PropOp40
 70
     1
102
RTVSPost2010Prop41ColorIndex
 90
       18
102
RTVSPost2010Prop41ColorRGB
 90
        0
102
RTVSPost2010PropOp41
 70
     1
102
RTVSPost2010Prop42
 90
       50
102
RTVSPost2010PropOp42
 70
     1
102
RTVSPost2010Prop43
 90
        3
102
RTVSPost2010PropOp43
 70
     1
102
RTVSPost2010Prop44ColorIndex
 90
        5
102
RTVSPost2010Prop44ColorRGB
 90
      255
102
RTVSPost2010PropOp44
 70
     1
102
RTVSPost2010Prop45
280
     0
102
RTVSPost2010PropOp45
 70
     1
102
RTVSPost2010Prop46
 90
       50
102
RTVSPost2010PropOp46
 70
     1
102
RTVSPost2010Prop47
 90
       50
102
RTVSPost2010PropOp47
 70
     1
102
RTVSPost2010Prop48
 90
       50
102
RTVSPost2010PropOp48
 70
     1
102
RTVSPost2010Prop49
280
     0
102
RTVSPost2010PropOp49
 70
     1
102
RTVSPost2010Prop50
 90
       50
102
RTVSPost2010PropOp50
 70
     1
102
RTVSPost2010Prop51ColorIndex
 90
      256
102
RTVSPost2010Prop51ColorRGB
 90
-16777216
102
RTVSPost2010PropOp51
 70
     0
102
RTVSPost2010Prop52
140
1.0
102
RTVSPost2010PropOp52
 70
     0
102
RTVSPost2010Prop53
 90
        2
102
RTVSPost2010PropOp53
 70
     1
102
RTVSPost2010Prop54
  1
strokes_ogs.tif
102
RTVSPost2010PropOp54
 70
     1
102
RTVSPost2010Prop55
280
     0
102
RTVSPost2010PropOp55
 70
     1
102
RTVSPost2010Prop56
140
1.0
102
RTVSPost2010PropOp56
 70
     1
102
RTVSPost2010Prop57
140
1.0
102
RTVSPost2010PropOp57
 70
     1
  0
XRECORD
  5
446
102
{ACAD_REACTORS
330
445
102
}
330
445
100
AcDbXrecord
280
     1
102
RTVSPost2010Prop28
280
     0
102
RTVSPost2010PropOp28
 70
     0
102
RTVSPost2010Prop29
280
     1
102
RTVSPost2010PropOp29
 70
     0
102
RTVSPost2010Prop30
280
     1
102
RTVSPost2010PropOp30
 70
     0
102
RTVSPost2010Prop31
280
     0
102
RTVSPost2010PropOp31
 70
     0
102
RTVSPost2010Prop32
280
     0
102
RTVSPost2010PropOp32
 70
     0
102
RTVSPost2010Prop33
280
     0
102
RTVSPost2010PropOp33
 70
     0
102
RTVSPost2010Prop34
280
     0
102
RTVSPost2010PropOp34
 70
     0
102
RTVSPost2010Prop35
280
     0
102
RTVSPost2010PropOp35
 70
     0
102
RTVSPost2010Prop36
280
     0
102
RTVSPost2010PropOp36
 70
     0
102
RTVSPost2010Prop37
 90
       50
102
RTVSPost2010PropOp37
 70
     0
102
RTVSPost2010Prop38
140
0.0
102
RTVSPost2010PropOp38
 70
     0
102
RTVSPost2010Prop39
140
1.0
102
RTVSPost2010PropOp39
 70
     0
102
RTVSPost2010Prop40
 90
        0
102
RTVSPost2010PropOp40
 70
     0
102
RTVSPost2010Prop41ColorIndex
 90
       18
102
RTVSPost2010Prop41ColorRGB
 90
        0
102
RTVSPost2010PropOp41
 70
     0
102
RTVSPost2010Prop42
 90
       50
102
RTVSPost2010PropOp42
 70
     0
102
RTVSPost2010Prop43
 90
        3
102
RTVSPost2010PropOp43
 70
     0
102
RTVSPost2010Prop44ColorIndex
 90
        5
102
RTVSPost2010Prop44ColorRGB
 90
      255
102
RTVSPost2010PropOp44
 70
     0
102
RTVSPost2010Prop45
280
     0
102
RTVSPost2010PropOp45
 70
     0
102
RTVSPost2010Prop46
 90
       50
102
RTVSPost2010PropOp46
 70
     0
102
RTVSPost2010Prop47
 90
       50
102
RTVSPost2010PropOp47
 70
     0
102
RTVSPost2010Prop48
 90
       50
102
RTVSPost2010PropOp48
 70
     0
102
RTVSPost2010Prop49
280
     0
102
RTVSPost2010PropOp49
 70
     0
102
RTVSPost2010Prop50
 90
       50
102
RTVSPost2010PropOp50
 70
     0
102
RTVSPost2010Prop51ColorIndex
 90
      256
102
RTVSPost2010Prop51ColorRGB
 90
-16777216
102
RTVSPost2010PropOp51
 70
     0
102
RTVSPost2010Prop52
140
1.0
102
RTVSPost2010PropOp52
 70
     0
102
RTVSPost2010Prop53
 90
        2
102
RTVSPost2010PropOp53
 70
     0
102
RTVSPost2010Prop54
  1
strokes_ogs.tif
102
RTVSPost2010PropOp54
 70
     0
102
RTVSPost2010Prop55
280
     0
102
RTVSPost2010PropOp55
 70
     0
102
RTVSPost2010Prop56
140
1.0
102
RTVSPost2010PropOp56
 70
     0
102
RTVSPost2010Prop57
140
1.0
102
RTVSPost2010PropOp57
 70
     0
  0
XRECORD
  5
42C
102
{ACAD_REACTORS
330
42B
102
}
330
42B
100
AcDbXrecord
280
     1
102
RTVSPost2010Prop28
280
     0
102
RTVSPost2010PropOp28
 70
     1
102
RTVSPost2010Prop29
280
     1
102
RTVSPost2010PropOp29
 70
     1
102
RTVSPost2010Prop30
280
     1
102
RTVSPost2010PropOp30
 70
     1
102
RTVSPost2010Prop31
280
     0
102
RTVSPost2010PropOp31
 70
     1
102
RTVSPost2010Prop32
280
     0
102
RTVSPost2010PropOp32
 70
     1
102
RTVSPost2010Prop33
280
     0
102
RTVSPost2010PropOp33
 70
     1
102
RTVSPost2010Prop34
280
     0
102
RTVSPost2010PropOp34
 70
     1
102
RTVSPost2010Prop35
280
     0
102
RTVSPost2010PropOp35
 70
     1
102
RTVSPost2010Prop36
280
     0
102
RTVSPost2010PropOp36
 70
     1
102
RTVSPost2010Prop37
 90
       50
102
RTVSPost2010PropOp37
 70
     1
102
RTVSPost2010Prop38
140
0.0
102
RTVSPost2010PropOp38
 70
     1
102
RTVSPost2010Prop39
140
1.0
102
RTVSPost2010PropOp39
 70
     1
102
RTVSPost2010Prop40
 90
        0
102
RTVSPost2010PropOp40
 70
     1
102
RTVSPost2010Prop41ColorIndex
 90
       18
102
RTVSPost2010Prop41ColorRGB
 90
        0
102
RTVSPost2010PropOp41
 70
     1
102
RTVSPost2010Prop42
 90
       50
102
RTVSPost2010PropOp42
 70
     1
102
RTVSPost2010Prop43
 90
        3
102
RTVSPost2010PropOp43
 70
     1
102
RTVSPost2010Prop44ColorIndex
 90
        5
102
RTVSPost2010Prop44ColorRGB
 90
      255
102
RTVSPost2010PropOp44
 70
     1
102
RTVSPost2010Prop45
280
     0
102
RTVSPost2010PropOp45
 70
     1
102
RTVSPost2010Prop46
 90
       50
102
RTVSPost2010PropOp46
 70
     1
102
RTVSPost2010Prop47
 90
       50
102
RTVSPost2010PropOp47
 70
     1
102
RTVSPost2010Prop48
 90
       50
102
RTVSPost2010PropOp48
 70
     1
102
RTVSPost2010Prop49
280
     0
102
RTVSPost2010PropOp49
 70
     1
102
RTVSPost2010Prop50
 90
       50
102
RTVSPost2010PropOp50
 70
     1
102
RTVSPost2010Prop51ColorIndex
 90
      256
102
RTVSPost2010Prop51ColorRGB
 90
-16777216
102
RTVSPost2010PropOp51
 70
     0
102
RTVSPost2010Prop52
140
1.0
102
RTVSPost2010PropOp52
 70
     0
102
RTVSPost2010Prop53
 90
        2
102
RTVSPost2010PropOp53
 70
     1
102
RTVSPost2010Prop54
  1
strokes_ogs.tif
102
RTVSPost2010PropOp54
 70
     1
102
RTVSPost2010Prop55
280
     0
102
RTVSPost2010PropOp55
 70
     1
102
RTVSPost2010Prop56
140
1.0
102
RTVSPost2010PropOp56
 70
     1
102
RTVSPost2010Prop57
140
1.0
102
RTVSPost2010PropOp57
 70
     1
  0
XRECORD
  5
442
102
{ACAD_REACTORS
330
441
102
}
330
441
100
AcDbXrecord
280
     1
102
RTVSPost2010Prop28
280
     0
102
RTVSPost2010PropOp28
 70
     1
102
RTVSPost2010Prop29
280
     1
102
RTVSPost2010PropOp29
 70
     1
102
RTVSPost2010Prop30
280
     1
102
RTVSPost2010PropOp30
 70
     1
102
RTVSPost2010Prop31
280
     0
102
RTVSPost2010PropOp31
 70
     1
102
RTVSPost2010Prop32
280
     0
102
RTVSPost2010PropOp32
 70
     1
102
RTVSPost2010Prop33
280
     0
102
RTVSPost2010PropOp33
 70
     1
102
RTVSPost2010Prop34
280
     0
102
RTVSPost2010PropOp34
 70
     1
102
RTVSPost2010Prop35
280
     0
102
RTVSPost2010PropOp35
 70
     1
102
RTVSPost2010Prop36
280
     0
102
RTVSPost2010PropOp36
 70
     1
102
RTVSPost2010Prop37
 90
       50
102
RTVSPost2010PropOp37
 70
     1
102
RTVSPost2010Prop38
140
0.0
102
RTVSPost2010PropOp38
 70
     1
102
RTVSPost2010Prop39
140
1.0
102
RTVSPost2010PropOp39
 70
     1
102
RTVSPost2010Prop40
 90
        0
102
RTVSPost2010PropOp40
 70
     1
102
RTVSPost2010Prop41ColorIndex
 90
       18
102
RTVSPost2010Prop41ColorRGB
 90
        0
102
RTVSPost2010PropOp41
 70
     1
102
RTVSPost2010Prop42
 90
       50
102
RTVSPost2010PropOp42
 70
     1
102
RTVSPost2010Prop43
 90
        3
102
RTVSPost2010PropOp43
 70
     1
102
RTVSPost2010Prop44ColorIndex
 90
        5
102
RTVSPost2010Prop44ColorRGB
 90
      255
102
RTVSPost2010PropOp44
 70
     1
102
RTVSPost2010Prop45
280
     0
102
RTVSPost2010PropOp45
 70
     1
102
RTVSPost2010Prop46
 90
       50
102
RTVSPost2010PropOp46
 70
     1
102
RTVSPost2010Prop47
 90
       50
102
RTVSPost2010PropOp47
 70
     1
102
RTVSPost2010Prop48
 90
       50
102
RTVSPost2010PropOp48
 70
     1
102
RTVSPost2010Prop49
280
     0
102
RTVSPost2010PropOp49
 70
     1
102
RTVSPost2010Prop50
 90
       50
102
RTVSPost2010PropOp50
 70
     1
102
RTVSPost2010Prop51ColorIndex
 90
      256
102
RTVSPost2010Prop51ColorRGB
 90
-16777216
102
RTVSPost2010PropOp51
 70
     0
102
RTVSPost2010Prop52
140
1.0
102
RTVSPost2010PropOp52
 70
     0
102
RTVSPost2010Prop53
 90
        2
102
RTVSPost2010PropOp53
 70
     1
102
RTVSPost2010Prop54
  1
strokes_ogs.tif
102
RTVSPost2010PropOp54
 70
     1
102
RTVSPost2010Prop55
280
     0
102
RTVSPost2010PropOp55
 70
     1
102
RTVSPost2010Prop56
140
1.0
102
RTVSPost2010PropOp56
 70
     1
102
RTVSPost2010Prop57
140
1.0
102
RTVSPost2010PropOp57
 70
     1
  0
XRECORD
  5
440
102
{ACAD_REACTORS
330
43F
102
}
330
43F
100
AcDbXrecord
280
     1
102
RTVSPost2010Prop28
280
     0
102
RTVSPost2010PropOp28
 70
     1
102
RTVSPost2010Prop29
280
     1
102
RTVSPost2010PropOp29
 70
     1
102
RTVSPost2010Prop30
280
     1
102
RTVSPost2010PropOp30
 70
     1
102
RTVSPost2010Prop31
280
     0
102
RTVSPost2010PropOp31
 70
     1
102
RTVSPost2010Prop32
280
     0
102
RTVSPost2010PropOp32
 70
     1
102
RTVSPost2010Prop33
280
     0
102
RTVSPost2010PropOp33
 70
     1
102
RTVSPost2010Prop34
280
     0
102
RTVSPost2010PropOp34
 70
     1
102
RTVSPost2010Prop35
280
     0
102
RTVSPost2010PropOp35
 70
     1
102
RTVSPost2010Prop36
280
     0
102
RTVSPost2010PropOp36
 70
     1
102
RTVSPost2010Prop37
 90
       50
102
RTVSPost2010PropOp37
 70
     1
102
RTVSPost2010Prop38
140
0.0
102
RTVSPost2010PropOp38
 70
     1
102
RTVSPost2010Prop39
140
1.0
102
RTVSPost2010PropOp39
 70
     1
102
RTVSPost2010Prop40
 90
        0
102
RTVSPost2010PropOp40
 70
     1
102
RTVSPost2010Prop41ColorIndex
 90
       18
102
RTVSPost2010Prop41ColorRGB
 90
        0
102
RTVSPost2010PropOp41
 70
     1
102
RTVSPost2010Prop42
 90
       50
102
RTVSPost2010PropOp42
 70
     1
102
RTVSPost2010Prop43
 90
        3
102
RTVSPost2010PropOp43
 70
     1
102
RTVSPost2010Prop44ColorIndex
 90
        5
102
RTVSPost2010Prop44ColorRGB
 90
      255
102
RTVSPost2010PropOp44
 70
     1
102
RTVSPost2010Prop45
280
     0
102
RTVSPost2010PropOp45
 70
     1
102
RTVSPost2010Prop46
 90
       50
102
RTVSPost2010PropOp46
 70
     1
102
RTVSPost2010Prop47
 90
       50
102
RTVSPost2010PropOp47
 70
     1
102
RTVSPost2010Prop48
 90
       50
102
RTVSPost2010PropOp48
 70
     1
102
RTVSPost2010Prop49
280
     0
102
RTVSPost2010PropOp49
 70
     1
102
RTVSPost2010Prop50
 90
       50
102
RTVSPost2010PropOp50
 70
     1
102
RTVSPost2010Prop51ColorIndex
 90
      256
102
RTVSPost2010Prop51ColorRGB
 90
-16777216
102
RTVSPost2010PropOp51
 70
     0
102
RTVSPost2010Prop52
140
1.0
102
RTVSPost2010PropOp52
 70
     0
102
RTVSPost2010Prop53
 90
        2
102
RTVSPost2010PropOp53
 70
     1
102
RTVSPost2010Prop54
  1
strokes_ogs.tif
102
RTVSPost2010PropOp54
 70
     1
102
RTVSPost2010Prop55
280
     0
102
RTVSPost2010PropOp55
 70
     1
102
RTVSPost2010Prop56
140
1.0
102
RTVSPost2010PropOp56
 70
     1
102
RTVSPost2010Prop57
140
1.0
102
RTVSPost2010PropOp57
 70
     1
  0
XRECORD
  5
43A
102
{ACAD_REACTORS
330
439
102
}
330
439
100
AcDbXrecord
280
     1
102
RTVSPost2010Prop28
280
     0
102
RTVSPost2010PropOp28
 70
     1
102
RTVSPost2010Prop29
280
     1
102
RTVSPost2010PropOp29
 70
     1
102
RTVSPost2010Prop30
280
     1
102
RTVSPost2010PropOp30
 70
     1
102
RTVSPost2010Prop31
280
     0
102
RTVSPost2010PropOp31
 70
     1
102
RTVSPost2010Prop32
280
     0
102
RTVSPost2010PropOp32
 70
     1
102
RTVSPost2010Prop33
280
     0
102
RTVSPost2010PropOp33
 70
     1
102
RTVSPost2010Prop34
280
     0
102
RTVSPost2010PropOp34
 70
     1
102
RTVSPost2010Prop35
280
     0
102
RTVSPost2010PropOp35
 70
     1
102
RTVSPost2010Prop36
280
     0
102
RTVSPost2010PropOp36
 70
     1
102
RTVSPost2010Prop37
 90
       50
102
RTVSPost2010PropOp37
 70
     1
102
RTVSPost2010Prop38
140
0.0
102
RTVSPost2010PropOp38
 70
     1
102
RTVSPost2010Prop39
140
1.0
102
RTVSPost2010PropOp39
 70
     1
102
RTVSPost2010Prop40
 90
        0
102
RTVSPost2010PropOp40
 70
     1
102
RTVSPost2010Prop41ColorIndex
 90
       18
102
RTVSPost2010Prop41ColorRGB
 90
        0
102
RTVSPost2010PropOp41
 70
     1
102
RTVSPost2010Prop42
 90
       50
102
RTVSPost2010PropOp42
 70
     1
102
RTVSPost2010Prop43
 90
        3
102
RTVSPost2010PropOp43
 70
     1
102
RTVSPost2010Prop44ColorIndex
 90
        5
102
RTVSPost2010Prop44ColorRGB
 90
      255
102
RTVSPost2010PropOp44
 70
     1
102
RTVSPost2010Prop45
280
     0
102
RTVSPost2010PropOp45
 70
     1
102
RTVSPost2010Prop46
 90
       50
102
RTVSPost2010PropOp46
 70
     1
102
RTVSPost2010Prop47
 90
       50
102
RTVSPost2010PropOp47
 70
     1
102
RTVSPost2010Prop48
 90
       50
102
RTVSPost2010PropOp48
 70
     1
102
RTVSPost2010Prop49
280
     0
102
RTVSPost2010PropOp49
 70
     1
102
RTVSPost2010Prop50
 90
       50
102
RTVSPost2010PropOp50
 70
     1
102
RTVSPost2010Prop51ColorIndex
 90
      256
102
RTVSPost2010Prop51ColorRGB
 90
-16777216
102
RTVSPost2010PropOp51
 70
     0
102
RTVSPost2010Prop52
140
1.0
102
RTVSPost2010PropOp52
 70
     0
102
RTVSPost2010Prop53
 90
        2
102
RTVSPost2010PropOp53
 70
     1
102
RTVSPost2010Prop54
  1
strokes_ogs.tif
102
RTVSPost2010PropOp54
 70
     1
102
RTVSPost2010Prop55
280
     0
102
RTVSPost2010PropOp55
 70
     1
102
RTVSPost2010Prop56
140
1.0
102
RTVSPost2010PropOp56
 70
     1
102
RTVSPost2010Prop57
140
1.0
102
RTVSPost2010PropOp57
 70
     1
  0
XRECORD
  5
43C
102
{ACAD_REACTORS
330
43B
102
}
330
43B
100
AcDbXrecord
280
     1
102
RTVSPost2010Prop28
280
     0
102
RTVSPost2010PropOp28
 70
     1
102
RTVSPost2010Prop29
280
     1
102
RTVSPost2010PropOp29
 70
     1
102
RTVSPost2010Prop30
280
     1
102
RTVSPost2010PropOp30
 70
     1
102
RTVSPost2010Prop31
280
     0
102
RTVSPost2010PropOp31
 70
     1
102
RTVSPost2010Prop32
280
     0
102
RTVSPost2010PropOp32
 70
     1
102
RTVSPost2010Prop33
280
     0
102
RTVSPost2010PropOp33
 70
     1
102
RTVSPost2010Prop34
280
     0
102
RTVSPost2010PropOp34
 70
     1
102
RTVSPost2010Prop35
280
     0
102
RTVSPost2010PropOp35
 70
     1
102
RTVSPost2010Prop36
280
     0
102
RTVSPost2010PropOp36
 70
     1
102
RTVSPost2010Prop37
 90
       50
102
RTVSPost2010PropOp37
 70
     1
102
RTVSPost2010Prop38
140
0.0
102
RTVSPost2010PropOp38
 70
     1
102
RTVSPost2010Prop39
140
1.0
102
RTVSPost2010PropOp39
 70
     1
102
RTVSPost2010Prop40
 90
        0
102
RTVSPost2010PropOp40
 70
     1
102
RTVSPost2010Prop41ColorIndex
 90
       18
102
RTVSPost2010Prop41ColorRGB
 90
        0
102
RTVSPost2010PropOp41
 70
     1
102
RTVSPost2010Prop42
 90
       50
102
RTVSPost2010PropOp42
 70
     1
102
RTVSPost2010Prop43
 90
        3
102
RTVSPost2010PropOp43
 70
     1
102
RTVSPost2010Prop44ColorIndex
 90
        5
102
RTVSPost2010Prop44ColorRGB
 90
      255
102
RTVSPost2010PropOp44
 70
     1
102
RTVSPost2010Prop45
280
     0
102
RTVSPost2010PropOp45
 70
     1
102
RTVSPost2010Prop46
 90
       50
102
RTVSPost2010PropOp46
 70
     1
102
RTVSPost2010Prop47
 90
       50
102
RTVSPost2010PropOp47
 70
     1
102
RTVSPost2010Prop48
 90
       50
102
RTVSPost2010PropOp48
 70
     1
102
RTVSPost2010Prop49
280
     0
102
RTVSPost2010PropOp49
 70
     1
102
RTVSPost2010Prop50
 90
       50
102
RTVSPost2010PropOp50
 70
     1
102
RTVSPost2010Prop51ColorIndex
 90
      256
102
RTVSPost2010Prop51ColorRGB
 90
-16777216
102
RTVSPost2010PropOp51
 70
     0
102
RTVSPost2010Prop52
140
1.0
102
RTVSPost2010PropOp52
 70
     0
102
RTVSPost2010Prop53
 90
        2
102
RTVSPost2010PropOp53
 70
     1
102
RTVSPost2010Prop54
  1
strokes_ogs.tif
102
RTVSPost2010PropOp54
 70
     1
102
RTVSPost2010Prop55
280
     0
102
RTVSPost2010PropOp55
 70
     1
102
RTVSPost2010Prop56
140
1.0
102
RTVSPost2010PropOp56
 70
     1
102
RTVSPost2010Prop57
140
1.0
102
RTVSPost2010PropOp57
 70
     1
  0
XRECORD
  5
432
102
{ACAD_REACTORS
330
431
102
}
330
431
100
AcDbXrecord
280
     1
102
RTVSPost2010Prop28
280
     0
102
RTVSPost2010PropOp28
 70
     1
102
RTVSPost2010Prop29
280
     1
102
RTVSPost2010PropOp29
 70
     1
102
RTVSPost2010Prop30
280
     1
102
RTVSPost2010PropOp30
 70
     1
102
RTVSPost2010Prop31
280
     0
102
RTVSPost2010PropOp31
 70
     1
102
RTVSPost2010Prop32
280
     0
102
RTVSPost2010PropOp32
 70
     1
102
RTVSPost2010Prop33
280
     0
102
RTVSPost2010PropOp33
 70
     1
102
RTVSPost2010Prop34
280
     0
102
RTVSPost2010PropOp34
 70
     1
102
RTVSPost2010Prop35
280
     0
102
RTVSPost2010PropOp35
 70
     1
102
RTVSPost2010Prop36
280
     0
102
RTVSPost2010PropOp36
 70
     1
102
RTVSPost2010Prop37
 90
       50
102
RTVSPost2010PropOp37
 70
     1
102
RTVSPost2010Prop38
140
0.0
102
RTVSPost2010PropOp38
 70
     1
102
RTVSPost2010Prop39
140
1.0
102
RTVSPost2010PropOp39
 70
     1
102
RTVSPost2010Prop40
 90
        0
102
RTVSPost2010PropOp40
 70
     1
102
RTVSPost2010Prop41ColorIndex
 90
       18
102
RTVSPost2010Prop41ColorRGB
 90
        0
102
RTVSPost2010PropOp41
 70
     1
102
RTVSPost2010Prop42
 90
       50
102
RTVSPost2010PropOp42
 70
     1
102
RTVSPost2010Prop43
 90
        3
102
RTVSPost2010PropOp43
 70
     1
102
RTVSPost2010Prop44ColorIndex
 90
        5
102
RTVSPost2010Prop44ColorRGB
 90
      255
102
RTVSPost2010PropOp44
 70
     1
102
RTVSPost2010Prop45
280
     0
102
RTVSPost2010PropOp45
 70
     1
102
RTVSPost2010Prop46
 90
       50
102
RTVSPost2010PropOp46
 70
     1
102
RTVSPost2010Prop47
 90
       50
102
RTVSPost2010PropOp47
 70
     1
102
RTVSPost2010Prop48
 90
       50
102
RTVSPost2010PropOp48
 70
     1
102
RTVSPost2010Prop49
280
     0
102
RTVSPost2010PropOp49
 70
     1
102
RTVSPost2010Prop50
 90
       50
102
RTVSPost2010PropOp50
 70
     1
102
RTVSPost2010Prop51ColorIndex
 90
      256
102
RTVSPost2010Prop51ColorRGB
 90
-16777216
102
RTVSPost2010PropOp51
 70
     0
102
RTVSPost2010Prop52
140
1.0
102
RTVSPost2010PropOp52
 70
     0
102
RTVSPost2010Prop53
 90
        2
102
RTVSPost2010PropOp53
 70
     1
102
RTVSPost2010Prop54
  1
strokes_ogs.tif
102
RTVSPost2010PropOp54
 70
     1
102
RTVSPost2010Prop55
280
     0
102
RTVSPost2010PropOp55
 70
     1
102
RTVSPost2010Prop56
140
1.0
102
RTVSPost2010PropOp56
 70
     1
102
RTVSPost2010Prop57
140
1.0
102
RTVSPost2010PropOp57
 70
     1
  0
XRECORD
  5
426
102
{ACAD_REACTORS
330
425
102
}
330
425
100
AcDbXrecord
280
     1
102
RTVSPost2010Prop28
280
     0
102
RTVSPost2010PropOp28
 70
     1
102
RTVSPost2010Prop29
280
     1
102
RTVSPost2010PropOp29
 70
     1
102
RTVSPost2010Prop30
280
     1
102
RTVSPost2010PropOp30
 70
     1
102
RTVSPost2010Prop31
280
     0
102
RTVSPost2010PropOp31
 70
     1
102
RTVSPost2010Prop32
280
     0
102
RTVSPost2010PropOp32
 70
     1
102
RTVSPost2010Prop33
280
     0
102
RTVSPost2010PropOp33
 70
     1
102
RTVSPost2010Prop34
280
     0
102
RTVSPost2010PropOp34
 70
     1
102
RTVSPost2010Prop35
280
     0
102
RTVSPost2010PropOp35
 70
     1
102
RTVSPost2010Prop36
280
     0
102
RTVSPost2010PropOp36
 70
     1
102
RTVSPost2010Prop37
 90
       50
102
RTVSPost2010PropOp37
 70
     1
102
RTVSPost2010Prop38
140
0.0
102
RTVSPost2010PropOp38
 70
     1
102
RTVSPost2010Prop39
140
1.0
102
RTVSPost2010PropOp39
 70
     1
102
RTVSPost2010Prop40
 90
        0
102
RTVSPost2010PropOp40
 70
     1
102
RTVSPost2010Prop41ColorIndex
 90
       18
102
RTVSPost2010Prop41ColorRGB
 90
        0
102
RTVSPost2010PropOp41
 70
     1
102
RTVSPost2010Prop42
 90
       50
102
RTVSPost2010PropOp42
 70
     1
102
RTVSPost2010Prop43
 90
        3
102
RTVSPost2010PropOp43
 70
     1
102
RTVSPost2010Prop44ColorIndex
 90
        5
102
RTVSPost2010Prop44ColorRGB
 90
      255
102
RTVSPost2010PropOp44
 70
     1
102
RTVSPost2010Prop45
280
     0
102
RTVSPost2010PropOp45
 70
     1
102
RTVSPost2010Prop46
 90
       50
102
RTVSPost2010PropOp46
 70
     1
102
RTVSPost2010Prop47
 90
       50
102
RTVSPost2010PropOp47
 70
     1
102
RTVSPost2010Prop48
 90
       50
102
RTVSPost2010PropOp48
 70
     1
102
RTVSPost2010Prop49
280
     0
102
RTVSPost2010PropOp49
 70
     1
102
RTVSPost2010Prop50
 90
       50
102
RTVSPost2010PropOp50
 70
     1
102
RTVSPost2010Prop51ColorIndex
 90
      256
102
RTVSPost2010Prop51ColorRGB
 90
-16777216
102
RTVSPost2010PropOp51
 70
     0
102
RTVSPost2010Prop52
140
1.0
102
RTVSPost2010PropOp52
 70
     0
102
RTVSPost2010Prop53
 90
        2
102
RTVSPost2010PropOp53
 70
     1
102
RTVSPost2010Prop54
  1
strokes_ogs.tif
102
RTVSPost2010PropOp54
 70
     1
102
RTVSPost2010Prop55
280
     0
102
RTVSPost2010PropOp55
 70
     1
102
RTVSPost2010Prop56
140
1.0
102
RTVSPost2010PropOp56
 70
     1
102
RTVSPost2010Prop57
140
1.0
102
RTVSPost2010PropOp57
 70
     1
  0
XRECORD
  5
43E
102
{ACAD_REACTORS
330
43D
102
}
330
43D
100
AcDbXrecord
280
     1
102
RTVSPost2010Prop28
280
     0
102
RTVSPost2010PropOp28
 70
     1
102
RTVSPost2010Prop29
280
     1
102
RTVSPost2010PropOp29
 70
     1
102
RTVSPost2010Prop30
280
     1
102
RTVSPost2010PropOp30
 70
     1
102
RTVSPost2010Prop31
280
     0
102
RTVSPost2010PropOp31
 70
     1
102
RTVSPost2010Prop32
280
     0
102
RTVSPost2010PropOp32
 70
     1
102
RTVSPost2010Prop33
280
     0
102
RTVSPost2010PropOp33
 70
     1
102
RTVSPost2010Prop34
280
     0
102
RTVSPost2010PropOp34
 70
     1
102
RTVSPost2010Prop35
280
     0
102
RTVSPost2010PropOp35
 70
     1
102
RTVSPost2010Prop36
280
     0
102
RTVSPost2010PropOp36
 70
     1
102
RTVSPost2010Prop37
 90
       50
102
RTVSPost2010PropOp37
 70
     1
102
RTVSPost2010Prop38
140
0.0
102
RTVSPost2010PropOp38
 70
     1
102
RTVSPost2010Prop39
140
1.0
102
RTVSPost2010PropOp39
 70
     1
102
RTVSPost2010Prop40
 90
        0
102
RTVSPost2010PropOp40
 70
     1
102
RTVSPost2010Prop41ColorIndex
 90
       18
102
RTVSPost2010Prop41ColorRGB
 90
        0
102
RTVSPost2010PropOp41
 70
     1
102
RTVSPost2010Prop42
 90
       50
102
RTVSPost2010PropOp42
 70
     1
102
RTVSPost2010Prop43
 90
        3
102
RTVSPost2010PropOp43
 70
     1
102
RTVSPost2010Prop44ColorIndex
 90
        5
102
RTVSPost2010Prop44ColorRGB
 90
      255
102
RTVSPost2010PropOp44
 70
     1
102
RTVSPost2010Prop45
280
     0
102
RTVSPost2010PropOp45
 70
     1
102
RTVSPost2010Prop46
 90
       50
102
RTVSPost2010PropOp46
 70
     1
102
RTVSPost2010Prop47
 90
       50
102
RTVSPost2010PropOp47
 70
     1
102
RTVSPost2010Prop48
 90
       50
102
RTVSPost2010PropOp48
 70
     1
102
RTVSPost2010Prop49
280
     0
102
RTVSPost2010PropOp49
 70
     1
102
RTVSPost2010Prop50
 90
       50
102
RTVSPost2010PropOp50
 70
     1
102
RTVSPost2010Prop51ColorIndex
 90
      256
102
RTVSPost2010Prop51ColorRGB
 90
-16777216
102
RTVSPost2010PropOp51
 70
     0
102
RTVSPost2010Prop52
140
1.0
102
RTVSPost2010PropOp52
 70
     0
102
RTVSPost2010Prop53
 90
        2
102
RTVSPost2010PropOp53
 70
     1
102
RTVSPost2010Prop54
  1
strokes_ogs.tif
102
RTVSPost2010PropOp54
 70
     1
102
RTVSPost2010Prop55
280
     0
102
RTVSPost2010PropOp55
 70
     1
102
RTVSPost2010Prop56
140
1.0
102
RTVSPost2010PropOp56
 70
     1
102
RTVSPost2010Prop57
140
1.0
102
RTVSPost2010PropOp57
 70
     1
  0
ENDSEC
  0
EOF
