  0
SECTION
  2
HEADER
  9
$ACADVER
  1
AC1024
  9
$ACADMAINTVER
 70
   182
  9
$DWGCODEPAGE
  3
ANSI_1252
  9
$LASTSAVEDBY
  1
gf659
  9
$INSBASE
 10
0.0
 20
0.0
 30
0.0
  9
$EXTMIN
 10
0.0
 20
-17.974777060097
 30
0.0
  9
$EXTMAX
 10
419.9998589409721
 20
298.7101047092013
 30
0.0
  9
$LIMMIN
 10
0.0
 20
0.0
  9
$LIMMAX
 10
419.9998589409721
 20
298.7101047092013
  9
$ORTHOMODE
 70
     0
  9
$REGENMODE
 70
     1
  9
$FILLMODE
 70
     1
  9
$QTEXTMODE
 70
     0
  9
$MIRRTEXT
 70
     1
  9
$LTSCALE
 40
1.0
  9
$ATTMODE
 70
     1
  9
$TEXTSIZE
 40
0.0
  9
$TRACEWID
 40
0.05
  9
$TEXTSTYLE
  7
Standard
  9
$CLAYER
  8
0
  9
$CELTYPE
  6
Continuous
  9
$CECOLOR
 62
   256
  9
$CELTSCALE
 40
1.0
  9
$DISPSILH
 70
     0
  9
$DIMSCALE
 40
1.0
  9
$DIMASZ
 40
0.18
  9
$DIMEXO
 40
0.0625
  9
$DIMDLI
 40
0.38
  9
$DIMRND
 40
0.0
  9
$DIMDLE
 40
0.0
  9
$DIMEXE
 40
0.18
  9
$DIMTP
 40
0.0
  9
$DIMTM
 40
0.0
  9
$DIMTXT
 40
0.18
  9
$DIMCEN
 40
0.09
  9
$DIMTSZ
 40
0.0
  9
$DIMTOL
 70
     0
  9
$DIMLIM
 70
     0
  9
$DIMTIH
 70
     1
  9
$DIMTOH
 70
     1
  9
$DIMSE1
 70
     0
  9
$DIMSE2
 70
     0
  9
$DIMTAD
 70
     0
  9
$DIMZIN
 70
     0
  9
$DIMBLK
  1

  9
$DIMASO
 70
     1
  9
$DIMSHO
 70
     1
  9
$DIMPOST
  1

  9
$DIMAPOST
  1

  9
$DIMALT
 70
     0
  9
$DIMALTD
 70
     2
  9
$DIMALTF
 40
25.4
  9
$DIMLFAC
 40
1.0
  9
$DIMTOFL
 70
     0
  9
$DIMTVP
 40
0.0
  9
$DIMTIX
 70
     0
  9
$DIMSOXD
 70
     0
  9
$DIMSAH
 70
     0
  9
$DIMBLK1
  1

  9
$DIMBLK2
  1

  9
$DIMSTYLE
  2
Standard
  9
$DIMCLRD
 70
     0
  9
$DIMCLRE
 70
     0
  9
$DIMCLRT
 70
     0
  9
$DIMTFAC
 40
1.0
  9
$DIMGAP
 40
0.09
  9
$DIMJUST
 70
     0
  9
$DIMSD1
 70
     0
  9
$DIMSD2
 70
     0
  9
$DIMTOLJ
 70
     1
  9
$DIMTZIN
 70
     0
  9
$DIMALTZ
 70
     0
  9
$DIMALTTZ
 70
     0
  9
$DIMUPT
 70
     0
  9
$DIMDEC
 70
     4
  9
$DIMTDEC
 70
     4
  9
$DIMALTU
 70
     2
  9
$DIMALTTD
 70
     2
  9
$DIMTXSTY
  7
Standard
  9
$DIMAUNIT
 70
     0
  9
$DIMADEC
 70
     0
  9
$DIMALTRND
 40
0.0
  9
$DIMAZIN
 70
     0
  9
$DIMDSEP
 70
     0
  9
$DIMATFIT
 70
     3
  9
$DIMFRAC
 70
     0
  9
$DIMLDRBLK
  1

  9
$DIMLUNIT
 70
     2
  9
$DIMLWD
 70
     0
  9
$DIMLWE
 70
     0
  9
$DIMTMOVE
 70
     0
  9
$DIMFXL
 40
1.0
  9
$DIMFXLON
 70
     0
  9
$DIMJOGANG
 40
0.7853981633974483
  9
$DIMTFILL
 70
     0
  9
$DIMTFILLCLR
 70
     0
  9
$DIMARCSYM
 70
     0
  9
$DIMLTYPE
  6

  9
$DIMLTEX1
  6

  9
$DIMLTEX2
  6

  9
$DIMTXTDIRECTION
 70
     0
  9
$LUNITS
 70
     2
  9
$LUPREC
 70
     4
  9
$SKETCHINC
 40
0.1
  9
$FILLETRAD
 40
0.0
  9
$AUNITS
 70
     0
  9
$AUPREC
 70
     0
  9
$MENU
  1
acad
  9
$ELEVATION
 40
0.0
  9
$PELEVATION
 40
0.0
  9
$THICKNESS
 40
0.0
  9
$LIMCHECK
 70
     0
  9
$CHAMFERA
 40
0.0
  9
$CHAMFERB
 40
0.0
  9
$CHAMFERC
 40
0.0
  9
$CHAMFERD
 40
0.0
  9
$SKPOLY
 70
     0
  9
$TDCREATE
 40
2457267.510139005
  9
$TDUCREATE
 40
2457267.468472338
  9
$TDUPDATE
 40
2457267.510272223
  9
$TDUUPDATE
 40
2457267.468605556
  9
$TDINDWG
 40
0.0001353241
  9
$TDUSRTIMER
 40
0.0001353241
  9
$USRTIMER
 70
     1
  9
$ANGBASE
 50
0.0
  9
$ANGDIR
 70
     0
  9
$PDMODE
 70
     0
  9
$PDSIZE
 40
0.0
  9
$PLINEWID
 40
0.0
  9
$SPLFRAME
 70
     0
  9
$SPLINETYPE
 70
     6
  9
$SPLINESEGS
 70
     8
  9
$HANDSEED
  5
4D6
  9
$SURFTAB1
 70
     6
  9
$SURFTAB2
 70
     6
  9
$SURFTYPE
 70
     6
  9
$SURFU
 70
     6
  9
$SURFV
 70
     6
  9
$UCSBASE
  2

  9
$UCSNAME
  2

  9
$UCSORG
 10
0.0
 20
0.0
 30
0.0
  9
$UCSXDIR
 10
1.0
 20
0.0
 30
0.0
  9
$UCSYDIR
 10
0.0
 20
1.0
 30
0.0
  9
$UCSORTHOREF
  2

  9
$UCSORTHOVIEW
 70
     0
  9
$UCSORGTOP
 10
0.0
 20
0.0
 30
0.0
  9
$UCSORGBOTTOM
 10
0.0
 20
0.0
 30
0.0
  9
$UCSORGLEFT
 10
0.0
 20
0.0
 30
0.0
  9
$UCSORGRIGHT
 10
0.0
 20
0.0
 30
0.0
  9
$UCSORGFRONT
 10
0.0
 20
0.0
 30
0.0
  9
$UCSORGBACK
 10
0.0
 20
0.0
 30
0.0
  9
$PUCSBASE
  2

  9
$PUCSNAME
  2

  9
$PUCSORG
 10
0.0
 20
0.0
 30
0.0
  9
$PUCSXDIR
 10
1.0
 20
0.0
 30
0.0
  9
$PUCSYDIR
 10
0.0
 20
1.0
 30
0.0
  9
$PUCSORTHOREF
  2

  9
$PUCSORTHOVIEW
 70
     0
  9
$PUCSORGTOP
 10
0.0
 20
0.0
 30
0.0
  9
$PUCSORGBOTTOM
 10
0.0
 20
0.0
 30
0.0
  9
$PUCSORGLEFT
 10
0.0
 20
0.0
 30
0.0
  9
$PUCSORGRIGHT
 10
0.0
 20
0.0
 30
0.0
  9
$PUCSORGFRONT
 10
0.0
 20
0.0
 30
0.0
  9
$PUCSORGBACK
 10
0.0
 20
0.0
 30
0.0
  9
$USERI1
 70
     0
  9
$USERI2
 70
     0
  9
$USERI3
 70
     0
  9
$USERI4
 70
     0
  9
$USERI5
 70
     0
  9
$USERR1
 40
0.0
  9
$USERR2
 40
0.0
  9
$USERR3
 40
0.0
  9
$USERR4
 40
0.0
  9
$USERR5
 40
0.0
  9
$WORLDVIEW
 70
     1
  9
$SHADEDGE
 70
     3
  9
$SHADEDIF
 70
    70
  9
$TILEMODE
 70
     1
  9
$MAXACTVP
 70
    16
  9
$PINSBASE
 10
0.0
 20
0.0
 30
0.0
  9
$PLIMCHECK
 70
     0
  9
$PEXTMIN
 10
1.000000000000000E+20
 20
1.000000000000000E+20
 30
1.000000000000000E+20
  9
$PEXTMAX
 10
-1.000000000000000E+20
 20
-1.000000000000000E+20
 30
-1.000000000000000E+20
  9
$PLIMMIN
 10
0.0
 20
0.0
  9
$PLIMMAX
 10
12.0
 20
9.0
  9
$UNITMODE
 70
     0
  9
$VISRETAIN
 70
     0
  9
$PLINEGEN
 70
     1
  9
$PSLTSCALE
 70
     0
  9
$TREEDEPTH
 70
  3020
  9
$CMLSTYLE
  2
Standard
  9
$CMLJUST
 70
     0
  9
$CMLSCALE
 40
1.0
  9
$PROXYGRAPHICS
 70
     0
  9
$MEASUREMENT
 70
     1
  9
$CELWEIGHT
370
     0
  9
$ENDCAPS
280
     0
  9
$JOINSTYLE
280
     0
  9
$LWDISPLAY
290
     0
  9
$INSUNITS
 70
     0
  9
$HYPERLINKBASE
  1

  9
$STYLESHEET
  1

  9
$XEDIT
290
     1
  9
$CEPSNTYPE
380
     0
  9
$PSTYLEMODE
290
     1
  9
$FINGERPRINTGUID
  2

  9
$VERSIONGUID
  2

  9
$EXTNAMES
290
     1
  9
$PSVPSCALE
 40
0.0
  9
$OLESTARTUP
290
     0
  9
$SORTENTS
280
   127
  9
$INDEXCTL
280
     0
  9
$HIDETEXT
280
     0
  9
$XCLIPFRAME
280
     2
  9
$HALOGAP
280
     0
  9
$OBSCOLOR
 70
   257
  9
$OBSLTYPE
280
     0
  9
$INTERSECTIONDISPLAY
280
     0
  9
$INTERSECTIONCOLOR
 70
   257
  9
$DIMASSOC
280
     1
  9
$PROJECTNAME
  1

  9
$CAMERADISPLAY
290
     0
  9
$LENSLENGTH
 40
50.0
  9
$CAMERAHEIGHT
 40
0.0
  9
$STEPSPERSEC
 40
2.0
  9
$STEPSIZE
 40
6.0
  9
$3DDWFPREC
 40
2.0
  9
$PSOLWIDTH
 40
0.25
  9
$PSOLHEIGHT
 40
4.0
  9
$LOFTANG1
 40
1.570796326794896
  9
$LOFTANG2
 40
1.570796326794896
  9
$LOFTMAG1
 40
0.0
  9
$LOFTMAG2
 40
0.0
  9
$LOFTPARAM
 70
     7
  9
$LOFTNORMALS
280
     1
  9
$LATITUDE
 40
37.795
  9
$LONGITUDE
 40
-122.394
  9
$NORTHDIRECTION
 40
0.0
  9
$TIMEZONE
 70
 -8000
  9
$LIGHTGLYPHDISPLAY
280
     1
  9
$TILEMODELIGHTSYNCH
280
     1
  9
$CMATERIAL
347
3FC
  9
$SOLIDHIST
280
     0
  9
$SHOWHIST
280
     1
  9
$DWFFRAME
280
     2
  9
$DGNFRAME
280
     0
  9
$REALWORLDSCALE
290
     1
  9
$INTERFERECOLOR
 62
     1
  9
$INTERFEREOBJVS
345
41E
  9
$INTERFEREVPVS
346
41B
  9
$CSHADOW
280
     0
  9
$SHADOWPLANELOCATION
 40
0.0
  0
ENDSEC
  0
SECTION
  2
CLASSES
  0
CLASS
  1
IMAGE
  2
AcDbRasterImage
  3
ISM
 90
     2175
 91
        3
280
     0
281
     1
  0
CLASS
  1
DICTIONARYVAR
  2
AcDbDictionaryVar
  3
ObjectDBX Classes
 90
        0
 91
       18
280
     0
281
     0
  0
CLASS
  1
RASTERVARIABLES
  2
AcDbRasterVariables
  3
ISM
 90
        0
 91
        1
280
     0
281
     0
  0
CLASS
  1
IMAGEDEF
  2
AcDbRasterImageDef
  3
ISM
 90
        0
 91
        3
280
     0
281
     0
  0
CLASS
  1
IMAGEDEF_REACTOR
  2
AcDbRasterImageDefReactor
  3
ISM
 90
        1
 91
        3
280
     0
281
     0
  0
CLASS
  1
IDBUFFER
  2
AcDbIdBuffer
  3
ObjectDBX Classes
 90
        0
 91
        0
280
     0
281
     0
  0
CLASS
  1
SPATIAL_FILTER
  2
AcDbSpatialFilter
  3
ObjectDBX Classes
 90
        0
 91
        0
280
     0
281
     0
  0
CLASS
  1
SORTENTSTABLE
  2
AcDbSortentsTable
  3
ObjectDBX Classes
 90
        0
 91
        0
280
     0
281
     0
  0
CLASS
  1
LAYER_INDEX
  2
AcDbLayerIndex
  3
ObjectDBX Classes
 90
        0
 91
        0
280
     0
281
     0
  0
CLASS
  1
SPATIAL_INDEX
  2
AcDbSpatialIndex
  3
ObjectDBX Classes
 90
        0
 91
        0
280
     0
281
     0
  0
CLASS
  1
OBJECT_PTR
  2
CAseDLPNTableRecord
  3
"ASE-LPNTableRecord"
 90
        1
 91
        0
280
     0
281
     0
  0
CLASS
  1
PLOTSETTINGS
  2
AcDbPlotSettings
  3
ObjectDBX Classes
 90
        0
 91
        0
280
     0
281
     0
  0
CLASS
  1
ACDBDICTIONARYWDFLT
  2
AcDbDictionaryWithDefault
  3
ObjectDBX Classes
 90
        0
 91
        1
280
     0
281
     0
  0
CLASS
  1
WIPEOUT
  2
AcDbWipeout
  3
WipeOut|Product Desc: Object Enabler for WipeOut entity | Company: Autodesk, Inc. | WEB Address: www.autodesk.com
 90
     2175
 91
        0
280
     0
281
     1
  0
CLASS
  1
WIPEOUTVARIABLES
  2
AcDbWipeoutVariables
  3
"WipeOut|Product Desc:     WipeOut Dbx Application|Company:          Autodesk, Inc.|WEB Address:      www.autodesk.com"
 90
        0
 91
        1
280
     0
281
     0
  0
CLASS
  1
RTEXT
  2
RText
  3
RText|AutoCAD Express Tool|expresstools@autodesk.com
 90
        0
 91
        0
280
     0
281
     1
  0
CLASS
  1
ARCALIGNEDTEXT
  2
AcDbArcAlignedText
  3
ATEXT|AutoCAD Express Tool|expresstools@autodesk.com
 90
        0
 91
        0
280
     0
281
     1
  0
CLASS
  1
MATERIAL
  2
AcDbMaterial
  3
ObjectDBX Classes
 90
     1153
 91
        3
280
     0
281
     0
  0
CLASS
  1
VISUALSTYLE
  2
AcDbVisualStyle
  3
ObjectDBX Classes
 90
     4095
 91
       24
280
     0
281
     0
  0
CLASS
  1
TABLESTYLE
  2
AcDbTableStyle
  3
ObjectDBX Classes
 90
     4095
 91
        1
280
     0
281
     0
  0
CLASS
  1
SCALE
  2
AcDbScale
  3
ObjectDBX Classes
 90
     1153
 91
       17
280
     0
281
     0
  0
CLASS
  1
MLEADERSTYLE
  2
AcDbMLeaderStyle
  3
ACDB_MLEADERSTYLE_CLASS
 90
     4095
 91
        1
280
     0
281
     0
  0
CLASS
  1
ACDBSECTIONVIEWSTYLE
  2
AcDbSectionViewStyle
  3
ObjectDBX Classes
 90
     1025
 91
        1
280
     0
281
     0
  0
CLASS
  1
ACDBDETAILVIEWSTYLE
  2
AcDbDetailViewStyle
  3
ObjectDBX Classes
 90
     1025
 91
        1
280
     0
281
     0
  0
CLASS
  1
CELLSTYLEMAP
  2
AcDbCellStyleMap
  3
ObjectDBX Classes
 90
     1152
 91
        1
280
     0
281
     0
  0
ENDSEC
  0
SECTION
  2
TABLES
  0
TABLE
  2
VPORT
  5
7
330
0
100
AcDbSymbolTable
 70
     1
  0
VPORT
  5
15
330
7
100
AcDbSymbolTableRecord
100
AcDbViewportTableRecord
  2
*ACTIVE
 70
     0
 10
0.0
 20
0.0
 11
1.0
 21
1.0
 12
11.16643954103877
 22
4.579183999999999
 13
0.0
 23
0.0
 14
1.0
 24
1.0
 15
0.0
 25
0.0
 16
0.0
 26
0.0
 36
1.0
 17
0.0
 27
0.0
 37
0.0
 40
8.769507065885798
 41
1.762633996937212
 42
50.0
 43
0.0
 44
0.0
 50
0.0
 51
0.0
 71
     0
 72
   100
 73
     1
 74
     1
 75
     0
 76
     0
 77
     0
 78
     0
281
     0
 65
     0
110
0.0
120
0.0
130
0.0
111
1.0
121
0.0
131
0.0
112
0.0
122
1.0
132
0.0
 79
     0
146
0.0
348
41A
 60
     3
 61
     5
292
     1
282
     1
141
0.0
142
0.0
 63
   250
421
  3355443
1001
ACAD_NAV_VCDISPLAY
1070
     3
  0
ENDTAB
  0
TABLE
  2
LTYPE
  5
4
330
0
100
AcDbSymbolTable
 70
     6
  0
LTYPE
  5
11
330
4
100
AcDbSymbolTableRecord
100
AcDbLinetypeTableRecord
  2
ByBlock
 70
     0
  3

 72
    65
 73
     0
 40
0.0
  0
LTYPE
  5
12
330
4
100
AcDbSymbolTableRecord
100
AcDbLinetypeTableRecord
  2
ByLayer
 70
     0
  3

 72
    65
 73
     0
 40
0.0
  0
LTYPE
  5
13
330
4
100
AcDbSymbolTableRecord
100
AcDbLinetypeTableRecord
  2
Continuous
 70
     0
  3
Solid line
 72
    65
 73
     0
 40
0.0
  0
LTYPE
  5
78
330
4
100
AcDbSymbolTableRecord
100
AcDbLinetypeTableRecord
  2
AI9-LType1
 70
     0
  3
Illustrator Dash Style No.1
 72
    65
 73
     4
 40
3.880555555555555
 49
1.058333333333333
 74
     0
 49
-1.058333333333333
 74
     0
 49
1.058333333333333
 74
     0
 49
-0.7055555555555556
 74
     0
  0
LTYPE
  5
93
330
4
100
AcDbSymbolTableRecord
100
AcDbLinetypeTableRecord
  2
AI9-LType2
 70
     0
  3
Illustrator Dash Style No.2
 72
    65
 73
     4
 40
4.233333333333332
 49
1.058333333333333
 74
     0
 49
-1.058333333333333
 74
     0
 49
1.058333333333333
 74
     0
 49
-1.058333333333333
 74
     0
  0
LTYPE
  5
2C0
330
4
100
AcDbSymbolTableRecord
100
AcDbLinetypeTableRecord
  2
AI9-LType3
 70
     0
  3
Illustrator Dash Style No.3
 72
    65
 73
     4
 40
3.174999999999999
 49
0.3527777777777778
 74
     0
 49
-0.7055555555555556
 74
     0
 49
1.41111111111111
 74
     0
 49
-0.7055555555555556
 74
     0
  0
LTYPE
  5
2D3
330
4
100
AcDbSymbolTableRecord
100
AcDbLinetypeTableRecord
  2
AI9-LType4
 70
     0
  3
Illustrator Dash Style No.4
 72
    65
 73
     4
 40
3.174999999999999
 49
0.3527777777777778
 74
     0
 49
-0.7055555555555556
 74
     0
 49
1.41111111111111
 74
     0
 49
-0.7055555555555556
 74
     0
  0
LTYPE
  5
346
330
4
100
AcDbSymbolTableRecord
100
AcDbLinetypeTableRecord
  2
AI9-LType5
 70
     0
  3
Illustrator Dash Style No.5
 72
    65
 73
     4
 40
3.174999999999999
 49
0.3527777777777778
 74
     0
 49
-0.7055555555555556
 74
     0
 49
1.41111111111111
 74
     0
 49
-0.7055555555555556
 74
     0
  0
ENDTAB
  0
TABLE
  2
LAYER
  5
2
330
0
100
AcDbSymbolTable
 70
     2
  0
LAYER
  5
14
102
{ACAD_XDICTIONARY
360
44E
102
}
330
2
100
AcDbSymbolTableRecord
100
AcDbLayerTableRecord
  2
0
 70
     0
 62
     7
  6
Continuous
370
    -3
390
1D
347
40C
  0
LAYER
  5
28
102
{ACAD_XDICTIONARY
360
450
102
}
330
2
100
AcDbSymbolTableRecord
100
AcDbLayerTableRecord
  2
LAYER_1
 70
     0
 62
   160
  6
Continuous
370
    -3
390
1D
347
40C
  0
ENDTAB
  0
TABLE
  2
STYLE
  5
3
330
0
100
AcDbSymbolTable
 70
     5
  0
STYLE
  5
17
330
3
100
AcDbSymbolTableRecord
100
AcDbTextStyleTableRecord
  2
Standard
 70
     0
 40
0.0
 41
1.0
 50
0.0
 71
     0
 42
0.0
  3
txt
  4

  0
STYLE
  5
24
330
3
100
AcDbSymbolTableRecord
100
AcDbTextStyleTableRecord
  2
STD
 70
     0
 40
0.0
 41
1.0
 50
0.0
 71
     0
 42
0.0
  3
txt
  4

  0
STYLE
  5
25
330
3
100
AcDbSymbolTableRecord
100
AcDbTextStyleTableRecord
  2
TATESTD
 70
     4
 40
0.0
 41
1.0
 50
0.0
 71
     0
 42
0.0
  3
txt
  4

  0
STYLE
  5
26
330
3
100
AcDbSymbolTableRecord
100
AcDbTextStyleTableRecord
  2
KANJISTD
 70
     0
 40
0.0
 41
1.0
 50
0.0
 71
     0
 42
0.0
  3
txt
  4
extfont
  0
STYLE
  5
27
330
3
100
AcDbSymbolTableRecord
100
AcDbTextStyleTableRecord
  2
KANJITATE
 70
     4
 40
0.0
 41
1.0
 50
0.0
 71
     0
 42
0.0
  3
txt
  4
extfont
  0
ENDTAB
  0
TABLE
  2
VIEW
  5
5
330
0
100
AcDbSymbolTable
 70
     0
  0
ENDTAB
  0
TABLE
  2
UCS
  5
6
330
0
100
AcDbSymbolTable
 70
     0
  0
ENDTAB
  0
TABLE
  2
APPID
  5
8
330
0
100
AcDbSymbolTable
 70
     2
  0
APPID
  5
16
330
8
100
AcDbSymbolTableRecord
100
AcDbRegAppTableRecord
  2
ACAD
 70
     0
  0
APPID
  5
452
330
8
100
AcDbSymbolTableRecord
100
AcDbRegAppTableRecord
  2
ACAD_NAV_VCDISPLAY
 70
     0
  0
ENDTAB
  0
TABLE
  2
DIMSTYLE
  5
9
330
0
100
AcDbSymbolTable
 70
     1
100
AcDbDimStyleTable
 71
     0
  0
DIMSTYLE
105
18
330
9
100
AcDbSymbolTableRecord
100
AcDbDimStyleTableRecord
  2
Standard
 70
     0
289
     0
340
17
  0
ENDTAB
  0
TABLE
  2
BLOCK_RECORD
  5
1
330
0
100
AcDbSymbolTable
 70
     3
  0
BLOCK_RECORD
  5
A
330
1
100
AcDbSymbolTableRecord
100
AcDbBlockTableRecord
  2
*MODEL_SPACE
340
20
 70
     0
280
     1
281
     0
  0
BLOCK_RECORD
  5
B
330
1
100
AcDbSymbolTableRecord
100
AcDbBlockTableRecord
  2
*PAPER_SPACE
340
21
 70
     0
280
     1
281
     0
  0
BLOCK_RECORD
  5
BD
330
1
100
AcDbSymbolTableRecord
100
AcDbBlockTableRecord
  2
AI9-BLK1
340
0
102
{BLKREFS
331
BE
102
}
 70
     0
280
     1
281
     0
  0
BLOCK_RECORD
  5
C4
330
1
100
AcDbSymbolTableRecord
100
AcDbBlockTableRecord
  2
AI9-BLK2
340
0
102
{BLKREFS
331
C5
102
}
 70
     0
280
     1
281
     0
  0
BLOCK_RECORD
  5
3C8
330
1
100
AcDbSymbolTableRecord
100
AcDbBlockTableRecord
  2
AI9-BLK3
340
0
102
{BLKREFS
331
3C9
102
}
 70
     0
280
     1
281
     0
  0
ENDTAB
  0
ENDSEC
  0
SECTION
  2
BLOCKS
  0
BLOCK
  5
D
330
A
100
AcDbEntity
  8
0
100
AcDbBlockBegin
  2
*MODEL_SPACE
 70
     0
 10
0.0
 20
0.0
 30
0.0
  3
*MODEL_SPACE
  1

  0
ENDBLK
  5
E
330
A
100
AcDbEntity
  8
0
100
AcDbBlockEnd
  0
BLOCK
  5
F
330
B
100
AcDbEntity
 67
     1
  8
0
100
AcDbBlockBegin
  2
*PAPER_SPACE
 70
     0
 10
0.0
 20
0.0
 30
0.0
  3
*PAPER_SPACE
  1

  0
ENDBLK
  5
10
330
B
100
AcDbEntity
 67
     1
  8
0
100
AcDbBlockEnd
  0
BLOCK
  5
BF
330
BD
100
AcDbEntity
  8
LAYER_1
 62
     7
100
AcDbBlockBegin
  2
AI9-BLK1
 70
     0
 10
0.0
 20
0.0
 30
0.0
  3
AI9-BLK1
  1

  0
IMAGE
  5
C0
330
BD
100
AcDbEntity
  8
LAYER_1
  6
AI9-LType1
 62
     7
160
               296
310
28010000030000009400000024000000AAAAAAAA59824DC0B5600BE6BF2146C0000000000000008000000000000000000000000000000000000000000000F03F000000000000F03F000000000000000000000000000000000000000000000000000000000000F03F0000000000000000410063004400620052006100730074
310
006500720049006D0061006700650020002800490053004D0029000000840000000600000005000000AAAAAAAA59824DC0B5600BE6BF2146C00000000000000080E2388E2356824D40B5600BE6BF2146C00000000000000080E2388E2356824D40F5499FF4C32146400000000000000080AAAAAAAA59824DC0F5499FF4C321
310
46400000000000000080AAAAAAAA59824DC0B5600BE6BF2146C000000000000000800800000015000000
100
AcDbRasterImage
 90
        0
 10
-59.0183614095052
 20
-44.26366878085665
 30
0.0
 11
0.0461080527967877
 21
0.0
 31
0.0
 12
0.0
 22
0.0461080527967877
 32
0.0
 13
2560.0
 23
1920.0
340
C2
 70
     7
280
     0
281
    50
282
    50
283
     0
290
     0
360
C1
 71
     1
 91
        2
 14
-0.5
 24
-0.5
 14
2559.5
 24
1919.5
  0
ENDBLK
  5
C3
330
BD
100
AcDbEntity
  8
LAYER_1
100
AcDbBlockEnd
  0
BLOCK
  5
C6
330
C4
100
AcDbEntity
  8
LAYER_1
 62
     7
100
AcDbBlockBegin
  2
AI9-BLK2
 70
     0
 10
0.0
 20
0.0
 30
0.0
  3
AI9-BLK2
  1

  0
IMAGE
  5
C7
330
C4
100
AcDbEntity
  8
LAYER_1
 62
     7
160
               296
310
28010000030000009400000024000000499FF449E1594DC0C7711CF76B0346C0000000000000008000000000000000000000000000000000000000000000F03F000000000000F03F000000000000000000000000000000000000000000000000000000000000F03F0000000000000000410063004400620052006100730074
310
006500720049006D0061006700650020002800490053004D0029000000840000000600000005000000499FF449E1594DC0C7711CF76B0346C00000000000000080277DD267E3594D40C7711CF76B0346C00000000000000080277DD267E3594D408DE3388E670346400000000000000080499FF449E1594DC08DE3388E6703
310
46400000000000000080499FF449E1594DC0C7711CF76B0346C000000000000000800800000015000000
100
AcDbRasterImage
 90
        0
 10
-58.70218777126735
 20
-44.02673233879936
 30
0.0
 11
0.0458611094289356
 21
0.0
 31
0.0
 12
0.0
 22
0.0458611094289356
 32
0.0
 13
2560.0
 23
1920.0
340
C9
 70
     7
280
     0
281
    50
282
    50
283
     0
290
     0
360
C8
 71
     1
 91
        2
 14
-0.5
 24
-0.5
 14
2559.5
 24
1919.5
  0
ENDBLK
  5
CA
330
C4
100
AcDbEntity
  8
LAYER_1
100
AcDbBlockEnd
  0
BLOCK
  5
3CA
330
3C8
100
AcDbEntity
  8
LAYER_1
 62
     7
100
AcDbBlockBegin
  2
AI9-BLK3
 70
     0
 10
0.0
 20
0.0
 30
0.0
  3
AI9-BLK3
  1

  0
IMAGE
  5
3CB
330
3C8
100
AcDbEntity
  8
LAYER_1
 62
     7
160
               296
310
28010000030000009400000024000000666666660E1926C07DD297FCEFF527C0000000000000008000000000000000000000000000000000000000000000F03F000000000000F03F000000000000000000000000000000000000000000000000000000000000F03F0000000000000000410063004400620052006100730074
310
006500720049006D0061006700650020002800490053004D0029000000840000000600000005000000666666660E1926C07DD297FCEFF527C00000000000000080CCCC5C971E1926407DD297FCEFF527C00000000000000080CCCC5C971E192640711CC771ECF527400000000000000080666666660E1926C0711CC771ECF5
310
27400000000000000080666666660E1926C07DD297FCEFF527C000000000000000800800000015000000
100
AcDbRasterImage
 90
        0
 10
-11.04893798828125
 20
-11.98034657815264
 30
0.0
 11
0.0423333323871096
 21
0.0
 31
0.0
 12
0.0
 22
0.0423333323871096
 32
0.0
 13
522.0
 23
566.0
340
3CD
 70
     7
280
     0
281
    50
282
    50
283
     0
290
     0
360
3CC
 71
     1
 91
        2
 14
-0.5
 24
-0.5
 14
521.4999999999999
 24
565.5
  0
ENDBLK
  5
3CE
330
3C8
100
AcDbEntity
  8
LAYER_1
100
AcDbBlockEnd
  0
ENDSEC
  0
SECTION
  2
ENTITIES
  0
POLYLINE
  5
3F4
330
A
100
AcDbEntity
  8
LAYER_1
 62
     7
100
AcDb2dPolyline
 66
     1
 10
0.0
 20
0.0
 30
0.0
 70
     1
  0
VERTEX
  5
3F5
330
3F4
100
AcDbEntity
  8
LAYER_1
 62
     7
100
AcDbVertex
100
AcDb2dVertex
 10
298.5371609157986
 20
19.47340223524305
 30
0.0
  0
VERTEX
  5
3F6
330
3F4
100
AcDbEntity
  8
LAYER_1
 62
     7
100
AcDbVertex
100
AcDb2dVertex
 10
61.89372422960069
 20
19.47340223524305
 30
0.0
  0
VERTEX
  5
3F7
330
3F4
100
AcDbEntity
  8
LAYER_1
 62
     7
100
AcDbVertex
100
AcDb2dVertex
 10
61.89372422960069
 20
14.70022243923611
 30
0.0
  0
VERTEX
  5
3F8
330
3F4
100
AcDbEntity
  8
LAYER_1
 62
     7
100
AcDbVertex
100
AcDb2dVertex
 10
298.5371609157986
 20
14.70022243923611
 30
0.0
  0
SEQEND
  5
3F9
330
3F4
100
AcDbEntity
  8
LAYER_1
 62
     7
  0
POLYLINE
  5
3EE
330
A
100
AcDbEntity
  8
LAYER_1
 62
     7
100
AcDb2dPolyline
 66
     1
 10
0.0
 20
0.0
 30
0.0
 70
     1
  0
VERTEX
  5
3EF
330
3EE
100
AcDbEntity
  8
LAYER_1
 62
     7
100
AcDbVertex
100
AcDb2dVertex
 10
318.4336208767361
 20
0.0
 30
0.0
  0
VERTEX
  5
3F0
330
3EE
100
AcDbEntity
  8
LAYER_1
 62
     7
100
AcDbVertex
100
AcDb2dVertex
 10
39.88042534722222
 20
0.0
 30
0.0
  0
VERTEX
  5
3F1
330
3EE
100
AcDbEntity
  8
LAYER_1
 62
     7
100
AcDbVertex
100
AcDb2dVertex
 10
39.88042534722222
 20
14.70022243923611
 30
0.0
  0
VERTEX
  5
3F2
330
3EE
100
AcDbEntity
  8
LAYER_1
 62
     7
100
AcDbVertex
100
AcDb2dVertex
 10
318.4336208767361
 20
14.70022243923611
 30
0.0
  0
SEQEND
  5
3F3
330
3EE
100
AcDbEntity
  8
LAYER_1
 62
     7
  0
POLYLINE
  5
3E8
330
A
100
AcDbEntity
  8
LAYER_1
 62
     7
100
AcDb2dPolyline
 66
     1
 10
0.0
 20
0.0
 30
0.0
 70
     1
  0
VERTEX
  5
3E9
330
3E8
100
AcDbEntity
  8
LAYER_1
 62
     7
100
AcDbVertex
100
AcDb2dVertex
 10
188.0851603190104
 20
268.1369493272569
 30
0.0
  0
VERTEX
  5
3EA
330
3E8
100
AcDbEntity
  8
LAYER_1
 62
     7
100
AcDbVertex
100
AcDb2dVertex
 10
171.5759182400173
 20
268.1369493272569
 30
0.0
  0
VERTEX
  5
3EB
330
3E8
100
AcDbEntity
  8
LAYER_1
 62
     7
100
AcDbVertex
100
AcDb2dVertex
 10
171.5759182400173
 20
284.64619140625
 30
0.0
  0
VERTEX
  5
3EC
330
3E8
100
AcDbEntity
  8
LAYER_1
 62
     7
100
AcDbVertex
100
AcDb2dVertex
 10
188.0851603190104
 20
284.64619140625
 30
0.0
  0
SEQEND
  5
3ED
330
3E8
100
AcDbEntity
  8
LAYER_1
 62
     7
  0
POLYLINE
  5
3E2
330
A
100
AcDbEntity
  8
LAYER_1
 62
     7
100
AcDb2dPolyline
 66
     1
 10
0.0
 20
0.0
 30
0.0
 70
     1
  0
VERTEX
  5
3E3
330
3E2
100
AcDbEntity
  8
LAYER_1
 62
     7
100
AcDbVertex
100
AcDb2dVertex
 10
358.2568576388888
 20
110.0301486545139
 30
0.0
  0
VERTEX
  5
3E4
330
3E2
100
AcDbEntity
  8
LAYER_1
 62
     7
100
AcDbVertex
100
AcDb2dVertex
 10
339.842822265625
 20
110.0301486545139
 30
0.0
  0
VERTEX
  5
3E5
330
3E2
100
AcDbEntity
  8
LAYER_1
 62
     7
100
AcDbVertex
100
AcDb2dVertex
 10
339.842822265625
 20
119.5544596354166
 30
0.0
  0
VERTEX
  5
3E6
330
3E2
100
AcDbEntity
  8
LAYER_1
 62
     7
100
AcDbVertex
100
AcDb2dVertex
 10
358.2568576388888
 20
119.5544596354166
 30
0.0
  0
SEQEND
  5
3E7
330
3E2
100
AcDbEntity
  8
LAYER_1
 62
     7
  0
POLYLINE
  5
3DC
330
A
100
AcDbEntity
  8
LAYER_1
 62
     7
100
AcDb2dPolyline
 66
     1
 10
0.0
 20
0.0
 30
0.0
 70
     1
  0
VERTEX
  5
3DD
330
3DC
100
AcDbEntity
  8
LAYER_1
 62
     7
100
AcDbVertex
100
AcDb2dVertex
 10
419.9998589409721
 20
1.710145399305555
 30
0.0
  0
VERTEX
  5
3DE
330
3DC
100
AcDbEntity
  8
LAYER_1
 62
     7
100
AcDbVertex
100
AcDb2dVertex
 10
0.0
 20
1.710145399305555
 30
0.0
  0
VERTEX
  5
3DF
330
3DC
100
AcDbEntity
  8
LAYER_1
 62
     7
100
AcDbVertex
100
AcDb2dVertex
 10
0.0
 20
298.7101047092013
 30
0.0
  0
VERTEX
  5
3E0
330
3DC
100
AcDbEntity
  8
LAYER_1
 62
     7
100
AcDbVertex
100
AcDb2dVertex
 10
419.9998589409721
 20
298.7101047092013
 30
0.0
  0
SEQEND
  5
3E1
330
3DC
100
AcDbEntity
  8
LAYER_1
 62
     7
  0
POLYLINE
  5
3D6
330
A
100
AcDbEntity
  8
LAYER_1
 62
     7
100
AcDb2dPolyline
 66
     1
 10
0.0
 20
0.0
 30
0.0
 70
     1
  0
VERTEX
  5
3D7
330
3D6
100
AcDbEntity
  8
LAYER_1
 62
     7
100
AcDbVertex
100
AcDb2dVertex
 10
20.99992404513889
 20
283.7101589626736
 30
0.0
  0
VERTEX
  5
3D8
330
3D6
100
AcDbEntity
  8
LAYER_1
 62
     7
100
AcDbVertex
100
AcDb2dVertex
 10
20.99992404513889
 20
16.71009114583333
 30
0.0
  0
VERTEX
  5
3D9
330
3D6
100
AcDbEntity
  8
LAYER_1
 62
     7
100
AcDbVertex
100
AcDb2dVertex
 10
404.0001464843749
 20
16.71009114583333
 30
0.0
  0
VERTEX
  5
3DA
330
3D6
100
AcDbEntity
  8
LAYER_1
 62
     7
100
AcDbVertex
100
AcDb2dVertex
 10
404.0001464843749
 20
283.7101589626736
 30
0.0
  0
SEQEND
  5
3DB
330
3D6
100
AcDbEntity
  8
LAYER_1
 62
     7
  0
POLYLINE
  5
3D0
330
A
100
AcDbEntity
  8
LAYER_1
 62
     7
100
AcDb2dPolyline
 66
     1
 10
0.0
 20
0.0
 30
0.0
 70
     1
  0
VERTEX
  5
3D1
330
3D0
100
AcDbEntity
  8
LAYER_1
 62
     7
100
AcDbVertex
100
AcDb2dVertex
 10
406.0000244140624
 20
14.71021321614583
 30
0.0
  0
VERTEX
  5
3D2
330
3D0
100
AcDbEntity
  8
LAYER_1
 62
     7
100
AcDbVertex
100
AcDb2dVertex
 10
18.99987386067708
 20
14.71021321614583
 30
0.0
  0
VERTEX
  5
3D3
330
3D0
100
AcDbEntity
  8
LAYER_1
 62
     7
100
AcDbVertex
100
AcDb2dVertex
 10
18.99987386067708
 20
285.7102091471354
 30
0.0
  0
VERTEX
  5
3D4
330
3D0
100
AcDbEntity
  8
LAYER_1
 62
     7
100
AcDbVertex
100
AcDb2dVertex
 10
406.0000244140624
 20
285.7102091471354
 30
0.0
  0
SEQEND
  5
3D5
330
3D0
100
AcDbEntity
  8
LAYER_1
 62
     7
  0
LINE
  5
3CF
330
A
100
AcDbEntity
  8
LAYER_1
 62
     7
100
AcDbLine
 10
336.3150444878472
 20
285.3045491536458
 30
0.0
 11
336.3150444878472
 21
14.71021321614583
 31
0.0
  0
INSERT
  5
3C9
330
A
100
AcDbEntity
  8
LAYER_1
 62
     7
100
AcDbBlockReference
  2
AI9-BLK3
 10
389.0131198459201
 20
29.68638780381944
 30
0.0
  0
MTEXT
  5
3C7
330
A
100
AcDbEntity
  8
LAYER_1
 62
     7
100
AcDbMText
 10
342.4948567708333
 20
37.48468946086035
 30
0.0
 40
2.887318041589524
 41
0.0
 46
0.0
 71
     1
 72
     2
  1
\fArial |b1|i0;\H2.8873;\C7;Cambrian
  7
STD
 73
     1
 44
1.0
  0
MTEXT
  5
3C6
330
A
100
AcDbEntity
  8
LAYER_1
 62
     7
100
AcDbMText
 10
342.4948567708333
 20
32.82795389228397
 30
0.0
 40
2.887318041589524
 41
0.0
 46
0.0
 71
     1
 72
     2
  1
\fArial |b1|i0;\H2.8873;\C7;Archaeological
  7
STD
 73
     1
 44
1.0
  0
MTEXT
  5
3C5
330
A
100
AcDbEntity
  8
LAYER_1
 62
     7
100
AcDbMText
 10
342.4948567708333
 20
28.17121832370758
 30
0.0
 40
2.887318041589524
 41
0.0
 46
0.0
 71
     1
 72
     2
  1
\fArial |b1|i0;\H2.8873;\C7;Projects 
  7
STD
 73
     1
 44
1.0
  0
MTEXT
  5
3C4
330
A
100
AcDbEntity
  8
LAYER_1
 62
     7
100
AcDbMText
 10
342.4948567708333
 20
23.5148272646798
 30
0.0
 40
2.887318041589524
 41
0.0
 46
0.0
 71
     1
 72
     2
  1
\fArial |b1|i0;\H2.8873;\C7;Limited
  7
STD
 73
     1
 44
1.0
  0
MTEXT
  5
3C3
330
A
100
AcDbEntity
  8
LAYER_1
 62
     7
100
AcDbMText
 10
339.2151258680555
 20
57.05868848429785
 30
0.0
 40
2.887318041589524
 41
0.0
 46
0.0
 71
     1
 72
     2
  1
\fArial |b1|i0;\H2.8873;\C7;Plan: 
  7
STD
 73
     1
 44
1.0
  0
MTEXT
  5
3C2
330
A
100
AcDbEntity
  8
LAYER_1
 62
     7
100
AcDbMText
 10
349.7819227430555
 20
57.05868848429785
 30
0.0
 40
2.887318041589524
 41
0.0
 46
0.0
 71
     1
 72
     2
  1
\fArial|b0|i0;\H2.8873;\C7;1:50                   
  7
STD
 73
     1
 44
1.0
  0
MTEXT
  5
3C1
330
A
100
AcDbEntity
  8
LAYER_1
 62
     7
100
AcDbMText
 10
377.8305121527778
 20
57.05868848429785
 30
0.0
 40
2.887318041589524
 41
0.0
 46
0.0
 71
     1
 72
     2
  1
\fArial |b1|i0;\H2.8873;\C7;Section:
  7
STD
 73
     1
 44
1.0
  0
MTEXT
  5
3C0
330
A
100
AcDbEntity
  8
LAYER_1
 62
     7
100
AcDbMText
 10
393.1391384548611
 20
57.05868848429785
 30
0.0
 40
2.887318041589524
 41
0.0
 46
0.0
 71
     1
 72
     2
  1
\fArial|b0|i0;\H2.8873;\C7; 1:20
  7
STD
 73
     1
 44
1.0
  0
MTEXT
  5
3BF
330
A
100
AcDbEntity
  8
LAYER_1
 62
     7
100
AcDbMText
 10
339.7119086371528
 20
49.04987500773535
 30
0.0
 40
2.887318041589524
 41
0.0
 46
0.0
 71
     1
 72
     2
  1
\fArial |b1|i0;\H2.8873;\C7;Figure 08:
  7
STD
 73
     1
 44
1.0
  0
MTEXT
  5
3BE
330
A
100
AcDbEntity
  8
LAYER_1
 62
     7
100
AcDbMText
 10
339.0628526475694
 20
92.88423644436729
 30
0.0
 40
2.887318041589524
 41
0.0
 46
0.0
 71
     1
 72
     2
  1
\fArial |b1|i0;\H2.8873;\C7;Job Title:      
  7
STD
 73
     1
 44
1.0
  0
MTEXT
  5
3BD
330
A
100
AcDbEntity
  8
LAYER_1
 62
     7
100
AcDbMText
 10
362.7148111979166
 20
92.88423644436729
 30
0.0
 40
2.887318041589524
 41
0.0
 46
0.0
 71
     1
 72
     2
  1
\fArial|b0|i0;\H2.8873;\C7;Oswald Park, Oswestry
  7
STD
 73
     1
 44
1.0
  0
MTEXT
  5
3BC
330
A
100
AcDbEntity
  8
LAYER_1
 62
     7
100
AcDbMText
 10
339.0628526475694
 20
83.57076530721451
 30
0.0
 40
2.887318041589524
 41
0.0
 46
0.0
 71
     1
 72
     2
  1
\fArial |b1|i0;\H2.8873;\C7;Drawing Title:           
  7
STD
 73
     1
 44
1.0
  0
MTEXT
  5
3BB
330
A
100
AcDbEntity
  8
LAYER_1
 62
     7
100
AcDbMText
 10
387.9539252387152
 20
83.57076530721451
 30
0.0
 40
2.887318041589524
 41
0.0
 46
0.0
 71
     1
 72
     2
  1
\fArial|b0|i0;\H2.8873;\C7;Trench 4
  7
STD
 73
     1
 44
1.0
  0
MTEXT
  5
3BA
330
A
100
AcDbEntity
  8
LAYER_1
 62
     7
100
AcDbMText
 10
339.0628526475694
 20
74.25763867961035
 30
0.0
 40
2.887318041589524
 41
0.0
 46
0.0
 71
     1
 72
     2
  1
\fArial |b1|i0;\H2.8873;\C7;Date:         
  7
STD
 73
     1
 44
1.0
  0
MTEXT
  5
3B9
330
A
100
AcDbEntity
  8
LAYER_1
 62
     7
100
AcDbMText
 10
383.6348090277777
 20
74.25763867961035
 30
0.0
 40
2.887318041589524
 41
0.0
 46
0.0
 71
     1
 72
     2
  1
\fArial|b0|i0;\H2.8873;\C7;29/08/2007
  7
STD
 73
     1
 44
1.0
  0
MTEXT
  5
3B8
330
A
100
AcDbEntity
  8
LAYER_1
 62
     7
100
AcDbMText
 10
339.0628526475694
 20
64.94416754245758
 30
0.0
 40
2.887318041589524
 41
0.0
 46
0.0
 71
     1
 72
     2
  1
\fArial |b1|i0;\H2.8873;\C7;Drawn By:          
  7
STD
 73
     1
 44
1.0
  0
MTEXT
  5
3B7
330
A
100
AcDbEntity
  8
LAYER_1
 62
     7
100
AcDbMText
 10
385.7924723307291
 20
64.94416754245758
 30
0.0
 40
2.887318041589524
 41
0.0
 46
0.0
 71
     1
 72
     2
  1
\fArial|b0|i0;\H2.8873;\C7;C E Smith
  7
STD
 73
     1
 44
1.0
  0
LINE
  5
3B6
330
A
100
AcDbEntity
  8
LAYER_1
 62
     7
100
AcDbLine
 10
336.3150444878472
 20
42.82839355468749
 30
0.0
 11
405.8959825303818
 21
42.81116807725694
 31
0.0
  0
LINE
  5
3B5
330
A
100
AcDbEntity
  8
LAYER_1
 62
     7
100
AcDbLine
 10
336.3150444878472
 20
52.00061577690972
 30
0.0
 11
405.8959825303818
 21
51.98339029947916
 31
0.0
  0
LINE
  5
3B4
330
A
100
AcDbEntity
  8
LAYER_1
 62
     7
100
AcDbLine
 10
336.3150444878472
 20
59.76172688802083
 30
0.0
 11
405.8959825303818
 21
59.74450141059027
 31
0.0
  0
LINE
  5
3B3
330
A
100
AcDbEntity
  8
LAYER_1
 62
     7
100
AcDbLine
 10
336.4325222439236
 20
67.46427137586805
 30
0.0
 11
405.9590277777777
 21
67.37607693142361
 31
0.0
  0
LINE
  5
3B2
330
A
100
AcDbEntity
  8
LAYER_1
 62
     7
100
AcDbLine
 10
336.3150444878472
 20
76.69506022135415
 30
0.0
 11
405.8959825303818
 21
76.6778347439236
 31
0.0
  0
LINE
  5
3B1
330
A
100
AcDbEntity
  8
LAYER_1
 62
     7
100
AcDbLine
 10
336.3150444878472
 20
86.28930664062499
 30
0.0
 11
405.8959825303818
 21
86.27208116319444
 31
0.0
  0
LINE
  5
3B0
330
A
100
AcDbEntity
  8
LAYER_1
 62
     7
100
AcDbLine
 10
336.3736111111111
 20
95.51010470920138
 30
0.0
 11
405.8708333333332
 21
95.51010470920138
 31
0.0
  0
POLYLINE
  5
3AA
330
A
100
AcDbEntity
  8
LAYER_1
 62
     7
100
AcDb2dPolyline
 66
     1
 10
0.0
 20
0.0
 30
0.0
 70
     1
  0
VERTEX
  5
3AB
330
3AA
100
AcDbEntity
  8
LAYER_1
 62
     7
100
AcDbVertex
100
AcDb2dVertex
 10
403.1523084852429
 20
279.706096733941
 30
0.0
  0
VERTEX
  5
3AC
330
3AA
100
AcDbEntity
  8
LAYER_1
 62
     7
100
AcDbVertex
100
AcDb2dVertex
 10
396.5694200303819
 20
282.3400444878472
 30
0.0
  0
VERTEX
  5
3AD
330
3AA
100
AcDbEntity
  8
LAYER_1
 62
     7
100
AcDbVertex
100
AcDb2dVertex
 10
398.1500298394097
 20
279.6747463650173
 30
0.0
  0
VERTEX
  5
3AE
330
3AA
100
AcDbEntity
  8
LAYER_1
 62
     7
100
AcDbVertex
100
AcDb2dVertex
 10
396.605593532986
 20
276.987227376302
 30
0.0
  0
SEQEND
  5
3AF
330
3AA
100
AcDbEntity
  8
LAYER_1
 62
     7
  0
POLYLINE
  5
3A4
330
A
100
AcDbEntity
  8
LAYER_1
 62
     7
100
AcDb2dPolyline
 66
     1
 10
0.0
 20
0.0
 30
0.0
 70
     1
  0
VERTEX
  5
3A5
330
3A4
100
AcDbEntity
  8
LAYER_1
 62
     7
100
AcDbVertex
100
AcDb2dVertex
 10
403.1523084852429
 20
279.706096733941
 30
0.0
  0
VERTEX
  5
3A6
330
3A4
100
AcDbEntity
  8
LAYER_1
 62
     7
100
AcDbVertex
100
AcDb2dVertex
 10
396.5694200303819
 20
282.3400444878472
 30
0.0
  0
VERTEX
  5
3A7
330
3A4
100
AcDbEntity
  8
LAYER_1
 62
     7
100
AcDbVertex
100
AcDb2dVertex
 10
398.1500298394097
 20
279.6747463650173
 30
0.0
  0
VERTEX
  5
3A8
330
3A4
100
AcDbEntity
  8
LAYER_1
 62
     7
100
AcDbVertex
100
AcDb2dVertex
 10
396.605593532986
 20
276.987227376302
 30
0.0
  0
SEQEND
  5
3A9
330
3A4
100
AcDbEntity
  8
LAYER_1
 62
     7
  0
HATCH
  5
3A3
330
A
100
AcDbEntity
  8
LAYER_1
 62
     7
100
AcDbHatch
 10
0.0
 20
0.0
 30
0.0
210
0.0
220
0.0
230
1.0
  2
SOLID
 70
     1
 71
     0
 91
        1
 92
        3
 72
     0
 73
     1
 93
        3
 10
403.1523084852429
 20
279.706096733941
 10
396.5694200303819
 20
282.3400444878472
 10
398.1500298394097
 20
279.6747463650173
 97
        0
 75
     2
 76
     1
 98
        1
 10
0.0
 20
0.0
450
        0
451
        0
460
0.0
461
0.0
452
        0
462
0.0
453
        0
470

  0
POLYLINE
  5
39D
330
A
100
AcDbEntity
  8
LAYER_1
 62
     7
100
AcDb2dPolyline
 66
     1
 10
0.0
 20
0.0
 30
0.0
 70
     1
  0
VERTEX
  5
39E
330
39D
100
AcDbEntity
  8
LAYER_1
 62
     7
100
AcDbVertex
100
AcDb2dVertex
 10
402.0126708984374
 20
157.5666097005208
 30
0.0
  0
VERTEX
  5
39F
330
39D
100
AcDbEntity
  8
LAYER_1
 62
     7
100
AcDbVertex
100
AcDb2dVertex
 10
387.7258599175347
 20
157.5666097005208
 30
0.0
  0
VERTEX
  5
3A0
330
39D
100
AcDbEntity
  8
LAYER_1
 62
     7
100
AcDbVertex
100
AcDb2dVertex
 10
387.7258599175347
 20
217.8886813693576
 30
0.0
  0
VERTEX
  5
3A1
330
39D
100
AcDbEntity
  8
LAYER_1
 62
     7
100
AcDbVertex
100
AcDb2dVertex
 10
402.0126708984374
 20
217.8886813693576
 30
0.0
  0
SEQEND
  5
3A2
330
39D
100
AcDbEntity
  8
LAYER_1
 62
     7
  0
POLYLINE
  5
398
330
A
100
AcDbEntity
  8
LAYER_1
 62
     7
100
AcDb2dPolyline
 66
     1
 10
0.0
 20
0.0
 30
0.0
  0
VERTEX
  5
399
330
398
100
AcDbEntity
  8
LAYER_1
 62
     7
100
AcDbVertex
100
AcDb2dVertex
 10
393.1708333333333
 20
285.7102091471354
 30
0.0
  0
VERTEX
  5
39A
330
398
100
AcDbEntity
  8
LAYER_1
 62
     7
100
AcDbVertex
100
AcDb2dVertex
 10
393.1708333333333
 20
273.4864935980902
 30
0.0
  0
VERTEX
  5
39B
330
398
100
AcDbEntity
  8
LAYER_1
 62
     7
100
AcDbVertex
100
AcDb2dVertex
 10
406.0000244140624
 20
273.4864935980902
 30
0.0
  0
SEQEND
  5
39C
330
398
100
AcDbEntity
  8
LAYER_1
 62
     7
  0
POLYLINE
  5
392
330
A
100
AcDbEntity
  8
LAYER_1
 62
     7
100
AcDb2dPolyline
 66
     1
 10
0.0
 20
0.0
 30
0.0
  0
VERTEX
  5
393
330
392
100
AcDbEntity
  8
LAYER_1
 62
     7
100
AcDbVertex
100
AcDb2dVertex
 10
313.2143012152778
 20
235.5628824869791
 30
0.0
  0
VERTEX
  5
394
330
392
100
AcDbEntity
  8
LAYER_1
 62
     7
100
AcDbVertex
100
AcDb2dVertex
 10
27.51666666666667
 20
235.5628824869791
 30
0.0
  0
VERTEX
  5
395
330
392
100
AcDbEntity
  8
LAYER_1
 62
     7
100
AcDbVertex
100
AcDb2dVertex
 10
27.51666666666667
 20
274.3684380425347
 30
0.0
  0
VERTEX
  5
396
330
392
100
AcDbEntity
  8
LAYER_1
 62
     7
100
AcDbVertex
100
AcDb2dVertex
 10
313.1850179036458
 20
274.3684380425347
 30
0.0
  0
SEQEND
  5
397
330
392
100
AcDbEntity
  8
LAYER_1
 62
     7
  0
POLYLINE
  5
38C
330
A
100
AcDbEntity
  8
LAYER_1
 62
     7
100
AcDb2dPolyline
 66
     1
 10
0.0
 20
0.0
 30
0.0
  0
VERTEX
  5
38D
330
38C
100
AcDbEntity
  8
LAYER_1
 62
     7
100
AcDbVertex
100
AcDb2dVertex
 10
199.2722466362847
 20
227.4489935980902
 30
0.0
  0
VERTEX
  5
38E
330
38C
100
AcDbEntity
  8
LAYER_1
 62
     7
100
AcDbVertex
100
AcDb2dVertex
 10
313.6666422526042
 20
227.4489935980902
 30
0.0
  0
VERTEX
  5
38F
330
38C
100
AcDbEntity
  8
LAYER_1
 62
     7
100
AcDbVertex
100
AcDb2dVertex
 10
313.6666422526042
 20
188.6434380425347
 30
0.0
  0
VERTEX
  5
390
330
38C
100
AcDbEntity
  8
LAYER_1
 62
     7
100
AcDbVertex
100
AcDb2dVertex
 10
199.3607855902777
 20
188.6434380425347
 30
0.0
  0
SEQEND
  5
391
330
38C
100
AcDbEntity
  8
LAYER_1
 62
     7
  0
POLYLINE
  5
386
330
A
100
AcDbEntity
  8
LAYER_1
 62
     7
100
AcDb2dPolyline
 66
     1
 10
0.0
 20
0.0
 30
0.0
  0
VERTEX
  5
387
330
386
100
AcDbEntity
  8
LAYER_1
 62
     7
100
AcDbVertex
100
AcDb2dVertex
 10
125.5888888888889
 20
274.4860880533854
 30
0.0
  0
VERTEX
  5
388
330
386
100
AcDbEntity
  8
LAYER_1
 62
     7
100
AcDbVertex
100
AcDb2dVertex
 10
130.2926500108507
 20
268.7239935980902
 30
0.0
  0
VERTEX
  5
389
330
386
100
AcDbEntity
  8
LAYER_1
 62
     7
100
AcDbVertex
100
AcDb2dVertex
 10
135.9370944552951
 20
262.3739935980903
 30
0.0
  0
VERTEX
  5
38A
330
386
100
AcDbEntity
  8
LAYER_1
 62
     7
100
AcDbVertex
100
AcDb2dVertex
 10
140.4055555555555
 20
257.7878824869791
 30
0.0
  0
SEQEND
  5
38B
330
386
100
AcDbEntity
  8
LAYER_1
 62
     7
  0
POLYLINE
  5
37D
330
A
100
AcDbEntity
  8
LAYER_1
 62
     7
100
AcDb2dPolyline
 66
     1
 10
0.0
 20
0.0
 30
0.0
  0
VERTEX
  5
37E
330
37D
100
AcDbEntity
  8
LAYER_1
 62
     7
100
AcDbVertex
100
AcDb2dVertex
 10
151.9590277777778
 20
257.8760769314236
 30
0.0
  0
VERTEX
  5
37F
330
37D
100
AcDbEntity
  8
LAYER_1
 62
     7
100
AcDbVertex
100
AcDb2dVertex
 10
149.4895833333333
 20
260.8746880425347
 30
0.0
  0
VERTEX
  5
380
330
37D
100
AcDbEntity
  8
LAYER_1
 62
     7
100
AcDbVertex
100
AcDb2dVertex
 10
147.0201388888888
 20
263.7851047092014
 30
0.0
  0
VERTEX
  5
381
330
37D
100
AcDbEntity
  8
LAYER_1
 62
     7
100
AcDbVertex
100
AcDb2dVertex
 10
144.1097222222222
 20
266.7837158203125
 30
0.0
  0
VERTEX
  5
382
330
37D
100
AcDbEntity
  8
LAYER_1
 62
     7
100
AcDbVertex
100
AcDb2dVertex
 10
141.4638888888888
 20
269.6941324869791
 30
0.0
  0
VERTEX
  5
383
330
37D
100
AcDbEntity
  8
LAYER_1
 62
     7
100
AcDbVertex
100
AcDb2dVertex
 10
138.9649888780382
 20
272.2223158094618
 30
0.0
  0
VERTEX
  5
384
330
37D
100
AcDbEntity
  8
LAYER_1
 62
     7
100
AcDbVertex
100
AcDb2dVertex
 10
137.2010999891493
 20
274.3389824761284
 30
0.0
  0
SEQEND
  5
385
330
37D
100
AcDbEntity
  8
LAYER_1
 62
     7
  0
POLYLINE
  5
375
330
A
100
AcDbEntity
  8
LAYER_1
 62
     7
100
AcDb2dPolyline
 66
     1
 10
0.0
 20
0.0
 30
0.0
  0
VERTEX
  5
376
330
375
100
AcDbEntity
  8
LAYER_1
 62
     7
100
AcDbVertex
100
AcDb2dVertex
 10
143.4923611111111
 20
274.4566324869791
 30
0.0
  0
VERTEX
  5
377
330
375
100
AcDbEntity
  8
LAYER_1
 62
     7
100
AcDbVertex
100
AcDb2dVertex
 10
145.9618055555555
 20
271.8989935980903
 30
0.0
  0
VERTEX
  5
378
330
375
100
AcDbEntity
  8
LAYER_1
 62
     7
100
AcDbVertex
100
AcDb2dVertex
 10
148.7840277777777
 20
268.4594102647569
 30
0.0
  0
VERTEX
  5
379
330
375
100
AcDbEntity
  8
LAYER_1
 62
     7
100
AcDbVertex
100
AcDb2dVertex
 10
151.0770833333333
 20
264.8434380425347
 30
0.0
  0
VERTEX
  5
37A
330
375
100
AcDbEntity
  8
LAYER_1
 62
     7
100
AcDbVertex
100
AcDb2dVertex
 10
153.2819444444444
 20
261.4920491536458
 30
0.0
  0
VERTEX
  5
37B
330
375
100
AcDbEntity
  8
LAYER_1
 62
     7
100
AcDbVertex
100
AcDb2dVertex
 10
155.4868055555555
 20
257.8760769314236
 30
0.0
  0
SEQEND
  5
37C
330
375
100
AcDbEntity
  8
LAYER_1
 62
     7
  0
POLYLINE
  5
36D
330
A
100
AcDbEntity
  8
LAYER_1
 62
     7
100
AcDb2dPolyline
 66
     1
 10
0.0
 20
0.0
 30
0.0
  0
VERTEX
  5
36E
330
36D
100
AcDbEntity
  8
LAYER_1
 62
     7
100
AcDbVertex
100
AcDb2dVertex
 10
155.2222222222222
 20
274.3684380425347
 30
0.0
  0
VERTEX
  5
36F
330
36D
100
AcDbEntity
  8
LAYER_1
 62
     7
100
AcDbVertex
100
AcDb2dVertex
 10
157.2506944444444
 20
271.1934380425347
 30
0.0
  0
VERTEX
  5
370
330
36D
100
AcDbEntity
  8
LAYER_1
 62
     7
100
AcDbVertex
100
AcDb2dVertex
 10
159.7201388888889
 20
267.0482991536458
 30
0.0
  0
VERTEX
  5
371
330
36D
100
AcDbEntity
  8
LAYER_1
 62
     7
100
AcDbVertex
100
AcDb2dVertex
 10
162.8069444444444
 20
263.6087158203125
 30
0.0
  0
VERTEX
  5
372
330
36D
100
AcDbEntity
  8
LAYER_1
 62
     7
100
AcDbVertex
100
AcDb2dVertex
 10
166.3347222222222
 20
260.0809380425347
 30
0.0
  0
VERTEX
  5
373
330
36D
100
AcDbEntity
  8
LAYER_1
 62
     7
100
AcDbVertex
100
AcDb2dVertex
 10
168.7159722222222
 20
257.964271375868
 30
0.0
  0
SEQEND
  5
374
330
36D
100
AcDbEntity
  8
LAYER_1
 62
     7
  0
POLYLINE
  5
365
330
A
100
AcDbEntity
  8
LAYER_1
 62
     7
100
AcDb2dPolyline
 66
     1
 10
0.0
 20
0.0
 30
0.0
  0
VERTEX
  5
366
330
365
100
AcDbEntity
  8
LAYER_1
 62
     7
100
AcDbVertex
100
AcDb2dVertex
 10
161.4840277777777
 20
257.6996880425347
 30
0.0
  0
VERTEX
  5
367
330
365
100
AcDbEntity
  8
LAYER_1
 62
     7
100
AcDbVertex
100
AcDb2dVertex
 10
166.1583333333333
 20
252.9371880425347
 30
0.0
  0
VERTEX
  5
368
330
365
100
AcDbEntity
  8
LAYER_1
 62
     7
100
AcDbVertex
100
AcDb2dVertex
 10
170.6562499999999
 20
248.6156602647569
 30
0.0
  0
VERTEX
  5
369
330
365
100
AcDbEntity
  8
LAYER_1
 62
     7
100
AcDbVertex
100
AcDb2dVertex
 10
176.0361111111111
 20
243.676771375868
 30
0.0
  0
VERTEX
  5
36A
330
365
100
AcDbEntity
  8
LAYER_1
 62
     7
100
AcDbVertex
100
AcDb2dVertex
 10
182.3861111111111
 20
238.6496880425347
 30
0.0
  0
VERTEX
  5
36B
330
365
100
AcDbEntity
  8
LAYER_1
 62
     7
100
AcDbVertex
100
AcDb2dVertex
 10
186.3548611111111
 20
235.5628824869791
 30
0.0
  0
SEQEND
  5
36C
330
365
100
AcDbEntity
  8
LAYER_1
 62
     7
  0
POLYLINE
  5
35D
330
A
100
AcDbEntity
  8
LAYER_1
 62
     7
100
AcDb2dPolyline
 66
     1
 10
0.0
 20
0.0
 30
0.0
  0
VERTEX
  5
35E
330
35D
100
AcDbEntity
  8
LAYER_1
 62
     7
100
AcDbVertex
100
AcDb2dVertex
 10
178.1527777777777
 20
257.7878824869791
 30
0.0
  0
VERTEX
  5
35F
330
35D
100
AcDbEntity
  8
LAYER_1
 62
     7
100
AcDbVertex
100
AcDb2dVertex
 10
181.1513888888889
 20
254.8774658203125
 30
0.0
  0
VERTEX
  5
360
330
35D
100
AcDbEntity
  8
LAYER_1
 62
     7
100
AcDbVertex
100
AcDb2dVertex
 10
185.5611111111111
 20
249.6739935980902
 30
0.0
  0
VERTEX
  5
361
330
35D
100
AcDbEntity
  8
LAYER_1
 62
     7
100
AcDbVertex
100
AcDb2dVertex
 10
189.3534722222222
 20
245.7934380425347
 30
0.0
  0
VERTEX
  5
362
330
35D
100
AcDbEntity
  8
LAYER_1
 62
     7
100
AcDbVertex
100
AcDb2dVertex
 10
194.6451388888888
 20
239.9726047092014
 30
0.0
  0
VERTEX
  5
363
330
35D
100
AcDbEntity
  8
LAYER_1
 62
     7
100
AcDbVertex
100
AcDb2dVertex
 10
198.8784722222222
 20
235.5628824869791
 30
0.0
  0
SEQEND
  5
364
330
35D
100
AcDbEntity
  8
LAYER_1
 62
     7
  0
HATCH
  5
35C
330
A
100
AcDbEntity
  8
LAYER_1
 62
     7
100
AcDbHatch
 10
0.0
 20
0.0
 30
0.0
210
0.0
220
0.0
230
1.0
  2
SOLID
 70
     1
 71
     0
 91
        1
 92
        3
 72
     0
 73
     1
 93
        3
 10
127.5291666666666
 20
272.1635769314236
 10
129.5576388888888
 20
272.1635769314236
 10
129.1607638888889
 20
270.0910074869792
 97
        0
 75
     2
 76
     1
 98
        1
 10
0.0
 20
0.0
450
        0
451
        0
460
0.0
461
0.0
452
        0
462
0.0
453
        0
470

  0
HATCH
  5
35B
330
A
100
AcDbEntity
  8
LAYER_1
 62
     7
100
AcDbHatch
 10
0.0
 20
0.0
 30
0.0
210
0.0
220
0.0
230
1.0
  2
SOLID
 70
     1
 71
     0
 91
        1
 92
        3
 72
     0
 73
     1
 93
        3
 10
130.2926500108507
 20
268.7239935980902
 10
132.2034722222222
 20
268.7680908203124
 10
132.2034722222222
 20
266.6514241536458
 97
        0
 75
     2
 76
     1
 98
        1
 10
0.0
 20
0.0
450
        0
451
        0
460
0.0
461
0.0
452
        0
462
0.0
453
        0
470

  0
HATCH
  5
35A
330
A
100
AcDbEntity
  8
LAYER_1
 62
     7
100
AcDbHatch
 10
0.0
 20
0.0
 30
0.0
210
0.0
220
0.0
230
1.0
  2
SOLID
 70
     1
 71
     0
 91
        1
 92
        3
 72
     0
 73
     1
 93
        3
 10
133.5704861111111
 20
265.108021375868
 10
135.3784722222222
 20
265.1521185980902
 10
135.3784722222222
 20
262.9913547092014
 97
        0
 75
     2
 76
     1
 98
        1
 10
0.0
 20
0.0
450
        0
451
        0
460
0.0
461
0.0
452
        0
462
0.0
453
        0
470

  0
HATCH
  5
359
330
A
100
AcDbEntity
  8
LAYER_1
 62
     7
100
AcDbHatch
 10
0.0
 20
0.0
 30
0.0
210
0.0
220
0.0
230
1.0
  2
SOLID
 70
     1
 71
     0
 91
        1
 92
        3
 72
     0
 73
     1
 93
        3
 10
136.6572916666666
 20
261.6684380425347
 10
138.5534722222222
 20
261.6243408203124
 10
138.509375
 20
259.7722574869791
 97
        0
 75
     2
 76
     1
 98
        1
 10
0.0
 20
0.0
450
        0
451
        0
460
0.0
461
0.0
452
        0
462
0.0
453
        0
470

  0
HATCH
  5
358
330
A
100
AcDbEntity
  8
LAYER_1
 62
     7
100
AcDbHatch
 10
0.0
 20
0.0
 30
0.0
210
0.0
220
0.0
230
1.0
  2
SOLID
 70
     1
 71
     0
 91
        1
 92
        3
 72
     0
 73
     1
 93
        4
 10
136.9659722222222
 20
274.3684380425347
 10
136.7013888888889
 20
272.4576158311632
 10
138.5241889105902
 20
272.663288031684
 10
137.2600111219618
 20
274.250788031684
 97
        0
 75
     2
 76
     1
 98
        1
 10
0.0
 20
0.0
450
        0
451
        0
460
0.0
461
0.0
452
        0
462
0.0
453
        0
470

  0
HATCH
  5
357
330
A
100
AcDbEntity
  8
LAYER_1
 62
     7
100
AcDbHatch
 10
0.0
 20
0.0
 30
0.0
210
0.0
220
0.0
230
1.0
  2
SOLID
 70
     1
 71
     0
 91
        1
 92
        3
 72
     0
 73
     1
 93
        3
 10
140.1704277886284
 20
270.9583102756076
 10
141.9343166775173
 20
269.1355102539062
 10
139.8763888888888
 20
269.0473158094618
 97
        0
 75
     2
 76
     1
 98
        1
 10
0.0
 20
0.0
450
        0
451
        0
460
0.0
461
0.0
452
        0
462
0.0
453
        0
470

  0
HATCH
  5
356
330
A
100
AcDbEntity
  8
LAYER_1
 62
     7
100
AcDbHatch
 10
0.0
 20
0.0
 30
0.0
210
0.0
220
0.0
230
1.0
  2
SOLID
 70
     1
 71
     0
 91
        1
 92
        3
 72
     0
 73
     1
 93
        3
 10
142.9631944444444
 20
268.0771769205729
 10
142.7868055555555
 20
265.9312269422743
 10
144.7270833333333
 20
266.1076158311632
 97
        0
 75
     2
 76
     1
 98
        1
 10
0.0
 20
0.0
450
        0
451
        0
460
0.0
461
0.0
452
        0
462
0.0
453
        0
470

  0
HATCH
  5
355
330
A
100
AcDbEntity
  8
LAYER_1
 62
     7
100
AcDbHatch
 10
0.0
 20
0.0
 30
0.0
210
0.0
220
0.0
230
1.0
  2
SOLID
 70
     1
 71
     0
 91
        1
 92
        3
 72
     0
 73
     1
 93
        3
 10
145.7266777886284
 20
265.108021375868
 10
145.638483344184
 20
263.2264824761285
 10
147.3436333550347
 20
263.3735880533854
 97
        0
 75
     2
 76
     1
 98
        1
 10
0.0
 20
0.0
450
        0
451
        0
460
0.0
461
0.0
452
        0
462
0.0
453
        0
470

  0
HATCH
  5
354
330
A
100
AcDbEntity
  8
LAYER_1
 62
     7
100
AcDbHatch
 10
0.0
 20
0.0
 30
0.0
210
0.0
220
0.0
230
1.0
  2
SOLID
 70
     1
 71
     0
 91
        1
 92
        3
 72
     0
 73
     1
 93
        3
 10
148.2843166775173
 20
262.2270602756076
 10
149.7836222330729
 20
260.4631713867187
 10
147.8728000217014
 20
260.4337158203125
 97
        0
 75
     2
 76
     1
 98
        1
 10
0.0
 20
0.0
450
        0
451
        0
460
0.0
461
0.0
452
        0
462
0.0
453
        0
470

  0
HATCH
  5
353
330
A
100
AcDbEntity
  8
LAYER_1
 62
     7
100
AcDbHatch
 10
0.0
 20
0.0
 30
0.0
210
0.0
220
0.0
230
1.0
  2
SOLID
 70
     1
 71
     0
 91
        1
 92
        3
 72
     0
 73
     1
 93
        3
 10
145.3444444444444
 20
272.6045491536458
 10
147.8138888888888
 20
272.7809380425347
 10
147.1083333333333
 20
270.4878824869791
 97
        0
 75
     2
 76
     1
 98
        1
 10
0.0
 20
0.0
450
        0
451
        0
460
0.0
461
0.0
452
        0
462
0.0
453
        0
470

  0
HATCH
  5
352
330
A
100
AcDbEntity
  8
LAYER_1
 62
     7
100
AcDbHatch
 10
0.0
 20
0.0
 30
0.0
210
0.0
220
0.0
230
1.0
  2
SOLID
 70
     1
 71
     0
 91
        1
 92
        3
 72
     0
 73
     1
 93
        3
 10
148.9604166666666
 20
268.1507297092013
 10
150.2833333333333
 20
266.078160264757
 10
151.2975694444444
 20
268.1507297092013
 97
        0
 75
     2
 76
     1
 98
        1
 10
0.0
 20
0.0
450
        0
451
        0
460
0.0
461
0.0
452
        0
462
0.0
453
        0
470

  0
HATCH
  5
351
330
A
100
AcDbEntity
  8
LAYER_1
 62
     7
100
AcDbHatch
 10
0.0
 20
0.0
 30
0.0
210
0.0
220
0.0
230
1.0
  2
SOLID
 70
     1
 71
     0
 91
        1
 92
        3
 72
     0
 73
     1
 93
        3
 10
152.2677083333333
 20
263.0354519314236
 10
153.6347222222222
 20
261.0069797092013
 10
154.3402777777777
 20
263.0795491536458
 97
        0
 75
     2
 76
     1
 98
        1
 10
0.0
 20
0.0
450
        0
451
        0
460
0.0
461
0.0
452
        0
462
0.0
453
        0
470

  0
HATCH
  5
350
330
A
100
AcDbEntity
  8
LAYER_1
 62
     7
100
AcDbHatch
 10
0.0
 20
0.0
 30
0.0
210
0.0
220
0.0
230
1.0
  2
SOLID
 70
     1
 71
     0
 91
        1
 92
        3
 72
     0
 73
     1
 93
        3
 10
155.8395833333333
 20
273.3982991536458
 10
155.2222222222222
 20
271.3698269314236
 10
157.2506944444444
 20
271.1934380425347
 97
        0
 75
     2
 76
     1
 98
        1
 10
0.0
 20
0.0
450
        0
451
        0
460
0.0
461
0.0
452
        0
462
0.0
453
        0
470

  0
HATCH
  5
34F
330
A
100
AcDbEntity
  8
LAYER_1
 62
     7
100
AcDbHatch
 10
0.0
 20
0.0
 30
0.0
210
0.0
220
0.0
230
1.0
  2
SOLID
 70
     1
 71
     0
 91
        1
 92
        3
 72
     0
 73
     1
 93
        4
 10
158.8381944444444
 20
268.5035074869791
 10
159.7201388888889
 20
267.0482991536458
 10
160.2493055555555
 20
266.4309380425347
 10
158.4413194444444
 20
266.4309380425347
 97
        0
 75
     2
 76
     1
 98
        1
 10
0.0
 20
0.0
450
        0
451
        0
460
0.0
461
0.0
452
        0
462
0.0
453
        0
470

  0
HATCH
  5
34E
330
A
100
AcDbEntity
  8
LAYER_1
 62
     7
100
AcDbHatch
 10
0.0
 20
0.0
 30
0.0
210
0.0
220
0.0
230
1.0
  2
SOLID
 70
     1
 71
     0
 91
        1
 92
        3
 72
     0
 73
     1
 93
        3
 10
162.9392361111111
 20
263.4764241536458
 10
162.8069444444444
 20
261.3597574869792
 10
164.8354166666666
 20
261.536146375868
 97
        0
 75
     2
 76
     1
 98
        1
 10
0.0
 20
0.0
450
        0
451
        0
460
0.0
461
0.0
452
        0
462
0.0
453
        0
470

  0
POLYLINE
  5
347
330
A
100
AcDbEntity
  8
LAYER_1
  6
AI9-LType5
 62
     7
100
AcDb2dPolyline
 66
     1
 10
0.0
 20
0.0
 30
0.0
  0
VERTEX
  5
348
330
347
100
AcDbEntity
  8
LAYER_1
  6
AI9-LType5
 62
     7
100
AcDbVertex
100
AcDb2dVertex
 10
215.1944444444444
 20
257.7878824869791
 30
0.0
  0
VERTEX
  5
349
330
347
100
AcDbEntity
  8
LAYER_1
  6
AI9-LType5
 62
     7
100
AcDbVertex
100
AcDb2dVertex
 10
140.4055555555555
 20
257.7878824869791
 30
0.0
  0
VERTEX
  5
34A
330
347
100
AcDbEntity
  8
LAYER_1
  6
AI9-LType5
 62
     7
100
AcDbVertex
100
AcDb2dVertex
 10
127.5291666666666
 20
257.7878824869791
 30
0.0
  0
VERTEX
  5
34B
330
347
100
AcDbEntity
  8
LAYER_1
  6
AI9-LType5
 62
     7
100
AcDbVertex
100
AcDb2dVertex
 10
120.4736111111111
 20
257.7878824869791
 30
0.0
  0
VERTEX
  5
34C
330
347
100
AcDbEntity
  8
LAYER_1
  6
AI9-LType5
 62
     7
100
AcDbVertex
100
AcDb2dVertex
 10
120.4736111111111
 20
274.3684380425347
 30
0.0
  0
SEQEND
  5
34D
330
347
100
AcDbEntity
  8
LAYER_1
  6
AI9-LType5
 62
     7
  0
LINE
  5
345
330
A
100
AcDbEntity
  8
LAYER_1
  6
AI9-LType2
 62
     7
100
AcDbLine
 10
31.45630560980903
 20
179.8825602213541
 30
0.0
 11
31.45630560980903
 21
146.2508490668402
 31
0.0
  0
LINE
  5
344
330
A
100
AcDbEntity
  8
LAYER_1
  6
AI9-LType2
 62
     7
100
AcDbLine
 10
271.580322265625
 20
173.5325602213541
 30
0.0
 11
271.580322265625
 21
127.9064046223958
 31
0.0
  0
POLYLINE
  5
31F
330
A
100
AcDbEntity
  8
LAYER_1
 62
     7
100
AcDb2dPolyline
 66
     1
 10
0.0
 20
0.0
 30
0.0
  0
VERTEX
  5
320
330
31F
100
AcDbEntity
  8
LAYER_1
 62
     7
100
AcDbVertex
100
AcDb2dVertex
 10
31.69143337673611
 20
179.8825602213541
 30
0.0
  0
VERTEX
  5
321
330
31F
100
AcDbEntity
  8
LAYER_1
 62
     7
100
AcDbVertex
100
AcDb2dVertex
 10
36.01296115451389
 20
179.8825602213541
 30
0.0
  0
VERTEX
  5
322
330
31F
100
AcDbEntity
  8
LAYER_1
 62
     7
100
AcDbVertex
100
AcDb2dVertex
 10
42.01018337673611
 20
180.058949110243
 30
0.0
  0
VERTEX
  5
323
330
31F
100
AcDbEntity
  8
LAYER_1
 62
     7
100
AcDbVertex
100
AcDb2dVertex
 10
47.30185004340277
 20
179.9707546657986
 30
0.0
  0
VERTEX
  5
324
330
31F
100
AcDbEntity
  8
LAYER_1
 62
     7
100
AcDbVertex
100
AcDb2dVertex
 10
52.85810004340277
 20
179.8825602213541
 30
0.0
  0
VERTEX
  5
325
330
31F
100
AcDbEntity
  8
LAYER_1
 62
     7
100
AcDbVertex
100
AcDb2dVertex
 10
59.11990559895833
 20
179.8825602213541
 30
0.0
  0
VERTEX
  5
326
330
31F
100
AcDbEntity
  8
LAYER_1
 62
     7
100
AcDbVertex
100
AcDb2dVertex
 10
66.26365559895832
 20
179.3533935546874
 30
0.0
  0
VERTEX
  5
327
330
31F
100
AcDbEntity
  8
LAYER_1
 62
     7
100
AcDbVertex
100
AcDb2dVertex
 10
70.05601671006944
 20
179.1770046657986
 30
0.0
  0
VERTEX
  5
328
330
31F
100
AcDbEntity
  8
LAYER_1
 62
     7
100
AcDbVertex
100
AcDb2dVertex
 10
72.61365559895833
 20
179.1770046657986
 30
0.0
  0
VERTEX
  5
329
330
31F
100
AcDbEntity
  8
LAYER_1
 62
     7
100
AcDbVertex
100
AcDb2dVertex
 10
80.11018337673609
 20
179.5297824435763
 30
0.0
  0
VERTEX
  5
32A
330
31F
100
AcDbEntity
  8
LAYER_1
 62
     7
100
AcDbVertex
100
AcDb2dVertex
 10
86.81296115451388
 20
179.5297824435763
 30
0.0
  0
VERTEX
  5
32B
330
31F
100
AcDbEntity
  8
LAYER_1
 62
     7
100
AcDbVertex
100
AcDb2dVertex
 10
93.78032226562499
 20
179.4415879991319
 30
0.0
  0
VERTEX
  5
32C
330
31F
100
AcDbEntity
  8
LAYER_1
 62
     7
100
AcDbVertex
100
AcDb2dVertex
 10
100.6594889322916
 20
179.0006157769097
 30
0.0
  0
VERTEX
  5
32D
330
31F
100
AcDbEntity
  8
LAYER_1
 62
     7
100
AcDbVertex
100
AcDb2dVertex
 10
108.4206000434027
 20
178.2068657769097
 30
0.0
  0
VERTEX
  5
32E
330
31F
100
AcDbEntity
  8
LAYER_1
 62
     7
100
AcDbVertex
100
AcDb2dVertex
 10
119.7094889322916
 20
178.2950602213541
 30
0.0
  0
VERTEX
  5
32F
330
31F
100
AcDbEntity
  8
LAYER_1
 62
     7
100
AcDbVertex
100
AcDb2dVertex
 10
125.6185167100694
 20
178.471449110243
 30
0.0
  0
VERTEX
  5
330
330
31F
100
AcDbEntity
  8
LAYER_1
 62
     7
100
AcDbVertex
100
AcDb2dVertex
 10
136.1136555989583
 20
178.1186713324652
 30
0.0
  0
VERTEX
  5
331
330
31F
100
AcDbEntity
  8
LAYER_1
 62
     7
100
AcDbVertex
100
AcDb2dVertex
 10
146.4324055989583
 20
178.471449110243
 30
0.0
  0
VERTEX
  5
332
330
31F
100
AcDbEntity
  8
LAYER_1
 62
     7
100
AcDbVertex
100
AcDb2dVertex
 10
157.280322265625
 20
178.5596435546875
 30
0.0
  0
VERTEX
  5
333
330
31F
100
AcDbEntity
  8
LAYER_1
 62
     7
100
AcDbVertex
100
AcDb2dVertex
 10
168.8337944878472
 20
178.2068657769097
 30
0.0
  0
VERTEX
  5
334
330
31F
100
AcDbEntity
  8
LAYER_1
 62
     7
100
AcDbVertex
100
AcDb2dVertex
 10
173.0671278211805
 20
178.1186713324652
 30
0.0
  0
VERTEX
  5
335
330
31F
100
AcDbEntity
  8
LAYER_1
 62
     7
100
AcDbVertex
100
AcDb2dVertex
 10
184.0032389322916
 20
177.1485324435763
 30
0.0
  0
VERTEX
  5
336
330
31F
100
AcDbEntity
  8
LAYER_1
 62
     7
100
AcDbVertex
100
AcDb2dVertex
 10
190.3532389322916
 20
176.3547824435763
 30
0.0
  0
VERTEX
  5
337
330
31F
100
AcDbEntity
  8
LAYER_1
 62
     7
100
AcDbVertex
100
AcDb2dVertex
 10
197.4969889322916
 20
176.3547824435763
 30
0.0
  0
VERTEX
  5
338
330
31F
100
AcDbEntity
  8
LAYER_1
 62
     7
100
AcDbVertex
100
AcDb2dVertex
 10
203.5824055989583
 20
176.0020046657986
 30
0.0
  0
VERTEX
  5
339
330
31F
100
AcDbEntity
  8
LAYER_1
 62
     7
100
AcDbVertex
100
AcDb2dVertex
 10
210.0206000434027
 20
175.3846435546875
 30
0.0
  0
VERTEX
  5
33A
330
31F
100
AcDbEntity
  8
LAYER_1
 62
     7
100
AcDbVertex
100
AcDb2dVertex
 10
220.0747667100694
 20
175.4728379991319
 30
0.0
  0
VERTEX
  5
33B
330
31F
100
AcDbEntity
  8
LAYER_1
 62
     7
100
AcDbVertex
100
AcDb2dVertex
 10
224.8372667100694
 20
175.4728379991319
 30
0.0
  0
VERTEX
  5
33C
330
31F
100
AcDbEntity
  8
LAYER_1
 62
     7
100
AcDbVertex
100
AcDb2dVertex
 10
236.9199055989583
 20
175.1200602213541
 30
0.0
  0
VERTEX
  5
33D
330
31F
100
AcDbEntity
  8
LAYER_1
 62
     7
100
AcDbVertex
100
AcDb2dVertex
 10
241.5942111545139
 20
175.296449110243
 30
0.0
  0
VERTEX
  5
33E
330
31F
100
AcDbEntity
  8
LAYER_1
 62
     7
100
AcDbVertex
100
AcDb2dVertex
 10
246.7976833767361
 20
175.296449110243
 30
0.0
  0
VERTEX
  5
33F
330
31F
100
AcDbEntity
  8
LAYER_1
 62
     7
100
AcDbVertex
100
AcDb2dVertex
 10
252.530322265625
 20
175.2082546657986
 30
0.0
  0
VERTEX
  5
340
330
31F
100
AcDbEntity
  8
LAYER_1
 62
     7
100
AcDbVertex
100
AcDb2dVertex
 10
257.4692111545139
 20
175.0318657769097
 30
0.0
  0
VERTEX
  5
341
330
31F
100
AcDbEntity
  8
LAYER_1
 62
     7
100
AcDbVertex
100
AcDb2dVertex
 10
265.1421278211805
 20
174.0617268880208
 30
0.0
  0
VERTEX
  5
342
330
31F
100
AcDbEntity
  8
LAYER_1
 62
     7
100
AcDbVertex
100
AcDb2dVertex
 10
271.3157389322916
 20
173.4443657769097
 30
0.0
  0
SEQEND
  5
343
330
31F
100
AcDbEntity
  8
LAYER_1
 62
     7
  0
POLYLINE
  5
305
330
A
100
AcDbEntity
  8
LAYER_1
 62
     7
100
AcDb2dPolyline
 66
     1
 10
0.0
 20
0.0
 30
0.0
  0
VERTEX
  5
306
330
305
100
AcDbEntity
  8
LAYER_1
 62
     7
100
AcDbVertex
100
AcDb2dVertex
 10
271.4628445095486
 20
162.2436713324652
 30
0.0
  0
VERTEX
  5
307
330
305
100
AcDbEntity
  8
LAYER_1
 62
     7
100
AcDbVertex
100
AcDb2dVertex
 10
262.055322265625
 20
163.0670491536458
 30
0.0
  0
VERTEX
  5
308
330
305
100
AcDbEntity
  8
LAYER_1
 62
     7
100
AcDbVertex
100
AcDb2dVertex
 10
249.5906222873264
 20
163.3020046657986
 30
0.0
  0
VERTEX
  5
309
330
305
100
AcDbEntity
  8
LAYER_1
 62
     7
100
AcDbVertex
100
AcDb2dVertex
 10
238.7719889322916
 20
163.6547824435764
 30
0.0
  0
VERTEX
  5
30A
330
305
100
AcDbEntity
  8
LAYER_1
 62
     7
100
AcDbVertex
100
AcDb2dVertex
 10
227.24814453125
 20
163.4198269314236
 30
0.0
  0
VERTEX
  5
30B
330
305
100
AcDbEntity
  8
LAYER_1
 62
     7
100
AcDbVertex
100
AcDb2dVertex
 10
218.3108778211805
 20
163.6547824435764
 30
0.0
  0
VERTEX
  5
30C
330
305
100
AcDbEntity
  8
LAYER_1
 62
     7
100
AcDbVertex
100
AcDb2dVertex
 10
206.5517333984375
 20
163.3020046657986
 30
0.0
  0
VERTEX
  5
30D
330
305
100
AcDbEntity
  8
LAYER_1
 62
     7
100
AcDbVertex
100
AcDb2dVertex
 10
199.3787000868055
 20
163.0670491536458
 30
0.0
  0
VERTEX
  5
30E
330
305
100
AcDbEntity
  8
LAYER_1
 62
     7
100
AcDbVertex
100
AcDb2dVertex
 10
193.8517333984375
 20
162.1258490668402
 30
0.0
  0
VERTEX
  5
30F
330
305
100
AcDbEntity
  8
LAYER_1
 62
     7
100
AcDbVertex
100
AcDb2dVertex
 10
186.4434000651041
 20
162.478626844618
 30
0.0
  0
VERTEX
  5
310
330
305
100
AcDbEntity
  8
LAYER_1
 62
     7
100
AcDbVertex
100
AcDb2dVertex
 10
178.3295111762152
 20
162.2436713324652
 30
0.0
  0
VERTEX
  5
311
330
305
100
AcDbEntity
  8
LAYER_1
 62
     7
100
AcDbVertex
100
AcDb2dVertex
 10
167.0406222873264
 20
163.1841824001736
 30
0.0
  0
VERTEX
  5
312
330
305
100
AcDbEntity
  8
LAYER_1
 62
     7
100
AcDbVertex
100
AcDb2dVertex
 10
155.2814778645833
 20
164.0075602213541
 30
0.0
  0
VERTEX
  5
313
330
305
100
AcDbEntity
  8
LAYER_1
 62
     7
100
AcDbVertex
100
AcDb2dVertex
 10
141.7581000434028
 20
163.8897379557291
 30
0.0
  0
VERTEX
  5
314
330
305
100
AcDbEntity
  8
LAYER_1
 62
     7
100
AcDbVertex
100
AcDb2dVertex
 10
129.6461778428819
 20
163.8897379557291
 30
0.0
  0
VERTEX
  5
315
330
305
100
AcDbEntity
  8
LAYER_1
 62
     7
100
AcDbVertex
100
AcDb2dVertex
 10
116.8287000868055
 20
164.3603379991319
 30
0.0
  0
VERTEX
  5
316
330
305
100
AcDbEntity
  8
LAYER_1
 62
     7
100
AcDbVertex
100
AcDb2dVertex
 10
103.0703667534722
 20
164.4781602647569
 30
0.0
  0
VERTEX
  5
317
330
305
100
AcDbEntity
  8
LAYER_1
 62
     7
100
AcDbVertex
100
AcDb2dVertex
 10
92.0164333767361
 20
165.0658935546875
 30
0.0
  0
VERTEX
  5
318
330
305
100
AcDbEntity
  8
LAYER_1
 62
     7
100
AcDbVertex
100
AcDb2dVertex
 10
81.78587782118055
 20
164.9480712890625
 30
0.0
  0
VERTEX
  5
319
330
305
100
AcDbEntity
  8
LAYER_1
 62
     7
100
AcDbVertex
100
AcDb2dVertex
 10
69.20370008680555
 20
166.2420491536458
 30
0.0
  0
VERTEX
  5
31A
330
305
100
AcDbEntity
  8
LAYER_1
 62
     7
100
AcDbVertex
100
AcDb2dVertex
 10
55.32754448784722
 20
167.5353379991319
 30
0.0
  0
VERTEX
  5
31B
330
305
100
AcDbEntity
  8
LAYER_1
 62
     7
100
AcDbVertex
100
AcDb2dVertex
 10
47.44895562065972
 20
167.1825602213541
 30
0.0
  0
VERTEX
  5
31C
330
305
100
AcDbEntity
  8
LAYER_1
 62
     7
100
AcDbVertex
100
AcDb2dVertex
 10
39.33506673177083
 20
168.0059380425347
 30
0.0
  0
VERTEX
  5
31D
330
305
100
AcDbEntity
  8
LAYER_1
 62
     7
100
AcDbVertex
100
AcDb2dVertex
 10
31.69143337673611
 20
168.0059380425347
 30
0.0
  0
SEQEND
  5
31E
330
305
100
AcDbEntity
  8
LAYER_1
 62
     7
  0
POLYLINE
  5
2DF
330
A
100
AcDbEntity
  8
LAYER_1
 62
     7
100
AcDb2dPolyline
 66
     1
 10
0.0
 20
0.0
 30
0.0
  0
VERTEX
  5
2E0
330
2DF
100
AcDbEntity
  8
LAYER_1
 62
     7
100
AcDbVertex
100
AcDb2dVertex
 10
31.57395562065972
 20
161.6559380425347
 30
0.0
  0
VERTEX
  5
2E1
330
2DF
100
AcDbEntity
  8
LAYER_1
 62
     7
100
AcDbVertex
100
AcDb2dVertex
 10
32.86741672092013
 20
160.3619601779513
 30
0.0
  0
VERTEX
  5
2E2
330
2DF
100
AcDbEntity
  8
LAYER_1
 62
     7
100
AcDbVertex
100
AcDb2dVertex
 10
34.74895562065972
 20
159.421449110243
 30
0.0
  0
VERTEX
  5
2E3
330
2DF
100
AcDbEntity
  8
LAYER_1
 62
     7
100
AcDbVertex
100
AcDb2dVertex
 10
36.86562228732639
 20
158.7158935546875
 30
0.0
  0
VERTEX
  5
2E4
330
2DF
100
AcDbEntity
  8
LAYER_1
 62
     7
100
AcDbVertex
100
AcDb2dVertex
 10
38.62951117621527
 20
158.3631157769097
 30
0.0
  0
VERTEX
  5
2E5
330
2DF
100
AcDbEntity
  8
LAYER_1
 62
     7
100
AcDbVertex
100
AcDb2dVertex
 10
40.39340006510416
 20
157.8925157335069
 30
0.0
  0
VERTEX
  5
2E6
330
2DF
100
AcDbEntity
  8
LAYER_1
 62
     7
100
AcDbVertex
100
AcDb2dVertex
 10
42.86284450954861
 20
157.0698269314236
 30
0.0
  0
VERTEX
  5
2E7
330
2DF
100
AcDbEntity
  8
LAYER_1
 62
     7
100
AcDbVertex
100
AcDb2dVertex
 10
45.33228895399305
 20
155.8936713324652
 30
0.0
  0
VERTEX
  5
2E8
330
2DF
100
AcDbEntity
  8
LAYER_1
 62
     7
100
AcDbVertex
100
AcDb2dVertex
 10
47.44895562065972
 20
154.4825602213541
 30
0.0
  0
VERTEX
  5
2E9
330
2DF
100
AcDbEntity
  8
LAYER_1
 62
     7
100
AcDbVertex
100
AcDb2dVertex
 10
49.68310004340278
 20
152.0131157769097
 30
0.0
  0
VERTEX
  5
2EA
330
2DF
100
AcDbEntity
  8
LAYER_1
 62
     7
100
AcDbVertex
100
AcDb2dVertex
 10
51.32951117621527
 20
148.6031602647569
 30
0.0
  0
VERTEX
  5
2EB
330
2DF
100
AcDbEntity
  8
LAYER_1
 62
     7
100
AcDbVertex
100
AcDb2dVertex
 10
52.3878445095486
 20
145.6631157769097
 30
0.0
  0
VERTEX
  5
2EC
330
2DF
100
AcDbEntity
  8
LAYER_1
 62
     7
100
AcDbVertex
100
AcDb2dVertex
 10
54.62198893229166
 20
143.546449110243
 30
0.0
  0
VERTEX
  5
2ED
330
2DF
100
AcDbEntity
  8
LAYER_1
 62
     7
100
AcDbVertex
100
AcDb2dVertex
 10
59.09062228732638
 20
140.9591824001736
 30
0.0
  0
VERTEX
  5
2EE
330
2DF
100
AcDbEntity
  8
LAYER_1
 62
     7
100
AcDbVertex
100
AcDb2dVertex
 10
62.26562228732638
 20
138.6075602213541
 30
0.0
  0
VERTEX
  5
2EF
330
2DF
100
AcDbEntity
  8
LAYER_1
 62
     7
100
AcDbVertex
100
AcDb2dVertex
 10
65.0878445095486
 20
136.6087158203125
 30
0.0
  0
VERTEX
  5
2F0
330
2DF
100
AcDbEntity
  8
LAYER_1
 62
     7
100
AcDbVertex
100
AcDb2dVertex
 10
67.91006673177083
 20
135.0797824435763
 30
0.0
  0
VERTEX
  5
2F1
330
2DF
100
AcDbEntity
  8
LAYER_1
 62
     7
100
AcDbVertex
100
AcDb2dVertex
 10
70.49698893229166
 20
134.2564046223958
 30
0.0
  0
VERTEX
  5
2F2
330
2DF
100
AcDbEntity
  8
LAYER_1
 62
     7
100
AcDbVertex
100
AcDb2dVertex
 10
73.0842556423611
 20
134.139271375868
 30
0.0
  0
VERTEX
  5
2F3
330
2DF
100
AcDbEntity
  8
LAYER_1
 62
     7
100
AcDbVertex
100
AcDb2dVertex
 10
75.90647786458332
 20
134.139271375868
 30
0.0
  0
VERTEX
  5
2F4
330
2DF
100
AcDbEntity
  8
LAYER_1
 62
     7
100
AcDbVertex
100
AcDb2dVertex
 10
78.37592230902777
 20
134.9619601779513
 30
0.0
  0
VERTEX
  5
2F5
330
2DF
100
AcDbEntity
  8
LAYER_1
 62
     7
100
AcDbVertex
100
AcDb2dVertex
 10
81.08032226562498
 20
137.078626844618
 30
0.0
  0
VERTEX
  5
2F6
330
2DF
100
AcDbEntity
  8
LAYER_1
 62
     7
100
AcDbVertex
100
AcDb2dVertex
 10
83.54976671006943
 20
139.1952935112847
 30
0.0
  0
VERTEX
  5
2F7
330
2DF
100
AcDbEntity
  8
LAYER_1
 62
     7
100
AcDbVertex
100
AcDb2dVertex
 10
86.48981119791667
 20
141.7825602213541
 30
0.0
  0
VERTEX
  5
2F8
330
2DF
100
AcDbEntity
  8
LAYER_1
 62
     7
100
AcDbVertex
100
AcDb2dVertex
 10
89.19421115451388
 20
143.1936713324652
 30
0.0
  0
VERTEX
  5
2F9
330
2DF
100
AcDbEntity
  8
LAYER_1
 62
     7
100
AcDbVertex
100
AcDb2dVertex
 10
91.89895562065972
 20
144.2520046657986
 30
0.0
  0
VERTEX
  5
2FA
330
2DF
100
AcDbEntity
  8
LAYER_1
 62
     7
100
AcDbVertex
100
AcDb2dVertex
 10
93.78032226562499
 20
145.8980712890625
 30
0.0
  0
VERTEX
  5
2FB
330
2DF
100
AcDbEntity
  8
LAYER_1
 62
     7
100
AcDbVertex
100
AcDb2dVertex
 10
96.24976671006944
 20
147.6619601779514
 30
0.0
  0
VERTEX
  5
2FC
330
2DF
100
AcDbEntity
  8
LAYER_1
 62
     7
100
AcDbVertex
100
AcDb2dVertex
 10
98.24895562065972
 20
150.6020046657986
 30
0.0
  0
VERTEX
  5
2FD
330
2DF
100
AcDbEntity
  8
LAYER_1
 62
     7
100
AcDbVertex
100
AcDb2dVertex
 10
99.42476671006943
 20
152.7186713324653
 30
0.0
  0
VERTEX
  5
2FE
330
2DF
100
AcDbEntity
  8
LAYER_1
 62
     7
100
AcDbVertex
100
AcDb2dVertex
 10
100.4831000434027
 20
155.1881157769097
 30
0.0
  0
VERTEX
  5
2FF
330
2DF
100
AcDbEntity
  8
LAYER_1
 62
     7
100
AcDbVertex
100
AcDb2dVertex
 10
101.4239556206597
 20
157.5397379557291
 30
0.0
  0
VERTEX
  5
300
330
2DF
100
AcDbEntity
  8
LAYER_1
 62
     7
100
AcDbVertex
100
AcDb2dVertex
 10
98.4842556423611
 20
159.7742268880208
 30
0.0
  0
VERTEX
  5
301
330
2DF
100
AcDbEntity
  8
LAYER_1
 62
     7
100
AcDbVertex
100
AcDb2dVertex
 10
96.24976671006944
 20
162.2436713324652
 30
0.0
  0
VERTEX
  5
302
330
2DF
100
AcDbEntity
  8
LAYER_1
 62
     7
100
AcDbVertex
100
AcDb2dVertex
 10
95.19143337673609
 20
164.3603379991319
 30
0.0
  0
VERTEX
  5
303
330
2DF
100
AcDbEntity
  8
LAYER_1
 62
     7
100
AcDbVertex
100
AcDb2dVertex
 10
94.95647786458333
 20
164.9480712890625
 30
0.0
  0
SEQEND
  5
304
330
2DF
100
AcDbEntity
  8
LAYER_1
 62
     7
  0
POLYLINE
  5
2D4
330
A
100
AcDbEntity
  8
LAYER_1
  6
AI9-LType4
 62
     7
100
AcDb2dPolyline
 66
     1
 10
0.0
 20
0.0
 30
0.0
  0
VERTEX
  5
2D5
330
2D4
100
AcDbEntity
  8
LAYER_1
  6
AI9-LType4
 62
     7
100
AcDbVertex
100
AcDb2dVertex
 10
31.58911404079861
 20
146.6101725260416
 30
0.0
  0
VERTEX
  5
2D6
330
2D4
100
AcDbEntity
  8
LAYER_1
  6
AI9-LType4
 62
     7
100
AcDbVertex
100
AcDb2dVertex
 10
35.73029106987847
 20
146.7807047526041
 30
0.0
  0
VERTEX
  5
2D7
330
2D4
100
AcDbEntity
  8
LAYER_1
  6
AI9-LType4
 62
     7
100
AcDbVertex
100
AcDb2dVertex
 10
39.31629096137152
 20
146.6952663845486
 30
0.0
  0
VERTEX
  5
2D8
330
2D4
100
AcDbEntity
  8
LAYER_1
  6
AI9-LType4
 62
     7
100
AcDbVertex
100
AcDb2dVertex
 10
42.26201985677082
 20
146.6101725260416
 30
0.0
  0
VERTEX
  5
2D9
330
2D4
100
AcDbEntity
  8
LAYER_1
  6
AI9-LType4
 62
     7
100
AcDbVertex
100
AcDb2dVertex
 10
45.42134467230902
 20
146.6525472005208
 30
0.0
  0
VERTEX
  5
2DA
330
2D4
100
AcDbEntity
  8
LAYER_1
  6
AI9-LType4
 62
     7
100
AcDbVertex
100
AcDb2dVertex
 10
47.8546156141493
 20
146.5247341579861
 30
0.0
  0
VERTEX
  5
2DB
330
2D4
100
AcDbEntity
  8
LAYER_1
  6
AI9-LType4
 62
     7
100
AcDbVertex
100
AcDb2dVertex
 10
50.33077799479166
 20
145.8415717230902
 30
0.0
  0
VERTEX
  5
2DC
330
2D4
100
AcDbEntity
  8
LAYER_1
  6
AI9-LType4
 62
     7
100
AcDbVertex
100
AcDb2dVertex
 10
52.16649712456597
 20
145.158753797743
 30
0.0
  0
VERTEX
  5
2DD
330
2D4
100
AcDbEntity
  8
LAYER_1
  6
AI9-LType4
 62
     7
100
AcDbVertex
100
AcDb2dVertex
 10
53.27650689019097
 20
144.6461235894097
 30
0.0
  0
SEQEND
  5
2DE
330
2D4
100
AcDbEntity
  8
LAYER_1
  6
AI9-LType4
 62
     7
  0
POLYLINE
  5
2C1
330
A
100
AcDbEntity
  8
LAYER_1
  6
AI9-LType3
 62
     7
100
AcDb2dPolyline
 66
     1
 10
0.0
 20
0.0
 30
0.0
  0
VERTEX
  5
2C2
330
2C1
100
AcDbEntity
  8
LAYER_1
  6
AI9-LType3
 62
     7
100
AcDbVertex
100
AcDb2dVertex
 10
125.1775444878472
 20
140.0186713324652
 30
0.0
  0
VERTEX
  5
2C3
330
2C1
100
AcDbEntity
  8
LAYER_1
  6
AI9-LType3
 62
     7
100
AcDbVertex
100
AcDb2dVertex
 10
127.6469889322916
 20
140.7242268880208
 30
0.0
  0
VERTEX
  5
2C4
330
2C1
100
AcDbEntity
  8
LAYER_1
  6
AI9-LType3
 62
     7
100
AcDbVertex
100
AcDb2dVertex
 10
132.4094889322916
 20
140.7242268880208
 30
0.0
  0
VERTEX
  5
2C5
330
2C1
100
AcDbEntity
  8
LAYER_1
  6
AI9-LType3
 62
     7
100
AcDbVertex
100
AcDb2dVertex
 10
141.405322265625
 20
140.7242268880208
 30
0.0
  0
VERTEX
  5
2C6
330
2C1
100
AcDbEntity
  8
LAYER_1
  6
AI9-LType3
 62
     7
100
AcDbVertex
100
AcDb2dVertex
 10
150.0483778211805
 20
140.0186713324652
 30
0.0
  0
VERTEX
  5
2C7
330
2C1
100
AcDbEntity
  8
LAYER_1
  6
AI9-LType3
 62
     7
100
AcDbVertex
100
AcDb2dVertex
 10
161.1608778211805
 20
139.4895046657986
 30
0.0
  0
VERTEX
  5
2C8
330
2C1
100
AcDbEntity
  8
LAYER_1
  6
AI9-LType3
 62
     7
100
AcDbVertex
100
AcDb2dVertex
 10
174.0372667100694
 20
138.0783935546875
 30
0.0
  0
VERTEX
  5
2C9
330
2C1
100
AcDbEntity
  8
LAYER_1
  6
AI9-LType3
 62
     7
100
AcDbVertex
100
AcDb2dVertex
 10
187.2664333767361
 20
137.3728379991319
 30
0.0
  0
VERTEX
  5
2CA
330
2C1
100
AcDbEntity
  8
LAYER_1
  6
AI9-LType3
 62
     7
100
AcDbVertex
100
AcDb2dVertex
 10
199.2608778211805
 20
136.8436713324653
 30
0.0
  0
VERTEX
  5
2CB
330
2C1
100
AcDbEntity
  8
LAYER_1
  6
AI9-LType3
 62
     7
100
AcDbVertex
100
AcDb2dVertex
 10
210.3733778211805
 20
135.9617268880208
 30
0.0
  0
VERTEX
  5
2CC
330
2C1
100
AcDbEntity
  8
LAYER_1
  6
AI9-LType3
 62
     7
100
AcDbVertex
100
AcDb2dVertex
 10
222.1914333767361
 20
134.1978379991319
 30
0.0
  0
VERTEX
  5
2CD
330
2C1
100
AcDbEntity
  8
LAYER_1
  6
AI9-LType3
 62
     7
100
AcDbVertex
100
AcDb2dVertex
 10
232.2456000434028
 20
133.3158935546874
 30
0.0
  0
VERTEX
  5
2CE
330
2C1
100
AcDbEntity
  8
LAYER_1
  6
AI9-LType3
 62
     7
100
AcDbVertex
100
AcDb2dVertex
 10
240.8886555989583
 20
132.7867268880208
 30
0.0
  0
VERTEX
  5
2CF
330
2C1
100
AcDbEntity
  8
LAYER_1
  6
AI9-LType3
 62
     7
100
AcDbVertex
100
AcDb2dVertex
 10
251.6483778211805
 20
131.3756157769097
 30
0.0
  0
VERTEX
  5
2D0
330
2C1
100
AcDbEntity
  8
LAYER_1
  6
AI9-LType3
 62
     7
100
AcDbVertex
100
AcDb2dVertex
 10
262.4081000434027
 20
129.4353379991319
 30
0.0
  0
VERTEX
  5
2D1
330
2C1
100
AcDbEntity
  8
LAYER_1
  6
AI9-LType3
 62
     7
100
AcDbVertex
100
AcDb2dVertex
 10
271.0511555989583
 20
128.2006157769097
 30
0.0
  0
SEQEND
  5
2D2
330
2C1
100
AcDbEntity
  8
LAYER_1
  6
AI9-LType3
 62
     7
  0
POLYLINE
  5
2B6
330
A
100
AcDbEntity
  8
LAYER_1
 62
     7
100
AcDb2dPolyline
 66
     1
 10
0.0
 20
0.0
 30
0.0
  0
VERTEX
  5
2B7
330
2B6
100
AcDbEntity
  8
LAYER_1
 62
     7
100
AcDbVertex
100
AcDb2dVertex
 10
31.51607801649305
 20
151.5111653645833
 30
0.0
  0
VERTEX
  5
2B8
330
2B6
100
AcDbEntity
  8
LAYER_1
 62
     7
100
AcDbVertex
100
AcDb2dVertex
 10
35.27295464409722
 20
151.6155517578125
 30
0.0
  0
VERTEX
  5
2B9
330
2B6
100
AcDbEntity
  8
LAYER_1
 62
     7
100
AcDbVertex
100
AcDb2dVertex
 10
38.40368516710069
 20
151.6155517578125
 30
0.0
  0
VERTEX
  5
2BA
330
2B6
100
AcDbEntity
  8
LAYER_1
 62
     7
100
AcDbVertex
100
AcDb2dVertex
 10
41.11687011718749
 20
151.7891845703125
 30
0.0
  0
VERTEX
  5
2BB
330
2B6
100
AcDbEntity
  8
LAYER_1
 62
     7
100
AcDbVertex
100
AcDb2dVertex
 10
43.27367214626735
 20
151.9979573567708
 30
0.0
  0
VERTEX
  5
2BC
330
2B6
100
AcDbEntity
  8
LAYER_1
 62
     7
100
AcDbVertex
100
AcDb2dVertex
 10
46.09124348958332
 20
151.7891845703125
 30
0.0
  0
VERTEX
  5
2BD
330
2B6
100
AcDbEntity
  8
LAYER_1
 62
     7
100
AcDbVertex
100
AcDb2dVertex
 10
48.00447726779513
 20
151.6503472222222
 30
0.0
  0
VERTEX
  5
2BE
330
2B6
100
AcDbEntity
  8
LAYER_1
 62
     7
100
AcDbVertex
100
AcDb2dVertex
 10
49.88291558159722
 20
151.545960828993
 30
0.0
  0
SEQEND
  5
2BF
330
2B6
100
AcDbEntity
  8
LAYER_1
 62
     7
  0
POLYLINE
  5
29C
330
A
100
AcDbEntity
  8
LAYER_1
 62
     7
100
AcDb2dPolyline
 66
     1
 10
0.0
 20
0.0
 30
0.0
  0
VERTEX
  5
29D
330
29C
100
AcDbEntity
  8
LAYER_1
 62
     7
100
AcDbVertex
100
AcDb2dVertex
 10
163.7185167100694
 20
149.5436713324652
 30
0.0
  0
VERTEX
  5
29E
330
29C
100
AcDbEntity
  8
LAYER_1
 62
     7
100
AcDbVertex
100
AcDb2dVertex
 10
167.599072265625
 20
149.6318657769097
 30
0.0
  0
VERTEX
  5
29F
330
29C
100
AcDbEntity
  8
LAYER_1
 62
     7
100
AcDbVertex
100
AcDb2dVertex
 10
172.5379611545139
 20
149.5436713324652
 30
0.0
  0
VERTEX
  5
2A0
330
29C
100
AcDbEntity
  8
LAYER_1
 62
     7
100
AcDbVertex
100
AcDb2dVertex
 10
177.7414333767361
 20
149.7200602213541
 30
0.0
  0
VERTEX
  5
2A1
330
29C
100
AcDbEntity
  8
LAYER_1
 62
     7
100
AcDbVertex
100
AcDb2dVertex
 10
182.2393500434028
 20
149.4554768880208
 30
0.0
  0
VERTEX
  5
2A2
330
29C
100
AcDbEntity
  8
LAYER_1
 62
     7
100
AcDbVertex
100
AcDb2dVertex
 10
187.8837944878472
 20
148.3971435546875
 30
0.0
  0
VERTEX
  5
2A3
330
29C
100
AcDbEntity
  8
LAYER_1
 62
     7
100
AcDbVertex
100
AcDb2dVertex
 10
192.4699055989583
 20
147.9561713324652
 30
0.0
  0
VERTEX
  5
2A4
330
29C
100
AcDbEntity
  8
LAYER_1
 62
     7
100
AcDbVertex
100
AcDb2dVertex
 10
194.4101833767361
 20
147.6915879991319
 30
0.0
  0
VERTEX
  5
2A5
330
29C
100
AcDbEntity
  8
LAYER_1
 62
     7
100
AcDbVertex
100
AcDb2dVertex
 10
199.5254611545138
 20
146.9860324435764
 30
0.0
  0
VERTEX
  5
2A6
330
29C
100
AcDbEntity
  8
LAYER_1
 62
     7
100
AcDbVertex
100
AcDb2dVertex
 10
207.0219889322916
 20
145.927699110243
 30
0.0
  0
VERTEX
  5
2A7
330
29C
100
AcDbEntity
  8
LAYER_1
 62
     7
100
AcDbVertex
100
AcDb2dVertex
 10
214.1657389322916
 20
145.8395046657986
 30
0.0
  0
VERTEX
  5
2A8
330
29C
100
AcDbEntity
  8
LAYER_1
 62
     7
100
AcDbVertex
100
AcDb2dVertex
 10
219.6337944878472
 20
145.7513102213541
 30
0.0
  0
VERTEX
  5
2A9
330
29C
100
AcDbEntity
  8
LAYER_1
 62
     7
100
AcDbVertex
100
AcDb2dVertex
 10
224.5726833767361
 20
145.4867268880208
 30
0.0
  0
VERTEX
  5
2AA
330
29C
100
AcDbEntity
  8
LAYER_1
 62
     7
100
AcDbVertex
100
AcDb2dVertex
 10
229.7761555989583
 20
145.3103379991319
 30
0.0
  0
VERTEX
  5
2AB
330
29C
100
AcDbEntity
  8
LAYER_1
 62
     7
100
AcDbVertex
100
AcDb2dVertex
 10
233.3921278211805
 20
145.3103379991319
 30
0.0
  0
VERTEX
  5
2AC
330
29C
100
AcDbEntity
  8
LAYER_1
 62
     7
100
AcDbVertex
100
AcDb2dVertex
 10
237.6254611545139
 20
145.3985324435764
 30
0.0
  0
VERTEX
  5
2AD
330
29C
100
AcDbEntity
  8
LAYER_1
 62
     7
100
AcDbVertex
100
AcDb2dVertex
 10
242.1233778211805
 20
145.133949110243
 30
0.0
  0
VERTEX
  5
2AE
330
29C
100
AcDbEntity
  8
LAYER_1
 62
     7
100
AcDbVertex
100
AcDb2dVertex
 10
243.7108778211805
 20
144.9575602213541
 30
0.0
  0
VERTEX
  5
2AF
330
29C
100
AcDbEntity
  8
LAYER_1
 62
     7
100
AcDbVertex
100
AcDb2dVertex
 10
249.9726833767361
 20
144.1638102213541
 30
0.0
  0
VERTEX
  5
2B0
330
29C
100
AcDbEntity
  8
LAYER_1
 62
     7
100
AcDbVertex
100
AcDb2dVertex
 10
255.5289333767361
 20
143.3700602213541
 30
0.0
  0
VERTEX
  5
2B1
330
29C
100
AcDbEntity
  8
LAYER_1
 62
     7
100
AcDbVertex
100
AcDb2dVertex
 10
260.8206000434027
 20
142.3999213324652
 30
0.0
  0
VERTEX
  5
2B2
330
29C
100
AcDbEntity
  8
LAYER_1
 62
     7
100
AcDbVertex
100
AcDb2dVertex
 10
265.0539333767361
 20
141.6943657769097
 30
0.0
  0
VERTEX
  5
2B3
330
29C
100
AcDbEntity
  8
LAYER_1
 62
     7
100
AcDbVertex
100
AcDb2dVertex
 10
268.1407389322917
 20
141.3415879991319
 30
0.0
  0
VERTEX
  5
2B4
330
29C
100
AcDbEntity
  8
LAYER_1
 62
     7
100
AcDbVertex
100
AcDb2dVertex
 10
271.4921278211805
 20
141.0770046657986
 30
0.0
  0
SEQEND
  5
2B5
330
29C
100
AcDbEntity
  8
LAYER_1
 62
     7
  0
POLYLINE
  5
26A
330
A
100
AcDbEntity
  8
LAYER_1
 62
     7
100
AcDb2dPolyline
 66
     1
 10
0.0
 20
0.0
 30
0.0
  0
VERTEX
  5
26B
330
26A
100
AcDbEntity
  8
LAYER_1
 62
     7
100
AcDbVertex
100
AcDb2dVertex
 10
91.89895562065972
 20
144.2520046657986
 30
0.0
  0
VERTEX
  5
26C
330
26A
100
AcDbEntity
  8
LAYER_1
 62
     7
100
AcDbVertex
100
AcDb2dVertex
 10
92.60416666666666
 20
144.3105712890625
 30
0.0
  0
VERTEX
  5
26D
330
26A
100
AcDbEntity
  8
LAYER_1
 62
     7
100
AcDbVertex
100
AcDb2dVertex
 10
94.01527777777777
 20
144.3698269314236
 30
0.0
  0
VERTEX
  5
26E
330
26A
100
AcDbEntity
  8
LAYER_1
 62
     7
100
AcDbVertex
100
AcDb2dVertex
 10
95.66203342013888
 20
144.1341824001736
 30
0.0
  0
VERTEX
  5
26F
330
26A
100
AcDbEntity
  8
LAYER_1
 62
     7
100
AcDbVertex
100
AcDb2dVertex
 10
97.71944444444443
 20
143.2522379557291
 30
0.0
  0
VERTEX
  5
270
330
26A
100
AcDbEntity
  8
LAYER_1
 62
     7
100
AcDbVertex
100
AcDb2dVertex
 10
99.71897786458333
 20
141.9003824869791
 30
0.0
  0
VERTEX
  5
271
330
26A
100
AcDbEntity
  8
LAYER_1
 62
     7
100
AcDbVertex
100
AcDb2dVertex
 10
102.2469889322916
 20
139.9601047092013
 30
0.0
  0
VERTEX
  5
272
330
26A
100
AcDbEntity
  8
LAYER_1
 62
     7
100
AcDbVertex
100
AcDb2dVertex
 10
104.5986111111111
 20
138.3133490668402
 30
0.0
  0
VERTEX
  5
273
330
26A
100
AcDbEntity
  8
LAYER_1
 62
     7
100
AcDbVertex
100
AcDb2dVertex
 10
107.1273111979166
 20
137.078626844618
 30
0.0
  0
VERTEX
  5
274
330
26A
100
AcDbEntity
  8
LAYER_1
 62
     7
100
AcDbVertex
100
AcDb2dVertex
 10
108.3620334201389
 20
136.7258490668402
 30
0.0
  0
VERTEX
  5
275
330
26A
100
AcDbEntity
  8
LAYER_1
 62
     7
100
AcDbVertex
100
AcDb2dVertex
 10
110.5958333333333
 20
136.7258490668402
 30
0.0
  0
VERTEX
  5
276
330
26A
100
AcDbEntity
  8
LAYER_1
 62
     7
100
AcDbVertex
100
AcDb2dVertex
 10
112.1247667100694
 20
136.7258490668402
 30
0.0
  0
VERTEX
  5
277
330
26A
100
AcDbEntity
  8
LAYER_1
 62
     7
100
AcDbVertex
100
AcDb2dVertex
 10
113.5944444444444
 20
136.7258490668402
 30
0.0
  0
VERTEX
  5
278
330
26A
100
AcDbEntity
  8
LAYER_1
 62
     7
100
AcDbVertex
100
AcDb2dVertex
 10
117.0636555989583
 20
136.8436713324653
 30
0.0
  0
VERTEX
  5
279
330
26A
100
AcDbEntity
  8
LAYER_1
 62
     7
100
AcDbVertex
100
AcDb2dVertex
 10
119.4745334201389
 20
136.9022379557291
 30
0.0
  0
VERTEX
  5
27A
330
26A
100
AcDbEntity
  8
LAYER_1
 62
     7
100
AcDbVertex
100
AcDb2dVertex
 10
121.4148111979166
 20
137.5492268880208
 30
0.0
  0
VERTEX
  5
27B
330
26A
100
AcDbEntity
  8
LAYER_1
 62
     7
100
AcDbVertex
100
AcDb2dVertex
 10
123.2372667100694
 20
138.8425157335069
 30
0.0
  0
VERTEX
  5
27C
330
26A
100
AcDbEntity
  8
LAYER_1
 62
     7
100
AcDbVertex
100
AcDb2dVertex
 10
125.64814453125
 20
140.9006157769097
 30
0.0
  0
VERTEX
  5
27D
330
26A
100
AcDbEntity
  8
LAYER_1
 62
     7
100
AcDbVertex
100
AcDb2dVertex
 10
126.8828667534722
 20
142.4881157769097
 30
0.0
  0
VERTEX
  5
27E
330
26A
100
AcDbEntity
  8
LAYER_1
 62
     7
100
AcDbVertex
100
AcDb2dVertex
 10
128.2939778645833
 20
144.1934380425347
 30
0.0
  0
VERTEX
  5
27F
330
26A
100
AcDbEntity
  8
LAYER_1
 62
     7
100
AcDbVertex
100
AcDb2dVertex
 10
129.4108778211805
 20
144.9575602213541
 30
0.0
  0
VERTEX
  5
280
330
26A
100
AcDbEntity
  8
LAYER_1
 62
     7
100
AcDbVertex
100
AcDb2dVertex
 10
130.9398111979166
 20
145.251771375868
 30
0.0
  0
VERTEX
  5
281
330
26A
100
AcDbEntity
  8
LAYER_1
 62
     7
100
AcDbVertex
100
AcDb2dVertex
 10
132.6444444444444
 20
145.6045491536458
 30
0.0
  0
VERTEX
  5
282
330
26A
100
AcDbEntity
  8
LAYER_1
 62
     7
100
AcDbVertex
100
AcDb2dVertex
 10
133.8791666666666
 20
145.5452935112847
 30
0.0
  0
VERTEX
  5
283
330
26A
100
AcDbEntity
  8
LAYER_1
 62
     7
100
AcDbVertex
100
AcDb2dVertex
 10
135.8787000868055
 20
145.133949110243
 30
0.0
  0
VERTEX
  5
284
330
26A
100
AcDbEntity
  8
LAYER_1
 62
     7
100
AcDbVertex
100
AcDb2dVertex
 10
137.1134223090277
 20
144.8397379557292
 30
0.0
  0
VERTEX
  5
285
330
26A
100
AcDbEntity
  8
LAYER_1
 62
     7
100
AcDbVertex
100
AcDb2dVertex
 10
139.7592556423611
 20
144.3105712890625
 30
0.0
  0
VERTEX
  5
286
330
26A
100
AcDbEntity
  8
LAYER_1
 62
     7
100
AcDbVertex
100
AcDb2dVertex
 10
143.6983778211805
 20
144.1934380425347
 30
0.0
  0
VERTEX
  5
287
330
26A
100
AcDbEntity
  8
LAYER_1
 62
     7
100
AcDbVertex
100
AcDb2dVertex
 10
147.9902777777778
 20
144.4869601779513
 30
0.0
  0
VERTEX
  5
288
330
26A
100
AcDbEntity
  8
LAYER_1
 62
     7
100
AcDbVertex
100
AcDb2dVertex
 10
151.1067111545139
 20
144.5462158203125
 30
0.0
  0
VERTEX
  5
289
330
26A
100
AcDbEntity
  8
LAYER_1
 62
     7
100
AcDbVertex
100
AcDb2dVertex
 10
152.63564453125
 20
144.6047824435764
 30
0.0
  0
VERTEX
  5
28A
330
26A
100
AcDbEntity
  8
LAYER_1
 62
     7
100
AcDbVertex
100
AcDb2dVertex
 10
156.2805555555555
 20
146.1922824435764
 30
0.0
  0
VERTEX
  5
28B
330
26A
100
AcDbEntity
  8
LAYER_1
 62
     7
100
AcDbVertex
100
AcDb2dVertex
 10
158.98564453125
 20
147.3684380425347
 30
0.0
  0
VERTEX
  5
28C
330
26A
100
AcDbEntity
  8
LAYER_1
 62
     7
100
AcDbVertex
100
AcDb2dVertex
 10
160.8666666666666
 20
148.3675157335069
 30
0.0
  0
VERTEX
  5
28D
330
26A
100
AcDbEntity
  8
LAYER_1
 62
     7
100
AcDbVertex
100
AcDb2dVertex
 10
162.6898111979166
 20
149.0730712890625
 30
0.0
  0
VERTEX
  5
28E
330
26A
100
AcDbEntity
  8
LAYER_1
 62
     7
100
AcDbVertex
100
AcDb2dVertex
 10
164.6300889756944
 20
149.9550157335069
 30
0.0
  0
VERTEX
  5
28F
330
26A
100
AcDbEntity
  8
LAYER_1
 62
     7
100
AcDbVertex
100
AcDb2dVertex
 10
167.1581000434027
 20
150.6020046657986
 30
0.0
  0
VERTEX
  5
290
330
26A
100
AcDbEntity
  8
LAYER_1
 62
     7
100
AcDbVertex
100
AcDb2dVertex
 10
169.5097222222222
 20
151.1897379557291
 30
0.0
  0
VERTEX
  5
291
330
26A
100
AcDbEntity
  8
LAYER_1
 62
     7
100
AcDbVertex
100
AcDb2dVertex
 10
171.5092556423611
 20
151.9545491536458
 30
0.0
  0
VERTEX
  5
292
330
26A
100
AcDbEntity
  8
LAYER_1
 62
     7
100
AcDbVertex
100
AcDb2dVertex
 10
173.6844889322916
 20
152.953626844618
 30
0.0
  0
VERTEX
  5
293
330
26A
100
AcDbEntity
  8
LAYER_1
 62
     7
100
AcDbVertex
100
AcDb2dVertex
 10
175.8597222222222
 20
154.2476047092014
 30
0.0
  0
VERTEX
  5
294
330
26A
100
AcDbEntity
  8
LAYER_1
 62
     7
100
AcDbVertex
100
AcDb2dVertex
 10
177.6828667534722
 20
155.5408935546875
 30
0.0
  0
VERTEX
  5
295
330
26A
100
AcDbEntity
  8
LAYER_1
 62
     7
100
AcDbVertex
100
AcDb2dVertex
 10
180.2694444444444
 20
157.1869601779513
 30
0.0
  0
VERTEX
  5
296
330
26A
100
AcDbEntity
  8
LAYER_1
 62
     7
100
AcDbVertex
100
AcDb2dVertex
 10
181.3277777777777
 20
158.1867268880208
 30
0.0
  0
VERTEX
  5
297
330
26A
100
AcDbEntity
  8
LAYER_1
 62
     7
100
AcDbVertex
100
AcDb2dVertex
 10
182.0925889756944
 20
158.8922824435763
 30
0.0
  0
VERTEX
  5
298
330
26A
100
AcDbEntity
  8
LAYER_1
 62
     7
100
AcDbVertex
100
AcDb2dVertex
 10
183.0916666666666
 20
160.1270046657986
 30
0.0
  0
VERTEX
  5
299
330
26A
100
AcDbEntity
  8
LAYER_1
 62
     7
100
AcDbVertex
100
AcDb2dVertex
 10
183.7386555989583
 20
161.3031602647569
 30
0.0
  0
VERTEX
  5
29A
330
26A
100
AcDbEntity
  8
LAYER_1
 62
     7
100
AcDbVertex
100
AcDb2dVertex
 10
184.2092556423611
 20
162.4200602213541
 30
0.0
  0
SEQEND
  5
29B
330
26A
100
AcDbEntity
  8
LAYER_1
 62
     7
  0
SPLINE
  5
269
330
A
100
AcDbEntity
  8
LAYER_1
 62
     7
100
AcDbSpline
210
0.0
220
0.0
230
1.0
 70
     8
 71
     3
 72
    71
 73
    67
 74
     0
 42
0.00000001
 43
0.0000000001
 40
0.0
 40
0.0
 40
0.0
 40
0.0
 40
1.0
 40
1.0
 40
1.0
 40
2.0
 40
2.0
 40
2.0
 40
3.0
 40
3.0
 40
3.0
 40
4.0
 40
4.0
 40
4.0
 40
5.0
 40
5.0
 40
5.0
 40
6.0
 40
6.0
 40
6.0
 40
7.0
 40
7.0
 40
7.0
 40
8.0
 40
8.0
 40
8.0
 40
9.0
 40
9.0
 40
9.0
 40
10.0
 40
10.0
 40
10.0
 40
11.0
 40
11.0
 40
11.0
 40
12.0
 40
12.0
 40
12.0
 40
13.0
 40
13.0
 40
13.0
 40
14.0
 40
14.0
 40
14.0
 40
15.0
 40
15.0
 40
15.0
 40
16.0
 40
16.0
 40
16.0
 40
17.0
 40
17.0
 40
17.0
 40
18.0
 40
18.0
 40
18.0
 40
19.0
 40
19.0
 40
19.0
 40
20.0
 40
20.0
 40
20.0
 40
21.0
 40
21.0
 40
21.0
 40
22.0
 40
22.0
 40
22.0
 40
22.0
 10
101.4239556206597
 20
157.5397379557291
 30
0.0
 10
101.4239556206597
 20
157.5397379557291
 30
0.0
 10
102.6583333333333
 20
156.9520046657986
 30
0.0
 10
102.6583333333333
 20
156.9520046657986
 30
0.0
 10
102.6583333333333
 20
156.9520046657986
 30
0.0
 10
104.5986111111111
 20
156.128626844618
 30
0.0
 10
104.5986111111111
 20
156.128626844618
 30
0.0
 10
104.5986111111111
 20
156.128626844618
 30
0.0
 10
106.2453667534722
 20
156.0114935980902
 30
0.0
 10
106.2453667534722
 20
156.0114935980902
 30
0.0
 10
106.2453667534722
 20
156.0114935980902
 30
0.0
 10
108.18564453125
 20
155.8936713324652
 30
0.0
 10
108.18564453125
 20
155.8936713324652
 30
0.0
 10
108.18564453125
 20
155.8936713324652
 30
0.0
 10
109.5375
 20
155.8936713324652
 30
0.0
 10
109.5375
 20
155.8936713324652
 30
0.0
 10
109.5375
 20
155.8936713324652
 30
0.0
 10
110.8900444878472
 20
155.8351047092014
 30
0.0
 10
110.8900444878472
 20
155.8351047092014
 30
0.0
 10
110.8900444878472
 20
155.8351047092014
 30
0.0
 10
112.4189778645833
 20
155.4230712890625
 30
0.0
 10
112.4189778645833
 20
155.4230712890625
 30
0.0
 10
112.4189778645833
 20
155.4230712890625
 30
0.0
 10
114.3
 20
155.1881157769097
 30
0.0
 10
114.3
 20
155.1881157769097
 30
0.0
 10
114.3
 20
155.1881157769097
 30
0.0
 10
115.8289333767361
 20
154.658949110243
 30
0.0
 10
115.8289333767361
 20
154.658949110243
 30
0.0
 10
115.8289333767361
 20
154.658949110243
 30
0.0
 10
117.2986111111111
 20
153.8355712890625
 30
0.0
 10
117.2986111111111
 20
153.8355712890625
 30
0.0
 10
117.2986111111111
 20
153.8355712890625
 30
0.0
 10
119.180322265625
 20
153.3656602647569
 30
0.0
 10
119.180322265625
 20
153.3656602647569
 30
0.0
 10
119.180322265625
 20
153.3656602647569
 30
0.0
 10
120.4150444878472
 20
153.2478379991319
 30
0.0
 10
120.4150444878472
 20
153.2478379991319
 30
0.0
 10
120.4150444878472
 20
153.2478379991319
 30
0.0
 10
122.4138888888889
 20
153.1300157335069
 30
0.0
 10
122.4138888888889
 20
153.1300157335069
 30
0.0
 10
122.4138888888889
 20
153.1300157335069
 30
0.0
 10
123.4725667317708
 20
152.953626844618
 30
0.0
 10
123.7078667534722
 20
152.953626844618
 30
0.0
 10
123.942822265625
 20
152.953626844618
 30
0.0
 10
125.2361111111111
 20
152.3073269314236
 30
0.0
 10
125.2361111111111
 20
152.3073269314236
 30
0.0
 10
125.2361111111111
 20
152.3073269314236
 30
0.0
 10
126.5886555989583
 20
151.6603379991319
 30
0.0
 10
126.5886555989583
 20
151.6603379991319
 30
0.0
 10
126.5886555989583
 20
151.6603379991319
 30
0.0
 10
127.8233778211805
 20
150.3670491536458
 30
0.0
 10
127.8233778211805
 20
150.3670491536458
 30
0.0
 10
127.8233778211805
 20
150.3670491536458
 30
0.0
 10
129.0581000434027
 20
149.1323269314236
 30
0.0
 10
129.0581000434027
 20
149.1323269314236
 30
0.0
 10
129.0581000434027
 20
149.1323269314236
 30
0.0
 10
130.175
 20
147.8976047092013
 30
0.0
 10
130.175
 20
147.8976047092013
 30
0.0
 10
130.175
 20
147.8976047092013
 30
0.0
 10
131.3511555989583
 20
146.9564046223958
 30
0.0
 10
131.3511555989583
 20
146.9564046223958
 30
0.0
 10
131.3511555989583
 20
146.9564046223958
 30
0.0
 10
132.5273111979166
 20
146.0744601779514
 30
0.0
 10
132.5273111979166
 20
146.0744601779514
 30
0.0
 10
132.5273111979166
 20
146.0744601779514
 30
0.0
 10
133.8791666666666
 20
145.5452935112847
 30
0.0
 10
133.8791666666666
 20
145.5452935112847
 30
0.0
  0
HATCH
  5
268
330
A
100
AcDbEntity
  8
LAYER_1
 62
     7
100
AcDbHatch
 10
0.0
 20
0.0
 30
0.0
210
0.0
220
0.0
230
1.0
  2
SOLID
 70
     1
 71
     0
 91
        1
 92
        3
 72
     0
 73
     1
 93
        3
 10
314.1110595703125
 20
274.4125352647569
 10
312.2589762369792
 20
273.5305908203125
 10
312.2589762369792
 20
275.2062852647569
 97
        0
 75
     2
 76
     1
 98
        1
 10
0.0
 20
0.0
450
        0
451
        0
460
0.0
461
0.0
452
        0
462
0.0
453
        0
470

  0
HATCH
  5
267
330
A
100
AcDbEntity
  8
LAYER_1
 62
     7
100
AcDbHatch
 10
0.0
 20
0.0
 30
0.0
210
0.0
220
0.0
230
1.0
  2
SOLID
 70
     1
 71
     0
 91
        1
 92
        3
 72
     0
 73
     1
 93
        3
 10
314.1403428819444
 20
235.6069797092014
 10
312.2882595486111
 20
234.7250352647569
 10
312.2882595486111
 20
236.4007297092014
 97
        0
 75
     2
 76
     1
 98
        1
 10
0.0
 20
0.0
450
        0
451
        0
460
0.0
461
0.0
452
        0
462
0.0
453
        0
470

  0
HATCH
  5
266
330
A
100
AcDbEntity
  8
LAYER_1
 62
     7
100
AcDbHatch
 10
0.0
 20
0.0
 30
0.0
210
0.0
220
0.0
230
1.0
  2
SOLID
 70
     1
 71
     0
 91
        1
 92
        3
 72
     0
 73
     1
 93
        3
 10
198.346204969618
 20
227.404896375868
 10
200.1982883029514
 20
228.2868408203125
 10
200.1982883029514
 20
226.611146375868
 97
        0
 75
     2
 76
     1
 98
        1
 10
0.0
 20
0.0
450
        0
451
        0
460
0.0
461
0.0
452
        0
462
0.0
453
        0
470

  0
HATCH
  5
265
330
A
100
AcDbEntity
  8
LAYER_1
 62
     7
100
AcDbHatch
 10
0.0
 20
0.0
 30
0.0
210
0.0
220
0.0
230
1.0
  2
SOLID
 70
     1
 71
     0
 91
        1
 92
        3
 72
     0
 73
     1
 93
        3
 10
198.4347439236111
 20
188.5993408203125
 10
200.2868272569444
 20
189.4812852647569
 10
200.2868272569444
 20
187.8055908203125
 97
        0
 75
     2
 76
     1
 98
        1
 10
0.0
 20
0.0
450
        0
451
        0
460
0.0
461
0.0
452
        0
462
0.0
453
        0
470

  0
POLYLINE
  5
260
330
A
100
AcDbEntity
  8
LAYER_1
 62
     7
100
AcDb2dPolyline
 66
     1
 10
0.0
 20
0.0
 30
0.0
  0
VERTEX
  5
261
330
260
100
AcDbEntity
  8
LAYER_1
 62
     7
100
AcDbVertex
100
AcDb2dVertex
 10
116.3911729600694
 20
274.9377400716146
 30
0.0
  0
VERTEX
  5
262
330
260
100
AcDbEntity
  8
LAYER_1
 62
     7
100
AcDbVertex
100
AcDb2dVertex
 10
114.3909505208333
 20
274.9377400716146
 30
0.0
  0
VERTEX
  5
263
330
260
100
AcDbEntity
  8
LAYER_1
 62
     7
100
AcDbVertex
100
AcDb2dVertex
 10
114.3909505208333
 20
275.937506781684
 30
0.0
  0
SEQEND
  5
264
330
260
100
AcDbEntity
  8
LAYER_1
 62
     7
  0
HATCH
  5
25F
330
A
100
AcDbEntity
  8
LAYER_1
 62
     7
100
AcDbHatch
 10
0.0
 20
0.0
 30
0.0
210
0.0
220
0.0
230
1.0
  2
SOLID
 70
     1
 71
     0
 91
        1
 92
        1
 93
        1
 72
     4
 94
        3
 73
     0
 74
     0
 95
       20
 96
       16
 40
0.0
 40
0.0
 40
0.0
 40
0.0
 40
1.0
 40
1.0
 40
1.0
 40
2.0
 40
2.0
 40
2.0
 40
3.0
 40
3.0
 40
3.0
 40
4.0
 40
4.0
 40
4.0
 40
5.0
 40
5.0
 40
5.0
 40
5.0
 10
114.2104275173611
 20
276.3543633355034
 10
114.1222330729166
 20
276.0622192382812
 10
114.0409288194444
 20
275.8727389865451
 10
113.9472222222222
 20
275.6391615125868
 10
113.9472222222222
 20
275.6391615125868
 10
114.8367458767361
 20
275.6391615125868
 10
114.8367458767361
 20
275.6391615125868
 10
114.7967827690972
 20
275.7225328233507
 10
114.6617350260416
 20
276.0622192382812
 10
114.5735405815972
 20
276.3543633355034
 10
114.4791449652778
 20
276.6664889865451
 10
114.4150661892361
 20
276.9489868164062
 10
114.3916395399305
 20
277.1329549153646
 10
114.3689019097222
 20
276.9489868164062
 10
114.3041341145833
 20
276.6664889865451
 10
114.2104275173611
 20
276.3543633355034
 97
        0
 97
        0
 75
     2
 76
     1
 98
        1
 10
0.0
 20
0.0
450
        0
451
        0
460
0.0
461
0.0
452
        0
462
0.0
453
        0
470

  0
POLYLINE
  5
25A
330
A
100
AcDbEntity
  8
LAYER_1
 62
     7
100
AcDb2dPolyline
 66
     1
 10
0.0
 20
0.0
 30
0.0
  0
VERTEX
  5
25B
330
25A
100
AcDbEntity
  8
LAYER_1
 62
     7
100
AcDbVertex
100
AcDb2dVertex
 10
186.0392903645833
 20
276.0611857096354
 30
0.0
  0
VERTEX
  5
25C
330
25A
100
AcDbEntity
  8
LAYER_1
 62
     7
100
AcDbVertex
100
AcDb2dVertex
 10
186.0392903645833
 20
275.0614189995659
 30
0.0
  0
VERTEX
  5
25D
330
25A
100
AcDbEntity
  8
LAYER_1
 62
     7
100
AcDbVertex
100
AcDb2dVertex
 10
184.0390679253472
 20
275.0614189995659
 30
0.0
  0
SEQEND
  5
25E
330
25A
100
AcDbEntity
  8
LAYER_1
 62
     7
  0
HATCH
  5
259
330
A
100
AcDbEntity
  8
LAYER_1
 62
     7
100
AcDbHatch
 10
0.0
 20
0.0
 30
0.0
210
0.0
220
0.0
230
1.0
  2
SOLID
 70
     1
 71
     0
 91
        1
 92
        1
 93
        1
 72
     4
 94
        3
 73
     0
 74
     0
 95
       20
 96
       16
 40
0.0
 40
0.0
 40
0.0
 40
0.0
 40
1.0
 40
1.0
 40
1.0
 40
2.0
 40
2.0
 40
2.0
 40
3.0
 40
3.0
 40
3.0
 40
4.0
 40
4.0
 40
4.0
 40
5.0
 40
5.0
 40
5.0
 40
5.0
 10
185.8587673611111
 20
276.4780422634548
 10
185.7705729166666
 20
276.1858981662326
 10
185.6892686631944
 20
275.9964179144965
 10
185.5955620659722
 20
275.7628404405382
 10
185.5955620659722
 20
275.7628404405382
 10
186.4850857204861
 20
275.7628404405382
 10
186.4850857204861
 20
275.7628404405382
 10
186.4451226128472
 20
275.8462117513021
 10
186.3100748697917
 20
276.1858981662326
 10
186.2218804253472
 20
276.4780422634548
 10
186.1274848090277
 20
276.7901679144965
 10
186.0634060329861
 20
277.0726657443576
 10
186.0399793836805
 20
277.256633843316
 10
186.0172417534722
 20
277.0726657443576
 10
185.9524739583333
 20
276.7901679144965
 10
185.8587673611111
 20
276.4780422634548
 97
        0
 97
        0
 75
     2
 76
     1
 98
        1
 10
0.0
 20
0.0
450
        0
451
        0
460
0.0
461
0.0
452
        0
462
0.0
453
        0
470

  0
HATCH
  5
258
330
A
100
AcDbEntity
  8
LAYER_1
 62
     1
100
AcDbHatch
 10
0.0
 20
0.0
 30
0.0
210
0.0
220
0.0
230
1.0
  2
SOLID
 70
     1
 71
     0
 91
        1
 92
        3
 72
     0
 73
     1
 93
        7
 10
320.3225667317708
 20
209.2185818142361
 10
322.406849500868
 20
209.2185818142361
 10
322.406849500868
 20
206.1686387803819
 10
320.3225667317708
 20
206.1686387803819
 10
320.3225667317708
 20
205.1271864149306
 10
317.9612982855902
 20
207.6937825520833
 10
320.3225667317708
 20
210.2600341796875
 97
        0
 75
     2
 76
     1
 98
        1
 10
0.0
 20
0.0
450
        0
451
        0
460
0.0
461
0.0
452
        0
462
0.0
453
        0
470

  0
LINE
  5
257
330
A
100
AcDbEntity
  8
LAYER_1
 62
     7
100
AcDbLine
 10
322.4082275390625
 20
206.1679497612847
 30
0.0
 11
322.4082275390625
 21
209.2182373046875
 31
0.0
  0
LINE
  5
256
330
A
100
AcDbEntity
  8
LAYER_1
 62
     7
100
AcDbLine
 10
322.3785997178819
 20
206.1679497612847
 30
0.0
 11
322.3785997178819
 21
209.2182373046875
 31
0.0
  0
LINE
  5
255
330
A
100
AcDbEntity
  8
LAYER_1
 62
     7
100
AcDbLine
 10
322.3482828776042
 20
206.1679497612847
 30
0.0
 11
322.3482828776042
 21
209.2182373046875
 31
0.0
  0
LINE
  5
254
330
A
100
AcDbEntity
  8
LAYER_1
 62
     7
100
AcDbLine
 10
322.3186550564236
 20
206.1679497612847
 30
0.0
 11
322.3186550564236
 21
209.2182373046875
 31
0.0
  0
LINE
  5
253
330
A
100
AcDbEntity
  8
LAYER_1
 62
     7
100
AcDbLine
 10
322.289027235243
 20
206.1679497612847
 30
0.0
 11
322.289027235243
 21
209.2182373046875
 31
0.0
  0
LINE
  5
252
330
A
100
AcDbEntity
  8
LAYER_1
 62
     7
100
AcDbLine
 10
322.2593994140624
 20
206.1679497612847
 30
0.0
 11
322.2593994140624
 21
209.2182373046875
 31
0.0
  0
LINE
  5
251
330
A
100
AcDbEntity
  8
LAYER_1
 62
     7
100
AcDbLine
 10
322.2290825737847
 20
206.1679497612847
 30
0.0
 11
322.2290825737847
 21
209.2182373046875
 31
0.0
  0
LINE
  5
250
330
A
100
AcDbEntity
  8
LAYER_1
 62
     7
100
AcDbLine
 10
322.1994547526041
 20
206.1679497612847
 30
0.0
 11
322.1994547526041
 21
209.2182373046875
 31
0.0
  0
LINE
  5
24F
330
A
100
AcDbEntity
  8
LAYER_1
 62
     7
100
AcDbLine
 10
322.1698269314236
 20
206.1679497612847
 30
0.0
 11
322.1698269314236
 21
209.2182373046875
 31
0.0
  0
LINE
  5
24E
330
A
100
AcDbEntity
  8
LAYER_1
 62
     7
100
AcDbLine
 10
322.140199110243
 20
206.168122016059
 30
0.0
 11
322.140199110243
 21
209.2182373046875
 31
0.0
  0
LINE
  5
24D
330
A
100
AcDbEntity
  8
LAYER_1
 62
     7
100
AcDbLine
 10
322.1098822699652
 20
206.168122016059
 30
0.0
 11
322.1098822699652
 21
209.2182373046875
 31
0.0
  0
LINE
  5
24C
330
A
100
AcDbEntity
  8
LAYER_1
 62
     7
100
AcDbLine
 10
322.0802544487847
 20
206.168122016059
 30
0.0
 11
322.0802544487847
 21
209.2182373046875
 31
0.0
  0
LINE
  5
24B
330
A
100
AcDbEntity
  8
LAYER_1
 62
     7
100
AcDbLine
 10
322.0506266276041
 20
206.168122016059
 30
0.0
 11
322.0506266276041
 21
209.2182373046875
 31
0.0
  0
LINE
  5
24A
330
A
100
AcDbEntity
  8
LAYER_1
 62
     7
100
AcDbLine
 10
322.0209988064236
 20
206.168122016059
 30
0.0
 11
322.0209988064236
 21
209.2182373046875
 31
0.0
  0
LINE
  5
249
330
A
100
AcDbEntity
  8
LAYER_1
 62
     7
100
AcDbLine
 10
321.9906819661458
 20
206.168122016059
 30
0.0
 11
321.991370985243
 21
209.2182373046875
 31
0.0
  0
LINE
  5
248
330
A
100
AcDbEntity
  8
LAYER_1
 62
     7
100
AcDbLine
 10
321.9610541449652
 20
206.168122016059
 30
0.0
 11
321.9610541449652
 21
209.2182373046875
 31
0.0
  0
LINE
  5
247
330
A
100
AcDbEntity
  8
LAYER_1
 62
     7
100
AcDbLine
 10
321.9314263237847
 20
206.168122016059
 30
0.0
 11
321.9314263237847
 21
209.2182373046875
 31
0.0
  0
LINE
  5
246
330
A
100
AcDbEntity
  8
LAYER_1
 62
     7
100
AcDbLine
 10
321.9017985026042
 20
206.168122016059
 30
0.0
 11
321.9017985026042
 21
209.2182373046875
 31
0.0
  0
LINE
  5
245
330
A
100
AcDbEntity
  8
LAYER_1
 62
    21
100
AcDbLine
 10
321.8714816623263
 20
206.168122016059
 30
0.0
 11
321.8721706814236
 21
209.2182373046875
 31
0.0
  0
LINE
  5
244
330
A
100
AcDbEntity
  8
LAYER_1
 62
    21
100
AcDbLine
 10
321.8418538411458
 20
206.168122016059
 30
0.0
 11
321.8418538411458
 21
209.2182373046875
 31
0.0
  0
LINE
  5
243
330
A
100
AcDbEntity
  8
LAYER_1
 62
    21
100
AcDbLine
 10
321.8122260199653
 20
206.168122016059
 30
0.0
 11
321.8122260199653
 21
209.2182373046875
 31
0.0
  0
LINE
  5
242
330
A
100
AcDbEntity
  8
LAYER_1
 62
    21
100
AcDbLine
 10
321.7825981987847
 20
206.168122016059
 30
0.0
 11
321.7825981987847
 21
209.2182373046875
 31
0.0
  0
LINE
  5
241
330
A
100
AcDbEntity
  8
LAYER_1
 62
    21
100
AcDbLine
 10
321.7522813585069
 20
206.168122016059
 30
0.0
 11
321.7529703776041
 21
209.2182373046875
 31
0.0
  0
LINE
  5
240
330
A
100
AcDbEntity
  8
LAYER_1
 62
    21
100
AcDbLine
 10
321.7226535373264
 20
206.168122016059
 30
0.0
 11
321.7226535373264
 21
209.2182373046875
 31
0.0
  0
LINE
  5
23F
330
A
100
AcDbEntity
  8
LAYER_1
 62
    21
100
AcDbLine
 10
321.6930257161458
 20
206.168122016059
 30
0.0
 11
321.6930257161458
 21
209.2182373046875
 31
0.0
  0
LINE
  5
23E
330
A
100
AcDbEntity
  8
LAYER_1
 62
    21
100
AcDbLine
 10
321.6633978949653
 20
206.168122016059
 30
0.0
 11
321.6633978949653
 21
209.2182373046875
 31
0.0
  0
LINE
  5
23D
330
A
100
AcDbEntity
  8
LAYER_1
 62
    21
100
AcDbLine
 10
321.6330810546875
 20
206.168122016059
 30
0.0
 11
321.6337700737847
 21
209.2182373046875
 31
0.0
  0
LINE
  5
23C
330
A
100
AcDbEntity
  8
LAYER_1
 62
    21
100
AcDbLine
 10
321.6034532335069
 20
206.1682942708333
 30
0.0
 11
321.6041422526042
 21
209.2182373046875
 31
0.0
  0
LINE
  5
23B
330
A
100
AcDbEntity
  8
LAYER_1
 62
    21
100
AcDbLine
 10
321.5738254123264
 20
206.1682942708333
 30
0.0
 11
321.5738254123264
 21
209.2182373046875
 31
0.0
  0
LINE
  5
23A
330
A
100
AcDbEntity
  8
LAYER_1
 62
    21
100
AcDbLine
 10
321.5441975911458
 20
206.1682942708333
 30
0.0
 11
321.5441975911458
 21
209.2182373046875
 31
0.0
  0
LINE
  5
239
330
A
100
AcDbEntity
  8
LAYER_1
 62
    21
100
AcDbLine
 10
321.513880750868
 20
206.1682942708333
 30
0.0
 11
321.5145697699652
 21
209.2182373046875
 31
0.0
  0
LINE
  5
238
330
A
100
AcDbEntity
  8
LAYER_1
 62
    21
100
AcDbLine
 10
321.4842529296874
 20
206.1682942708333
 30
0.0
 11
321.4849419487847
 21
209.2182373046875
 31
0.0
  0
LINE
  5
237
330
A
100
AcDbEntity
  8
LAYER_1
 62
    21
100
AcDbLine
 10
321.4546251085069
 20
206.1682942708333
 30
0.0
 11
321.4546251085069
 21
209.2182373046875
 31
0.0
  0
LINE
  5
236
330
A
100
AcDbEntity
  8
LAYER_1
 62
    21
100
AcDbLine
 10
321.4249972873263
 20
206.1682942708333
 30
0.0
 11
321.4249972873263
 21
209.2182373046875
 31
0.0
  0
LINE
  5
235
330
A
100
AcDbEntity
  8
LAYER_1
 62
    21
100
AcDbLine
 10
321.3946804470486
 20
206.1682942708333
 30
0.0
 11
321.3953694661458
 21
209.2182373046875
 31
0.0
  0
LINE
  5
234
330
A
100
AcDbEntity
  8
LAYER_1
 62
    21
100
AcDbLine
 10
321.365052625868
 20
206.1682942708333
 30
0.0
 11
321.3657416449652
 21
209.2182373046875
 31
0.0
  0
LINE
  5
233
330
A
100
AcDbEntity
  8
LAYER_1
 62
    21
100
AcDbLine
 10
321.3354248046875
 20
206.1682942708333
 30
0.0
 11
321.3361138237847
 21
209.2182373046875
 31
0.0
  0
LINE
  5
232
330
A
100
AcDbEntity
  8
LAYER_1
 62
    21
100
AcDbLine
 10
321.3057969835069
 20
206.1682942708333
 30
0.0
 11
321.3057969835069
 21
209.2182373046875
 31
0.0
  0
LINE
  5
231
330
A
100
AcDbEntity
  8
LAYER_1
 62
    20
100
AcDbLine
 10
321.2761691623264
 20
206.1682942708333
 30
0.0
 11
321.2761691623264
 21
209.2182373046875
 31
0.0
  0
LINE
  5
230
330
A
100
AcDbEntity
  8
LAYER_1
 62
    20
100
AcDbLine
 10
321.2458523220486
 20
206.1682942708333
 30
0.0
 11
321.2465413411458
 21
209.2182373046875
 31
0.0
  0
LINE
  5
22F
330
A
100
AcDbEntity
  8
LAYER_1
 62
    20
100
AcDbLine
 10
321.216224500868
 20
206.1682942708333
 30
0.0
 11
321.2169135199653
 21
209.2182373046875
 31
0.0
  0
LINE
  5
22E
330
A
100
AcDbEntity
  8
LAYER_1
 62
    20
100
AcDbLine
 10
321.1865966796874
 20
206.1682942708333
 30
0.0
 11
321.1865966796874
 21
209.2182373046875
 31
0.0
  0
LINE
  5
22D
330
A
100
AcDbEntity
  8
LAYER_1
 62
    20
100
AcDbLine
 10
321.1569688585069
 20
206.1682942708333
 30
0.0
 11
321.1569688585069
 21
209.2182373046875
 31
0.0
  0
LINE
  5
22C
330
A
100
AcDbEntity
  8
LAYER_1
 62
    20
100
AcDbLine
 10
321.1266520182292
 20
206.1682942708333
 30
0.0
 11
321.1273410373264
 21
209.2182373046875
 31
0.0
  0
LINE
  5
22B
330
A
100
AcDbEntity
  8
LAYER_1
 62
    20
100
AcDbLine
 10
321.0970241970486
 20
206.1684665256076
 30
0.0
 11
321.0977132161458
 21
209.2182373046875
 31
0.0
  0
LINE
  5
22A
330
A
100
AcDbEntity
  8
LAYER_1
 62
    20
100
AcDbLine
 10
321.067396375868
 20
206.1684665256076
 30
0.0
 11
321.067396375868
 21
209.2182373046875
 31
0.0
  0
LINE
  5
229
330
A
100
AcDbEntity
  8
LAYER_1
 62
    20
100
AcDbLine
 10
321.0377685546875
 20
206.1684665256076
 30
0.0
 11
321.0377685546875
 21
209.2182373046875
 31
0.0
  0
LINE
  5
228
330
A
100
AcDbEntity
  8
LAYER_1
 62
    20
100
AcDbLine
 10
321.0074517144097
 20
206.1684665256076
 30
0.0
 11
321.0081407335069
 21
209.2182373046875
 31
0.0
  0
LINE
  5
227
330
A
100
AcDbEntity
  8
LAYER_1
 62
    20
100
AcDbLine
 10
320.9778238932291
 20
206.1684665256076
 30
0.0
 11
320.9785129123264
 21
209.2182373046875
 31
0.0
  0
LINE
  5
226
330
A
100
AcDbEntity
  8
LAYER_1
 62
    20
100
AcDbLine
 10
320.9481960720486
 20
206.1684665256076
 30
0.0
 11
320.9488850911458
 21
209.2182373046875
 31
0.0
  0
LINE
  5
225
330
A
100
AcDbEntity
  8
LAYER_1
 62
    20
100
AcDbLine
 10
320.918568250868
 20
206.1684665256076
 30
0.0
 11
320.918568250868
 21
209.2182373046875
 31
0.0
  0
LINE
  5
224
330
A
100
AcDbEntity
  8
LAYER_1
 62
     1
100
AcDbLine
 10
320.8882514105903
 20
206.1684665256076
 30
0.0
 11
320.8889404296875
 21
209.2182373046875
 31
0.0
  0
LINE
  5
223
330
A
100
AcDbEntity
  8
LAYER_1
 62
     1
100
AcDbLine
 10
320.8586235894097
 20
206.1684665256076
 30
0.0
 11
320.8593126085069
 21
209.2182373046875
 31
0.0
  0
LINE
  5
222
330
A
100
AcDbEntity
  8
LAYER_1
 62
     1
100
AcDbLine
 10
320.8289957682292
 20
206.1684665256076
 30
0.0
 11
320.8296847873264
 21
209.2182373046875
 31
0.0
  0
LINE
  5
221
330
A
100
AcDbEntity
  8
LAYER_1
 62
     1
100
AcDbLine
 10
320.7993679470486
 20
206.1684665256076
 30
0.0
 11
320.7993679470486
 21
209.2182373046875
 31
0.0
  0
LINE
  5
220
330
A
100
AcDbEntity
  8
LAYER_1
 62
     1
100
AcDbLine
 10
320.7690511067708
 20
206.1684665256076
 30
0.0
 11
320.769740125868
 21
209.2182373046875
 31
0.0
  0
LINE
  5
21F
330
A
100
AcDbEntity
  8
LAYER_1
 62
     1
100
AcDbLine
 10
320.7394232855902
 20
206.1684665256076
 30
0.0
 11
320.7401123046874
 21
209.2182373046875
 31
0.0
  0
LINE
  5
21E
330
A
100
AcDbEntity
  8
LAYER_1
 62
     1
100
AcDbLine
 10
320.7097954644097
 20
206.1684665256076
 30
0.0
 11
320.7104844835069
 21
209.2182373046875
 31
0.0
  0
LINE
  5
21D
330
A
100
AcDbEntity
  8
LAYER_1
 62
     1
100
AcDbLine
 10
320.6801676432291
 20
206.1684665256076
 30
0.0
 11
320.6801676432291
 21
209.2182373046875
 31
0.0
  0
LINE
  5
21C
330
A
100
AcDbEntity
  8
LAYER_1
 62
     1
100
AcDbLine
 10
320.6498508029513
 20
206.1684665256076
 30
0.0
 11
320.6505398220486
 21
209.2182373046875
 31
0.0
  0
LINE
  5
21B
330
A
100
AcDbEntity
  8
LAYER_1
 62
     1
100
AcDbLine
 10
320.6202229817708
 20
206.1684665256076
 30
0.0
 11
320.620912000868
 21
209.2182373046875
 31
0.0
  0
LINE
  5
21A
330
A
100
AcDbEntity
  8
LAYER_1
 62
     1
100
AcDbLine
 10
320.5905951605902
 20
206.1684665256076
 30
0.0
 11
320.5912841796875
 21
209.2182373046875
 31
0.0
  0
LINE
  5
219
330
A
100
AcDbEntity
  8
LAYER_1
 62
     1
100
AcDbLine
 10
320.5609673394097
 20
206.1686387803819
 30
0.0
 11
320.5616563585069
 21
209.2182373046875
 31
0.0
  0
LINE
  5
218
330
A
100
AcDbEntity
  8
LAYER_1
 62
     1
100
AcDbLine
 10
320.5306504991319
 20
206.1686387803819
 30
0.0
 11
320.5313395182291
 21
209.2182373046875
 31
0.0
  0
LINE
  5
217
330
A
100
AcDbEntity
  8
LAYER_1
 62
     1
100
AcDbLine
 10
320.5010226779514
 20
206.1686387803819
 30
0.0
 11
320.5017116970485
 21
209.2182373046875
 31
0.0
  0
LINE
  5
216
330
A
100
AcDbEntity
  8
LAYER_1
 62
     1
100
AcDbLine
 10
320.4713948567708
 20
206.1686387803819
 30
0.0
 11
320.472083875868
 21
209.2182373046875
 31
0.0
  0
LINE
  5
215
330
A
100
AcDbEntity
  8
LAYER_1
 62
     1
100
AcDbLine
 10
320.4417670355903
 20
206.1686387803819
 30
0.0
 11
320.4424560546875
 21
209.2182373046875
 31
0.0
  0
LINE
  5
214
330
A
100
AcDbEntity
  8
LAYER_1
 62
     1
100
AcDbLine
 10
320.4114501953124
 20
206.1686387803819
 30
0.0
 11
320.4121392144097
 21
209.2182373046875
 31
0.0
  0
LINE
  5
213
330
A
100
AcDbEntity
  8
LAYER_1
 62
     1
100
AcDbLine
 10
320.3818223741319
 20
206.1686387803819
 30
0.0
 11
320.3825113932292
 21
209.2182373046875
 31
0.0
  0
LINE
  5
212
330
A
100
AcDbEntity
  8
LAYER_1
 62
     1
100
AcDbLine
 10
320.3521945529514
 20
206.1686387803819
 30
0.0
 11
320.3528835720486
 21
209.2182373046875
 31
0.0
  0
LINE
  5
211
330
A
100
AcDbEntity
  8
LAYER_1
 62
     1
100
AcDbLine
 10
320.3225667317708
 20
206.1686387803819
 30
0.0
 11
320.323255750868
 21
209.2182373046875
 31
0.0
  0
MTEXT
  5
210
330
A
100
AcDbEntity
  8
LAYER_1
 62
     7
100
AcDbMText
 10
323.2281602647569
 20
208.7163688143094
 30
0.0
 40
2.099867620733049
 41
0.0
 46
0.0
 71
     1
 72
     2
  1
\fHelvetica |b1|i0;\H2.0999;\C7;6
  7
STD
 73
     1
 44
1.0
  0
HATCH
  5
20F
330
A
100
AcDbEntity
  8
LAYER_1
 62
     1
100
AcDbHatch
 10
0.0
 20
0.0
 30
0.0
210
0.0
220
0.0
230
1.0
  2
SOLID
 70
     1
 71
     0
 91
        1
 92
        3
 72
     0
 73
     1
 93
        7
 10
155.2659749348958
 20
247.3697414822048
 10
155.2659749348958
 20
245.285114203559
 10
152.215687391493
 20
245.285114203559
 10
152.215687391493
 20
247.3697414822048
 10
151.173890516493
 20
247.3697414822048
 10
153.7404866536458
 20
249.7310099283854
 10
156.3070827907986
 20
247.3697414822048
 97
        0
 75
     2
 76
     1
 98
        1
 10
0.0
 20
0.0
450
        0
451
        0
460
0.0
461
0.0
452
        0
462
0.0
453
        0
470

  0
LINE
  5
20E
330
A
100
AcDbEntity
  8
LAYER_1
 62
     7
100
AcDbLine
 10
152.215687391493
 20
245.2847696940104
 30
0.0
 11
155.2659749348958
 21
245.2847696940104
 31
0.0
  0
LINE
  5
20D
330
A
100
AcDbEntity
  8
LAYER_1
 62
     7
100
AcDbLine
 10
152.215687391493
 20
245.3145697699653
 30
0.0
 11
155.2659749348958
 21
245.3145697699653
 31
0.0
  0
LINE
  5
20C
330
A
100
AcDbEntity
  8
LAYER_1
 62
     7
100
AcDbLine
 10
152.215687391493
 20
245.3443698459201
 30
0.0
 11
155.2659749348958
 21
245.3443698459201
 31
0.0
  0
LINE
  5
20B
330
A
100
AcDbEntity
  8
LAYER_1
 62
     7
100
AcDbLine
 10
152.215687391493
 20
245.3741699218749
 30
0.0
 11
155.2659749348958
 21
245.3741699218749
 31
0.0
  0
LINE
  5
20A
330
A
100
AcDbEntity
  8
LAYER_1
 62
     7
100
AcDbLine
 10
152.215687391493
 20
245.4039699978299
 30
0.0
 11
155.2659749348958
 21
245.4039699978299
 31
0.0
  0
LINE
  5
209
330
A
100
AcDbEntity
  8
LAYER_1
 62
     7
100
AcDbLine
 10
152.215687391493
 20
245.4337700737847
 30
0.0
 11
155.2659749348958
 21
245.4337700737847
 31
0.0
  0
LINE
  5
208
330
A
100
AcDbEntity
  8
LAYER_1
 62
     7
100
AcDbLine
 10
152.215687391493
 20
245.4633978949653
 30
0.0
 11
155.2659749348958
 21
245.4633978949653
 31
0.0
  0
LINE
  5
207
330
A
100
AcDbEntity
  8
LAYER_1
 62
     7
100
AcDbLine
 10
152.215687391493
 20
245.4931979709201
 30
0.0
 11
155.2659749348958
 21
245.4931979709201
 31
0.0
  0
LINE
  5
206
330
A
100
AcDbEntity
  8
LAYER_1
 62
     7
100
AcDbLine
 10
152.215687391493
 20
245.522998046875
 30
0.0
 11
155.2659749348958
 21
245.522998046875
 31
0.0
  0
LINE
  5
205
330
A
100
AcDbEntity
  8
LAYER_1
 62
     7
100
AcDbLine
 10
152.215687391493
 20
245.5527981228299
 30
0.0
 11
155.2659749348958
 21
245.5527981228299
 31
0.0
  0
LINE
  5
204
330
A
100
AcDbEntity
  8
LAYER_1
 62
     7
100
AcDbLine
 10
152.215687391493
 20
245.5825981987847
 30
0.0
 11
155.2659749348958
 21
245.5825981987847
 31
0.0
  0
LINE
  5
203
330
A
100
AcDbEntity
  8
LAYER_1
 62
     7
100
AcDbLine
 10
152.215687391493
 20
245.6123982747396
 30
0.0
 11
155.2659749348958
 21
245.6123982747396
 31
0.0
  0
LINE
  5
202
330
A
100
AcDbEntity
  8
LAYER_1
 62
     7
100
AcDbLine
 10
152.215687391493
 20
245.6421983506944
 30
0.0
 11
155.2659749348958
 21
245.6421983506944
 31
0.0
  0
LINE
  5
201
330
A
100
AcDbEntity
  8
LAYER_1
 62
     7
100
AcDbLine
 10
152.215687391493
 20
245.6719984266493
 30
0.0
 11
155.2659749348958
 21
245.6719984266493
 31
0.0
  0
LINE
  5
200
330
A
100
AcDbEntity
  8
LAYER_1
 62
     7
100
AcDbLine
 10
152.215687391493
 20
245.7017985026041
 30
0.0
 11
155.2659749348958
 21
245.7017985026041
 31
0.0
  0
LINE
  5
1FF
330
A
100
AcDbEntity
  8
LAYER_1
 62
     7
100
AcDbLine
 10
152.215687391493
 20
245.731598578559
 30
0.0
 11
155.2659749348958
 21
245.731598578559
 31
0.0
  0
LINE
  5
1FE
330
A
100
AcDbEntity
  8
LAYER_1
 62
     7
100
AcDbLine
 10
152.215687391493
 20
245.7613986545139
 30
0.0
 11
155.2659749348958
 21
245.7613986545139
 31
0.0
  0
LINE
  5
1FD
330
A
100
AcDbEntity
  8
LAYER_1
 62
     7
100
AcDbLine
 10
152.215687391493
 20
245.7911987304687
 30
0.0
 11
155.2659749348958
 21
245.7911987304687
 31
0.0
  0
LINE
  5
1FC
330
A
100
AcDbEntity
  8
LAYER_1
 62
    21
100
AcDbLine
 10
152.2160319010416
 20
245.8208265516493
 30
0.0
 11
155.2659749348958
 21
245.8208265516493
 31
0.0
  0
LINE
  5
1FB
330
A
100
AcDbEntity
  8
LAYER_1
 62
    21
100
AcDbLine
 10
152.2160319010416
 20
245.8506266276041
 30
0.0
 11
155.2659749348958
 21
245.8506266276041
 31
0.0
  0
LINE
  5
1FA
330
A
100
AcDbEntity
  8
LAYER_1
 62
    21
100
AcDbLine
 10
152.2160319010416
 20
245.880426703559
 30
0.0
 11
155.2659749348958
 21
245.880426703559
 31
0.0
  0
LINE
  5
1F9
330
A
100
AcDbEntity
  8
LAYER_1
 62
    21
100
AcDbLine
 10
152.2160319010416
 20
245.9102267795139
 30
0.0
 11
155.2659749348958
 21
245.9102267795139
 31
0.0
  0
LINE
  5
1F8
330
A
100
AcDbEntity
  8
LAYER_1
 62
    21
100
AcDbLine
 10
152.2160319010416
 20
245.9400268554687
 30
0.0
 11
155.2659749348958
 21
245.9400268554687
 31
0.0
  0
LINE
  5
1F7
330
A
100
AcDbEntity
  8
LAYER_1
 62
    21
100
AcDbLine
 10
152.2160319010416
 20
245.9698269314236
 30
0.0
 11
155.2659749348958
 21
245.9698269314236
 31
0.0
  0
LINE
  5
1F6
330
A
100
AcDbEntity
  8
LAYER_1
 62
    21
100
AcDbLine
 10
152.2160319010416
 20
245.9996270073784
 30
0.0
 11
155.2659749348958
 21
245.9996270073784
 31
0.0
  0
LINE
  5
1F5
330
A
100
AcDbEntity
  8
LAYER_1
 62
    21
100
AcDbLine
 10
152.2160319010416
 20
246.0294270833333
 30
0.0
 11
155.2659749348958
 21
246.0294270833333
 31
0.0
  0
LINE
  5
1F4
330
A
100
AcDbEntity
  8
LAYER_1
 62
    21
100
AcDbLine
 10
152.2160319010416
 20
246.0592271592882
 30
0.0
 11
155.2659749348958
 21
246.0592271592882
 31
0.0
  0
LINE
  5
1F3
330
A
100
AcDbEntity
  8
LAYER_1
 62
    21
100
AcDbLine
 10
152.2160319010416
 20
246.089027235243
 30
0.0
 11
155.2659749348958
 21
246.089027235243
 31
0.0
  0
LINE
  5
1F2
330
A
100
AcDbEntity
  8
LAYER_1
 62
    21
100
AcDbLine
 10
152.2160319010416
 20
246.1188273111979
 30
0.0
 11
155.2659749348958
 21
246.1188273111979
 31
0.0
  0
LINE
  5
1F1
330
A
100
AcDbEntity
  8
LAYER_1
 62
    21
100
AcDbLine
 10
152.2160319010416
 20
246.1486273871527
 30
0.0
 11
155.2659749348958
 21
246.1486273871527
 31
0.0
  0
LINE
  5
1F0
330
A
100
AcDbEntity
  8
LAYER_1
 62
    21
100
AcDbLine
 10
152.2160319010416
 20
246.1782552083333
 30
0.0
 11
155.2659749348958
 21
246.1782552083333
 31
0.0
  0
LINE
  5
1EF
330
A
100
AcDbEntity
  8
LAYER_1
 62
    21
100
AcDbLine
 10
152.2160319010416
 20
246.2080552842882
 30
0.0
 11
155.2659749348958
 21
246.2080552842882
 31
0.0
  0
LINE
  5
1EE
330
A
100
AcDbEntity
  8
LAYER_1
 62
    21
100
AcDbLine
 10
152.2160319010416
 20
246.237855360243
 30
0.0
 11
155.2659749348958
 21
246.237855360243
 31
0.0
  0
LINE
  5
1ED
330
A
100
AcDbEntity
  8
LAYER_1
 62
    21
100
AcDbLine
 10
152.2160319010416
 20
246.2676554361979
 30
0.0
 11
155.2659749348958
 21
246.2676554361979
 31
0.0
  0
LINE
  5
1EC
330
A
100
AcDbEntity
  8
LAYER_1
 62
    21
100
AcDbLine
 10
152.2160319010416
 20
246.2974555121528
 30
0.0
 11
155.2659749348958
 21
246.2974555121528
 31
0.0
  0
LINE
  5
1EB
330
A
100
AcDbEntity
  8
LAYER_1
 62
    21
100
AcDbLine
 10
152.2160319010416
 20
246.3272555881076
 30
0.0
 11
155.2659749348958
 21
246.3272555881076
 31
0.0
  0
LINE
  5
1EA
330
A
100
AcDbEntity
  8
LAYER_1
 62
    21
100
AcDbLine
 10
152.2160319010416
 20
246.3570556640625
 30
0.0
 11
155.2659749348958
 21
246.3570556640625
 31
0.0
  0
LINE
  5
1E9
330
A
100
AcDbEntity
  8
LAYER_1
 62
    21
100
AcDbLine
 10
152.2160319010416
 20
246.3868557400174
 30
0.0
 11
155.2659749348958
 21
246.3868557400174
 31
0.0
  0
LINE
  5
1E8
330
A
100
AcDbEntity
  8
LAYER_1
 62
    20
100
AcDbLine
 10
152.2160319010416
 20
246.4166558159722
 30
0.0
 11
155.2659749348958
 21
246.4166558159722
 31
0.0
  0
LINE
  5
1E7
330
A
100
AcDbEntity
  8
LAYER_1
 62
    20
100
AcDbLine
 10
152.2160319010416
 20
246.4464558919271
 30
0.0
 11
155.2659749348958
 21
246.4464558919271
 31
0.0
  0
LINE
  5
1E6
330
A
100
AcDbEntity
  8
LAYER_1
 62
    20
100
AcDbLine
 10
152.2160319010416
 20
246.4762559678819
 30
0.0
 11
155.2659749348958
 21
246.4762559678819
 31
0.0
  0
LINE
  5
1E5
330
A
100
AcDbEntity
  8
LAYER_1
 62
    20
100
AcDbLine
 10
152.2160319010416
 20
246.5058837890625
 30
0.0
 11
155.2659749348958
 21
246.5058837890625
 31
0.0
  0
LINE
  5
1E4
330
A
100
AcDbEntity
  8
LAYER_1
 62
    20
100
AcDbLine
 10
152.2160319010416
 20
246.5356838650174
 30
0.0
 11
155.2659749348958
 21
246.5356838650174
 31
0.0
  0
LINE
  5
1E3
330
A
100
AcDbEntity
  8
LAYER_1
 62
    20
100
AcDbLine
 10
152.2160319010416
 20
246.5654839409722
 30
0.0
 11
155.2659749348958
 21
246.5654839409722
 31
0.0
  0
LINE
  5
1E2
330
A
100
AcDbEntity
  8
LAYER_1
 62
    20
100
AcDbLine
 10
152.2160319010416
 20
246.5952840169271
 30
0.0
 11
155.2659749348958
 21
246.5952840169271
 31
0.0
  0
LINE
  5
1E1
330
A
100
AcDbEntity
  8
LAYER_1
 62
    20
100
AcDbLine
 10
152.2160319010416
 20
246.6250840928819
 30
0.0
 11
155.2659749348958
 21
246.6250840928819
 31
0.0
  0
LINE
  5
1E0
330
A
100
AcDbEntity
  8
LAYER_1
 62
    20
100
AcDbLine
 10
152.2160319010416
 20
246.6548841688368
 30
0.0
 11
155.2659749348958
 21
246.6548841688368
 31
0.0
  0
LINE
  5
1DF
330
A
100
AcDbEntity
  8
LAYER_1
 62
    20
100
AcDbLine
 10
152.2160319010416
 20
246.6846842447917
 30
0.0
 11
155.2659749348958
 21
246.6846842447917
 31
0.0
  0
LINE
  5
1DE
330
A
100
AcDbEntity
  8
LAYER_1
 62
    20
100
AcDbLine
 10
152.2160319010416
 20
246.7144843207465
 30
0.0
 11
155.2659749348958
 21
246.7144843207465
 31
0.0
  0
LINE
  5
1DD
330
A
100
AcDbEntity
  8
LAYER_1
 62
    20
100
AcDbLine
 10
152.2160319010416
 20
246.7442843967014
 30
0.0
 11
155.2659749348958
 21
246.7442843967014
 31
0.0
  0
LINE
  5
1DC
330
A
100
AcDbEntity
  8
LAYER_1
 62
    20
100
AcDbLine
 10
152.2160319010416
 20
246.7740844726562
 30
0.0
 11
155.2659749348958
 21
246.7740844726562
 31
0.0
  0
LINE
  5
1DB
330
A
100
AcDbEntity
  8
LAYER_1
 62
     1
100
AcDbLine
 10
152.2160319010416
 20
246.8038845486111
 30
0.0
 11
155.2659749348958
 21
246.8038845486111
 31
0.0
  0
LINE
  5
1DA
330
A
100
AcDbEntity
  8
LAYER_1
 62
     1
100
AcDbLine
 10
152.2160319010416
 20
246.833684624566
 30
0.0
 11
155.2659749348958
 21
246.833684624566
 31
0.0
  0
LINE
  5
1D9
330
A
100
AcDbEntity
  8
LAYER_1
 62
     1
100
AcDbLine
 10
152.2163764105902
 20
246.8633124457465
 30
0.0
 11
155.2659749348958
 21
246.8633124457465
 31
0.0
  0
LINE
  5
1D8
330
A
100
AcDbEntity
  8
LAYER_1
 62
     1
100
AcDbLine
 10
152.2163764105902
 20
246.8931125217014
 30
0.0
 11
155.2659749348958
 21
246.8931125217014
 31
0.0
  0
LINE
  5
1D7
330
A
100
AcDbEntity
  8
LAYER_1
 62
     1
100
AcDbLine
 10
152.2163764105902
 20
246.9229125976562
 30
0.0
 11
155.2659749348958
 21
246.9229125976562
 31
0.0
  0
LINE
  5
1D6
330
A
100
AcDbEntity
  8
LAYER_1
 62
     1
100
AcDbLine
 10
152.2163764105902
 20
246.9527126736111
 30
0.0
 11
155.2659749348958
 21
246.9527126736111
 31
0.0
  0
LINE
  5
1D5
330
A
100
AcDbEntity
  8
LAYER_1
 62
     1
100
AcDbLine
 10
152.2163764105902
 20
246.9825127495659
 30
0.0
 11
155.2659749348958
 21
246.9825127495659
 31
0.0
  0
LINE
  5
1D4
330
A
100
AcDbEntity
  8
LAYER_1
 62
     1
100
AcDbLine
 10
152.2163764105902
 20
247.0123128255208
 30
0.0
 11
155.2659749348958
 21
247.0123128255208
 31
0.0
  0
LINE
  5
1D3
330
A
100
AcDbEntity
  8
LAYER_1
 62
     1
100
AcDbLine
 10
152.2163764105902
 20
247.0421129014757
 30
0.0
 11
155.2659749348958
 21
247.0421129014757
 31
0.0
  0
LINE
  5
1D2
330
A
100
AcDbEntity
  8
LAYER_1
 62
     1
100
AcDbLine
 10
152.2163764105902
 20
247.0719129774305
 30
0.0
 11
155.2659749348958
 21
247.0719129774305
 31
0.0
  0
LINE
  5
1D1
330
A
100
AcDbEntity
  8
LAYER_1
 62
     1
100
AcDbLine
 10
152.2163764105902
 20
247.1017130533854
 30
0.0
 11
155.2659749348958
 21
247.1017130533854
 31
0.0
  0
LINE
  5
1D0
330
A
100
AcDbEntity
  8
LAYER_1
 62
     1
100
AcDbLine
 10
152.2163764105902
 20
247.1315131293402
 30
0.0
 11
155.2659749348958
 21
247.1315131293402
 31
0.0
  0
LINE
  5
1CF
330
A
100
AcDbEntity
  8
LAYER_1
 62
     1
100
AcDbLine
 10
152.2163764105902
 20
247.1613132052951
 30
0.0
 11
155.2659749348958
 21
247.1613132052951
 31
0.0
  0
LINE
  5
1CE
330
A
100
AcDbEntity
  8
LAYER_1
 62
     1
100
AcDbLine
 10
152.2163764105902
 20
247.19111328125
 30
0.0
 11
155.2659749348958
 21
247.19111328125
 31
0.0
  0
LINE
  5
1CD
330
A
100
AcDbEntity
  8
LAYER_1
 62
     1
100
AcDbLine
 10
152.2163764105902
 20
247.2207411024305
 30
0.0
 11
155.2659749348958
 21
247.2207411024305
 31
0.0
  0
LINE
  5
1CC
330
A
100
AcDbEntity
  8
LAYER_1
 62
     1
100
AcDbLine
 10
152.2163764105902
 20
247.2505411783854
 30
0.0
 11
155.2659749348958
 21
247.2505411783854
 31
0.0
  0
LINE
  5
1CB
330
A
100
AcDbEntity
  8
LAYER_1
 62
     1
100
AcDbLine
 10
152.2163764105902
 20
247.2803412543402
 30
0.0
 11
155.2659749348958
 21
247.2803412543402
 31
0.0
  0
LINE
  5
1CA
330
A
100
AcDbEntity
  8
LAYER_1
 62
     1
100
AcDbLine
 10
152.2163764105902
 20
247.3101413302951
 30
0.0
 11
155.2659749348958
 21
247.3101413302951
 31
0.0
  0
LINE
  5
1C9
330
A
100
AcDbEntity
  8
LAYER_1
 62
     1
100
AcDbLine
 10
152.2163764105902
 20
247.33994140625
 30
0.0
 11
155.2659749348958
 21
247.33994140625
 31
0.0
  0
LINE
  5
1C8
330
A
100
AcDbEntity
  8
LAYER_1
 62
     1
100
AcDbLine
 10
152.2163764105902
 20
247.3697414822048
 30
0.0
 11
155.2659749348958
 21
247.3697414822048
 31
0.0
  0
MTEXT
  5
1C7
330
A
100
AcDbEntity
  8
LAYER_1
 62
     7
100
AcDbMText
 10
153.0166720920138
 20
245.0869308802817
 30
0.0
 40
2.099867620733049
 41
0.0
 46
0.0
 71
     1
 72
     2
  1
\fHelvetica |b1|i0;\H2.0999;\C7;7
  7
STD
 73
     1
 44
1.0
  0
CIRCLE
  5
1C6
330
A
100
AcDbEntity
  8
LAYER_1
 62
     7
100
AcDbCircle
 10
179.2111111111111
 20
248.6158325195312
 30
0.0
 40
2.534901258680555
  0
CIRCLE
  5
1C5
330
A
100
AcDbEntity
  8
LAYER_1
 62
     7
100
AcDbCircle
 10
179.2111111111111
 20
248.6158325195312
 30
0.0
 40
2.534901258680555
  0
MTEXT
  5
1C4
330
A
100
AcDbEntity
  8
LAYER_1
 62
     7
100
AcDbMText
 10
177.3109686957465
 20
249.5909092664718
 30
0.0
 40
1.837384147114223
 41
0.0
 46
0.0
 71
     1
 72
     2
  1
\fHelvetica|b0|i0;\H1.8374;\C7;404
  7
STD
 73
     1
 44
1.0
  0
CIRCLE
  5
1C3
330
A
100
AcDbEntity
  8
LAYER_1
 62
     7
100
AcDbCircle
 10
40.92222222222221
 20
141.3712158203125
 30
0.0
 40
2.534901258680555
  0
CIRCLE
  5
1C2
330
A
100
AcDbEntity
  8
LAYER_1
 62
     7
100
AcDbCircle
 10
40.92222222222221
 20
141.3712158203125
 30
0.0
 40
2.534901258680555
  0
MTEXT
  5
1C1
330
A
100
AcDbEntity
  8
LAYER_1
 62
     7
100
AcDbMText
 10
39.02207980685763
 20
142.3466370768017
 30
0.0
 40
1.837384147114223
 41
0.0
 46
0.0
 71
     1
 72
     2
  1
\fHelvetica|b0|i0;\H1.8374;\C7;409
  7
STD
 73
     1
 44
1.0
  0
LINE
  5
1C0
330
A
100
AcDbEntity
  8
LAYER_1
 62
     7
100
AcDbLine
 10
40.92222222222221
 20
147.9062174479166
 30
0.0
 11
40.92222222222221
 21
143.906117078993
 31
0.0
  0
HATCH
  5
1BF
330
A
100
AcDbEntity
  8
LAYER_1
 62
     7
100
AcDbHatch
 10
0.0
 20
0.0
 30
0.0
210
0.0
220
0.0
230
1.0
  2
SOLID
 70
     1
 71
     0
 91
        1
 92
        1
 93
        1
 72
     4
 94
        3
 73
     0
 74
     0
 95
       17
 96
       13
 40
0.0
 40
0.0
 40
0.0
 40
0.0
 40
1.0
 40
1.0
 40
1.0
 40
2.0
 40
2.0
 40
2.0
 40
3.0
 40
3.0
 40
3.0
 40
4.0
 40
4.0
 40
4.0
 40
4.0
 10
41.2722439236111
 20
147.9062174479166
 10
41.2722439236111
 20
147.7129475911458
 10
41.11549207899305
 20
147.5561957465278
 10
40.92222222222221
 20
147.5561957465278
 10
40.72895236545138
 20
147.5561957465278
 10
40.57220052083333
 20
147.7129475911458
 10
40.57220052083333
 20
147.9062174479166
 10
40.57220052083333
 20
148.0994873046875
 10
40.72895236545138
 20
148.2562391493055
 10
40.92222222222221
 20
148.2562391493055
 10
41.11549207899305
 20
148.2562391493055
 10
41.2722439236111
 20
148.0994873046875
 10
41.2722439236111
 20
147.9062174479166
 97
        0
 97
        0
 75
     2
 76
     1
 98
        1
 10
0.0
 20
0.0
450
        0
451
        0
460
0.0
461
0.0
452
        0
462
0.0
453
        0
470

  0
POLYLINE
  5
1B9
330
A
100
AcDbEntity
  8
LAYER_1
 62
     7
100
AcDb2dPolyline
 66
     1
 10
0.0
 20
0.0
 30
0.0
 70
     1
  0
VERTEX
  5
1BA
330
1B9
100
AcDbEntity
  8
LAYER_1
 62
     7
100
AcDbVertex
100
AcDb2dVertex
 10
198.7902777777777
 20
244.1148152669271
 30
0.0
  0
VERTEX
  5
1BB
330
1B9
100
AcDbEntity
  8
LAYER_1
 62
     7
100
AcDbVertex
100
AcDb2dVertex
 10
193.0972574869791
 20
244.1148152669271
 30
0.0
  0
VERTEX
  5
1BC
330
1B9
100
AcDbEntity
  8
LAYER_1
 62
     7
100
AcDbVertex
100
AcDb2dVertex
 10
193.0972574869791
 20
248.0763305664062
 30
0.0
  0
VERTEX
  5
1BD
330
1B9
100
AcDbEntity
  8
LAYER_1
 62
     7
100
AcDbVertex
100
AcDb2dVertex
 10
198.7902777777777
 20
248.0763305664062
 30
0.0
  0
SEQEND
  5
1BE
330
1B9
100
AcDbEntity
  8
LAYER_1
 62
     7
  0
POLYLINE
  5
1B3
330
A
100
AcDbEntity
  8
LAYER_1
 62
     7
100
AcDb2dPolyline
 66
     1
 10
0.0
 20
0.0
 30
0.0
 70
     1
  0
VERTEX
  5
1B4
330
1B3
100
AcDbEntity
  8
LAYER_1
 62
     7
100
AcDbVertex
100
AcDb2dVertex
 10
198.7902777777777
 20
244.1148152669271
 30
0.0
  0
VERTEX
  5
1B5
330
1B3
100
AcDbEntity
  8
LAYER_1
 62
     7
100
AcDbVertex
100
AcDb2dVertex
 10
193.0972574869791
 20
244.1148152669271
 30
0.0
  0
VERTEX
  5
1B6
330
1B3
100
AcDbEntity
  8
LAYER_1
 62
     7
100
AcDbVertex
100
AcDb2dVertex
 10
193.0972574869791
 20
248.0763305664062
 30
0.0
  0
VERTEX
  5
1B7
330
1B3
100
AcDbEntity
  8
LAYER_1
 62
     7
100
AcDbVertex
100
AcDb2dVertex
 10
198.7902777777777
 20
248.0763305664062
 30
0.0
  0
SEQEND
  5
1B8
330
1B3
100
AcDbEntity
  8
LAYER_1
 62
     7
  0
MTEXT
  5
1B2
330
A
100
AcDbEntity
  8
LAYER_1
 62
     7
100
AcDbMText
 10
194.0434529622395
 20
247.0832242621316
 30
0.0
 40
1.837384147114223
 41
0.0
 46
0.0
 71
     1
 72
     2
  1
\fHelvetica|b0|i0;\H1.8374;\C7;403
  7
STD
 73
     1
 44
1.0
  0
LINE
  5
1B1
330
A
100
AcDbEntity
  8
LAYER_1
 62
     7
100
AcDbLine
 10
189.0971571180555
 20
246.0957451714409
 30
0.0
 11
193.0972574869791
 21
246.0957451714409
 31
0.0
  0
HATCH
  5
1B0
330
A
100
AcDbEntity
  8
LAYER_1
 62
     7
100
AcDbHatch
 10
0.0
 20
0.0
 30
0.0
210
0.0
220
0.0
230
1.0
  2
SOLID
 70
     1
 71
     0
 91
        1
 92
        1
 93
        1
 72
     4
 94
        3
 73
     0
 74
     0
 95
       17
 96
       13
 40
0.0
 40
0.0
 40
0.0
 40
0.0
 40
1.0
 40
1.0
 40
1.0
 40
2.0
 40
2.0
 40
2.0
 40
3.0
 40
3.0
 40
3.0
 40
4.0
 40
4.0
 40
4.0
 40
4.0
 10
189.4471788194444
 20
246.0957451714409
 10
189.4471788194444
 20
245.9024753146701
 10
189.2904269748264
 20
245.7457234700521
 10
189.0971571180555
 20
245.7457234700521
 10
188.9038872612847
 20
245.7457234700521
 10
188.7471354166666
 20
245.9024753146701
 10
188.7471354166666
 20
246.0957451714409
 10
188.7471354166666
 20
246.2890150282118
 10
188.9038872612847
 20
246.4457668728298
 10
189.0971571180555
 20
246.4457668728298
 10
189.2904269748264
 20
246.4457668728298
 10
189.4471788194444
 20
246.2890150282118
 10
189.4471788194444
 20
246.0957451714409
 97
        0
 97
        0
 75
     2
 76
     1
 98
        1
 10
0.0
 20
0.0
450
        0
451
        0
460
0.0
461
0.0
452
        0
462
0.0
453
        0
470

  0
POLYLINE
  5
1AA
330
A
100
AcDbEntity
  8
LAYER_1
 62
     7
100
AcDb2dPolyline
 66
     1
 10
0.0
 20
0.0
 30
0.0
 70
     1
  0
VERTEX
  5
1AB
330
1AA
100
AcDbEntity
  8
LAYER_1
 62
     7
100
AcDbVertex
100
AcDb2dVertex
 10
128.9395887586805
 20
263.7696017795139
 30
0.0
  0
VERTEX
  5
1AC
330
1AA
100
AcDbEntity
  8
LAYER_1
 62
     7
100
AcDbVertex
100
AcDb2dVertex
 10
123.2465684678819
 20
263.7696017795139
 30
0.0
  0
VERTEX
  5
1AD
330
1AA
100
AcDbEntity
  8
LAYER_1
 62
     7
100
AcDbVertex
100
AcDb2dVertex
 10
123.2465684678819
 20
267.731117078993
 30
0.0
  0
VERTEX
  5
1AE
330
1AA
100
AcDbEntity
  8
LAYER_1
 62
     7
100
AcDbVertex
100
AcDb2dVertex
 10
128.9395887586805
 20
267.731117078993
 30
0.0
  0
SEQEND
  5
1AF
330
1AA
100
AcDbEntity
  8
LAYER_1
 62
     7
  0
POLYLINE
  5
1A4
330
A
100
AcDbEntity
  8
LAYER_1
 62
     7
100
AcDb2dPolyline
 66
     1
 10
0.0
 20
0.0
 30
0.0
 70
     1
  0
VERTEX
  5
1A5
330
1A4
100
AcDbEntity
  8
LAYER_1
 62
     7
100
AcDbVertex
100
AcDb2dVertex
 10
128.9395887586805
 20
263.7696017795139
 30
0.0
  0
VERTEX
  5
1A6
330
1A4
100
AcDbEntity
  8
LAYER_1
 62
     7
100
AcDbVertex
100
AcDb2dVertex
 10
123.2465684678819
 20
263.7696017795139
 30
0.0
  0
VERTEX
  5
1A7
330
1A4
100
AcDbEntity
  8
LAYER_1
 62
     7
100
AcDbVertex
100
AcDb2dVertex
 10
123.2465684678819
 20
267.731117078993
 30
0.0
  0
VERTEX
  5
1A8
330
1A4
100
AcDbEntity
  8
LAYER_1
 62
     7
100
AcDbVertex
100
AcDb2dVertex
 10
128.9395887586805
 20
267.731117078993
 30
0.0
  0
SEQEND
  5
1A9
330
1A4
100
AcDbEntity
  8
LAYER_1
 62
     7
  0
MTEXT
  5
1A3
330
A
100
AcDbEntity
  8
LAYER_1
 62
     7
100
AcDbMText
 10
124.1927639431423
 20
266.7380107747184
 30
0.0
 40
1.837384147114223
 41
0.0
 46
0.0
 71
     1
 72
     2
  1
\fHelvetica|b0|i0;\H1.8374;\C7;405
  7
STD
 73
     1
 44
1.0
  0
LINE
  5
1A2
330
A
100
AcDbEntity
  8
LAYER_1
 62
     7
100
AcDbLine
 10
132.9396891276041
 20
265.7501871744791
 30
0.0
 11
128.9395887586805
 21
265.7501871744791
 31
0.0
  0
HATCH
  5
1A1
330
A
100
AcDbEntity
  8
LAYER_1
 62
     7
100
AcDbHatch
 10
0.0
 20
0.0
 30
0.0
210
0.0
220
0.0
230
1.0
  2
SOLID
 70
     1
 71
     0
 91
        1
 92
        1
 93
        1
 72
     4
 94
        3
 73
     0
 74
     0
 95
       17
 96
       13
 40
0.0
 40
0.0
 40
0.0
 40
0.0
 40
1.0
 40
1.0
 40
1.0
 40
2.0
 40
2.0
 40
2.0
 40
3.0
 40
3.0
 40
3.0
 40
4.0
 40
4.0
 40
4.0
 40
4.0
 10
133.289710828993
 20
265.7501871744791
 10
133.289710828993
 20
265.5569173177083
 10
133.132958984375
 20
265.4001654730902
 10
132.9396891276041
 20
265.4001654730902
 10
132.7464192708333
 20
265.4001654730902
 10
132.5896674262152
 20
265.5569173177083
 10
132.5896674262152
 20
265.7501871744791
 10
132.5896674262152
 20
265.94345703125
 10
132.7464192708333
 20
266.100208875868
 10
132.9396891276041
 20
266.100208875868
 10
133.132958984375
 20
266.100208875868
 10
133.289710828993
 20
265.94345703125
 10
133.289710828993
 20
265.7501871744791
 97
        0
 97
        0
 75
     2
 76
     1
 98
        1
 10
0.0
 20
0.0
450
        0
451
        0
460
0.0
461
0.0
452
        0
462
0.0
453
        0
470

  0
MTEXT
  5
1A0
330
A
100
AcDbEntity
  8
LAYER_1
 62
     7
100
AcDbMText
 10
113.3593166775173
 20
281.0460171673033
 30
0.0
 40
3.149801346990797
 41
0.0
 46
0.0
 71
     1
 72
     2
  1
\fMyriad Roman|b0|i0;\H3.1498;\C7;E
  7
STD
 73
     1
 44
1.0
  0
MTEXT
  5
19F
330
A
100
AcDbEntity
  8
LAYER_1
 62
     7
100
AcDbMText
 10
185.0908555772569
 20
281.163667178154
 30
0.0
 40
3.149801346990797
 41
0.0
 46
0.0
 71
     1
 72
     2
  1
\fMyriad Roman|b0|i0;\H3.1498;\C7;F
  7
STD
 73
     1
 44
1.0
  0
CIRCLE
  5
19E
330
A
100
AcDbEntity
  8
LAYER_1
 62
     7
100
AcDbCircle
 10
264.1130777994791
 20
207.9287380642361
 30
0.0
 40
2.534901258680555
  0
CIRCLE
  5
19D
330
A
100
AcDbEntity
  8
LAYER_1
 62
     7
100
AcDbCircle
 10
264.1130777994791
 20
207.9287380642361
 30
0.0
 40
2.534901258680555
  0
MTEXT
  5
19C
330
A
100
AcDbEntity
  8
LAYER_1
 62
     7
100
AcDbMText
 10
262.2127631293403
 20
208.9038148111767
 30
0.0
 40
1.837384147114223
 41
0.0
 46
0.0
 71
     1
 72
     2
  1
\fHelvetica|b0|i0;\H1.8374;\C7;409
  7
STD
 73
     1
 44
1.0
  0
CIRCLE
  5
19B
330
A
100
AcDbEntity
  8
LAYER_1
 62
     7
100
AcDbCircle
 10
263.1722222222222
 20
254.2602769639757
 30
0.0
 40
2.534901258680555
  0
CIRCLE
  5
19A
330
A
100
AcDbEntity
  8
LAYER_1
 62
     7
100
AcDbCircle
 10
263.1722222222222
 20
254.2602769639757
 30
0.0
 40
2.534901258680555
  0
MTEXT
  5
199
330
A
100
AcDbEntity
  8
LAYER_1
 62
     7
100
AcDbMText
 10
261.2719075520833
 20
255.2353537109163
 30
0.0
 40
1.837384147114223
 41
0.0
 46
0.0
 71
     1
 72
     2
  1
\fHelvetica|b0|i0;\H1.8374;\C7;409
  7
STD
 73
     1
 44
1.0
  0
CIRCLE
  5
198
330
A
100
AcDbEntity
  8
LAYER_1
 62
     7
100
AcDbCircle
 10
76.55277777777778
 20
246.4991658528646
 30
0.0
 40
2.534901258680555
  0
CIRCLE
  5
197
330
A
100
AcDbEntity
  8
LAYER_1
 62
     7
100
AcDbCircle
 10
76.55277777777778
 20
246.4991658528646
 30
0.0
 40
2.534901258680555
  0
MTEXT
  5
196
330
A
100
AcDbEntity
  8
LAYER_1
 62
     7
100
AcDbMText
 10
74.65263536241319
 20
247.4742425998051
 30
0.0
 40
1.837384147114223
 41
0.0
 46
0.0
 71
     1
 72
     2
  1
\fHelvetica|b0|i0;\H1.8374;\C7;409
  7
STD
 73
     1
 44
1.0
  0
CIRCLE
  5
195
330
A
100
AcDbEntity
  8
LAYER_1
 62
     7
100
AcDbCircle
 10
108.6555555555555
 20
172.4158325195312
 30
0.0
 40
2.534901258680555
  0
CIRCLE
  5
194
330
A
100
AcDbEntity
  8
LAYER_1
 62
     7
100
AcDbCircle
 10
108.6555555555555
 20
172.4158325195312
 30
0.0
 40
2.534901258680555
  0
MTEXT
  5
193
330
A
100
AcDbEntity
  8
LAYER_1
 62
     7
100
AcDbMText
 10
106.7554131401909
 20
173.3909092664718
 30
0.0
 40
1.837384147114223
 41
0.0
 46
0.0
 71
     1
 72
     2
  1
\fHelvetica|b0|i0;\H1.8374;\C7;401
  7
STD
 73
     1
 44
1.0
  0
CIRCLE
  5
192
330
A
100
AcDbEntity
  8
LAYER_1
 62
     7
100
AcDbCircle
 10
230.0111111111111
 20
154.0713880750868
 30
0.0
 40
2.534901258680555
  0
CIRCLE
  5
191
330
A
100
AcDbEntity
  8
LAYER_1
 62
     7
100
AcDbCircle
 10
230.0111111111111
 20
154.0713880750868
 30
0.0
 40
2.534901258680555
  0
MTEXT
  5
190
330
A
100
AcDbEntity
  8
LAYER_1
 62
     7
100
AcDbMText
 10
228.1107964409722
 20
155.0464648220274
 30
0.0
 40
1.837384147114223
 41
0.0
 46
0.0
 71
     1
 72
     2
  1
\fHelvetica|b0|i0;\H1.8374;\C7;402
  7
STD
 73
     1
 44
1.0
  0
CIRCLE
  5
18F
330
A
100
AcDbEntity
  8
LAYER_1
 62
     7
100
AcDbCircle
 10
230.2984320746528
 20
139.2545491536458
 30
0.0
 40
2.534901258680555
  0
CIRCLE
  5
18E
330
A
100
AcDbEntity
  8
LAYER_1
 62
     7
100
AcDbCircle
 10
230.2984320746528
 20
139.2545491536458
 30
0.0
 40
2.534901258680555
  0
MTEXT
  5
18D
330
A
100
AcDbEntity
  8
LAYER_1
 62
     7
100
AcDbMText
 10
228.3981174045139
 20
140.2296259005864
 30
0.0
 40
1.837384147114223
 41
0.0
 46
0.0
 71
     1
 72
     2
  1
\fHelvetica|b0|i0;\H1.8374;\C7;409
  7
STD
 73
     1
 44
1.0
  0
CIRCLE
  5
18C
330
A
100
AcDbEntity
  8
LAYER_1
 62
     7
100
AcDbCircle
 10
112.1833333333333
 20
145.6045491536458
 30
0.0
 40
2.534901258680555
  0
CIRCLE
  5
18B
330
A
100
AcDbEntity
  8
LAYER_1
 62
     7
100
AcDbCircle
 10
112.1833333333333
 20
145.6045491536458
 30
0.0
 40
2.534901258680555
  0
MTEXT
  5
18A
330
A
100
AcDbEntity
  8
LAYER_1
 62
     7
100
AcDbMText
 10
110.2831909179687
 20
146.579970410135
 30
0.0
 40
1.837384147114223
 41
0.0
 46
0.0
 71
     1
 72
     2
  1
\fHelvetica|b0|i0;\H1.8374;\C7;408
  7
STD
 73
     1
 44
1.0
  0
CIRCLE
  5
189
330
A
100
AcDbEntity
  8
LAYER_1
 62
     7
100
AcDbCircle
 10
143.5150987413194
 20
154.776771375868
 30
0.0
 40
2.534901258680555
  0
CIRCLE
  5
188
330
A
100
AcDbEntity
  8
LAYER_1
 62
     7
100
AcDbCircle
 10
143.5150987413194
 20
154.776771375868
 30
0.0
 40
2.534901258680555
  0
MTEXT
  5
187
330
A
100
AcDbEntity
  8
LAYER_1
 62
     7
100
AcDbMText
 10
141.6149563259548
 20
155.7518481228086
 30
0.0
 40
1.837384147114223
 41
0.0
 46
0.0
 71
     1
 72
     2
  1
\fHelvetica|b0|i0;\H1.8374;\C7;404
  7
STD
 73
     1
 44
1.0
  0
CIRCLE
  5
186
330
A
100
AcDbEntity
  8
LAYER_1
 62
     7
100
AcDbCircle
 10
71.26111111111111
 20
151.9547214084201
 30
0.0
 40
2.534901258680555
  0
CIRCLE
  5
185
330
A
100
AcDbEntity
  8
LAYER_1
 62
     7
100
AcDbCircle
 10
71.26111111111111
 20
151.9547214084201
 30
0.0
 40
2.534901258680555
  0
MTEXT
  5
184
330
A
100
AcDbEntity
  8
LAYER_1
 62
     7
100
AcDbMText
 10
69.36096869574652
 20
152.9297981553607
 30
0.0
 40
1.837384147114223
 41
0.0
 46
0.0
 71
     1
 72
     2
  1
\fHelvetica|b0|i0;\H1.8374;\C7;406
  7
STD
 73
     1
 44
1.0
  0
MTEXT
  5
183
330
A
100
AcDbEntity
  8
LAYER_1
 62
     7
100
AcDbMText
 10
30.02693549262153
 20
187.7028775188658
 30
0.0
 40
3.149801346990797
 41
0.0
 46
0.0
 71
     1
 72
     2
  1
\fArial|b0|i0;\H3.1498;\C7;E
  7
STD
 73
     1
 44
1.0
  0
MTEXT
  5
182
330
A
100
AcDbEntity
  8
LAYER_1
 62
     7
100
AcDbMText
 10
270.7858832465277
 20
180.8238831069734
 30
0.0
 40
3.149801346990797
 41
0.0
 46
0.0
 71
     1
 72
     2
  1
\fArial|b0|i0;\H3.1498;\C7;F
  7
STD
 73
     1
 44
1.0
  0
POLYLINE
  5
17C
330
A
100
AcDbEntity
  8
LAYER_1
 62
     7
100
AcDb2dPolyline
 66
     1
 10
0.0
 20
0.0
 30
0.0
 70
     1
  0
VERTEX
  5
17D
330
17C
100
AcDbEntity
  8
LAYER_1
 62
     7
100
AcDbVertex
100
AcDb2dVertex
 10
75.89045817057291
 20
126.2331217447916
 30
0.0
  0
VERTEX
  5
17E
330
17C
100
AcDbEntity
  8
LAYER_1
 62
     7
100
AcDbVertex
100
AcDb2dVertex
 10
70.1974378797743
 20
126.2331217447916
 30
0.0
  0
VERTEX
  5
17F
330
17C
100
AcDbEntity
  8
LAYER_1
 62
     7
100
AcDbVertex
100
AcDb2dVertex
 10
70.1974378797743
 20
130.1946370442708
 30
0.0
  0
VERTEX
  5
180
330
17C
100
AcDbEntity
  8
LAYER_1
 62
     7
100
AcDbVertex
100
AcDb2dVertex
 10
75.89045817057291
 20
130.1946370442708
 30
0.0
  0
SEQEND
  5
181
330
17C
100
AcDbEntity
  8
LAYER_1
 62
     7
  0
POLYLINE
  5
176
330
A
100
AcDbEntity
  8
LAYER_1
 62
     7
100
AcDb2dPolyline
 66
     1
 10
0.0
 20
0.0
 30
0.0
 70
     1
  0
VERTEX
  5
177
330
176
100
AcDbEntity
  8
LAYER_1
 62
     7
100
AcDbVertex
100
AcDb2dVertex
 10
75.89045817057291
 20
126.2331217447916
 30
0.0
  0
VERTEX
  5
178
330
176
100
AcDbEntity
  8
LAYER_1
 62
     7
100
AcDbVertex
100
AcDb2dVertex
 10
70.1974378797743
 20
126.2331217447916
 30
0.0
  0
VERTEX
  5
179
330
176
100
AcDbEntity
  8
LAYER_1
 62
     7
100
AcDbVertex
100
AcDb2dVertex
 10
70.1974378797743
 20
130.1946370442708
 30
0.0
  0
VERTEX
  5
17A
330
176
100
AcDbEntity
  8
LAYER_1
 62
     7
100
AcDbVertex
100
AcDb2dVertex
 10
75.89045817057291
 20
130.1946370442708
 30
0.0
  0
SEQEND
  5
17B
330
176
100
AcDbEntity
  8
LAYER_1
 62
     7
  0
MTEXT
  5
175
330
A
100
AcDbEntity
  8
LAYER_1
 62
     7
100
AcDbMText
 10
71.14363335503472
 20
129.2015307399961
 30
0.0
 40
1.837384147114223
 41
0.0
 46
0.0
 71
     1
 72
     2
  1
\fHelvetica|b0|i0;\H1.8374;\C7;405
  7
STD
 73
     1
 44
1.0
  0
LINE
  5
174
330
A
100
AcDbEntity
  8
LAYER_1
 62
     7
100
AcDbLine
 10
73.04377577039929
 20
134.1947374131944
 30
0.0
 11
73.04377577039929
 21
130.1946370442708
 31
0.0
  0
HATCH
  5
173
330
A
100
AcDbEntity
  8
LAYER_1
 62
     7
100
AcDbHatch
 10
0.0
 20
0.0
 30
0.0
210
0.0
220
0.0
230
1.0
  2
SOLID
 70
     1
 71
     0
 91
        1
 92
        1
 93
        1
 72
     4
 94
        3
 73
     0
 74
     0
 95
       17
 96
       13
 40
0.0
 40
0.0
 40
0.0
 40
0.0
 40
1.0
 40
1.0
 40
1.0
 40
2.0
 40
2.0
 40
2.0
 40
3.0
 40
3.0
 40
3.0
 40
4.0
 40
4.0
 40
4.0
 40
4.0
 10
73.39379747178819
 20
134.1947374131944
 10
73.39379747178819
 20
134.0014675564236
 10
73.23704562717013
 20
133.8447157118055
 10
73.04377577039929
 20
133.8447157118055
 10
72.85050591362846
 20
133.8447157118055
 10
72.69375406901041
 20
134.0014675564236
 10
72.69375406901041
 20
134.1947374131944
 10
72.69375406901041
 20
134.3880072699652
 10
72.85050591362846
 20
134.5447591145833
 10
73.04377577039929
 20
134.5447591145833
 10
73.23704562717013
 20
134.5447591145833
 10
73.39379747178819
 20
134.3880072699652
 10
73.39379747178819
 20
134.1947374131944
 97
        0
 97
        0
 75
     2
 76
     1
 98
        1
 10
0.0
 20
0.0
450
        0
451
        0
460
0.0
461
0.0
452
        0
462
0.0
453
        0
470

  0
POLYLINE
  5
16D
330
A
100
AcDbEntity
  8
LAYER_1
 62
     7
100
AcDb2dPolyline
 66
     1
 10
0.0
 20
0.0
 30
0.0
 70
     1
  0
VERTEX
  5
16E
330
16D
100
AcDbEntity
  8
LAYER_1
 62
     7
100
AcDbVertex
100
AcDb2dVertex
 10
114.8481146918402
 20
128.7928276909722
 30
0.0
  0
VERTEX
  5
16F
330
16D
100
AcDbEntity
  8
LAYER_1
 62
     7
100
AcDbVertex
100
AcDb2dVertex
 10
109.1550944010416
 20
128.7928276909722
 30
0.0
  0
VERTEX
  5
170
330
16D
100
AcDbEntity
  8
LAYER_1
 62
     7
100
AcDbVertex
100
AcDb2dVertex
 10
109.1550944010416
 20
132.7543429904513
 30
0.0
  0
VERTEX
  5
171
330
16D
100
AcDbEntity
  8
LAYER_1
 62
     7
100
AcDbVertex
100
AcDb2dVertex
 10
114.8481146918402
 20
132.7543429904513
 30
0.0
  0
SEQEND
  5
172
330
16D
100
AcDbEntity
  8
LAYER_1
 62
     7
  0
POLYLINE
  5
167
330
A
100
AcDbEntity
  8
LAYER_1
 62
     7
100
AcDb2dPolyline
 66
     1
 10
0.0
 20
0.0
 30
0.0
 70
     1
  0
VERTEX
  5
168
330
167
100
AcDbEntity
  8
LAYER_1
 62
     7
100
AcDbVertex
100
AcDb2dVertex
 10
114.8481146918402
 20
128.7928276909722
 30
0.0
  0
VERTEX
  5
169
330
167
100
AcDbEntity
  8
LAYER_1
 62
     7
100
AcDbVertex
100
AcDb2dVertex
 10
109.1550944010416
 20
128.7928276909722
 30
0.0
  0
VERTEX
  5
16A
330
167
100
AcDbEntity
  8
LAYER_1
 62
     7
100
AcDbVertex
100
AcDb2dVertex
 10
109.1550944010416
 20
132.7543429904513
 30
0.0
  0
VERTEX
  5
16B
330
167
100
AcDbEntity
  8
LAYER_1
 62
     7
100
AcDbVertex
100
AcDb2dVertex
 10
114.8481146918402
 20
132.7543429904513
 30
0.0
  0
SEQEND
  5
16C
330
167
100
AcDbEntity
  8
LAYER_1
 62
     7
  0
MTEXT
  5
166
330
A
100
AcDbEntity
  8
LAYER_1
 62
     7
100
AcDbMText
 10
110.101289876302
 20
131.7612366861767
 30
0.0
 40
1.837384147114223
 41
0.0
 46
0.0
 71
     1
 72
     2
  1
\fHelvetica|b0|i0;\H1.8374;\C7;407
  7
STD
 73
     1
 44
1.0
  0
LINE
  5
165
330
A
100
AcDbEntity
  8
LAYER_1
 62
     7
100
AcDbLine
 10
112.0014322916666
 20
136.754443359375
 30
0.0
 11
112.0014322916666
 21
132.7543429904513
 31
0.0
  0
HATCH
  5
164
330
A
100
AcDbEntity
  8
LAYER_1
 62
     7
100
AcDbHatch
 10
0.0
 20
0.0
 30
0.0
210
0.0
220
0.0
230
1.0
  2
SOLID
 70
     1
 71
     0
 91
        1
 92
        1
 93
        1
 72
     4
 94
        3
 73
     0
 74
     0
 95
       17
 96
       13
 40
0.0
 40
0.0
 40
0.0
 40
0.0
 40
1.0
 40
1.0
 40
1.0
 40
2.0
 40
2.0
 40
2.0
 40
3.0
 40
3.0
 40
3.0
 40
4.0
 40
4.0
 40
4.0
 40
4.0
 10
112.3514539930555
 20
136.754443359375
 10
112.3514539930555
 20
136.5611735026041
 10
112.1947021484375
 20
136.4044216579861
 10
112.0014322916666
 20
136.4044216579861
 10
111.8081624348958
 20
136.4044216579861
 10
111.6514105902777
 20
136.5611735026041
 10
111.6514105902777
 20
136.754443359375
 10
111.6514105902777
 20
136.9477132161458
 10
111.8081624348958
 20
137.1044650607639
 10
112.0014322916666
 20
137.1044650607639
 10
112.1947021484375
 20
137.1044650607639
 10
112.3514539930555
 20
136.9477132161458
 10
112.3514539930555
 20
136.754443359375
 97
        0
 97
        0
 75
     2
 76
     1
 98
        1
 10
0.0
 20
0.0
450
        0
451
        0
460
0.0
461
0.0
452
        0
462
0.0
453
        0
470

  0
POLYLINE
  5
15E
330
A
100
AcDbEntity
  8
LAYER_1
 62
     7
100
AcDb2dPolyline
 66
     1
 10
0.0
 20
0.0
 30
0.0
 70
     1
  0
VERTEX
  5
15F
330
15E
100
AcDbEntity
  8
LAYER_1
 62
     7
100
AcDbVertex
100
AcDb2dVertex
 10
150.5789225260416
 20
136.4729790581597
 30
0.0
  0
VERTEX
  5
160
330
15E
100
AcDbEntity
  8
LAYER_1
 62
     7
100
AcDbVertex
100
AcDb2dVertex
 10
144.885902235243
 20
136.4729790581597
 30
0.0
  0
VERTEX
  5
161
330
15E
100
AcDbEntity
  8
LAYER_1
 62
     7
100
AcDbVertex
100
AcDb2dVertex
 10
144.885902235243
 20
140.4344943576388
 30
0.0
  0
VERTEX
  5
162
330
15E
100
AcDbEntity
  8
LAYER_1
 62
     7
100
AcDbVertex
100
AcDb2dVertex
 10
150.5789225260416
 20
140.4344943576388
 30
0.0
  0
SEQEND
  5
163
330
15E
100
AcDbEntity
  8
LAYER_1
 62
     7
  0
POLYLINE
  5
158
330
A
100
AcDbEntity
  8
LAYER_1
 62
     7
100
AcDb2dPolyline
 66
     1
 10
0.0
 20
0.0
 30
0.0
 70
     1
  0
VERTEX
  5
159
330
158
100
AcDbEntity
  8
LAYER_1
 62
     7
100
AcDbVertex
100
AcDb2dVertex
 10
150.5789225260416
 20
136.4729790581597
 30
0.0
  0
VERTEX
  5
15A
330
158
100
AcDbEntity
  8
LAYER_1
 62
     7
100
AcDbVertex
100
AcDb2dVertex
 10
144.885902235243
 20
136.4729790581597
 30
0.0
  0
VERTEX
  5
15B
330
158
100
AcDbEntity
  8
LAYER_1
 62
     7
100
AcDbVertex
100
AcDb2dVertex
 10
144.885902235243
 20
140.4344943576388
 30
0.0
  0
VERTEX
  5
15C
330
158
100
AcDbEntity
  8
LAYER_1
 62
     7
100
AcDbVertex
100
AcDb2dVertex
 10
150.5789225260416
 20
140.4344943576388
 30
0.0
  0
SEQEND
  5
15D
330
158
100
AcDbEntity
  8
LAYER_1
 62
     7
  0
MTEXT
  5
157
330
A
100
AcDbEntity
  8
LAYER_1
 62
     7
100
AcDbMText
 10
145.8320977105034
 20
139.4413880533642
 30
0.0
 40
1.837384147114223
 41
0.0
 46
0.0
 71
     1
 72
     2
  1
\fHelvetica|b0|i0;\H1.8374;\C7;403
  7
STD
 73
     1
 44
1.0
  0
LINE
  5
156
330
A
100
AcDbEntity
  8
LAYER_1
 62
     7
100
AcDbLine
 10
147.732240125868
 20
144.4345947265625
 30
0.0
 11
147.732240125868
 21
140.4344943576388
 31
0.0
  0
HATCH
  5
155
330
A
100
AcDbEntity
  8
LAYER_1
 62
     7
100
AcDbHatch
 10
0.0
 20
0.0
 30
0.0
210
0.0
220
0.0
230
1.0
  2
SOLID
 70
     1
 71
     0
 91
        1
 92
        1
 93
        1
 72
     4
 94
        3
 73
     0
 74
     0
 95
       17
 96
       13
 40
0.0
 40
0.0
 40
0.0
 40
0.0
 40
1.0
 40
1.0
 40
1.0
 40
2.0
 40
2.0
 40
2.0
 40
3.0
 40
3.0
 40
3.0
 40
4.0
 40
4.0
 40
4.0
 40
4.0
 10
148.0822618272569
 20
144.4345947265625
 10
148.0822618272569
 20
144.2413248697916
 10
147.9255099826389
 20
144.0845730251736
 10
147.732240125868
 20
144.0845730251736
 10
147.5389702690972
 20
144.0845730251736
 10
147.3822184244791
 20
144.2413248697916
 10
147.3822184244791
 20
144.4345947265625
 10
147.3822184244791
 20
144.6278645833333
 10
147.5389702690972
 20
144.7846164279513
 10
147.732240125868
 20
144.7846164279513
 10
147.9255099826389
 20
144.7846164279513
 10
148.0822618272569
 20
144.6278645833333
 10
148.0822618272569
 20
144.4345947265625
 97
        0
 97
        0
 75
     2
 76
     1
 98
        1
 10
0.0
 20
0.0
450
        0
451
        0
460
0.0
461
0.0
452
        0
462
0.0
453
        0
470

  0
POLYLINE
  5
14F
330
A
100
AcDbEntity
  8
LAYER_1
 62
     7
100
AcDb2dPolyline
 66
     1
 10
0.0
 20
0.0
 30
0.0
 70
     1
  0
VERTEX
  5
150
330
14F
100
AcDbEntity
  8
LAYER_1
 62
     7
100
AcDbVertex
100
AcDb2dVertex
 10
170.4667697482639
 20
263.9713121202257
 30
0.0
  0
VERTEX
  5
151
330
14F
100
AcDbEntity
  8
LAYER_1
 62
     7
100
AcDbVertex
100
AcDb2dVertex
 10
164.7740939670138
 20
263.9713121202257
 30
0.0
  0
VERTEX
  5
152
330
14F
100
AcDbEntity
  8
LAYER_1
 62
     7
100
AcDbVertex
100
AcDb2dVertex
 10
164.7740939670138
 20
267.9328274197048
 30
0.0
  0
VERTEX
  5
153
330
14F
100
AcDbEntity
  8
LAYER_1
 62
     7
100
AcDbVertex
100
AcDb2dVertex
 10
170.4667697482639
 20
267.9328274197048
 30
0.0
  0
SEQEND
  5
154
330
14F
100
AcDbEntity
  8
LAYER_1
 62
     7
  0
POLYLINE
  5
149
330
A
100
AcDbEntity
  8
LAYER_1
 62
     7
100
AcDb2dPolyline
 66
     1
 10
0.0
 20
0.0
 30
0.0
 70
     1
  0
VERTEX
  5
14A
330
149
100
AcDbEntity
  8
LAYER_1
 62
     7
100
AcDbVertex
100
AcDb2dVertex
 10
170.4667697482639
 20
263.9713121202257
 30
0.0
  0
VERTEX
  5
14B
330
149
100
AcDbEntity
  8
LAYER_1
 62
     7
100
AcDbVertex
100
AcDb2dVertex
 10
164.7740939670138
 20
263.9713121202257
 30
0.0
  0
VERTEX
  5
14C
330
149
100
AcDbEntity
  8
LAYER_1
 62
     7
100
AcDbVertex
100
AcDb2dVertex
 10
164.7740939670138
 20
267.9328274197048
 30
0.0
  0
VERTEX
  5
14D
330
149
100
AcDbEntity
  8
LAYER_1
 62
     7
100
AcDbVertex
100
AcDb2dVertex
 10
170.4667697482639
 20
267.9328274197048
 30
0.0
  0
SEQEND
  5
14E
330
149
100
AcDbEntity
  8
LAYER_1
 62
     7
  0
MTEXT
  5
148
330
A
100
AcDbEntity
  8
LAYER_1
 62
     7
100
AcDbMText
 10
165.7202894422743
 20
266.9397211154302
 30
0.0
 40
1.837384147114223
 41
0.0
 46
0.0
 71
     1
 72
     2
  1
\fHelvetica|b0|i0;\H1.8374;\C7;407
  7
STD
 73
     1
 44
1.0
  0
LINE
  5
147
330
A
100
AcDbEntity
  8
LAYER_1
 62
     7
100
AcDbLine
 10
160.7736490885416
 20
265.9522420247396
 30
0.0
 11
164.7740939670138
 21
265.9522420247396
 31
0.0
  0
HATCH
  5
146
330
A
100
AcDbEntity
  8
LAYER_1
 62
     7
100
AcDbHatch
 10
0.0
 20
0.0
 30
0.0
210
0.0
220
0.0
230
1.0
  2
SOLID
 70
     1
 71
     0
 91
        1
 92
        1
 93
        1
 72
     4
 94
        3
 73
     0
 74
     0
 95
       17
 96
       13
 40
0.0
 40
0.0
 40
0.0
 40
0.0
 40
1.0
 40
1.0
 40
1.0
 40
2.0
 40
2.0
 40
2.0
 40
3.0
 40
3.0
 40
3.0
 40
4.0
 40
4.0
 40
4.0
 40
4.0
 10
161.1236707899305
 20
265.9522420247396
 10
161.1236707899305
 20
265.7589721679688
 10
160.9672634548611
 20
265.6022203233507
 10
160.7736490885416
 20
265.6022203233507
 10
160.5807237413194
 20
265.6022203233507
 10
160.4236273871528
 20
265.7589721679688
 10
160.4236273871528
 20
265.9522420247396
 10
160.4236273871528
 20
266.1455118815104
 10
160.5807237413194
 20
266.3022637261284
 10
160.7736490885416
 20
266.3022637261284
 10
160.9672634548611
 20
266.3022637261284
 10
161.1236707899305
 20
266.1455118815104
 10
161.1236707899305
 20
265.9522420247396
 97
        0
 97
        0
 75
     2
 76
     1
 98
        1
 10
0.0
 20
0.0
450
        0
451
        0
460
0.0
461
0.0
452
        0
462
0.0
453
        0
470

  0
MTEXT
  5
145
330
A
100
AcDbEntity
  8
LAYER_1
 62
     7
100
AcDbMText
 10
22.58897433810764
 20
258.4704706271489
 30
0.0
 40
1.837384147114223
 41
0.0
 46
0.0
 71
     1
 72
     2
  1
\fHelvetica|b0|i0;\H1.8374;\C7;24
  7
STD
 73
     1
 44
1.0
  0
LINE
  5
144
330
A
100
AcDbEntity
  8
LAYER_1
 62
     7
100
AcDbLine
 10
25.04704996744792
 20
256.236383734809
 30
0.0
 11
22.66442192925347
 21
256.236383734809
 31
0.0
  0
LINE
  5
143
330
A
100
AcDbEntity
  8
LAYER_1
 62
     7
100
AcDbLine
 10
24.25261094835069
 20
256.236383734809
 30
0.0
 11
24.60366617838542
 21
254.4004923502604
 31
0.0
  0
LINE
  5
142
330
A
100
AcDbEntity
  8
LAYER_1
 62
     7
100
AcDbLine
 10
23.45886094835069
 20
256.236383734809
 30
0.0
 11
23.10780571831597
 21
254.4004923502604
 31
0.0
  0
MTEXT
  5
141
330
A
100
AcDbEntity
  8
LAYER_1
 62
     7
100
AcDbMText
 10
50.28289116753471
 20
258.6108582682079
 30
0.0
 40
1.837384147114223
 41
0.0
 46
0.0
 71
     1
 72
     2
  1
\fHelvetica|b0|i0;\H1.8374;\C7;25
  7
STD
 73
     1
 44
1.0
  0
LINE
  5
140
330
A
100
AcDbEntity
  8
LAYER_1
 62
     7
100
AcDbLine
 10
52.74096679687499
 20
256.376771375868
 30
0.0
 11
50.35833875868055
 21
256.376771375868
 31
0.0
  0
LINE
  5
13F
330
A
100
AcDbEntity
  8
LAYER_1
 62
     7
100
AcDbLine
 10
51.94652777777777
 20
256.376771375868
 30
0.0
 11
52.2975830078125
 21
254.5408799913194
 31
0.0
  0
LINE
  5
13E
330
A
100
AcDbEntity
  8
LAYER_1
 62
     7
100
AcDbLine
 10
51.15277777777777
 20
256.376771375868
 30
0.0
 11
50.80172254774305
 21
254.5408799913194
 31
0.0
  0
MTEXT
  5
13D
330
A
100
AcDbEntity
  8
LAYER_1
 62
     7
100
AcDbMText
 10
74.71361355251736
 20
258.4704706271489
 30
0.0
 40
1.837384147114223
 41
0.0
 46
0.0
 71
     1
 72
     2
  1
\fHelvetica|b0|i0;\H1.8374;\C7;26
  7
STD
 73
     1
 44
1.0
  0
LINE
  5
13C
330
A
100
AcDbEntity
  8
LAYER_1
 62
     7
100
AcDbLine
 10
77.17168918185763
 20
256.236383734809
 30
0.0
 11
74.78906114366319
 21
256.236383734809
 31
0.0
  0
LINE
  5
13B
330
A
100
AcDbEntity
  8
LAYER_1
 62
     7
100
AcDbLine
 10
76.3772501627604
 20
256.236383734809
 30
0.0
 11
76.72830539279513
 21
254.4004923502604
 31
0.0
  0
LINE
  5
13A
330
A
100
AcDbEntity
  8
LAYER_1
 62
     7
100
AcDbLine
 10
75.58350016276041
 20
256.236383734809
 30
0.0
 11
75.23244493272568
 21
254.4004923502604
 31
0.0
  0
MTEXT
  5
139
330
A
100
AcDbEntity
  8
LAYER_1
 62
     7
100
AcDbMText
 10
101.7884467230903
 20
258.6108582682079
 30
0.0
 40
1.837384147114223
 41
0.0
 46
0.0
 71
     1
 72
     2
  1
\fHelvetica|b0|i0;\H1.8374;\C7;27
  7
STD
 73
     1
 44
1.0
  0
LINE
  5
138
330
A
100
AcDbEntity
  8
LAYER_1
 62
     7
100
AcDbLine
 10
104.2465223524305
 20
256.376771375868
 30
0.0
 11
101.8638943142361
 21
256.376771375868
 31
0.0
  0
LINE
  5
137
330
A
100
AcDbEntity
  8
LAYER_1
 62
     7
100
AcDbLine
 10
103.4520833333333
 20
256.376771375868
 30
0.0
 11
103.803138563368
 21
254.5408799913194
 31
0.0
  0
LINE
  5
136
330
A
100
AcDbEntity
  8
LAYER_1
 62
     7
100
AcDbLine
 10
102.6583333333333
 20
256.376771375868
 30
0.0
 11
102.3072781032986
 21
254.5408799913194
 31
0.0
  0
MTEXT
  5
135
330
A
100
AcDbEntity
  8
LAYER_1
 62
     7
100
AcDbMText
 10
137.5661078559027
 20
267.5477804687288
 30
0.0
 40
1.837384147114223
 41
0.0
 46
0.0
 71
     1
 72
     2
  1
\fHelvetica|b0|i0;\H1.8374;\C7;28
  7
STD
 73
     1
 44
1.0
  0
LINE
  5
134
330
A
100
AcDbEntity
  8
LAYER_1
 62
     7
100
AcDbLine
 10
140.024183485243
 20
265.3136935763888
 30
0.0
 11
137.6415554470486
 21
265.3136935763888
 31
0.0
  0
LINE
  5
133
330
A
100
AcDbEntity
  8
LAYER_1
 62
     7
100
AcDbLine
 10
139.2297444661458
 20
265.3136935763888
 30
0.0
 11
139.5807996961805
 21
263.4778021918402
 31
0.0
  0
LINE
  5
132
330
A
100
AcDbEntity
  8
LAYER_1
 62
     7
100
AcDbLine
 10
138.4359944661458
 20
265.3136935763888
 30
0.0
 11
138.0849392361111
 21
263.4778021918402
 31
0.0
  0
MTEXT
  5
131
330
A
100
AcDbEntity
  8
LAYER_1
 62
     7
100
AcDbMText
 10
145.0919189453125
 20
270.1348749240239
 30
0.0
 40
1.837384147114223
 41
0.0
 46
0.0
 71
     1
 72
     2
  1
\fHelvetica|b0|i0;\H1.8374;\C7;29
  7
STD
 73
     1
 44
1.0
  0
LINE
  5
130
330
A
100
AcDbEntity
  8
LAYER_1
 62
     7
100
AcDbLine
 10
147.5499945746527
 20
267.900788031684
 30
0.0
 11
145.1673665364583
 21
267.900788031684
 31
0.0
  0
LINE
  5
12F
330
A
100
AcDbEntity
  8
LAYER_1
 62
     7
100
AcDbLine
 10
146.7555555555555
 20
267.900788031684
 30
0.0
 11
147.1066107855903
 21
266.0648966471354
 31
0.0
  0
LINE
  5
12E
330
A
100
AcDbEntity
  8
LAYER_1
 62
     7
100
AcDbLine
 10
145.9618055555555
 20
267.900788031684
 30
0.0
 11
145.6107503255208
 21
266.0648966471354
 31
0.0
  0
MTEXT
  5
12D
330
A
100
AcDbEntity
  8
LAYER_1
 62
     7
100
AcDbMText
 10
153.882080078125
 20
268.4886360459858
 30
0.0
 40
1.837384147114223
 41
0.0
 46
0.0
 71
     1
 72
     2
  1
\fHelvetica|b0|i0;\H1.8374;\C7;30
  7
STD
 73
     1
 44
1.0
  0
LINE
  5
12C
330
A
100
AcDbEntity
  8
LAYER_1
 62
     7
100
AcDbLine
 10
156.3401557074652
 20
266.2545491536458
 30
0.0
 11
153.9575276692708
 21
266.2545491536458
 31
0.0
  0
LINE
  5
12B
330
A
100
AcDbEntity
  8
LAYER_1
 62
     7
100
AcDbLine
 10
155.545716688368
 20
266.2545491536458
 30
0.0
 11
155.8967719184028
 21
264.4186577690972
 31
0.0
  0
LINE
  5
12A
330
A
100
AcDbEntity
  8
LAYER_1
 62
     7
100
AcDbLine
 10
154.751966688368
 20
266.2545491536458
 30
0.0
 11
154.4009114583333
 21
264.4186577690972
 31
0.0
  0
MTEXT
  5
129
330
A
100
AcDbEntity
  8
LAYER_1
 62
     7
100
AcDbMText
 10
186.9549967447916
 20
268.0182082573572
 30
0.0
 40
1.837384147114223
 41
0.0
 46
0.0
 71
     1
 72
     2
  1
\fHelvetica|b0|i0;\H1.8374;\C7;32
  7
STD
 73
     1
 44
1.0
  0
LINE
  5
128
330
A
100
AcDbEntity
  8
LAYER_1
 62
     7
100
AcDbLine
 10
189.4130723741319
 20
265.7841213650173
 30
0.0
 11
187.0304443359375
 21
265.7841213650173
 31
0.0
  0
LINE
  5
127
330
A
100
AcDbEntity
  8
LAYER_1
 62
     7
100
AcDbLine
 10
188.6186333550347
 20
265.7841213650173
 30
0.0
 11
188.9696885850694
 21
263.9482299804687
 31
0.0
  0
LINE
  5
126
330
A
100
AcDbEntity
  8
LAYER_1
 62
     7
100
AcDbLine
 10
187.8248833550347
 20
265.7841213650173
 30
0.0
 11
187.473828125
 21
263.9482299804687
 31
0.0
  0
MTEXT
  5
125
330
A
100
AcDbEntity
  8
LAYER_1
 62
     7
100
AcDbMText
 10
163.9067911783854
 20
248.7330804904302
 30
0.0
 40
1.837384147114223
 41
0.0
 46
0.0
 71
     1
 72
     2
  1
\fHelvetica|b0|i0;\H1.8374;\C7;31
  7
STD
 73
     1
 44
1.0
  0
LINE
  5
124
330
A
100
AcDbEntity
  8
LAYER_1
 62
     7
100
AcDbLine
 10
166.3648668077257
 20
246.4989935980903
 30
0.0
 11
163.9822387695312
 21
246.4989935980903
 31
0.0
  0
LINE
  5
123
330
A
100
AcDbEntity
  8
LAYER_1
 62
     7
100
AcDbLine
 10
165.5704277886284
 20
246.4989935980903
 30
0.0
 11
165.9214830186631
 21
244.6631022135417
 31
0.0
  0
LINE
  5
122
330
A
100
AcDbEntity
  8
LAYER_1
 62
     7
100
AcDbLine
 10
164.7766777886284
 20
246.4989935980903
 30
0.0
 11
164.4256225585937
 21
244.6631022135417
 31
0.0
  0
MTEXT
  5
121
330
A
100
AcDbEntity
  8
LAYER_1
 62
     7
100
AcDbMText
 10
202.0949856228298
 20
249.2033360242843
 30
0.0
 40
1.837384147114223
 41
0.0
 46
0.0
 71
     1
 72
     2
  1
\fHelvetica|b0|i0;\H1.8374;\C7;33
  7
STD
 73
     1
 44
1.0
  0
LINE
  5
120
330
A
100
AcDbEntity
  8
LAYER_1
 62
     7
100
AcDbLine
 10
204.5530612521701
 20
246.9692491319444
 30
0.0
 11
202.1704332139757
 21
246.9692491319444
 31
0.0
  0
LINE
  5
11F
330
A
100
AcDbEntity
  8
LAYER_1
 62
     7
100
AcDbLine
 10
203.7586222330729
 20
246.9692491319444
 30
0.0
 11
204.1096774631076
 21
245.1333577473958
 31
0.0
  0
LINE
  5
11E
330
A
100
AcDbEntity
  8
LAYER_1
 62
     7
100
AcDbLine
 10
202.9648722330729
 20
246.9692491319444
 30
0.0
 11
202.6138170030382
 21
245.1333577473958
 31
0.0
  0
MTEXT
  5
11D
330
A
100
AcDbEntity
  8
LAYER_1
 62
     7
100
AcDbMText
 10
229.288330078125
 20
258.1404304795795
 30
0.0
 40
1.837384147114223
 41
0.0
 46
0.0
 71
     1
 72
     2
  1
\fHelvetica|b0|i0;\H1.8374;\C7;34
  7
STD
 73
     1
 44
1.0
  0
LINE
  5
11C
330
A
100
AcDbEntity
  8
LAYER_1
 62
     7
100
AcDbLine
 10
231.7464057074652
 20
255.9063435872396
 30
0.0
 11
229.3637776692708
 21
255.9063435872396
 31
0.0
  0
LINE
  5
11B
330
A
100
AcDbEntity
  8
LAYER_1
 62
     7
100
AcDbLine
 10
230.951966688368
 20
255.9063435872396
 30
0.0
 11
231.3030219184028
 21
254.0704522026909
 31
0.0
  0
LINE
  5
11A
330
A
100
AcDbEntity
  8
LAYER_1
 62
     7
100
AcDbLine
 10
230.158216688368
 20
255.9063435872396
 30
0.0
 11
229.8071614583333
 21
254.0704522026909
 31
0.0
  0
MTEXT
  5
119
330
A
100
AcDbEntity
  8
LAYER_1
 62
     7
100
AcDbMText
 10
276.1784912109375
 20
257.1997471570969
 30
0.0
 40
1.837384147114223
 41
0.0
 46
0.0
 71
     1
 72
     2
  1
\fHelvetica|b0|i0;\H1.8374;\C7;35
  7
STD
 73
     1
 44
1.0
  0
LINE
  5
118
330
A
100
AcDbEntity
  8
LAYER_1
 62
     7
100
AcDbLine
 10
278.6365668402777
 20
254.9656602647569
 30
0.0
 11
276.2539388020833
 21
254.9656602647569
 31
0.0
  0
LINE
  5
117
330
A
100
AcDbEntity
  8
LAYER_1
 62
     7
100
AcDbLine
 10
277.8421278211805
 20
254.9656602647569
 30
0.0
 11
278.1931830512153
 21
253.1297688802083
 31
0.0
  0
LINE
  5
116
330
A
100
AcDbEntity
  8
LAYER_1
 62
     7
100
AcDbLine
 10
277.0483778211805
 20
254.9656602647569
 30
0.0
 11
276.6973225911458
 21
253.1297688802083
 31
0.0
  0
MTEXT
  5
115
330
A
100
AcDbEntity
  8
LAYER_1
 62
     7
100
AcDbMText
 10
217.2938856336805
 20
210.6330804904302
 30
0.0
 40
1.837384147114223
 41
0.0
 46
0.0
 71
     1
 72
     2
  1
\fHelvetica|b0|i0;\H1.8374;\C7;36
  7
STD
 73
     1
 44
1.0
  0
LINE
  5
114
330
A
100
AcDbEntity
  8
LAYER_1
 62
     7
100
AcDbLine
 10
219.7519612630208
 20
208.3989935980903
 30
0.0
 11
217.3693332248264
 21
208.3989935980903
 31
0.0
  0
LINE
  5
113
330
A
100
AcDbEntity
  8
LAYER_1
 62
     7
100
AcDbLine
 10
218.9575222439236
 20
208.3989935980903
 30
0.0
 11
219.3085774739583
 21
206.5631022135416
 31
0.0
  0
LINE
  5
112
330
A
100
AcDbEntity
  8
LAYER_1
 62
     7
100
AcDbLine
 10
218.1637722439236
 20
208.3989935980903
 30
0.0
 11
217.8127170138889
 21
206.5631022135416
 31
0.0
  0
MTEXT
  5
111
330
A
100
AcDbEntity
  8
LAYER_1
 62
     7
100
AcDbMText
 10
254.8058078342014
 20
210.2803027126524
 30
0.0
 40
1.837384147114223
 41
0.0
 46
0.0
 71
     1
 72
     2
  1
\fHelvetica|b0|i0;\H1.8374;\C7;37
  7
STD
 73
     1
 44
1.0
  0
LINE
  5
110
330
A
100
AcDbEntity
  8
LAYER_1
 62
     7
100
AcDbLine
 10
257.2638834635416
 20
208.0462158203125
 30
0.0
 11
254.8812554253472
 21
208.0462158203125
 31
0.0
  0
LINE
  5
10F
330
A
100
AcDbEntity
  8
LAYER_1
 62
     7
100
AcDbLine
 10
256.4694444444445
 20
208.0462158203125
 30
0.0
 11
256.8204996744792
 21
206.2103244357639
 31
0.0
  0
LINE
  5
10E
330
A
100
AcDbEntity
  8
LAYER_1
 62
     7
100
AcDbLine
 10
255.6756944444444
 20
208.0462158203125
 30
0.0
 11
255.3246392144097
 21
206.2103244357639
 31
0.0
  0
MTEXT
  5
10D
330
A
100
AcDbEntity
  8
LAYER_1
 62
     7
100
AcDbMText
 10
318.041224500868
 20
217.2182082573573
 30
0.0
 40
1.837384147114223
 41
0.0
 46
0.0
 71
     1
 72
     2
  1
\fHelvetica|b0|i0;\H1.8374;\C7;38
  7
STD
 73
     1
 44
1.0
  0
LINE
  5
10C
330
A
100
AcDbEntity
  8
LAYER_1
 62
     7
100
AcDbLine
 10
320.4993001302083
 20
214.9841213650173
 30
0.0
 11
318.1166720920139
 21
214.9841213650173
 31
0.0
  0
LINE
  5
10B
330
A
100
AcDbEntity
  8
LAYER_1
 62
     7
100
AcDbLine
 10
319.7048611111111
 20
214.9841213650173
 30
0.0
 11
320.0559163411458
 21
213.1482299804687
 31
0.0
  0
LINE
  5
10A
330
A
100
AcDbEntity
  8
LAYER_1
 62
     7
100
AcDbLine
 10
318.9111111111111
 20
214.9841213650173
 30
0.0
 11
318.5600558810764
 21
213.1482299804687
 31
0.0
  0
MTEXT
  5
109
330
A
100
AcDbEntity
  8
LAYER_1
 62
     7
100
AcDbMText
 10
27.58763563368055
 20
181.7051304578781
 30
0.0
 40
1.837384147114223
 41
0.0
 46
0.0
 71
     1
 72
     2
  1
\fHelvetica|b0|i0;\H1.8374;\C7;39
  7
STD
 73
     1
 44
1.0
  0
LINE
  5
108
330
A
100
AcDbEntity
  8
LAYER_1
 62
     7
100
AcDbLine
 10
30.04571126302083
 20
179.4710435655382
 30
0.0
 11
27.66308322482639
 21
179.4710435655382
 31
0.0
  0
LINE
  5
107
330
A
100
AcDbEntity
  8
LAYER_1
 62
     7
100
AcDbLine
 10
29.25127224392361
 20
179.4710435655382
 30
0.0
 11
29.60232747395833
 21
177.6351521809895
 31
0.0
  0
LINE
  5
106
330
A
100
AcDbEntity
  8
LAYER_1
 62
     7
100
AcDbLine
 10
28.45752224392361
 20
179.4710435655382
 30
0.0
 11
28.10646701388888
 21
177.6351521809895
 31
0.0
  0
MTEXT
  5
105
330
A
100
AcDbEntity
  8
LAYER_1
 62
     7
100
AcDbMText
 10
274.7387858072916
 20
175.3323928276697
 30
0.0
 40
1.837384147114223
 41
0.0
 46
0.0
 71
     1
 72
     2
  1
\fHelvetica|b0|i0;\H1.8374;\C7;40
  7
STD
 73
     1
 44
1.0
  0
LINE
  5
104
330
A
100
AcDbEntity
  8
LAYER_1
 62
     7
100
AcDbLine
 10
277.1968614366319
 20
173.0983059353298
 30
0.0
 11
274.8142333984375
 21
173.0983059353298
 31
0.0
  0
LINE
  5
103
330
A
100
AcDbEntity
  8
LAYER_1
 62
     7
100
AcDbLine
 10
276.4024224175347
 20
173.0983059353298
 30
0.0
 11
276.7534776475694
 21
171.2624145507812
 31
0.0
  0
LINE
  5
102
330
A
100
AcDbEntity
  8
LAYER_1
 62
     7
100
AcDbLine
 10
275.6086724175347
 20
173.0983059353298
 30
0.0
 11
275.2576171875
 21
171.2624145507812
 31
0.0
  0
HATCH
  5
101
330
A
100
AcDbEntity
  8
LAYER_1
 62
     1
100
AcDbHatch
 10
0.0
 20
0.0
 30
0.0
210
0.0
220
0.0
230
1.0
  2
SOLID
 70
     1
 71
     0
 91
        1
 92
        3
 72
     0
 73
     1
 93
        7
 10
345.3897705078124
 20
248.9453559027777
 10
343.9152696397569
 20
247.4715440538194
 10
341.7586398654514
 20
249.628173828125
 10
343.2331407335069
 20
251.1019856770833
 10
342.4965793185764
 20
251.8385470920139
 10
345.9809488932291
 20
251.6935085720486
 10
346.126331922743
 20
248.2087944878472
 97
        0
 75
     2
 76
     1
 98
        1
 10
0.0
 20
0.0
450
        0
451
        0
460
0.0
461
0.0
452
        0
462
0.0
453
        0
470

  0
LINE
  5
100
330
A
100
AcDbEntity
  8
LAYER_1
 62
     7
100
AcDbLine
 10
341.7586398654514
 20
249.627657063802
 30
0.0
 11
343.9152696397569
 21
247.4708550347222
 31
0.0
  0
LINE
  5
FF
330
A
100
AcDbEntity
  8
LAYER_1
 62
     7
100
AcDbLine
 10
341.7875786675347
 20
249.6565958658854
 30
0.0
 11
343.9442084418403
 21
247.4997938368055
 31
0.0
  0
LINE
  5
FE
330
A
100
AcDbEntity
  8
LAYER_1
 62
     7
100
AcDbLine
 10
341.816517469618
 20
249.6855346679687
 30
0.0
 11
343.9731472439236
 21
247.5287326388889
 31
0.0
  0
LINE
  5
FD
330
A
100
AcDbEntity
  8
LAYER_1
 62
     7
100
AcDbLine
 10
341.8454562717014
 20
249.7143012152777
 30
0.0
 11
344.0020860460069
 21
247.5576714409722
 31
0.0
  0
LINE
  5
FC
330
A
100
AcDbEntity
  8
LAYER_1
 62
     7
100
AcDbLine
 10
341.8743950737847
 20
249.7432400173611
 30
0.0
 11
344.0310248480902
 21
247.5864379882812
 31
0.0
  0
LINE
  5
FB
330
A
100
AcDbEntity
  8
LAYER_1
 62
     7
100
AcDbLine
 10
341.903333875868
 20
249.7721788194444
 30
0.0
 11
344.0599636501736
 21
247.6153767903646
 31
0.0
  0
LINE
  5
FA
330
A
100
AcDbEntity
  8
LAYER_1
 62
     7
100
AcDbLine
 10
341.9322726779514
 20
249.8011176215278
 30
0.0
 11
344.0889024522569
 21
247.6443155924479
 31
0.0
  0
LINE
  5
F9
330
A
100
AcDbEntity
  8
LAYER_1
 62
     7
100
AcDbLine
 10
341.9608669704861
 20
249.8300564236111
 30
0.0
 11
344.1174967447917
 21
247.6732543945312
 31
0.0
  0
LINE
  5
F8
330
A
100
AcDbEntity
  8
LAYER_1
 62
     7
100
AcDbLine
 10
341.9898057725694
 20
249.8589952256944
 30
0.0
 11
344.1464355468749
 21
247.7021931966146
 31
0.0
  0
LINE
  5
F7
330
A
100
AcDbEntity
  8
LAYER_1
 62
     7
100
AcDbLine
 10
342.0187445746528
 20
249.8877617730034
 30
0.0
 11
344.1753743489583
 21
247.7311319986979
 31
0.0
  0
LINE
  5
F6
330
A
100
AcDbEntity
  8
LAYER_1
 62
     7
100
AcDbLine
 10
342.0476833767361
 20
249.9167005750868
 30
0.0
 11
344.2043131510416
 21
247.7598985460069
 31
0.0
  0
LINE
  5
F5
330
A
100
AcDbEntity
  8
LAYER_1
 62
     7
100
AcDbLine
 10
342.0766221788194
 20
249.9456393771701
 30
0.0
 11
344.233251953125
 21
247.7888373480903
 31
0.0
  0
LINE
  5
F4
330
A
100
AcDbEntity
  8
LAYER_1
 62
     7
100
AcDbLine
 10
342.1055609809027
 20
249.9745781792535
 30
0.0
 11
344.2621907552083
 21
247.8177761501736
 31
0.0
  0
LINE
  5
F3
330
A
100
AcDbEntity
  8
LAYER_1
 62
    21
100
AcDbLine
 10
342.1344997829861
 20
250.0035169813368
 30
0.0
 11
344.2911295572916
 21
247.8467149522569
 31
0.0
  0
LINE
  5
F2
330
A
100
AcDbEntity
  8
LAYER_1
 62
    21
100
AcDbLine
 10
342.1634385850694
 20
250.0324557834201
 30
0.0
 11
344.320068359375
 21
247.8756537543402
 31
0.0
  0
LINE
  5
F1
330
A
100
AcDbEntity
  8
LAYER_1
 62
    21
100
AcDbLine
 10
342.1923773871528
 20
250.0612223307292
 30
0.0
 11
344.3490071614583
 21
247.9045925564236
 31
0.0
  0
LINE
  5
F0
330
A
100
AcDbEntity
  8
LAYER_1
 62
    21
100
AcDbLine
 10
342.2213161892361
 20
250.0901611328125
 30
0.0
 11
344.3779459635416
 21
247.9333591037326
 31
0.0
  0
LINE
  5
EF
330
A
100
AcDbEntity
  8
LAYER_1
 62
    21
100
AcDbLine
 10
342.2502549913194
 20
250.1190999348958
 30
0.0
 11
344.406884765625
 21
247.9622979058159
 31
0.0
  0
LINE
  5
EE
330
A
100
AcDbEntity
  8
LAYER_1
 62
    21
100
AcDbLine
 10
342.2791937934027
 20
250.1480387369792
 30
0.0
 11
344.4358235677083
 21
247.9912367078993
 31
0.0
  0
LINE
  5
ED
330
A
100
AcDbEntity
  8
LAYER_1
 62
    21
100
AcDbLine
 10
342.3081325954861
 20
250.1769775390625
 30
0.0
 11
344.4647623697916
 21
248.0201755099826
 31
0.0
  0
LINE
  5
EC
330
A
100
AcDbEntity
  8
LAYER_1
 62
    21
100
AcDbLine
 10
342.3367268880208
 20
250.2057440863715
 30
0.0
 11
344.4933566623263
 21
248.0491143120659
 31
0.0
  0
LINE
  5
EB
330
A
100
AcDbEntity
  8
LAYER_1
 62
    21
100
AcDbLine
 10
342.3656656901041
 20
250.2346828884548
 30
0.0
 11
344.5222954644097
 21
248.0780531141493
 31
0.0
  0
LINE
  5
EA
330
A
100
AcDbEntity
  8
LAYER_1
 62
    21
100
AcDbLine
 10
342.3946044921875
 20
250.2636216905382
 30
0.0
 11
344.551234266493
 21
248.1069919162326
 31
0.0
  0
LINE
  5
E9
330
A
100
AcDbEntity
  8
LAYER_1
 62
    21
100
AcDbLine
 10
342.4235432942708
 20
250.2925604926215
 30
0.0
 11
344.5801730685764
 21
248.1357584635417
 31
0.0
  0
LINE
  5
E8
330
A
100
AcDbEntity
  8
LAYER_1
 62
    21
100
AcDbLine
 10
342.4524820963541
 20
250.3214992947048
 30
0.0
 11
344.6091118706597
 21
248.164697265625
 31
0.0
  0
LINE
  5
E7
330
A
100
AcDbEntity
  8
LAYER_1
 62
    21
100
AcDbLine
 10
342.4814208984375
 20
250.3504380967882
 30
0.0
 11
344.638050672743
 21
248.1936360677083
 31
0.0
  0
LINE
  5
E6
330
A
100
AcDbEntity
  8
LAYER_1
 62
    21
100
AcDbLine
 10
342.5103597005208
 20
250.3792046440972
 30
0.0
 11
344.6669894748264
 21
248.2225748697917
 31
0.0
  0
LINE
  5
E5
330
A
100
AcDbEntity
  8
LAYER_1
 62
    21
100
AcDbLine
 10
342.5392985026042
 20
250.4081434461805
 30
0.0
 11
344.6959282769097
 21
248.251513671875
 31
0.0
  0
LINE
  5
E4
330
A
100
AcDbEntity
  8
LAYER_1
 62
    20
100
AcDbLine
 10
342.5682373046874
 20
250.4370822482639
 30
0.0
 11
344.724867078993
 21
248.2804524739583
 31
0.0
  0
LINE
  5
E3
330
A
100
AcDbEntity
  8
LAYER_1
 62
    20
100
AcDbLine
 10
342.5971761067708
 20
250.4660210503472
 30
0.0
 11
344.7538058810764
 21
248.3092190212673
 31
0.0
  0
LINE
  5
E2
330
A
100
AcDbEntity
  8
LAYER_1
 62
    20
100
AcDbLine
 10
342.6261149088542
 20
250.4949598524305
 30
0.0
 11
344.7827446831597
 21
248.3381578233507
 31
0.0
  0
LINE
  5
E1
330
A
100
AcDbEntity
  8
LAYER_1
 62
    20
100
AcDbLine
 10
342.6550537109374
 20
250.5238986545139
 30
0.0
 11
344.811683485243
 21
248.367096625434
 31
0.0
  0
LINE
  5
E0
330
A
100
AcDbEntity
  8
LAYER_1
 62
    20
100
AcDbLine
 10
342.6836480034722
 20
250.5526652018229
 30
0.0
 11
344.8402777777778
 21
248.3960354275173
 31
0.0
  0
LINE
  5
DF
330
A
100
AcDbEntity
  8
LAYER_1
 62
    20
100
AcDbLine
 10
342.7125868055555
 20
250.5816040039062
 30
0.0
 11
344.8692165798611
 21
248.4249742296007
 31
0.0
  0
LINE
  5
DE
330
A
100
AcDbEntity
  8
LAYER_1
 62
    20
100
AcDbLine
 10
342.7415256076388
 20
250.6105428059896
 30
0.0
 11
344.8981553819444
 21
248.453913031684
 31
0.0
  0
LINE
  5
DD
330
A
100
AcDbEntity
  8
LAYER_1
 62
    20
100
AcDbLine
 10
342.7704644097222
 20
250.6394816080729
 30
0.0
 11
344.9270941840278
 21
248.4828518337673
 31
0.0
  0
LINE
  5
DC
330
A
100
AcDbEntity
  8
LAYER_1
 62
    20
100
AcDbLine
 10
342.7994032118055
 20
250.6684204101562
 30
0.0
 11
344.9560329861111
 21
248.5116183810764
 31
0.0
  0
LINE
  5
DB
330
A
100
AcDbEntity
  8
LAYER_1
 62
    20
100
AcDbLine
 10
342.8283420138888
 20
250.6971869574652
 30
0.0
 11
344.9849717881944
 21
248.5405571831597
 31
0.0
  0
LINE
  5
DA
330
A
100
AcDbEntity
  8
LAYER_1
 62
     1
100
AcDbLine
 10
342.8572808159722
 20
250.7261257595486
 30
0.0
 11
345.0139105902778
 21
248.569495985243
 31
0.0
  0
LINE
  5
D9
330
A
100
AcDbEntity
  8
LAYER_1
 62
     1
100
AcDbLine
 10
342.8862196180555
 20
250.7550645616319
 30
0.0
 11
345.042849392361
 21
248.5984347873264
 31
0.0
  0
LINE
  5
D8
330
A
100
AcDbEntity
  8
LAYER_1
 62
     1
100
AcDbLine
 10
342.9151584201389
 20
250.7840033637152
 30
0.0
 11
345.0717881944444
 21
248.6273735894097
 31
0.0
  0
LINE
  5
D7
330
A
100
AcDbEntity
  8
LAYER_1
 62
     1
100
AcDbLine
 10
342.9440972222222
 20
250.8129421657986
 30
0.0
 11
345.1007269965277
 21
248.656312391493
 31
0.0
  0
LINE
  5
D6
330
A
100
AcDbEntity
  8
LAYER_1
 62
     1
100
AcDbLine
 10
342.9730360243055
 20
250.8418809678819
 30
0.0
 11
345.1296657986111
 21
248.6850789388021
 31
0.0
  0
LINE
  5
D5
330
A
100
AcDbEntity
  8
LAYER_1
 62
     1
100
AcDbLine
 10
343.0019748263888
 20
250.8706475151909
 30
0.0
 11
345.1586046006944
 21
248.7140177408854
 31
0.0
  0
LINE
  5
D4
330
A
100
AcDbEntity
  8
LAYER_1
 62
     1
100
AcDbLine
 10
343.0309136284722
 20
250.8995863172743
 30
0.0
 11
345.1875434027777
 21
248.7429565429687
 31
0.0
  0
LINE
  5
D3
330
A
100
AcDbEntity
  8
LAYER_1
 62
     1
100
AcDbLine
 10
343.0595079210069
 20
250.9285251193576
 30
0.0
 11
345.2161376953124
 21
248.7718953450521
 31
0.0
  0
LINE
  5
D2
330
A
100
AcDbEntity
  8
LAYER_1
 62
     1
100
AcDbLine
 10
343.0884467230903
 20
250.957463921441
 30
0.0
 11
345.2450764973958
 21
248.8008341471354
 31
0.0
  0
LINE
  5
D1
330
A
100
AcDbEntity
  8
LAYER_1
 62
     1
100
AcDbLine
 10
343.1173855251736
 20
250.9864027235243
 30
0.0
 11
345.2740152994791
 21
248.8297729492187
 31
0.0
  0
LINE
  5
D0
330
A
100
AcDbEntity
  8
LAYER_1
 62
     1
100
AcDbLine
 10
343.146324327257
 20
251.0153415256076
 30
0.0
 11
345.3029541015625
 21
248.8585394965277
 31
0.0
  0
LINE
  5
CF
330
A
100
AcDbEntity
  8
LAYER_1
 62
     1
100
AcDbLine
 10
343.1752631293402
 20
251.0441080729167
 30
0.0
 11
345.3318929036458
 21
248.8874782986111
 31
0.0
  0
LINE
  5
CE
330
A
100
AcDbEntity
  8
LAYER_1
 62
     1
100
AcDbLine
 10
343.2042019314236
 20
251.073046875
 30
0.0
 11
345.3608317057291
 21
248.9164171006944
 31
0.0
  0
LINE
  5
CD
330
A
100
AcDbEntity
  8
LAYER_1
 62
     1
100
AcDbLine
 10
343.2331407335069
 20
251.1019856770833
 30
0.0
 11
345.3897705078124
 21
248.9453559027777
 31
0.0
  0
MTEXT
  5
CC
330
A
100
AcDbEntity
  8
LAYER_1
 62
     7
100
AcDbMText
 10
343.2262505425347
 20
250.9620244675212
 30
0.0
 40
2.099867620733049
 41
0.0
 46
0.0
 71
     1
 72
     2
  1
\fHelvetica |b1|i0;\H2.0999;\C7;2
  7
STD
 73
     1
 44
1.0
  0
MTEXT
  5
CB
330
A
100
AcDbEntity
  8
LAYER_1
 62
     7
100
AcDbMText
 10
349.456361219618
 20
251.4390388144387
 30
0.0
 40
3.149801346990797
 41
0.0
 46
0.0
 71
     1
 72
     2
  1
\fArial|b0|i0;\H3.1498;\C7;Direction of Photograph
  7
STD
 73
     1
 44
1.0
  0
INSERT
  5
C5
330
A
100
AcDbEntity
  8
LAYER_1
 62
     7
100
AcDbBlockReference
  2
AI9-BLK2
 10
93.13316107855902
 20
74.6965603298611
 30
0.0
  0
INSERT
  5
BE
330
A
100
AcDbEntity
  8
LAYER_1
  6
AI9-LType1
 62
     7
100
AcDbBlockReference
  2
AI9-BLK1
 10
255.8947163899739
 20
74.19443766276041
 30
0.0
  0
POLYLINE
  5
A4
330
A
100
AcDbEntity
  8
LAYER_1
  6
AI9-LType1
 62
     1
100
AcDb2dPolyline
 66
     1
 10
0.0
 20
0.0
 30
0.0
  0
VERTEX
  5
A5
330
A4
100
AcDbEntity
  8
LAYER_1
  6
AI9-LType1
 62
     1
100
AcDbVertex
100
AcDb2dVertex
 10
197.2604831271701
 20
76.305419921875
 30
0.0
  0
VERTEX
  5
A6
330
A4
100
AcDbEntity
  8
LAYER_1
  6
AI9-LType1
 62
     1
100
AcDbVertex
100
AcDb2dVertex
 10
202.2546657986111
 20
73.42463107638888
 30
0.0
  0
VERTEX
  5
A7
330
A4
100
AcDbEntity
  8
LAYER_1
  6
AI9-LType1
 62
     1
100
AcDbVertex
100
AcDb2dVertex
 10
208.2091688368055
 20
69.58266059027777
 30
0.0
  0
VERTEX
  5
A8
330
A4
100
AcDbEntity
  8
LAYER_1
  6
AI9-LType1
 62
     1
100
AcDbVertex
100
AcDb2dVertex
 10
212.0511393229167
 20
66.89376356336805
 30
0.0
  0
VERTEX
  5
A9
330
A4
100
AcDbEntity
  8
LAYER_1
  6
AI9-LType1
 62
     1
100
AcDbVertex
100
AcDb2dVertex
 10
215.8924207899305
 20
63.82004937065971
 30
0.0
  0
VERTEX
  5
AA
330
A4
100
AcDbEntity
  8
LAYER_1
  6
AI9-LType1
 62
     1
100
AcDbVertex
100
AcDb2dVertex
 10
217.8134060329861
 20
61.13080783420138
 30
0.0
  0
VERTEX
  5
AB
330
A4
100
AcDbEntity
  8
LAYER_1
  6
AI9-LType1
 62
     1
100
AcDbVertex
100
AcDb2dVertex
 10
219.5421549479167
 20
59.40240342881944
 30
0.0
  0
VERTEX
  5
AC
330
A4
100
AcDbEntity
  8
LAYER_1
  6
AI9-LType1
 62
     1
100
AcDbVertex
100
AcDb2dVertex
 10
222.6151801215278
 20
58.25001898871527
 30
0.0
  0
VERTEX
  5
AD
330
A4
100
AcDbEntity
  8
LAYER_1
  6
AI9-LType1
 62
     1
100
AcDbVertex
100
AcDb2dVertex
 10
225.3047661675347
 20
57.48141818576389
 30
0.0
  0
VERTEX
  5
AE
330
A4
100
AcDbEntity
  8
LAYER_1
  6
AI9-LType1
 62
     1
100
AcDbVertex
100
AcDb2dVertex
 10
227.8021158854167
 20
57.28952636718749
 30
0.0
  0
VERTEX
  5
AF
330
A4
100
AcDbEntity
  8
LAYER_1
  6
AI9-LType1
 62
     1
100
AcDbVertex
100
AcDb2dVertex
 10
232.7957817925347
 20
57.28952636718749
 30
0.0
  0
VERTEX
  5
B0
330
A4
100
AcDbEntity
  8
LAYER_1
  6
AI9-LType1
 62
     1
100
AcDbVertex
100
AcDb2dVertex
 10
235.1008951822917
 20
58.63414713541666
 30
0.0
  0
VERTEX
  5
B1
330
A4
100
AcDbEntity
  8
LAYER_1
  6
AI9-LType1
 62
     1
100
AcDbVertex
100
AcDb2dVertex
 10
236.2536241319444
 20
59.78687608506944
 30
0.0
  0
VERTEX
  5
B2
330
A4
100
AcDbEntity
  8
LAYER_1
  6
AI9-LType1
 62
     1
100
AcDbVertex
100
AcDb2dVertex
 10
237.597900390625
 20
61.51493598090277
 30
0.0
  0
VERTEX
  5
B3
330
A4
100
AcDbEntity
  8
LAYER_1
  6
AI9-LType1
 62
     1
100
AcDbVertex
100
AcDb2dVertex
 10
238.7506293402778
 20
63.24402940538194
 30
0.0
  0
VERTEX
  5
B4
330
A4
100
AcDbEntity
  8
LAYER_1
  6
AI9-LType1
 62
     1
100
AcDbVertex
100
AcDb2dVertex
 10
241.0553982204861
 20
64.01228569878472
 30
0.0
  0
VERTEX
  5
B5
330
A4
100
AcDbEntity
  8
LAYER_1
  6
AI9-LType1
 62
     1
100
AcDbVertex
100
AcDb2dVertex
 10
244.1291124131944
 20
64.97312282986111
 30
0.0
  0
VERTEX
  5
B6
330
A4
100
AcDbEntity
  8
LAYER_1
  6
AI9-LType1
 62
     1
100
AcDbVertex
100
AcDb2dVertex
 10
246.4338812934027
 20
65.16501464843749
 30
0.0
  0
VERTEX
  5
B7
330
A4
100
AcDbEntity
  8
LAYER_1
  6
AI9-LType1
 62
     1
100
AcDbVertex
100
AcDb2dVertex
 10
248.7386501736111
 20
65.16501464843749
 30
0.0
  0
VERTEX
  5
B8
330
A4
100
AcDbEntity
  8
LAYER_1
  6
AI9-LType1
 62
     1
100
AcDbVertex
100
AcDb2dVertex
 10
251.2363444010417
 20
66.31739908854166
 30
0.0
  0
VERTEX
  5
B9
330
A4
100
AcDbEntity
  8
LAYER_1
  6
AI9-LType1
 62
     1
100
AcDbVertex
100
AcDb2dVertex
 10
252.5806206597222
 20
68.81474880642361
 30
0.0
  0
VERTEX
  5
BA
330
A4
100
AcDbEntity
  8
LAYER_1
  6
AI9-LType1
 62
     1
100
AcDbVertex
100
AcDb2dVertex
 10
254.6934977213541
 20
71.50330132378471
 30
0.0
  0
VERTEX
  5
BB
330
A4
100
AcDbEntity
  8
LAYER_1
  6
AI9-LType1
 62
     1
100
AcDbVertex
100
AcDb2dVertex
 10
256.2300103081597
 20
74.00099555121527
 30
0.0
  0
SEQEND
  5
BC
330
A4
100
AcDbEntity
  8
LAYER_1
  6
AI9-LType1
 62
     1
  0
POLYLINE
  5
95
330
A
100
AcDbEntity
  8
LAYER_1
  6
AI9-LType1
 62
     1
100
AcDb2dPolyline
 66
     1
 10
0.0
 20
0.0
 30
0.0
  0
VERTEX
  5
96
330
95
100
AcDbEntity
  8
LAYER_1
  6
AI9-LType1
 62
     1
100
AcDbVertex
100
AcDb2dVertex
 10
248.7386501736111
 20
65.16501464843749
 30
0.0
  0
VERTEX
  5
97
330
95
100
AcDbEntity
  8
LAYER_1
  6
AI9-LType1
 62
     1
100
AcDbVertex
100
AcDb2dVertex
 10
249.3153591579861
 20
63.62815755208333
 30
0.0
  0
VERTEX
  5
98
330
95
100
AcDbEntity
  8
LAYER_1
  6
AI9-LType1
 62
     1
100
AcDbVertex
100
AcDb2dVertex
 10
252.0042561848958
 20
61.13080783420138
 30
0.0
  0
VERTEX
  5
99
330
95
100
AcDbEntity
  8
LAYER_1
  6
AI9-LType1
 62
     1
100
AcDbVertex
100
AcDb2dVertex
 10
254.6934977213541
 20
59.97876790364582
 30
0.0
  0
VERTEX
  5
9A
330
95
100
AcDbEntity
  8
LAYER_1
  6
AI9-LType1
 62
     1
100
AcDbVertex
100
AcDb2dVertex
 10
258.5351236979166
 20
59.01827528211804
 30
0.0
  0
VERTEX
  5
9B
330
95
100
AcDbEntity
  8
LAYER_1
  6
AI9-LType1
 62
     1
100
AcDbVertex
100
AcDb2dVertex
 10
262.3770941840277
 20
58.63414713541666
 30
0.0
  0
VERTEX
  5
9C
330
95
100
AcDbEntity
  8
LAYER_1
  6
AI9-LType1
 62
     1
100
AcDbVertex
100
AcDb2dVertex
 10
265.8342475043402
 20
58.25001898871527
 30
0.0
  0
VERTEX
  5
9D
330
95
100
AcDbEntity
  8
LAYER_1
  6
AI9-LType1
 62
     1
100
AcDbVertex
100
AcDb2dVertex
 10
269.099853515625
 20
58.25001898871527
 30
0.0
  0
VERTEX
  5
9E
330
95
100
AcDbEntity
  8
LAYER_1
  6
AI9-LType1
 62
     1
100
AcDbVertex
100
AcDb2dVertex
 10
274.6705729166666
 20
58.63414713541666
 30
0.0
  0
VERTEX
  5
9F
330
95
100
AcDbEntity
  8
LAYER_1
  6
AI9-LType1
 62
     1
100
AcDbVertex
100
AcDb2dVertex
 10
276.590869140625
 20
59.40240342881944
 30
0.0
  0
VERTEX
  5
A0
330
95
100
AcDbEntity
  8
LAYER_1
  6
AI9-LType1
 62
     1
100
AcDbVertex
100
AcDb2dVertex
 10
278.7040907118055
 20
60.9392605251736
 30
0.0
  0
VERTEX
  5
A1
330
95
100
AcDbEntity
  8
LAYER_1
  6
AI9-LType1
 62
     1
100
AcDbVertex
100
AcDb2dVertex
 10
281.9693522135416
 20
63.62815755208333
 30
0.0
  0
VERTEX
  5
A2
330
95
100
AcDbEntity
  8
LAYER_1
  6
AI9-LType1
 62
     1
100
AcDbVertex
100
AcDb2dVertex
 10
282.334876844618
 20
64.19935438368054
 30
0.0
  0
SEQEND
  5
A3
330
95
100
AcDbEntity
  8
LAYER_1
  6
AI9-LType1
 62
     1
  0
LINE
  5
94
330
A
100
AcDbEntity
  8
LAYER_1
  6
AI9-LType2
 62
     1
100
AcDbLine
 10
196.6841186523437
 20
83.79746907552082
 30
0.0
 11
314.8155815972222
 21
78.80311414930554
 31
0.0
  0
POLYLINE
  5
79
330
A
100
AcDbEntity
  8
LAYER_1
  6
AI9-LType1
 62
     1
100
AcDb2dPolyline
 66
     1
 10
0.0
 20
0.0
 30
0.0
  0
VERTEX
  5
7A
330
79
100
AcDbEntity
  8
LAYER_1
  6
AI9-LType1
 62
     1
100
AcDbVertex
100
AcDb2dVertex
 10
251.043763563368
 20
81.49201117621528
 30
0.0
  0
VERTEX
  5
7B
330
79
100
AcDbEntity
  8
LAYER_1
  6
AI9-LType1
 62
     1
100
AcDbVertex
100
AcDb2dVertex
 10
252.3883843315972
 20
78.61053331163194
 30
0.0
  0
VERTEX
  5
7C
330
79
100
AcDbEntity
  8
LAYER_1
  6
AI9-LType1
 62
     1
100
AcDbVertex
100
AcDb2dVertex
 10
253.156640625
 20
76.305419921875
 30
0.0
  0
VERTEX
  5
7D
330
79
100
AcDbEntity
  8
LAYER_1
  6
AI9-LType1
 62
     1
100
AcDbVertex
100
AcDb2dVertex
 10
253.9248969184028
 20
74.96114366319443
 30
0.0
  0
VERTEX
  5
7E
330
79
100
AcDbEntity
  8
LAYER_1
  6
AI9-LType1
 62
     1
100
AcDbVertex
100
AcDb2dVertex
 10
255.2695176866319
 20
74.57701551649305
 30
0.0
  0
VERTEX
  5
7F
330
79
100
AcDbEntity
  8
LAYER_1
  6
AI9-LType1
 62
     1
100
AcDbVertex
100
AcDb2dVertex
 10
257.3827392578125
 20
73.80875922309027
 30
0.0
  0
VERTEX
  5
80
330
79
100
AcDbEntity
  8
LAYER_1
  6
AI9-LType1
 62
     1
100
AcDbVertex
100
AcDb2dVertex
 10
260.8405815972222
 20
73.04015842013888
 30
0.0
  0
VERTEX
  5
81
330
79
100
AcDbEntity
  8
LAYER_1
  6
AI9-LType1
 62
     1
100
AcDbVertex
100
AcDb2dVertex
 10
265.0659912109375
 20
71.69553765190972
 30
0.0
  0
VERTEX
  5
82
330
79
100
AcDbEntity
  8
LAYER_1
  6
AI9-LType1
 62
     1
100
AcDbVertex
100
AcDb2dVertex
 10
268.715380859375
 20
71.11951768663193
 30
0.0
  0
VERTEX
  5
83
330
79
100
AcDbEntity
  8
LAYER_1
  6
AI9-LType1
 62
     1
100
AcDbVertex
100
AcDb2dVertex
 10
271.7890950520833
 20
71.11951768663193
 30
0.0
  0
VERTEX
  5
84
330
79
100
AcDbEntity
  8
LAYER_1
  6
AI9-LType1
 62
     1
100
AcDbVertex
100
AcDb2dVertex
 10
275.2465928819444
 20
70.92762586805554
 30
0.0
  0
VERTEX
  5
85
330
79
100
AcDbEntity
  8
LAYER_1
  6
AI9-LType1
 62
     1
100
AcDbVertex
100
AcDb2dVertex
 10
276.975341796875
 20
69.198876953125
 30
0.0
  0
VERTEX
  5
86
330
79
100
AcDbEntity
  8
LAYER_1
  6
AI9-LType1
 62
     1
100
AcDbVertex
100
AcDb2dVertex
 10
279.6645833333333
 20
66.12550726996527
 30
0.0
  0
VERTEX
  5
87
330
79
100
AcDbEntity
  8
LAYER_1
  6
AI9-LType1
 62
     1
100
AcDbVertex
100
AcDb2dVertex
 10
281.2010959201389
 20
64.39641384548611
 30
0.0
  0
VERTEX
  5
88
330
79
100
AcDbEntity
  8
LAYER_1
  6
AI9-LType1
 62
     1
100
AcDbVertex
100
AcDb2dVertex
 10
283.6981011284722
 20
64.01228569878472
 30
0.0
  0
VERTEX
  5
89
330
79
100
AcDbEntity
  8
LAYER_1
  6
AI9-LType1
 62
     1
100
AcDbVertex
100
AcDb2dVertex
 10
288.1160915798611
 20
63.62815755208333
 30
0.0
  0
VERTEX
  5
8A
330
79
100
AcDbEntity
  8
LAYER_1
  6
AI9-LType1
 62
     1
100
AcDbVertex
100
AcDb2dVertex
 10
292.1499538845486
 20
63.43626573350693
 30
0.0
  0
VERTEX
  5
8B
330
79
100
AcDbEntity
  8
LAYER_1
  6
AI9-LType1
 62
     1
100
AcDbVertex
100
AcDb2dVertex
 10
295.4152153862846
 20
63.43626573350693
 30
0.0
  0
VERTEX
  5
8C
330
79
100
AcDbEntity
  8
LAYER_1
  6
AI9-LType1
 62
     1
100
AcDbVertex
100
AcDb2dVertex
 10
299.0646050347222
 20
63.43626573350693
 30
0.0
  0
VERTEX
  5
8D
330
79
100
AcDbEntity
  8
LAYER_1
  6
AI9-LType1
 62
     1
100
AcDbVertex
100
AcDb2dVertex
 10
304.0593044704861
 20
63.82004937065971
 30
0.0
  0
VERTEX
  5
8E
330
79
100
AcDbEntity
  8
LAYER_1
  6
AI9-LType1
 62
     1
100
AcDbVertex
100
AcDb2dVertex
 10
308.092822265625
 20
65.35690646701389
 30
0.0
  0
VERTEX
  5
8F
330
79
100
AcDbEntity
  8
LAYER_1
  6
AI9-LType1
 62
     1
100
AcDbVertex
100
AcDb2dVertex
 10
310.9739556206597
 20
66.31739908854166
 30
0.0
  0
VERTEX
  5
90
330
79
100
AcDbEntity
  8
LAYER_1
  6
AI9-LType1
 62
     1
100
AcDbVertex
100
AcDb2dVertex
 10
313.4713053385417
 20
66.89376356336805
 30
0.0
  0
VERTEX
  5
91
330
79
100
AcDbEntity
  8
LAYER_1
  6
AI9-LType1
 62
     1
100
AcDbVertex
100
AcDb2dVertex
 10
314.6240342881944
 20
67.66201985677082
 30
0.0
  0
SEQEND
  5
92
330
79
100
AcDbEntity
  8
LAYER_1
  6
AI9-LType1
 62
     1
  0
MTEXT
  5
77
330
A
100
AcDbEntity
  8
LAYER_1
 62
     7
100
AcDbMText
 10
27.28153889973958
 20
232.715633866522
 30
0.0
 40
3.149801346990797
 41
0.0
 46
0.0
 71
     1
 72
     2
  1
\fArial|b0|i0;\H3.1498;\C7;Trench 4 Plan
  7
STD
 73
     1
 44
1.0
  0
MTEXT
  5
76
330
A
100
AcDbEntity
  8
LAYER_1
 62
     7
100
AcDbMText
 10
85.13709445529512
 20
191.5581116225984
 30
0.0
 40
3.149801346990797
 41
0.0
 46
0.0
 71
     1
 72
     2
  1
\fArial|b0|i0;\H3.1498;\C7;Section through ditches [403], [405] & [407]
  7
STD
 73
     1
 44
1.0
  0
POLYLINE
  5
70
330
A
100
AcDbEntity
  8
LAYER_1
 62
     7
100
AcDb2dPolyline
 66
     1
 10
0.0
 20
0.0
 30
0.0
 70
     1
  0
VERTEX
  5
71
330
70
100
AcDbEntity
  8
LAYER_1
 62
     7
100
AcDbVertex
100
AcDb2dVertex
 10
153.5964816623264
 20
29.34911295572917
 30
0.0
  0
VERTEX
  5
72
330
70
100
AcDbEntity
  8
LAYER_1
 62
     7
100
AcDbVertex
100
AcDb2dVertex
 10
32.66984049479166
 20
29.34911295572917
 30
0.0
  0
VERTEX
  5
73
330
70
100
AcDbEntity
  8
LAYER_1
 62
     7
100
AcDbVertex
100
AcDb2dVertex
 10
32.66984049479166
 20
120.044007703993
 30
0.0
  0
VERTEX
  5
74
330
70
100
AcDbEntity
  8
LAYER_1
 62
     7
100
AcDbVertex
100
AcDb2dVertex
 10
153.5964816623264
 20
120.044007703993
 30
0.0
  0
SEQEND
  5
75
330
70
100
AcDbEntity
  8
LAYER_1
 62
     7
  0
POLYLINE
  5
6A
330
A
100
AcDbEntity
  8
LAYER_1
 62
     7
100
AcDb2dPolyline
 66
     1
 10
0.0
 20
0.0
 30
0.0
 70
     1
  0
VERTEX
  5
6B
330
6A
100
AcDbEntity
  8
LAYER_1
 62
     7
100
AcDbVertex
100
AcDb2dVertex
 10
316.662841796875
 20
28.61806369357639
 30
0.0
  0
VERTEX
  5
6C
330
6A
100
AcDbEntity
  8
LAYER_1
 62
     7
100
AcDbVertex
100
AcDb2dVertex
 10
195.1060926649305
 20
28.61806369357639
 30
0.0
  0
VERTEX
  5
6D
330
6A
100
AcDbEntity
  8
LAYER_1
 62
     7
100
AcDbVertex
100
AcDb2dVertex
 10
195.1060926649305
 20
119.7859700520833
 30
0.0
  0
VERTEX
  5
6E
330
6A
100
AcDbEntity
  8
LAYER_1
 62
     7
100
AcDbVertex
100
AcDb2dVertex
 10
316.662841796875
 20
119.7859700520833
 30
0.0
  0
SEQEND
  5
6F
330
6A
100
AcDbEntity
  8
LAYER_1
 62
     7
  0
MTEXT
  5
69
330
A
100
AcDbEntity
  8
LAYER_1
 62
     7
100
AcDbMText
 10
31.04444444444444
 20
26.69323938952552
 30
0.0
 40
3.149801346990797
 41
0.0
 46
0.0
 71
     1
 72
     2
  1
\fArial|b0|i0;\H3.1498;\C7;Plate 6: View along Trench 4, Looking south, Scales 1x1m & 1x2m
  7
STD
 73
     1
 44
1.0
  0
MTEXT
  5
68
330
A
100
AcDbEntity
  8
LAYER_1
 62
     7
100
AcDbMText
 10
195.0861111111111
 20
27.0460171673033
 30
0.0
 40
3.149801346990797
 41
0.0
 46
0.0
 71
     1
 72
     2
  1
\fArial|b0|i0;\H3.1498;\C7;Plate 7: View of ditches [403], [405] & [407] in section
  7
STD
 73
     1
 44
1.0
  0
MTEXT
  5
67
330
A
100
AcDbEntity
  8
LAYER_1
 62
     7
100
AcDbMText
 10
195.0861111111111
 20
21.96587936348385
 30
0.0
 40
3.149801346990797
 41
0.0
 46
0.0
 71
     1
 72
     2
  1
\fArial|b0|i0;\H3.1498;\C7;Looking west, Scales 1x1m & 1x2m
  7
STD
 73
     1
 44
1.0
  0
MTEXT
  5
66
330
A
100
AcDbEntity
  8
LAYER_1
 62
     7
100
AcDbMText
 10
277.6888210720486
 20
162.1734077016512
 30
0.0
 40
2.624834567970699
 41
0.0
 46
0.0
 71
     1
 72
     2
  1
\fHelvetica|b0|i0;\H2.6248;\C7;0
  7
STD
 73
     1
 44
1.0
  0
MTEXT
  5
65
330
A
100
AcDbEntity
  8
LAYER_1
 62
     7
100
AcDbMText
 10
326.2181586371527
 20
162.1734077016512
 30
0.0
 40
2.624834567970699
 41
0.0
 46
0.0
 71
     1
 72
     2
  1
\fHelvetica|b0|i0;\H2.6248;\C7;1m
  7
STD
 73
     1
 44
1.0
  0
HATCH
  5
64
330
A
100
AcDbEntity
  8
LAYER_1
 62
     7
100
AcDbHatch
 10
0.0
 20
0.0
 30
0.0
210
0.0
220
0.0
230
1.0
  2
SOLID
 70
     1
 71
     0
 91
        1
 92
        3
 72
     0
 73
     1
 93
        4
 10
303.4781168619791
 20
158.0146443684895
 10
278.4846381293402
 20
158.0146443684895
 10
278.4846381293402
 20
159.0750447591146
 10
303.4781168619791
 20
159.0750447591146
 97
        0
 75
     2
 76
     1
 98
        1
 10
0.0
 20
0.0
450
        0
451
        0
460
0.0
461
0.0
452
        0
462
0.0
453
        0
470

  0
POLYLINE
  5
5E
330
A
100
AcDbEntity
  8
LAYER_1
 62
     7
100
AcDb2dPolyline
 66
     1
 10
0.0
 20
0.0
 30
0.0
 70
     1
  0
VERTEX
  5
5F
330
5E
100
AcDbEntity
  8
LAYER_1
 62
     7
100
AcDbVertex
100
AcDb2dVertex
 10
303.4781168619791
 20
158.0146443684895
 30
0.0
  0
VERTEX
  5
60
330
5E
100
AcDbEntity
  8
LAYER_1
 62
     7
100
AcDbVertex
100
AcDb2dVertex
 10
278.4846381293402
 20
158.0146443684895
 30
0.0
  0
VERTEX
  5
61
330
5E
100
AcDbEntity
  8
LAYER_1
 62
     7
100
AcDbVertex
100
AcDb2dVertex
 10
278.4846381293402
 20
159.0750447591146
 30
0.0
  0
VERTEX
  5
62
330
5E
100
AcDbEntity
  8
LAYER_1
 62
     7
100
AcDbVertex
100
AcDb2dVertex
 10
303.4781168619791
 20
159.0750447591146
 30
0.0
  0
SEQEND
  5
63
330
5E
100
AcDbEntity
  8
LAYER_1
 62
     7
  0
POLYLINE
  5
58
330
A
100
AcDbEntity
  8
LAYER_1
 62
     7
100
AcDb2dPolyline
 66
     1
 10
0.0
 20
0.0
 30
0.0
 70
     1
  0
VERTEX
  5
59
330
58
100
AcDbEntity
  8
LAYER_1
 62
     7
100
AcDbVertex
100
AcDb2dVertex
 10
328.4774522569444
 20
158.0032755533854
 30
0.0
  0
VERTEX
  5
5A
330
58
100
AcDbEntity
  8
LAYER_1
 62
     7
100
AcDbVertex
100
AcDb2dVertex
 10
303.4839735243056
 20
158.0032755533854
 30
0.0
  0
VERTEX
  5
5B
330
58
100
AcDbEntity
  8
LAYER_1
 62
     7
100
AcDbVertex
100
AcDb2dVertex
 10
303.4839735243056
 20
159.0633314344618
 30
0.0
  0
VERTEX
  5
5C
330
58
100
AcDbEntity
  8
LAYER_1
 62
     7
100
AcDbVertex
100
AcDb2dVertex
 10
328.4774522569444
 20
159.0633314344618
 30
0.0
  0
SEQEND
  5
5D
330
58
100
AcDbEntity
  8
LAYER_1
 62
     7
  0
POLYLINE
  5
52
330
A
100
AcDbEntity
  8
LAYER_1
 62
     7
100
AcDb2dPolyline
 66
     1
 10
0.0
 20
0.0
 30
0.0
 70
     1
  0
VERTEX
  5
53
330
52
100
AcDbEntity
  8
LAYER_1
 62
     7
100
AcDbVertex
100
AcDb2dVertex
 10
328.4774522569444
 20
158.0032755533854
 30
0.0
  0
VERTEX
  5
54
330
52
100
AcDbEntity
  8
LAYER_1
 62
     7
100
AcDbVertex
100
AcDb2dVertex
 10
303.4839735243056
 20
158.0032755533854
 30
0.0
  0
VERTEX
  5
55
330
52
100
AcDbEntity
  8
LAYER_1
 62
     7
100
AcDbVertex
100
AcDb2dVertex
 10
303.4839735243056
 20
159.0633314344618
 30
0.0
  0
VERTEX
  5
56
330
52
100
AcDbEntity
  8
LAYER_1
 62
     7
100
AcDbVertex
100
AcDb2dVertex
 10
328.4774522569444
 20
159.0633314344618
 30
0.0
  0
SEQEND
  5
57
330
52
100
AcDbEntity
  8
LAYER_1
 62
     7
  0
MTEXT
  5
51
330
A
100
AcDbEntity
  8
LAYER_1
 62
     7
100
AcDbMText
 10
145.3409993489583
 20
232.2754492388831
 30
0.0
 40
2.362351094351874
 41
0.0
 46
0.0
 71
     1
 72
     2
  1
\fHelvetica|b0|i0;\H2.3624;\C7;0
  7
STD
 73
     1
 44
1.0
  0
HATCH
  5
50
330
A
100
AcDbEntity
  8
LAYER_1
 62
     7
100
AcDbHatch
 10
0.0
 20
0.0
 30
0.0
210
0.0
220
0.0
230
1.0
  2
SOLID
 70
     1
 71
     0
 91
        1
 92
        3
 72
     0
 73
     1
 93
        4
 10
156.4056125217014
 20
226.1086791992187
 10
146.2897786458333
 20
226.1086791992187
 10
146.2897786458333
 20
228.5043986002604
 10
156.4056125217014
 20
228.5043986002604
 97
        0
 75
     2
 76
     1
 98
        1
 10
0.0
 20
0.0
450
        0
451
        0
460
0.0
461
0.0
452
        0
462
0.0
453
        0
470

  0
POLYLINE
  5
4A
330
A
100
AcDbEntity
  8
LAYER_1
 62
     7
100
AcDb2dPolyline
 66
     1
 10
0.0
 20
0.0
 30
0.0
 70
     1
  0
VERTEX
  5
4B
330
4A
100
AcDbEntity
  8
LAYER_1
 62
     7
100
AcDbVertex
100
AcDb2dVertex
 10
156.4056125217014
 20
226.1086791992187
 30
0.0
  0
VERTEX
  5
4C
330
4A
100
AcDbEntity
  8
LAYER_1
 62
     7
100
AcDbVertex
100
AcDb2dVertex
 10
146.2897786458333
 20
226.1086791992187
 30
0.0
  0
VERTEX
  5
4D
330
4A
100
AcDbEntity
  8
LAYER_1
 62
     7
100
AcDbVertex
100
AcDb2dVertex
 10
146.2897786458333
 20
228.5043986002604
 30
0.0
  0
VERTEX
  5
4E
330
4A
100
AcDbEntity
  8
LAYER_1
 62
     7
100
AcDbVertex
100
AcDb2dVertex
 10
156.4056125217014
 20
228.5043986002604
 30
0.0
  0
SEQEND
  5
4F
330
4A
100
AcDbEntity
  8
LAYER_1
 62
     7
  0
POLYLINE
  5
44
330
A
100
AcDbEntity
  8
LAYER_1
 62
     7
100
AcDb2dPolyline
 66
     1
 10
0.0
 20
0.0
 30
0.0
 70
     1
  0
VERTEX
  5
45
330
44
100
AcDbEntity
  8
LAYER_1
 62
     7
100
AcDbVertex
100
AcDb2dVertex
 10
166.2554850260416
 20
226.1086791992187
 30
0.0
  0
VERTEX
  5
46
330
44
100
AcDbEntity
  8
LAYER_1
 62
     7
100
AcDbVertex
100
AcDb2dVertex
 10
156.139306640625
 20
226.1086791992187
 30
0.0
  0
VERTEX
  5
47
330
44
100
AcDbEntity
  8
LAYER_1
 62
     7
100
AcDbVertex
100
AcDb2dVertex
 10
156.139306640625
 20
228.5043986002604
 30
0.0
  0
VERTEX
  5
48
330
44
100
AcDbEntity
  8
LAYER_1
 62
     7
100
AcDbVertex
100
AcDb2dVertex
 10
166.2554850260416
 20
228.5043986002604
 30
0.0
  0
SEQEND
  5
49
330
44
100
AcDbEntity
  8
LAYER_1
 62
     7
  0
POLYLINE
  5
3E
330
A
100
AcDbEntity
  8
LAYER_1
 62
     7
100
AcDb2dPolyline
 66
     1
 10
0.0
 20
0.0
 30
0.0
 70
     1
  0
VERTEX
  5
3F
330
3E
100
AcDbEntity
  8
LAYER_1
 62
     7
100
AcDbVertex
100
AcDb2dVertex
 10
166.2554850260416
 20
226.1086791992187
 30
0.0
  0
VERTEX
  5
40
330
3E
100
AcDbEntity
  8
LAYER_1
 62
     7
100
AcDbVertex
100
AcDb2dVertex
 10
156.139306640625
 20
226.1086791992187
 30
0.0
  0
VERTEX
  5
41
330
3E
100
AcDbEntity
  8
LAYER_1
 62
     7
100
AcDbVertex
100
AcDb2dVertex
 10
156.139306640625
 20
228.5043986002604
 30
0.0
  0
VERTEX
  5
42
330
3E
100
AcDbEntity
  8
LAYER_1
 62
     7
100
AcDbVertex
100
AcDb2dVertex
 10
166.2554850260416
 20
228.5043986002604
 30
0.0
  0
SEQEND
  5
43
330
3E
100
AcDbEntity
  8
LAYER_1
 62
     7
  0
HATCH
  5
3D
330
A
100
AcDbEntity
  8
LAYER_1
 62
     7
100
AcDbHatch
 10
0.0
 20
0.0
 30
0.0
210
0.0
220
0.0
230
1.0
  2
SOLID
 70
     1
 71
     0
 91
        1
 92
        3
 72
     0
 73
     1
 93
        4
 10
176.5042995876736
 20
226.1086791992187
 10
166.3884657118055
 20
226.1086791992187
 10
166.3884657118055
 20
228.5043986002604
 10
176.5042995876736
 20
228.5043986002604
 97
        0
 75
     2
 76
     1
 98
        1
 10
0.0
 20
0.0
450
        0
451
        0
460
0.0
461
0.0
452
        0
462
0.0
453
        0
470

  0
POLYLINE
  5
37
330
A
100
AcDbEntity
  8
LAYER_1
 62
     7
100
AcDb2dPolyline
 66
     1
 10
0.0
 20
0.0
 30
0.0
 70
     1
  0
VERTEX
  5
38
330
37
100
AcDbEntity
  8
LAYER_1
 62
     7
100
AcDbVertex
100
AcDb2dVertex
 10
176.5042995876736
 20
226.1086791992187
 30
0.0
  0
VERTEX
  5
39
330
37
100
AcDbEntity
  8
LAYER_1
 62
     7
100
AcDbVertex
100
AcDb2dVertex
 10
166.3884657118055
 20
226.1086791992187
 30
0.0
  0
VERTEX
  5
3A
330
37
100
AcDbEntity
  8
LAYER_1
 62
     7
100
AcDbVertex
100
AcDb2dVertex
 10
166.3884657118055
 20
228.5043986002604
 30
0.0
  0
VERTEX
  5
3B
330
37
100
AcDbEntity
  8
LAYER_1
 62
     7
100
AcDbVertex
100
AcDb2dVertex
 10
176.5042995876736
 20
228.5043986002604
 30
0.0
  0
SEQEND
  5
3C
330
37
100
AcDbEntity
  8
LAYER_1
 62
     7
  0
POLYLINE
  5
31
330
A
100
AcDbEntity
  8
LAYER_1
 62
     7
100
AcDb2dPolyline
 66
     1
 10
0.0
 20
0.0
 30
0.0
 70
     1
  0
VERTEX
  5
32
330
31
100
AcDbEntity
  8
LAYER_1
 62
     7
100
AcDbVertex
100
AcDb2dVertex
 10
186.4871527777777
 20
226.1086791992187
 30
0.0
  0
VERTEX
  5
33
330
31
100
AcDbEntity
  8
LAYER_1
 62
     7
100
AcDbVertex
100
AcDb2dVertex
 10
176.3709743923611
 20
226.1086791992187
 30
0.0
  0
VERTEX
  5
34
330
31
100
AcDbEntity
  8
LAYER_1
 62
     7
100
AcDbVertex
100
AcDb2dVertex
 10
176.3709743923611
 20
228.5043986002604
 30
0.0
  0
VERTEX
  5
35
330
31
100
AcDbEntity
  8
LAYER_1
 62
     7
100
AcDbVertex
100
AcDb2dVertex
 10
186.4871527777777
 20
228.5043986002604
 30
0.0
  0
SEQEND
  5
36
330
31
100
AcDbEntity
  8
LAYER_1
 62
     7
  0
POLYLINE
  5
2B
330
A
100
AcDbEntity
  8
LAYER_1
 62
     7
100
AcDb2dPolyline
 66
     1
 10
0.0
 20
0.0
 30
0.0
 70
     1
  0
VERTEX
  5
2C
330
2B
100
AcDbEntity
  8
LAYER_1
 62
     7
100
AcDbVertex
100
AcDb2dVertex
 10
186.4871527777777
 20
226.1086791992187
 30
0.0
  0
VERTEX
  5
2D
330
2B
100
AcDbEntity
  8
LAYER_1
 62
     7
100
AcDbVertex
100
AcDb2dVertex
 10
176.3709743923611
 20
226.1086791992187
 30
0.0
  0
VERTEX
  5
2E
330
2B
100
AcDbEntity
  8
LAYER_1
 62
     7
100
AcDbVertex
100
AcDb2dVertex
 10
176.3709743923611
 20
228.5043986002604
 30
0.0
  0
VERTEX
  5
2F
330
2B
100
AcDbEntity
  8
LAYER_1
 62
     7
100
AcDbVertex
100
AcDb2dVertex
 10
186.4871527777777
 20
228.5043986002604
 30
0.0
  0
SEQEND
  5
30
330
2B
100
AcDbEntity
  8
LAYER_1
 62
     7
  0
MTEXT
  5
2A
330
A
100
AcDbEntity
  8
LAYER_1
 62
     7
100
AcDbMText
 10
165.4240112304687
 20
232.1941449854109
 30
0.0
 40
2.362351094351874
 41
0.0
 46
0.0
 71
     1
 72
     2
  1
\fHelvetica|b0|i0;\H2.3624;\C7;1
  7
STD
 73
     1
 44
1.0
  0
MTEXT
  5
29
330
A
100
AcDbEntity
  8
LAYER_1
 62
     7
100
AcDbMText
 10
184.5635837131076
 20
231.7185495535532
 30
0.0
 40
2.362351094351874
 41
0.0
 46
0.0
 71
     1
 72
     2
  1
\fHelvetica|b0|i0;\H2.3624;\C7;2m
  7
STD
 73
     1
 44
1.0
  0
ENDSEC
  0
SECTION
  2
OBJECTS
  0
DICTIONARY
  5
19
330
0
100
AcDbDictionary
281
     1
  3
ACAD_CIP_PREVIOUS_PRODUCT_INFO
350
44C
  3
ACAD_COLOR
350
42D
  3
ACAD_DETAILVIEWSTYLE
350
446
  3
ACAD_GROUP
350
1A
  3
ACAD_IMAGE_VARS
350
44D
  3
ACAD_LAYOUT
350
1E
  3
ACAD_MATERIAL
350
3FB
  3
ACAD_MLEADERSTYLE
350
442
  3
ACAD_MLINESTYLE
350
1B
  3
ACAD_PLOTSETTINGS
350
22
  3
ACAD_PLOTSTYLENAME
350
1F
  3
ACAD_SCALELIST
350
430
  3
ACAD_SECTIONVIEWSTYLE
350
444
  3
ACAD_TABLESTYLE
350
42E
  3
ACAD_VISUALSTYLE
350
414
  3
ACAD_WIPEOUT_VARS
350
23
  3
ACDB_RECOMPOSE_DATA
350
49F
  3
AcDbVariableDictionary
350
493
  0
DICTIONARY
  5
44E
330
14
100
AcDbDictionary
280
     1
281
     1
  3
ADSK_XREC_LAYER_RECONCILED
360
44F
  0
DICTIONARY
  5
450
330
28
100
AcDbDictionary
280
     1
281
     1
  3
ADSK_XREC_LAYER_RECONCILED
360
451
  0
IMAGEDEF_REACTOR
  5
C1
330
C0
100
AcDbRasterImageDefReactor
 90
        2
330
C0
  0
IMAGEDEF_REACTOR
  5
C8
330
C7
100
AcDbRasterImageDefReactor
 90
        2
330
C7
  0
IMAGEDEF_REACTOR
  5
3CC
330
3CB
100
AcDbRasterImageDefReactor
 90
        2
330
3CB
  0
XRECORD
  5
44C
102
{ACAD_REACTORS
330
19
102
}
330
19
100
AcDbXrecord
280
     1
300
ACD
300
2015
300
ACD_F_S
  0
DICTIONARY
  5
42D
102
{ACAD_REACTORS
330
19
102
}
330
19
100
AcDbDictionary
281
     1
  0
DICTIONARY
  5
446
102
{ACAD_REACTORS
330
19
102
}
330
19
100
AcDbDictionary
281
     1
  3
Metric50
350
447
  0
DICTIONARY
  5
1A
102
{ACAD_REACTORS
330
19
102
}
330
19
100
AcDbDictionary
281
     1
  0
RASTERVARIABLES
  5
44D
102
{ACAD_REACTORS
330
19
102
}
330
19
100
AcDbRasterVariables
 90
        0
 70
     1
 71
     1
 72
     0
  0
DICTIONARY
  5
1E
102
{ACAD_REACTORS
330
19
102
}
330
19
100
AcDbDictionary
281
     1
  3
Layout1
350
21
  3
Model
350
20
  0
DICTIONARY
  5
3FB
102
{ACAD_REACTORS
330
19
102
}
330
19
100
AcDbDictionary
281
     1
  3
ByBlock
350
404
  3
ByLayer
350
3FC
  3
Global
350
40C
  0
DICTIONARY
  5
442
102
{ACAD_REACTORS
330
19
102
}
330
19
100
AcDbDictionary
281
     1
  3
Standard
350
443
  0
DICTIONARY
  5
1B
102
{ACAD_REACTORS
330
19
102
}
330
19
100
AcDbDictionary
281
     1
  3
Standard
350
1C
  0
DICTIONARY
  5
22
102
{ACAD_REACTORS
330
19
102
}
330
19
100
AcDbDictionary
281
     1
  0
ACDBDICTIONARYWDFLT
  5
1F
102
{ACAD_REACTORS
330
19
102
}
330
19
100
AcDbDictionary
281
     1
  3
Normal
350
1D
100
AcDbDictionaryWithDefault
340
1D
  0
DICTIONARY
  5
430
102
{ACAD_REACTORS
330
19
102
}
330
19
100
AcDbDictionary
281
     1
  3
A0
350
431
  3
A1
350
432
  3
A2
350
433
  3
A3
350
434
  3
A4
350
435
  3
A5
350
436
  3
A6
350
437
  3
A7
350
438
  3
A8
350
439
  3
A9
350
43A
  3
B0
350
43B
  3
B1
350
43C
  3
B2
350
43D
  3
B3
350
43E
  3
B4
350
43F
  3
B5
350
440
  3
B6
350
441
  0
DICTIONARY
  5
444
102
{ACAD_REACTORS
330
19
102
}
330
19
100
AcDbDictionary
281
     1
  3
Metric50
350
445
  0
DICTIONARY
  5
42E
102
{ACAD_REACTORS
330
19
102
}
330
19
100
AcDbDictionary
281
     1
  3
Standard
350
42F
  0
DICTIONARY
  5
414
102
{ACAD_REACTORS
330
19
102
}
330
19
100
AcDbDictionary
281
     1
  3
2dWireframe
350
41A
  3
Basic
350
419
  3
Brighten
350
420
  3
ColorChange
350
424
  3
Conceptual
350
41D
  3
Dim
350
41F
  3
EdgeColorOff
350
42C
  3
Facepattern
350
423
  3
Flat
350
415
  3
FlatWithEdges
350
416
  3
Gouraud
350
417
  3
GouraudWithEdges
350
418
  3
Hidden
350
41C
  3
JitterOff
350
42A
  3
Linepattern
350
422
  3
OverhangOff
350
42B
  3
Realistic
350
41E
  3
Shaded
350
429
  3
Shaded with edges
350
428
  3
Shades of Gray
350
425
  3
Sketchy
350
426
  3
Thicken
350
421
  3
Wireframe
350
41B
  3
X-Ray
350
427
  0
WIPEOUTVARIABLES
  5
23
330
19
100
AcDbWipeoutVariables
 70
     1
  0
XRECORD
  5
49F
102
{ACAD_REACTORS
330
19
102
}
330
19
100
AcDbXrecord
280
     1
 90
        1
330
42F
  0
DICTIONARY
  5
493
102
{ACAD_REACTORS
330
19
102
}
330
19
100
AcDbDictionary
281
     1
  3
CANNOSCALE
350
499
  3
CMLEADERSTYLE
350
495
  3
CTABLESTYLE
350
494
  3
CVIEWDETAILSTYLE
350
496
  3
CVIEWSECTIONSTYLE
350
497
  3
LAYEREVAL
350
49B
  3
LAYERNOTIFY
350
49C
  3
LIGHTINGUNITS
350
49A
  3
MSLTSCALE
350
498
  0
XRECORD
  5
44F
102
{ACAD_REACTORS
330
44E
102
}
330
44E
100
AcDbXrecord
280
     1
290
     1
  0
XRECORD
  5
451
102
{ACAD_REACTORS
330
450
102
}
330
450
100
AcDbXrecord
280
     1
290
     1
  0
ACDBDETAILVIEWSTYLE
  5
447
102
{ACAD_XDICTIONARY
360
4D4
102
}
102
{ACAD_REACTORS
330
446
102
}
330
446
100
AcDbModelDocViewStyle
 70
     0
  3
Metric50
290
     0
100
AcDbDetailViewStyle
 70
     0
 71
     0
 90
        3
 71
     1
340
17
 62
   256
 40
5.0
340
0
 62
   256
 40
5.0
300

 40
0.0
280
     1
 71
     2
340
13
 90
       25
 62
   256
 71
     3
340
17
 62
   256
 40
5.0
 90
        0
 40
15.0
 90
        1
300
%<\AcVar ViewDetailId>% (%<\AcVar ViewScale \f "%sn">%)
 71
     4
340
13
 90
       25
 62
   256
340
13
 90
       25
 62
   256
280
     0
  0
LAYOUT
  5
21
102
{ACAD_REACTORS
330
1E
102
}
330
1E
100
AcDbPlotSettings
  1

  2

  4

  6

 40
0.0
 41
0.0
 42
0.0
 43
0.0
 44
0.0
 45
0.0
 46
0.0
 47
0.0
 48
0.0
 49
0.0
140
0.0
141
0.0
142
1.0
143
1.0
 70
     0
 72
     0
 73
     0
 74
     0
  7

 75
     0
147
1.0
 76
     0
 77
     2
 78
   300
148
0.0
149
0.0
100
AcDbLayout
  1
Layout1
 70
     0
 71
     1
 10
0.0
 20
0.0
 11
12.0
 21
9.0
 12
0.0
 22
0.0
 32
0.0
 14
1.000000000000000E+20
 24
1.000000000000000E+20
 34
1.000000000000000E+20
 15
-1.000000000000000E+20
 25
-1.000000000000000E+20
 35
-1.000000000000000E+20
146
0.0
 13
0.0
 23
0.0
 33
0.0
 16
1.0
 26
0.0
 36
0.0
 17
0.0
 27
1.0
 37
0.0
 76
     0
330
B
  0
LAYOUT
  5
20
102
{ACAD_REACTORS
330
1E
102
}
330
1E
100
AcDbPlotSettings
  1

  2

  4

  6

 40
0.0
 41
0.0
 42
0.0
 43
0.0
 44
0.0
 45
0.0
 46
0.0
 47
0.0
 48
0.0
 49
0.0
140
0.0
141
0.0
142
1.0
143
1.0
 70
  1024
 72
     0
 73
     0
 74
     0
  7

 75
     0
147
1.0
 76
     0
 77
     2
 78
   300
148
0.0
149
0.0
100
AcDbLayout
  1
Model
 70
     0
 71
     0
 10
0.0
 20
0.0
 11
0.0
 21
0.0
 12
0.0
 22
0.0
 32
0.0
 14
0.0
 24
0.0
 34
0.0
 15
0.0
 25
0.0
 35
0.0
146
0.0
 13
0.0
 23
0.0
 33
0.0
 16
0.0
 26
0.0
 36
0.0
 17
0.0
 27
0.0
 37
0.0
 76
     0
330
A
331
15
  0
MATERIAL
  5
404
102
{ACAD_XDICTIONARY
360
405
102
}
102
{ACAD_REACTORS
330
3FB
102
}
330
3FB
100
AcDbMaterial
  1
ByBlock
 72
     0
 43
0.0208333333333333
 43
0.0
 43
0.0
 43
0.0
 43
0.0
 43
0.0208333333333333
 43
0.0
 43
0.0
 43
0.0
 43
0.0
 43
1.0
 43
0.0
 43
0.0
 43
0.0
 43
0.0
 43
1.0
 77
     0
 47
0.0208333333333333
 47
0.0
 47
0.0
 47
0.0
 47
0.0
 47
0.0208333333333333
 47
0.0
 47
0.0
 47
0.0
 47
0.0
 47
1.0
 47
0.0
 47
0.0
 47
0.0
 47
0.0
 47
1.0
171
     0
 49
0.0208333333333333
 49
0.0
 49
0.0
 49
0.0
 49
0.0
 49
0.0208333333333333
 49
0.0
 49
0.0
 49
0.0
 49
0.0
 49
1.0
 49
0.0
 49
0.0
 49
0.0
 49
0.0
 49
1.0
175
     0
142
0.0208333333333333
142
0.0
142
0.0
142
0.0
142
0.0
142
0.0208333333333333
142
0.0
142
0.0
142
0.0
142
0.0
142
1.0
142
0.0
142
0.0
142
0.0
142
0.0
142
1.0
179
     0
144
0.0208333333333333
144
0.0
144
0.0
144
0.0
144
0.0
144
0.0208333333333333
144
0.0
144
0.0
144
0.0
144
0.0
144
1.0
144
0.0
144
0.0
144
0.0
144
0.0
144
1.0
147
0.0208333333333333
147
0.0
147
0.0
147
0.0
147
0.0
147
0.0208333333333333
147
0.0
147
0.0
147
0.0
147
0.0
147
1.0
147
0.0
147
0.0
147
0.0
147
0.0
147
1.0
  0
MATERIAL
  5
3FC
102
{ACAD_XDICTIONARY
360
3FD
102
}
102
{ACAD_REACTORS
330
3FB
102
}
330
3FB
100
AcDbMaterial
  1
ByLayer
 72
     0
 43
0.0208333333333333
 43
0.0
 43
0.0
 43
0.0
 43
0.0
 43
0.0208333333333333
 43
0.0
 43
0.0
 43
0.0
 43
0.0
 43
1.0
 43
0.0
 43
0.0
 43
0.0
 43
0.0
 43
1.0
 77
     0
 47
0.0208333333333333
 47
0.0
 47
0.0
 47
0.0
 47
0.0
 47
0.0208333333333333
 47
0.0
 47
0.0
 47
0.0
 47
0.0
 47
1.0
 47
0.0
 47
0.0
 47
0.0
 47
0.0
 47
1.0
171
     0
 49
0.0208333333333333
 49
0.0
 49
0.0
 49
0.0
 49
0.0
 49
0.0208333333333333
 49
0.0
 49
0.0
 49
0.0
 49
0.0
 49
1.0
 49
0.0
 49
0.0
 49
0.0
 49
0.0
 49
1.0
175
     0
142
0.0208333333333333
142
0.0
142
0.0
142
0.0
142
0.0
142
0.0208333333333333
142
0.0
142
0.0
142
0.0
142
0.0
142
1.0
142
0.0
142
0.0
142
0.0
142
0.0
142
1.0
179
     0
144
0.0208333333333333
144
0.0
144
0.0
144
0.0
144
0.0
144
0.0208333333333333
144
0.0
144
0.0
144
0.0
144
0.0
144
1.0
144
0.0
144
0.0
144
0.0
144
0.0
144
1.0
147
0.0208333333333333
147
0.0
147
0.0
147
0.0
147
0.0
147
0.0208333333333333
147
0.0
147
0.0
147
0.0
147
0.0
147
1.0
147
0.0
147
0.0
147
0.0
147
0.0
147
1.0
  0
MATERIAL
  5
40C
102
{ACAD_XDICTIONARY
360
40D
102
}
102
{ACAD_REACTORS
330
3FB
102
}
330
3FB
100
AcDbMaterial
  1
Global
 72
     0
 43
0.0208333333333333
 43
0.0
 43
0.0
 43
0.0
 43
0.0
 43
0.0208333333333333
 43
0.0
 43
0.0
 43
0.0
 43
0.0
 43
1.0
 43
0.0
 43
0.0
 43
0.0
 43
0.0
 43
1.0
 77
     0
 47
0.0208333333333333
 47
0.0
 47
0.0
 47
0.0
 47
0.0
 47
0.0208333333333333
 47
0.0
 47
0.0
 47
0.0
 47
0.0
 47
1.0
 47
0.0
 47
0.0
 47
0.0
 47
0.0
 47
1.0
171
     0
 49
0.0208333333333333
 49
0.0
 49
0.0
 49
0.0
 49
0.0
 49
0.0208333333333333
 49
0.0
 49
0.0
 49
0.0
 49
0.0
 49
1.0
 49
0.0
 49
0.0
 49
0.0
 49
0.0
 49
1.0
175
     0
142
0.0208333333333333
142
0.0
142
0.0
142
0.0
142
0.0
142
0.0208333333333333
142
0.0
142
0.0
142
0.0
142
0.0
142
1.0
142
0.0
142
0.0
142
0.0
142
0.0
142
1.0
179
     0
144
0.0208333333333333
144
0.0
144
0.0
144
0.0
144
0.0
144
0.0208333333333333
144
0.0
144
0.0
144
0.0
144
0.0
144
1.0
144
0.0
144
0.0
144
0.0
144
0.0
144
1.0
147
0.0208333333333333
147
0.0
147
0.0
147
0.0
147
0.0
147
0.0208333333333333
147
0.0
147
0.0
147
0.0
147
0.0
147
1.0
147
0.0
147
0.0
147
0.0
147
0.0
147
1.0
  0
MLEADERSTYLE
  5
443
102
{ACAD_XDICTIONARY
360
4D0
102
}
102
{ACAD_REACTORS
330
442
102
}
330
442
100
AcDbMLeaderStyle
179
     2
170
     2
171
     1
172
     0
 90
        2
 40
0.0
 41
0.0
173
     1
 91
-1056964608
340
11
 92
       -2
290
     1
 42
2.0
291
     1
 43
0.36
  3
Standard
 44
4.0
300

342
17
174
     1
178
     6
175
     1
176
     0
 93
-1056964608
 45
4.0
292
     0
297
     0
 46
4.0
 94
-1056964608
 47
1.0
 49
1.0
140
1.0
293
     1
141
0.0
294
     1
177
     0
142
1.0
295
     0
296
     0
143
0.125
271
     0
272
     9
273
     9
  0
MLINESTYLE
  5
1C
102
{ACAD_REACTORS
330
1B
102
}
330
1B
100
AcDbMlineStyle
  2
STANDARD
 70
     0
  3

 62
     0
 51
90.0
 52
90.0
 71
     2
 49
0.5
 62
   256
  6
BYLAYER
 49
-0.5
 62
   256
  6
BYLAYER
  0
ACDBPLACEHOLDER
  5
1D
102
{ACAD_REACTORS
330
1F
102
}
330
1F
  0
SCALE
  5
431
102
{ACAD_REACTORS
330
430
102
}
330
430
100
AcDbScale
 70
     0
300
1:1
140
1.0
141
1.0
290
     1
  0
SCALE
  5
432
102
{ACAD_REACTORS
330
430
102
}
330
430
100
AcDbScale
 70
     0
300
1:2
140
1.0
141
2.0
290
     0
  0
SCALE
  5
433
102
{ACAD_REACTORS
330
430
102
}
330
430
100
AcDbScale
 70
     0
300
1:4
140
1.0
141
4.0
290
     0
  0
SCALE
  5
434
102
{ACAD_REACTORS
330
430
102
}
330
430
100
AcDbScale
 70
     0
300
1:5
140
1.0
141
5.0
290
     0
  0
SCALE
  5
435
102
{ACAD_REACTORS
330
430
102
}
330
430
100
AcDbScale
 70
     0
300
1:8
140
1.0
141
8.0
290
     0
  0
SCALE
  5
436
102
{ACAD_REACTORS
330
430
102
}
330
430
100
AcDbScale
 70
     0
300
1:10
140
1.0
141
10.0
290
     0
  0
SCALE
  5
437
102
{ACAD_REACTORS
330
430
102
}
330
430
100
AcDbScale
 70
     0
300
1:16
140
1.0
141
16.0
290
     0
  0
SCALE
  5
438
102
{ACAD_REACTORS
330
430
102
}
330
430
100
AcDbScale
 70
     0
300
1:20
140
1.0
141
20.0
290
     0
  0
SCALE
  5
439
102
{ACAD_REACTORS
330
430
102
}
330
430
100
AcDbScale
 70
     0
300
1:30
140
1.0
141
30.0
290
     0
  0
SCALE
  5
43A
102
{ACAD_REACTORS
330
430
102
}
330
430
100
AcDbScale
 70
     0
300
1:40
140
1.0
141
40.0
290
     0
  0
SCALE
  5
43B
102
{ACAD_REACTORS
330
430
102
}
330
430
100
AcDbScale
 70
     0
300
1:50
140
1.0
141
50.0
290
     0
  0
SCALE
  5
43C
102
{ACAD_REACTORS
330
430
102
}
330
430
100
AcDbScale
 70
     0
300
1:100
140
1.0
141
100.0
290
     0
  0
SCALE
  5
43D
102
{ACAD_REACTORS
330
430
102
}
330
430
100
AcDbScale
 70
     0
300
2:1
140
2.0
141
1.0
290
     0
  0
SCALE
  5
43E
102
{ACAD_REACTORS
330
430
102
}
330
430
100
AcDbScale
 70
     0
300
4:1
140
4.0
141
1.0
290
     0
  0
SCALE
  5
43F
102
{ACAD_REACTORS
330
430
102
}
330
430
100
AcDbScale
 70
     0
300
8:1
140
8.0
141
1.0
290
     0
  0
SCALE
  5
440
102
{ACAD_REACTORS
330
430
102
}
330
430
100
AcDbScale
 70
     0
300
10:1
140
10.0
141
1.0
290
     0
  0
SCALE
  5
441
102
{ACAD_REACTORS
330
430
102
}
330
430
100
AcDbScale
 70
     0
300
100:1
140
100.0
141
1.0
290
     0
  0
ACDBSECTIONVIEWSTYLE
  5
445
102
{ACAD_XDICTIONARY
360
4D2
102
}
102
{ACAD_REACTORS
330
444
102
}
330
444
100
AcDbModelDocViewStyle
 70
     0
  3
Metric50
290
     0
100
AcDbSectionViewStyle
 70
     0
 71
     0
 90
      102
 71
     1
340
17
 62
   256
 40
5.0
340
0
340
0
 62
   256
 40
5.0
300
I, O, Q, S, X, Z
 40
10.0
 90
        0
 40
2.5
 90
        0
 71
     2
340
13
 90
       25
 62
   256
340
13
 90
       50
 62
   256
 40
5.0
 40
2.5
 40
5.0
 71
     3
340
17
 62
   256
 40
5.0
 90
        0
 40
15.0
 90
        1
300
%<\AcVar ViewSectionStartId>%-%<\AcVar ViewSectionEndId>% (%<\AcVar ViewScale \f "%sn">%)
 71
     4
 62
   256
 62
   257
300
ANSI31
 40
1.0
 90
        0
290
     0
290
     0
 90
        6
 40
0.0
 40
1.570796326794896
 40
0.2617993877991494
 40
1.308996938995747
 40
-0.2617993877991494
 40
1.832595714594046
  0
TABLESTYLE
  5
42F
102
{ACAD_XDICTIONARY
360
49D
102
}
102
{ACAD_REACTORS
330
42E
102
}
330
42E
100
AcDbTableStyle
280
     0
  3
Standard
 70
     0
 71
     0
 40
1.5
 41
1.5
280
     0
281
     0
  7
Standard
140
4.5
170
     2
 62
     0
 63
     7
283
     0
 90
      512
 91
        0
  1

274
    -2
284
     1
 64
     0
275
    -2
285
     1
 65
     0
276
    -2
286
     1
 66
     0
277
    -2
287
     1
 67
     0
278
    -2
288
     1
 68
     0
279
    -2
289
     1
 69
     0
  7
Standard
140
6.0
170
     5
 62
     0
 63
     7
283
     0
 90
      512
 91
        0
  1

274
    -2
284
     1
 64
     0
275
    -2
285
     1
 65
     0
276
    -2
286
     1
 66
     0
277
    -2
287
     1
 67
     0
278
    -2
288
     1
 68
     0
279
    -2
289
     1
 69
     0
  7
Standard
140
4.5
170
     5
 62
     0
 63
     7
283
     0
 90
      512
 91
        0
  1

274
    -2
284
     1
 64
     0
275
    -2
285
     1
 65
     0
276
    -2
286
     1
 66
     0
277
    -2
287
     1
 67
     0
278
    -2
288
     1
 68
     0
279
    -2
289
     1
 69
     0
  0
VISUALSTYLE
  5
41A
102
{ACAD_XDICTIONARY
360
4AA
102
}
102
{ACAD_REACTORS
330
414
102
}
330
414
100
AcDbVisualStyle
  2
2dWireframe
 70
     4
177
     2
291
     0
 71
     0
176
     1
 72
     2
176
     1
 73
     0
176
     1
 90
        0
176
     1
 40
0.6
176
     1
 41
30.0
176
     1
 63
     7
421
 16777215
176
     1
 74
     1
176
     1
 91
        4
176
     1
 64
     7
176
     1
 65
   257
176
     1
 75
     1
176
     1
175
     1
176
     1
 42
1.0
176
     1
 92
        0
176
     1
 66
   257
176
     1
 43
1.0
176
     1
 76
     1
176
     1
 77
     6
176
     1
 78
     2
176
     1
 67
     7
176
     1
 79
     5
176
     1
170
     0
176
     1
171
     0
176
     1
290
     0
176
     1
 93
        1
176
     1
 44
0.0
176
     1
173
     0
176
     1
1001
ACAD
1000
AcDbSavedByObjectVersion
1070
     0
  0
VISUALSTYLE
  5
419
102
{ACAD_XDICTIONARY
360
4A8
102
}
102
{ACAD_REACTORS
330
414
102
}
330
414
100
AcDbVisualStyle
  2
Basic
 70
     7
177
     2
291
     1
 71
     1
176
     1
 72
     0
176
     1
 73
     1
176
     1
 90
        0
176
     1
 40
0.6
176
     1
 41
30.0
176
     1
 63
     7
421
 16777215
176
     1
 74
     0
176
     1
 91
        4
176
     1
 64
     7
176
     1
 65
   257
176
     1
 75
     1
176
     1
175
     1
176
     1
 42
1.0
176
     1
 92
        8
176
     1
 66
     7
176
     1
 43
1.0
176
     1
 76
     1
176
     1
 77
     6
176
     1
 78
     2
176
     1
 67
     7
176
     1
 79
     5
176
     1
170
     0
176
     1
171
     0
176
     1
290
     0
176
     1
 93
        1
176
     1
 44
0.0
176
     1
173
     0
176
     1
1001
ACAD
1000
AcDbSavedByObjectVersion
1070
     0
  0
VISUALSTYLE
  5
420
102
{ACAD_XDICTIONARY
360
4B6
102
}
102
{ACAD_REACTORS
330
414
102
}
330
414
100
AcDbVisualStyle
  2
Brighten
 70
    12
177
     2
291
     1
 71
     2
176
     1
 72
     2
176
     1
 73
     0
176
     1
 90
        0
176
     1
 40
0.6
176
     1
 41
30.0
176
     1
 63
     7
421
 16777215
176
     1
 74
     1
176
     1
 91
        4
176
     1
 64
     7
176
     1
 65
   257
176
     1
 75
     1
176
     1
175
     1
176
     1
 42
1.0
176
     1
 92
        8
176
     1
 66
     7
176
     1
 43
1.0
176
     1
 76
     1
176
     1
 77
     6
176
     1
 78
     2
176
     1
 67
     7
176
     1
 79
     5
176
     1
170
     0
176
     1
171
     0
176
     1
290
     0
176
     1
 93
        1
176
     1
 44
50.0
176
     1
173
     0
176
     1
1001
ACAD
1000
AcDbSavedByObjectVersion
1070
     0
  0
VISUALSTYLE
  5
424
102
{ACAD_XDICTIONARY
360
4BE
102
}
102
{ACAD_REACTORS
330
414
102
}
330
414
100
AcDbVisualStyle
  2
ColorChange
 70
    16
177
     2
291
     1
 71
     2
176
     1
 72
     2
176
     1
 73
     3
176
     1
 90
        0
176
     1
 40
0.6
176
     1
 41
30.0
176
     1
 63
     8
421
  8421504
176
     1
 74
     1
176
     1
 91
        4
176
     1
 64
     7
176
     1
 65
   257
176
     1
 75
     1
176
     1
175
     1
176
     1
 42
1.0
176
     1
 92
        8
176
     1
 66
     8
424
  8421504
176
     1
 43
1.0
176
     1
 76
     1
176
     1
 77
     6
176
     1
 78
     2
176
     1
 67
     7
176
     1
 79
     5
176
     1
170
     0
176
     1
171
     0
176
     1
290
     0
176
     1
 93
        1
176
     1
 44
0.0
176
     1
173
     0
176
     1
1001
ACAD
1000
AcDbSavedByObjectVersion
1070
     0
  0
VISUALSTYLE
  5
41D
102
{ACAD_XDICTIONARY
360
4B0
102
}
102
{ACAD_REACTORS
330
414
102
}
330
414
100
AcDbVisualStyle
  2
Conceptual
 70
     9
177
     2
291
     0
 71
     3
176
     1
 72
     2
176
     1
 73
     0
176
     1
 90
        0
176
     1
 40
0.6
176
     1
 41
30.0
176
     1
 63
     7
421
 16777215
176
     1
 74
     2
176
     1
 91
        2
176
     1
 64
     7
176
     1
 65
   257
176
     1
 75
     1
176
     1
175
     1
176
     1
 42
179.0
176
     1
 92
        8
176
     1
 66
     7
176
     1
 43
1.0
176
     1
 76
     1
176
     1
 77
     6
176
     1
 78
     2
176
     1
 67
     7
176
     1
 79
     3
176
     1
170
     0
176
     1
171
     0
176
     1
290
     0
176
     1
 93
        1
176
     1
 44
0.0
176
     1
173
     0
176
     1
1001
ACAD
1000
AcDbSavedByObjectVersion
1070
     0
  0
VISUALSTYLE
  5
41F
102
{ACAD_XDICTIONARY
360
4B4
102
}
102
{ACAD_REACTORS
330
414
102
}
330
414
100
AcDbVisualStyle
  2
Dim
 70
    11
177
     2
291
     1
 71
     2
176
     1
 72
     2
176
     1
 73
     0
176
     1
 90
        0
176
     1
 40
0.6
176
     1
 41
30.0
176
     1
 63
     7
421
 16777215
176
     1
 74
     1
176
     1
 91
        4
176
     1
 64
     7
176
     1
 65
   257
176
     1
 75
     1
176
     1
175
     1
176
     1
 42
1.0
176
     1
 92
        8
176
     1
 66
     7
176
     1
 43
1.0
176
     1
 76
     1
176
     1
 77
     6
176
     1
 78
     2
176
     1
 67
     7
176
     1
 79
     5
176
     1
170
     0
176
     1
171
     0
176
     1
290
     0
176
     1
 93
        1
176
     1
 44
-50.0
176
     1
173
     0
176
     1
1001
ACAD
1000
AcDbSavedByObjectVersion
1070
     0
  0
VISUALSTYLE
  5
42C
102
{ACAD_XDICTIONARY
360
4CE
102
}
102
{ACAD_REACTORS
330
414
102
}
330
414
100
AcDbVisualStyle
  2
EdgeColorOff
 70
    22
177
     2
291
     1
 71
     2
176
     0
 72
     2
176
     0
 73
     0
176
     0
 90
        0
176
     0
 40
0.6
176
     0
 41
30.0
176
     0
 63
     7
421
 16777215
176
     0
 74
     1
176
     0
 91
        4
176
     0
 64
     7
176
     0
 65
   257
176
     0
 75
     1
176
     0
175
     1
176
     0
 42
1.0
176
     0
 92
        8
176
     2
 66
     7
176
     0
 43
1.0
176
     0
 76
     1
176
     0
 77
     6
176
     0
 78
     2
176
     0
 67
     7
176
     0
 79
     5
176
     0
170
     0
176
     0
171
     0
176
     0
290
     0
176
     0
 93
        1
176
     0
 44
0.0
176
     0
173
     0
176
     0
1001
ACAD
1000
AcDbSavedByObjectVersion
1070
     0
  0
VISUALSTYLE
  5
423
102
{ACAD_XDICTIONARY
360
4BC
102
}
102
{ACAD_REACTORS
330
414
102
}
330
414
100
AcDbVisualStyle
  2
Facepattern
 70
    15
177
     2
291
     1
 71
     2
176
     1
 72
     2
176
     1
 73
     0
176
     1
 90
        0
176
     1
 40
0.6
176
     1
 41
30.0
176
     1
 63
     7
421
 16777215
176
     1
 74
     1
176
     1
 91
        4
176
     1
 64
     7
176
     1
 65
   257
176
     1
 75
     1
176
     1
175
     1
176
     1
 42
1.0
176
     1
 92
        8
176
     1
 66
     7
176
     1
 43
1.0
176
     1
 76
     1
176
     1
 77
     6
176
     1
 78
     2
176
     1
 67
     7
176
     1
 79
     5
176
     1
170
     0
176
     1
171
     0
176
     1
290
     0
176
     1
 93
        1
176
     1
 44
0.0
176
     1
173
     0
176
     1
1001
ACAD
1000
AcDbSavedByObjectVersion
1070
     0
  0
VISUALSTYLE
  5
415
102
{ACAD_XDICTIONARY
360
4A0
102
}
102
{ACAD_REACTORS
330
414
102
}
330
414
100
AcDbVisualStyle
  2
Flat
 70
     0
177
     2
291
     1
 71
     2
176
     1
 72
     1
176
     1
 73
     1
176
     1
 90
        2
176
     1
 40
0.6
176
     1
 41
30.0
176
     1
 63
     7
421
 16777215
176
     1
 74
     0
176
     1
 91
        0
176
     1
 64
     7
176
     1
 65
   257
176
     1
 75
     1
176
     1
175
     1
176
     1
 42
1.0
176
     1
 92
        8
176
     1
 66
     7
176
     1
 43
1.0
176
     1
 76
     1
176
     1
 77
     6
176
     1
 78
     2
176
     1
 67
     7
176
     1
 79
     5
176
     1
170
     0
176
     1
171
     0
176
     1
290
     0
176
     1
 93
       13
176
     1
 44
0.0
176
     1
173
     0
176
     1
1001
ACAD
1000
AcDbSavedByObjectVersion
1070
     0
  0
VISUALSTYLE
  5
416
102
{ACAD_XDICTIONARY
360
4A2
102
}
102
{ACAD_REACTORS
330
414
102
}
330
414
100
AcDbVisualStyle
  2
FlatWithEdges
 70
     1
177
     2
291
     1
 71
     2
176
     1
 72
     1
176
     1
 73
     1
176
     1
 90
        2
176
     1
 40
0.6
176
     1
 41
30.0
176
     1
 63
     7
421
 16777215
176
     1
 74
     1
176
     1
 91
        0
176
     1
 64
     7
176
     1
 65
   257
176
     1
 75
     1
176
     1
175
     1
176
     1
 42
1.0
176
     1
 92
        0
176
     1
 66
   257
176
     1
 43
1.0
176
     1
 76
     1
176
     1
 77
     6
176
     1
 78
     2
176
     1
 67
     7
176
     1
 79
     5
176
     1
170
     0
176
     1
171
     0
176
     1
290
     0
176
     1
 93
       13
176
     1
 44
0.0
176
     1
173
     0
176
     1
1001
ACAD
1000
AcDbSavedByObjectVersion
1070
     0
  0
VISUALSTYLE
  5
417
102
{ACAD_XDICTIONARY
360
4A4
102
}
102
{ACAD_REACTORS
330
414
102
}
330
414
100
AcDbVisualStyle
  2
Gouraud
 70
     2
177
     2
291
     1
 71
     2
176
     1
 72
     2
176
     1
 73
     1
176
     1
 90
        2
176
     1
 40
0.6
176
     1
 41
30.0
176
     1
 63
     7
421
 16777215
176
     1
 74
     0
176
     1
 91
        0
176
     1
 64
     7
176
     1
 65
   257
176
     1
 75
     1
176
     1
175
     1
176
     1
 42
1.0
176
     1
 92
        0
176
     1
 66
     7
176
     1
 43
1.0
176
     1
 76
     1
176
     1
 77
     6
176
     1
 78
     2
176
     1
 67
     7
176
     1
 79
     5
176
     1
170
     0
176
     1
171
     0
176
     1
290
     0
176
     1
 93
       13
176
     1
 44
0.0
176
     1
173
     0
176
     1
1001
ACAD
1000
AcDbSavedByObjectVersion
1070
     0
  0
VISUALSTYLE
  5
418
102
{ACAD_XDICTIONARY
360
4A6
102
}
102
{ACAD_REACTORS
330
414
102
}
330
414
100
AcDbVisualStyle
  2
GouraudWithEdges
 70
     3
177
     2
291
     1
 71
     2
176
     1
 72
     2
176
     1
 73
     1
176
     1
 90
        2
176
     1
 40
0.6
176
     1
 41
30.0
176
     1
 63
     7
421
 16777215
176
     1
 74
     1
176
     1
 91
        0
176
     1
 64
     7
176
     1
 65
   257
176
     1
 75
     1
176
     1
175
     1
176
     1
 42
1.0
176
     1
 92
        0
176
     1
 66
   257
176
     1
 43
1.0
176
     1
 76
     1
176
     1
 77
     6
176
     1
 78
     2
176
     1
 67
     7
176
     1
 79
     5
176
     1
170
     0
176
     1
171
     0
176
     1
290
     0
176
     1
 93
       13
176
     1
 44
0.0
176
     1
173
     0
176
     1
1001
ACAD
1000
AcDbSavedByObjectVersion
1070
     0
  0
VISUALSTYLE
  5
41C
102
{ACAD_XDICTIONARY
360
4AE
102
}
102
{ACAD_REACTORS
330
414
102
}
330
414
100
AcDbVisualStyle
  2
Hidden
 70
     6
177
     2
291
     0
 71
     1
176
     1
 72
     2
176
     1
 73
     2
176
     1
 90
        0
176
     1
 40
0.6
176
     1
 41
30.0
176
     1
 63
     7
421
 16777215
176
     1
 74
     2
176
     1
 91
        2
176
     1
 64
     7
176
     1
 65
   257
176
     1
 75
     2
176
     1
175
     1
176
     1
 42
40.0
176
     1
 92
        0
176
     1
 66
   257
176
     1
 43
1.0
176
     1
 76
     1
176
     1
 77
     6
176
     1
 78
     2
176
     1
 67
     7
176
     1
 79
     3
176
     1
170
     0
176
     1
171
     0
176
     1
290
     0
176
     1
 93
        1
176
     1
 44
0.0
176
     1
173
     0
176
     1
1001
ACAD
1000
AcDbSavedByObjectVersion
1070
     0
  0
VISUALSTYLE
  5
42A
102
{ACAD_XDICTIONARY
360
4CA
102
}
102
{ACAD_REACTORS
330
414
102
}
330
414
100
AcDbVisualStyle
  2
JitterOff
 70
    20
177
     2
291
     1
 71
     2
176
     0
 72
     2
176
     0
 73
     0
176
     0
 90
        0
176
     0
 40
0.6
176
     0
 41
30.0
176
     0
 63
     7
421
 16777215
176
     0
 74
     1
176
     0
 91
        4
176
     0
 64
     7
176
     0
 65
   257
176
     0
 75
     1
176
     0
175
     1
176
     0
 42
1.0
176
     0
 92
       10
176
     2
 66
     7
176
     0
 43
1.0
176
     0
 76
     1
176
     0
 77
     6
176
     0
 78
     2
176
     0
 67
     7
176
     0
 79
     5
176
     0
170
     0
176
     0
171
     0
176
     0
290
     0
176
     0
 93
        1
176
     0
 44
0.0
176
     0
173
     0
176
     0
1001
ACAD
1000
AcDbSavedByObjectVersion
1070
     0
  0
VISUALSTYLE
  5
422
102
{ACAD_XDICTIONARY
360
4BA
102
}
102
{ACAD_REACTORS
330
414
102
}
330
414
100
AcDbVisualStyle
  2
Linepattern
 70
    14
177
     2
291
     1
 71
     2
176
     1
 72
     2
176
     1
 73
     0
176
     1
 90
        0
176
     1
 40
0.6
176
     1
 41
30.0
176
     1
 63
     7
421
 16777215
176
     1
 74
     1
176
     1
 91
        4
176
     1
 64
     7
176
     1
 65
   257
176
     1
 75
     7
176
     1
175
     7
176
     1
 42
1.0
176
     1
 92
        8
176
     1
 66
     7
176
     1
 43
1.0
176
     1
 76
     1
176
     1
 77
     6
176
     1
 78
     2
176
     1
 67
     7
176
     1
 79
     5
176
     1
170
     0
176
     1
171
     0
176
     1
290
     0
176
     1
 93
        1
176
     1
 44
0.0
176
     1
173
     0
176
     1
1001
ACAD
1000
AcDbSavedByObjectVersion
1070
     0
  0
VISUALSTYLE
  5
42B
102
{ACAD_XDICTIONARY
360
4CC
102
}
102
{ACAD_REACTORS
330
414
102
}
330
414
100
AcDbVisualStyle
  2
OverhangOff
 70
    21
177
     2
291
     1
 71
     2
176
     0
 72
     2
176
     0
 73
     0
176
     0
 90
        0
176
     0
 40
0.6
176
     0
 41
30.0
176
     0
 63
     7
421
 16777215
176
     0
 74
     1
176
     0
 91
        4
176
     0
 64
     7
176
     0
 65
   257
176
     0
 75
     1
176
     0
175
     1
176
     0
 42
1.0
176
     0
 92
        9
176
     2
 66
     7
176
     0
 43
1.0
176
     0
 76
     1
176
     0
 77
     6
176
     0
 78
     2
176
     0
 67
     7
176
     0
 79
     5
176
     0
170
     0
176
     0
171
     0
176
     0
290
     0
176
     0
 93
        1
176
     0
 44
0.0
176
     0
173
     0
176
     0
1001
ACAD
1000
AcDbSavedByObjectVersion
1070
     0
  0
VISUALSTYLE
  5
41E
102
{ACAD_XDICTIONARY
360
4B2
102
}
102
{ACAD_REACTORS
330
414
102
}
330
414
100
AcDbVisualStyle
  2
Realistic
 70
     8
177
     2
291
     0
 71
     2
176
     1
 72
     3
176
     1
 73
     0
176
     1
 90
        2
176
     1
 40
0.6
176
     1
 41
30.0
176
     1
 63
     7
421
 16777215
176
     1
 74
     0
176
     1
 91
        0
176
     1
 64
     7
176
     1
 65
   257
176
     1
 75
     1
176
     1
175
     1
176
     1
 42
1.0
176
     1
 92
        8
176
     1
 66
   257
176
     1
 43
1.0
176
     1
 76
     1
176
     1
 77
     6
176
     1
 78
     2
176
     1
 67
     7
176
     1
 79
     3
176
     1
170
     0
176
     1
171
     0
176
     1
290
     0
176
     1
 93
       13
176
     1
 44
0.0
176
     1
173
     0
176
     1
1001
ACAD
1000
AcDbSavedByObjectVersion
1070
     0
  0
VISUALSTYLE
  5
429
102
{ACAD_XDICTIONARY
360
4C8
102
}
102
{ACAD_REACTORS
330
414
102
}
330
414
100
AcDbVisualStyle
  2
Shaded
 70
    27
177
     2
291
     0
 71
     2
176
     1
 72
     2
176
     1
 73
     1
176
     1
 90
        2
176
     1
 40
0.6
176
     1
 41
30.0
176
     1
 63
     7
421
 16777215
176
     1
 74
     0
176
     1
 91
        4
176
     1
 64
     7
176
     1
 65
   257
176
     1
 75
     1
176
     1
175
     1
176
     1
 42
1.0
176
     1
 92
        8
176
     1
 66
   257
176
     1
 43
1.0
176
     1
 76
     1
176
     1
 77
     6
176
     1
 78
     2
176
     1
 67
     8
425
  7895160
176
     1
 79
     3
176
     1
170
     0
176
     1
171
     0
176
     1
290
     0
176
     1
 93
        5
176
     1
 44
0.0
176
     1
173
     0
176
     1
1001
ACAD
1000
AcDbSavedByObjectVersion
1070
     0
  0
VISUALSTYLE
  5
428
102
{ACAD_XDICTIONARY
360
4C6
102
}
102
{ACAD_REACTORS
330
414
102
}
330
414
100
AcDbVisualStyle
  2
Shaded with edges
 70
    26
177
     2
291
     0
 71
     2
176
     1
 72
     2
176
     1
 73
     1
176
     1
 90
        2
176
     1
 40
0.6
176
     1
 41
30.0
176
     1
 63
     7
421
 16777215
176
     1
 74
     1
176
     1
 91
       10
176
     1
 64
     7
176
     1
 65
   257
176
     1
 75
     2
176
     1
175
     1
176
     1
 42
1.0
176
     1
 92
        8
176
     1
 66
   257
176
     1
 43
1.0
176
     1
 76
     1
176
     1
 77
     6
176
     1
 78
     2
176
     1
 67
     7
176
     1
 79
     3
176
     1
170
     0
176
     1
171
     0
176
     1
290
     0
176
     1
 93
        5
176
     1
 44
0.0
176
     1
173
     0
176
     1
1001
ACAD
1000
AcDbSavedByObjectVersion
1070
     0
  0
VISUALSTYLE
  5
425
102
{ACAD_XDICTIONARY
360
4C0
102
}
102
{ACAD_REACTORS
330
414
102
}
330
414
100
AcDbVisualStyle
  2
Shades of Gray
 70
    23
177
     2
291
     0
 71
     2
176
     1
 72
     2
176
     1
 73
     3
176
     1
 90
        0
176
     1
 40
0.6
176
     1
 41
30.0
176
     1
 63
     7
421
 16777215
176
     1
 74
     2
176
     1
 91
        2
176
     1
 64
     7
176
     1
 65
     7
176
     1
 75
     1
176
     1
175
     1
176
     1
 42
40.0
176
     1
 92
        8
176
     1
 66
     7
176
     1
 43
1.0
176
     1
 76
     1
176
     1
 77
     6
176
     1
 78
     2
176
     1
 67
     7
176
     1
 79
     3
176
     1
170
     0
176
     1
171
     0
176
     1
290
     0
176
     1
 93
        1
176
     1
 44
0.0
176
     1
173
     0
176
     1
1001
ACAD
1000
AcDbSavedByObjectVersion
1070
     0
  0
VISUALSTYLE
  5
426
102
{ACAD_XDICTIONARY
360
4C2
102
}
102
{ACAD_REACTORS
330
414
102
}
330
414
100
AcDbVisualStyle
  2
Sketchy
 70
    24
177
     2
291
     0
 71
     1
176
     1
 72
     2
176
     1
 73
     2
176
     1
 90
        0
176
     1
 40
0.6
176
     1
 41
30.0
176
     1
 63
     7
421
 16777215
176
     1
 74
     2
176
     1
 91
        2
176
     1
 64
     7
176
     1
 65
     7
176
     1
 75
     1
176
     1
175
     1
176
     1
 42
40.0
176
     1
 92
       11
176
     1
 66
     7
176
     1
 43
1.0
176
     1
 76
     1
176
     1
 77
     6
176
     1
 78
     2
176
     1
 67
     7
176
     1
 79
     6
176
     1
170
     0
176
     1
171
     0
176
     1
290
     0
176
     1
 93
        1
176
     1
 44
0.0
176
     1
173
     0
176
     1
1001
ACAD
1000
AcDbSavedByObjectVersion
1070
     0
  0
VISUALSTYLE
  5
421
102
{ACAD_XDICTIONARY
360
4B8
102
}
102
{ACAD_REACTORS
330
414
102
}
330
414
100
AcDbVisualStyle
  2
Thicken
 70
    13
177
     2
291
     1
 71
     2
176
     1
 72
     2
176
     1
 73
     0
176
     1
 90
        0
176
     1
 40
0.6
176
     1
 41
30.0
176
     1
 63
     7
421
 16777215
176
     1
 74
     1
176
     1
 91
        4
176
     1
 64
     7
176
     1
 65
   257
176
     1
 75
     1
176
     1
175
     1
176
     1
 42
1.0
176
     1
 92
       12
176
     1
 66
     7
176
     1
 43
1.0
176
     1
 76
     1
176
     1
 77
     6
176
     1
 78
     2
176
     1
 67
     7
176
     1
 79
     5
176
     1
170
     0
176
     1
171
     0
176
     1
290
     0
176
     1
 93
        1
176
     1
 44
0.0
176
     1
173
     0
176
     1
1001
ACAD
1000
AcDbSavedByObjectVersion
1070
     0
  0
VISUALSTYLE
  5
41B
102
{ACAD_XDICTIONARY
360
4AC
102
}
102
{ACAD_REACTORS
330
414
102
}
330
414
100
AcDbVisualStyle
  2
Wireframe
 70
     5
177
     2
291
     0
 71
     0
176
     1
 72
     2
176
     1
 73
     0
176
     1
 90
        0
176
     1
 40
0.6
176
     1
 41
30.0
176
     1
 63
     7
421
 16777215
176
     1
 74
     1
176
     1
 91
        4
176
     1
 64
     7
176
     1
 65
   257
176
     1
 75
     1
176
     1
175
     1
176
     1
 42
1.0
176
     1
 92
        0
176
     1
 66
   257
176
     1
 43
1.0
176
     1
 76
     1
176
     1
 77
     6
176
     1
 78
     2
176
     1
 67
     7
176
     1
 79
     3
176
     1
170
     0
176
     1
171
     0
176
     1
290
     0
176
     1
 93
        1
176
     1
 44
0.0
176
     1
173
     0
176
     1
1001
ACAD
1000
AcDbSavedByObjectVersion
1070
     0
  0
VISUALSTYLE
  5
427
102
{ACAD_XDICTIONARY
360
4C4
102
}
102
{ACAD_REACTORS
330
414
102
}
330
414
100
AcDbVisualStyle
  2
X-Ray
 70
    25
177
     2
291
     0
 71
     2
176
     1
 72
     2
176
     1
 73
     1
176
     1
 90
        1
176
     1
 40
0.5
176
     1
 41
30.0
176
     1
 63
     7
421
 16777215
176
     1
 74
     1
176
     1
 91
        0
176
     1
 64
     7
176
     1
 65
   257
176
     1
 75
     1
176
     1
175
     1
176
     1
 42
1.0
176
     1
 92
        8
176
     1
 66
     7
176
     1
 43
1.0
176
     1
 76
     1
176
     1
 77
     6
176
     1
 78
     2
176
     1
 67
     7
176
     1
 79
     3
176
     1
170
     0
176
     1
171
     0
176
     1
290
     0
176
     1
 93
       13
176
     1
 44
0.0
176
     1
173
     0
176
     1
1001
ACAD
1000
AcDbSavedByObjectVersion
1070
     0
  0
DICTIONARYVAR
  5
499
102
{ACAD_REACTORS
330
493
102
}
330
493
100
DictionaryVariables
280
     0
  1
1:1
  0
DICTIONARYVAR
  5
495
102
{ACAD_REACTORS
330
493
102
}
330
493
100
DictionaryVariables
280
     0
  1
STANDARD
  0
DICTIONARYVAR
  5
494
102
{ACAD_REACTORS
330
493
102
}
330
493
100
DictionaryVariables
280
     0
  1
STANDARD
  0
DICTIONARYVAR
  5
496
102
{ACAD_REACTORS
330
493
102
}
330
493
100
DictionaryVariables
280
     0
  1
Metric50
  0
DICTIONARYVAR
  5
497
102
{ACAD_REACTORS
330
493
102
}
330
493
100
DictionaryVariables
280
     0
  1
Metric50
  0
DICTIONARYVAR
  5
49B
102
{ACAD_REACTORS
330
493
102
}
330
493
100
DictionaryVariables
280
     0
  1
1
  0
DICTIONARYVAR
  5
49C
102
{ACAD_REACTORS
330
493
102
}
330
493
100
DictionaryVariables
280
     0
  1
15
  0
DICTIONARYVAR
  5
49A
102
{ACAD_REACTORS
330
493
102
}
330
493
100
DictionaryVariables
280
     0
  1
0
  0
DICTIONARYVAR
  5
498
102
{ACAD_REACTORS
330
493
102
}
330
493
100
DictionaryVariables
280
     0
  1
0
  0
DICTIONARY
  5
4D4
330
447
100
AcDbDictionary
280
     1
281
     1
  3
ACAD_XREC_ROUNDTRIP
360
4D5
  0
DICTIONARY
  5
405
330
404
100
AcDbDictionary
280
     1
281
     1
  3
BUMPTILE
360
407
  3
DIFFUSETILE
360
406
  3
OPACITYTILE
360
40A
  3
REFLECTIONTILE
360
409
  3
REFRACTIONTILE
360
40B
  3
SPECULARTILE
360
408
  0
DICTIONARY
  5
3FD
330
3FC
100
AcDbDictionary
280
     1
281
     1
  3
BUMPTILE
360
3FF
  3
DIFFUSETILE
360
3FE
  3
OPACITYTILE
360
402
  3
REFLECTIONTILE
360
401
  3
REFRACTIONTILE
360
403
  3
SPECULARTILE
360
400
  0
DICTIONARY
  5
40D
330
40C
100
AcDbDictionary
280
     1
281
     1
  3
BUMPTILE
360
40F
  3
DIFFUSETILE
360
40E
  3
OPACITYTILE
360
412
  3
REFLECTIONTILE
360
411
  3
REFRACTIONTILE
360
413
  3
SPECULARTILE
360
410
  0
DICTIONARY
  5
4D0
330
443
100
AcDbDictionary
280
     1
281
     1
  3
ACAD_XREC_ROUNDTRIP
360
4D1
  0
DICTIONARY
  5
4D2
330
445
100
AcDbDictionary
280
     1
281
     1
  3
ACAD_XREC_ROUNDTRIP
360
4D3
  0
DICTIONARY
  5
49D
330
42F
100
AcDbDictionary
280
     1
281
     1
  3
ACAD_ROUNDTRIP_2008_TABLESTYLE_CELLSTYLEMAP
360
49E
  0
DICTIONARY
  5
4AA
330
41A
100
AcDbDictionary
280
     1
281
     1
  3
ACAD_XREC_ROUNDTRIP
360
4AB
  0
DICTIONARY
  5
4A8
330
419
100
AcDbDictionary
280
     1
281
     1
  3
ACAD_XREC_ROUNDTRIP
360
4A9
  0
DICTIONARY
  5
4B6
330
420
100
AcDbDictionary
280
     1
281
     1
  3
ACAD_XREC_ROUNDTRIP
360
4B7
  0
DICTIONARY
  5
4BE
330
424
100
AcDbDictionary
280
     1
281
     1
  3
ACAD_XREC_ROUNDTRIP
360
4BF
  0
DICTIONARY
  5
4B0
330
41D
100
AcDbDictionary
280
     1
281
     1
  3
ACAD_XREC_ROUNDTRIP
360
4B1
  0
DICTIONARY
  5
4B4
330
41F
100
AcDbDictionary
280
     1
281
     1
  3
ACAD_XREC_ROUNDTRIP
360
4B5
  0
DICTIONARY
  5
4CE
330
42C
100
AcDbDictionary
280
     1
281
     1
  3
ACAD_XREC_ROUNDTRIP
360
4CF
  0
DICTIONARY
  5
4BC
330
423
100
AcDbDictionary
280
     1
281
     1
  3
ACAD_XREC_ROUNDTRIP
360
4BD
  0
DICTIONARY
  5
4A0
330
415
100
AcDbDictionary
280
     1
281
     1
  3
ACAD_XREC_ROUNDTRIP
360
4A1
  0
DICTIONARY
  5
4A2
330
416
100
AcDbDictionary
280
     1
281
     1
  3
ACAD_XREC_ROUNDTRIP
360
4A3
  0
DICTIONARY
  5
4A4
330
417
100
AcDbDictionary
280
     1
281
     1
  3
ACAD_XREC_ROUNDTRIP
360
4A5
  0
DICTIONARY
  5
4A6
330
418
100
AcDbDictionary
280
     1
281
     1
  3
ACAD_XREC_ROUNDTRIP
360
4A7
  0
DICTIONARY
  5
4AE
330
41C
100
AcDbDictionary
280
     1
281
     1
  3
ACAD_XREC_ROUNDTRIP
360
4AF
  0
DICTIONARY
  5
4CA
330
42A
100
AcDbDictionary
280
     1
281
     1
  3
ACAD_XREC_ROUNDTRIP
360
4CB
  0
DICTIONARY
  5
4BA
330
422
100
AcDbDictionary
280
     1
281
     1
  3
ACAD_XREC_ROUNDTRIP
360
4BB
  0
DICTIONARY
  5
4CC
330
42B
100
AcDbDictionary
280
     1
281
     1
  3
ACAD_XREC_ROUNDTRIP
360
4CD
  0
DICTIONARY
  5
4B2
330
41E
100
AcDbDictionary
280
     1
281
     1
  3
ACAD_XREC_ROUNDTRIP
360
4B3
  0
DICTIONARY
  5
4C8
330
429
100
AcDbDictionary
280
     1
281
     1
  3
ACAD_XREC_ROUNDTRIP
360
4C9
  0
DICTIONARY
  5
4C6
330
428
100
AcDbDictionary
280
     1
281
     1
  3
ACAD_XREC_ROUNDTRIP
360
4C7
  0
DICTIONARY
  5
4C0
330
425
100
AcDbDictionary
280
     1
281
     1
  3
ACAD_XREC_ROUNDTRIP
360
4C1
  0
DICTIONARY
  5
4C2
330
426
100
AcDbDictionary
280
     1
281
     1
  3
ACAD_XREC_ROUNDTRIP
360
4C3
  0
DICTIONARY
  5
4B8
330
421
100
AcDbDictionary
280
     1
281
     1
  3
ACAD_XREC_ROUNDTRIP
360
4B9
  0
DICTIONARY
  5
4AC
330
41B
100
AcDbDictionary
280
     1
281
     1
  3
ACAD_XREC_ROUNDTRIP
360
4AD
  0
DICTIONARY
  5
4C4
330
427
100
AcDbDictionary
280
     1
281
     1
  3
ACAD_XREC_ROUNDTRIP
360
4C5
  0
XRECORD
  5
4D5
102
{ACAD_REACTORS
330
4D4
102
}
330
4D4
100
AcDbXrecord
280
     1
102
DISPLAYNAME
  1
Metric50
102
FLAGS
 90
        0
  0
XRECORD
  5
407
102
{ACAD_REACTORS
330
405
102
}
330
405
100
AcDbXrecord
280
     1
270
     1
271
     1
  0
XRECORD
  5
406
102
{ACAD_REACTORS
330
405
102
}
330
405
100
AcDbXrecord
280
     1
270
     1
271
     1
  0
XRECORD
  5
40A
102
{ACAD_REACTORS
330
405
102
}
330
405
100
AcDbXrecord
280
     1
270
     1
271
     1
  0
XRECORD
  5
409
102
{ACAD_REACTORS
330
405
102
}
330
405
100
AcDbXrecord
280
     1
270
     1
271
     1
  0
XRECORD
  5
40B
102
{ACAD_REACTORS
330
405
102
}
330
405
100
AcDbXrecord
280
     1
270
     1
271
     1
  0
XRECORD
  5
408
102
{ACAD_REACTORS
330
405
102
}
330
405
100
AcDbXrecord
280
     1
270
     1
271
     1
  0
XRECORD
  5
3FF
102
{ACAD_REACTORS
330
3FD
102
}
330
3FD
100
AcDbXrecord
280
     1
270
     1
271
     1
  0
XRECORD
  5
3FE
102
{ACAD_REACTORS
330
3FD
102
}
330
3FD
100
AcDbXrecord
280
     1
270
     1
271
     1
  0
XRECORD
  5
402
102
{ACAD_REACTORS
330
3FD
102
}
330
3FD
100
AcDbXrecord
280
     1
270
     1
271
     1
  0
XRECORD
  5
401
102
{ACAD_REACTORS
330
3FD
102
}
330
3FD
100
AcDbXrecord
280
     1
270
     1
271
     1
  0
XRECORD
  5
403
102
{ACAD_REACTORS
330
3FD
102
}
330
3FD
100
AcDbXrecord
280
     1
270
     1
271
     1
  0
XRECORD
  5
400
102
{ACAD_REACTORS
330
3FD
102
}
330
3FD
100
AcDbXrecord
280
     1
270
     1
271
     1
  0
XRECORD
  5
40F
102
{ACAD_REACTORS
330
40D
102
}
330
40D
100
AcDbXrecord
280
     1
270
     1
271
     1
  0
XRECORD
  5
40E
102
{ACAD_REACTORS
330
40D
102
}
330
40D
100
AcDbXrecord
280
     1
270
     1
271
     1
  0
XRECORD
  5
412
102
{ACAD_REACTORS
330
40D
102
}
330
40D
100
AcDbXrecord
280
     1
270
     1
271
     1
  0
XRECORD
  5
411
102
{ACAD_REACTORS
330
40D
102
}
330
40D
100
AcDbXrecord
280
     1
270
     1
271
     1
  0
XRECORD
  5
413
102
{ACAD_REACTORS
330
40D
102
}
330
40D
100
AcDbXrecord
280
     1
270
     1
271
     1
  0
XRECORD
  5
410
102
{ACAD_REACTORS
330
40D
102
}
330
40D
100
AcDbXrecord
280
     1
270
     1
271
     1
  0
XRECORD
  5
4D1
102
{ACAD_REACTORS
330
4D0
102
}
330
4D0
100
AcDbXrecord
280
     1
102
ACAD_ROUNDTRIP_2012_MLEADER_STYLE
298
     1
  0
XRECORD
  5
4D3
102
{ACAD_REACTORS
330
4D2
102
}
330
4D2
100
AcDbXrecord
280
     1
102
DISPLAYNAME
  1
Metric50
102
FLAGS
 90
        0
  0
CELLSTYLEMAP
  5
49E
102
{ACAD_REACTORS
330
49D
102
}
330
49D
100
AcDbCellStyleMap
 90
        3
300
CELLSTYLE
  1
TABLEFORMAT_BEGIN
 90
        5
170
     1
 91
        0
 92
    32768
 62
   257
 93
        1
300
CONTENTFORMAT
  1
CONTENTFORMAT_BEGIN
 90
        0
 91
        0
 92
      512
 93
        0
300

 40
0.0
140
1.0
 94
        5
 62
     0
340
17
144
6.0
309
CONTENTFORMAT_END
171
     1
301
MARGIN
  1
CELLMARGIN_BEGIN
 40
1.5
 40
1.5
 40
1.5
 40
1.5
 40
4.5
 40
4.5
309
CELLMARGIN_END
 94
        6
 95
        1
302
GRIDFORMAT
  1
GRIDFORMAT_BEGIN
 90
        0
 91
        1
 62
     0
 92
       -2
340
0
 93
        0
 40
1.125
309
GRIDFORMAT_END
 95
        2
302
GRIDFORMAT
  1
GRIDFORMAT_BEGIN
 90
        0
 91
        1
 62
     0
 92
       -2
340
0
 93
        0
 40
1.125
309
GRIDFORMAT_END
 95
        4
302
GRIDFORMAT
  1
GRIDFORMAT_BEGIN
 90
        0
 91
        1
 62
     0
 92
       -2
340
0
 93
        0
 40
1.125
309
GRIDFORMAT_END
 95
        8
302
GRIDFORMAT
  1
GRIDFORMAT_BEGIN
 90
        0
 91
        1
 62
     0
 92
       -2
340
0
 93
        0
 40
1.125
309
GRIDFORMAT_END
 95
       16
302
GRIDFORMAT
  1
GRIDFORMAT_BEGIN
 90
        0
 91
        1
 62
     0
 92
       -2
340
0
 93
        0
 40
1.125
309
GRIDFORMAT_END
 95
       32
302
GRIDFORMAT
  1
GRIDFORMAT_BEGIN
 90
        0
 91
        1
 62
     0
 92
       -2
340
0
 93
        0
 40
1.125
309
GRIDFORMAT_END
309
TABLEFORMAT_END
  1
CELLSTYLE_BEGIN
 90
        1
 91
        1
300
_TITLE
309
CELLSTYLE_END
300
CELLSTYLE
  1
TABLEFORMAT_BEGIN
 90
        5
170
     1
 91
        0
 92
        0
 62
   257
 93
        1
300
CONTENTFORMAT
  1
CONTENTFORMAT_BEGIN
 90
        0
 91
        0
 92
      512
 93
        0
300

 40
0.0
140
1.0
 94
        5
 62
     0
340
17
144
4.5
309
CONTENTFORMAT_END
171
     1
301
MARGIN
  1
CELLMARGIN_BEGIN
 40
1.5
 40
1.5
 40
1.5
 40
1.5
 40
4.5
 40
4.5
309
CELLMARGIN_END
 94
        6
 95
        1
302
GRIDFORMAT
  1
GRIDFORMAT_BEGIN
 90
        0
 91
        1
 62
     0
 92
       -2
340
0
 93
        0
 40
1.125
309
GRIDFORMAT_END
 95
        2
302
GRIDFORMAT
  1
GRIDFORMAT_BEGIN
 90
        0
 91
        1
 62
     0
 92
       -2
340
0
 93
        0
 40
1.125
309
GRIDFORMAT_END
 95
        4
302
GRIDFORMAT
  1
GRIDFORMAT_BEGIN
 90
        0
 91
        1
 62
     0
 92
       -2
340
0
 93
        0
 40
1.125
309
GRIDFORMAT_END
 95
        8
302
GRIDFORMAT
  1
GRIDFORMAT_BEGIN
 90
        0
 91
        1
 62
     0
 92
       -2
340
0
 93
        0
 40
1.125
309
GRIDFORMAT_END
 95
       16
302
GRIDFORMAT
  1
GRIDFORMAT_BEGIN
 90
        0
 91
        1
 62
     0
 92
       -2
340
0
 93
        0
 40
1.125
309
GRIDFORMAT_END
 95
       32
302
GRIDFORMAT
  1
GRIDFORMAT_BEGIN
 90
        0
 91
        1
 62
     0
 92
       -2
340
0
 93
        0
 40
1.125
309
GRIDFORMAT_END
309
TABLEFORMAT_END
  1
CELLSTYLE_BEGIN
 90
        2
 91
        1
300
_HEADER
309
CELLSTYLE_END
300
CELLSTYLE
  1
TABLEFORMAT_BEGIN
 90
        5
170
     1
 91
        0
 92
        0
 62
   257
 93
        1
300
CONTENTFORMAT
  1
CONTENTFORMAT_BEGIN
 90
        0
 91
        0
 92
      512
 93
        0
300

 40
0.0
140
1.0
 94
        2
 62
     0
340
17
144
4.5
309
CONTENTFORMAT_END
171
     1
301
MARGIN
  1
CELLMARGIN_BEGIN
 40
1.5
 40
1.5
 40
1.5
 40
1.5
 40
4.5
 40
4.5
309
CELLMARGIN_END
 94
        6
 95
        1
302
GRIDFORMAT
  1
GRIDFORMAT_BEGIN
 90
        0
 91
        1
 62
     0
 92
       -2
340
0
 93
        0
 40
1.125
309
GRIDFORMAT_END
 95
        2
302
GRIDFORMAT
  1
GRIDFORMAT_BEGIN
 90
        0
 91
        1
 62
     0
 92
       -2
340
0
 93
        0
 40
1.125
309
GRIDFORMAT_END
 95
        4
302
GRIDFORMAT
  1
GRIDFORMAT_BEGIN
 90
        0
 91
        1
 62
     0
 92
       -2
340
0
 93
        0
 40
1.125
309
GRIDFORMAT_END
 95
        8
302
GRIDFORMAT
  1
GRIDFORMAT_BEGIN
 90
        0
 91
        1
 62
     0
 92
       -2
340
0
 93
        0
 40
1.125
309
GRIDFORMAT_END
 95
       16
302
GRIDFORMAT
  1
GRIDFORMAT_BEGIN
 90
        0
 91
        1
 62
     0
 92
       -2
340
0
 93
        0
 40
1.125
309
GRIDFORMAT_END
 95
       32
302
GRIDFORMAT
  1
GRIDFORMAT_BEGIN
 90
        0
 91
        1
 62
     0
 92
       -2
340
0
 93
        0
 40
1.125
309
GRIDFORMAT_END
309
TABLEFORMAT_END
  1
CELLSTYLE_BEGIN
 90
        3
 91
        2
300
_DATA
309
CELLSTYLE_END
  0
XRECORD
  5
4AB
102
{ACAD_REACTORS
330
4AA
102
}
330
4AA
100
AcDbXrecord
280
     1
102
RTVSPost2010Prop28
280
     1
102
RTVSPost2010PropOp28
 70
     1
102
RTVSPost2010Prop29
280
     1
102
RTVSPost2010PropOp29
 70
     1
102
RTVSPost2010Prop30
280
     0
102
RTVSPost2010PropOp30
 70
     1
102
RTVSPost2010Prop31
280
     0
102
RTVSPost2010PropOp31
 70
     1
102
RTVSPost2010Prop32
280
     0
102
RTVSPost2010PropOp32
 70
     1
102
RTVSPost2010Prop33
280
     0
102
RTVSPost2010PropOp33
 70
     1
102
RTVSPost2010Prop34
280
     0
102
RTVSPost2010PropOp34
 70
     1
102
RTVSPost2010Prop35
280
     0
102
RTVSPost2010PropOp35
 70
     1
102
RTVSPost2010Prop36
280
     0
102
RTVSPost2010PropOp36
 70
     1
102
RTVSPost2010Prop37
 90
       50
102
RTVSPost2010PropOp37
 70
     1
102
RTVSPost2010Prop38
140
0.0
102
RTVSPost2010PropOp38
 70
     1
102
RTVSPost2010Prop39
140
1.0
102
RTVSPost2010PropOp39
 70
     1
102
RTVSPost2010Prop40
 90
        0
102
RTVSPost2010PropOp40
 70
     1
102
RTVSPost2010Prop41ColorIndex
 90
       18
102
RTVSPost2010Prop41ColorRGB
 90
        0
102
RTVSPost2010PropOp41
 70
     1
102
RTVSPost2010Prop42
 90
       50
102
RTVSPost2010PropOp42
 70
     1
102
RTVSPost2010Prop43
 90
        3
102
RTVSPost2010PropOp43
 70
     1
102
RTVSPost2010Prop44ColorIndex
 90
        5
102
RTVSPost2010Prop44ColorRGB
 90
      255
102
RTVSPost2010PropOp44
 70
     1
102
RTVSPost2010Prop45
280
     0
102
RTVSPost2010PropOp45
 70
     1
102
RTVSPost2010Prop46
 90
       50
102
RTVSPost2010PropOp46
 70
     1
102
RTVSPost2010Prop47
 90
       50
102
RTVSPost2010PropOp47
 70
     1
102
RTVSPost2010Prop48
 90
       50
102
RTVSPost2010PropOp48
 70
     1
102
RTVSPost2010Prop49
280
     0
102
RTVSPost2010PropOp49
 70
     1
102
RTVSPost2010Prop50
 90
       50
102
RTVSPost2010PropOp50
 70
     1
102
RTVSPost2010Prop51ColorIndex
 90
      256
102
RTVSPost2010Prop51ColorRGB
 90
-16777216
102
RTVSPost2010PropOp51
 70
     0
102
RTVSPost2010Prop52
140
1.0
102
RTVSPost2010PropOp52
 70
     0
102
RTVSPost2010Prop53
 90
        2
102
RTVSPost2010PropOp53
 70
     1
102
RTVSPost2010Prop54
  1
strokes_ogs.tif
102
RTVSPost2010PropOp54
 70
     1
102
RTVSPost2010Prop55
280
     0
102
RTVSPost2010PropOp55
 70
     1
102
RTVSPost2010Prop56
140
1.0
102
RTVSPost2010PropOp56
 70
     1
102
RTVSPost2010Prop57
140
1.0
102
RTVSPost2010PropOp57
 70
     1
  0
XRECORD
  5
4A9
102
{ACAD_REACTORS
330
4A8
102
}
330
4A8
100
AcDbXrecord
280
     1
102
RTVSPost2010Prop28
280
     0
102
RTVSPost2010PropOp28
 70
     1
102
RTVSPost2010Prop29
280
     1
102
RTVSPost2010PropOp29
 70
     1
102
RTVSPost2010Prop30
280
     1
102
RTVSPost2010PropOp30
 70
     1
102
RTVSPost2010Prop31
280
     0
102
RTVSPost2010PropOp31
 70
     1
102
RTVSPost2010Prop32
280
     0
102
RTVSPost2010PropOp32
 70
     1
102
RTVSPost2010Prop33
280
     0
102
RTVSPost2010PropOp33
 70
     1
102
RTVSPost2010Prop34
280
     0
102
RTVSPost2010PropOp34
 70
     1
102
RTVSPost2010Prop35
280
     0
102
RTVSPost2010PropOp35
 70
     1
102
RTVSPost2010Prop36
280
     0
102
RTVSPost2010PropOp36
 70
     1
102
RTVSPost2010Prop37
 90
       50
102
RTVSPost2010PropOp37
 70
     1
102
RTVSPost2010Prop38
140
0.0
102
RTVSPost2010PropOp38
 70
     1
102
RTVSPost2010Prop39
140
1.0
102
RTVSPost2010PropOp39
 70
     1
102
RTVSPost2010Prop40
 90
        0
102
RTVSPost2010PropOp40
 70
     1
102
RTVSPost2010Prop41ColorIndex
 90
       18
102
RTVSPost2010Prop41ColorRGB
 90
        0
102
RTVSPost2010PropOp41
 70
     1
102
RTVSPost2010Prop42
 90
       50
102
RTVSPost2010PropOp42
 70
     1
102
RTVSPost2010Prop43
 90
        3
102
RTVSPost2010PropOp43
 70
     1
102
RTVSPost2010Prop44ColorIndex
 90
        5
102
RTVSPost2010Prop44ColorRGB
 90
      255
102
RTVSPost2010PropOp44
 70
     1
102
RTVSPost2010Prop45
280
     0
102
RTVSPost2010PropOp45
 70
     1
102
RTVSPost2010Prop46
 90
       50
102
RTVSPost2010PropOp46
 70
     1
102
RTVSPost2010Prop47
 90
       50
102
RTVSPost2010PropOp47
 70
     1
102
RTVSPost2010Prop48
 90
       50
102
RTVSPost2010PropOp48
 70
     1
102
RTVSPost2010Prop49
280
     0
102
RTVSPost2010PropOp49
 70
     1
102
RTVSPost2010Prop50
 90
       50
102
RTVSPost2010PropOp50
 70
     1
102
RTVSPost2010Prop51ColorIndex
 90
      256
102
RTVSPost2010Prop51ColorRGB
 90
-16777216
102
RTVSPost2010PropOp51
 70
     0
102
RTVSPost2010Prop52
140
1.0
102
RTVSPost2010PropOp52
 70
     0
102
RTVSPost2010Prop53
 90
        2
102
RTVSPost2010PropOp53
 70
     1
102
RTVSPost2010Prop54
  1
strokes_ogs.tif
102
RTVSPost2010PropOp54
 70
     1
102
RTVSPost2010Prop55
280
     0
102
RTVSPost2010PropOp55
 70
     1
102
RTVSPost2010Prop56
140
1.0
102
RTVSPost2010PropOp56
 70
     1
102
RTVSPost2010Prop57
140
1.0
102
RTVSPost2010PropOp57
 70
     1
  0
XRECORD
  5
4B7
102
{ACAD_REACTORS
330
4B6
102
}
330
4B6
100
AcDbXrecord
280
     1
102
RTVSPost2010Prop28
280
     0
102
RTVSPost2010PropOp28
 70
     1
102
RTVSPost2010Prop29
280
     1
102
RTVSPost2010PropOp29
 70
     1
102
RTVSPost2010Prop30
280
     1
102
RTVSPost2010PropOp30
 70
     1
102
RTVSPost2010Prop31
280
     0
102
RTVSPost2010PropOp31
 70
     1
102
RTVSPost2010Prop32
280
     0
102
RTVSPost2010PropOp32
 70
     1
102
RTVSPost2010Prop33
280
     0
102
RTVSPost2010PropOp33
 70
     1
102
RTVSPost2010Prop34
280
     0
102
RTVSPost2010PropOp34
 70
     1
102
RTVSPost2010Prop35
280
     0
102
RTVSPost2010PropOp35
 70
     1
102
RTVSPost2010Prop36
280
     0
102
RTVSPost2010PropOp36
 70
     1
102
RTVSPost2010Prop37
 90
       50
102
RTVSPost2010PropOp37
 70
     1
102
RTVSPost2010Prop38
140
0.0
102
RTVSPost2010PropOp38
 70
     1
102
RTVSPost2010Prop39
140
1.0
102
RTVSPost2010PropOp39
 70
     1
102
RTVSPost2010Prop40
 90
        0
102
RTVSPost2010PropOp40
 70
     1
102
RTVSPost2010Prop41ColorIndex
 90
       18
102
RTVSPost2010Prop41ColorRGB
 90
        0
102
RTVSPost2010PropOp41
 70
     1
102
RTVSPost2010Prop42
 90
       50
102
RTVSPost2010PropOp42
 70
     1
102
RTVSPost2010Prop43
 90
        3
102
RTVSPost2010PropOp43
 70
     1
102
RTVSPost2010Prop44ColorIndex
 90
        5
102
RTVSPost2010Prop44ColorRGB
 90
      255
102
RTVSPost2010PropOp44
 70
     1
102
RTVSPost2010Prop45
280
     0
102
RTVSPost2010PropOp45
 70
     1
102
RTVSPost2010Prop46
 90
       50
102
RTVSPost2010PropOp46
 70
     1
102
RTVSPost2010Prop47
 90
       50
102
RTVSPost2010PropOp47
 70
     1
102
RTVSPost2010Prop48
 90
       50
102
RTVSPost2010PropOp48
 70
     1
102
RTVSPost2010Prop49
280
     0
102
RTVSPost2010PropOp49
 70
     1
102
RTVSPost2010Prop50
 90
       50
102
RTVSPost2010PropOp50
 70
     1
102
RTVSPost2010Prop51ColorIndex
 90
      256
102
RTVSPost2010Prop51ColorRGB
 90
-16777216
102
RTVSPost2010PropOp51
 70
     0
102
RTVSPost2010Prop52
140
1.0
102
RTVSPost2010PropOp52
 70
     0
102
RTVSPost2010Prop53
 90
        2
102
RTVSPost2010PropOp53
 70
     1
102
RTVSPost2010Prop54
  1
strokes_ogs.tif
102
RTVSPost2010PropOp54
 70
     1
102
RTVSPost2010Prop55
280
     0
102
RTVSPost2010PropOp55
 70
     1
102
RTVSPost2010Prop56
140
1.0
102
RTVSPost2010PropOp56
 70
     1
102
RTVSPost2010Prop57
140
1.0
102
RTVSPost2010PropOp57
 70
     1
  0
XRECORD
  5
4BF
102
{ACAD_REACTORS
330
4BE
102
}
330
4BE
100
AcDbXrecord
280
     1
102
RTVSPost2010Prop28
280
     0
102
RTVSPost2010PropOp28
 70
     1
102
RTVSPost2010Prop29
280
     1
102
RTVSPost2010PropOp29
 70
     1
102
RTVSPost2010Prop30
280
     1
102
RTVSPost2010PropOp30
 70
     1
102
RTVSPost2010Prop31
280
     0
102
RTVSPost2010PropOp31
 70
     1
102
RTVSPost2010Prop32
280
     0
102
RTVSPost2010PropOp32
 70
     1
102
RTVSPost2010Prop33
280
     0
102
RTVSPost2010PropOp33
 70
     1
102
RTVSPost2010Prop34
280
     0
102
RTVSPost2010PropOp34
 70
     1
102
RTVSPost2010Prop35
280
     0
102
RTVSPost2010PropOp35
 70
     1
102
RTVSPost2010Prop36
280
     0
102
RTVSPost2010PropOp36
 70
     1
102
RTVSPost2010Prop37
 90
       50
102
RTVSPost2010PropOp37
 70
     1
102
RTVSPost2010Prop38
140
0.0
102
RTVSPost2010PropOp38
 70
     1
102
RTVSPost2010Prop39
140
1.0
102
RTVSPost2010PropOp39
 70
     1
102
RTVSPost2010Prop40
 90
        0
102
RTVSPost2010PropOp40
 70
     1
102
RTVSPost2010Prop41ColorIndex
 90
       18
102
RTVSPost2010Prop41ColorRGB
 90
        0
102
RTVSPost2010PropOp41
 70
     1
102
RTVSPost2010Prop42
 90
       50
102
RTVSPost2010PropOp42
 70
     1
102
RTVSPost2010Prop43
 90
        3
102
RTVSPost2010PropOp43
 70
     1
102
RTVSPost2010Prop44ColorIndex
 90
        5
102
RTVSPost2010Prop44ColorRGB
 90
      255
102
RTVSPost2010PropOp44
 70
     1
102
RTVSPost2010Prop45
280
     0
102
RTVSPost2010PropOp45
 70
     1
102
RTVSPost2010Prop46
 90
       50
102
RTVSPost2010PropOp46
 70
     1
102
RTVSPost2010Prop47
 90
       50
102
RTVSPost2010PropOp47
 70
     1
102
RTVSPost2010Prop48
 90
       50
102
RTVSPost2010PropOp48
 70
     1
102
RTVSPost2010Prop49
280
     0
102
RTVSPost2010PropOp49
 70
     1
102
RTVSPost2010Prop50
 90
       50
102
RTVSPost2010PropOp50
 70
     1
102
RTVSPost2010Prop51ColorIndex
 90
      256
102
RTVSPost2010Prop51ColorRGB
 90
-16777216
102
RTVSPost2010PropOp51
 70
     0
102
RTVSPost2010Prop52
140
1.0
102
RTVSPost2010PropOp52
 70
     0
102
RTVSPost2010Prop53
 90
        2
102
RTVSPost2010PropOp53
 70
     1
102
RTVSPost2010Prop54
  1
strokes_ogs.tif
102
RTVSPost2010PropOp54
 70
     1
102
RTVSPost2010Prop55
280
     0
102
RTVSPost2010PropOp55
 70
     1
102
RTVSPost2010Prop56
140
1.0
102
RTVSPost2010PropOp56
 70
     1
102
RTVSPost2010Prop57
140
1.0
102
RTVSPost2010PropOp57
 70
     1
  0
XRECORD
  5
4B1
102
{ACAD_REACTORS
330
4B0
102
}
330
4B0
100
AcDbXrecord
280
     1
102
RTVSPost2010Prop28
280
     0
102
RTVSPost2010PropOp28
 70
     1
102
RTVSPost2010Prop29
280
     1
102
RTVSPost2010PropOp29
 70
     1
102
RTVSPost2010Prop30
280
     1
102
RTVSPost2010PropOp30
 70
     1
102
RTVSPost2010Prop31
280
     0
102
RTVSPost2010PropOp31
 70
     1
102
RTVSPost2010Prop32
280
     0
102
RTVSPost2010PropOp32
 70
     1
102
RTVSPost2010Prop33
280
     0
102
RTVSPost2010PropOp33
 70
     1
102
RTVSPost2010Prop34
280
     0
102
RTVSPost2010PropOp34
 70
     1
102
RTVSPost2010Prop35
280
     0
102
RTVSPost2010PropOp35
 70
     1
102
RTVSPost2010Prop36
280
     0
102
RTVSPost2010PropOp36
 70
     1
102
RTVSPost2010Prop37
 90
       50
102
RTVSPost2010PropOp37
 70
     1
102
RTVSPost2010Prop38
140
0.0
102
RTVSPost2010PropOp38
 70
     1
102
RTVSPost2010Prop39
140
1.0
102
RTVSPost2010PropOp39
 70
     1
102
RTVSPost2010Prop40
 90
        0
102
RTVSPost2010PropOp40
 70
     1
102
RTVSPost2010Prop41ColorIndex
 90
       18
102
RTVSPost2010Prop41ColorRGB
 90
        0
102
RTVSPost2010PropOp41
 70
     1
102
RTVSPost2010Prop42
 90
       50
102
RTVSPost2010PropOp42
 70
     1
102
RTVSPost2010Prop43
 90
        3
102
RTVSPost2010PropOp43
 70
     1
102
RTVSPost2010Prop44ColorIndex
 90
        5
102
RTVSPost2010Prop44ColorRGB
 90
      255
102
RTVSPost2010PropOp44
 70
     1
102
RTVSPost2010Prop45
280
     0
102
RTVSPost2010PropOp45
 70
     1
102
RTVSPost2010Prop46
 90
       50
102
RTVSPost2010PropOp46
 70
     1
102
RTVSPost2010Prop47
 90
       50
102
RTVSPost2010PropOp47
 70
     1
102
RTVSPost2010Prop48
 90
       50
102
RTVSPost2010PropOp48
 70
     1
102
RTVSPost2010Prop49
280
     0
102
RTVSPost2010PropOp49
 70
     1
102
RTVSPost2010Prop50
 90
       50
102
RTVSPost2010PropOp50
 70
     1
102
RTVSPost2010Prop51ColorIndex
 90
      256
102
RTVSPost2010Prop51ColorRGB
 90
-16777216
102
RTVSPost2010PropOp51
 70
     0
102
RTVSPost2010Prop52
140
1.0
102
RTVSPost2010PropOp52
 70
     0
102
RTVSPost2010Prop53
 90
        2
102
RTVSPost2010PropOp53
 70
     1
102
RTVSPost2010Prop54
  1
strokes_ogs.tif
102
RTVSPost2010PropOp54
 70
     1
102
RTVSPost2010Prop55
280
     0
102
RTVSPost2010PropOp55
 70
     1
102
RTVSPost2010Prop56
140
1.0
102
RTVSPost2010PropOp56
 70
     1
102
RTVSPost2010Prop57
140
1.0
102
RTVSPost2010PropOp57
 70
     1
  0
XRECORD
  5
4B5
102
{ACAD_REACTORS
330
4B4
102
}
330
4B4
100
AcDbXrecord
280
     1
102
RTVSPost2010Prop28
280
     0
102
RTVSPost2010PropOp28
 70
     1
102
RTVSPost2010Prop29
280
     1
102
RTVSPost2010PropOp29
 70
     1
102
RTVSPost2010Prop30
280
     1
102
RTVSPost2010PropOp30
 70
     1
102
RTVSPost2010Prop31
280
     0
102
RTVSPost2010PropOp31
 70
     1
102
RTVSPost2010Prop32
280
     0
102
RTVSPost2010PropOp32
 70
     1
102
RTVSPost2010Prop33
280
     0
102
RTVSPost2010PropOp33
 70
     1
102
RTVSPost2010Prop34
280
     0
102
RTVSPost2010PropOp34
 70
     1
102
RTVSPost2010Prop35
280
     0
102
RTVSPost2010PropOp35
 70
     1
102
RTVSPost2010Prop36
280
     0
102
RTVSPost2010PropOp36
 70
     1
102
RTVSPost2010Prop37
 90
       50
102
RTVSPost2010PropOp37
 70
     1
102
RTVSPost2010Prop38
140
0.0
102
RTVSPost2010PropOp38
 70
     1
102
RTVSPost2010Prop39
140
1.0
102
RTVSPost2010PropOp39
 70
     1
102
RTVSPost2010Prop40
 90
        0
102
RTVSPost2010PropOp40
 70
     1
102
RTVSPost2010Prop41ColorIndex
 90
       18
102
RTVSPost2010Prop41ColorRGB
 90
        0
102
RTVSPost2010PropOp41
 70
     1
102
RTVSPost2010Prop42
 90
       50
102
RTVSPost2010PropOp42
 70
     1
102
RTVSPost2010Prop43
 90
        3
102
RTVSPost2010PropOp43
 70
     1
102
RTVSPost2010Prop44ColorIndex
 90
        5
102
RTVSPost2010Prop44ColorRGB
 90
      255
102
RTVSPost2010PropOp44
 70
     1
102
RTVSPost2010Prop45
280
     0
102
RTVSPost2010PropOp45
 70
     1
102
RTVSPost2010Prop46
 90
       50
102
RTVSPost2010PropOp46
 70
     1
102
RTVSPost2010Prop47
 90
       50
102
RTVSPost2010PropOp47
 70
     1
102
RTVSPost2010Prop48
 90
       50
102
RTVSPost2010PropOp48
 70
     1
102
RTVSPost2010Prop49
280
     0
102
RTVSPost2010PropOp49
 70
     1
102
RTVSPost2010Prop50
 90
       50
102
RTVSPost2010PropOp50
 70
     1
102
RTVSPost2010Prop51ColorIndex
 90
      256
102
RTVSPost2010Prop51ColorRGB
 90
-16777216
102
RTVSPost2010PropOp51
 70
     0
102
RTVSPost2010Prop52
140
1.0
102
RTVSPost2010PropOp52
 70
     0
102
RTVSPost2010Prop53
 90
        2
102
RTVSPost2010PropOp53
 70
     1
102
RTVSPost2010Prop54
  1
strokes_ogs.tif
102
RTVSPost2010PropOp54
 70
     1
102
RTVSPost2010Prop55
280
     0
102
RTVSPost2010PropOp55
 70
     1
102
RTVSPost2010Prop56
140
1.0
102
RTVSPost2010PropOp56
 70
     1
102
RTVSPost2010Prop57
140
1.0
102
RTVSPost2010PropOp57
 70
     1
  0
XRECORD
  5
4CF
102
{ACAD_REACTORS
330
4CE
102
}
330
4CE
100
AcDbXrecord
280
     1
102
RTVSPost2010Prop28
280
     0
102
RTVSPost2010PropOp28
 70
     0
102
RTVSPost2010Prop29
280
     1
102
RTVSPost2010PropOp29
 70
     0
102
RTVSPost2010Prop30
280
     1
102
RTVSPost2010PropOp30
 70
     0
102
RTVSPost2010Prop31
280
     0
102
RTVSPost2010PropOp31
 70
     0
102
RTVSPost2010Prop32
280
     0
102
RTVSPost2010PropOp32
 70
     0
102
RTVSPost2010Prop33
280
     0
102
RTVSPost2010PropOp33
 70
     0
102
RTVSPost2010Prop34
280
     0
102
RTVSPost2010PropOp34
 70
     0
102
RTVSPost2010Prop35
280
     0
102
RTVSPost2010PropOp35
 70
     0
102
RTVSPost2010Prop36
280
     0
102
RTVSPost2010PropOp36
 70
     0
102
RTVSPost2010Prop37
 90
       50
102
RTVSPost2010PropOp37
 70
     0
102
RTVSPost2010Prop38
140
0.0
102
RTVSPost2010PropOp38
 70
     0
102
RTVSPost2010Prop39
140
1.0
102
RTVSPost2010PropOp39
 70
     0
102
RTVSPost2010Prop40
 90
        0
102
RTVSPost2010PropOp40
 70
     0
102
RTVSPost2010Prop41ColorIndex
 90
       18
102
RTVSPost2010Prop41ColorRGB
 90
        0
102
RTVSPost2010PropOp41
 70
     0
102
RTVSPost2010Prop42
 90
       50
102
RTVSPost2010PropOp42
 70
     0
102
RTVSPost2010Prop43
 90
        3
102
RTVSPost2010PropOp43
 70
     0
102
RTVSPost2010Prop44ColorIndex
 90
        5
102
RTVSPost2010Prop44ColorRGB
 90
      255
102
RTVSPost2010PropOp44
 70
     0
102
RTVSPost2010Prop45
280
     0
102
RTVSPost2010PropOp45
 70
     0
102
RTVSPost2010Prop46
 90
       50
102
RTVSPost2010PropOp46
 70
     0
102
RTVSPost2010Prop47
 90
       50
102
RTVSPost2010PropOp47
 70
     0
102
RTVSPost2010Prop48
 90
       50
102
RTVSPost2010PropOp48
 70
     0
102
RTVSPost2010Prop49
280
     0
102
RTVSPost2010PropOp49
 70
     0
102
RTVSPost2010Prop50
 90
       50
102
RTVSPost2010PropOp50
 70
     0
102
RTVSPost2010Prop51ColorIndex
 90
      256
102
RTVSPost2010Prop51ColorRGB
 90
-16777216
102
RTVSPost2010PropOp51
 70
     0
102
RTVSPost2010Prop52
140
1.0
102
RTVSPost2010PropOp52
 70
     0
102
RTVSPost2010Prop53
 90
        2
102
RTVSPost2010PropOp53
 70
     0
102
RTVSPost2010Prop54
  1
strokes_ogs.tif
102
RTVSPost2010PropOp54
 70
     0
102
RTVSPost2010Prop55
280
     0
102
RTVSPost2010PropOp55
 70
     0
102
RTVSPost2010Prop56
140
1.0
102
RTVSPost2010PropOp56
 70
     0
102
RTVSPost2010Prop57
140
1.0
102
RTVSPost2010PropOp57
 70
     0
  0
XRECORD
  5
4BD
102
{ACAD_REACTORS
330
4BC
102
}
330
4BC
100
AcDbXrecord
280
     1
102
RTVSPost2010Prop28
280
     0
102
RTVSPost2010PropOp28
 70
     1
102
RTVSPost2010Prop29
280
     1
102
RTVSPost2010PropOp29
 70
     1
102
RTVSPost2010Prop30
280
     1
102
RTVSPost2010PropOp30
 70
     1
102
RTVSPost2010Prop31
280
     0
102
RTVSPost2010PropOp31
 70
     1
102
RTVSPost2010Prop32
280
     0
102
RTVSPost2010PropOp32
 70
     1
102
RTVSPost2010Prop33
280
     0
102
RTVSPost2010PropOp33
 70
     1
102
RTVSPost2010Prop34
280
     0
102
RTVSPost2010PropOp34
 70
     1
102
RTVSPost2010Prop35
280
     0
102
RTVSPost2010PropOp35
 70
     1
102
RTVSPost2010Prop36
280
     0
102
RTVSPost2010PropOp36
 70
     1
102
RTVSPost2010Prop37
 90
       50
102
RTVSPost2010PropOp37
 70
     1
102
RTVSPost2010Prop38
140
0.0
102
RTVSPost2010PropOp38
 70
     1
102
RTVSPost2010Prop39
140
1.0
102
RTVSPost2010PropOp39
 70
     1
102
RTVSPost2010Prop40
 90
        0
102
RTVSPost2010PropOp40
 70
     1
102
RTVSPost2010Prop41ColorIndex
 90
       18
102
RTVSPost2010Prop41ColorRGB
 90
        0
102
RTVSPost2010PropOp41
 70
     1
102
RTVSPost2010Prop42
 90
       50
102
RTVSPost2010PropOp42
 70
     1
102
RTVSPost2010Prop43
 90
        3
102
RTVSPost2010PropOp43
 70
     1
102
RTVSPost2010Prop44ColorIndex
 90
        5
102
RTVSPost2010Prop44ColorRGB
 90
      255
102
RTVSPost2010PropOp44
 70
     1
102
RTVSPost2010Prop45
280
     0
102
RTVSPost2010PropOp45
 70
     1
102
RTVSPost2010Prop46
 90
       50
102
RTVSPost2010PropOp46
 70
     1
102
RTVSPost2010Prop47
 90
       50
102
RTVSPost2010PropOp47
 70
     1
102
RTVSPost2010Prop48
 90
       50
102
RTVSPost2010PropOp48
 70
     1
102
RTVSPost2010Prop49
280
     0
102
RTVSPost2010PropOp49
 70
     1
102
RTVSPost2010Prop50
 90
       50
102
RTVSPost2010PropOp50
 70
     1
102
RTVSPost2010Prop51ColorIndex
 90
      256
102
RTVSPost2010Prop51ColorRGB
 90
-16777216
102
RTVSPost2010PropOp51
 70
     0
102
RTVSPost2010Prop52
140
1.0
102
RTVSPost2010PropOp52
 70
     0
102
RTVSPost2010Prop53
 90
        2
102
RTVSPost2010PropOp53
 70
     1
102
RTVSPost2010Prop54
  1
strokes_ogs.tif
102
RTVSPost2010PropOp54
 70
     1
102
RTVSPost2010Prop55
280
     0
102
RTVSPost2010PropOp55
 70
     1
102
RTVSPost2010Prop56
140
1.0
102
RTVSPost2010PropOp56
 70
     1
102
RTVSPost2010Prop57
140
1.0
102
RTVSPost2010PropOp57
 70
     1
  0
XRECORD
  5
4A1
102
{ACAD_REACTORS
330
4A0
102
}
330
4A0
100
AcDbXrecord
280
     1
102
RTVSPost2010Prop28
280
     0
102
RTVSPost2010PropOp28
 70
     1
102
RTVSPost2010Prop29
280
     1
102
RTVSPost2010PropOp29
 70
     1
102
RTVSPost2010Prop30
280
     1
102
RTVSPost2010PropOp30
 70
     1
102
RTVSPost2010Prop31
280
     0
102
RTVSPost2010PropOp31
 70
     1
102
RTVSPost2010Prop32
280
     0
102
RTVSPost2010PropOp32
 70
     1
102
RTVSPost2010Prop33
280
     0
102
RTVSPost2010PropOp33
 70
     1
102
RTVSPost2010Prop34
280
     0
102
RTVSPost2010PropOp34
 70
     1
102
RTVSPost2010Prop35
280
     0
102
RTVSPost2010PropOp35
 70
     1
102
RTVSPost2010Prop36
280
     0
102
RTVSPost2010PropOp36
 70
     1
102
RTVSPost2010Prop37
 90
       50
102
RTVSPost2010PropOp37
 70
     1
102
RTVSPost2010Prop38
140
0.0
102
RTVSPost2010PropOp38
 70
     1
102
RTVSPost2010Prop39
140
1.0
102
RTVSPost2010PropOp39
 70
     1
102
RTVSPost2010Prop40
 90
        0
102
RTVSPost2010PropOp40
 70
     1
102
RTVSPost2010Prop41ColorIndex
 90
       18
102
RTVSPost2010Prop41ColorRGB
 90
        0
102
RTVSPost2010PropOp41
 70
     1
102
RTVSPost2010Prop42
 90
       50
102
RTVSPost2010PropOp42
 70
     1
102
RTVSPost2010Prop43
 90
        3
102
RTVSPost2010PropOp43
 70
     1
102
RTVSPost2010Prop44ColorIndex
 90
        5
102
RTVSPost2010Prop44ColorRGB
 90
      255
102
RTVSPost2010PropOp44
 70
     1
102
RTVSPost2010Prop45
280
     0
102
RTVSPost2010PropOp45
 70
     1
102
RTVSPost2010Prop46
 90
       50
102
RTVSPost2010PropOp46
 70
     1
102
RTVSPost2010Prop47
 90
       50
102
RTVSPost2010PropOp47
 70
     1
102
RTVSPost2010Prop48
 90
       50
102
RTVSPost2010PropOp48
 70
     1
102
RTVSPost2010Prop49
280
     0
102
RTVSPost2010PropOp49
 70
     1
102
RTVSPost2010Prop50
 90
       50
102
RTVSPost2010PropOp50
 70
     1
102
RTVSPost2010Prop51ColorIndex
 90
      256
102
RTVSPost2010Prop51ColorRGB
 90
-16777216
102
RTVSPost2010PropOp51
 70
     0
102
RTVSPost2010Prop52
140
1.0
102
RTVSPost2010PropOp52
 70
     0
102
RTVSPost2010Prop53
 90
        2
102
RTVSPost2010PropOp53
 70
     1
102
RTVSPost2010Prop54
  1
strokes_ogs.tif
102
RTVSPost2010PropOp54
 70
     1
102
RTVSPost2010Prop55
280
     0
102
RTVSPost2010PropOp55
 70
     1
102
RTVSPost2010Prop56
140
1.0
102
RTVSPost2010PropOp56
 70
     1
102
RTVSPost2010Prop57
140
1.0
102
RTVSPost2010PropOp57
 70
     1
  0
XRECORD
  5
4A3
102
{ACAD_REACTORS
330
4A2
102
}
330
4A2
100
AcDbXrecord
280
     1
102
RTVSPost2010Prop28
280
     0
102
RTVSPost2010PropOp28
 70
     1
102
RTVSPost2010Prop29
280
     1
102
RTVSPost2010PropOp29
 70
     1
102
RTVSPost2010Prop30
280
     1
102
RTVSPost2010PropOp30
 70
     1
102
RTVSPost2010Prop31
280
     0
102
RTVSPost2010PropOp31
 70
     1
102
RTVSPost2010Prop32
280
     0
102
RTVSPost2010PropOp32
 70
     1
102
RTVSPost2010Prop33
280
     0
102
RTVSPost2010PropOp33
 70
     1
102
RTVSPost2010Prop34
280
     0
102
RTVSPost2010PropOp34
 70
     1
102
RTVSPost2010Prop35
280
     0
102
RTVSPost2010PropOp35
 70
     1
102
RTVSPost2010Prop36
280
     0
102
RTVSPost2010PropOp36
 70
     1
102
RTVSPost2010Prop37
 90
       50
102
RTVSPost2010PropOp37
 70
     1
102
RTVSPost2010Prop38
140
0.0
102
RTVSPost2010PropOp38
 70
     1
102
RTVSPost2010Prop39
140
1.0
102
RTVSPost2010PropOp39
 70
     1
102
RTVSPost2010Prop40
 90
        0
102
RTVSPost2010PropOp40
 70
     1
102
RTVSPost2010Prop41ColorIndex
 90
       18
102
RTVSPost2010Prop41ColorRGB
 90
        0
102
RTVSPost2010PropOp41
 70
     1
102
RTVSPost2010Prop42
 90
       50
102
RTVSPost2010PropOp42
 70
     1
102
RTVSPost2010Prop43
 90
        3
102
RTVSPost2010PropOp43
 70
     1
102
RTVSPost2010Prop44ColorIndex
 90
        5
102
RTVSPost2010Prop44ColorRGB
 90
      255
102
RTVSPost2010PropOp44
 70
     1
102
RTVSPost2010Prop45
280
     0
102
RTVSPost2010PropOp45
 70
     1
102
RTVSPost2010Prop46
 90
       50
102
RTVSPost2010PropOp46
 70
     1
102
RTVSPost2010Prop47
 90
       50
102
RTVSPost2010PropOp47
 70
     1
102
RTVSPost2010Prop48
 90
       50
102
RTVSPost2010PropOp48
 70
     1
102
RTVSPost2010Prop49
280
     0
102
RTVSPost2010PropOp49
 70
     1
102
RTVSPost2010Prop50
 90
       50
102
RTVSPost2010PropOp50
 70
     1
102
RTVSPost2010Prop51ColorIndex
 90
      256
102
RTVSPost2010Prop51ColorRGB
 90
-16777216
102
RTVSPost2010PropOp51
 70
     0
102
RTVSPost2010Prop52
140
1.0
102
RTVSPost2010PropOp52
 70
     0
102
RTVSPost2010Prop53
 90
        2
102
RTVSPost2010PropOp53
 70
     1
102
RTVSPost2010Prop54
  1
strokes_ogs.tif
102
RTVSPost2010PropOp54
 70
     1
102
RTVSPost2010Prop55
280
     0
102
RTVSPost2010PropOp55
 70
     1
102
RTVSPost2010Prop56
140
1.0
102
RTVSPost2010PropOp56
 70
     1
102
RTVSPost2010Prop57
140
1.0
102
RTVSPost2010PropOp57
 70
     1
  0
XRECORD
  5
4A5
102
{ACAD_REACTORS
330
4A4
102
}
330
4A4
100
AcDbXrecord
280
     1
102
RTVSPost2010Prop28
280
     0
102
RTVSPost2010PropOp28
 70
     1
102
RTVSPost2010Prop29
280
     1
102
RTVSPost2010PropOp29
 70
     1
102
RTVSPost2010Prop30
280
     1
102
RTVSPost2010PropOp30
 70
     1
102
RTVSPost2010Prop31
280
     0
102
RTVSPost2010PropOp31
 70
     1
102
RTVSPost2010Prop32
280
     0
102
RTVSPost2010PropOp32
 70
     1
102
RTVSPost2010Prop33
280
     0
102
RTVSPost2010PropOp33
 70
     1
102
RTVSPost2010Prop34
280
     0
102
RTVSPost2010PropOp34
 70
     1
102
RTVSPost2010Prop35
280
     0
102
RTVSPost2010PropOp35
 70
     1
102
RTVSPost2010Prop36
280
     0
102
RTVSPost2010PropOp36
 70
     1
102
RTVSPost2010Prop37
 90
       50
102
RTVSPost2010PropOp37
 70
     1
102
RTVSPost2010Prop38
140
0.0
102
RTVSPost2010PropOp38
 70
     1
102
RTVSPost2010Prop39
140
1.0
102
RTVSPost2010PropOp39
 70
     1
102
RTVSPost2010Prop40
 90
        0
102
RTVSPost2010PropOp40
 70
     1
102
RTVSPost2010Prop41ColorIndex
 90
       18
102
RTVSPost2010Prop41ColorRGB
 90
        0
102
RTVSPost2010PropOp41
 70
     1
102
RTVSPost2010Prop42
 90
       50
102
RTVSPost2010PropOp42
 70
     1
102
RTVSPost2010Prop43
 90
        3
102
RTVSPost2010PropOp43
 70
     1
102
RTVSPost2010Prop44ColorIndex
 90
        5
102
RTVSPost2010Prop44ColorRGB
 90
      255
102
RTVSPost2010PropOp44
 70
     1
102
RTVSPost2010Prop45
280
     0
102
RTVSPost2010PropOp45
 70
     1
102
RTVSPost2010Prop46
 90
       50
102
RTVSPost2010PropOp46
 70
     1
102
RTVSPost2010Prop47
 90
       50
102
RTVSPost2010PropOp47
 70
     1
102
RTVSPost2010Prop48
 90
       50
102
RTVSPost2010PropOp48
 70
     1
102
RTVSPost2010Prop49
280
     0
102
RTVSPost2010PropOp49
 70
     1
102
RTVSPost2010Prop50
 90
       50
102
RTVSPost2010PropOp50
 70
     1
102
RTVSPost2010Prop51ColorIndex
 90
      256
102
RTVSPost2010Prop51ColorRGB
 90
-16777216
102
RTVSPost2010PropOp51
 70
     0
102
RTVSPost2010Prop52
140
1.0
102
RTVSPost2010PropOp52
 70
     0
102
RTVSPost2010Prop53
 90
        2
102
RTVSPost2010PropOp53
 70
     1
102
RTVSPost2010Prop54
  1
strokes_ogs.tif
102
RTVSPost2010PropOp54
 70
     1
102
RTVSPost2010Prop55
280
     0
102
RTVSPost2010PropOp55
 70
     1
102
RTVSPost2010Prop56
140
1.0
102
RTVSPost2010PropOp56
 70
     1
102
RTVSPost2010Prop57
140
1.0
102
RTVSPost2010PropOp57
 70
     1
  0
XRECORD
  5
4A7
102
{ACAD_REACTORS
330
4A6
102
}
330
4A6
100
AcDbXrecord
280
     1
102
RTVSPost2010Prop28
280
     0
102
RTVSPost2010PropOp28
 70
     1
102
RTVSPost2010Prop29
280
     1
102
RTVSPost2010PropOp29
 70
     1
102
RTVSPost2010Prop30
280
     1
102
RTVSPost2010PropOp30
 70
     1
102
RTVSPost2010Prop31
280
     0
102
RTVSPost2010PropOp31
 70
     1
102
RTVSPost2010Prop32
280
     0
102
RTVSPost2010PropOp32
 70
     1
102
RTVSPost2010Prop33
280
     0
102
RTVSPost2010PropOp33
 70
     1
102
RTVSPost2010Prop34
280
     0
102
RTVSPost2010PropOp34
 70
     1
102
RTVSPost2010Prop35
280
     0
102
RTVSPost2010PropOp35
 70
     1
102
RTVSPost2010Prop36
280
     0
102
RTVSPost2010PropOp36
 70
     1
102
RTVSPost2010Prop37
 90
       50
102
RTVSPost2010PropOp37
 70
     1
102
RTVSPost2010Prop38
140
0.0
102
RTVSPost2010PropOp38
 70
     1
102
RTVSPost2010Prop39
140
1.0
102
RTVSPost2010PropOp39
 70
     1
102
RTVSPost2010Prop40
 90
        0
102
RTVSPost2010PropOp40
 70
     1
102
RTVSPost2010Prop41ColorIndex
 90
       18
102
RTVSPost2010Prop41ColorRGB
 90
        0
102
RTVSPost2010PropOp41
 70
     1
102
RTVSPost2010Prop42
 90
       50
102
RTVSPost2010PropOp42
 70
     1
102
RTVSPost2010Prop43
 90
        3
102
RTVSPost2010PropOp43
 70
     1
102
RTVSPost2010Prop44ColorIndex
 90
        5
102
RTVSPost2010Prop44ColorRGB
 90
      255
102
RTVSPost2010PropOp44
 70
     1
102
RTVSPost2010Prop45
280
     0
102
RTVSPost2010PropOp45
 70
     1
102
RTVSPost2010Prop46
 90
       50
102
RTVSPost2010PropOp46
 70
     1
102
RTVSPost2010Prop47
 90
       50
102
RTVSPost2010PropOp47
 70
     1
102
RTVSPost2010Prop48
 90
       50
102
RTVSPost2010PropOp48
 70
     1
102
RTVSPost2010Prop49
280
     0
102
RTVSPost2010PropOp49
 70
     1
102
RTVSPost2010Prop50
 90
       50
102
RTVSPost2010PropOp50
 70
     1
102
RTVSPost2010Prop51ColorIndex
 90
      256
102
RTVSPost2010Prop51ColorRGB
 90
-16777216
102
RTVSPost2010PropOp51
 70
     0
102
RTVSPost2010Prop52
140
1.0
102
RTVSPost2010PropOp52
 70
     0
102
RTVSPost2010Prop53
 90
        2
102
RTVSPost2010PropOp53
 70
     1
102
RTVSPost2010Prop54
  1
strokes_ogs.tif
102
RTVSPost2010PropOp54
 70
     1
102
RTVSPost2010Prop55
280
     0
102
RTVSPost2010PropOp55
 70
     1
102
RTVSPost2010Prop56
140
1.0
102
RTVSPost2010PropOp56
 70
     1
102
RTVSPost2010Prop57
140
1.0
102
RTVSPost2010PropOp57
 70
     1
  0
XRECORD
  5
4AF
102
{ACAD_REACTORS
330
4AE
102
}
330
4AE
100
AcDbXrecord
280
     1
102
RTVSPost2010Prop28
280
     0
102
RTVSPost2010PropOp28
 70
     1
102
RTVSPost2010Prop29
280
     1
102
RTVSPost2010PropOp29
 70
     1
102
RTVSPost2010Prop30
280
     1
102
RTVSPost2010PropOp30
 70
     1
102
RTVSPost2010Prop31
280
     0
102
RTVSPost2010PropOp31
 70
     1
102
RTVSPost2010Prop32
280
     0
102
RTVSPost2010PropOp32
 70
     1
102
RTVSPost2010Prop33
280
     0
102
RTVSPost2010PropOp33
 70
     1
102
RTVSPost2010Prop34
280
     0
102
RTVSPost2010PropOp34
 70
     1
102
RTVSPost2010Prop35
280
     0
102
RTVSPost2010PropOp35
 70
     1
102
RTVSPost2010Prop36
280
     0
102
RTVSPost2010PropOp36
 70
     1
102
RTVSPost2010Prop37
 90
       50
102
RTVSPost2010PropOp37
 70
     1
102
RTVSPost2010Prop38
140
0.0
102
RTVSPost2010PropOp38
 70
     1
102
RTVSPost2010Prop39
140
1.0
102
RTVSPost2010PropOp39
 70
     1
102
RTVSPost2010Prop40
 90
        0
102
RTVSPost2010PropOp40
 70
     1
102
RTVSPost2010Prop41ColorIndex
 90
       18
102
RTVSPost2010Prop41ColorRGB
 90
        0
102
RTVSPost2010PropOp41
 70
     1
102
RTVSPost2010Prop42
 90
       50
102
RTVSPost2010PropOp42
 70
     1
102
RTVSPost2010Prop43
 90
        3
102
RTVSPost2010PropOp43
 70
     1
102
RTVSPost2010Prop44ColorIndex
 90
        5
102
RTVSPost2010Prop44ColorRGB
 90
      255
102
RTVSPost2010PropOp44
 70
     1
102
RTVSPost2010Prop45
280
     0
102
RTVSPost2010PropOp45
 70
     1
102
RTVSPost2010Prop46
 90
       50
102
RTVSPost2010PropOp46
 70
     1
102
RTVSPost2010Prop47
 90
       50
102
RTVSPost2010PropOp47
 70
     1
102
RTVSPost2010Prop48
 90
       50
102
RTVSPost2010PropOp48
 70
     1
102
RTVSPost2010Prop49
280
     0
102
RTVSPost2010PropOp49
 70
     1
102
RTVSPost2010Prop50
 90
       50
102
RTVSPost2010PropOp50
 70
     1
102
RTVSPost2010Prop51ColorIndex
 90
      256
102
RTVSPost2010Prop51ColorRGB
 90
-16777216
102
RTVSPost2010PropOp51
 70
     0
102
RTVSPost2010Prop52
140
1.0
102
RTVSPost2010PropOp52
 70
     0
102
RTVSPost2010Prop53
 90
        2
102
RTVSPost2010PropOp53
 70
     1
102
RTVSPost2010Prop54
  1
strokes_ogs.tif
102
RTVSPost2010PropOp54
 70
     1
102
RTVSPost2010Prop55
280
     0
102
RTVSPost2010PropOp55
 70
     1
102
RTVSPost2010Prop56
140
1.0
102
RTVSPost2010PropOp56
 70
     1
102
RTVSPost2010Prop57
140
1.0
102
RTVSPost2010PropOp57
 70
     1
  0
XRECORD
  5
4CB
102
{ACAD_REACTORS
330
4CA
102
}
330
4CA
100
AcDbXrecord
280
     1
102
RTVSPost2010Prop28
280
     0
102
RTVSPost2010PropOp28
 70
     0
102
RTVSPost2010Prop29
280
     1
102
RTVSPost2010PropOp29
 70
     0
102
RTVSPost2010Prop30
280
     1
102
RTVSPost2010PropOp30
 70
     0
102
RTVSPost2010Prop31
280
     0
102
RTVSPost2010PropOp31
 70
     0
102
RTVSPost2010Prop32
280
     0
102
RTVSPost2010PropOp32
 70
     0
102
RTVSPost2010Prop33
280
     0
102
RTVSPost2010PropOp33
 70
     0
102
RTVSPost2010Prop34
280
     0
102
RTVSPost2010PropOp34
 70
     0
102
RTVSPost2010Prop35
280
     0
102
RTVSPost2010PropOp35
 70
     0
102
RTVSPost2010Prop36
280
     0
102
RTVSPost2010PropOp36
 70
     0
102
RTVSPost2010Prop37
 90
       50
102
RTVSPost2010PropOp37
 70
     0
102
RTVSPost2010Prop38
140
0.0
102
RTVSPost2010PropOp38
 70
     0
102
RTVSPost2010Prop39
140
1.0
102
RTVSPost2010PropOp39
 70
     0
102
RTVSPost2010Prop40
 90
        0
102
RTVSPost2010PropOp40
 70
     0
102
RTVSPost2010Prop41ColorIndex
 90
       18
102
RTVSPost2010Prop41ColorRGB
 90
        0
102
RTVSPost2010PropOp41
 70
     0
102
RTVSPost2010Prop42
 90
       50
102
RTVSPost2010PropOp42
 70
     0
102
RTVSPost2010Prop43
 90
        3
102
RTVSPost2010PropOp43
 70
     0
102
RTVSPost2010Prop44ColorIndex
 90
        5
102
RTVSPost2010Prop44ColorRGB
 90
      255
102
RTVSPost2010PropOp44
 70
     0
102
RTVSPost2010Prop45
280
     0
102
RTVSPost2010PropOp45
 70
     0
102
RTVSPost2010Prop46
 90
       50
102
RTVSPost2010PropOp46
 70
     0
102
RTVSPost2010Prop47
 90
       50
102
RTVSPost2010PropOp47
 70
     0
102
RTVSPost2010Prop48
 90
       50
102
RTVSPost2010PropOp48
 70
     0
102
RTVSPost2010Prop49
280
     0
102
RTVSPost2010PropOp49
 70
     0
102
RTVSPost2010Prop50
 90
       50
102
RTVSPost2010PropOp50
 70
     0
102
RTVSPost2010Prop51ColorIndex
 90
      256
102
RTVSPost2010Prop51ColorRGB
 90
-16777216
102
RTVSPost2010PropOp51
 70
     0
102
RTVSPost2010Prop52
140
1.0
102
RTVSPost2010PropOp52
 70
     0
102
RTVSPost2010Prop53
 90
        2
102
RTVSPost2010PropOp53
 70
     0
102
RTVSPost2010Prop54
  1
strokes_ogs.tif
102
RTVSPost2010PropOp54
 70
     0
102
RTVSPost2010Prop55
280
     0
102
RTVSPost2010PropOp55
 70
     0
102
RTVSPost2010Prop56
140
1.0
102
RTVSPost2010PropOp56
 70
     0
102
RTVSPost2010Prop57
140
1.0
102
RTVSPost2010PropOp57
 70
     0
  0
XRECORD
  5
4BB
102
{ACAD_REACTORS
330
4BA
102
}
330
4BA
100
AcDbXrecord
280
     1
102
RTVSPost2010Prop28
280
     0
102
RTVSPost2010PropOp28
 70
     1
102
RTVSPost2010Prop29
280
     1
102
RTVSPost2010PropOp29
 70
     1
102
RTVSPost2010Prop30
280
     1
102
RTVSPost2010PropOp30
 70
     1
102
RTVSPost2010Prop31
280
     0
102
RTVSPost2010PropOp31
 70
     1
102
RTVSPost2010Prop32
280
     0
102
RTVSPost2010PropOp32
 70
     1
102
RTVSPost2010Prop33
280
     0
102
RTVSPost2010PropOp33
 70
     1
102
RTVSPost2010Prop34
280
     0
102
RTVSPost2010PropOp34
 70
     1
102
RTVSPost2010Prop35
280
     0
102
RTVSPost2010PropOp35
 70
     1
102
RTVSPost2010Prop36
280
     0
102
RTVSPost2010PropOp36
 70
     1
102
RTVSPost2010Prop37
 90
       50
102
RTVSPost2010PropOp37
 70
     1
102
RTVSPost2010Prop38
140
0.0
102
RTVSPost2010PropOp38
 70
     1
102
RTVSPost2010Prop39
140
1.0
102
RTVSPost2010PropOp39
 70
     1
102
RTVSPost2010Prop40
 90
        0
102
RTVSPost2010PropOp40
 70
     1
102
RTVSPost2010Prop41ColorIndex
 90
       18
102
RTVSPost2010Prop41ColorRGB
 90
        0
102
RTVSPost2010PropOp41
 70
     1
102
RTVSPost2010Prop42
 90
       50
102
RTVSPost2010PropOp42
 70
     1
102
RTVSPost2010Prop43
 90
        3
102
RTVSPost2010PropOp43
 70
     1
102
RTVSPost2010Prop44ColorIndex
 90
        5
102
RTVSPost2010Prop44ColorRGB
 90
      255
102
RTVSPost2010PropOp44
 70
     1
102
RTVSPost2010Prop45
280
     0
102
RTVSPost2010PropOp45
 70
     1
102
RTVSPost2010Prop46
 90
       50
102
RTVSPost2010PropOp46
 70
     1
102
RTVSPost2010Prop47
 90
       50
102
RTVSPost2010PropOp47
 70
     1
102
RTVSPost2010Prop48
 90
       50
102
RTVSPost2010PropOp48
 70
     1
102
RTVSPost2010Prop49
280
     0
102
RTVSPost2010PropOp49
 70
     1
102
RTVSPost2010Prop50
 90
       50
102
RTVSPost2010PropOp50
 70
     1
102
RTVSPost2010Prop51ColorIndex
 90
      256
102
RTVSPost2010Prop51ColorRGB
 90
-16777216
102
RTVSPost2010PropOp51
 70
     0
102
RTVSPost2010Prop52
140
1.0
102
RTVSPost2010PropOp52
 70
     0
102
RTVSPost2010Prop53
 90
        2
102
RTVSPost2010PropOp53
 70
     1
102
RTVSPost2010Prop54
  1
strokes_ogs.tif
102
RTVSPost2010PropOp54
 70
     1
102
RTVSPost2010Prop55
280
     0
102
RTVSPost2010PropOp55
 70
     1
102
RTVSPost2010Prop56
140
1.0
102
RTVSPost2010PropOp56
 70
     1
102
RTVSPost2010Prop57
140
1.0
102
RTVSPost2010PropOp57
 70
     1
  0
XRECORD
  5
4CD
102
{ACAD_REACTORS
330
4CC
102
}
330
4CC
100
AcDbXrecord
280
     1
102
RTVSPost2010Prop28
280
     0
102
RTVSPost2010PropOp28
 70
     0
102
RTVSPost2010Prop29
280
     1
102
RTVSPost2010PropOp29
 70
     0
102
RTVSPost2010Prop30
280
     1
102
RTVSPost2010PropOp30
 70
     0
102
RTVSPost2010Prop31
280
     0
102
RTVSPost2010PropOp31
 70
     0
102
RTVSPost2010Prop32
280
     0
102
RTVSPost2010PropOp32
 70
     0
102
RTVSPost2010Prop33
280
     0
102
RTVSPost2010PropOp33
 70
     0
102
RTVSPost2010Prop34
280
     0
102
RTVSPost2010PropOp34
 70
     0
102
RTVSPost2010Prop35
280
     0
102
RTVSPost2010PropOp35
 70
     0
102
RTVSPost2010Prop36
280
     0
102
RTVSPost2010PropOp36
 70
     0
102
RTVSPost2010Prop37
 90
       50
102
RTVSPost2010PropOp37
 70
     0
102
RTVSPost2010Prop38
140
0.0
102
RTVSPost2010PropOp38
 70
     0
102
RTVSPost2010Prop39
140
1.0
102
RTVSPost2010PropOp39
 70
     0
102
RTVSPost2010Prop40
 90
        0
102
RTVSPost2010PropOp40
 70
     0
102
RTVSPost2010Prop41ColorIndex
 90
       18
102
RTVSPost2010Prop41ColorRGB
 90
        0
102
RTVSPost2010PropOp41
 70
     0
102
RTVSPost2010Prop42
 90
       50
102
RTVSPost2010PropOp42
 70
     0
102
RTVSPost2010Prop43
 90
        3
102
RTVSPost2010PropOp43
 70
     0
102
RTVSPost2010Prop44ColorIndex
 90
        5
102
RTVSPost2010Prop44ColorRGB
 90
      255
102
RTVSPost2010PropOp44
 70
     0
102
RTVSPost2010Prop45
280
     0
102
RTVSPost2010PropOp45
 70
     0
102
RTVSPost2010Prop46
 90
       50
102
RTVSPost2010PropOp46
 70
     0
102
RTVSPost2010Prop47
 90
       50
102
RTVSPost2010PropOp47
 70
     0
102
RTVSPost2010Prop48
 90
       50
102
RTVSPost2010PropOp48
 70
     0
102
RTVSPost2010Prop49
280
     0
102
RTVSPost2010PropOp49
 70
     0
102
RTVSPost2010Prop50
 90
       50
102
RTVSPost2010PropOp50
 70
     0
102
RTVSPost2010Prop51ColorIndex
 90
      256
102
RTVSPost2010Prop51ColorRGB
 90
-16777216
102
RTVSPost2010PropOp51
 70
     0
102
RTVSPost2010Prop52
140
1.0
102
RTVSPost2010PropOp52
 70
     0
102
RTVSPost2010Prop53
 90
        2
102
RTVSPost2010PropOp53
 70
     0
102
RTVSPost2010Prop54
  1
strokes_ogs.tif
102
RTVSPost2010PropOp54
 70
     0
102
RTVSPost2010Prop55
280
     0
102
RTVSPost2010PropOp55
 70
     0
102
RTVSPost2010Prop56
140
1.0
102
RTVSPost2010PropOp56
 70
     0
102
RTVSPost2010Prop57
140
1.0
102
RTVSPost2010PropOp57
 70
     0
  0
XRECORD
  5
4B3
102
{ACAD_REACTORS
330
4B2
102
}
330
4B2
100
AcDbXrecord
280
     1
102
RTVSPost2010Prop28
280
     0
102
RTVSPost2010PropOp28
 70
     1
102
RTVSPost2010Prop29
280
     1
102
RTVSPost2010PropOp29
 70
     1
102
RTVSPost2010Prop30
280
     1
102
RTVSPost2010PropOp30
 70
     1
102
RTVSPost2010Prop31
280
     0
102
RTVSPost2010PropOp31
 70
     1
102
RTVSPost2010Prop32
280
     0
102
RTVSPost2010PropOp32
 70
     1
102
RTVSPost2010Prop33
280
     0
102
RTVSPost2010PropOp33
 70
     1
102
RTVSPost2010Prop34
280
     0
102
RTVSPost2010PropOp34
 70
     1
102
RTVSPost2010Prop35
280
     0
102
RTVSPost2010PropOp35
 70
     1
102
RTVSPost2010Prop36
280
     0
102
RTVSPost2010PropOp36
 70
     1
102
RTVSPost2010Prop37
 90
       50
102
RTVSPost2010PropOp37
 70
     1
102
RTVSPost2010Prop38
140
0.0
102
RTVSPost2010PropOp38
 70
     1
102
RTVSPost2010Prop39
140
1.0
102
RTVSPost2010PropOp39
 70
     1
102
RTVSPost2010Prop40
 90
        0
102
RTVSPost2010PropOp40
 70
     1
102
RTVSPost2010Prop41ColorIndex
 90
       18
102
RTVSPost2010Prop41ColorRGB
 90
        0
102
RTVSPost2010PropOp41
 70
     1
102
RTVSPost2010Prop42
 90
       50
102
RTVSPost2010PropOp42
 70
     1
102
RTVSPost2010Prop43
 90
        3
102
RTVSPost2010PropOp43
 70
     1
102
RTVSPost2010Prop44ColorIndex
 90
        5
102
RTVSPost2010Prop44ColorRGB
 90
      255
102
RTVSPost2010PropOp44
 70
     1
102
RTVSPost2010Prop45
280
     0
102
RTVSPost2010PropOp45
 70
     1
102
RTVSPost2010Prop46
 90
       50
102
RTVSPost2010PropOp46
 70
     1
102
RTVSPost2010Prop47
 90
       50
102
RTVSPost2010PropOp47
 70
     1
102
RTVSPost2010Prop48
 90
       50
102
RTVSPost2010PropOp48
 70
     1
102
RTVSPost2010Prop49
280
     0
102
RTVSPost2010PropOp49
 70
     1
102
RTVSPost2010Prop50
 90
       50
102
RTVSPost2010PropOp50
 70
     1
102
RTVSPost2010Prop51ColorIndex
 90
      256
102
RTVSPost2010Prop51ColorRGB
 90
-16777216
102
RTVSPost2010PropOp51
 70
     0
102
RTVSPost2010Prop52
140
1.0
102
RTVSPost2010PropOp52
 70
     0
102
RTVSPost2010Prop53
 90
        2
102
RTVSPost2010PropOp53
 70
     1
102
RTVSPost2010Prop54
  1
strokes_ogs.tif
102
RTVSPost2010PropOp54
 70
     1
102
RTVSPost2010Prop55
280
     0
102
RTVSPost2010PropOp55
 70
     1
102
RTVSPost2010Prop56
140
1.0
102
RTVSPost2010PropOp56
 70
     1
102
RTVSPost2010Prop57
140
1.0
102
RTVSPost2010PropOp57
 70
     1
  0
XRECORD
  5
4C9
102
{ACAD_REACTORS
330
4C8
102
}
330
4C8
100
AcDbXrecord
280
     1
102
RTVSPost2010Prop28
280
     0
102
RTVSPost2010PropOp28
 70
     1
102
RTVSPost2010Prop29
280
     1
102
RTVSPost2010PropOp29
 70
     1
102
RTVSPost2010Prop30
280
     1
102
RTVSPost2010PropOp30
 70
     1
102
RTVSPost2010Prop31
280
     0
102
RTVSPost2010PropOp31
 70
     1
102
RTVSPost2010Prop32
280
     0
102
RTVSPost2010PropOp32
 70
     1
102
RTVSPost2010Prop33
280
     0
102
RTVSPost2010PropOp33
 70
     1
102
RTVSPost2010Prop34
280
     0
102
RTVSPost2010PropOp34
 70
     1
102
RTVSPost2010Prop35
280
     0
102
RTVSPost2010PropOp35
 70
     1
102
RTVSPost2010Prop36
280
     0
102
RTVSPost2010PropOp36
 70
     1
102
RTVSPost2010Prop37
 90
       50
102
RTVSPost2010PropOp37
 70
     1
102
RTVSPost2010Prop38
140
0.0
102
RTVSPost2010PropOp38
 70
     1
102
RTVSPost2010Prop39
140
1.0
102
RTVSPost2010PropOp39
 70
     1
102
RTVSPost2010Prop40
 90
        0
102
RTVSPost2010PropOp40
 70
     1
102
RTVSPost2010Prop41ColorIndex
 90
       18
102
RTVSPost2010Prop41ColorRGB
 90
        0
102
RTVSPost2010PropOp41
 70
     1
102
RTVSPost2010Prop42
 90
       50
102
RTVSPost2010PropOp42
 70
     1
102
RTVSPost2010Prop43
 90
        3
102
RTVSPost2010PropOp43
 70
     1
102
RTVSPost2010Prop44ColorIndex
 90
        5
102
RTVSPost2010Prop44ColorRGB
 90
      255
102
RTVSPost2010PropOp44
 70
     1
102
RTVSPost2010Prop45
280
     0
102
RTVSPost2010PropOp45
 70
     1
102
RTVSPost2010Prop46
 90
       50
102
RTVSPost2010PropOp46
 70
     1
102
RTVSPost2010Prop47
 90
       50
102
RTVSPost2010PropOp47
 70
     1
102
RTVSPost2010Prop48
 90
       50
102
RTVSPost2010PropOp48
 70
     1
102
RTVSPost2010Prop49
280
     0
102
RTVSPost2010PropOp49
 70
     1
102
RTVSPost2010Prop50
 90
       50
102
RTVSPost2010PropOp50
 70
     1
102
RTVSPost2010Prop51ColorIndex
 90
      256
102
RTVSPost2010Prop51ColorRGB
 90
-16777216
102
RTVSPost2010PropOp51
 70
     0
102
RTVSPost2010Prop52
140
1.0
102
RTVSPost2010PropOp52
 70
     0
102
RTVSPost2010Prop53
 90
        2
102
RTVSPost2010PropOp53
 70
     1
102
RTVSPost2010Prop54
  1
strokes_ogs.tif
102
RTVSPost2010PropOp54
 70
     1
102
RTVSPost2010Prop55
280
     0
102
RTVSPost2010PropOp55
 70
     1
102
RTVSPost2010Prop56
140
1.0
102
RTVSPost2010PropOp56
 70
     1
102
RTVSPost2010Prop57
140
1.0
102
RTVSPost2010PropOp57
 70
     1
  0
XRECORD
  5
4C7
102
{ACAD_REACTORS
330
4C6
102
}
330
4C6
100
AcDbXrecord
280
     1
102
RTVSPost2010Prop28
280
     0
102
RTVSPost2010PropOp28
 70
     1
102
RTVSPost2010Prop29
280
     1
102
RTVSPost2010PropOp29
 70
     1
102
RTVSPost2010Prop30
280
     1
102
RTVSPost2010PropOp30
 70
     1
102
RTVSPost2010Prop31
280
     0
102
RTVSPost2010PropOp31
 70
     1
102
RTVSPost2010Prop32
280
     0
102
RTVSPost2010PropOp32
 70
     1
102
RTVSPost2010Prop33
280
     0
102
RTVSPost2010PropOp33
 70
     1
102
RTVSPost2010Prop34
280
     0
102
RTVSPost2010PropOp34
 70
     1
102
RTVSPost2010Prop35
280
     0
102
RTVSPost2010PropOp35
 70
     1
102
RTVSPost2010Prop36
280
     0
102
RTVSPost2010PropOp36
 70
     1
102
RTVSPost2010Prop37
 90
       50
102
RTVSPost2010PropOp37
 70
     1
102
RTVSPost2010Prop38
140
0.0
102
RTVSPost2010PropOp38
 70
     1
102
RTVSPost2010Prop39
140
1.0
102
RTVSPost2010PropOp39
 70
     1
102
RTVSPost2010Prop40
 90
        0
102
RTVSPost2010PropOp40
 70
     1
102
RTVSPost2010Prop41ColorIndex
 90
       18
102
RTVSPost2010Prop41ColorRGB
 90
        0
102
RTVSPost2010PropOp41
 70
     1
102
RTVSPost2010Prop42
 90
       50
102
RTVSPost2010PropOp42
 70
     1
102
RTVSPost2010Prop43
 90
        3
102
RTVSPost2010PropOp43
 70
     1
102
RTVSPost2010Prop44ColorIndex
 90
        5
102
RTVSPost2010Prop44ColorRGB
 90
      255
102
RTVSPost2010PropOp44
 70
     1
102
RTVSPost2010Prop45
280
     0
102
RTVSPost2010PropOp45
 70
     1
102
RTVSPost2010Prop46
 90
       50
102
RTVSPost2010PropOp46
 70
     1
102
RTVSPost2010Prop47
 90
       50
102
RTVSPost2010PropOp47
 70
     1
102
RTVSPost2010Prop48
 90
       50
102
RTVSPost2010PropOp48
 70
     1
102
RTVSPost2010Prop49
280
     0
102
RTVSPost2010PropOp49
 70
     1
102
RTVSPost2010Prop50
 90
       50
102
RTVSPost2010PropOp50
 70
     1
102
RTVSPost2010Prop51ColorIndex
 90
      256
102
RTVSPost2010Prop51ColorRGB
 90
-16777216
102
RTVSPost2010PropOp51
 70
     0
102
RTVSPost2010Prop52
140
1.0
102
RTVSPost2010PropOp52
 70
     0
102
RTVSPost2010Prop53
 90
        2
102
RTVSPost2010PropOp53
 70
     1
102
RTVSPost2010Prop54
  1
strokes_ogs.tif
102
RTVSPost2010PropOp54
 70
     1
102
RTVSPost2010Prop55
280
     0
102
RTVSPost2010PropOp55
 70
     1
102
RTVSPost2010Prop56
140
1.0
102
RTVSPost2010PropOp56
 70
     1
102
RTVSPost2010Prop57
140
1.0
102
RTVSPost2010PropOp57
 70
     1
  0
XRECORD
  5
4C1
102
{ACAD_REACTORS
330
4C0
102
}
330
4C0
100
AcDbXrecord
280
     1
102
RTVSPost2010Prop28
280
     0
102
RTVSPost2010PropOp28
 70
     1
102
RTVSPost2010Prop29
280
     1
102
RTVSPost2010PropOp29
 70
     1
102
RTVSPost2010Prop30
280
     1
102
RTVSPost2010PropOp30
 70
     1
102
RTVSPost2010Prop31
280
     0
102
RTVSPost2010PropOp31
 70
     1
102
RTVSPost2010Prop32
280
     0
102
RTVSPost2010PropOp32
 70
     1
102
RTVSPost2010Prop33
280
     0
102
RTVSPost2010PropOp33
 70
     1
102
RTVSPost2010Prop34
280
     0
102
RTVSPost2010PropOp34
 70
     1
102
RTVSPost2010Prop35
280
     0
102
RTVSPost2010PropOp35
 70
     1
102
RTVSPost2010Prop36
280
     0
102
RTVSPost2010PropOp36
 70
     1
102
RTVSPost2010Prop37
 90
       50
102
RTVSPost2010PropOp37
 70
     1
102
RTVSPost2010Prop38
140
0.0
102
RTVSPost2010PropOp38
 70
     1
102
RTVSPost2010Prop39
140
1.0
102
RTVSPost2010PropOp39
 70
     1
102
RTVSPost2010Prop40
 90
        0
102
RTVSPost2010PropOp40
 70
     1
102
RTVSPost2010Prop41ColorIndex
 90
       18
102
RTVSPost2010Prop41ColorRGB
 90
        0
102
RTVSPost2010PropOp41
 70
     1
102
RTVSPost2010Prop42
 90
       50
102
RTVSPost2010PropOp42
 70
     1
102
RTVSPost2010Prop43
 90
        3
102
RTVSPost2010PropOp43
 70
     1
102
RTVSPost2010Prop44ColorIndex
 90
        5
102
RTVSPost2010Prop44ColorRGB
 90
      255
102
RTVSPost2010PropOp44
 70
     1
102
RTVSPost2010Prop45
280
     0
102
RTVSPost2010PropOp45
 70
     1
102
RTVSPost2010Prop46
 90
       50
102
RTVSPost2010PropOp46
 70
     1
102
RTVSPost2010Prop47
 90
       50
102
RTVSPost2010PropOp47
 70
     1
102
RTVSPost2010Prop48
 90
       50
102
RTVSPost2010PropOp48
 70
     1
102
RTVSPost2010Prop49
280
     0
102
RTVSPost2010PropOp49
 70
     1
102
RTVSPost2010Prop50
 90
       50
102
RTVSPost2010PropOp50
 70
     1
102
RTVSPost2010Prop51ColorIndex
 90
      256
102
RTVSPost2010Prop51ColorRGB
 90
-16777216
102
RTVSPost2010PropOp51
 70
     0
102
RTVSPost2010Prop52
140
1.0
102
RTVSPost2010PropOp52
 70
     0
102
RTVSPost2010Prop53
 90
        2
102
RTVSPost2010PropOp53
 70
     1
102
RTVSPost2010Prop54
  1
strokes_ogs.tif
102
RTVSPost2010PropOp54
 70
     1
102
RTVSPost2010Prop55
280
     0
102
RTVSPost2010PropOp55
 70
     1
102
RTVSPost2010Prop56
140
1.0
102
RTVSPost2010PropOp56
 70
     1
102
RTVSPost2010Prop57
140
1.0
102
RTVSPost2010PropOp57
 70
     1
  0
XRECORD
  5
4C3
102
{ACAD_REACTORS
330
4C2
102
}
330
4C2
100
AcDbXrecord
280
     1
102
RTVSPost2010Prop28
280
     0
102
RTVSPost2010PropOp28
 70
     1
102
RTVSPost2010Prop29
280
     1
102
RTVSPost2010PropOp29
 70
     1
102
RTVSPost2010Prop30
280
     1
102
RTVSPost2010PropOp30
 70
     1
102
RTVSPost2010Prop31
280
     0
102
RTVSPost2010PropOp31
 70
     1
102
RTVSPost2010Prop32
280
     0
102
RTVSPost2010PropOp32
 70
     1
102
RTVSPost2010Prop33
280
     0
102
RTVSPost2010PropOp33
 70
     1
102
RTVSPost2010Prop34
280
     0
102
RTVSPost2010PropOp34
 70
     1
102
RTVSPost2010Prop35
280
     0
102
RTVSPost2010PropOp35
 70
     1
102
RTVSPost2010Prop36
280
     0
102
RTVSPost2010PropOp36
 70
     1
102
RTVSPost2010Prop37
 90
       50
102
RTVSPost2010PropOp37
 70
     1
102
RTVSPost2010Prop38
140
0.0
102
RTVSPost2010PropOp38
 70
     1
102
RTVSPost2010Prop39
140
1.0
102
RTVSPost2010PropOp39
 70
     1
102
RTVSPost2010Prop40
 90
        0
102
RTVSPost2010PropOp40
 70
     1
102
RTVSPost2010Prop41ColorIndex
 90
       18
102
RTVSPost2010Prop41ColorRGB
 90
        0
102
RTVSPost2010PropOp41
 70
     1
102
RTVSPost2010Prop42
 90
       50
102
RTVSPost2010PropOp42
 70
     1
102
RTVSPost2010Prop43
 90
        3
102
RTVSPost2010PropOp43
 70
     1
102
RTVSPost2010Prop44ColorIndex
 90
        5
102
RTVSPost2010Prop44ColorRGB
 90
      255
102
RTVSPost2010PropOp44
 70
     1
102
RTVSPost2010Prop45
280
     0
102
RTVSPost2010PropOp45
 70
     1
102
RTVSPost2010Prop46
 90
       50
102
RTVSPost2010PropOp46
 70
     1
102
RTVSPost2010Prop47
 90
       50
102
RTVSPost2010PropOp47
 70
     1
102
RTVSPost2010Prop48
 90
       50
102
RTVSPost2010PropOp48
 70
     1
102
RTVSPost2010Prop49
280
     0
102
RTVSPost2010PropOp49
 70
     1
102
RTVSPost2010Prop50
 90
       50
102
RTVSPost2010PropOp50
 70
     1
102
RTVSPost2010Prop51ColorIndex
 90
      256
102
RTVSPost2010Prop51ColorRGB
 90
-16777216
102
RTVSPost2010PropOp51
 70
     0
102
RTVSPost2010Prop52
140
1.0
102
RTVSPost2010PropOp52
 70
     0
102
RTVSPost2010Prop53
 90
        2
102
RTVSPost2010PropOp53
 70
     1
102
RTVSPost2010Prop54
  1
strokes_ogs.tif
102
RTVSPost2010PropOp54
 70
     1
102
RTVSPost2010Prop55
280
     0
102
RTVSPost2010PropOp55
 70
     1
102
RTVSPost2010Prop56
140
1.0
102
RTVSPost2010PropOp56
 70
     1
102
RTVSPost2010Prop57
140
1.0
102
RTVSPost2010PropOp57
 70
     1
  0
XRECORD
  5
4B9
102
{ACAD_REACTORS
330
4B8
102
}
330
4B8
100
AcDbXrecord
280
     1
102
RTVSPost2010Prop28
280
     0
102
RTVSPost2010PropOp28
 70
     1
102
RTVSPost2010Prop29
280
     1
102
RTVSPost2010PropOp29
 70
     1
102
RTVSPost2010Prop30
280
     1
102
RTVSPost2010PropOp30
 70
     1
102
RTVSPost2010Prop31
280
     0
102
RTVSPost2010PropOp31
 70
     1
102
RTVSPost2010Prop32
280
     0
102
RTVSPost2010PropOp32
 70
     1
102
RTVSPost2010Prop33
280
     0
102
RTVSPost2010PropOp33
 70
     1
102
RTVSPost2010Prop34
280
     0
102
RTVSPost2010PropOp34
 70
     1
102
RTVSPost2010Prop35
280
     0
102
RTVSPost2010PropOp35
 70
     1
102
RTVSPost2010Prop36
280
     0
102
RTVSPost2010PropOp36
 70
     1
102
RTVSPost2010Prop37
 90
       50
102
RTVSPost2010PropOp37
 70
     1
102
RTVSPost2010Prop38
140
0.0
102
RTVSPost2010PropOp38
 70
     1
102
RTVSPost2010Prop39
140
1.0
102
RTVSPost2010PropOp39
 70
     1
102
RTVSPost2010Prop40
 90
        0
102
RTVSPost2010PropOp40
 70
     1
102
RTVSPost2010Prop41ColorIndex
 90
       18
102
RTVSPost2010Prop41ColorRGB
 90
        0
102
RTVSPost2010PropOp41
 70
     1
102
RTVSPost2010Prop42
 90
       50
102
RTVSPost2010PropOp42
 70
     1
102
RTVSPost2010Prop43
 90
        3
102
RTVSPost2010PropOp43
 70
     1
102
RTVSPost2010Prop44ColorIndex
 90
        5
102
RTVSPost2010Prop44ColorRGB
 90
      255
102
RTVSPost2010PropOp44
 70
     1
102
RTVSPost2010Prop45
280
     0
102
RTVSPost2010PropOp45
 70
     1
102
RTVSPost2010Prop46
 90
       50
102
RTVSPost2010PropOp46
 70
     1
102
RTVSPost2010Prop47
 90
       50
102
RTVSPost2010PropOp47
 70
     1
102
RTVSPost2010Prop48
 90
       50
102
RTVSPost2010PropOp48
 70
     1
102
RTVSPost2010Prop49
280
     0
102
RTVSPost2010PropOp49
 70
     1
102
RTVSPost2010Prop50
 90
       50
102
RTVSPost2010PropOp50
 70
     1
102
RTVSPost2010Prop51ColorIndex
 90
      256
102
RTVSPost2010Prop51ColorRGB
 90
-16777216
102
RTVSPost2010PropOp51
 70
     0
102
RTVSPost2010Prop52
140
1.0
102
RTVSPost2010PropOp52
 70
     0
102
RTVSPost2010Prop53
 90
        2
102
RTVSPost2010PropOp53
 70
     1
102
RTVSPost2010Prop54
  1
strokes_ogs.tif
102
RTVSPost2010PropOp54
 70
     1
102
RTVSPost2010Prop55
280
     0
102
RTVSPost2010PropOp55
 70
     1
102
RTVSPost2010Prop56
140
1.0
102
RTVSPost2010PropOp56
 70
     1
102
RTVSPost2010Prop57
140
1.0
102
RTVSPost2010PropOp57
 70
     1
  0
XRECORD
  5
4AD
102
{ACAD_REACTORS
330
4AC
102
}
330
4AC
100
AcDbXrecord
280
     1
102
RTVSPost2010Prop28
280
     0
102
RTVSPost2010PropOp28
 70
     1
102
RTVSPost2010Prop29
280
     1
102
RTVSPost2010PropOp29
 70
     1
102
RTVSPost2010Prop30
280
     1
102
RTVSPost2010PropOp30
 70
     1
102
RTVSPost2010Prop31
280
     0
102
RTVSPost2010PropOp31
 70
     1
102
RTVSPost2010Prop32
280
     0
102
RTVSPost2010PropOp32
 70
     1
102
RTVSPost2010Prop33
280
     0
102
RTVSPost2010PropOp33
 70
     1
102
RTVSPost2010Prop34
280
     0
102
RTVSPost2010PropOp34
 70
     1
102
RTVSPost2010Prop35
280
     0
102
RTVSPost2010PropOp35
 70
     1
102
RTVSPost2010Prop36
280
     0
102
RTVSPost2010PropOp36
 70
     1
102
RTVSPost2010Prop37
 90
       50
102
RTVSPost2010PropOp37
 70
     1
102
RTVSPost2010Prop38
140
0.0
102
RTVSPost2010PropOp38
 70
     1
102
RTVSPost2010Prop39
140
1.0
102
RTVSPost2010PropOp39
 70
     1
102
RTVSPost2010Prop40
 90
        0
102
RTVSPost2010PropOp40
 70
     1
102
RTVSPost2010Prop41ColorIndex
 90
       18
102
RTVSPost2010Prop41ColorRGB
 90
        0
102
RTVSPost2010PropOp41
 70
     1
102
RTVSPost2010Prop42
 90
       50
102
RTVSPost2010PropOp42
 70
     1
102
RTVSPost2010Prop43
 90
        3
102
RTVSPost2010PropOp43
 70
     1
102
RTVSPost2010Prop44ColorIndex
 90
        5
102
RTVSPost2010Prop44ColorRGB
 90
      255
102
RTVSPost2010PropOp44
 70
     1
102
RTVSPost2010Prop45
280
     0
102
RTVSPost2010PropOp45
 70
     1
102
RTVSPost2010Prop46
 90
       50
102
RTVSPost2010PropOp46
 70
     1
102
RTVSPost2010Prop47
 90
       50
102
RTVSPost2010PropOp47
 70
     1
102
RTVSPost2010Prop48
 90
       50
102
RTVSPost2010PropOp48
 70
     1
102
RTVSPost2010Prop49
280
     0
102
RTVSPost2010PropOp49
 70
     1
102
RTVSPost2010Prop50
 90
       50
102
RTVSPost2010PropOp50
 70
     1
102
RTVSPost2010Prop51ColorIndex
 90
      256
102
RTVSPost2010Prop51ColorRGB
 90
-16777216
102
RTVSPost2010PropOp51
 70
     0
102
RTVSPost2010Prop52
140
1.0
102
RTVSPost2010PropOp52
 70
     0
102
RTVSPost2010Prop53
 90
        2
102
RTVSPost2010PropOp53
 70
     1
102
RTVSPost2010Prop54
  1
strokes_ogs.tif
102
RTVSPost2010PropOp54
 70
     1
102
RTVSPost2010Prop55
280
     0
102
RTVSPost2010PropOp55
 70
     1
102
RTVSPost2010Prop56
140
1.0
102
RTVSPost2010PropOp56
 70
     1
102
RTVSPost2010Prop57
140
1.0
102
RTVSPost2010PropOp57
 70
     1
  0
XRECORD
  5
4C5
102
{ACAD_REACTORS
330
4C4
102
}
330
4C4
100
AcDbXrecord
280
     1
102
RTVSPost2010Prop28
280
     0
102
RTVSPost2010PropOp28
 70
     1
102
RTVSPost2010Prop29
280
     1
102
RTVSPost2010PropOp29
 70
     1
102
RTVSPost2010Prop30
280
     1
102
RTVSPost2010PropOp30
 70
     1
102
RTVSPost2010Prop31
280
     0
102
RTVSPost2010PropOp31
 70
     1
102
RTVSPost2010Prop32
280
     0
102
RTVSPost2010PropOp32
 70
     1
102
RTVSPost2010Prop33
280
     0
102
RTVSPost2010PropOp33
 70
     1
102
RTVSPost2010Prop34
280
     0
102
RTVSPost2010PropOp34
 70
     1
102
RTVSPost2010Prop35
280
     0
102
RTVSPost2010PropOp35
 70
     1
102
RTVSPost2010Prop36
280
     0
102
RTVSPost2010PropOp36
 70
     1
102
RTVSPost2010Prop37
 90
       50
102
RTVSPost2010PropOp37
 70
     1
102
RTVSPost2010Prop38
140
0.0
102
RTVSPost2010PropOp38
 70
     1
102
RTVSPost2010Prop39
140
1.0
102
RTVSPost2010PropOp39
 70
     1
102
RTVSPost2010Prop40
 90
        0
102
RTVSPost2010PropOp40
 70
     1
102
RTVSPost2010Prop41ColorIndex
 90
       18
102
RTVSPost2010Prop41ColorRGB
 90
        0
102
RTVSPost2010PropOp41
 70
     1
102
RTVSPost2010Prop42
 90
       50
102
RTVSPost2010PropOp42
 70
     1
102
RTVSPost2010Prop43
 90
        3
102
RTVSPost2010PropOp43
 70
     1
102
RTVSPost2010Prop44ColorIndex
 90
        5
102
RTVSPost2010Prop44ColorRGB
 90
      255
102
RTVSPost2010PropOp44
 70
     1
102
RTVSPost2010Prop45
280
     0
102
RTVSPost2010PropOp45
 70
     1
102
RTVSPost2010Prop46
 90
       50
102
RTVSPost2010PropOp46
 70
     1
102
RTVSPost2010Prop47
 90
       50
102
RTVSPost2010PropOp47
 70
     1
102
RTVSPost2010Prop48
 90
       50
102
RTVSPost2010PropOp48
 70
     1
102
RTVSPost2010Prop49
280
     0
102
RTVSPost2010PropOp49
 70
     1
102
RTVSPost2010Prop50
 90
       50
102
RTVSPost2010PropOp50
 70
     1
102
RTVSPost2010Prop51ColorIndex
 90
      256
102
RTVSPost2010Prop51ColorRGB
 90
-16777216
102
RTVSPost2010PropOp51
 70
     0
102
RTVSPost2010Prop52
140
1.0
102
RTVSPost2010PropOp52
 70
     0
102
RTVSPost2010Prop53
 90
        2
102
RTVSPost2010PropOp53
 70
     1
102
RTVSPost2010Prop54
  1
strokes_ogs.tif
102
RTVSPost2010PropOp54
 70
     1
102
RTVSPost2010Prop55
280
     0
102
RTVSPost2010PropOp55
 70
     1
102
RTVSPost2010Prop56
140
1.0
102
RTVSPost2010PropOp56
 70
     1
102
RTVSPost2010Prop57
140
1.0
102
RTVSPost2010PropOp57
 70
     1
  0
ENDSEC
  0
EOF
