  0
SECTION
  2
HEADER
  9
$ACADVER
  1
AC1024
  9
$ACADMAINTVER
 70
     6
  9
$DWGCODEPAGE
  3
ANSI_1252
  9
$LASTSAVEDBY
  1
Dave
  9
$INSBASE
 10
0.0
 20
0.0
 30
0.0
  9
$EXTMIN
 10
8609622.152481407
 20
4525989.256805685
 30
-1155.224438699406
  9
$EXTMAX
 10
8609732.261484291
 20
4526061.348496427
 30
374.3131999999728
  9
$LIMMIN
 10
0.0
 20
0.0
  9
$LIMMAX
 10
12.0
 20
9.0
  9
$ORTHOMODE
 70
     0
  9
$REGENMODE
 70
     1
  9
$FILLMODE
 70
     1
  9
$QTEXTMODE
 70
     0
  9
$MIRRTEXT
 70
     1
  9
$LTSCALE
 40
1.0
  9
$ATTMODE
 70
     1
  9
$TEXTSIZE
 40
0.2
  9
$TRACEWID
 40
0.05
  9
$TEXTSTYLE
  7
Standard
  9
$CLAYER
  8
kvadrat
  9
$CELTYPE
  6
ByLayer
  9
$CECOLOR
 62
   256
  9
$CELTSCALE
 40
1.0
  9
$DISPSILH
 70
     0
  9
$DIMSCALE
 40
1.0
  9
$DIMASZ
 40
0.18
  9
$DIMEXO
 40
0.0625
  9
$DIMDLI
 40
0.38
  9
$DIMRND
 40
0.0
  9
$DIMDLE
 40
0.0
  9
$DIMEXE
 40
0.18
  9
$DIMTP
 40
0.0
  9
$DIMTM
 40
0.0
  9
$DIMTXT
 40
0.18
  9
$DIMCEN
 40
0.09
  9
$DIMTSZ
 40
0.0
  9
$DIMTOL
 70
     0
  9
$DIMLIM
 70
     0
  9
$DIMTIH
 70
     1
  9
$DIMTOH
 70
     1
  9
$DIMSE1
 70
     0
  9
$DIMSE2
 70
     0
  9
$DIMTAD
 70
     0
  9
$DIMZIN
 70
     0
  9
$DIMBLK
  1

  9
$DIMASO
 70
     1
  9
$DIMSHO
 70
     1
  9
$DIMPOST
  1

  9
$DIMAPOST
  1

  9
$DIMALT
 70
     0
  9
$DIMALTD
 70
     2
  9
$DIMALTF
 40
25.4
  9
$DIMLFAC
 40
1.0
  9
$DIMTOFL
 70
     0
  9
$DIMTVP
 40
0.0
  9
$DIMTIX
 70
     0
  9
$DIMSOXD
 70
     0
  9
$DIMSAH
 70
     0
  9
$DIMBLK1
  1

  9
$DIMBLK2
  1

  9
$DIMSTYLE
  2
Standard
  9
$DIMCLRD
 70
     0
  9
$DIMCLRE
 70
     0
  9
$DIMCLRT
 70
     0
  9
$DIMTFAC
 40
1.0
  9
$DIMGAP
 40
0.09
  9
$DIMJUST
 70
     0
  9
$DIMSD1
 70
     0
  9
$DIMSD2
 70
     0
  9
$DIMTOLJ
 70
     1
  9
$DIMTZIN
 70
     0
  9
$DIMALTZ
 70
     0
  9
$DIMALTTZ
 70
     0
  9
$DIMUPT
 70
     0
  9
$DIMDEC
 70
     4
  9
$DIMTDEC
 70
     4
  9
$DIMALTU
 70
     2
  9
$DIMALTTD
 70
     2
  9
$DIMTXSTY
  7
Standard
  9
$DIMAUNIT
 70
     0
  9
$DIMADEC
 70
     0
  9
$DIMALTRND
 40
0.0
  9
$DIMAZIN
 70
     0
  9
$DIMDSEP
 70
    46
  9
$DIMATFIT
 70
     3
  9
$DIMFRAC
 70
     0
  9
$DIMLDRBLK
  1

  9
$DIMLUNIT
 70
     2
  9
$DIMLWD
 70
    -2
  9
$DIMLWE
 70
    -2
  9
$DIMTMOVE
 70
     0
  9
$DIMFXL
 40
1.0
  9
$DIMFXLON
 70
     0
  9
$DIMJOGANG
 40
0.7853981633974483
  9
$DIMTFILL
 70
     0
  9
$DIMTFILLCLR
 70
     0
  9
$DIMARCSYM
 70
     0
  9
$DIMLTYPE
  6

  9
$DIMLTEX1
  6

  9
$DIMLTEX2
  6

  9
$DIMTXTDIRECTION
 70
     0
  9
$LUNITS
 70
     2
  9
$LUPREC
 70
     4
  9
$SKETCHINC
 40
0.1
  9
$FILLETRAD
 40
0.0
  9
$AUNITS
 70
     0
  9
$AUPREC
 70
     0
  9
$MENU
  1
.
  9
$ELEVATION
 40
0.0
  9
$PELEVATION
 40
0.0
  9
$THICKNESS
 40
0.0
  9
$LIMCHECK
 70
     0
  9
$CHAMFERA
 40
0.0
  9
$CHAMFERB
 40
0.0
  9
$CHAMFERC
 40
0.0
  9
$CHAMFERD
 40
0.0
  9
$SKPOLY
 70
     0
  9
$TDCREATE
 40
2453076.234991493
  9
$TDUCREATE
 40
2453076.193324826
  9
$TDUPDATE
 40
2457213.680128206
  9
$TDUUPDATE
 40
2457213.63846154
  9
$TDINDWG
 40
0.6223776736
  9
$TDUSRTIMER
 40
0.6223776736
  9
$USRTIMER
 70
     1
  9
$ANGBASE
 50
0.0
  9
$ANGDIR
 70
     0
  9
$PDMODE
 70
     1
  9
$PDSIZE
 40
0.0
  9
$PLINEWID
 40
0.0
  9
$SPLFRAME
 70
     0
  9
$SPLINETYPE
 70
     6
  9
$SPLINESEGS
 70
     8
  9
$HANDSEED
  5
34F5
  9
$SURFTAB1
 70
     6
  9
$SURFTAB2
 70
     6
  9
$SURFTYPE
 70
     6
  9
$SURFU
 70
     6
  9
$SURFV
 70
     6
  9
$UCSBASE
  2

  9
$UCSNAME
  2

  9
$UCSORG
 10
0.0
 20
0.0
 30
0.0
  9
$UCSXDIR
 10
1.0
 20
0.0
 30
0.0
  9
$UCSYDIR
 10
0.0
 20
1.0
 30
0.0
  9
$UCSORTHOREF
  2

  9
$UCSORTHOVIEW
 70
     0
  9
$UCSORGTOP
 10
0.0
 20
0.0
 30
0.0
  9
$UCSORGBOTTOM
 10
0.0
 20
0.0
 30
0.0
  9
$UCSORGLEFT
 10
0.0
 20
0.0
 30
0.0
  9
$UCSORGRIGHT
 10
0.0
 20
0.0
 30
0.0
  9
$UCSORGFRONT
 10
0.0
 20
0.0
 30
0.0
  9
$UCSORGBACK
 10
0.0
 20
0.0
 30
0.0
  9
$PUCSBASE
  2

  9
$PUCSNAME
  2

  9
$PUCSORG
 10
0.0
 20
0.0
 30
0.0
  9
$PUCSXDIR
 10
1.0
 20
0.0
 30
0.0
  9
$PUCSYDIR
 10
0.0
 20
1.0
 30
0.0
  9
$PUCSORTHOREF
  2

  9
$PUCSORTHOVIEW
 70
     0
  9
$PUCSORGTOP
 10
0.0
 20
0.0
 30
0.0
  9
$PUCSORGBOTTOM
 10
0.0
 20
0.0
 30
0.0
  9
$PUCSORGLEFT
 10
0.0
 20
0.0
 30
0.0
  9
$PUCSORGRIGHT
 10
0.0
 20
0.0
 30
0.0
  9
$PUCSORGFRONT
 10
0.0
 20
0.0
 30
0.0
  9
$PUCSORGBACK
 10
0.0
 20
0.0
 30
0.0
  9
$USERI1
 70
     0
  9
$USERI2
 70
     0
  9
$USERI3
 70
     0
  9
$USERI4
 70
     0
  9
$USERI5
 70
     0
  9
$USERR1
 40
0.0
  9
$USERR2
 40
0.0
  9
$USERR3
 40
0.0
  9
$USERR4
 40
0.0
  9
$USERR5
 40
0.0
  9
$WORLDVIEW
 70
     1
  9
$SHADEDGE
 70
     3
  9
$SHADEDIF
 70
    70
  9
$TILEMODE
 70
     1
  9
$MAXACTVP
 70
    64
  9
$PINSBASE
 10
0.0
 20
0.0
 30
0.0
  9
$PLIMCHECK
 70
     0
  9
$PEXTMIN
 10
149.9492188894341
 20
52.87275981377957
 30
-0.0015258207003583
  9
$PEXTMAX
 10
177.7345889671756
 20
71.88679868090617
 30
0.0000000349246037
  9
$PLIMMIN
 10
149.4306428396294
 20
52.37005152177212
  9
$PLIMMAX
 10
179.1306428396294
 20
73.37005152177213
  9
$UNITMODE
 70
     0
  9
$VISRETAIN
 70
     1
  9
$PLINEGEN
 70
     0
  9
$PSLTSCALE
 70
     1
  9
$TREEDEPTH
 70
  3020
  9
$CMLSTYLE
  2
Standard
  9
$CMLJUST
 70
     0
  9
$CMLSCALE
 40
1.0
  9
$PROXYGRAPHICS
 70
     1
  9
$MEASUREMENT
 70
     0
  9
$CELWEIGHT
370
    -1
  9
$ENDCAPS
280
     0
  9
$JOINSTYLE
280
     0
  9
$LWDISPLAY
290
     0
  9
$INSUNITS
 70
     0
  9
$HYPERLINKBASE
  1

  9
$STYLESHEET
  1

  9
$XEDIT
290
     1
  9
$CEPSNTYPE
380
     0
  9
$PSTYLEMODE
290
     1
  9
$FINGERPRINTGUID
  2
{B2E34891-A0FA-4F52-B179-C6CEE9230A31}
  9
$VERSIONGUID
  2
{B2A4D3D1-8344-48C1-B2D6-4E928B32851D}
  9
$EXTNAMES
290
     1
  9
$PSVPSCALE
 40
0.0
  9
$OLESTARTUP
290
     0
  9
$SORTENTS
280
   127
  9
$INDEXCTL
280
     0
  9
$HIDETEXT
280
     0
  9
$XCLIPFRAME
280
     0
  9
$HALOGAP
280
     0
  9
$OBSCOLOR
 70
   257
  9
$OBSLTYPE
280
     0
  9
$INTERSECTIONDISPLAY
280
     0
  9
$INTERSECTIONCOLOR
 70
   257
  9
$DIMASSOC
280
     1
  9
$PROJECTNAME
  1

  9
$CAMERADISPLAY
290
     0
  9
$LENSLENGTH
 40
50.0
  9
$CAMERAHEIGHT
 40
0.0
  9
$STEPSPERSEC
 40
2.0
  9
$STEPSIZE
 40
6.0
  9
$3DDWFPREC
 40
2.0
  9
$PSOLWIDTH
 40
0.25
  9
$PSOLHEIGHT
 40
4.0
  9
$LOFTANG1
 40
1.570796326794897
  9
$LOFTANG2
 40
1.570796326794897
  9
$LOFTMAG1
 40
0.0
  9
$LOFTMAG2
 40
0.0
  9
$LOFTPARAM
 70
     7
  9
$LOFTNORMALS
280
     1
  9
$LATITUDE
 40
37.795
  9
$LONGITUDE
 40
-122.394
  9
$NORTHDIRECTION
 40
0.0
  9
$TIMEZONE
 70
 -8000
  9
$LIGHTGLYPHDISPLAY
280
     1
  9
$TILEMODELIGHTSYNCH
280
     1
  9
$CMATERIAL
347
31D5
  9
$SOLIDHIST
280
     1
  9
$SHOWHIST
280
     1
  9
$DWFFRAME
280
     2
  9
$DGNFRAME
280
     0
  9
$REALWORLDSCALE
290
     1
  9
$INTERFERECOLOR
 62
     1
  9
$INTERFEREOBJVS
345
31E2
  9
$INTERFEREVPVS
346
31DF
  9
$CSHADOW
280
     0
  9
$SHADOWPLANELOCATION
 40
0.0
  0
ENDSEC
  0
SECTION
  2
CLASSES
  0
CLASS
  1
ACDBDICTIONARYWDFLT
  2
AcDbDictionaryWithDefault
  3
ObjectDBX Classes
 90
        0
 91
        4
280
     0
281
     0
  0
CLASS
  1
ACDBPLACEHOLDER
  2
AcDbPlaceHolder
  3
ObjectDBX Classes
 90
        0
 91
        1
280
     0
281
     0
  0
CLASS
  1
LAYOUT
  2
AcDbLayout
  3
ObjectDBX Classes
 90
        0
 91
        1
280
     0
281
     0
  0
CLASS
  1
IMAGE
  2
AcDbRasterImage
  3
ISM
 90
      127
 91
        5
280
     0
281
     1
  0
CLASS
  1
IMAGEDEF_REACTOR
  2
AcDbRasterImageDefReactor
  3
ISM
 90
        1
 91
        4
280
     0
281
     0
  0
CLASS
  1
IMAGEDEF
  2
AcDbRasterImageDef
  3
ISM
 90
        0
 91
        4
280
     0
281
     0
  0
CLASS
  1
RASTERVARIABLES
  2
AcDbRasterVariables
  3
ISM
 90
        0
 91
        4
280
     0
281
     0
  0
CLASS
  1
DICTIONARYVAR
  2
AcDbDictionaryVar
  3
ObjectDBX Classes
 90
        0
 91
        4
280
     0
281
     0
  0
CLASS
  1
MATERIAL
  2
AcDbMaterial
  3
ObjectDBX Classes
 90
     1153
 91
        4
280
     0
281
     0
  0
CLASS
  1
VISUALSTYLE
  2
AcDbVisualStyle
  3
ObjectDBX Classes
 90
     4095
 91
        4
280
     0
281
     0
  0
CLASS
  1
TABLESTYLE
  2
AcDbTableStyle
  3
ObjectDBX Classes
 90
     4095
 91
        4
280
     0
281
     0
  0
CLASS
  1
SORTENTSTABLE
  2
AcDbSortentsTable
  3
ObjectDBX Classes
 90
        0
 91
        4
280
     0
281
     0
  0
CLASS
  1
SCALE
  2
AcDbScale
  3
ObjectDBX Classes
 90
     1153
 91
        4
280
     0
281
     0
  0
CLASS
  1
MLEADERSTYLE
  2
AcDbMLeaderStyle
  3
ACDB_MLEADERSTYLE_CLASS
 90
     4095
 91
        4
280
     0
281
     0
  0
CLASS
  1
CELLSTYLEMAP
  2
AcDbCellStyleMap
  3
ObjectDBX Classes
 90
     1152
 91
        4
280
     0
281
     0
  0
ENDSEC
  0
SECTION
  2
TABLES
  0
TABLE
  2
VPORT
  5
8
330
0
100
AcDbSymbolTable
 70
     1
  0
VPORT
  5
31D2
330
8
100
AcDbSymbolTableRecord
100
AcDbViewportTableRecord
  2
*Active
 70
     0
 10
0.0
 20
0.0
 11
1.0
 21
1.0
 12
8609677.20698285
 22
4526025.302651056
 13
0.0
 23
0.0
 14
1.0
 24
1.0
 15
0.0
 25
0.0
 16
0.0
 26
0.0
 36
1.0
 17
0.0
 27
0.0
 37
0.0
 40
72.72479686984123
 41
2.037356321839081
 42
50.0
 43
0.0
 44
0.0
 50
0.0
 51
0.0
 71
     0
 72
   100
 73
     1
 74
     1
 75
     0
 76
     0
 77
     0
 78
     0
281
     0
 65
     1
110
0.0
120
0.0
130
0.0
111
1.0
121
0.0
131
0.0
112
0.0
122
1.0
132
0.0
 79
     0
146
0.0
348
31DE
 60
     3
 61
     5
292
     1
282
     1
141
0.0
142
0.0
 63
   250
421
  3355443
  0
ENDTAB
  0
TABLE
  2
LTYPE
  5
5
330
0
100
AcDbSymbolTable
 70
     5
  0
LTYPE
  5
13
330
5
100
AcDbSymbolTableRecord
100
AcDbLinetypeTableRecord
  2
ByBlock
 70
     0
  3

 72
    65
 73
     0
 40
0.0
  0
LTYPE
  5
14
330
5
100
AcDbSymbolTableRecord
100
AcDbLinetypeTableRecord
  2
ByLayer
 70
     0
  3

 72
    65
 73
     0
 40
0.0
  0
LTYPE
  5
15
330
5
100
AcDbSymbolTableRecord
100
AcDbLinetypeTableRecord
  2
Continuous
 70
     0
  3
Solid line
 72
    65
 73
     0
 40
0.0
  0
LTYPE
  5
22
330
5
100
AcDbSymbolTableRecord
100
AcDbLinetypeTableRecord
  2
B
 70
     0
  3
Solid line
 72
    65
 73
     0
 40
0.0
  0
LTYPE
  5
2230
330
5
100
AcDbSymbolTableRecord
100
AcDbLinetypeTableRecord
  2
ACAD_ISO04W100
 70
     0
  3
ISO long-dash dot ____ . ____ . ____ . ____ . _
 72
    65
 73
     4
 40
30.0
 49
24.0
 74
     0
 49
-3.0
 74
     0
 49
0.0
 74
     0
 49
-3.0
 74
     0
  0
LTYPE
  5
2231
330
5
100
AcDbSymbolTableRecord
100
AcDbLinetypeTableRecord
  2
ACAD_ISO02W100
 70
     0
  3
ISO dash __ __ __ __ __ __ __ __ __ __ __ __ __
 72
    65
 73
     2
 40
15.0
 49
12.0
 74
     0
 49
-3.0
 74
     0
  0
LTYPE
  5
33D7
330
5
100
AcDbSymbolTableRecord
100
AcDbLinetypeTableRecord
  2
ACAD_ISO10W100
 70
     0
  3
ISO dash dot __ . __ . __ . __ . __ . __ . __ .
 72
    65
 73
     4
 40
18.0
 49
12.0
 74
     0
 49
-3.0
 74
     0
 49
0.0
 74
     0
 49
-3.0
 74
     0
  0
ENDTAB
  0
TABLE
  2
LAYER
  5
2
102
{ACAD_XDICTIONARY
360
31F0
102
}
330
0
100
AcDbSymbolTable
 70
     9
  0
LAYER
  5
10
330
2
100
AcDbSymbolTableRecord
100
AcDbLayerTableRecord
  2
0
 70
     0
 62
     7
  6
Continuous
370
    -3
390
F
347
31D7
  0
LAYER
  5
876
330
2
100
AcDbSymbolTableRecord
100
AcDbLayerTableRecord
  2
roads_tracks
 70
     0
 62
   252
  6
Continuous
370
    -3
390
F
347
31D7
  0
LAYER
  5
8B1
330
2
100
AcDbSymbolTableRecord
100
AcDbLayerTableRecord
  2
features
 70
     0
 62
     1
  6
Continuous
370
    -3
390
F
347
31D7
  0
LAYER
  5
223B
330
2
100
AcDbSymbolTableRecord
100
AcDbLayerTableRecord
  2
text
 70
     0
 62
     7
  6
Continuous
370
    -3
390
F
347
31D7
  0
LAYER
  5
31F8
330
2
100
AcDbSymbolTableRecord
100
AcDbLayerTableRecord
  2
kvadrat
 70
     0
 62
    94
  6
ACAD_ISO02W100
370
    -3
390
F
347
31D7
  0
LAYER
  5
31F9
330
2
100
AcDbSymbolTableRecord
100
AcDbLayerTableRecord
  2
stripped_area
 70
     0
 62
     4
  6
ACAD_ISO04W100
370
    -3
390
F
347
31D7
  0
LAYER
  5
33C0
330
2
100
AcDbSymbolTableRecord
100
AcDbLayerTableRecord
  2
Skeleton
 70
     0
 62
    56
  6
Continuous
370
    -3
390
F
347
31D7
1001
AcAecLayerStandard
1000

1000

  0
LAYER
  5
33D8
330
2
100
AcDbSymbolTableRecord
100
AcDbLayerTableRecord
  2
Hearth
 70
     0
 62
    25
  6
Continuous
370
    -3
390
F
347
31D7
1001
AcAecLayerStandard
1000

1000

  0
LAYER
  5
3402
330
2
100
AcDbSymbolTableRecord
100
AcDbLayerTableRecord
  2
Jar
 70
     0
 62
     6
  6
Continuous
370
    -3
390
F
347
31D7
1001
AcAecLayerStandard
1000

1000

  0
ENDTAB
  0
TABLE
  2
STYLE
  5
3
330
0
100
AcDbSymbolTable
 70
     2
  0
STYLE
  5
11
330
3
100
AcDbSymbolTableRecord
100
AcDbTextStyleTableRecord
  2
Standard
 70
     0
 40
0.0
 41
1.0
 50
0.0
 71
     0
 42
0.2
  3
txt
  4

  0
STYLE
  5
33C2
330
3
100
AcDbSymbolTableRecord
100
AcDbTextStyleTableRecord
  2
CourierNew
 70
     0
 40
0.0
 41
1.0
 50
0.0
 71
     0
 42
0.2
  3
cour.ttf
  4

1001
ACAD
1000
Courier New
1071
       49
  0
ENDTAB
  0
TABLE
  2
VIEW
  5
6
330
0
100
AcDbSymbolTable
 70
     0
  0
ENDTAB
  0
TABLE
  2
UCS
  5
7
330
0
100
AcDbSymbolTable
 70
     0
  0
ENDTAB
  0
TABLE
  2
APPID
  5
9
330
0
100
AcDbSymbolTable
 70
     4
  0
APPID
  5
12
330
9
100
AcDbSymbolTableRecord
100
AcDbRegAppTableRecord
  2
ACAD
 70
     0
  0
APPID
  5
31FB
330
9
100
AcDbSymbolTableRecord
100
AcDbRegAppTableRecord
  2
AcAecLayerStandard
 70
     0
  0
APPID
  5
3353
330
9
100
AcDbSymbolTableRecord
100
AcDbRegAppTableRecord
  2
ACAD_EXEMPT_FROM_CAD_STANDARDS
 70
     0
  0
APPID
  5
3374
330
9
100
AcDbSymbolTableRecord
100
AcDbRegAppTableRecord
  2
ACAD_PSEXT
 70
     0
  0
ENDTAB
  0
TABLE
  2
DIMSTYLE
  5
A
330
0
100
AcDbSymbolTable
 70
     2
100
AcDbDimStyleTable
  0
DIMSTYLE
105
14E
330
A
100
AcDbSymbolTableRecord
100
AcDbDimStyleTableRecord
  2
Standard
 70
     0
178
     0
340
11
  0
DIMSTYLE
105
33D9
330
A
100
AcDbSymbolTableRecord
100
AcDbDimStyleTableRecord
  2
ISO-25
 70
     0
 41
2.5
 42
0.625
 43
3.75
 44
1.25
 73
     0
 74
     0
 77
     1
 78
     8
140
2.5
141
2.5
143
0.03937007874016
147
0.625
171
     3
172
     1
178
     0
271
     2
272
     2
274
     3
278
    44
283
     0
284
     8
340
11
  0
ENDTAB
  0
TABLE
  2
BLOCK_RECORD
  5
1
330
0
100
AcDbSymbolTable
 70
     1
  0
BLOCK_RECORD
  5
1E
102
{ACAD_XDICTIONARY
360
3360
102
}
330
1
100
AcDbSymbolTableRecord
100
AcDbBlockTableRecord
  2
*Model_Space
340
21
 70
     0
280
     1
281
     0
  0
BLOCK_RECORD
  5
1A
330
1
100
AcDbSymbolTableRecord
100
AcDbBlockTableRecord
  2
*Paper_Space
340
1D
 70
     0
280
     1
281
     0
  0
BLOCK_RECORD
  5
33E8
102
{ACAD_XDICTIONARY
360
33ED
102
}
330
1
100
AcDbSymbolTableRecord
100
AcDbBlockTableRecord
  2
A$C00294823
340
0
 70
     4
280
     1
281
     0
  0
ENDTAB
  0
ENDSEC
  0
SECTION
  2
BLOCKS
  0
BLOCK
  5
1F
330
1E
100
AcDbEntity
  8
0
100
AcDbBlockBegin
  2
*Model_Space
 70
     0
 10
0.0
 20
0.0
 30
0.0
  3
*Model_Space
  1

  0
ENDBLK
  5
20
330
1E
100
AcDbEntity
  8
0
100
AcDbBlockEnd
  0
BLOCK
  5
1B
330
1A
100
AcDbEntity
 67
     1
  8
0
100
AcDbBlockBegin
  2
*Paper_Space
 70
     0
 10
0.0
 20
0.0
 30
0.0
  3
*Paper_Space
  1

  0
ENDBLK
  5
1C
330
1A
100
AcDbEntity
 67
     1
  8
0
100
AcDbBlockEnd
  0
BLOCK
  5
33EF
330
33E8
100
AcDbEntity
  8
0
100
AcDbBlockBegin
  2
A$C00294823
 70
     0
 10
0.0
 20
0.0
 30
0.0
  3
A$C00294823
  1

  0
LWPOLYLINE
  5
33E9
330
33E8
100
AcDbEntity
  8
Hearth
100
AcDbPolyline
 90
        2
 70
     1
 43
0.3500000003247064
 10
0.3213037066161633
 20
3.297595481388271
 42
1.0
 10
1.021303705871105
 20
3.297595481388271
 42
1.0
  0
MTEXT
  5
33EA
330
33E8
100
AcDbEntity
  8
text
  6
Continuous
100
AcDbMText
 10
0.049345787614584
 20
0.8192440811544657
 30
-1155.224438699406
 40
0.6
 41
425.8195
 46
0.0
 71
     1
 72
     5
  1
{\fTahoma|b0|i0|c0|p34;Sp}
 73
     1
 44
1.0
  0
MTEXT
  5
33EB
330
33E8
100
AcDbEntity
  8
text
  6
Continuous
100
AcDbMText
 10
2.650735180824995
 20
0.8192440811544657
 30
-1155.224438699406
 40
0.6
 41
425.8195
 46
0.0
 71
     1
 72
     5
  1
{\fTahoma|b0|i0|c0|p34;Storage Pit}
 73
     1
 44
1.0
  0
MTEXT
  5
33EC
330
33E8
100
AcDbEntity
  8
text
  6
Continuous
100
AcDbMText
 10
2.74163112975657
 20
3.602042141370475
 30
-1155.224438699406
 40
0.6
 41
425.8195
 46
0.0
 71
     1
 72
     5
  1
{\fTahoma|b0|i0|c0|p34;Hearth}
 73
     1
 44
1.0
  0
ENDBLK
  5
33F0
330
33E8
100
AcDbEntity
  8
0
100
AcDbBlockEnd
  0
ENDSEC
  0
SECTION
  2
ENTITIES
  0
LINE
  5
21A9
330
1E
100
AcDbEntity
  8
text
  6
Continuous
 62
     1
100
AcDbLine
 10
8609622.152481407
 20
4526006.047190891
 30
0.0
 11
8609628.269390514
 21
4526006.440087819
 31
0.0
  0
LINE
  5
21AA
330
1E
100
AcDbEntity
  8
text
  6
Continuous
 62
     1
100
AcDbLine
 10
8609622.152481407
 20
4526034.10489065
 30
0.0
 11
8609625.2640763
 21
4526034.304752387
 31
0.0
  0
LINE
  5
21D2
330
1E
100
AcDbEntity
  8
stripped_area
 48
0.1
100
AcDbLine
 10
8609622.152481407
 20
4525998.030705245
 30
0.0
 11
8609653.496437008
 21
4526000.043967767
 31
0.0
  0
LINE
  5
21D3
330
1E
100
AcDbEntity
  8
stripped_area
 48
0.1
100
AcDbLine
 10
8609622.152481407
 20
4526042.121376295
 30
0.0
 11
8609660.607974155
 21
4526044.59142198
 31
0.0
  0
LINE
  5
2229
330
1E
100
AcDbEntity
  8
kvadrat
 48
0.1
100
AcDbLine
 10
8609658.84902231
 20
4526034.462514969
 30
0.0
 11
8609658.40008809
 21
4526038.43724239
 31
0.0
  0
LINE
  5
222B
330
1E
100
AcDbEntity
  8
kvadrat
 48
0.1
100
AcDbLine
 10
8609626.199814565
 20
4526036.368977468
 30
0.0
 11
8609626.456211343
 21
4526032.37720334
 31
0.0
  0
LINE
  5
222C
330
1E
100
AcDbEntity
  8
kvadrat
 48
0.1
100
AcDbLine
 10
8609669.035914365
 20
4526039.120395171
 30
0.0
 11
8609669.292311143
 21
4526035.128621042
 31
0.0
  0
LINE
  5
222D
330
1E
100
AcDbEntity
  8
kvadrat
 48
0.1
100
AcDbLine
 10
8609669.292311143
 20
4526035.128621042
 30
0.0
 11
8609723.69448271
 21
4526038.622942387
 31
0.0
  0
LINE
  5
222E
330
1E
100
AcDbEntity
  8
kvadrat
 48
0.1
100
AcDbLine
 10
8609723.69448271
 20
4526038.622942387
 30
0.0
 11
8609723.43808593
 21
4526042.614716516
 31
0.0
  0
LINE
  5
222F
330
1E
100
AcDbEntity
  8
kvadrat
 48
0.1
100
AcDbLine
 10
8609723.43808593
 20
4526042.614716516
 30
0.0
 11
8609669.035914365
 21
4526039.120395171
 31
0.0
  0
LINE
  5
318E
330
1E
100
AcDbEntity
  8
text
  6
Continuous
 62
     1
100
AcDbLine
 10
8609724.36059509
 20
4526040.669849052
 30
0.0
 11
8609730.910833787
 21
4526041.090579296
 31
0.0
  0
LINE
  5
318F
330
1E
100
AcDbEntity
  8
text
  6
Continuous
 62
     1
100
AcDbLine
 10
8609659.720375989
 20
4526036.517924764
 30
0.0
 11
8609668.450358763
 21
4526037.078662771
 31
0.0
  0
LINE
  5
3192
330
1E
100
AcDbEntity
  8
stripped_area
 48
0.1
100
AcDbLine
 10
8609664.672930658
 20
4526044.852519358
 30
0.0
 11
8609730.910833787
 21
4526049.10706494
 31
0.0
  0
LINE
  5
3193
330
1E
100
AcDbEntity
  8
stripped_area
 48
0.1
100
AcDbLine
 10
8609658.577765096
 20
4526000.370347995
 30
0.0
 11
8609730.910833787
 21
4526005.016393891
 31
0.0
  0
LINE
  5
31A4
330
1E
100
AcDbEntity
  8
text
  6
Continuous
 62
     1
100
AcDbLine
 10
8609664.555561261
 20
4526008.770795166
 30
0.0
 11
8609669.354167057
 21
4526009.079015778
 31
0.0
  0
POLYLINE
  5
31AD
330
1E
100
AcDbEntity
  8
roads_tracks
  6
B
100
AcDb3dPolyline
 66
     1
 10
0.0
 20
0.0
 30
0.0
 70
     8
  0
VERTEX
  5
31AE
330
31AD
100
AcDbEntity
  8
roads_tracks
  6
B
100
AcDbVertex
100
AcDb3dPolylineVertex
 10
8609660.76196392
 20
4526051.324714785
 30
176.3314273710489
 70
    32
  0
VERTEX
  5
31AF
330
31AD
100
AcDbEntity
  8
roads_tracks
  6
B
100
AcDbVertex
100
AcDb3dPolylineVertex
 10
8609660.76196392
 20
4526051.324714785
 30
176.3314273710489
 70
    32
  0
VERTEX
  5
31B0
330
31AD
100
AcDbEntity
  8
roads_tracks
  6
B
100
AcDbVertex
100
AcDb3dPolylineVertex
 10
8609660.589542918
 20
4526043.785505419
 30
176.367
 70
    32
  0
VERTEX
  5
31B1
330
31AD
100
AcDbEntity
  8
roads_tracks
  6
B
100
AcDbVertex
100
AcDb3dPolylineVertex
 10
8609660.058379298
 20
4526035.044022982
 30
176.502
 70
    32
  0
VERTEX
  5
31B2
330
31AD
100
AcDbEntity
  8
roads_tracks
  6
B
100
AcDbVertex
100
AcDb3dPolylineVertex
 10
8609657.692887984
 20
4526021.140838603
 30
176.725
 70
    32
  0
VERTEX
  5
31B3
330
31AD
100
AcDbEntity
  8
roads_tracks
  6
B
100
AcDbVertex
100
AcDb3dPolylineVertex
 10
8609655.43475295
 20
4526009.788487915
 30
176.9441928986679
 70
    32
  0
SEQEND
  5
31B4
330
31AD
100
AcDbEntity
  8
roads_tracks
  6
B
  0
POLYLINE
  5
31B5
330
1E
100
AcDbEntity
  8
roads_tracks
  6
B
100
AcDb3dPolyline
 66
     1
 10
0.0
 20
0.0
 30
0.0
 70
     8
  0
VERTEX
  5
31B6
330
31B5
100
AcDbEntity
  8
roads_tracks
  6
B
100
AcDbVertex
100
AcDb3dPolylineVertex
 10
8609654.799966244
 20
4526006.597216711
 30
177.0058104442087
 70
    32
  0
VERTEX
  5
31B7
330
31B5
100
AcDbEntity
  8
roads_tracks
  6
B
100
AcDbVertex
100
AcDb3dPolylineVertex
 10
8609653.314519
 20
4525999.129409073
 30
177.15
 70
    32
  0
VERTEX
  5
31B8
330
31B5
100
AcDbEntity
  8
roads_tracks
  6
B
100
AcDbVertex
100
AcDb3dPolylineVertex
 10
8609652.764336918
 20
4525994.524797831
 30
177.268
 70
    32
  0
VERTEX
  5
31B9
330
31B5
100
AcDbEntity
  8
roads_tracks
  6
B
100
AcDbVertex
100
AcDb3dPolylineVertex
 10
8609652.481637882
 20
4525993.03579724
 30
177.3010354532947
 70
    32
  0
SEQEND
  5
31BA
330
31B5
100
AcDbEntity
  8
roads_tracks
  6
B
  0
POLYLINE
  5
31BB
330
1E
100
AcDbEntity
  8
roads_tracks
  6
B
100
AcDb3dPolyline
 66
     1
 10
0.0
 20
0.0
 30
0.0
 70
     8
  0
VERTEX
  5
31BC
330
31BB
100
AcDbEntity
  8
roads_tracks
  6
B
100
AcDbVertex
100
AcDb3dPolylineVertex
 10
8609657.456850141
 20
4525993.03579724
 30
177.2623950456265
 70
    32
  0
VERTEX
  5
31BD
330
31BB
100
AcDbEntity
  8
roads_tracks
  6
B
100
AcDbVertex
100
AcDb3dPolylineVertex
 10
8609658.320224425
 20
4525997.839262499
 30
177.163
 70
    32
  0
VERTEX
  5
31BE
330
31BB
100
AcDbEntity
  8
roads_tracks
  6
B
100
AcDbVertex
100
AcDb3dPolylineVertex
 10
8609659.262488792
 20
4526007.099748109
 30
176.935661973722
 70
    32
  0
SEQEND
  5
31BF
330
31BB
100
AcDbEntity
  8
roads_tracks
  6
B
  0
POLYLINE
  5
31C9
330
1E
100
AcDbEntity
  8
roads_tracks
  6
B
100
AcDb3dPolyline
 66
     1
 10
0.0
 20
0.0
 30
0.0
 70
     8
  0
VERTEX
  5
31CA
330
31C9
100
AcDbEntity
  8
roads_tracks
  6
B
100
AcDbVertex
100
AcDb3dPolylineVertex
 10
8609659.650222402
 20
4526010.142615502
 30
176.8674426633867
 70
    32
  0
VERTEX
  5
31CB
330
31C9
100
AcDbEntity
  8
roads_tracks
  6
B
100
AcDbVertex
100
AcDb3dPolylineVertex
 10
8609661.594007049
 20
4526019.74235012
 30
176.712
 70
    32
  0
VERTEX
  5
31CC
330
31C9
100
AcDbEntity
  8
roads_tracks
  6
B
100
AcDbVertex
100
AcDb3dPolylineVertex
 10
8609663.371184777
 20
4526030.567447408
 30
176.483
 70
    32
  0
VERTEX
  5
31CD
330
31C9
100
AcDbEntity
  8
roads_tracks
  6
B
100
AcDbVertex
100
AcDb3dPolylineVertex
 10
8609664.029123297
 20
4526038.694976978
 30
176.388
 70
    32
  0
VERTEX
  5
31CE
330
31C9
100
AcDbEntity
  8
roads_tracks
  6
B
100
AcDbVertex
100
AcDb3dPolylineVertex
 10
8609664.89273866
 20
4526046.954820712
 30
176.283
 70
    32
  0
VERTEX
  5
31CF
330
31C9
100
AcDbEntity
  8
roads_tracks
  6
B
100
AcDbVertex
100
AcDb3dPolylineVertex
 10
8609665.575740635
 20
4526053.196308609
 30
176.2016793219717
 70
    32
  0
VERTEX
  5
31D0
330
31C9
100
AcDbEntity
  8
roads_tracks
  6
B
100
AcDbVertex
100
AcDb3dPolylineVertex
 10
8609665.575740635
 20
4526053.196308609
 30
176.2016793219717
 70
    32
  0
SEQEND
  5
31D1
330
31C9
100
AcDbEntity
  8
roads_tracks
  6
B
  0
MTEXT
  5
326B
330
1E
100
AcDbEntity
  8
text
  6
Continuous
100
AcDbMText
 10
8609726.533686537
 20
4526039.270998812
 30
0.0
 40
1.2
 41
851.639
 46
0.0
 71
     1
 72
     5
  1
{\fTahoma|b0|i0|c0|p34;SCP}
 73
     1
 44
1.0
  0
MTEXT
  5
3291
330
1E
100
AcDbEntity
  8
text
  6
Continuous
100
AcDbMText
 10
8609625.770800045
 20
4526059.008336556
 30
223.0716078569948
 40
2.0
 41
56.16
 46
0.0
 71
     1
 72
     5
  1
{\fTahoma|b0|i0|c0|p34;316 Seyidlar \H0.75x;Bronze Age Settlement}
 73
     1
 44
1.0
  0
MTEXT
  5
3292
330
1E
100
AcDbEntity
  8
text
  6
Continuous
100
AcDbMText
 10
8609625.784922842
 20
4526055.413026582
 30
0.0
 40
1.2
 41
851.639
 46
0.0
 71
     1
 72
     5
  1
{\fTahoma|b0|i0|c0|p34;BTC & SCP 2004-5 KP 316\PGrid Reference \fArial|b0|i0|c0|p34;8609698 4525970\P\H0.75x;Compiled from survey data and \PHuseynov, M. Agayev, A. Ashurov, S. 2007}
 73
     1
 44
1.0
  0
LWPOLYLINE
  5
3293
330
1E
100
AcDbEntity
  8
text
  6
Continuous
100
AcDbPolyline
 90
        2
 70
   128
 43
0.063
 38
374.3131999999728
 10
8609726.863085069
 20
4526057.674103878
 10
8609726.86308507
 20
4526053.624706238
  0
LWPOLYLINE
  5
3294
330
1E
100
AcDbEntity
  8
text
  6
Continuous
100
AcDbPolyline
 90
        2
 70
   128
 38
374.3131999999728
 10
8609726.86308507
 20
4526059.453776509
 40
0.0
 41
0.6299999999999999
 10
8609726.863085069
 20
4526057.674103878
 40
0.6299999999999999
 41
0.6299999999999999
  0
MTEXT
  5
3295
330
1E
100
AcDbEntity
  8
text
  6
Continuous
100
AcDbMText
 10
8609726.57529893
 20
4526053.309377497
 30
-434.509990000027
 40
0.7349999999999999
 41
0.6957559614628543
 46
0.0
 71
     1
 72
     5
  1
{\fTahoma|b0|i0|c0|p34;N}
 11
1.0
 21
1.253522841082599E-10
 31
0.0
 73
     1
 44
1.0
  0
MTEXT
  5
32B3
330
1E
100
AcDbEntity
  8
text
  6
Continuous
100
AcDbMText
 10
8609720.669861374
 20
4525995.530553338
 30
372.3034892264313
 40
1.0
 41
5.266
 46
0.0
 71
     1
 72
     5
  1
{\fTahoma|b0|i0|c0|p34;50m}
 73
     1
 44
1.0
  0
LINE
  5
32B4
330
1E
100
AcDbEntity
  8
text
  6
Continuous
100
AcDbLine
 10
8609670.983620558
 20
4525993.279494009
 30
372.3034892264313
 11
8609720.983620558
 21
4525993.279494009
 31
372.3034892264313
  0
LINE
  5
32B5
330
1E
100
AcDbEntity
  8
text
  6
Continuous
100
AcDbLine
 10
8609670.983620558
 20
4525993.279494009
 30
372.3034892264313
 11
8609670.983620558
 21
4525994.279494009
 31
372.3034892264313
  0
LINE
  5
32B6
330
1E
100
AcDbEntity
  8
text
  6
Continuous
100
AcDbLine
 10
8609720.983620558
 20
4525993.279494009
 30
372.3034892264313
 11
8609720.983620558
 21
4525994.279494009
 31
372.3034892264313
  0
LINE
  5
32B7
330
1E
100
AcDbEntity
  8
text
  6
Continuous
100
AcDbLine
 10
8609710.983620558
 20
4525993.279494009
 30
372.3034892264313
 11
8609710.983620558
 21
4525994.279494009
 31
372.3034892264313
  0
LINE
  5
32B8
330
1E
100
AcDbEntity
  8
text
  6
Continuous
100
AcDbLine
 10
8609700.983620558
 20
4525993.279494009
 30
372.3034892264313
 11
8609700.983620558
 21
4525994.279494009
 31
372.3034892264313
  0
LINE
  5
32B9
330
1E
100
AcDbEntity
  8
text
  6
Continuous
100
AcDbLine
 10
8609690.983620558
 20
4525993.279494009
 30
372.3034892264313
 11
8609690.983620558
 21
4525994.279494009
 31
372.3034892264313
  0
LINE
  5
32BA
330
1E
100
AcDbEntity
  8
text
  6
Continuous
100
AcDbLine
 10
8609680.983620558
 20
4525993.279494009
 30
372.3034892264313
 11
8609680.983620558
 21
4525994.279494009
 31
372.3034892264313
  0
MTEXT
  5
32BB
330
1E
100
AcDbEntity
  8
text
  6
Continuous
100
AcDbMText
 10
8609670.669861374
 20
4525995.530553338
 30
372.3034892264313
 40
1.0
 41
5.266
 46
0.0
 71
     1
 72
     5
  1
{\fTahoma|b0|i0|c0|p34;0}
 73
     1
 44
1.0
  0
SPLINE
  5
333A
330
1E
100
AcDbEntity
  8
Jar
  6
Continuous
100
AcDbSpline
210
0.0
220
0.0
230
1.0
 70
  1067
 71
     3
 72
    13
 73
     9
 74
     7
 42
0.000000001
 43
0.0000000001
 44
0.0000000001
 12
0.9549328445219796
 22
0.2968219372842258
 32
0.0
 13
0.9549328445219796
 23
0.2968219372842258
 33
0.0
 40
0.0
 40
0.0
 40
0.0
 40
0.0
 40
0.4707445401319637
 40
1.029668031521005
 40
1.568228490878335
 40
2.286210579744378
 40
2.761655548234107
 40
3.246521703134963
 40
3.246521703134963
 40
3.246521703134963
 40
3.246521703134963
 10
8609636.546490483
 20
4526036.587386345
 30
0.0
 10
8609636.696333624
 20
4526036.633962113
 30
0.0
 10
8609636.905928468
 20
4526036.988824951
 30
0.0
 10
8609636.759667717
 20
4526037.595807027
 30
0.0
 10
8609636.017205369
 20
4526037.664064886
 30
0.0
 10
8609635.622356465
 20
4526037.007455861
 30
0.0
 10
8609636.034733545
 20
4526036.46761963
 30
0.0
 10
8609636.392152278
 20
4526036.539413374
 30
0.0
 10
8609636.546490483
 20
4526036.587386345
 30
0.0
 11
8609636.546490483
 21
4526036.587386345
 31
0.0
 11
8609636.824098751
 21
4526036.967562714
 31
0.0
 11
8609636.667905457
 21
4526037.504218212
 31
0.0
 11
8609636.132360596
 21
4526037.561131041
 31
0.0
 11
8609635.77167213
 21
4526036.940323414
 31
0.0
 11
8609636.062190428
 21
4526036.563963166
 31
0.0
 11
8609636.546490483
 21
4526036.587386345
 31
0.0
  0
SPLINE
  5
333B
330
1E
100
AcDbEntity
  8
Jar
  6
Continuous
100
AcDbSpline
210
0.0
220
0.0
230
1.0
 70
  1067
 71
     3
 72
    14
 73
    10
 74
     8
 42
0.000000001
 43
0.0000000001
 44
0.0000000001
 12
-0.635115262136339
 22
0.7724173766827683
 32
0.0
 13
-0.635115262136339
 23
0.7724173766827683
 33
0.0
 40
0.0
 40
0.0
 40
0.0
 40
0.0
 40
0.6302986641152818
 40
1.387495528890827
 40
1.88910504453933
 40
2.540034273287969
 40
2.973874719544571
 40
3.351717525919259
 40
3.617326452924455
 40
3.617326452924455
 40
3.617326452924455
 40
3.617326452924455
 10
8609642.235399805
 20
4526036.957175637
 30
0.0
 10
8609642.10196237
 20
4526037.119460183
 30
0.0
 10
8609642.174441747
 20
4526037.730577552
 30
0.0
 10
8609642.987030141
 20
4526037.978585466
 30
0.0
 10
8609643.39872145
 20
4526037.383566372
 30
0.0
 10
8609643.276955087
 20
4526036.750852163
 30
0.0
 10
8609642.773357034
 20
4526036.589286014
 30
0.0
 10
8609642.377163257
 20
4526036.67460013
 30
0.0
 10
8609642.291630566
 20
4526036.888788654
 30
0.0
 10
8609642.235399805
 20
4526036.957175637
 30
0.0
 11
8609642.235399805
 21
4526036.957175637
 31
0.0
 11
8609642.276017614
 21
4526037.58616419
 31
0.0
 11
8609642.999239895
 21
4526037.810433276
 31
0.0
 11
8609643.302712403
 21
4526037.411038054
 31
0.0
 11
8609643.155784821
 21
4526036.776907826
 31
0.0
 11
8609642.748637594
 21
4526036.627079029
 31
0.0
 11
8609642.38799215
 21
4526036.739773524
 31
0.0
 11
8609642.235399805
 21
4526036.957175637
 31
0.0
  0
SPLINE
  5
333C
330
1E
100
AcDbEntity
  8
Jar
  6
Continuous
100
AcDbSpline
210
0.0
220
0.0
230
1.0
 70
  1067
 71
     3
 72
    13
 73
     9
 74
     7
 42
0.000000001
 43
0.0000000001
 44
0.0000000001
 12
-0.2790880822017795
 22
-0.9602655061871861
 32
0.0
 13
-0.2790880822017795
 23
-0.9602655061871861
 33
0.0
 40
0.0
 40
0.0
 40
0.0
 40
0.0
 40
0.7575095985094114
 40
1.457444124338113
 40
2.219428119202861
 40
2.71738369903271
 40
3.221464109483436
 40
3.635222373562796
 40
3.635222373562796
 40
3.635222373562796
 40
3.635222373562796
 10
8609642.153417535
 20
4526035.959436289
 30
0.0
 10
8609642.082946902
 20
4526035.716966176
 30
0.0
 10
8609641.572682377
 20
4526035.315323781
 30
0.0
 10
8609640.769694256
 20
4526035.858124336
 30
0.0
 10
8609641.113642164
 20
4526036.6845927
 30
0.0
 10
8609641.751105439
 20
4526036.730288118
 30
0.0
 10
8609642.212051488
 20
4526036.439776751
 30
0.0
 10
8609642.191909201
 20
4526036.091875552
 30
0.0
 10
8609642.153417535
 20
4526035.959436289
 30
0.0
 11
8609642.153417535
 21
4526035.959436289
 31
0.0
 11
8609641.5479221
 21
4526035.504248338
 31
0.0
 11
8609640.972198246
 21
4526035.902306604
 31
0.0
 11
8609641.245634707
 21
4526036.613539414
 31
0.0
 11
8609641.74003431
 21
4526036.672943047
 31
0.0
 11
8609642.145249758
 21
4526036.373113927
 31
0.0
 11
8609642.153417535
 21
4526035.959436289
 31
0.0
  0
SPLINE
  5
333D
330
1E
100
AcDbEntity
  8
features
  6
Continuous
100
AcDbSpline
210
0.0
220
0.0
230
1.0
 70
  1064
 71
     3
 72
    13
 73
     9
 74
     7
 42
0.000000001
 43
0.0000000001
 44
0.0000000001
 40
0.0
 40
0.0
 40
0.0
 40
0.0
 40
0.1834561245155016
 40
0.3643536727786139
 40
0.591659279349324
 40
0.7661631388502994
 40
0.9470607208723165
 40
1.02634257671152
 40
1.02634257671152
 40
1.02634257671152
 40
1.02634257671152
 10
8609643.358920181
 20
4526034.290466304
 30
0.0
 10
8609643.35687637
 20
4526034.357427
 30
0.0
 10
8609643.35281725
 20
4526034.490414523
 30
0.0
 10
8609643.633289026
 20
4526034.568328136
 30
0.0
 10
8609643.631754298
 20
4526034.292954214
 30
0.0
 10
8609643.574681345
 20
4526034.122851102
 30
0.0
 10
8609643.373758696
 20
4526034.0420023
 30
0.0
 10
8609643.340038462
 20
4526034.131612883
 30
0.0
 10
8609643.329763234
 20
4526034.158919012
 30
0.0
 11
8609643.358920181
 21
4526034.290466304
 31
0.0
 11
8609643.397606198
 21
4526034.46979712
 31
0.0
 11
8609643.573076481
 21
4526034.513775554
 31
0.0
 11
8609643.619359422
 21
4526034.291231788
 31
0.0
 11
8609643.54409497
 21
4526034.133793358
 31
0.0
 11
8609643.368624697
 21
4526034.089814748
 31
0.0
 11
8609643.329763234
 21
4526034.158919012
 31
0.0
  0
SPLINE
  5
333E
330
1E
100
AcDbEntity
  8
Jar
  6
Continuous
100
AcDbSpline
210
0.0
220
0.0
230
1.0
 70
  1067
 71
     3
 72
    15
 73
    11
 74
     9
 42
0.000000001
 43
0.0000000001
 44
0.0000000001
 12
-0.9676140904795392
 22
-0.2524340941819354
 32
0.0
 13
-0.9676140904795392
 23
-0.2524340941819354
 33
0.0
 40
0.0
 40
0.0
 40
0.0
 40
0.0
 40
0.6890501752009361
 40
1.230227979475427
 40
1.513628994247648
 40
1.86314522285328
 40
2.263310890649866
 40
2.638748541662989
 40
2.907540554365126
 40
3.080938304011875
 40
3.080938304011875
 40
3.080938304011875
 40
3.080938304011875
 10
8609653.479278317
 20
4526033.521908412
 30
0.0
 10
8609653.25703343
 20
4526033.463928493
 30
0.0
 10
8609652.672706684
 20
4526033.587130466
 30
0.0
 10
8609652.816216147
 20
4526034.240611026
 30
0.0
 10
8609653.126362335
 20
4526034.46147734
 30
0.0
 10
8609653.503864765
 20
4526034.605495367
 30
0.0
 10
8609653.755206488
 20
4526034.233727979
 30
0.0
 10
8609653.818456726
 20
4526033.870332455
 30
0.0
 10
8609653.647953171
 20
4526033.643015478
 30
0.0
 10
8609653.535205685
 20
4526033.536498913
 30
0.0
 10
8609653.479278317
 20
4526033.521908412
 30
0.0
 11
8609653.479278317
 21
4526033.521908412
 31
0.0
 11
8609652.822372388
 21
4526033.729910202
 31
0.0
 11
8609652.900804613
 21
4526034.265374302
 31
0.0
 11
8609653.121746691
 21
4526034.442858761
 31
0.0
 11
8609653.462214056
 21
4526034.521875007
 31
0.0
 11
8609653.727112405
 21
4526034.221939303
 31
0.0
 11
8609653.766038803
 21
4526033.848525102
 31
0.0
 11
8609653.620472234
 21
4526033.622561566
 31
0.0
 11
8609653.479278317
 21
4526033.521908412
 31
0.0
  0
SPLINE
  5
333F
330
1E
100
AcDbEntity
  8
Jar
  6
Continuous
100
AcDbSpline
210
0.0
220
0.0
230
1.0
 70
  1067
 71
     3
 72
    17
 73
    13
 74
    11
 42
0.000000001
 43
0.0000000001
 44
0.0000000001
 12
0.9876146482281767
 22
0.1568990331555129
 32
0.0
 13
0.9876146482281767
 23
0.1568990331555129
 33
0.0
 40
0.0
 40
0.0
 40
0.0
 40
0.0
 40
0.2341556459498545
 40
0.4278965163008226
 40
0.7226617849224737
 40
0.9521562694358882
 40
1.22560148712509
 40
1.51715817686376
 40
1.65879642099027
 40
1.761416511015173
 40
1.798980474289849
 40
1.901600567223705
 40
1.901600567223705
 40
1.901600567223705
 40
1.901600567223705
 10
8609651.478030607
 20
4526034.561433774
 30
0.0
 10
8609651.55511579
 20
4526034.573680039
 30
0.0
 10
8609651.688853398
 20
4526034.628682801
 30
0.0
 10
8609651.864541642
 20
4526034.841886169
 30
0.0
 10
8609651.661177076
 20
4526035.097400494
 30
0.0
 10
8609651.380584804
 20
4526035.083778653
 30
0.0
 10
8609651.145105097
 20
4526034.870036936
 30
0.0
 10
8609651.211973371
 20
4526034.660479091
 30
0.0
 10
8609651.235767152
 20
4526034.403362496
 30
0.0
 10
8609651.340856537
 20
4526034.481614336
 30
0.0
 10
8609651.402401779
 20
4526034.527412995
 30
0.0
 10
8609651.444247572
 20
4526034.556066777
 30
0.0
 10
8609651.478030607
 20
4526034.561433774
 30
0.0
 11
8609651.478030607
 21
4526034.561433774
 31
0.0
 11
8609651.692587927
 21
4526034.655210227
 31
0.0
 11
8609651.799537983
 21
4526034.816756537
 31
0.0
 11
8609651.63133531
 21
4526035.05881939
 31
0.0
 11
8609651.401841817
 21
4526035.058144857
 31
0.0
 11
8609651.20222029
 21
4526034.871266466
 31
0.0
 11
8609651.216304969
 21
4526034.58005018
 31
0.0
 11
8609651.26447896
 21
4526034.446856115
 31
0.0
 11
8609651.35614476
 21
4526034.492989225
 31
0.0
 11
8609651.386364803
 21
4526034.515300665
 31
0.0
 11
8609651.478030607
 21
4526034.561433774
 31
0.0
  0
SPLINE
  5
3340
330
1E
100
AcDbEntity
  8
Jar
  6
Continuous
100
AcDbSpline
210
0.0
220
0.0
230
1.0
 70
  1067
 71
     3
 72
    14
 73
    10
 74
     8
 42
0.000000001
 43
0.0000000001
 44
0.0000000001
 12
0.9142343608282167
 22
0.4051858011838789
 32
0.0
 13
0.9142343608282167
 23
0.4051858011838789
 33
0.0
 40
0.0
 40
0.0
 40
0.0
 40
0.0
 40
0.2572311065359582
 40
0.6372684711727366
 40
0.9765369095418488
 40
1.266021178760197
 40
1.641458986058602
 40
1.910318550875866
 40
2.182058826289795
 40
2.182058826289795
 40
2.182058826289795
 40
2.182058826289795
 10
8609656.377217013
 20
4526035.945123636
 30
0.0
 10
8609656.455606852
 20
4526035.979865767
 30
0.0
 10
8609656.533838717
 20
4526036.210620274
 30
0.0
 10
8609656.495743737
 20
4526036.60116816
 30
0.0
 10
8609656.090894636
 20
4526036.622820389
 30
0.0
 10
8609655.766854484
 20
4526036.446275205
 30
0.0
 10
8609655.82083365
 20
4526036.050192422
 30
0.0
 10
8609656.101890739
 20
4526035.878054226
 30
0.0
 10
8609656.294405581
 20
4526035.908421869
 30
0.0
 10
8609656.377217013
 20
4526035.945123636
 30
0.0
 11
8609656.377217013
 21
4526035.945123636
 31
0.0
 11
8609656.501966067
 21
4526036.170080334
 31
0.0
 11
8609656.421405379
 21
4526036.541480891
 31
0.0
 11
8609656.085310286
 21
4526036.587775188
 31
0.0
 11
8609655.842545014
 21
4526036.430085097
 31
0.0
 11
8609655.881471043
 21
4526036.0566707
 31
0.0
 11
8609656.107598305
 21
4526035.911233678
 31
0.0
 11
8609656.377217013
 21
4526035.945123636
 31
0.0
  0
SPLINE
  5
3341
330
1E
100
AcDbEntity
  8
Jar
  6
Continuous
100
AcDbSpline
210
0.0
220
0.0
230
1.0
 70
  1067
 71
     3
 72
    14
 73
    10
 74
     8
 42
0.000000001
 43
0.0000000001
 44
0.0000000001
 12
0.3411926277512569
 22
0.9399933993216082
 32
0.0
 13
0.3411926277512569
 23
0.9399933993216082
 33
0.0
 40
0.0
 40
0.0
 40
0.0
 40
0.0
 40
0.406230638211581
 40
0.7745194309213832
 40
1.211930181526134
 40
1.700012013902812
 40
2.050110532696938
 40
2.414839401769763
 40
2.740292781268685
 40
2.740292781268685
 40
2.740292781268685
 40
2.740292781268685
 10
8609652.147472553
 20
4526036.251372875
 30
0.0
 10
8609652.19367352
 20
4526036.378657581
 30
0.0
 10
8609652.16652
 20
4526036.664820982
 30
0.0
 10
8609651.852461735
 20
4526036.98548345
 30
0.0
 10
8609651.3195308
 20
4526036.841535192
 30
0.0
 10
8609651.300201546
 20
4526036.344839646
 30
0.0
 10
8609651.509579286
 20
4526035.942502119
 30
0.0
 10
8609651.911424644
 20
4526035.996581068
 30
0.0
 10
8609652.110458454
 20
4526036.149398198
 30
0.0
 10
8609652.147472553
 20
4526036.251372875
 30
0.0
 11
8609652.147472553
 21
4526036.251372875
 31
0.0
 11
8609652.117446028
 21
4526036.656492288
 31
0.0
 11
8609651.844654229
 21
4526036.90392161
 31
0.0
 11
8609651.422426607
 21
4526036.789676256
 31
0.0
 11
8609651.351887833
 21
4526036.306718539
 31
0.0
 11
8609651.543422394
 21
4526036.013659697
 31
0.0
 11
8609651.907725427
 21
4526036.031279217
 31
0.0
 11
8609652.147472553
 21
4526036.251372875
 31
0.0
  0
SPLINE
  5
3342
330
1E
100
AcDbEntity
  8
Jar
  6
Continuous
100
AcDbSpline
210
0.0
220
0.0
230
1.0
 70
  1067
 71
     3
 72
    17
 73
    13
 74
    11
 42
0.000000001
 43
0.0000000001
 44
0.0000000001
 12
0.8981057805108241
 22
0.4397794981727134
 32
0.0
 13
0.8981057805108241
 23
0.4397794981727134
 33
0.0
 40
0.0
 40
0.0
 40
0.0
 40
0.0
 40
0.2609891008812233
 40
0.6474024265910008
 40
0.9179272850358589
 40
1.230725441518491
 40
1.572455397819493
 40
2.034862838121125
 40
2.335373501879938
 40
2.555199588327448
 40
2.712892989618981
 40
2.904957389803708
 40
2.904957389803708
 40
2.904957389803708
 40
2.904957389803708
 10
8609651.87320989
 20
4526037.17635035
 30
0.0
 10
8609651.95134183
 20
4526037.214609568
 30
0.0
 10
8609652.01869167
 20
4526037.454632792
 30
0.0
 10
8609651.95194174
 20
4526037.821756112
 30
0.0
 10
8609651.59021718
 20
4526037.838366985
 30
0.0
 10
8609651.285989802
 20
4526037.881277179
 30
0.0
 10
8609650.94298239
 20
4526037.6093805
 30
0.0
 10
8609651.046097595
 20
4526037.163651859
 30
0.0
 10
8609651.353729255
 20
4526036.986544742
 30
0.0
 10
8609651.572424447
 20
4526036.999424774
 30
0.0
 10
8609651.790670779
 20
4526036.991305465
 30
0.0
 10
8609651.815711841
 20
4526037.148195021
 30
0.0
 10
8609651.87320989
 20
4526037.17635035
 30
0.0
 11
8609651.87320989
 21
4526037.17635035
 31
0.0
 11
8609651.987047344
 21
4526037.411204229
 31
0.0
 11
8609651.875260556
 21
4526037.781094716
 31
0.0
 11
8609651.611523196
 21
4526037.841313517
 31
0.0
 11
8609651.298760382
 21
4526037.836611485
 31
0.0
 11
8609651.038195739
 21
4526037.615510989
 31
0.0
 11
8609651.122781
 21
4526037.160905694
 31
0.0
 11
8609651.380637001
 21
4526037.00657831
 31
0.0
 11
8609651.600224948
 21
4526036.996348837
 31
0.0
 11
8609651.755348608
 21
4526037.024701241
 31
0.0
 11
8609651.87320989
 21
4526037.17635035
 31
0.0
  0
SPLINE
  5
3343
330
1E
100
AcDbEntity
  8
Jar
  6
Continuous
100
AcDbSpline
210
0.0
220
0.0
230
1.0
 70
  1064
 71
     3
 72
    12
 73
     8
 74
     6
 42
0.000000001
 43
0.0000000001
 44
0.0000000001
 40
0.0
 40
0.0
 40
0.0
 40
0.0
 40
0.2430934986719326
 40
0.5245622939098686
 40
0.9666733790802524
 40
1.200693591917804
 40
1.346471936877121
 40
1.346471936877121
 40
1.346471936877121
 40
1.346471936877121
 10
8609650.867981339
 20
4526037.899176237
 30
0.0
 10
8609650.903149154
 20
4526037.816025116
 30
0.0
 10
8609650.97903646
 20
4526037.636596449
 30
0.0
 10
8609650.670111442
 20
4526037.411087569
 30
0.0
 10
8609650.274057383
 20
4526037.41537166
 30
0.0
 10
8609650.170045504
 20
4526037.702085968
 30
0.0
 10
8609650.170083951
 20
4526037.827651972
 30
0.0
 10
8609650.17009871
 20
4526037.875848059
 30
0.0
 11
8609650.867981339
 21
4526037.899176237
 31
0.0
 11
8609650.921185566
 21
4526037.661976407
 31
0.0
 11
8609650.711155087
 21
4526037.474594763
 31
0.0
 11
8609650.27097352
 21
4526037.515854917
 31
0.0
 11
8609650.177141052
 21
4526037.730239916
 31
0.0
 11
8609650.17009871
 21
4526037.875848059
 31
0.0
  0
LWPOLYLINE
  5
3349
330
1E
100
AcDbEntity
  8
kvadrat
 48
0.1
100
AcDbPolyline
 90
       10
 70
     0
 43
0.0
 10
8609626.199814565
 20
4526036.368977468
 10
8609635.41549487
 20
4526036.959633467
 10
8609635.332818588
 20
4526037.893114729
 10
8609637.126353957
 20
4526038.05485758
 10
8609637.21355341
 20
4526037.027846965
 10
8609641.963094888
 20
4526037.370056153
 10
8609641.926889818
 20
4526038.308977737
 10
8609643.331057452
 20
4526038.445655349
 10
8609643.4232824
 20
4526037.440678139
 10
8609646.471985776
 20
4526037.644377582
  0
LWPOLYLINE
  5
334A
330
1E
100
AcDbEntity
  8
kvadrat
 48
0.1
100
AcDbPolyline
 90
        2
 70
     0
 43
0.0
 10
8609646.77520146
 20
4526033.702877153
 10
8609626.456211343
 20
4526032.37720334
  0
LWPOLYLINE
  5
334B
330
1E
100
AcDbEntity
  8
kvadrat
 48
0.1
100
AcDbPolyline
 90
        2
 70
     0
 43
0.0
 10
8609646.52171123
 20
4526037.675248682
 10
8609658.40008809
 20
4526038.43724239
  0
LWPOLYLINE
  5
334C
330
1E
100
AcDbEntity
  8
kvadrat
 48
0.1
100
AcDbPolyline
 90
        6
 70
     0
 43
0.0
 10
8609658.705764417
 20
4526034.444865514
 10
8609654.234314015
 20
4526034.172355073
 10
8609654.314276177
 20
4526033.294991232
 10
8609652.478776768
 20
4526033.224966906
 10
8609652.418439936
 20
4526034.084530302
 10
8609646.788137278
 20
4526033.718472534
  0
LWPOLYLINE
  5
3371
330
1E
100
AcDbEntity
  8
kvadrat
 48
0.1
100
AcDbPolyline
 90
       28
 70
     0
 43
0.0
 38
171.653125607615
 10
8609730.910833787
 20
4526011.131973295
 10
8609727.406523734
 20
4526010.809940171
 10
8609721.0414833
 20
4526010.144609991
 10
8609714.619283201
 20
4526009.640868095
 10
8609708.17770445
 20
4526009.073608739
 10
8609702.089857686
 20
4526008.833521628
 10
8609695.79136211
 20
4526008.577031002
 10
8609683.408685068
 20
4526008.054538686
 10
8609680.177541208
 20
4526007.940699423
 10
8609680.175355218
 20
4526006.816274137
 10
8609676.958129633
 20
4526006.666779836
 10
8609676.891214725
 20
4526007.843584286
 10
8609676.331932465
 20
4526007.798104326
 10
8609670.44140515
 20
4526007.509057681
 10
8609670.163771493
 20
4526010.417898266
 10
8609676.724976193
 20
4526010.767151584
 10
8609683.215229087
 20
4526010.996547317
 10
8609695.995672673
 20
4526011.494224725
 10
8609701.527318386
 20
4526011.852097208
 10
8609707.63641426
 20
4526012.043712934
 10
8609714.016986666
 20
4526012.49337031
 10
8609716.24894708
 20
4526012.757653724
 10
8609716.296917964
 20
4526014.671511555
 10
8609719.14267598
 20
4526014.834490987
 10
8609719.238683682
 20
4526012.962336475
 10
8609720.924335504
 20
4526013.075570482
 10
8609726.947616385
 20
4526013.727138149
 10
8609730.910833787
 20
4526014.064158814
  0
SPLINE
  5
337D
330
1E
100
AcDbEntity
  8
features
  6
ACAD_ISO02W100
 48
0.5
100
AcDbSpline
210
0.0
220
0.0
230
1.0
 70
  1064
 71
     3
 72
    15
 73
    11
 74
     9
 42
0.000000001
 43
0.0000000001
 44
0.0000000001
 40
0.0
 40
0.0
 40
0.0
 40
0.0
 40
18.43861229277088
 40
31.97225637003288
 40
55.78906953842903
 40
64.97894475027617
 40
83.63020421868632
 40
95.71264774434424
 40
115.127295818716
 40
124.1701100612725
 40
124.1701100612725
 40
124.1701100612725
 40
124.1701100612725
 10
8609643.573849792
 20
4525997.227181347
 30
0.0
 10
8609642.521883914
 20
4526003.75192224
 30
0.0
 10
8609640.697792046
 20
4526015.065717728
 30
0.0
 10
8609654.131481562
 20
4526028.849453093
 30
0.0
 10
8609663.116009459
 20
4526044.06163696
 30
0.0
 10
8609681.845556255
 20
4526043.170509912
 30
0.0
 10
8609691.338516695
 20
4526032.67995714
 30
0.0
 10
8609703.714725628
 20
4526021.737255352
 30
0.0
 10
8609711.713634254
 20
4526010.348520015
 30
0.0
 10
8609714.743533926
 20
4526001.350273895
 30
0.0
 10
8609715.70633305
 20
4525998.490937131
 30
0.0
 11
8609643.573849792
 21
4525997.227181347
 31
0.0
 11
8609643.585154898
 21
4526015.665790174
 31
0.0
 11
8609651.421215458
 21
4526026.700085662
 31
0.0
 11
8609668.853026597
 21
4526042.928842544
 31
0.0
 11
8609678.03661496
 21
4526042.58897318
 31
0.0
 11
8609693.00246245
 21
4526031.458254935
 31
0.0
 11
8609701.675851144
 21
4526023.046491141
 31
0.0
 11
8609712.556911852
 21
4526006.967589509
 31
0.0
 11
8609715.70633305
 21
4525998.490937131
 31
0.0
  0
MTEXT
  5
337E
330
1E
100
AcDbEntity
  8
text
  6
Continuous
100
AcDbMText
 10
8609679.317680972
 20
4526028.284593887
 30
0.0
 40
1.0
 41
851.639
 46
0.0
 71
     1
 72
     5
  1
{\fTahoma|b0|i0|c0|p34;Extent of later Cemetery\P(not shown for clarity)}
 73
     1
 44
1.0
  0
LWPOLYLINE
  5
338C
330
1E
100
AcDbEntity
  8
text
  6
Continuous
 62
     8
100
AcDbPolyline
 90
        4
 70
     1
 43
0.0
 10
8609732.261484291
 20
4526061.348496427
 10
8609622.152481407
 20
4526061.348496427
 10
8609622.152481407
 20
4525989.256805685
 10
8609732.261484291
 20
4525989.256805685
  0
MTEXT
  5
338D
330
1E
100
AcDbEntity
  8
text
  6
Continuous
100
AcDbMText
 10
8609726.533686537
 20
4526010.116654597
 30
0.0
 40
1.2
 41
851.639
 46
0.0
 71
     1
 72
     5
  1
{\fTahoma|b0|i0|c0|p34;BTC}
 73
     1
 44
1.0
  0
SPLINE
  5
33A2
330
1E
100
AcDbEntity
  8
Jar
  6
Continuous
100
AcDbSpline
210
0.0
220
0.0
230
1.0
 70
  1067
 71
     3
 72
    13
 73
     9
 74
     7
 42
0.000000001
 43
0.0000000001
 44
0.0000000001
 12
0.9549328445219797
 22
0.2968219372842258
 32
0.0
 13
0.9549328445219797
 23
0.2968219372842258
 33
0.0
 40
0.0
 40
0.0
 40
0.0
 40
0.0
 40
0.3295211778607777
 40
0.7207676224283686
 40
1.097759942916379
 40
1.600347405096519
 40
1.933158881907632
 40
2.272565191445515
 40
2.272565191445515
 40
2.272565191445515
 40
2.272565191445515
 10
8609635.4860651
 20
4526034.497893612
 30
0.0
 10
8609635.5909553
 20
4526034.53049665
 30
0.0
 10
8609635.737671692
 20
4526034.778900636
 30
0.0
 10
8609635.635289166
 20
4526035.203788089
 30
0.0
 10
8609635.11556552
 20
4526035.251568591
 30
0.0
 10
8609634.839171289
 20
4526034.791942272
 30
0.0
 10
8609635.127835244
 20
4526034.414056913
 30
0.0
 10
8609635.378028357
 20
4526034.464312533
 30
0.0
 10
8609635.4860651
 20
4526034.497893612
 30
0.0
 11
8609635.4860651
 21
4526034.497893612
 31
0.0
 11
8609635.680390889
 21
4526034.76401707
 31
0.0
 11
8609635.571055582
 21
4526035.139675919
 31
0.0
 11
8609635.19617418
 21
4526035.1795149
 31
0.0
 11
8609634.943692254
 21
4526034.744949561
 31
0.0
 11
8609635.147055062
 21
4526034.481497387
 31
0.0
 11
8609635.4860651
 21
4526034.497893612
 31
0.0
  0
SPLINE
  5
33A3
330
1E
100
AcDbEntity
  8
Jar
  6
Continuous
100
AcDbSpline
210
0.0
220
0.0
230
1.0
 70
  1067
 71
     3
 72
    13
 73
     9
 74
     7
 42
0.000000001
 43
0.0000000001
 44
0.0000000001
 12
0.9549328445219797
 22
0.2968219372842258
 32
0.0
 13
0.9549328445219797
 23
0.2968219372842258
 33
0.0
 40
0.0
 40
0.0
 40
0.0
 40
0.0
 40
0.32952117861292
 40
0.7207676231805109
 40
1.097759943570103
 40
1.600347404944969
 40
1.933158882493313
 40
2.272565192031196
 40
2.272565192031196
 40
2.272565192031196
 40
2.272565192031196
 10
8609635.572706375
 20
4526033.45836118
 30
0.0
 10
8609635.677596575
 20
4526033.490964219
 30
0.0
 10
8609635.824312966
 20
4526033.739368205
 30
0.0
 10
8609635.721930442
 20
4526034.16425566
 30
0.0
 10
8609635.20220679
 20
4526034.212036159
 30
0.0
 10
8609634.925812565
 20
4526033.752409842
 30
0.0
 10
8609635.214476518
 20
4526033.37452448
 30
0.0
 10
8609635.464669632
 20
4526033.424780102
 30
0.0
 10
8609635.572706375
 20
4526033.45836118
 30
0.0
 11
8609635.572706375
 21
4526033.45836118
 31
0.0
 11
8609635.767032163
 21
4526033.724484639
 31
0.0
 11
8609635.657696856
 21
4526034.100143488
 31
0.0
 11
8609635.282815455
 21
4526034.139982468
 31
0.0
 11
8609635.030333528
 21
4526033.70541713
 31
0.0
 11
8609635.233696336
 21
4526033.441964956
 31
0.0
 11
8609635.572706375
 21
4526033.45836118
 31
0.0
  0
SPLINE
  5
33A4
330
1E
100
AcDbEntity
  8
Jar
  6
Continuous
100
AcDbSpline
210
0.0
220
0.0
230
1.0
 70
  1067
 71
     3
 72
    13
 73
     9
 74
     7
 42
0.000000001
 43
0.0000000001
 44
0.0000000001
 12
0.9549328445219796
 22
0.2968219372842258
 32
0.0
 13
0.9549328445219796
 23
0.2968219372842258
 33
0.0
 40
0.0
 40
0.0
 40
0.0
 40
0.0
 40
0.4707445401319637
 40
1.029668031521005
 40
1.568228490878335
 40
2.286210579744378
 40
2.761655548234107
 40
3.246521703134963
 40
3.246521703134963
 40
3.246521703134963
 40
3.246521703134963
 10
8609630.36242531
 20
4526033.894267132
 30
0.0
 10
8609630.512268452
 20
4526033.9408429
 30
0.0
 10
8609630.721863294
 20
4526034.295705738
 30
0.0
 10
8609630.575602546
 20
4526034.902687813
 30
0.0
 10
8609629.833140196
 20
4526034.970945674
 30
0.0
 10
8609629.438291293
 20
4526034.314336646
 30
0.0
 10
8609629.850668373
 20
4526033.774500418
 30
0.0
 10
8609630.208087105
 20
4526033.846294161
 30
0.0
 10
8609630.36242531
 20
4526033.894267132
 30
0.0
 11
8609630.36242531
 21
4526033.894267132
 31
0.0
 11
8609630.640033579
 21
4526034.274443501
 31
0.0
 11
8609630.483840285
 21
4526034.811098999
 31
0.0
 11
8609629.948295424
 21
4526034.868011829
 31
0.0
 11
8609629.587606957
 21
4526034.247204201
 31
0.0
 11
8609629.878125256
 21
4526033.870843953
 31
0.0
 11
8609630.36242531
 21
4526033.894267132
 31
0.0
  0
SPLINE
  5
33A5
330
1E
100
AcDbEntity
  8
Jar
  6
Continuous
100
AcDbSpline
210
0.0
220
0.0
230
1.0
 70
  1067
 71
     3
 72
    13
 73
     9
 74
     7
 42
0.000000001
 43
0.0000000001
 44
0.0000000001
 12
0.9549328445219796
 22
0.2968219372842258
 32
0.0
 13
0.9549328445219796
 23
0.2968219372842258
 33
0.0
 40
0.0
 40
0.0
 40
0.0
 40
0.0
 40
0.4707445401319637
 40
1.029668031521005
 40
1.568228490878335
 40
2.286210579744378
 40
2.761655548234107
 40
3.246521703134963
 40
3.246521703134963
 40
3.246521703134963
 40
3.246521703134963
 10
8609632.565832887
 20
4526001.745331896
 30
0.0
 10
8609632.715676028
 20
4526001.791907665
 30
0.0
 10
8609632.925270872
 20
4526002.146770502
 30
0.0
 10
8609632.77901012
 20
4526002.753752578
 30
0.0
 10
8609632.036547773
 20
4526002.822010439
 30
0.0
 10
8609631.64169887
 20
4526002.165401413
 30
0.0
 10
8609632.054075947
 20
4526001.625565182
 30
0.0
 10
8609632.411494682
 20
4526001.697358926
 30
0.0
 10
8609632.565832887
 20
4526001.745331896
 30
0.0
 11
8609632.565832887
 21
4526001.745331896
 31
0.0
 11
8609632.843441155
 21
4526002.125508266
 31
0.0
 11
8609632.687247861
 21
4526002.662163764
 31
0.0
 11
8609632.151703
 21
4526002.719076593
 31
0.0
 11
8609631.791014533
 21
4526002.098268966
 31
0.0
 11
8609632.081532832
 21
4526001.721908718
 31
0.0
 11
8609632.565832887
 21
4526001.745331896
 31
0.0
  0
SPLINE
  5
33A6
330
1E
100
AcDbEntity
  8
Jar
  6
Continuous
100
AcDbSpline
210
0.0
220
0.0
230
1.0
 70
  1067
 71
     3
 72
    13
 73
     9
 74
     7
 42
0.000000001
 43
0.0000000001
 44
0.0000000001
 12
0.9549328445219797
 22
0.2968219372842258
 32
0.0
 13
0.9549328445219797
 23
0.2968219372842258
 33
0.0
 40
0.0
 40
0.0
 40
0.0
 40
0.0
 40
0.141223362271186
 40
0.3089004096131593
 40
0.4704685466302629
 40
0.6858631733161664
 40
0.8284966638566224
 40
0.9739565110800654
 40
0.9739565110800654
 40
0.9739565110800654
 40
0.9739565110800654
 10
8609636.404358
 20
4526008.587649805
 30
0.0
 10
8609636.449310942
 20
4526008.601622536
 30
0.0
 10
8609636.512189394
 20
4526008.708081388
 30
0.0
 10
8609636.468311172
 20
4526008.890176013
 30
0.0
 10
8609636.24557246
 20
4526008.910653364
 30
0.0
 10
8609636.127117796
 20
4526008.713670661
 30
0.0
 10
8609636.250830919
 20
4526008.55171979
 30
0.0
 10
8609636.358056538
 20
4526008.573257914
 30
0.0
 10
8609636.404358
 20
4526008.587649805
 30
0.0
 11
8609636.404358
 21
4526008.587649805
 31
0.0
 11
8609636.48764048
 21
4526008.701702717
 31
0.0
 11
8609636.440782491
 21
4526008.862699366
 31
0.0
 11
8609636.280119034
 21
4526008.879773214
 31
0.0
 11
8609636.171912493
 21
4526008.693530926
 31
0.0
 11
8609636.259067982
 21
4526008.580622852
 31
0.0
 11
8609636.404358
 21
4526008.587649805
 31
0.0
  0
SPLINE
  5
33A7
330
1E
100
AcDbEntity
  8
Jar
  6
Continuous
100
AcDbSpline
210
0.0
220
0.0
230
1.0
 70
  1067
 71
     3
 72
    13
 73
     9
 74
     7
 42
0.000000001
 43
0.0000000001
 44
0.0000000001
 12
0.9549328445219796
 22
0.2968219372842258
 32
0.0
 13
0.9549328445219796
 23
0.2968219372842258
 33
0.0
 40
0.0
 40
0.0
 40
0.0
 40
0.0
 40
0.2353722700659819
 40
0.5148340166547203
 40
0.7841142462841761
 40
1.143105290717198
 40
1.380827774593447
 40
1.623260851998884
 40
1.623260851998884
 40
1.623260851998884
 40
1.623260851998884
 10
8609638.937929127
 20
4526007.593860159
 30
0.0
 10
8609639.012850698
 20
4526007.617148043
 30
0.0
 10
8609639.117648115
 20
4526007.794579461
 30
0.0
 10
8609639.044517748
 20
4526008.0980705
 30
0.0
 10
8609638.673286567
 20
4526008.132199429
 30
0.0
 10
8609638.475862121
 20
4526007.803894918
 30
0.0
 10
8609638.682050658
 20
4526007.533976803
 30
0.0
 10
8609638.860760024
 20
4526007.569873674
 30
0.0
 10
8609638.937929127
 20
4526007.593860159
 30
0.0
 11
8609638.937929127
 21
4526007.593860159
 31
0.0
 11
8609639.076733261
 21
4526007.783948343
 31
0.0
 11
8609638.998636615
 21
4526008.052276094
 31
0.0
 11
8609638.730864184
 21
4526008.080732508
 31
0.0
 11
8609638.55051995
 21
4526007.770328694
 31
0.0
 11
8609638.6957791
 21
4526007.582148571
 31
0.0
 11
8609638.937929127
 21
4526007.593860159
 31
0.0
  0
SPLINE
  5
33A8
330
1E
100
AcDbEntity
  8
Jar
  6
Continuous
100
AcDbSpline
210
0.0
220
0.0
230
1.0
 70
  1067
 71
     3
 72
    13
 73
     9
 74
     7
 42
0.000000001
 43
0.0000000001
 44
0.0000000001
 12
0.9549328445219797
 22
0.2968219372842258
 32
0.0
 13
0.9549328445219797
 23
0.2968219372842258
 33
0.0
 40
0.0
 40
0.0
 40
0.0
 40
0.0
 40
0.282446724888672
 40
0.6178008195726188
 40
0.9409370955574599
 40
1.371726347993541
 40
1.656993329074453
 40
1.947913021660868
 40
1.947913021660868
 40
1.947913021660868
 40
1.947913021660868
 10
8609639.613107005
 20
4526006.58702377
 30
0.0
 10
8609639.70301289
 20
4526006.614969232
 30
0.0
 10
8609639.828769797
 20
4526006.827886933
 30
0.0
 10
8609639.741013348
 20
4526007.19207618
 30
0.0
 10
8609639.295535935
 20
4526007.233030895
 30
0.0
 10
8609639.058626596
 20
4526006.83906548
 30
0.0
 10
8609639.306052843
 20
4526006.515163742
 30
0.0
 10
8609639.520504082
 20
4526006.558239988
 30
0.0
 10
8609639.613107005
 20
4526006.58702377
 30
0.0
 11
8609639.613107005
 21
4526006.58702377
 31
0.0
 11
8609639.779671967
 21
4526006.815129592
 31
0.0
 11
8609639.68595599
 21
4526007.137122891
 31
0.0
 11
8609639.364629073
 21
4526007.171270588
 31
0.0
 11
8609639.148215994
 21
4526006.798786012
 31
0.0
 11
8609639.322526973
 21
4526006.572969863
 31
0.0
 11
8609639.613107005
 21
4526006.58702377
 31
0.0
  0
SPLINE
  5
33A9
330
1E
100
AcDbEntity
  8
Jar
  6
Continuous
100
AcDbSpline
210
0.0
220
0.0
230
1.0
 70
  1067
 71
     3
 72
    13
 73
     9
 74
     7
 42
0.000000001
 43
0.0000000001
 44
0.0000000001
 12
0.9549328445219797
 22
0.2968219372842258
 32
0.0
 13
0.9549328445219797
 23
0.2968219372842258
 33
0.0
 40
0.0
 40
0.0
 40
0.0
 40
0.0
 40
0.2824467237902298
 40
0.6178008184741766
 40
0.9409370926068021
 40
1.371726345978609
 40
1.656993327059521
 40
1.947913021506407
 40
1.947913021506407
 40
1.947913021506407
 40
1.947913021506407
 10
8609640.070101582
 20
4526005.529683076
 30
0.0
 10
8609640.160007466
 20
4526005.557628538
 30
0.0
 10
8609640.285764368
 20
4526005.770546239
 30
0.0
 10
8609640.198007924
 20
4526006.134735486
 30
0.0
 10
8609639.75253051
 20
4526006.175690199
 30
0.0
 10
8609639.51562117
 20
4526005.781724785
 30
0.0
 10
8609639.763047418
 20
4526005.457823046
 30
0.0
 10
8609639.977498658
 20
4526005.500899293
 30
0.0
 10
8609640.070101582
 20
4526005.529683076
 30
0.0
 11
8609640.070101582
 21
4526005.529683076
 31
0.0
 11
8609640.236666542
 21
4526005.757788897
 31
0.0
 11
8609640.142950565
 21
4526006.079782196
 31
0.0
 11
8609639.82162365
 21
4526006.113929894
 31
0.0
 11
8609639.605210569
 21
4526005.741445318
 31
0.0
 11
8609639.779521547
 21
4526005.515629169
 31
0.0
 11
8609640.070101582
 21
4526005.529683076
 31
0.0
  0
SPLINE
  5
33AA
330
1E
100
AcDbEntity
  8
Jar
  6
Continuous
100
AcDbSpline
210
0.0
220
0.0
230
1.0
 70
  1067
 71
     3
 72
    13
 73
     9
 74
     7
 42
0.000000001
 43
0.0000000001
 44
0.0000000001
 12
0.9549328445219796
 22
0.2968219372842258
 32
0.0
 13
0.9549328445219796
 23
0.2968219372842258
 33
0.0
 40
0.0
 40
0.0
 40
0.0
 40
0.0
 40
0.4707445401319637
 40
1.029668031521005
 40
1.568228490878335
 40
2.286210579744378
 40
2.761655548234107
 40
3.246521703134963
 40
3.246521703134963
 40
3.246521703134963
 40
3.246521703134963
 10
8609647.919352466
 20
4526005.746901969
 30
0.0
 10
8609648.069195608
 20
4526005.793477738
 30
0.0
 10
8609648.27879045
 20
4526006.148340575
 30
0.0
 10
8609648.132529702
 20
4526006.755322652
 30
0.0
 10
8609647.390067352
 20
4526006.823580511
 30
0.0
 10
8609646.995218448
 20
4526006.166971486
 30
0.0
 10
8609647.407595528
 20
4526005.627135255
 30
0.0
 10
8609647.765014261
 20
4526005.698928999
 30
0.0
 10
8609647.919352466
 20
4526005.746901969
 30
0.0
 11
8609647.919352466
 21
4526005.746901969
 31
0.0
 11
8609648.196960734
 21
4526006.127078339
 31
0.0
 11
8609648.04076744
 21
4526006.663733837
 31
0.0
 11
8609647.50522258
 21
4526006.720646666
 31
0.0
 11
8609647.144534113
 21
4526006.099839039
 31
0.0
 11
8609647.435052412
 21
4526005.723478791
 31
0.0
 11
8609647.919352466
 21
4526005.746901969
 31
0.0
  0
MTEXT
  5
33BF
330
1E
100
AcDbEntity
  8
text
  6
Continuous
100
AcDbMText
 10
8609713.506428214
 20
4526017.277142746
 30
0.0
 40
1.0
 41
851.639
 46
0.0
 71
     1
 72
     5
  1
{\fTahoma|b0|i0|c0|p34;Antique Period Grave}
 73
     1
 44
1.0
  0
LWPOLYLINE
  5
33D0
330
1E
100
AcDbEntity
  8
Skeleton
  6
Continuous
100
AcDbPolyline
 90
       85
 70
     0
 43
0.0
 10
8609718.13194985
 20
4526012.19933245
 10
8609718.12792477
 20
4526012.194962334
 10
8609718.13194985
 20
4526012.19933245
 10
8609718.184531735
 20
4526012.249813098
 10
8609718.187504243
 20
4526012.284137368
 10
8609718.183074359
 20
4526012.307605378
 10
8609718.198225202
 20
4526012.313178323
 10
8609718.228161551
 20
4526012.290494161
 10
8609718.236329148
 20
4526012.275837276
 10
8609718.244569818
 20
4526012.267946398
 10
8609718.258590108
 20
4526012.26520244
 10
8609718.286557624
 20
4526012.252948506
 10
8609718.308253303
 20
4526012.238155218
 10
8609718.33917407
 20
4526012.210255941
 10
8609718.34424228
 20
4526012.197712382
 10
8609718.337405179
 20
4526012.191014586
 10
8609718.306830486
 20
4526012.202774286
 10
8609718.275763592
 20
4526012.217141543
 10
8609718.247796074
 20
4526012.229395475
 10
8609718.223985428
 20
4526012.241086973
 10
8609718.219263293
 20
4526012.237490965
 10
8609718.197348405
 20
4526012.231986223
 10
8609718.119459989
 20
4526012.15105013
 10
8609718.011689037
 20
4526012.049594605
 10
8609717.95418506
 20
4526012.025189511
 10
8609717.920091843
 20
4526012.048436107
 10
8609717.913693137
 20
4526012.082334362
 10
8609717.886243291
 20
4526012.215212544
 10
8609717.886243291
 20
4526012.215212544
 10
8609717.886243291
 20
4526012.215212544
 10
8609717.886243291
 20
4526012.215212544
 10
8609717.880257523
 20
4526012.166475026
 10
8609717.897884704
 20
4526012.015867349
 10
8609717.919288123
 20
4526011.97401003
 10
8609717.952616112
 20
4526011.976276571
 10
8609718.023229033
 20
4526012.009918816
 10
8609718.13781783
 20
4526012.068102533
 10
8609718.184547037
 20
4526012.106670264
 10
8609718.208796084
 20
4526012.135574816
 10
8609718.217894282
 20
4526012.158906426
 10
8609718.271568215
 20
4526012.11776475
 10
8609718.318970317
 20
4526012.074083734
 10
8609718.329598956
 20
4526012.046389058
 10
8609718.313244501
 20
4526012.02573321
 10
8609718.295778751
 20
4526012.046730079
 10
8609718.247592177
 20
4526012.065954624
 10
8609718.234137164
 20
4526012.072857035
 10
8609718.208065417
 20
4526012.067914739
 10
8609718.170999698
 20
4526012.056837061
 10
8609718.010519974
 20
4526011.94133848
 10
8609717.928001732
 20
4526011.913541982
 10
8609717.88574092
 20
4526011.951445462
 10
8609717.868367495
 20
4526012.029177945
 10
8609717.85644687
 20
4526012.178166525
 10
8609717.85169017
 20
4526012.26774372
 10
8609717.772217514
 20
4526012.281037515
 10
8609717.732271606
 20
4526012.292371187
 10
8609717.721789092
 20
4526012.333597871
 10
8609717.727860983
 20
4526012.365808815
 10
8609717.753167506
 20
4526012.396264248
 10
8609717.741335254
 20
4526012.408876007
 10
8609717.690122366
 20
4526012.436979905
 10
8609717.656302162
 20
4526012.43732091
 10
8609717.631707035
 20
4526012.424555941
 10
8609717.600420944
 20
4526012.418625178
 10
8609717.57491447
 20
4526012.417841317
 10
8609717.565051049
 20
4526012.42002286
 10
8609717.54898886
 20
4526012.426431043
 10
8609717.530319495
 20
4526012.43234499
 10
8609717.478526032
 20
4526012.599433254
 10
8609717.476011172
 20
4526012.65567464
 10
8609717.437541895
 20
4526012.659185652
 10
8609717.473292427
 20
4526012.548475189
 10
8609717.497702904
 20
4526012.447768914
 10
8609717.488185558
 20
4526012.433810877
 10
8609717.387728613
 20
4526012.479588408
 10
8609717.323552923
 20
4526012.511987161
 10
8609717.256204776
 20
4526012.539733214
 10
8609717.222585969
 20
4526012.527702304
 10
8609717.228710216
 20
4526012.499409979
 10
8609717.29620449
 20
4526012.485195937
 10
8609717.435895933
 20
4526012.410394261
 10
8609717.506835666
 20
4526012.377927305
 10
8609717.528969746
 20
4526012.403730066
 10
8609717.54010985
 20
4526012.423397454
  0
LWPOLYLINE
  5
33D1
330
1E
100
AcDbEntity
  8
Skeleton
  6
Continuous
100
AcDbPolyline
 90
        2
 70
     0
 43
0.0
 10
8609717.35703155
 20
4526012.56867761
 10
8609717.348060224
 20
4526012.508908404
  0
LWPOLYLINE
  5
33D2
330
1E
100
AcDbEntity
  8
Skeleton
  6
Continuous
100
AcDbPolyline
 90
       12
 70
     0
 43
0.0
 10
8609717.34226135
 20
4526012.453791881
 10
8609717.330463648
 20
4526012.373230429
 10
8609717.294017011
 20
4526012.323107598
 10
8609717.24098143
 20
4526012.375173733
 10
8609717.201766182
 20
4526012.454167483
 10
8609717.155148562
 20
4526012.522304984
 10
8609717.154675603
 20
4526012.574882148
 10
8609717.205230897
 20
4526012.485884195
 10
8609717.261146672
 20
4526012.411406713
 10
8609717.30185779
 20
4526012.374559896
 10
8609717.307510536
 20
4526012.41614441
 10
8609717.321057873
 20
4526012.465977613
  0
LWPOLYLINE
  5
33D3
330
1E
100
AcDbEntity
  8
Skeleton
  6
Continuous
100
AcDbPolyline
 90
        2
 70
     0
 43
0.0
 10
8609717.320657983
 20
4526012.525320789
 10
8609717.331944223
 20
4526012.558520194
  0
LWPOLYLINE
  5
33D4
330
1E
100
AcDbEntity
  8
Skeleton
  6
Continuous
100
AcDbPolyline
 90
       22
 70
     1
 43
0.0
 10
8609717.324761042
 20
4526012.567961961
 10
8609717.296301318
 20
4526012.582823453
 10
8609717.321042575
 20
4526012.609120447
 10
8609717.322811462
 20
4526012.628361801
 10
8609717.290740896
 20
4526012.597974569
 10
8609717.28136968
 20
4526012.597548537
 10
8609717.275243983
 20
4526012.608541202
 10
8609717.26390393
 20
4526012.618545407
 10
8609717.251433332
 20
4526012.620232703
 10
8609717.23185262
 20
4526012.638127778
 10
8609717.205380982
 20
4526012.692528658
 10
8609717.226184567
 20
4526012.7396861
 10
8609717.270379663
 20
4526012.784525616
 10
8609717.323507564
 20
4526012.789195096
 10
8609717.348867908
 20
4526012.776446933
 10
8609717.367737222
 20
4526012.740861392
 10
8609717.354901288
 20
4526012.70871865
 10
8609717.361719137
 20
4526012.665446844
 10
8609717.364180189
 20
4526012.652409062
 10
8609717.369175334
 20
4526012.633099496
 10
8609717.352674749
 20
4526012.598911639
 10
8609717.336739436
 20
4526012.568882225
  0
LWPOLYLINE
  5
33D5
330
1E
100
AcDbEntity
  8
Skeleton
  6
Continuous
100
AcDbPolyline
 90
       23
 70
     0
 43
0.0
 10
8609717.363488032
 20
4526012.68468821
 10
8609717.408994362
 20
4526012.658203425
 10
8609717.420280594
 20
4526012.691402817
 10
8609717.449378666
 20
4526012.687465789
 10
8609717.491147269
 20
4526012.652169865
 10
8609717.53862243
 20
4526012.615254847
 10
8609717.617310628
 20
4526012.577504592
 10
8609717.686627604
 20
4526012.539328307
 10
8609717.733610563
 20
4526012.505020844
 10
8609717.781651
 20
4526012.472264277
 10
8609717.802873723
 20
4526012.510048153
 10
8609717.84894533
 20
4526012.487721818
 10
8609717.863092497
 20
4526012.448540263
 10
8609717.89514381
 20
4526012.428957889
 10
8609717.92473408
 20
4526012.422413288
 10
8609717.945864484
 20
4526012.403461549
 10
8609717.946068076
 20
4526012.37605942
 10
8609717.931959927
 20
4526012.243570499
 10
8609717.933281526
 20
4526012.145175854
 10
8609717.945041198
 20
4526012.088222874
 10
8609717.979845816
 20
4526012.082666738
 10
8609718.06378687
 20
4526012.145844171
 10
8609718.12792477
 20
4526012.194962334
  0
LINE
  5
33D6
330
1E
100
AcDbEntity
  8
Skeleton
  6
Continuous
100
AcDbLine
 10
8609717.885551658
 20
4526012.214575825
 30
0.0
 11
8609717.872526785
 21
4526012.275373073
 31
0.0
  0
LWPOLYLINE
  5
33E4
330
1E
100
AcDbEntity
  8
Hearth
100
AcDbPolyline
 90
        2
 70
     1
 43
0.3500000003247064
 10
8609625.088168869
 20
4526025.997783795
 42
1.0
 10
8609625.788168868
 20
4526025.997783795
 42
1.0
  0
MTEXT
  5
33E6
330
1E
100
AcDbEntity
  8
text
  6
Continuous
100
AcDbMText
 10
8609627.417600343
 20
4526023.519432395
 30
-1155.224438699406
 40
1.0
 41
851.639
 46
0.0
 71
     1
 72
     5
  1
{\fTahoma|b0|i0|c0|p34;Storage Jar}
 73
     1
 44
1.0
  0
MTEXT
  5
33E7
330
1E
100
AcDbEntity
  8
text
  6
Continuous
100
AcDbMText
 10
8609627.508496292
 20
4526026.302230455
 30
-1155.224438699406
 40
1.0
 41
851.639
 46
0.0
 71
     1
 72
     5
  1
{\fTahoma|b0|i0|c0|p34;Hearth}
 73
     1
 44
1.0
  0
LWPOLYLINE
  5
33F1
330
1E
100
AcDbEntity
  8
Hearth
100
AcDbPolyline
 90
        2
 70
     1
 43
0.3500000003247064
 10
8609643.02212349
 20
4526006.977469767
 42
1.0
 10
8609643.722123489
 20
4526006.977469767
 42
1.0
  0
LWPOLYLINE
  5
33F2
330
1E
100
AcDbEntity
  8
Hearth
100
AcDbPolyline
 90
        2
 70
     1
 43
0.3500000003247064
 10
8609641.064473711
 20
4526008.827865116
 42
1.0
 10
8609641.76447371
 20
4526008.827865116
 42
1.0
  0
SPLINE
  5
33F3
330
1E
100
AcDbEntity
  8
Jar
  6
Continuous
100
AcDbSpline
210
0.0
220
0.0
230
1.0
 70
  1067
 71
     3
 72
    13
 73
     9
 74
     7
 42
0.000000001
 43
0.0000000001
 44
0.0000000001
 12
0.9549328445219796
 22
0.2968219372842258
 32
0.0
 13
0.9549328445219796
 23
0.2968219372842258
 33
0.0
 40
0.0
 40
0.0
 40
0.0
 40
0.0
 40
0.4707445401319637
 40
1.029668031521005
 40
1.568228490878335
 40
2.286210579744378
 40
2.761655548234107
 40
3.246521703134963
 40
3.246521703134963
 40
3.246521703134963
 40
3.246521703134963
 10
8609625.468346754
 20
4526022.533274882
 30
0.0
 10
8609625.618189896
 20
4526022.579850651
 30
0.0
 10
8609625.827784738
 20
4526022.934713488
 30
0.0
 10
8609625.68152399
 20
4526023.541695564
 30
0.0
 10
8609624.939061638
 20
4526023.609953425
 30
0.0
 10
8609624.544212736
 20
4526022.953344397
 30
0.0
 10
8609624.956589816
 20
4526022.413508168
 30
0.0
 10
8609625.314008549
 20
4526022.485301912
 30
0.0
 10
8609625.468346754
 20
4526022.533274882
 30
0.0
 11
8609625.468346754
 21
4526022.533274882
 31
0.0
 11
8609625.745955022
 21
4526022.913451252
 31
0.0
 11
8609625.589761728
 21
4526023.45010675
 31
0.0
 11
8609625.054216867
 21
4526023.507019579
 31
0.0
 11
8609624.6935284
 21
4526022.886211952
 31
0.0
 11
8609624.9840467
 21
4526022.509851704
 31
0.0
 11
8609625.468346754
 21
4526022.533274882
 31
0.0
  0
MTEXT
  5
33F4
330
1E
100
AcDbEntity
  8
text
  6
Continuous
100
AcDbMText
 10
8609675.044836428
 20
4526014.362748925
 30
-171.653125607615
 40
1.0
 41
851.639
 46
0.0
 71
     1
 72
     5
  1
{\fTahoma|b0|i0|c0|p34;BTC Stage 1 Excavation}
 73
     1
 44
1.0
  0
MTEXT
  5
33F5
330
1E
100
AcDbEntity
  8
text
  6
Continuous
100
AcDbMText
 10
8609629.182140836
 20
4526013.547319331
 30
-171.653125607615
 40
1.0
 41
851.639
 46
0.0
 71
     1
 72
     5
  1
{\fTahoma|b0|i0|c0|p34;BTC Stage 2 Excavation}
 73
     1
 44
1.0
  0
MTEXT
  5
33F6
330
1E
100
AcDbEntity
  8
text
  6
Continuous
100
AcDbMText
 10
8609626.652348256
 20
4526040.864212817
 30
-171.653125607615
 40
1.0
 41
851.639
 46
0.0
 71
     1
 72
     5
  1
{\fTahoma|b0|i0|c0|p34;SCP Stage 2 Excavation}
 73
     1
 44
1.0
  0
MTEXT
  5
33F7
330
1E
100
AcDbEntity
  8
text
  6
Continuous
100
AcDbMText
 10
8609683.732192734
 20
4526044.329624542
 30
-171.653125607615
 40
1.0
 41
851.639
 46
0.0
 71
     1
 72
     5
  1
{\fTahoma|b0|i0|c0|p34;SCP Stage 1 Excavation}
 73
     1
 44
1.0
  0
LWPOLYLINE
  5
3453
330
1E
100
AcDbEntity
  8
kvadrat
 48
0.1
100
AcDbPolyline
 90
       23
 70
     1
 43
0.0
 38
177.173
 10
8609628.95864089
 20
4526009.309604142
 10
8609629.413849376
 20
4526001.19060308
 10
8609642.374161478
 20
4526002.398122947
 10
8609645.277338177
 20
4526002.818658384
 10
8609645.14164252
 20
4526005.593511621
 10
8609646.615224825
 20
4526005.727898718
 10
8609646.7510234
 20
4526005.269228089
 10
8609648.647888564
 20
4526005.493911285
 10
8609648.676093169
 20
4526005.9494935
 10
8609662.956839288
 20
4526007.474245404
 10
8609662.94435841
 20
4526008.113651513
 10
8609663.988428636
 20
4526008.061191386
 10
8609663.951078715
 20
4526009.518203408
 10
8609662.916898351
 20
4526009.520453787
 10
8609662.899364272
 20
4526010.418739525
 10
8609656.884722674
 20
4526009.937449169
 10
8609644.989843108
 20
4526008.697672091
 10
8609644.890490502
 20
4526010.729342859
 10
8609639.272923782
 20
4526010.289241545
 10
8609638.775037577
 20
4526010.512555961
 10
8609638.143142626
 20
4526010.500358901
 10
8609638.126624916
 20
4526010.146676483
 10
8609628.95864089
 20
4526009.309604142
  0
VIEWPORT
  5
153
330
1A
100
AcDbEntity
 67
     1
  8
0
  6
Continuous
100
AcDbViewport
 10
164.2806428396294
 20
62.87005152177213
 30
0.0
 40
38.15865410958905
 41
22.21800000000001
 68
     1
 69
     1
 12
164.2806428396294
 22
62.87005152177213
 13
0.0
 23
0.0
 14
10.0
 24
10.0
 15
10.0
 25
10.0
 16
0.0
 26
0.0
 36
1.0
 17
0.0
 27
0.0
 37
0.0
 42
50.0
 43
0.0
 44
0.0
 45
22.21800000000001
 50
0.0
 51
0.0
 72
   100
 90
    32800
  1

281
     0
 71
     1
 74
     0
110
0.0
120
0.0
130
0.0
111
1.0
121
0.0
131
0.0
112
0.0
122
1.0
132
0.0
 79
     0
146
0.0
170
     0
 61
     5
348
31DE
292
     1
282
     1
141
0.0
142
0.0
 63
   250
421
  3355443
  0
VIEWPORT
  5
155
330
1A
100
AcDbEntity
 67
     1
  8
0
  6
Continuous
100
AcDbViewport
 10
163.8378179655024
 20
62.37322587684852
 30
0.0
 40
27.74483795702554
 41
18.9897434255376
 68
     2
 69
     2
 12
88.58304152908934
 22
150.1204942759232
 13
0.0
 23
0.0
 14
1.0
 24
1.0
 15
0.0
 25
0.0
 16
0.0
 26
0.0
 36
1.0
 17
0.0
 27
0.0
 37
0.0
 42
50.0
 43
0.0
 44
0.0
 45
25.08206827938064
 50
0.0
 51
0.0
 72
   100
 90
    32800
  1

281
     0
 71
     1
 74
     0
110
0.0
120
0.0
130
0.0
111
1.0
121
0.0
131
0.0
112
0.0
122
1.0
132
0.0
 79
     0
146
0.0
170
     0
 61
     5
348
31DE
292
     1
282
     1
141
0.0
142
0.0
 63
   250
421
  3355443
  0
ENDSEC
  0
SECTION
  2
OBJECTS
  0
DICTIONARY
  5
C
330
0
100
AcDbDictionary
281
     1
  3
ACAD_COLOR
350
31E9
  3
ACAD_DETAILVIEWSTYLE
350
34F3
  3
ACAD_GROUP
350
D
  3
ACAD_IMAGE_DICT
350
EBE
  3
ACAD_IMAGE_VARS
350
ECC
  3
ACAD_LAYOUT
350
19
  3
ACAD_MATERIAL
350
31D4
  3
ACAD_MLEADERSTYLE
350
34B6
  3
ACAD_MLINESTYLE
350
16
  3
ACAD_PLOTSETTINGS
350
18
  3
ACAD_PLOTSTYLENAME
350
E
  3
ACAD_SCALELIST
350
348A
  3
ACAD_SECTIONVIEWSTYLE
350
34F4
  3
ACAD_TABLESTYLE
350
31EA
  3
ACAD_VISUALSTYLE
350
31D8
  3
ACDB_RECOMPOSE_DATA
350
34EF
  3
AcDbVariableDictionary
350
20C1
  0
DICTIONARY
  5
31F0
330
2
100
AcDbDictionary
280
     1
281
     1
  3
ACAD_LAYERFILTERS
360
3457
  3
ACAD_LAYERSTATES
360
31FC
  3
ACLYDICTIONARY
360
3456
  0
DICTIONARY
  5
3360
330
1E
100
AcDbDictionary
280
     1
281
     1
  3
ACAD_SORTENTS
360
3361
  0
DICTIONARY
  5
33ED
330
33E8
100
AcDbDictionary
280
     1
281
     1
  3
ACAD_SORTENTS
360
33EE
  0
DICTIONARY
  5
31E9
102
{ACAD_REACTORS
330
C
102
}
330
C
100
AcDbDictionary
281
     1
  0
DICTIONARY
  5
34F3
102
{ACAD_REACTORS
330
C
102
}
330
C
100
AcDbDictionary
281
     1
  0
DICTIONARY
  5
D
102
{ACAD_REACTORS
330
C
102
}
330
C
100
AcDbDictionary
281
     1
  0
DICTIONARY
  5
EBE
102
{ACAD_REACTORS
330
C
102
}
330
C
100
AcDbDictionary
281
     1
  3
map025
350
EBF
  3
map035
350
20A7
  3
pic922
350
31F3
  0
RASTERVARIABLES
  5
ECC
102
{ACAD_REACTORS
330
C
102
}
330
C
100
AcDbRasterVariables
 90
        0
 70
     1
 71
     1
 72
     0
  0
DICTIONARY
  5
19
102
{ACAD_REACTORS
330
C
102
}
330
C
100
AcDbDictionary
281
     1
  3
Layout1
350
1D
  3
Model
350
21
  0
DICTIONARY
  5
31D4
102
{ACAD_REACTORS
330
C
102
}
330
C
100
AcDbDictionary
281
     1
  3
ByBlock
350
31D6
  3
ByLayer
350
31D5
  3
Global
350
31D7
  0
DICTIONARY
  5
34B6
102
{ACAD_REACTORS
330
C
102
}
330
C
100
AcDbDictionary
281
     1
  3
Standard
350
34B7
  0
DICTIONARY
  5
16
102
{ACAD_REACTORS
330
C
102
}
330
C
100
AcDbDictionary
281
     1
  3
Standard
350
17
  0
DICTIONARY
  5
18
102
{ACAD_REACTORS
330
C
102
}
330
C
100
AcDbDictionary
281
     1
  0
ACDBDICTIONARYWDFLT
  5
E
102
{ACAD_REACTORS
330
C
102
}
330
C
100
AcDbDictionary
281
     1
  3
Normal
350
F
100
AcDbDictionaryWithDefault
340
F
  0
DICTIONARY
  5
348A
102
{ACAD_REACTORS
330
C
102
}
330
C
100
AcDbDictionary
281
     1
  3
A0
350
348B
  3
A1
350
348C
  3
A2
350
348D
  3
A3
350
348E
  3
A4
350
348F
  3
A5
350
3490
  3
A6
350
3491
  3
A7
350
3492
  3
A8
350
3493
  3
A9
350
3494
  3
B0
350
3495
  3
B1
350
3496
  3
B2
350
3497
  3
B3
350
3498
  3
B4
350
3499
  3
B5
350
349A
  3
B6
350
349B
  3
B7
350
349C
  3
B8
350
349D
  3
B9
350
349E
  3
C0
350
349F
  3
C1
350
34A0
  3
C2
350
34A1
  3
C3
350
34A2
  3
C4
350
34A3
  3
C5
350
34A4
  3
C6
350
34A5
  3
C7
350
34A6
  3
C8
350
34A7
  3
C9
350
34A8
  3
D0
350
34A9
  3
D1
350
34AA
  3
D2
350
34AB
  0
DICTIONARY
  5
34F4
102
{ACAD_REACTORS
330
C
102
}
330
C
100
AcDbDictionary
281
     1
  0
DICTIONARY
  5
31EA
102
{ACAD_REACTORS
330
C
102
}
330
C
100
AcDbDictionary
281
     1
  3
Standard
350
31EB
  0
DICTIONARY
  5
31D8
102
{ACAD_REACTORS
330
C
102
}
330
C
100
AcDbDictionary
281
     1
  3
2dWireframe
350
31DE
  3
3D Hidden
350
31E0
  3
3dWireframe
350
31DF
  3
Basic
350
31DD
  3
Brighten
350
31E4
  3
ColorChange
350
31E8
  3
Conceptual
350
31E1
  3
Dim
350
31E3
  3
EdgeColorOff
350
34B0
  3
Facepattern
350
31E7
  3
Flat
350
31D9
  3
FlatWithEdges
350
31DA
  3
Gouraud
350
31DB
  3
GouraudWithEdges
350
31DC
  3
Hidden
350
34AD
  3
JitterOff
350
34AE
  3
Linepattern
350
31E6
  3
OverhangOff
350
34AF
  3
Realistic
350
31E2
  3
Shaded
350
34B5
  3
Shaded with edges
350
34B4
  3
Shades of Gray
350
34B1
  3
Sketchy
350
34B2
  3
Thicken
350
31E5
  3
Wireframe
350
34AC
  3
X-Ray
350
34B3
  0
XRECORD
  5
34EF
102
{ACAD_REACTORS
330
C
102
}
330
C
100
AcDbXrecord
280
     1
 90
        1
330
31EB
  0
DICTIONARY
  5
20C1
102
{ACAD_REACTORS
330
C
102
}
330
C
100
AcDbDictionary
281
     1
  3
CANNOSCALE
350
34B8
  3
CMLEADERSTYLE
350
34F0
  3
CTABLESTYLE
350
331F
  3
DIMASSOC
350
20C2
  3
MSLTSCALE
350
34F1
  3
XCLIPFRAME
350
34F2
  0
DICTIONARY
  5
3457
102
{ACAD_REACTORS
330
31F0
102
}
330
31F0
100
AcDbDictionary
281
     1
  0
DICTIONARY
  5
31FC
102
{ACAD_REACTORS
330
31F0
102
}
330
31F0
100
AcDbDictionary
281
     1
  0
DICTIONARY
  5
3456
102
{ACAD_REACTORS
330
31F0
102
}
330
31F0
100
AcDbDictionary
281
     1
1001
ACAD
1000
<All
  0
SORTENTSTABLE
  5
3361
102
{ACAD_REACTORS
330
3360
102
}
330
3360
100
AcDbSortentsTable
330
1E
331
0
  5
2040
331
21A9
  5
21D3
331
21AA
  5
21F3
331
21D2
  5
21F8
331
21D3
  5
221E
331
2229
  5
222C
331
222B
  5
222E
331
222C
  5
222F
331
222D
  5
2AF5
331
222E
  5
2AF6
331
222F
  5
2AF7
331
318E
  5
3193
331
318F
  5
319D
331
3192
  5
31A4
331
3193
  5
31A5
331
31A4
  5
31AD
331
31AD
  5
31C9
331
31B5
  5
3260
331
31BB
  5
3264
331
31C9
  5
3265
331
326B
  5
326E
331
3291
  5
3294
331
3292
  5
3295
331
3293
  5
3296
331
3294
  5
3297
331
3295
  5
3298
331
32B3
  5
32B6
331
32B4
  5
32B7
331
32B5
  5
32B8
331
32B6
  5
32B9
331
32B7
  5
32BA
331
32B8
  5
32BB
331
32B9
  5
333A
331
32BA
  5
333B
331
32BB
  5
333C
331
333A
  5
333D
331
333B
  5
333E
331
333C
  5
333F
331
333D
  5
3340
331
333E
  5
3341
331
333F
  5
3342
331
3340
  5
3343
331
3341
  5
3349
331
3342
  5
334A
331
3343
  5
334B
331
3349
  5
334C
331
334A
  5
335F
331
334B
  5
3365
331
334C
  5
336A
  0
SORTENTSTABLE
  5
33EE
102
{ACAD_REACTORS
330
33ED
102
}
330
33ED
100
AcDbSortentsTable
330
33E8
  0
IMAGEDEF
  5
EBF
102
{ACAD_REACTORS
330
EBE
102
}
330
EBE
100
AcDbRasterImageDef
 90
        0
  1
C:\Documents and Settings\Administrator.ADMINIST-QQIG49\Desktop\Archaeology\Drawings\SMX\map025.jpg
 10
2420.0
 20
3370.0
 11
0.0004132231404958678
 21
0.0004132231404958678
280
     1
281
     0
  0
IMAGEDEF
  5
20A7
102
{ACAD_REACTORS
330
EBE
102
}
330
EBE
100
AcDbRasterImageDef
 90
        0
  1
C:\Documents and Settings\Administrator.ADMINIST-QQIG49\Desktop\Archaeology\Drawings\SMX\map035.jpg
 10
820.0
 20
640.0
 11
0.001219512195121951
 21
0.001219512195121951
280
     1
281
     0
  0
IMAGEDEF
  5
31F3
102
{ACAD_REACTORS
330
EBE
102
}
330
EBE
100
AcDbRasterImageDef
 90
        0
  1
C:\Users\Dave\Documents\Azerbaijan\BTC & SCP 20-9-08\Site Plans\316 Plans\pic922.jpg
 10
5100.0
 20
3510.0
 11
0.08466666666666667
 21
0.08466666666666667
280
     1
281
     5
  0
LAYOUT
  5
1D
102
{ACAD_REACTORS
330
19
102
}
330
19
100
AcDbPlotSettings
  1

  2
LaserJet IIID.pc3
  4
ISO_A4_(210.00_x_297.00_MM)
  6

 40
5.027082920074463
 41
5.027082920074463
 42
8.694412231445312
 43
5.185760498046875
 44
210.0
 45
297.0
 46
0.0
 47
0.0
 48
0.0
 49
0.0
140
0.0
141
0.0
142
1.0
143
0.1
 70
   688
 72
     1
 73
     1
 74
     1
  7

 75
    30
 76
     0
 77
     2
 78
   300
147
10.0
148
-149.9492188894341
149
-52.87275981377957
100
AcDbLayout
  1
Layout1
 70
     1
 71
     1
 10
149.4306428396294
 20
52.37005152177212
 11
179.1306428396294
 21
73.37005152177213
 12
0.0
 22
0.0
 32
0.0
 14
149.9492188894341
 24
52.87275981377957
 34
-0.0015258207003583
 15
177.7345889671756
 25
71.88679868090617
 35
0.0000000349246037
146
0.0
 13
0.0
 23
0.0
 33
0.0
 16
1.0
 26
0.0
 36
0.0
 17
0.0
 27
1.0
 37
0.0
 76
     0
330
1A
331
153
  0
LAYOUT
  5
21
102
{ACAD_REACTORS
330
19
102
}
330
19
100
AcDbPlotSettings
  1

  2
PDF995.pc3
  4
A4
  6

 40
3.174999952316284
 41
3.174999952316284
 42
3.175003051757812
 43
3.17498779296875
 44
209.9733276367188
 45
297.0530090332031
 46
0.0
 47
78.69233944716888
 48
8609622.152481407
 49
4525989.256805685
140
8609732.261484291
141
4526061.348496427
142
1.0
143
0.5407484780200118
 70
 11956
 72
     1
 73
     0
 74
     4
  7

 75
     0
 76
     0
 77
     2
 78
   300
147
1.849288607638009
148
-8609622.152481407
149
-4525989.256805685
100
AcDbLayout
  1
Model
 70
     1
 71
     0
 10
0.0
 20
0.0
 11
12.0
 21
9.0
 12
0.0
 22
0.0
 32
0.0
 14
0.0
 24
0.0
 34
0.0
 15
0.0
 25
0.0
 35
0.0
146
0.0
 13
0.0
 23
0.0
 33
0.0
 16
1.0
 26
0.0
 36
0.0
 17
0.0
 27
1.0
 37
0.0
 76
     0
330
1E
331
31D2
1001
ACAD_PSEXT
1000
PDF995.pc3
1000
PDF995 Printer Driver
1000
PDF995PORT
1000

1070
     0
  0
MATERIAL
  5
31D6
102
{ACAD_REACTORS
330
31D4
102
}
330
31D4
100
AcDbMaterial
  1
ByBlock
 72
     1
 94
       63
  0
MATERIAL
  5
31D5
102
{ACAD_REACTORS
330
31D4
102
}
330
31D4
100
AcDbMaterial
  1
ByLayer
 72
     1
 94
       63
  0
MATERIAL
  5
31D7
102
{ACAD_REACTORS
330
31D4
102
}
330
31D4
100
AcDbMaterial
  1
Global
 72
     1
 94
       63
  0
MLEADERSTYLE
  5
34B7
102
{ACAD_REACTORS
330
34B6
102
}
330
34B6
100
AcDbMLeaderStyle
179
     2
170
     2
171
     1
172
     0
 90
        2
 40
0.0
 41
0.0
173
     1
 91
-1056964608
340
13
 92
       -2
290
     1
 42
0.09
291
     1
 43
0.36
  3
Standard
341
0
 44
0.18
300

342
11
174
     1
178
     6
175
     1
176
     0
 93
-1056964608
 45
0.18
292
     0
297
     0
 46
0.18
343
0
 94
-1056964608
 47
1.0
 49
1.0
140
1.0
293
     1
141
0.0
294
     1
177
     0
142
1.0
295
     0
296
     0
143
0.125
271
     0
272
     9
273
     9
  0
MLINESTYLE
  5
17
102
{ACAD_REACTORS
330
16
102
}
330
16
100
AcDbMlineStyle
  2
STANDARD
 70
     0
  3

 62
   256
 51
90.0
 52
90.0
 71
     2
 49
0.5
 62
   256
  6
BYLAYER
 49
-0.5
 62
   256
  6
BYLAYER
  0
ACDBPLACEHOLDER
  5
F
102
{ACAD_REACTORS
330
E
102
}
330
E
  0
SCALE
  5
348B
102
{ACAD_REACTORS
330
348A
102
}
330
348A
100
AcDbScale
 70
     0
300
1:1
140
1.0
141
1.0
290
     1
  0
SCALE
  5
348C
102
{ACAD_REACTORS
330
348A
102
}
330
348A
100
AcDbScale
 70
     0
300
1:2
140
1.0
141
2.0
290
     0
  0
SCALE
  5
348D
102
{ACAD_REACTORS
330
348A
102
}
330
348A
100
AcDbScale
 70
     0
300
1:4
140
1.0
141
4.0
290
     0
  0
SCALE
  5
348E
102
{ACAD_REACTORS
330
348A
102
}
330
348A
100
AcDbScale
 70
     0
300
1:5
140
1.0
141
5.0
290
     0
  0
SCALE
  5
348F
102
{ACAD_REACTORS
330
348A
102
}
330
348A
100
AcDbScale
 70
     0
300
1:8
140
1.0
141
8.0
290
     0
  0
SCALE
  5
3490
102
{ACAD_REACTORS
330
348A
102
}
330
348A
100
AcDbScale
 70
     0
300
1:10
140
1.0
141
10.0
290
     0
  0
SCALE
  5
3491
102
{ACAD_REACTORS
330
348A
102
}
330
348A
100
AcDbScale
 70
     0
300
1:16
140
1.0
141
16.0
290
     0
  0
SCALE
  5
3492
102
{ACAD_REACTORS
330
348A
102
}
330
348A
100
AcDbScale
 70
     0
300
1:20
140
1.0
141
20.0
290
     0
  0
SCALE
  5
3493
102
{ACAD_REACTORS
330
348A
102
}
330
348A
100
AcDbScale
 70
     0
300
1:30
140
1.0
141
30.0
290
     0
  0
SCALE
  5
3494
102
{ACAD_REACTORS
330
348A
102
}
330
348A
100
AcDbScale
 70
     0
300
1:40
140
1.0
141
40.0
290
     0
  0
SCALE
  5
3495
102
{ACAD_REACTORS
330
348A
102
}
330
348A
100
AcDbScale
 70
     0
300
1:50
140
1.0
141
50.0
290
     0
  0
SCALE
  5
3496
102
{ACAD_REACTORS
330
348A
102
}
330
348A
100
AcDbScale
 70
     0
300
1:100
140
1.0
141
100.0
290
     0
  0
SCALE
  5
3497
102
{ACAD_REACTORS
330
348A
102
}
330
348A
100
AcDbScale
 70
     0
300
2:1
140
2.0
141
1.0
290
     0
  0
SCALE
  5
3498
102
{ACAD_REACTORS
330
348A
102
}
330
348A
100
AcDbScale
 70
     0
300
4:1
140
4.0
141
1.0
290
     0
  0
SCALE
  5
3499
102
{ACAD_REACTORS
330
348A
102
}
330
348A
100
AcDbScale
 70
     0
300
8:1
140
8.0
141
1.0
290
     0
  0
SCALE
  5
349A
102
{ACAD_REACTORS
330
348A
102
}
330
348A
100
AcDbScale
 70
     0
300
10:1
140
10.0
141
1.0
290
     0
  0
SCALE
  5
349B
102
{ACAD_REACTORS
330
348A
102
}
330
348A
100
AcDbScale
 70
     0
300
100:1
140
100.0
141
1.0
290
     0
  0
SCALE
  5
349C
102
{ACAD_REACTORS
330
348A
102
}
330
348A
100
AcDbScale
 70
     0
300
1/128" = 1'-0"
140
0.0078125
141
12.0
290
     0
  0
SCALE
  5
349D
102
{ACAD_REACTORS
330
348A
102
}
330
348A
100
AcDbScale
 70
     0
300
1/64" = 1'-0"
140
0.015625
141
12.0
290
     0
  0
SCALE
  5
349E
102
{ACAD_REACTORS
330
348A
102
}
330
348A
100
AcDbScale
 70
     0
300
1/32" = 1'-0"
140
0.03125
141
12.0
290
     0
  0
SCALE
  5
349F
102
{ACAD_REACTORS
330
348A
102
}
330
348A
100
AcDbScale
 70
     0
300
1/16" = 1'-0"
140
0.0625
141
12.0
290
     0
  0
SCALE
  5
34A0
102
{ACAD_REACTORS
330
348A
102
}
330
348A
100
AcDbScale
 70
     0
300
3/32" = 1'-0"
140
0.09375
141
12.0
290
     0
  0
SCALE
  5
34A1
102
{ACAD_REACTORS
330
348A
102
}
330
348A
100
AcDbScale
 70
     0
300
1/8" = 1'-0"
140
0.125
141
12.0
290
     0
  0
SCALE
  5
34A2
102
{ACAD_REACTORS
330
348A
102
}
330
348A
100
AcDbScale
 70
     0
300
3/16" = 1'-0"
140
0.1875
141
12.0
290
     0
  0
SCALE
  5
34A3
102
{ACAD_REACTORS
330
348A
102
}
330
348A
100
AcDbScale
 70
     0
300
1/4" = 1'-0"
140
0.25
141
12.0
290
     0
  0
SCALE
  5
34A4
102
{ACAD_REACTORS
330
348A
102
}
330
348A
100
AcDbScale
 70
     0
300
3/8" = 1'-0"
140
0.375
141
12.0
290
     0
  0
SCALE
  5
34A5
102
{ACAD_REACTORS
330
348A
102
}
330
348A
100
AcDbScale
 70
     0
300
1/2" = 1'-0"
140
0.5
141
12.0
290
     0
  0
SCALE
  5
34A6
102
{ACAD_REACTORS
330
348A
102
}
330
348A
100
AcDbScale
 70
     0
300
3/4" = 1'-0"
140
0.75
141
12.0
290
     0
  0
SCALE
  5
34A7
102
{ACAD_REACTORS
330
348A
102
}
330
348A
100
AcDbScale
 70
     0
300
1" = 1'-0"
140
1.0
141
12.0
290
     0
  0
SCALE
  5
34A8
102
{ACAD_REACTORS
330
348A
102
}
330
348A
100
AcDbScale
 70
     0
300
1-1/2" = 1'-0"
140
1.5
141
12.0
290
     0
  0
SCALE
  5
34A9
102
{ACAD_REACTORS
330
348A
102
}
330
348A
100
AcDbScale
 70
     0
300
3" = 1'-0"
140
3.0
141
12.0
290
     0
  0
SCALE
  5
34AA
102
{ACAD_REACTORS
330
348A
102
}
330
348A
100
AcDbScale
 70
     0
300
6" = 1'-0"
140
6.0
141
12.0
290
     0
  0
SCALE
  5
34AB
102
{ACAD_REACTORS
330
348A
102
}
330
348A
100
AcDbScale
 70
     0
300
1'-0" = 1'-0"
140
12.0
141
12.0
290
     0
  0
TABLESTYLE
  5
31EB
102
{ACAD_REACTORS
330
31EA
102
}
102
{ACAD_XDICTIONARY
360
34B9
102
}
330
31EA
100
AcDbTableStyle
  3
Standard
 70
     0
 71
     0
 40
0.06
 41
0.06
280
     0
281
     0
  7
Standard
140
0.18
170
     2
 62
     0
 63
   257
283
     0
 90
      512
 91
        0
  1

274
    -2
284
     1
 64
     0
275
    -2
285
     1
 65
     0
276
    -2
286
     1
 66
     0
277
    -2
287
     1
 67
     0
278
    -2
288
     1
 68
     0
279
    -2
289
     1
 69
     0
  7
Standard
140
0.25
170
     5
 62
     0
 63
   257
283
     0
 90
      512
 91
        0
  1

274
    -2
284
     1
 64
     0
275
    -2
285
     1
 65
     0
276
    -2
286
     1
 66
     0
277
    -2
287
     1
 67
     0
278
    -2
288
     1
 68
     0
279
    -2
289
     1
 69
     0
  7
Standard
140
0.18
170
     5
 62
     0
 63
   257
283
     0
 90
      512
 91
        0
  1

274
    -2
284
     1
 64
     0
275
    -2
285
     1
 65
     0
276
    -2
286
     1
 66
     0
277
    -2
287
     1
 67
     0
278
    -2
288
     1
 68
     0
279
    -2
289
     1
 69
     0
  0
VISUALSTYLE
  5
31DE
102
{ACAD_REACTORS
330
31D8
102
}
102
{ACAD_XDICTIONARY
360
34BB
102
}
330
31D8
100
AcDbVisualStyle
  2
2dWireframe
 70
     4
177
     2
291
     0
 71
     0
176
     1
 72
     2
176
     1
 73
     0
176
     1
 90
        0
176
     1
 40
-0.6
176
     1
 41
-30.0
176
     1
 62
     5
 63
     7
421
 16777215
176
     1
 74
     1
176
     1
 91
        4
176
     1
 64
     7
176
     1
 65
   257
176
     1
 75
     1
176
     1
175
     1
176
     1
 42
1.0
176
     1
 92
        0
176
     1
 66
   257
176
     1
 43
1.0
176
     1
 76
     1
176
     1
 77
     6
176
     1
 78
     2
176
     1
 67
     7
176
     1
 79
     5
176
     1
170
     0
176
     1
171
     0
176
     1
290
     0
176
     1
 93
        1
176
     1
 44
0.0
176
     1
173
     0
176
     1
  0
VISUALSTYLE
  5
31E0
102
{ACAD_REACTORS
330
31D8
102
}
102
{ACAD_XDICTIONARY
360
34BD
102
}
330
31D8
100
AcDbVisualStyle
  2
3D Hidden
 70
     6
177
     2
291
     0
 71
     1
176
     1
 72
     2
176
     1
 73
     2
176
     1
 90
        0
176
     1
 40
-0.6
176
     1
 41
-30.0
176
     1
 62
     5
 63
     7
421
 16777215
176
     1
 74
     2
176
     1
 91
        2
176
     1
 64
     7
176
     1
 65
   257
176
     1
 75
     2
176
     1
175
     1
176
     1
 42
40.0
176
     1
 92
        0
176
     1
 66
   257
176
     1
 43
1.0
176
     1
 76
     1
176
     1
 77
     6
176
     1
 78
     2
176
     1
 67
     7
176
     1
 79
     3
176
     1
170
     0
176
     1
171
     0
176
     1
290
     0
176
     1
 93
        1
176
     1
 44
0.0
176
     1
173
     0
176
     1
  0
VISUALSTYLE
  5
31DF
102
{ACAD_REACTORS
330
31D8
102
}
102
{ACAD_XDICTIONARY
360
34BF
102
}
330
31D8
100
AcDbVisualStyle
  2
3dWireframe
 70
     5
177
     2
291
     0
 71
     0
176
     1
 72
     2
176
     1
 73
     0
176
     1
 90
        0
176
     1
 40
-0.6
176
     1
 41
-30.0
176
     1
 62
     5
 63
     7
421
 16777215
176
     1
 74
     1
176
     1
 91
        4
176
     1
 64
     7
176
     1
 65
   257
176
     1
 75
     1
176
     1
175
     1
176
     1
 42
1.0
176
     1
 92
        0
176
     1
 66
   257
176
     1
 43
1.0
176
     1
 76
     1
176
     1
 77
     6
176
     1
 78
     2
176
     1
 67
     7
176
     1
 79
     5
176
     1
170
     0
176
     1
171
     0
176
     1
290
     0
176
     1
 93
        1
176
     1
 44
0.0
176
     1
173
     0
176
     1
  0
VISUALSTYLE
  5
31DD
102
{ACAD_REACTORS
330
31D8
102
}
102
{ACAD_XDICTIONARY
360
34C1
102
}
330
31D8
100
AcDbVisualStyle
  2
Basic
 70
     7
177
     2
291
     1
 71
     1
176
     1
 72
     0
176
     1
 73
     1
176
     1
 90
        0
176
     1
 40
-0.6
176
     1
 41
-30.0
176
     1
 62
     5
 63
     7
421
 16777215
176
     1
 74
     0
176
     1
 91
        4
176
     1
 64
     7
176
     1
 65
   257
176
     1
 75
     1
176
     1
175
     1
176
     1
 42
1.0
176
     1
 92
        8
176
     1
 66
     7
176
     1
 43
1.0
176
     1
 76
     1
176
     1
 77
     6
176
     1
 78
     2
176
     1
 67
     7
176
     1
 79
     5
176
     1
170
     0
176
     1
171
     0
176
     1
290
     0
176
     1
 93
        1
176
     1
 44
0.0
176
     1
173
     0
176
     1
  0
VISUALSTYLE
  5
31E4
102
{ACAD_REACTORS
330
31D8
102
}
102
{ACAD_XDICTIONARY
360
34C3
102
}
330
31D8
100
AcDbVisualStyle
  2
Brighten
 70
    12
177
     2
291
     1
 71
     2
176
     1
 72
     2
176
     1
 73
     0
176
     1
 90
        0
176
     1
 40
-0.6
176
     1
 41
-30.0
176
     1
 62
     5
 63
     7
421
 16777215
176
     1
 74
     1
176
     1
 91
        4
176
     1
 64
     7
176
     1
 65
   257
176
     1
 75
     1
176
     1
175
     1
176
     1
 42
1.0
176
     1
 92
        8
176
     1
 66
     7
176
     1
 43
1.0
176
     1
 76
     1
176
     1
 77
     6
176
     1
 78
     2
176
     1
 67
     7
176
     1
 79
     5
176
     1
170
     0
176
     1
171
     0
176
     1
290
     0
176
     1
 93
        1
176
     1
 44
50.0
176
     1
173
     0
176
     1
  0
VISUALSTYLE
  5
31E8
102
{ACAD_REACTORS
330
31D8
102
}
102
{ACAD_XDICTIONARY
360
34C5
102
}
330
31D8
100
AcDbVisualStyle
  2
ColorChange
 70
    16
177
     2
291
     1
 71
     2
176
     1
 72
     2
176
     1
 73
     3
176
     1
 90
        0
176
     1
 40
-0.6
176
     1
 41
-30.0
176
     1
 62
     5
 63
     8
421
  8421504
176
     1
 74
     1
176
     1
 91
        4
176
     1
 64
     7
176
     1
 65
   257
176
     1
 75
     1
176
     1
175
     1
176
     1
 42
1.0
176
     1
 92
        8
176
     1
 66
     8
424
  8421504
176
     1
 43
1.0
176
     1
 76
     1
176
     1
 77
     6
176
     1
 78
     2
176
     1
 67
     7
176
     1
 79
     5
176
     1
170
     0
176
     1
171
     0
176
     1
290
     0
176
     1
 93
        1
176
     1
 44
0.0
176
     1
173
     0
176
     1
  0
VISUALSTYLE
  5
31E1
102
{ACAD_REACTORS
330
31D8
102
}
102
{ACAD_XDICTIONARY
360
34C7
102
}
330
31D8
100
AcDbVisualStyle
  2
Conceptual
 70
     9
177
     2
291
     0
 71
     3
176
     1
 72
     2
176
     1
 73
     0
176
     1
 90
        0
176
     1
 40
-0.6
176
     1
 41
-30.0
176
     1
 62
     5
 63
     7
421
 16777215
176
     1
 74
     2
176
     1
 91
        2
176
     1
 64
     7
176
     1
 65
   257
176
     1
 75
     1
176
     1
175
     1
176
     1
 42
40.0
176
     1
 92
        8
176
     1
 66
     7
176
     1
 43
1.0
176
     1
 76
     1
176
     1
 77
     6
176
     1
 78
     2
176
     1
 67
     7
176
     1
 79
     3
176
     1
170
     0
176
     1
171
     0
176
     1
290
     0
176
     1
 93
        1
176
     1
 44
0.0
176
     1
173
     0
176
     1
  0
VISUALSTYLE
  5
31E3
102
{ACAD_REACTORS
330
31D8
102
}
102
{ACAD_XDICTIONARY
360
34C9
102
}
330
31D8
100
AcDbVisualStyle
  2
Dim
 70
    11
177
     2
291
     1
 71
     2
176
     1
 72
     2
176
     1
 73
     0
176
     1
 90
        0
176
     1
 40
-0.6
176
     1
 41
-30.0
176
     1
 62
     5
 63
     7
421
 16777215
176
     1
 74
     1
176
     1
 91
        4
176
     1
 64
     7
176
     1
 65
   257
176
     1
 75
     1
176
     1
175
     1
176
     1
 42
1.0
176
     1
 92
        8
176
     1
 66
     7
176
     1
 43
1.0
176
     1
 76
     1
176
     1
 77
     6
176
     1
 78
     2
176
     1
 67
     7
176
     1
 79
     5
176
     1
170
     0
176
     1
171
     0
176
     1
290
     0
176
     1
 93
        1
176
     1
 44
-50.0
176
     1
173
     0
176
     1
  0
VISUALSTYLE
  5
34B0
102
{ACAD_REACTORS
330
31D8
102
}
102
{ACAD_XDICTIONARY
360
34E3
102
}
330
31D8
100
AcDbVisualStyle
  2
EdgeColorOff
 70
    22
177
     2
291
     1
 71
     2
176
     0
 72
     2
176
     0
 73
     0
176
     0
 90
        0
176
     0
 40
0.6
176
     0
 41
30.0
176
     0
 62
     5
 63
     7
421
 16777215
176
     0
 74
     1
176
     0
 91
        4
176
     0
 64
     7
176
     0
 65
   257
176
     0
 75
     1
176
     0
175
     1
176
     0
 42
1.0
176
     0
 92
        8
176
     2
 66
     7
176
     0
 43
1.0
176
     0
 76
     1
176
     0
 77
     6
176
     0
 78
     2
176
     0
 67
     7
176
     0
 79
     5
176
     0
170
     0
176
     0
171
     0
176
     0
290
     0
176
     0
 93
        1
176
     0
 44
0.0
176
     0
173
     0
176
     0
  0
VISUALSTYLE
  5
31E7
102
{ACAD_REACTORS
330
31D8
102
}
102
{ACAD_XDICTIONARY
360
34CB
102
}
330
31D8
100
AcDbVisualStyle
  2
Facepattern
 70
    15
177
     2
291
     1
 71
     2
176
     1
 72
     2
176
     1
 73
     0
176
     1
 90
        0
176
     1
 40
-0.6
176
     1
 41
-30.0
176
     1
 62
     5
 63
     7
421
 16777215
176
     1
 74
     1
176
     1
 91
        4
176
     1
 64
     7
176
     1
 65
   257
176
     1
 75
     1
176
     1
175
     1
176
     1
 42
1.0
176
     1
 92
        8
176
     1
 66
     7
176
     1
 43
1.0
176
     1
 76
     1
176
     1
 77
     6
176
     1
 78
     2
176
     1
 67
     7
176
     1
 79
     5
176
     1
170
     0
176
     1
171
     0
176
     1
290
     0
176
     1
 93
        1
176
     1
 44
0.0
176
     1
173
     0
176
     1
  0
VISUALSTYLE
  5
31D9
102
{ACAD_REACTORS
330
31D8
102
}
102
{ACAD_XDICTIONARY
360
34CD
102
}
330
31D8
100
AcDbVisualStyle
  2
Flat
 70
     0
177
     2
291
     1
 71
     2
176
     1
 72
     1
176
     1
 73
     1
176
     1
 90
        2
176
     1
 40
-0.6
176
     1
 41
30.0
176
     1
 62
     5
 63
     7
421
 16777215
176
     1
 74
     0
176
     1
 91
        4
176
     1
 64
     7
176
     1
 65
   257
176
     1
 75
     1
176
     1
175
     1
176
     1
 42
1.0
176
     1
 92
        8
176
     1
 66
     7
176
     1
 43
1.0
176
     1
 76
     1
176
     1
 77
     6
176
     1
 78
     2
176
     1
 67
     7
176
     1
 79
     5
176
     1
170
     0
176
     1
171
     0
176
     1
290
     0
176
     1
 93
       13
176
     1
 44
0.0
176
     1
173
     0
176
     1
  0
VISUALSTYLE
  5
31DA
102
{ACAD_REACTORS
330
31D8
102
}
102
{ACAD_XDICTIONARY
360
34CF
102
}
330
31D8
100
AcDbVisualStyle
  2
FlatWithEdges
 70
     1
177
     2
291
     1
 71
     2
176
     1
 72
     1
176
     1
 73
     1
176
     1
 90
        2
176
     1
 40
-0.6
176
     1
 41
30.0
176
     1
 62
     5
 63
     7
421
 16777215
176
     1
 74
     1
176
     1
 91
        4
176
     1
 64
     7
176
     1
 65
   257
176
     1
 75
     1
176
     1
175
     1
176
     1
 42
1.0
176
     1
 92
        0
176
     1
 66
   257
176
     1
 43
1.0
176
     1
 76
     1
176
     1
 77
     6
176
     1
 78
     2
176
     1
 67
     7
176
     1
 79
     5
176
     1
170
     0
176
     1
171
     0
176
     1
290
     0
176
     1
 93
       13
176
     1
 44
0.0
176
     1
173
     0
176
     1
  0
VISUALSTYLE
  5
31DB
102
{ACAD_REACTORS
330
31D8
102
}
102
{ACAD_XDICTIONARY
360
34D1
102
}
330
31D8
100
AcDbVisualStyle
  2
Gouraud
 70
     2
177
     2
291
     1
 71
     2
176
     1
 72
     2
176
     1
 73
     1
176
     1
 90
        2
176
     1
 40
-0.6
176
     1
 41
30.0
176
     1
 62
     5
 63
     7
421
 16777215
176
     1
 74
     0
176
     1
 91
        4
176
     1
 64
     7
176
     1
 65
   257
176
     1
 75
     1
176
     1
175
     1
176
     1
 42
1.0
176
     1
 92
        0
176
     1
 66
     7
176
     1
 43
1.0
176
     1
 76
     1
176
     1
 77
     6
176
     1
 78
     2
176
     1
 67
     7
176
     1
 79
     5
176
     1
170
     0
176
     1
171
     0
176
     1
290
     0
176
     1
 93
       13
176
     1
 44
0.0
176
     1
173
     0
176
     1
  0
VISUALSTYLE
  5
31DC
102
{ACAD_REACTORS
330
31D8
102
}
102
{ACAD_XDICTIONARY
360
34D3
102
}
330
31D8
100
AcDbVisualStyle
  2
GouraudWithEdges
 70
     3
177
     2
291
     1
 71
     2
176
     1
 72
     2
176
     1
 73
     1
176
     1
 90
        2
176
     1
 40
-0.6
176
     1
 41
30.0
176
     1
 62
     5
 63
     7
421
 16777215
176
     1
 74
     1
176
     1
 91
        4
176
     1
 64
     7
176
     1
 65
   257
176
     1
 75
     1
176
     1
175
     1
176
     1
 42
1.0
176
     1
 92
        0
176
     1
 66
   257
176
     1
 43
1.0
176
     1
 76
     1
176
     1
 77
     6
176
     1
 78
     2
176
     1
 67
     7
176
     1
 79
     5
176
     1
170
     0
176
     1
171
     0
176
     1
290
     0
176
     1
 93
       13
176
     1
 44
0.0
176
     1
173
     0
176
     1
  0
VISUALSTYLE
  5
34AD
102
{ACAD_REACTORS
330
31D8
102
}
102
{ACAD_XDICTIONARY
360
34DD
102
}
330
31D8
100
AcDbVisualStyle
  2
Hidden
 70
     6
177
     2
291
     0
 71
     1
176
     1
 72
     2
176
     1
 73
     2
176
     1
 90
        0
176
     1
 40
0.6
176
     1
 41
30.0
176
     1
 62
     5
 63
     7
421
 16777215
176
     1
 74
     2
176
     1
 91
        2
176
     1
 64
     7
176
     1
 65
   257
176
     1
 75
     2
176
     1
175
     1
176
     1
 42
40.0
176
     1
 92
        0
176
     1
 66
   257
176
     1
 43
1.0
176
     1
 76
     1
176
     1
 77
     6
176
     1
 78
     2
176
     1
 67
     7
176
     1
 79
     3
176
     1
170
     0
176
     1
171
     0
176
     1
290
     0
176
     1
 93
        1
176
     1
 44
0.0
176
     1
173
     0
176
     1
  0
VISUALSTYLE
  5
34AE
102
{ACAD_REACTORS
330
31D8
102
}
102
{ACAD_XDICTIONARY
360
34DF
102
}
330
31D8
100
AcDbVisualStyle
  2
JitterOff
 70
    20
177
     2
291
     1
 71
     2
176
     0
 72
     2
176
     0
 73
     0
176
     0
 90
        0
176
     0
 40
0.6
176
     0
 41
30.0
176
     0
 62
     5
 63
     7
421
 16777215
176
     0
 74
     1
176
     0
 91
        4
176
     0
 64
     7
176
     0
 65
   257
176
     0
 75
     1
176
     0
175
     1
176
     0
 42
1.0
176
     0
 92
       10
176
     2
 66
     7
176
     0
 43
1.0
176
     0
 76
     1
176
     0
 77
     6
176
     0
 78
     2
176
     0
 67
     7
176
     0
 79
     5
176
     0
170
     0
176
     0
171
     0
176
     0
290
     0
176
     0
 93
        1
176
     0
 44
0.0
176
     0
173
     0
176
     0
  0
VISUALSTYLE
  5
31E6
102
{ACAD_REACTORS
330
31D8
102
}
102
{ACAD_XDICTIONARY
360
34D5
102
}
330
31D8
100
AcDbVisualStyle
  2
Linepattern
 70
    14
177
     2
291
     1
 71
     2
176
     1
 72
     2
176
     1
 73
     0
176
     1
 90
        0
176
     1
 40
-0.6
176
     1
 41
-30.0
176
     1
 62
     5
 63
     7
421
 16777215
176
     1
 74
     1
176
     1
 91
        4
176
     1
 64
     7
176
     1
 65
   257
176
     1
 75
     7
176
     1
175
     7
176
     1
 42
1.0
176
     1
 92
        8
176
     1
 66
     7
176
     1
 43
1.0
176
     1
 76
     1
176
     1
 77
     6
176
     1
 78
     2
176
     1
 67
     7
176
     1
 79
     5
176
     1
170
     0
176
     1
171
     0
176
     1
290
     0
176
     1
 93
        1
176
     1
 44
0.0
176
     1
173
     0
176
     1
  0
VISUALSTYLE
  5
34AF
102
{ACAD_REACTORS
330
31D8
102
}
102
{ACAD_XDICTIONARY
360
34E1
102
}
330
31D8
100
AcDbVisualStyle
  2
OverhangOff
 70
    21
177
     2
291
     1
 71
     2
176
     0
 72
     2
176
     0
 73
     0
176
     0
 90
        0
176
     0
 40
0.6
176
     0
 41
30.0
176
     0
 62
     5
 63
     7
421
 16777215
176
     0
 74
     1
176
     0
 91
        4
176
     0
 64
     7
176
     0
 65
   257
176
     0
 75
     1
176
     0
175
     1
176
     0
 42
1.0
176
     0
 92
        9
176
     2
 66
     7
176
     0
 43
1.0
176
     0
 76
     1
176
     0
 77
     6
176
     0
 78
     2
176
     0
 67
     7
176
     0
 79
     5
176
     0
170
     0
176
     0
171
     0
176
     0
290
     0
176
     0
 93
        1
176
     0
 44
0.0
176
     0
173
     0
176
     0
  0
VISUALSTYLE
  5
31E2
102
{ACAD_REACTORS
330
31D8
102
}
102
{ACAD_XDICTIONARY
360
34D7
102
}
330
31D8
100
AcDbVisualStyle
  2
Realistic
 70
     8
177
     2
291
     0
 71
     2
176
     1
 72
     2
176
     1
 73
     0
176
     1
 90
        0
176
     1
 40
-0.6
176
     1
 41
-30.0
176
     1
 62
     5
 63
     7
421
 16777215
176
     1
 74
     1
176
     1
 91
        0
176
     1
 64
     7
176
     1
 65
   257
176
     1
 75
     1
176
     1
175
     1
176
     1
 42
1.0
176
     1
 92
        8
176
     1
 66
     8
424
  7895160
176
     1
 43
1.0
176
     1
 76
     1
176
     1
 77
     6
176
     1
 78
     2
176
     1
 67
     7
176
     1
 79
     5
176
     1
170
     0
176
     1
171
     0
176
     1
290
     0
176
     1
 93
       13
176
     1
 44
0.0
176
     1
173
     0
176
     1
  0
VISUALSTYLE
  5
34B5
102
{ACAD_REACTORS
330
31D8
102
}
102
{ACAD_XDICTIONARY
360
34ED
102
}
330
31D8
100
AcDbVisualStyle
  2
Shaded
 70
    27
177
     2
291
     0
 71
     2
176
     1
 72
     2
176
     1
 73
     1
176
     1
 90
        2
176
     1
 40
0.6
176
     1
 41
30.0
176
     1
 62
     5
 63
     7
421
 16777215
176
     1
 74
     0
176
     1
 91
        4
176
     1
 64
     7
176
     1
 65
   257
176
     1
 75
     1
176
     1
175
     1
176
     1
 42
1.0
176
     1
 92
        8
176
     1
 66
   257
176
     1
 43
1.0
176
     1
 76
     1
176
     1
 77
     6
176
     1
 78
     2
176
     1
 67
     8
425
  7895160
176
     1
 79
     3
176
     1
170
     0
176
     1
171
     0
176
     1
290
     0
176
     1
 93
        5
176
     1
 44
0.0
176
     1
173
     0
176
     1
  0
VISUALSTYLE
  5
34B4
102
{ACAD_REACTORS
330
31D8
102
}
102
{ACAD_XDICTIONARY
360
34EB
102
}
330
31D8
100
AcDbVisualStyle
  2
Shaded with edges
 70
    26
177
     2
291
     0
 71
     2
176
     1
 72
     2
176
     1
 73
     1
176
     1
 90
        2
176
     1
 40
0.6
176
     1
 41
30.0
176
     1
 62
     5
 63
     7
421
 16777215
176
     1
 74
     1
176
     1
 91
       10
176
     1
 64
     7
176
     1
 65
   257
176
     1
 75
     2
176
     1
175
     1
176
     1
 42
1.0
176
     1
 92
        8
176
     1
 66
   257
176
     1
 43
1.0
176
     1
 76
     1
176
     1
 77
     6
176
     1
 78
     2
176
     1
 67
     7
176
     1
 79
     3
176
     1
170
     0
176
     1
171
     0
176
     1
290
     0
176
     1
 93
        5
176
     1
 44
0.0
176
     1
173
     0
176
     1
  0
VISUALSTYLE
  5
34B1
102
{ACAD_REACTORS
330
31D8
102
}
102
{ACAD_XDICTIONARY
360
34E5
102
}
330
31D8
100
AcDbVisualStyle
  2
Shades of Gray
 70
    23
177
     2
291
     0
 71
     2
176
     1
 72
     2
176
     1
 73
     3
176
     1
 90
        0
176
     1
 40
0.6
176
     1
 41
30.0
176
     1
 62
     5
 63
     7
421
 16777215
176
     1
 74
     2
176
     1
 91
        2
176
     1
 64
     7
176
     1
 65
     7
176
     1
 75
     1
176
     1
175
     1
176
     1
 42
40.0
176
     1
 92
        8
176
     1
 66
     7
176
     1
 43
1.0
176
     1
 76
     1
176
     1
 77
     6
176
     1
 78
     2
176
     1
 67
     7
176
     1
 79
     3
176
     1
170
     0
176
     1
171
     0
176
     1
290
     0
176
     1
 93
        1
176
     1
 44
0.0
176
     1
173
     0
176
     1
  0
VISUALSTYLE
  5
34B2
102
{ACAD_REACTORS
330
31D8
102
}
102
{ACAD_XDICTIONARY
360
34E7
102
}
330
31D8
100
AcDbVisualStyle
  2
Sketchy
 70
    24
177
     2
291
     0
 71
     1
176
     1
 72
     2
176
     1
 73
     2
176
     1
 90
        0
176
     1
 40
0.6
176
     1
 41
30.0
176
     1
 62
     5
 63
     7
421
 16777215
176
     1
 74
     2
176
     1
 91
        2
176
     1
 64
     7
176
     1
 65
     7
176
     1
 75
     1
176
     1
175
     1
176
     1
 42
40.0
176
     1
 92
       11
176
     1
 66
     7
176
     1
 43
1.0
176
     1
 76
     1
176
     1
 77
     6
176
     1
 78
     2
176
     1
 67
     7
176
     1
 79
     6
176
     1
170
     0
176
     1
171
     0
176
     1
290
     0
176
     1
 93
        1
176
     1
 44
0.0
176
     1
173
     0
176
     1
  0
VISUALSTYLE
  5
31E5
102
{ACAD_REACTORS
330
31D8
102
}
102
{ACAD_XDICTIONARY
360
34D9
102
}
330
31D8
100
AcDbVisualStyle
  2
Thicken
 70
    13
177
     2
291
     1
 71
     2
176
     1
 72
     2
176
     1
 73
     0
176
     1
 90
        0
176
     1
 40
-0.6
176
     1
 41
-30.0
176
     1
 62
     5
 63
     7
421
 16777215
176
     1
 74
     1
176
     1
 91
        4
176
     1
 64
     7
176
     1
 65
   257
176
     1
 75
     1
176
     1
175
     1
176
     1
 42
1.0
176
     1
 92
       12
176
     1
 66
     7
176
     1
 43
1.0
176
     1
 76
     1
176
     1
 77
     6
176
     1
 78
     2
176
     1
 67
     7
176
     1
 79
     5
176
     1
170
     0
176
     1
171
     0
176
     1
290
     0
176
     1
 93
        1
176
     1
 44
0.0
176
     1
173
     0
176
     1
  0
VISUALSTYLE
  5
34AC
102
{ACAD_REACTORS
330
31D8
102
}
102
{ACAD_XDICTIONARY
360
34DB
102
}
330
31D8
100
AcDbVisualStyle
  2
Wireframe
 70
     5
177
     2
291
     0
 71
     0
176
     1
 72
     2
176
     1
 73
     0
176
     1
 90
        0
176
     1
 40
0.6
176
     1
 41
30.0
176
     1
 62
     5
 63
     7
421
 16777215
176
     1
 74
     1
176
     1
 91
        4
176
     1
 64
     7
176
     1
 65
   257
176
     1
 75
     1
176
     1
175
     1
176
     1
 42
1.0
176
     1
 92
        0
176
     1
 66
   257
176
     1
 43
1.0
176
     1
 76
     1
176
     1
 77
     6
176
     1
 78
     2
176
     1
 67
     7
176
     1
 79
     3
176
     1
170
     0
176
     1
171
     0
176
     1
290
     0
176
     1
 93
        1
176
     1
 44
0.0
176
     1
173
     0
176
     1
  0
VISUALSTYLE
  5
34B3
102
{ACAD_REACTORS
330
31D8
102
}
102
{ACAD_XDICTIONARY
360
34E9
102
}
330
31D8
100
AcDbVisualStyle
  2
X-Ray
 70
    25
177
     2
291
     0
 71
     2
176
     1
 72
     2
176
     1
 73
     1
176
     1
 90
        1
176
     1
 40
0.5
176
     1
 41
30.0
176
     1
 62
     5
 63
     7
421
 16777215
176
     1
 74
     1
176
     1
 91
        0
176
     1
 64
     7
176
     1
 65
   257
176
     1
 75
     1
176
     1
175
     1
176
     1
 42
1.0
176
     1
 92
        8
176
     1
 66
     7
176
     1
 43
1.0
176
     1
 76
     1
176
     1
 77
     6
176
     1
 78
     2
176
     1
 67
     7
176
     1
 79
     3
176
     1
170
     0
176
     1
171
     0
176
     1
290
     0
176
     1
 93
       13
176
     1
 44
0.0
176
     1
173
     0
176
     1
  0
DICTIONARYVAR
  5
34B8
102
{ACAD_REACTORS
330
20C1
102
}
330
20C1
100
DictionaryVariables
280
     0
  1
1:1
  0
DICTIONARYVAR
  5
34F0
102
{ACAD_REACTORS
330
20C1
102
}
330
20C1
100
DictionaryVariables
280
     0
  1
Standard
  0
DICTIONARYVAR
  5
331F
102
{ACAD_REACTORS
330
20C1
102
}
330
20C1
100
DictionaryVariables
280
     0
  1
Standard
  0
DICTIONARYVAR
  5
20C2
102
{ACAD_REACTORS
330
20C1
102
}
330
20C1
100
DictionaryVariables
280
     0
  1
1
  0
DICTIONARYVAR
  5
34F1
102
{ACAD_REACTORS
330
20C1
102
}
330
20C1
100
DictionaryVariables
280
     0
  1
0
  0
DICTIONARYVAR
  5
34F2
102
{ACAD_REACTORS
330
20C1
102
}
330
20C1
100
DictionaryVariables
280
     0
  1
0
  0
DICTIONARY
  5
34B9
330
31EB
100
AcDbDictionary
280
     1
281
     1
  3
ACAD_ROUNDTRIP_2008_TABLESTYLE_CELLSTYLEMAP
360
34BA
  0
DICTIONARY
  5
34BB
330
31DE
100
AcDbDictionary
280
     1
281
     1
  3
ACAD_XREC_ROUNDTRIP
360
34BC
  0
DICTIONARY
  5
34BD
330
31E0
100
AcDbDictionary
280
     1
281
     1
  3
ACAD_XREC_ROUNDTRIP
360
34BE
  0
DICTIONARY
  5
34BF
330
31DF
100
AcDbDictionary
280
     1
281
     1
  3
ACAD_XREC_ROUNDTRIP
360
34C0
  0
DICTIONARY
  5
34C1
330
31DD
100
AcDbDictionary
280
     1
281
     1
  3
ACAD_XREC_ROUNDTRIP
360
34C2
  0
DICTIONARY
  5
34C3
330
31E4
100
AcDbDictionary
280
     1
281
     1
  3
ACAD_XREC_ROUNDTRIP
360
34C4
  0
DICTIONARY
  5
34C5
330
31E8
100
AcDbDictionary
280
     1
281
     1
  3
ACAD_XREC_ROUNDTRIP
360
34C6
  0
DICTIONARY
  5
34C7
330
31E1
100
AcDbDictionary
280
     1
281
     1
  3
ACAD_XREC_ROUNDTRIP
360
34C8
  0
DICTIONARY
  5
34C9
330
31E3
100
AcDbDictionary
280
     1
281
     1
  3
ACAD_XREC_ROUNDTRIP
360
34CA
  0
DICTIONARY
  5
34E3
330
34B0
100
AcDbDictionary
280
     1
281
     1
  3
ACAD_XREC_ROUNDTRIP
360
34E4
  0
DICTIONARY
  5
34CB
330
31E7
100
AcDbDictionary
280
     1
281
     1
  3
ACAD_XREC_ROUNDTRIP
360
34CC
  0
DICTIONARY
  5
34CD
330
31D9
100
AcDbDictionary
280
     1
281
     1
  3
ACAD_XREC_ROUNDTRIP
360
34CE
  0
DICTIONARY
  5
34CF
330
31DA
100
AcDbDictionary
280
     1
281
     1
  3
ACAD_XREC_ROUNDTRIP
360
34D0
  0
DICTIONARY
  5
34D1
330
31DB
100
AcDbDictionary
280
     1
281
     1
  3
ACAD_XREC_ROUNDTRIP
360
34D2
  0
DICTIONARY
  5
34D3
330
31DC
100
AcDbDictionary
280
     1
281
     1
  3
ACAD_XREC_ROUNDTRIP
360
34D4
  0
DICTIONARY
  5
34DD
330
34AD
100
AcDbDictionary
280
     1
281
     1
  3
ACAD_XREC_ROUNDTRIP
360
34DE
  0
DICTIONARY
  5
34DF
330
34AE
100
AcDbDictionary
280
     1
281
     1
  3
ACAD_XREC_ROUNDTRIP
360
34E0
  0
DICTIONARY
  5
34D5
330
31E6
100
AcDbDictionary
280
     1
281
     1
  3
ACAD_XREC_ROUNDTRIP
360
34D6
  0
DICTIONARY
  5
34E1
330
34AF
100
AcDbDictionary
280
     1
281
     1
  3
ACAD_XREC_ROUNDTRIP
360
34E2
  0
DICTIONARY
  5
34D7
330
31E2
100
AcDbDictionary
280
     1
281
     1
  3
ACAD_XREC_ROUNDTRIP
360
34D8
  0
DICTIONARY
  5
34ED
330
34B5
100
AcDbDictionary
280
     1
281
     1
  3
ACAD_XREC_ROUNDTRIP
360
34EE
  0
DICTIONARY
  5
34EB
330
34B4
100
AcDbDictionary
280
     1
281
     1
  3
ACAD_XREC_ROUNDTRIP
360
34EC
  0
DICTIONARY
  5
34E5
330
34B1
100
AcDbDictionary
280
     1
281
     1
  3
ACAD_XREC_ROUNDTRIP
360
34E6
  0
DICTIONARY
  5
34E7
330
34B2
100
AcDbDictionary
280
     1
281
     1
  3
ACAD_XREC_ROUNDTRIP
360
34E8
  0
DICTIONARY
  5
34D9
330
31E5
100
AcDbDictionary
280
     1
281
     1
  3
ACAD_XREC_ROUNDTRIP
360
34DA
  0
DICTIONARY
  5
34DB
330
34AC
100
AcDbDictionary
280
     1
281
     1
  3
ACAD_XREC_ROUNDTRIP
360
34DC
  0
DICTIONARY
  5
34E9
330
34B3
100
AcDbDictionary
280
     1
281
     1
  3
ACAD_XREC_ROUNDTRIP
360
34EA
  0
CELLSTYLEMAP
  5
34BA
102
{ACAD_REACTORS
330
34B9
102
}
330
34B9
100
AcDbCellStyleMap
 90
        3
300
CELLSTYLE
  1
TABLEFORMAT_BEGIN
 90
        5
170
     1
 91
        0
 92
    32768
 62
   257
 93
        1
300
CONTENTFORMAT
  1
CONTENTFORMAT_BEGIN
 90
        0
 91
        0
 92
      512
 93
        0
300

 40
0.0
140
1.0
 94
        5
 62
     0
340
11
144
0.25
309
CONTENTFORMAT_END
171
     1
301
MARGIN
  1
CELLMARGIN_BEGIN
 40
0.06
 40
0.06
 40
0.06
 40
0.06
 40
0.06
 40
0.06
309
CELLMARGIN_END
 94
        6
 95
        1
302
GRIDFORMAT
  1
GRIDFORMAT_BEGIN
 90
        0
 91
        1
 62
     0
 92
       -2
340
0
 93
        0
 40
0.045
309
GRIDFORMAT_END
 95
        2
302
GRIDFORMAT
  1
GRIDFORMAT_BEGIN
 90
        0
 91
        1
 62
     0
 92
       -2
340
0
 93
        0
 40
0.045
309
GRIDFORMAT_END
 95
        4
302
GRIDFORMAT
  1
GRIDFORMAT_BEGIN
 90
        0
 91
        1
 62
     0
 92
       -2
340
0
 93
        0
 40
0.045
309
GRIDFORMAT_END
 95
        8
302
GRIDFORMAT
  1
GRIDFORMAT_BEGIN
 90
        0
 91
        1
 62
     0
 92
       -2
340
0
 93
        0
 40
0.045
309
GRIDFORMAT_END
 95
       16
302
GRIDFORMAT
  1
GRIDFORMAT_BEGIN
 90
        0
 91
        1
 62
     0
 92
       -2
340
0
 93
        0
 40
0.045
309
GRIDFORMAT_END
 95
       32
302
GRIDFORMAT
  1
GRIDFORMAT_BEGIN
 90
        0
 91
        1
 62
     0
 92
       -2
340
0
 93
        0
 40
0.045
309
GRIDFORMAT_END
309
TABLEFORMAT_END
  1
CELLSTYLE_BEGIN
 90
        1
 91
        1
300
_TITLE
309
CELLSTYLE_END
300
CELLSTYLE
  1
TABLEFORMAT_BEGIN
 90
        5
170
     1
 91
        0
 92
        0
 62
   257
 93
        1
300
CONTENTFORMAT
  1
CONTENTFORMAT_BEGIN
 90
        0
 91
        0
 92
      512
 93
        0
300

 40
0.0
140
1.0
 94
        5
 62
     0
340
11
144
0.18
309
CONTENTFORMAT_END
171
     1
301
MARGIN
  1
CELLMARGIN_BEGIN
 40
0.06
 40
0.06
 40
0.06
 40
0.06
 40
0.06
 40
0.06
309
CELLMARGIN_END
 94
        6
 95
        1
302
GRIDFORMAT
  1
GRIDFORMAT_BEGIN
 90
        0
 91
        1
 62
     0
 92
       -2
340
0
 93
        0
 40
0.045
309
GRIDFORMAT_END
 95
        2
302
GRIDFORMAT
  1
GRIDFORMAT_BEGIN
 90
        0
 91
        1
 62
     0
 92
       -2
340
0
 93
        0
 40
0.045
309
GRIDFORMAT_END
 95
        4
302
GRIDFORMAT
  1
GRIDFORMAT_BEGIN
 90
        0
 91
        1
 62
     0
 92
       -2
340
0
 93
        0
 40
0.045
309
GRIDFORMAT_END
 95
        8
302
GRIDFORMAT
  1
GRIDFORMAT_BEGIN
 90
        0
 91
        1
 62
     0
 92
       -2
340
0
 93
        0
 40
0.045
309
GRIDFORMAT_END
 95
       16
302
GRIDFORMAT
  1
GRIDFORMAT_BEGIN
 90
        0
 91
        1
 62
     0
 92
       -2
340
0
 93
        0
 40
0.045
309
GRIDFORMAT_END
 95
       32
302
GRIDFORMAT
  1
GRIDFORMAT_BEGIN
 90
        0
 91
        1
 62
     0
 92
       -2
340
0
 93
        0
 40
0.045
309
GRIDFORMAT_END
309
TABLEFORMAT_END
  1
CELLSTYLE_BEGIN
 90
        2
 91
        1
300
_HEADER
309
CELLSTYLE_END
300
CELLSTYLE
  1
TABLEFORMAT_BEGIN
 90
        5
170
     1
 91
        0
 92
        0
 62
   257
 93
        1
300
CONTENTFORMAT
  1
CONTENTFORMAT_BEGIN
 90
        0
 91
        0
 92
      512
 93
        0
300

 40
0.0
140
1.0
 94
        2
 62
     0
340
11
144
0.18
309
CONTENTFORMAT_END
171
     1
301
MARGIN
  1
CELLMARGIN_BEGIN
 40
0.06
 40
0.06
 40
0.06
 40
0.06
 40
0.06
 40
0.06
309
CELLMARGIN_END
 94
        6
 95
        1
302
GRIDFORMAT
  1
GRIDFORMAT_BEGIN
 90
        0
 91
        1
 62
     0
 92
       -2
340
0
 93
        0
 40
0.045
309
GRIDFORMAT_END
 95
        2
302
GRIDFORMAT
  1
GRIDFORMAT_BEGIN
 90
        0
 91
        1
 62
     0
 92
       -2
340
0
 93
        0
 40
0.045
309
GRIDFORMAT_END
 95
        4
302
GRIDFORMAT
  1
GRIDFORMAT_BEGIN
 90
        0
 91
        1
 62
     0
 92
       -2
340
0
 93
        0
 40
0.045
309
GRIDFORMAT_END
 95
        8
302
GRIDFORMAT
  1
GRIDFORMAT_BEGIN
 90
        0
 91
        1
 62
     0
 92
       -2
340
0
 93
        0
 40
0.045
309
GRIDFORMAT_END
 95
       16
302
GRIDFORMAT
  1
GRIDFORMAT_BEGIN
 90
        0
 91
        1
 62
     0
 92
       -2
340
0
 93
        0
 40
0.045
309
GRIDFORMAT_END
 95
       32
302
GRIDFORMAT
  1
GRIDFORMAT_BEGIN
 90
        0
 91
        1
 62
     0
 92
       -2
340
0
 93
        0
 40
0.045
309
GRIDFORMAT_END
309
TABLEFORMAT_END
  1
CELLSTYLE_BEGIN
 90
        3
 91
        2
300
_DATA
309
CELLSTYLE_END
  0
XRECORD
  5
34BC
102
{ACAD_REACTORS
330
34BB
102
}
330
34BB
100
AcDbXrecord
280
     1
102
RTVSPost2010Prop28
280
     1
102
RTVSPost2010PropOp28
 70
     1
102
RTVSPost2010Prop29
280
     1
102
RTVSPost2010PropOp29
 70
     1
102
RTVSPost2010Prop30
280
     0
102
RTVSPost2010PropOp30
 70
     1
102
RTVSPost2010Prop31
280
     0
102
RTVSPost2010PropOp31
 70
     1
102
RTVSPost2010Prop32
280
     0
102
RTVSPost2010PropOp32
 70
     1
102
RTVSPost2010Prop33
280
     0
102
RTVSPost2010PropOp33
 70
     1
102
RTVSPost2010Prop34
280
     0
102
RTVSPost2010PropOp34
 70
     1
102
RTVSPost2010Prop35
280
     0
102
RTVSPost2010PropOp35
 70
     1
102
RTVSPost2010Prop36
280
     0
102
RTVSPost2010PropOp36
 70
     1
102
RTVSPost2010Prop37
 90
       50
102
RTVSPost2010PropOp37
 70
     1
102
RTVSPost2010Prop38
140
0.0
102
RTVSPost2010PropOp38
 70
     1
102
RTVSPost2010Prop39
140
1.0
102
RTVSPost2010PropOp39
 70
     1
102
RTVSPost2010Prop40
 90
        0
102
RTVSPost2010PropOp40
 70
     1
102
RTVSPost2010Prop41ColorIndex
 90
       18
102
RTVSPost2010Prop41ColorRGB
 90
        0
102
RTVSPost2010PropOp41
 70
     1
102
RTVSPost2010Prop42
 90
       50
102
RTVSPost2010PropOp42
 70
     1
102
RTVSPost2010Prop43
 90
        3
102
RTVSPost2010PropOp43
 70
     1
102
RTVSPost2010Prop44ColorIndex
 90
        5
102
RTVSPost2010Prop44ColorRGB
 90
      255
102
RTVSPost2010PropOp44
 70
     1
102
RTVSPost2010Prop45
280
     0
102
RTVSPost2010PropOp45
 70
     1
102
RTVSPost2010Prop46
 90
       50
102
RTVSPost2010PropOp46
 70
     1
102
RTVSPost2010Prop47
 90
       50
102
RTVSPost2010PropOp47
 70
     1
102
RTVSPost2010Prop48
 90
       50
102
RTVSPost2010PropOp48
 70
     1
102
RTVSPost2010Prop49
280
     0
102
RTVSPost2010PropOp49
 70
     1
102
RTVSPost2010Prop50
 90
       50
102
RTVSPost2010PropOp50
 70
     1
102
RTVSPost2010Prop51ColorIndex
 90
      256
102
RTVSPost2010Prop51ColorRGB
 90
-16777216
102
RTVSPost2010PropOp51
 70
     0
102
RTVSPost2010Prop52
140
1.0
102
RTVSPost2010PropOp52
 70
     0
102
RTVSPost2010Prop53
 90
        2
102
RTVSPost2010PropOp53
 70
     1
102
RTVSPost2010Prop54
  1
strokes_ogs.tif
102
RTVSPost2010PropOp54
 70
     1
102
RTVSPost2010Prop55
280
     0
102
RTVSPost2010PropOp55
 70
     1
102
RTVSPost2010Prop56
140
1.0
102
RTVSPost2010PropOp56
 70
     1
102
RTVSPost2010Prop57
140
1.0
102
RTVSPost2010PropOp57
 70
     1
  0
XRECORD
  5
34BE
102
{ACAD_REACTORS
330
34BD
102
}
330
34BD
100
AcDbXrecord
280
     1
102
RTVSPost2010Prop28
280
     0
102
RTVSPost2010PropOp28
 70
     1
102
RTVSPost2010Prop29
280
     1
102
RTVSPost2010PropOp29
 70
     1
102
RTVSPost2010Prop30
280
     1
102
RTVSPost2010PropOp30
 70
     1
102
RTVSPost2010Prop31
280
     0
102
RTVSPost2010PropOp31
 70
     1
102
RTVSPost2010Prop32
280
     0
102
RTVSPost2010PropOp32
 70
     1
102
RTVSPost2010Prop33
280
     0
102
RTVSPost2010PropOp33
 70
     1
102
RTVSPost2010Prop34
280
     0
102
RTVSPost2010PropOp34
 70
     1
102
RTVSPost2010Prop35
280
     0
102
RTVSPost2010PropOp35
 70
     1
102
RTVSPost2010Prop36
280
     0
102
RTVSPost2010PropOp36
 70
     1
102
RTVSPost2010Prop37
 90
       50
102
RTVSPost2010PropOp37
 70
     1
102
RTVSPost2010Prop38
140
0.0
102
RTVSPost2010PropOp38
 70
     1
102
RTVSPost2010Prop39
140
1.0
102
RTVSPost2010PropOp39
 70
     1
102
RTVSPost2010Prop40
 90
        0
102
RTVSPost2010PropOp40
 70
     1
102
RTVSPost2010Prop41ColorIndex
 90
       18
102
RTVSPost2010Prop41ColorRGB
 90
        0
102
RTVSPost2010PropOp41
 70
     1
102
RTVSPost2010Prop42
 90
       50
102
RTVSPost2010PropOp42
 70
     1
102
RTVSPost2010Prop43
 90
        3
102
RTVSPost2010PropOp43
 70
     1
102
RTVSPost2010Prop44ColorIndex
 90
        5
102
RTVSPost2010Prop44ColorRGB
 90
      255
102
RTVSPost2010PropOp44
 70
     1
102
RTVSPost2010Prop45
280
     0
102
RTVSPost2010PropOp45
 70
     1
102
RTVSPost2010Prop46
 90
       50
102
RTVSPost2010PropOp46
 70
     1
102
RTVSPost2010Prop47
 90
       50
102
RTVSPost2010PropOp47
 70
     1
102
RTVSPost2010Prop48
 90
       50
102
RTVSPost2010PropOp48
 70
     1
102
RTVSPost2010Prop49
280
     0
102
RTVSPost2010PropOp49
 70
     1
102
RTVSPost2010Prop50
 90
       50
102
RTVSPost2010PropOp50
 70
     1
102
RTVSPost2010Prop51ColorIndex
 90
      256
102
RTVSPost2010Prop51ColorRGB
 90
-16777216
102
RTVSPost2010PropOp51
 70
     0
102
RTVSPost2010Prop52
140
1.0
102
RTVSPost2010PropOp52
 70
     0
102
RTVSPost2010Prop53
 90
        2
102
RTVSPost2010PropOp53
 70
     1
102
RTVSPost2010Prop54
  1
strokes_ogs.tif
102
RTVSPost2010PropOp54
 70
     1
102
RTVSPost2010Prop55
280
     0
102
RTVSPost2010PropOp55
 70
     1
102
RTVSPost2010Prop56
140
1.0
102
RTVSPost2010PropOp56
 70
     1
102
RTVSPost2010Prop57
140
1.0
102
RTVSPost2010PropOp57
 70
     1
  0
XRECORD
  5
34C0
102
{ACAD_REACTORS
330
34BF
102
}
330
34BF
100
AcDbXrecord
280
     1
102
RTVSPost2010Prop28
280
     0
102
RTVSPost2010PropOp28
 70
     1
102
RTVSPost2010Prop29
280
     1
102
RTVSPost2010PropOp29
 70
     1
102
RTVSPost2010Prop30
280
     1
102
RTVSPost2010PropOp30
 70
     1
102
RTVSPost2010Prop31
280
     0
102
RTVSPost2010PropOp31
 70
     1
102
RTVSPost2010Prop32
280
     0
102
RTVSPost2010PropOp32
 70
     1
102
RTVSPost2010Prop33
280
     0
102
RTVSPost2010PropOp33
 70
     1
102
RTVSPost2010Prop34
280
     0
102
RTVSPost2010PropOp34
 70
     1
102
RTVSPost2010Prop35
280
     0
102
RTVSPost2010PropOp35
 70
     1
102
RTVSPost2010Prop36
280
     0
102
RTVSPost2010PropOp36
 70
     1
102
RTVSPost2010Prop37
 90
       50
102
RTVSPost2010PropOp37
 70
     1
102
RTVSPost2010Prop38
140
0.0
102
RTVSPost2010PropOp38
 70
     1
102
RTVSPost2010Prop39
140
1.0
102
RTVSPost2010PropOp39
 70
     1
102
RTVSPost2010Prop40
 90
        0
102
RTVSPost2010PropOp40
 70
     1
102
RTVSPost2010Prop41ColorIndex
 90
       18
102
RTVSPost2010Prop41ColorRGB
 90
        0
102
RTVSPost2010PropOp41
 70
     1
102
RTVSPost2010Prop42
 90
       50
102
RTVSPost2010PropOp42
 70
     1
102
RTVSPost2010Prop43
 90
        3
102
RTVSPost2010PropOp43
 70
     1
102
RTVSPost2010Prop44ColorIndex
 90
        5
102
RTVSPost2010Prop44ColorRGB
 90
      255
102
RTVSPost2010PropOp44
 70
     1
102
RTVSPost2010Prop45
280
     0
102
RTVSPost2010PropOp45
 70
     1
102
RTVSPost2010Prop46
 90
       50
102
RTVSPost2010PropOp46
 70
     1
102
RTVSPost2010Prop47
 90
       50
102
RTVSPost2010PropOp47
 70
     1
102
RTVSPost2010Prop48
 90
       50
102
RTVSPost2010PropOp48
 70
     1
102
RTVSPost2010Prop49
280
     0
102
RTVSPost2010PropOp49
 70
     1
102
RTVSPost2010Prop50
 90
       50
102
RTVSPost2010PropOp50
 70
     1
102
RTVSPost2010Prop51ColorIndex
 90
      256
102
RTVSPost2010Prop51ColorRGB
 90
-16777216
102
RTVSPost2010PropOp51
 70
     0
102
RTVSPost2010Prop52
140
1.0
102
RTVSPost2010PropOp52
 70
     0
102
RTVSPost2010Prop53
 90
        2
102
RTVSPost2010PropOp53
 70
     1
102
RTVSPost2010Prop54
  1
strokes_ogs.tif
102
RTVSPost2010PropOp54
 70
     1
102
RTVSPost2010Prop55
280
     0
102
RTVSPost2010PropOp55
 70
     1
102
RTVSPost2010Prop56
140
1.0
102
RTVSPost2010PropOp56
 70
     1
102
RTVSPost2010Prop57
140
1.0
102
RTVSPost2010PropOp57
 70
     1
  0
XRECORD
  5
34C2
102
{ACAD_REACTORS
330
34C1
102
}
330
34C1
100
AcDbXrecord
280
     1
102
RTVSPost2010Prop28
280
     0
102
RTVSPost2010PropOp28
 70
     1
102
RTVSPost2010Prop29
280
     1
102
RTVSPost2010PropOp29
 70
     1
102
RTVSPost2010Prop30
280
     1
102
RTVSPost2010PropOp30
 70
     1
102
RTVSPost2010Prop31
280
     0
102
RTVSPost2010PropOp31
 70
     1
102
RTVSPost2010Prop32
280
     0
102
RTVSPost2010PropOp32
 70
     1
102
RTVSPost2010Prop33
280
     0
102
RTVSPost2010PropOp33
 70
     1
102
RTVSPost2010Prop34
280
     0
102
RTVSPost2010PropOp34
 70
     1
102
RTVSPost2010Prop35
280
     0
102
RTVSPost2010PropOp35
 70
     1
102
RTVSPost2010Prop36
280
     0
102
RTVSPost2010PropOp36
 70
     1
102
RTVSPost2010Prop37
 90
       50
102
RTVSPost2010PropOp37
 70
     1
102
RTVSPost2010Prop38
140
0.0
102
RTVSPost2010PropOp38
 70
     1
102
RTVSPost2010Prop39
140
1.0
102
RTVSPost2010PropOp39
 70
     1
102
RTVSPost2010Prop40
 90
        0
102
RTVSPost2010PropOp40
 70
     1
102
RTVSPost2010Prop41ColorIndex
 90
       18
102
RTVSPost2010Prop41ColorRGB
 90
        0
102
RTVSPost2010PropOp41
 70
     1
102
RTVSPost2010Prop42
 90
       50
102
RTVSPost2010PropOp42
 70
     1
102
RTVSPost2010Prop43
 90
        3
102
RTVSPost2010PropOp43
 70
     1
102
RTVSPost2010Prop44ColorIndex
 90
        5
102
RTVSPost2010Prop44ColorRGB
 90
      255
102
RTVSPost2010PropOp44
 70
     1
102
RTVSPost2010Prop45
280
     0
102
RTVSPost2010PropOp45
 70
     1
102
RTVSPost2010Prop46
 90
       50
102
RTVSPost2010PropOp46
 70
     1
102
RTVSPost2010Prop47
 90
       50
102
RTVSPost2010PropOp47
 70
     1
102
RTVSPost2010Prop48
 90
       50
102
RTVSPost2010PropOp48
 70
     1
102
RTVSPost2010Prop49
280
     0
102
RTVSPost2010PropOp49
 70
     1
102
RTVSPost2010Prop50
 90
       50
102
RTVSPost2010PropOp50
 70
     1
102
RTVSPost2010Prop51ColorIndex
 90
      256
102
RTVSPost2010Prop51ColorRGB
 90
-16777216
102
RTVSPost2010PropOp51
 70
     0
102
RTVSPost2010Prop52
140
1.0
102
RTVSPost2010PropOp52
 70
     0
102
RTVSPost2010Prop53
 90
        2
102
RTVSPost2010PropOp53
 70
     1
102
RTVSPost2010Prop54
  1
strokes_ogs.tif
102
RTVSPost2010PropOp54
 70
     1
102
RTVSPost2010Prop55
280
     0
102
RTVSPost2010PropOp55
 70
     1
102
RTVSPost2010Prop56
140
1.0
102
RTVSPost2010PropOp56
 70
     1
102
RTVSPost2010Prop57
140
1.0
102
RTVSPost2010PropOp57
 70
     1
  0
XRECORD
  5
34C4
102
{ACAD_REACTORS
330
34C3
102
}
330
34C3
100
AcDbXrecord
280
     1
102
RTVSPost2010Prop28
280
     0
102
RTVSPost2010PropOp28
 70
     1
102
RTVSPost2010Prop29
280
     1
102
RTVSPost2010PropOp29
 70
     1
102
RTVSPost2010Prop30
280
     1
102
RTVSPost2010PropOp30
 70
     1
102
RTVSPost2010Prop31
280
     0
102
RTVSPost2010PropOp31
 70
     1
102
RTVSPost2010Prop32
280
     0
102
RTVSPost2010PropOp32
 70
     1
102
RTVSPost2010Prop33
280
     0
102
RTVSPost2010PropOp33
 70
     1
102
RTVSPost2010Prop34
280
     0
102
RTVSPost2010PropOp34
 70
     1
102
RTVSPost2010Prop35
280
     0
102
RTVSPost2010PropOp35
 70
     1
102
RTVSPost2010Prop36
280
     0
102
RTVSPost2010PropOp36
 70
     1
102
RTVSPost2010Prop37
 90
       50
102
RTVSPost2010PropOp37
 70
     1
102
RTVSPost2010Prop38
140
0.0
102
RTVSPost2010PropOp38
 70
     1
102
RTVSPost2010Prop39
140
1.0
102
RTVSPost2010PropOp39
 70
     1
102
RTVSPost2010Prop40
 90
        0
102
RTVSPost2010PropOp40
 70
     1
102
RTVSPost2010Prop41ColorIndex
 90
       18
102
RTVSPost2010Prop41ColorRGB
 90
        0
102
RTVSPost2010PropOp41
 70
     1
102
RTVSPost2010Prop42
 90
       50
102
RTVSPost2010PropOp42
 70
     1
102
RTVSPost2010Prop43
 90
        3
102
RTVSPost2010PropOp43
 70
     1
102
RTVSPost2010Prop44ColorIndex
 90
        5
102
RTVSPost2010Prop44ColorRGB
 90
      255
102
RTVSPost2010PropOp44
 70
     1
102
RTVSPost2010Prop45
280
     0
102
RTVSPost2010PropOp45
 70
     1
102
RTVSPost2010Prop46
 90
       50
102
RTVSPost2010PropOp46
 70
     1
102
RTVSPost2010Prop47
 90
       50
102
RTVSPost2010PropOp47
 70
     1
102
RTVSPost2010Prop48
 90
       50
102
RTVSPost2010PropOp48
 70
     1
102
RTVSPost2010Prop49
280
     0
102
RTVSPost2010PropOp49
 70
     1
102
RTVSPost2010Prop50
 90
       50
102
RTVSPost2010PropOp50
 70
     1
102
RTVSPost2010Prop51ColorIndex
 90
      256
102
RTVSPost2010Prop51ColorRGB
 90
-16777216
102
RTVSPost2010PropOp51
 70
     0
102
RTVSPost2010Prop52
140
1.0
102
RTVSPost2010PropOp52
 70
     0
102
RTVSPost2010Prop53
 90
        2
102
RTVSPost2010PropOp53
 70
     1
102
RTVSPost2010Prop54
  1
strokes_ogs.tif
102
RTVSPost2010PropOp54
 70
     1
102
RTVSPost2010Prop55
280
     0
102
RTVSPost2010PropOp55
 70
     1
102
RTVSPost2010Prop56
140
1.0
102
RTVSPost2010PropOp56
 70
     1
102
RTVSPost2010Prop57
140
1.0
102
RTVSPost2010PropOp57
 70
     1
  0
XRECORD
  5
34C6
102
{ACAD_REACTORS
330
34C5
102
}
330
34C5
100
AcDbXrecord
280
     1
102
RTVSPost2010Prop28
280
     0
102
RTVSPost2010PropOp28
 70
     1
102
RTVSPost2010Prop29
280
     1
102
RTVSPost2010PropOp29
 70
     1
102
RTVSPost2010Prop30
280
     1
102
RTVSPost2010PropOp30
 70
     1
102
RTVSPost2010Prop31
280
     0
102
RTVSPost2010PropOp31
 70
     1
102
RTVSPost2010Prop32
280
     0
102
RTVSPost2010PropOp32
 70
     1
102
RTVSPost2010Prop33
280
     0
102
RTVSPost2010PropOp33
 70
     1
102
RTVSPost2010Prop34
280
     0
102
RTVSPost2010PropOp34
 70
     1
102
RTVSPost2010Prop35
280
     0
102
RTVSPost2010PropOp35
 70
     1
102
RTVSPost2010Prop36
280
     0
102
RTVSPost2010PropOp36
 70
     1
102
RTVSPost2010Prop37
 90
       50
102
RTVSPost2010PropOp37
 70
     1
102
RTVSPost2010Prop38
140
0.0
102
RTVSPost2010PropOp38
 70
     1
102
RTVSPost2010Prop39
140
1.0
102
RTVSPost2010PropOp39
 70
     1
102
RTVSPost2010Prop40
 90
        0
102
RTVSPost2010PropOp40
 70
     1
102
RTVSPost2010Prop41ColorIndex
 90
       18
102
RTVSPost2010Prop41ColorRGB
 90
        0
102
RTVSPost2010PropOp41
 70
     1
102
RTVSPost2010Prop42
 90
       50
102
RTVSPost2010PropOp42
 70
     1
102
RTVSPost2010Prop43
 90
        3
102
RTVSPost2010PropOp43
 70
     1
102
RTVSPost2010Prop44ColorIndex
 90
        5
102
RTVSPost2010Prop44ColorRGB
 90
      255
102
RTVSPost2010PropOp44
 70
     1
102
RTVSPost2010Prop45
280
     0
102
RTVSPost2010PropOp45
 70
     1
102
RTVSPost2010Prop46
 90
       50
102
RTVSPost2010PropOp46
 70
     1
102
RTVSPost2010Prop47
 90
       50
102
RTVSPost2010PropOp47
 70
     1
102
RTVSPost2010Prop48
 90
       50
102
RTVSPost2010PropOp48
 70
     1
102
RTVSPost2010Prop49
280
     0
102
RTVSPost2010PropOp49
 70
     1
102
RTVSPost2010Prop50
 90
       50
102
RTVSPost2010PropOp50
 70
     1
102
RTVSPost2010Prop51ColorIndex
 90
      256
102
RTVSPost2010Prop51ColorRGB
 90
-16777216
102
RTVSPost2010PropOp51
 70
     0
102
RTVSPost2010Prop52
140
1.0
102
RTVSPost2010PropOp52
 70
     0
102
RTVSPost2010Prop53
 90
        2
102
RTVSPost2010PropOp53
 70
     1
102
RTVSPost2010Prop54
  1
strokes_ogs.tif
102
RTVSPost2010PropOp54
 70
     1
102
RTVSPost2010Prop55
280
     0
102
RTVSPost2010PropOp55
 70
     1
102
RTVSPost2010Prop56
140
1.0
102
RTVSPost2010PropOp56
 70
     1
102
RTVSPost2010Prop57
140
1.0
102
RTVSPost2010PropOp57
 70
     1
  0
XRECORD
  5
34C8
102
{ACAD_REACTORS
330
34C7
102
}
330
34C7
100
AcDbXrecord
280
     1
102
RTVSPost2010Prop28
280
     0
102
RTVSPost2010PropOp28
 70
     1
102
RTVSPost2010Prop29
280
     1
102
RTVSPost2010PropOp29
 70
     1
102
RTVSPost2010Prop30
280
     1
102
RTVSPost2010PropOp30
 70
     1
102
RTVSPost2010Prop31
280
     0
102
RTVSPost2010PropOp31
 70
     1
102
RTVSPost2010Prop32
280
     0
102
RTVSPost2010PropOp32
 70
     1
102
RTVSPost2010Prop33
280
     0
102
RTVSPost2010PropOp33
 70
     1
102
RTVSPost2010Prop34
280
     0
102
RTVSPost2010PropOp34
 70
     1
102
RTVSPost2010Prop35
280
     0
102
RTVSPost2010PropOp35
 70
     1
102
RTVSPost2010Prop36
280
     0
102
RTVSPost2010PropOp36
 70
     1
102
RTVSPost2010Prop37
 90
       50
102
RTVSPost2010PropOp37
 70
     1
102
RTVSPost2010Prop38
140
0.0
102
RTVSPost2010PropOp38
 70
     1
102
RTVSPost2010Prop39
140
1.0
102
RTVSPost2010PropOp39
 70
     1
102
RTVSPost2010Prop40
 90
        0
102
RTVSPost2010PropOp40
 70
     1
102
RTVSPost2010Prop41ColorIndex
 90
       18
102
RTVSPost2010Prop41ColorRGB
 90
        0
102
RTVSPost2010PropOp41
 70
     1
102
RTVSPost2010Prop42
 90
       50
102
RTVSPost2010PropOp42
 70
     1
102
RTVSPost2010Prop43
 90
        3
102
RTVSPost2010PropOp43
 70
     1
102
RTVSPost2010Prop44ColorIndex
 90
        5
102
RTVSPost2010Prop44ColorRGB
 90
      255
102
RTVSPost2010PropOp44
 70
     1
102
RTVSPost2010Prop45
280
     0
102
RTVSPost2010PropOp45
 70
     1
102
RTVSPost2010Prop46
 90
       50
102
RTVSPost2010PropOp46
 70
     1
102
RTVSPost2010Prop47
 90
       50
102
RTVSPost2010PropOp47
 70
     1
102
RTVSPost2010Prop48
 90
       50
102
RTVSPost2010PropOp48
 70
     1
102
RTVSPost2010Prop49
280
     0
102
RTVSPost2010PropOp49
 70
     1
102
RTVSPost2010Prop50
 90
       50
102
RTVSPost2010PropOp50
 70
     1
102
RTVSPost2010Prop51ColorIndex
 90
      256
102
RTVSPost2010Prop51ColorRGB
 90
-16777216
102
RTVSPost2010PropOp51
 70
     0
102
RTVSPost2010Prop52
140
1.0
102
RTVSPost2010PropOp52
 70
     0
102
RTVSPost2010Prop53
 90
        2
102
RTVSPost2010PropOp53
 70
     1
102
RTVSPost2010Prop54
  1
strokes_ogs.tif
102
RTVSPost2010PropOp54
 70
     1
102
RTVSPost2010Prop55
280
     0
102
RTVSPost2010PropOp55
 70
     1
102
RTVSPost2010Prop56
140
1.0
102
RTVSPost2010PropOp56
 70
     1
102
RTVSPost2010Prop57
140
1.0
102
RTVSPost2010PropOp57
 70
     1
  0
XRECORD
  5
34CA
102
{ACAD_REACTORS
330
34C9
102
}
330
34C9
100
AcDbXrecord
280
     1
102
RTVSPost2010Prop28
280
     0
102
RTVSPost2010PropOp28
 70
     1
102
RTVSPost2010Prop29
280
     1
102
RTVSPost2010PropOp29
 70
     1
102
RTVSPost2010Prop30
280
     1
102
RTVSPost2010PropOp30
 70
     1
102
RTVSPost2010Prop31
280
     0
102
RTVSPost2010PropOp31
 70
     1
102
RTVSPost2010Prop32
280
     0
102
RTVSPost2010PropOp32
 70
     1
102
RTVSPost2010Prop33
280
     0
102
RTVSPost2010PropOp33
 70
     1
102
RTVSPost2010Prop34
280
     0
102
RTVSPost2010PropOp34
 70
     1
102
RTVSPost2010Prop35
280
     0
102
RTVSPost2010PropOp35
 70
     1
102
RTVSPost2010Prop36
280
     0
102
RTVSPost2010PropOp36
 70
     1
102
RTVSPost2010Prop37
 90
       50
102
RTVSPost2010PropOp37
 70
     1
102
RTVSPost2010Prop38
140
0.0
102
RTVSPost2010PropOp38
 70
     1
102
RTVSPost2010Prop39
140
1.0
102
RTVSPost2010PropOp39
 70
     1
102
RTVSPost2010Prop40
 90
        0
102
RTVSPost2010PropOp40
 70
     1
102
RTVSPost2010Prop41ColorIndex
 90
       18
102
RTVSPost2010Prop41ColorRGB
 90
        0
102
RTVSPost2010PropOp41
 70
     1
102
RTVSPost2010Prop42
 90
       50
102
RTVSPost2010PropOp42
 70
     1
102
RTVSPost2010Prop43
 90
        3
102
RTVSPost2010PropOp43
 70
     1
102
RTVSPost2010Prop44ColorIndex
 90
        5
102
RTVSPost2010Prop44ColorRGB
 90
      255
102
RTVSPost2010PropOp44
 70
     1
102
RTVSPost2010Prop45
280
     0
102
RTVSPost2010PropOp45
 70
     1
102
RTVSPost2010Prop46
 90
       50
102
RTVSPost2010PropOp46
 70
     1
102
RTVSPost2010Prop47
 90
       50
102
RTVSPost2010PropOp47
 70
     1
102
RTVSPost2010Prop48
 90
       50
102
RTVSPost2010PropOp48
 70
     1
102
RTVSPost2010Prop49
280
     0
102
RTVSPost2010PropOp49
 70
     1
102
RTVSPost2010Prop50
 90
       50
102
RTVSPost2010PropOp50
 70
     1
102
RTVSPost2010Prop51ColorIndex
 90
      256
102
RTVSPost2010Prop51ColorRGB
 90
-16777216
102
RTVSPost2010PropOp51
 70
     0
102
RTVSPost2010Prop52
140
1.0
102
RTVSPost2010PropOp52
 70
     0
102
RTVSPost2010Prop53
 90
        2
102
RTVSPost2010PropOp53
 70
     1
102
RTVSPost2010Prop54
  1
strokes_ogs.tif
102
RTVSPost2010PropOp54
 70
     1
102
RTVSPost2010Prop55
280
     0
102
RTVSPost2010PropOp55
 70
     1
102
RTVSPost2010Prop56
140
1.0
102
RTVSPost2010PropOp56
 70
     1
102
RTVSPost2010Prop57
140
1.0
102
RTVSPost2010PropOp57
 70
     1
  0
XRECORD
  5
34E4
102
{ACAD_REACTORS
330
34E3
102
}
330
34E3
100
AcDbXrecord
280
     1
102
RTVSPost2010Prop28
280
     0
102
RTVSPost2010PropOp28
 70
     0
102
RTVSPost2010Prop29
280
     1
102
RTVSPost2010PropOp29
 70
     0
102
RTVSPost2010Prop30
280
     1
102
RTVSPost2010PropOp30
 70
     0
102
RTVSPost2010Prop31
280
     0
102
RTVSPost2010PropOp31
 70
     0
102
RTVSPost2010Prop32
280
     0
102
RTVSPost2010PropOp32
 70
     0
102
RTVSPost2010Prop33
280
     0
102
RTVSPost2010PropOp33
 70
     0
102
RTVSPost2010Prop34
280
     0
102
RTVSPost2010PropOp34
 70
     0
102
RTVSPost2010Prop35
280
     0
102
RTVSPost2010PropOp35
 70
     0
102
RTVSPost2010Prop36
280
     0
102
RTVSPost2010PropOp36
 70
     0
102
RTVSPost2010Prop37
 90
       50
102
RTVSPost2010PropOp37
 70
     0
102
RTVSPost2010Prop38
140
0.0
102
RTVSPost2010PropOp38
 70
     0
102
RTVSPost2010Prop39
140
1.0
102
RTVSPost2010PropOp39
 70
     0
102
RTVSPost2010Prop40
 90
        0
102
RTVSPost2010PropOp40
 70
     0
102
RTVSPost2010Prop41ColorIndex
 90
       18
102
RTVSPost2010Prop41ColorRGB
 90
        0
102
RTVSPost2010PropOp41
 70
     0
102
RTVSPost2010Prop42
 90
       50
102
RTVSPost2010PropOp42
 70
     0
102
RTVSPost2010Prop43
 90
        3
102
RTVSPost2010PropOp43
 70
     0
102
RTVSPost2010Prop44ColorIndex
 90
        5
102
RTVSPost2010Prop44ColorRGB
 90
      255
102
RTVSPost2010PropOp44
 70
     0
102
RTVSPost2010Prop45
280
     0
102
RTVSPost2010PropOp45
 70
     0
102
RTVSPost2010Prop46
 90
       50
102
RTVSPost2010PropOp46
 70
     0
102
RTVSPost2010Prop47
 90
       50
102
RTVSPost2010PropOp47
 70
     0
102
RTVSPost2010Prop48
 90
       50
102
RTVSPost2010PropOp48
 70
     0
102
RTVSPost2010Prop49
280
     0
102
RTVSPost2010PropOp49
 70
     0
102
RTVSPost2010Prop50
 90
       50
102
RTVSPost2010PropOp50
 70
     0
102
RTVSPost2010Prop51ColorIndex
 90
      256
102
RTVSPost2010Prop51ColorRGB
 90
-16777216
102
RTVSPost2010PropOp51
 70
     0
102
RTVSPost2010Prop52
140
1.0
102
RTVSPost2010PropOp52
 70
     0
102
RTVSPost2010Prop53
 90
        2
102
RTVSPost2010PropOp53
 70
     0
102
RTVSPost2010Prop54
  1
strokes_ogs.tif
102
RTVSPost2010PropOp54
 70
     0
102
RTVSPost2010Prop55
280
     0
102
RTVSPost2010PropOp55
 70
     0
102
RTVSPost2010Prop56
140
1.0
102
RTVSPost2010PropOp56
 70
     0
102
RTVSPost2010Prop57
140
1.0
102
RTVSPost2010PropOp57
 70
     0
  0
XRECORD
  5
34CC
102
{ACAD_REACTORS
330
34CB
102
}
330
34CB
100
AcDbXrecord
280
     1
102
RTVSPost2010Prop28
280
     0
102
RTVSPost2010PropOp28
 70
     1
102
RTVSPost2010Prop29
280
     1
102
RTVSPost2010PropOp29
 70
     1
102
RTVSPost2010Prop30
280
     1
102
RTVSPost2010PropOp30
 70
     1
102
RTVSPost2010Prop31
280
     0
102
RTVSPost2010PropOp31
 70
     1
102
RTVSPost2010Prop32
280
     0
102
RTVSPost2010PropOp32
 70
     1
102
RTVSPost2010Prop33
280
     0
102
RTVSPost2010PropOp33
 70
     1
102
RTVSPost2010Prop34
280
     0
102
RTVSPost2010PropOp34
 70
     1
102
RTVSPost2010Prop35
280
     0
102
RTVSPost2010PropOp35
 70
     1
102
RTVSPost2010Prop36
280
     0
102
RTVSPost2010PropOp36
 70
     1
102
RTVSPost2010Prop37
 90
       50
102
RTVSPost2010PropOp37
 70
     1
102
RTVSPost2010Prop38
140
0.0
102
RTVSPost2010PropOp38
 70
     1
102
RTVSPost2010Prop39
140
1.0
102
RTVSPost2010PropOp39
 70
     1
102
RTVSPost2010Prop40
 90
        0
102
RTVSPost2010PropOp40
 70
     1
102
RTVSPost2010Prop41ColorIndex
 90
       18
102
RTVSPost2010Prop41ColorRGB
 90
        0
102
RTVSPost2010PropOp41
 70
     1
102
RTVSPost2010Prop42
 90
       50
102
RTVSPost2010PropOp42
 70
     1
102
RTVSPost2010Prop43
 90
        3
102
RTVSPost2010PropOp43
 70
     1
102
RTVSPost2010Prop44ColorIndex
 90
        5
102
RTVSPost2010Prop44ColorRGB
 90
      255
102
RTVSPost2010PropOp44
 70
     1
102
RTVSPost2010Prop45
280
     0
102
RTVSPost2010PropOp45
 70
     1
102
RTVSPost2010Prop46
 90
       50
102
RTVSPost2010PropOp46
 70
     1
102
RTVSPost2010Prop47
 90
       50
102
RTVSPost2010PropOp47
 70
     1
102
RTVSPost2010Prop48
 90
       50
102
RTVSPost2010PropOp48
 70
     1
102
RTVSPost2010Prop49
280
     0
102
RTVSPost2010PropOp49
 70
     1
102
RTVSPost2010Prop50
 90
       50
102
RTVSPost2010PropOp50
 70
     1
102
RTVSPost2010Prop51ColorIndex
 90
      256
102
RTVSPost2010Prop51ColorRGB
 90
-16777216
102
RTVSPost2010PropOp51
 70
     0
102
RTVSPost2010Prop52
140
1.0
102
RTVSPost2010PropOp52
 70
     0
102
RTVSPost2010Prop53
 90
        2
102
RTVSPost2010PropOp53
 70
     1
102
RTVSPost2010Prop54
  1
strokes_ogs.tif
102
RTVSPost2010PropOp54
 70
     1
102
RTVSPost2010Prop55
280
     0
102
RTVSPost2010PropOp55
 70
     1
102
RTVSPost2010Prop56
140
1.0
102
RTVSPost2010PropOp56
 70
     1
102
RTVSPost2010Prop57
140
1.0
102
RTVSPost2010PropOp57
 70
     1
  0
XRECORD
  5
34CE
102
{ACAD_REACTORS
330
34CD
102
}
330
34CD
100
AcDbXrecord
280
     1
102
RTVSPost2010Prop28
280
     0
102
RTVSPost2010PropOp28
 70
     1
102
RTVSPost2010Prop29
280
     1
102
RTVSPost2010PropOp29
 70
     1
102
RTVSPost2010Prop30
280
     1
102
RTVSPost2010PropOp30
 70
     1
102
RTVSPost2010Prop31
280
     0
102
RTVSPost2010PropOp31
 70
     1
102
RTVSPost2010Prop32
280
     0
102
RTVSPost2010PropOp32
 70
     1
102
RTVSPost2010Prop33
280
     0
102
RTVSPost2010PropOp33
 70
     1
102
RTVSPost2010Prop34
280
     0
102
RTVSPost2010PropOp34
 70
     1
102
RTVSPost2010Prop35
280
     0
102
RTVSPost2010PropOp35
 70
     1
102
RTVSPost2010Prop36
280
     0
102
RTVSPost2010PropOp36
 70
     1
102
RTVSPost2010Prop37
 90
       50
102
RTVSPost2010PropOp37
 70
     1
102
RTVSPost2010Prop38
140
0.0
102
RTVSPost2010PropOp38
 70
     1
102
RTVSPost2010Prop39
140
1.0
102
RTVSPost2010PropOp39
 70
     1
102
RTVSPost2010Prop40
 90
        0
102
RTVSPost2010PropOp40
 70
     1
102
RTVSPost2010Prop41ColorIndex
 90
       18
102
RTVSPost2010Prop41ColorRGB
 90
        0
102
RTVSPost2010PropOp41
 70
     1
102
RTVSPost2010Prop42
 90
       50
102
RTVSPost2010PropOp42
 70
     1
102
RTVSPost2010Prop43
 90
        3
102
RTVSPost2010PropOp43
 70
     1
102
RTVSPost2010Prop44ColorIndex
 90
        5
102
RTVSPost2010Prop44ColorRGB
 90
      255
102
RTVSPost2010PropOp44
 70
     1
102
RTVSPost2010Prop45
280
     0
102
RTVSPost2010PropOp45
 70
     1
102
RTVSPost2010Prop46
 90
       50
102
RTVSPost2010PropOp46
 70
     1
102
RTVSPost2010Prop47
 90
       50
102
RTVSPost2010PropOp47
 70
     1
102
RTVSPost2010Prop48
 90
       50
102
RTVSPost2010PropOp48
 70
     1
102
RTVSPost2010Prop49
280
     0
102
RTVSPost2010PropOp49
 70
     1
102
RTVSPost2010Prop50
 90
       50
102
RTVSPost2010PropOp50
 70
     1
102
RTVSPost2010Prop51ColorIndex
 90
      256
102
RTVSPost2010Prop51ColorRGB
 90
-16777216
102
RTVSPost2010PropOp51
 70
     0
102
RTVSPost2010Prop52
140
1.0
102
RTVSPost2010PropOp52
 70
     0
102
RTVSPost2010Prop53
 90
        2
102
RTVSPost2010PropOp53
 70
     1
102
RTVSPost2010Prop54
  1
strokes_ogs.tif
102
RTVSPost2010PropOp54
 70
     1
102
RTVSPost2010Prop55
280
     0
102
RTVSPost2010PropOp55
 70
     1
102
RTVSPost2010Prop56
140
1.0
102
RTVSPost2010PropOp56
 70
     1
102
RTVSPost2010Prop57
140
1.0
102
RTVSPost2010PropOp57
 70
     1
  0
XRECORD
  5
34D0
102
{ACAD_REACTORS
330
34CF
102
}
330
34CF
100
AcDbXrecord
280
     1
102
RTVSPost2010Prop28
280
     0
102
RTVSPost2010PropOp28
 70
     1
102
RTVSPost2010Prop29
280
     1
102
RTVSPost2010PropOp29
 70
     1
102
RTVSPost2010Prop30
280
     1
102
RTVSPost2010PropOp30
 70
     1
102
RTVSPost2010Prop31
280
     0
102
RTVSPost2010PropOp31
 70
     1
102
RTVSPost2010Prop32
280
     0
102
RTVSPost2010PropOp32
 70
     1
102
RTVSPost2010Prop33
280
     0
102
RTVSPost2010PropOp33
 70
     1
102
RTVSPost2010Prop34
280
     0
102
RTVSPost2010PropOp34
 70
     1
102
RTVSPost2010Prop35
280
     0
102
RTVSPost2010PropOp35
 70
     1
102
RTVSPost2010Prop36
280
     0
102
RTVSPost2010PropOp36
 70
     1
102
RTVSPost2010Prop37
 90
       50
102
RTVSPost2010PropOp37
 70
     1
102
RTVSPost2010Prop38
140
0.0
102
RTVSPost2010PropOp38
 70
     1
102
RTVSPost2010Prop39
140
1.0
102
RTVSPost2010PropOp39
 70
     1
102
RTVSPost2010Prop40
 90
        0
102
RTVSPost2010PropOp40
 70
     1
102
RTVSPost2010Prop41ColorIndex
 90
       18
102
RTVSPost2010Prop41ColorRGB
 90
        0
102
RTVSPost2010PropOp41
 70
     1
102
RTVSPost2010Prop42
 90
       50
102
RTVSPost2010PropOp42
 70
     1
102
RTVSPost2010Prop43
 90
        3
102
RTVSPost2010PropOp43
 70
     1
102
RTVSPost2010Prop44ColorIndex
 90
        5
102
RTVSPost2010Prop44ColorRGB
 90
      255
102
RTVSPost2010PropOp44
 70
     1
102
RTVSPost2010Prop45
280
     0
102
RTVSPost2010PropOp45
 70
     1
102
RTVSPost2010Prop46
 90
       50
102
RTVSPost2010PropOp46
 70
     1
102
RTVSPost2010Prop47
 90
       50
102
RTVSPost2010PropOp47
 70
     1
102
RTVSPost2010Prop48
 90
       50
102
RTVSPost2010PropOp48
 70
     1
102
RTVSPost2010Prop49
280
     0
102
RTVSPost2010PropOp49
 70
     1
102
RTVSPost2010Prop50
 90
       50
102
RTVSPost2010PropOp50
 70
     1
102
RTVSPost2010Prop51ColorIndex
 90
      256
102
RTVSPost2010Prop51ColorRGB
 90
-16777216
102
RTVSPost2010PropOp51
 70
     0
102
RTVSPost2010Prop52
140
1.0
102
RTVSPost2010PropOp52
 70
     0
102
RTVSPost2010Prop53
 90
        2
102
RTVSPost2010PropOp53
 70
     1
102
RTVSPost2010Prop54
  1
strokes_ogs.tif
102
RTVSPost2010PropOp54
 70
     1
102
RTVSPost2010Prop55
280
     0
102
RTVSPost2010PropOp55
 70
     1
102
RTVSPost2010Prop56
140
1.0
102
RTVSPost2010PropOp56
 70
     1
102
RTVSPost2010Prop57
140
1.0
102
RTVSPost2010PropOp57
 70
     1
  0
XRECORD
  5
34D2
102
{ACAD_REACTORS
330
34D1
102
}
330
34D1
100
AcDbXrecord
280
     1
102
RTVSPost2010Prop28
280
     0
102
RTVSPost2010PropOp28
 70
     1
102
RTVSPost2010Prop29
280
     1
102
RTVSPost2010PropOp29
 70
     1
102
RTVSPost2010Prop30
280
     1
102
RTVSPost2010PropOp30
 70
     1
102
RTVSPost2010Prop31
280
     0
102
RTVSPost2010PropOp31
 70
     1
102
RTVSPost2010Prop32
280
     0
102
RTVSPost2010PropOp32
 70
     1
102
RTVSPost2010Prop33
280
     0
102
RTVSPost2010PropOp33
 70
     1
102
RTVSPost2010Prop34
280
     0
102
RTVSPost2010PropOp34
 70
     1
102
RTVSPost2010Prop35
280
     0
102
RTVSPost2010PropOp35
 70
     1
102
RTVSPost2010Prop36
280
     0
102
RTVSPost2010PropOp36
 70
     1
102
RTVSPost2010Prop37
 90
       50
102
RTVSPost2010PropOp37
 70
     1
102
RTVSPost2010Prop38
140
0.0
102
RTVSPost2010PropOp38
 70
     1
102
RTVSPost2010Prop39
140
1.0
102
RTVSPost2010PropOp39
 70
     1
102
RTVSPost2010Prop40
 90
        0
102
RTVSPost2010PropOp40
 70
     1
102
RTVSPost2010Prop41ColorIndex
 90
       18
102
RTVSPost2010Prop41ColorRGB
 90
        0
102
RTVSPost2010PropOp41
 70
     1
102
RTVSPost2010Prop42
 90
       50
102
RTVSPost2010PropOp42
 70
     1
102
RTVSPost2010Prop43
 90
        3
102
RTVSPost2010PropOp43
 70
     1
102
RTVSPost2010Prop44ColorIndex
 90
        5
102
RTVSPost2010Prop44ColorRGB
 90
      255
102
RTVSPost2010PropOp44
 70
     1
102
RTVSPost2010Prop45
280
     0
102
RTVSPost2010PropOp45
 70
     1
102
RTVSPost2010Prop46
 90
       50
102
RTVSPost2010PropOp46
 70
     1
102
RTVSPost2010Prop47
 90
       50
102
RTVSPost2010PropOp47
 70
     1
102
RTVSPost2010Prop48
 90
       50
102
RTVSPost2010PropOp48
 70
     1
102
RTVSPost2010Prop49
280
     0
102
RTVSPost2010PropOp49
 70
     1
102
RTVSPost2010Prop50
 90
       50
102
RTVSPost2010PropOp50
 70
     1
102
RTVSPost2010Prop51ColorIndex
 90
      256
102
RTVSPost2010Prop51ColorRGB
 90
-16777216
102
RTVSPost2010PropOp51
 70
     0
102
RTVSPost2010Prop52
140
1.0
102
RTVSPost2010PropOp52
 70
     0
102
RTVSPost2010Prop53
 90
        2
102
RTVSPost2010PropOp53
 70
     1
102
RTVSPost2010Prop54
  1
strokes_ogs.tif
102
RTVSPost2010PropOp54
 70
     1
102
RTVSPost2010Prop55
280
     0
102
RTVSPost2010PropOp55
 70
     1
102
RTVSPost2010Prop56
140
1.0
102
RTVSPost2010PropOp56
 70
     1
102
RTVSPost2010Prop57
140
1.0
102
RTVSPost2010PropOp57
 70
     1
  0
XRECORD
  5
34D4
102
{ACAD_REACTORS
330
34D3
102
}
330
34D3
100
AcDbXrecord
280
     1
102
RTVSPost2010Prop28
280
     0
102
RTVSPost2010PropOp28
 70
     1
102
RTVSPost2010Prop29
280
     1
102
RTVSPost2010PropOp29
 70
     1
102
RTVSPost2010Prop30
280
     1
102
RTVSPost2010PropOp30
 70
     1
102
RTVSPost2010Prop31
280
     0
102
RTVSPost2010PropOp31
 70
     1
102
RTVSPost2010Prop32
280
     0
102
RTVSPost2010PropOp32
 70
     1
102
RTVSPost2010Prop33
280
     0
102
RTVSPost2010PropOp33
 70
     1
102
RTVSPost2010Prop34
280
     0
102
RTVSPost2010PropOp34
 70
     1
102
RTVSPost2010Prop35
280
     0
102
RTVSPost2010PropOp35
 70
     1
102
RTVSPost2010Prop36
280
     0
102
RTVSPost2010PropOp36
 70
     1
102
RTVSPost2010Prop37
 90
       50
102
RTVSPost2010PropOp37
 70
     1
102
RTVSPost2010Prop38
140
0.0
102
RTVSPost2010PropOp38
 70
     1
102
RTVSPost2010Prop39
140
1.0
102
RTVSPost2010PropOp39
 70
     1
102
RTVSPost2010Prop40
 90
        0
102
RTVSPost2010PropOp40
 70
     1
102
RTVSPost2010Prop41ColorIndex
 90
       18
102
RTVSPost2010Prop41ColorRGB
 90
        0
102
RTVSPost2010PropOp41
 70
     1
102
RTVSPost2010Prop42
 90
       50
102
RTVSPost2010PropOp42
 70
     1
102
RTVSPost2010Prop43
 90
        3
102
RTVSPost2010PropOp43
 70
     1
102
RTVSPost2010Prop44ColorIndex
 90
        5
102
RTVSPost2010Prop44ColorRGB
 90
      255
102
RTVSPost2010PropOp44
 70
     1
102
RTVSPost2010Prop45
280
     0
102
RTVSPost2010PropOp45
 70
     1
102
RTVSPost2010Prop46
 90
       50
102
RTVSPost2010PropOp46
 70
     1
102
RTVSPost2010Prop47
 90
       50
102
RTVSPost2010PropOp47
 70
     1
102
RTVSPost2010Prop48
 90
       50
102
RTVSPost2010PropOp48
 70
     1
102
RTVSPost2010Prop49
280
     0
102
RTVSPost2010PropOp49
 70
     1
102
RTVSPost2010Prop50
 90
       50
102
RTVSPost2010PropOp50
 70
     1
102
RTVSPost2010Prop51ColorIndex
 90
      256
102
RTVSPost2010Prop51ColorRGB
 90
-16777216
102
RTVSPost2010PropOp51
 70
     0
102
RTVSPost2010Prop52
140
1.0
102
RTVSPost2010PropOp52
 70
     0
102
RTVSPost2010Prop53
 90
        2
102
RTVSPost2010PropOp53
 70
     1
102
RTVSPost2010Prop54
  1
strokes_ogs.tif
102
RTVSPost2010PropOp54
 70
     1
102
RTVSPost2010Prop55
280
     0
102
RTVSPost2010PropOp55
 70
     1
102
RTVSPost2010Prop56
140
1.0
102
RTVSPost2010PropOp56
 70
     1
102
RTVSPost2010Prop57
140
1.0
102
RTVSPost2010PropOp57
 70
     1
  0
XRECORD
  5
34DE
102
{ACAD_REACTORS
330
34DD
102
}
330
34DD
100
AcDbXrecord
280
     1
102
RTVSPost2010Prop28
280
     0
102
RTVSPost2010PropOp28
 70
     1
102
RTVSPost2010Prop29
280
     1
102
RTVSPost2010PropOp29
 70
     1
102
RTVSPost2010Prop30
280
     1
102
RTVSPost2010PropOp30
 70
     1
102
RTVSPost2010Prop31
280
     0
102
RTVSPost2010PropOp31
 70
     1
102
RTVSPost2010Prop32
280
     0
102
RTVSPost2010PropOp32
 70
     1
102
RTVSPost2010Prop33
280
     0
102
RTVSPost2010PropOp33
 70
     1
102
RTVSPost2010Prop34
280
     0
102
RTVSPost2010PropOp34
 70
     1
102
RTVSPost2010Prop35
280
     0
102
RTVSPost2010PropOp35
 70
     1
102
RTVSPost2010Prop36
280
     0
102
RTVSPost2010PropOp36
 70
     1
102
RTVSPost2010Prop37
 90
       50
102
RTVSPost2010PropOp37
 70
     1
102
RTVSPost2010Prop38
140
0.0
102
RTVSPost2010PropOp38
 70
     1
102
RTVSPost2010Prop39
140
1.0
102
RTVSPost2010PropOp39
 70
     1
102
RTVSPost2010Prop40
 90
        0
102
RTVSPost2010PropOp40
 70
     1
102
RTVSPost2010Prop41ColorIndex
 90
       18
102
RTVSPost2010Prop41ColorRGB
 90
        0
102
RTVSPost2010PropOp41
 70
     1
102
RTVSPost2010Prop42
 90
       50
102
RTVSPost2010PropOp42
 70
     1
102
RTVSPost2010Prop43
 90
        3
102
RTVSPost2010PropOp43
 70
     1
102
RTVSPost2010Prop44ColorIndex
 90
        5
102
RTVSPost2010Prop44ColorRGB
 90
      255
102
RTVSPost2010PropOp44
 70
     1
102
RTVSPost2010Prop45
280
     0
102
RTVSPost2010PropOp45
 70
     1
102
RTVSPost2010Prop46
 90
       50
102
RTVSPost2010PropOp46
 70
     1
102
RTVSPost2010Prop47
 90
       50
102
RTVSPost2010PropOp47
 70
     1
102
RTVSPost2010Prop48
 90
       50
102
RTVSPost2010PropOp48
 70
     1
102
RTVSPost2010Prop49
280
     0
102
RTVSPost2010PropOp49
 70
     1
102
RTVSPost2010Prop50
 90
       50
102
RTVSPost2010PropOp50
 70
     1
102
RTVSPost2010Prop51ColorIndex
 90
      256
102
RTVSPost2010Prop51ColorRGB
 90
-16777216
102
RTVSPost2010PropOp51
 70
     0
102
RTVSPost2010Prop52
140
1.0
102
RTVSPost2010PropOp52
 70
     0
102
RTVSPost2010Prop53
 90
        2
102
RTVSPost2010PropOp53
 70
     1
102
RTVSPost2010Prop54
  1
strokes_ogs.tif
102
RTVSPost2010PropOp54
 70
     1
102
RTVSPost2010Prop55
280
     0
102
RTVSPost2010PropOp55
 70
     1
102
RTVSPost2010Prop56
140
1.0
102
RTVSPost2010PropOp56
 70
     1
102
RTVSPost2010Prop57
140
1.0
102
RTVSPost2010PropOp57
 70
     1
  0
XRECORD
  5
34E0
102
{ACAD_REACTORS
330
34DF
102
}
330
34DF
100
AcDbXrecord
280
     1
102
RTVSPost2010Prop28
280
     0
102
RTVSPost2010PropOp28
 70
     0
102
RTVSPost2010Prop29
280
     1
102
RTVSPost2010PropOp29
 70
     0
102
RTVSPost2010Prop30
280
     1
102
RTVSPost2010PropOp30
 70
     0
102
RTVSPost2010Prop31
280
     0
102
RTVSPost2010PropOp31
 70
     0
102
RTVSPost2010Prop32
280
     0
102
RTVSPost2010PropOp32
 70
     0
102
RTVSPost2010Prop33
280
     0
102
RTVSPost2010PropOp33
 70
     0
102
RTVSPost2010Prop34
280
     0
102
RTVSPost2010PropOp34
 70
     0
102
RTVSPost2010Prop35
280
     0
102
RTVSPost2010PropOp35
 70
     0
102
RTVSPost2010Prop36
280
     0
102
RTVSPost2010PropOp36
 70
     0
102
RTVSPost2010Prop37
 90
       50
102
RTVSPost2010PropOp37
 70
     0
102
RTVSPost2010Prop38
140
0.0
102
RTVSPost2010PropOp38
 70
     0
102
RTVSPost2010Prop39
140
1.0
102
RTVSPost2010PropOp39
 70
     0
102
RTVSPost2010Prop40
 90
        0
102
RTVSPost2010PropOp40
 70
     0
102
RTVSPost2010Prop41ColorIndex
 90
       18
102
RTVSPost2010Prop41ColorRGB
 90
        0
102
RTVSPost2010PropOp41
 70
     0
102
RTVSPost2010Prop42
 90
       50
102
RTVSPost2010PropOp42
 70
     0
102
RTVSPost2010Prop43
 90
        3
102
RTVSPost2010PropOp43
 70
     0
102
RTVSPost2010Prop44ColorIndex
 90
        5
102
RTVSPost2010Prop44ColorRGB
 90
      255
102
RTVSPost2010PropOp44
 70
     0
102
RTVSPost2010Prop45
280
     0
102
RTVSPost2010PropOp45
 70
     0
102
RTVSPost2010Prop46
 90
       50
102
RTVSPost2010PropOp46
 70
     0
102
RTVSPost2010Prop47
 90
       50
102
RTVSPost2010PropOp47
 70
     0
102
RTVSPost2010Prop48
 90
       50
102
RTVSPost2010PropOp48
 70
     0
102
RTVSPost2010Prop49
280
     0
102
RTVSPost2010PropOp49
 70
     0
102
RTVSPost2010Prop50
 90
       50
102
RTVSPost2010PropOp50
 70
     0
102
RTVSPost2010Prop51ColorIndex
 90
      256
102
RTVSPost2010Prop51ColorRGB
 90
-16777216
102
RTVSPost2010PropOp51
 70
     0
102
RTVSPost2010Prop52
140
1.0
102
RTVSPost2010PropOp52
 70
     0
102
RTVSPost2010Prop53
 90
        2
102
RTVSPost2010PropOp53
 70
     0
102
RTVSPost2010Prop54
  1
strokes_ogs.tif
102
RTVSPost2010PropOp54
 70
     0
102
RTVSPost2010Prop55
280
     0
102
RTVSPost2010PropOp55
 70
     0
102
RTVSPost2010Prop56
140
1.0
102
RTVSPost2010PropOp56
 70
     0
102
RTVSPost2010Prop57
140
1.0
102
RTVSPost2010PropOp57
 70
     0
  0
XRECORD
  5
34D6
102
{ACAD_REACTORS
330
34D5
102
}
330
34D5
100
AcDbXrecord
280
     1
102
RTVSPost2010Prop28
280
     0
102
RTVSPost2010PropOp28
 70
     1
102
RTVSPost2010Prop29
280
     1
102
RTVSPost2010PropOp29
 70
     1
102
RTVSPost2010Prop30
280
     1
102
RTVSPost2010PropOp30
 70
     1
102
RTVSPost2010Prop31
280
     0
102
RTVSPost2010PropOp31
 70
     1
102
RTVSPost2010Prop32
280
     0
102
RTVSPost2010PropOp32
 70
     1
102
RTVSPost2010Prop33
280
     0
102
RTVSPost2010PropOp33
 70
     1
102
RTVSPost2010Prop34
280
     0
102
RTVSPost2010PropOp34
 70
     1
102
RTVSPost2010Prop35
280
     0
102
RTVSPost2010PropOp35
 70
     1
102
RTVSPost2010Prop36
280
     0
102
RTVSPost2010PropOp36
 70
     1
102
RTVSPost2010Prop37
 90
       50
102
RTVSPost2010PropOp37
 70
     1
102
RTVSPost2010Prop38
140
0.0
102
RTVSPost2010PropOp38
 70
     1
102
RTVSPost2010Prop39
140
1.0
102
RTVSPost2010PropOp39
 70
     1
102
RTVSPost2010Prop40
 90
        0
102
RTVSPost2010PropOp40
 70
     1
102
RTVSPost2010Prop41ColorIndex
 90
       18
102
RTVSPost2010Prop41ColorRGB
 90
        0
102
RTVSPost2010PropOp41
 70
     1
102
RTVSPost2010Prop42
 90
       50
102
RTVSPost2010PropOp42
 70
     1
102
RTVSPost2010Prop43
 90
        3
102
RTVSPost2010PropOp43
 70
     1
102
RTVSPost2010Prop44ColorIndex
 90
        5
102
RTVSPost2010Prop44ColorRGB
 90
      255
102
RTVSPost2010PropOp44
 70
     1
102
RTVSPost2010Prop45
280
     0
102
RTVSPost2010PropOp45
 70
     1
102
RTVSPost2010Prop46
 90
       50
102
RTVSPost2010PropOp46
 70
     1
102
RTVSPost2010Prop47
 90
       50
102
RTVSPost2010PropOp47
 70
     1
102
RTVSPost2010Prop48
 90
       50
102
RTVSPost2010PropOp48
 70
     1
102
RTVSPost2010Prop49
280
     0
102
RTVSPost2010PropOp49
 70
     1
102
RTVSPost2010Prop50
 90
       50
102
RTVSPost2010PropOp50
 70
     1
102
RTVSPost2010Prop51ColorIndex
 90
      256
102
RTVSPost2010Prop51ColorRGB
 90
-16777216
102
RTVSPost2010PropOp51
 70
     0
102
RTVSPost2010Prop52
140
1.0
102
RTVSPost2010PropOp52
 70
     0
102
RTVSPost2010Prop53
 90
        2
102
RTVSPost2010PropOp53
 70
     1
102
RTVSPost2010Prop54
  1
strokes_ogs.tif
102
RTVSPost2010PropOp54
 70
     1
102
RTVSPost2010Prop55
280
     0
102
RTVSPost2010PropOp55
 70
     1
102
RTVSPost2010Prop56
140
1.0
102
RTVSPost2010PropOp56
 70
     1
102
RTVSPost2010Prop57
140
1.0
102
RTVSPost2010PropOp57
 70
     1
  0
XRECORD
  5
34E2
102
{ACAD_REACTORS
330
34E1
102
}
330
34E1
100
AcDbXrecord
280
     1
102
RTVSPost2010Prop28
280
     0
102
RTVSPost2010PropOp28
 70
     0
102
RTVSPost2010Prop29
280
     1
102
RTVSPost2010PropOp29
 70
     0
102
RTVSPost2010Prop30
280
     1
102
RTVSPost2010PropOp30
 70
     0
102
RTVSPost2010Prop31
280
     0
102
RTVSPost2010PropOp31
 70
     0
102
RTVSPost2010Prop32
280
     0
102
RTVSPost2010PropOp32
 70
     0
102
RTVSPost2010Prop33
280
     0
102
RTVSPost2010PropOp33
 70
     0
102
RTVSPost2010Prop34
280
     0
102
RTVSPost2010PropOp34
 70
     0
102
RTVSPost2010Prop35
280
     0
102
RTVSPost2010PropOp35
 70
     0
102
RTVSPost2010Prop36
280
     0
102
RTVSPost2010PropOp36
 70
     0
102
RTVSPost2010Prop37
 90
       50
102
RTVSPost2010PropOp37
 70
     0
102
RTVSPost2010Prop38
140
0.0
102
RTVSPost2010PropOp38
 70
     0
102
RTVSPost2010Prop39
140
1.0
102
RTVSPost2010PropOp39
 70
     0
102
RTVSPost2010Prop40
 90
        0
102
RTVSPost2010PropOp40
 70
     0
102
RTVSPost2010Prop41ColorIndex
 90
       18
102
RTVSPost2010Prop41ColorRGB
 90
        0
102
RTVSPost2010PropOp41
 70
     0
102
RTVSPost2010Prop42
 90
       50
102
RTVSPost2010PropOp42
 70
     0
102
RTVSPost2010Prop43
 90
        3
102
RTVSPost2010PropOp43
 70
     0
102
RTVSPost2010Prop44ColorIndex
 90
        5
102
RTVSPost2010Prop44ColorRGB
 90
      255
102
RTVSPost2010PropOp44
 70
     0
102
RTVSPost2010Prop45
280
     0
102
RTVSPost2010PropOp45
 70
     0
102
RTVSPost2010Prop46
 90
       50
102
RTVSPost2010PropOp46
 70
     0
102
RTVSPost2010Prop47
 90
       50
102
RTVSPost2010PropOp47
 70
     0
102
RTVSPost2010Prop48
 90
       50
102
RTVSPost2010PropOp48
 70
     0
102
RTVSPost2010Prop49
280
     0
102
RTVSPost2010PropOp49
 70
     0
102
RTVSPost2010Prop50
 90
       50
102
RTVSPost2010PropOp50
 70
     0
102
RTVSPost2010Prop51ColorIndex
 90
      256
102
RTVSPost2010Prop51ColorRGB
 90
-16777216
102
RTVSPost2010PropOp51
 70
     0
102
RTVSPost2010Prop52
140
1.0
102
RTVSPost2010PropOp52
 70
     0
102
RTVSPost2010Prop53
 90
        2
102
RTVSPost2010PropOp53
 70
     0
102
RTVSPost2010Prop54
  1
strokes_ogs.tif
102
RTVSPost2010PropOp54
 70
     0
102
RTVSPost2010Prop55
280
     0
102
RTVSPost2010PropOp55
 70
     0
102
RTVSPost2010Prop56
140
1.0
102
RTVSPost2010PropOp56
 70
     0
102
RTVSPost2010Prop57
140
1.0
102
RTVSPost2010PropOp57
 70
     0
  0
XRECORD
  5
34D8
102
{ACAD_REACTORS
330
34D7
102
}
330
34D7
100
AcDbXrecord
280
     1
102
RTVSPost2010Prop28
280
     0
102
RTVSPost2010PropOp28
 70
     1
102
RTVSPost2010Prop29
280
     1
102
RTVSPost2010PropOp29
 70
     1
102
RTVSPost2010Prop30
280
     1
102
RTVSPost2010PropOp30
 70
     1
102
RTVSPost2010Prop31
280
     0
102
RTVSPost2010PropOp31
 70
     1
102
RTVSPost2010Prop32
280
     0
102
RTVSPost2010PropOp32
 70
     1
102
RTVSPost2010Prop33
280
     0
102
RTVSPost2010PropOp33
 70
     1
102
RTVSPost2010Prop34
280
     0
102
RTVSPost2010PropOp34
 70
     1
102
RTVSPost2010Prop35
280
     0
102
RTVSPost2010PropOp35
 70
     1
102
RTVSPost2010Prop36
280
     0
102
RTVSPost2010PropOp36
 70
     1
102
RTVSPost2010Prop37
 90
       50
102
RTVSPost2010PropOp37
 70
     1
102
RTVSPost2010Prop38
140
0.0
102
RTVSPost2010PropOp38
 70
     1
102
RTVSPost2010Prop39
140
1.0
102
RTVSPost2010PropOp39
 70
     1
102
RTVSPost2010Prop40
 90
        0
102
RTVSPost2010PropOp40
 70
     1
102
RTVSPost2010Prop41ColorIndex
 90
       18
102
RTVSPost2010Prop41ColorRGB
 90
        0
102
RTVSPost2010PropOp41
 70
     1
102
RTVSPost2010Prop42
 90
       50
102
RTVSPost2010PropOp42
 70
     1
102
RTVSPost2010Prop43
 90
        3
102
RTVSPost2010PropOp43
 70
     1
102
RTVSPost2010Prop44ColorIndex
 90
        5
102
RTVSPost2010Prop44ColorRGB
 90
      255
102
RTVSPost2010PropOp44
 70
     1
102
RTVSPost2010Prop45
280
     0
102
RTVSPost2010PropOp45
 70
     1
102
RTVSPost2010Prop46
 90
       50
102
RTVSPost2010PropOp46
 70
     1
102
RTVSPost2010Prop47
 90
       50
102
RTVSPost2010PropOp47
 70
     1
102
RTVSPost2010Prop48
 90
       50
102
RTVSPost2010PropOp48
 70
     1
102
RTVSPost2010Prop49
280
     0
102
RTVSPost2010PropOp49
 70
     1
102
RTVSPost2010Prop50
 90
       50
102
RTVSPost2010PropOp50
 70
     1
102
RTVSPost2010Prop51ColorIndex
 90
      256
102
RTVSPost2010Prop51ColorRGB
 90
-16777216
102
RTVSPost2010PropOp51
 70
     0
102
RTVSPost2010Prop52
140
1.0
102
RTVSPost2010PropOp52
 70
     0
102
RTVSPost2010Prop53
 90
        2
102
RTVSPost2010PropOp53
 70
     1
102
RTVSPost2010Prop54
  1
strokes_ogs.tif
102
RTVSPost2010PropOp54
 70
     1
102
RTVSPost2010Prop55
280
     0
102
RTVSPost2010PropOp55
 70
     1
102
RTVSPost2010Prop56
140
1.0
102
RTVSPost2010PropOp56
 70
     1
102
RTVSPost2010Prop57
140
1.0
102
RTVSPost2010PropOp57
 70
     1
  0
XRECORD
  5
34EE
102
{ACAD_REACTORS
330
34ED
102
}
330
34ED
100
AcDbXrecord
280
     1
102
RTVSPost2010Prop28
280
     0
102
RTVSPost2010PropOp28
 70
     1
102
RTVSPost2010Prop29
280
     1
102
RTVSPost2010PropOp29
 70
     1
102
RTVSPost2010Prop30
280
     1
102
RTVSPost2010PropOp30
 70
     1
102
RTVSPost2010Prop31
280
     0
102
RTVSPost2010PropOp31
 70
     1
102
RTVSPost2010Prop32
280
     0
102
RTVSPost2010PropOp32
 70
     1
102
RTVSPost2010Prop33
280
     0
102
RTVSPost2010PropOp33
 70
     1
102
RTVSPost2010Prop34
280
     0
102
RTVSPost2010PropOp34
 70
     1
102
RTVSPost2010Prop35
280
     0
102
RTVSPost2010PropOp35
 70
     1
102
RTVSPost2010Prop36
280
     0
102
RTVSPost2010PropOp36
 70
     1
102
RTVSPost2010Prop37
 90
       50
102
RTVSPost2010PropOp37
 70
     1
102
RTVSPost2010Prop38
140
0.0
102
RTVSPost2010PropOp38
 70
     1
102
RTVSPost2010Prop39
140
1.0
102
RTVSPost2010PropOp39
 70
     1
102
RTVSPost2010Prop40
 90
        0
102
RTVSPost2010PropOp40
 70
     1
102
RTVSPost2010Prop41ColorIndex
 90
       18
102
RTVSPost2010Prop41ColorRGB
 90
        0
102
RTVSPost2010PropOp41
 70
     1
102
RTVSPost2010Prop42
 90
       50
102
RTVSPost2010PropOp42
 70
     1
102
RTVSPost2010Prop43
 90
        3
102
RTVSPost2010PropOp43
 70
     1
102
RTVSPost2010Prop44ColorIndex
 90
        5
102
RTVSPost2010Prop44ColorRGB
 90
      255
102
RTVSPost2010PropOp44
 70
     1
102
RTVSPost2010Prop45
280
     0
102
RTVSPost2010PropOp45
 70
     1
102
RTVSPost2010Prop46
 90
       50
102
RTVSPost2010PropOp46
 70
     1
102
RTVSPost2010Prop47
 90
       50
102
RTVSPost2010PropOp47
 70
     1
102
RTVSPost2010Prop48
 90
       50
102
RTVSPost2010PropOp48
 70
     1
102
RTVSPost2010Prop49
280
     0
102
RTVSPost2010PropOp49
 70
     1
102
RTVSPost2010Prop50
 90
       50
102
RTVSPost2010PropOp50
 70
     1
102
RTVSPost2010Prop51ColorIndex
 90
      256
102
RTVSPost2010Prop51ColorRGB
 90
-16777216
102
RTVSPost2010PropOp51
 70
     0
102
RTVSPost2010Prop52
140
1.0
102
RTVSPost2010PropOp52
 70
     0
102
RTVSPost2010Prop53
 90
        2
102
RTVSPost2010PropOp53
 70
     1
102
RTVSPost2010Prop54
  1
strokes_ogs.tif
102
RTVSPost2010PropOp54
 70
     1
102
RTVSPost2010Prop55
280
     0
102
RTVSPost2010PropOp55
 70
     1
102
RTVSPost2010Prop56
140
1.0
102
RTVSPost2010PropOp56
 70
     1
102
RTVSPost2010Prop57
140
1.0
102
RTVSPost2010PropOp57
 70
     1
  0
XRECORD
  5
34EC
102
{ACAD_REACTORS
330
34EB
102
}
330
34EB
100
AcDbXrecord
280
     1
102
RTVSPost2010Prop28
280
     0
102
RTVSPost2010PropOp28
 70
     1
102
RTVSPost2010Prop29
280
     1
102
RTVSPost2010PropOp29
 70
     1
102
RTVSPost2010Prop30
280
     1
102
RTVSPost2010PropOp30
 70
     1
102
RTVSPost2010Prop31
280
     0
102
RTVSPost2010PropOp31
 70
     1
102
RTVSPost2010Prop32
280
     0
102
RTVSPost2010PropOp32
 70
     1
102
RTVSPost2010Prop33
280
     0
102
RTVSPost2010PropOp33
 70
     1
102
RTVSPost2010Prop34
280
     0
102
RTVSPost2010PropOp34
 70
     1
102
RTVSPost2010Prop35
280
     0
102
RTVSPost2010PropOp35
 70
     1
102
RTVSPost2010Prop36
280
     0
102
RTVSPost2010PropOp36
 70
     1
102
RTVSPost2010Prop37
 90
       50
102
RTVSPost2010PropOp37
 70
     1
102
RTVSPost2010Prop38
140
0.0
102
RTVSPost2010PropOp38
 70
     1
102
RTVSPost2010Prop39
140
1.0
102
RTVSPost2010PropOp39
 70
     1
102
RTVSPost2010Prop40
 90
        0
102
RTVSPost2010PropOp40
 70
     1
102
RTVSPost2010Prop41ColorIndex
 90
       18
102
RTVSPost2010Prop41ColorRGB
 90
        0
102
RTVSPost2010PropOp41
 70
     1
102
RTVSPost2010Prop42
 90
       50
102
RTVSPost2010PropOp42
 70
     1
102
RTVSPost2010Prop43
 90
        3
102
RTVSPost2010PropOp43
 70
     1
102
RTVSPost2010Prop44ColorIndex
 90
        5
102
RTVSPost2010Prop44ColorRGB
 90
      255
102
RTVSPost2010PropOp44
 70
     1
102
RTVSPost2010Prop45
280
     0
102
RTVSPost2010PropOp45
 70
     1
102
RTVSPost2010Prop46
 90
       50
102
RTVSPost2010PropOp46
 70
     1
102
RTVSPost2010Prop47
 90
       50
102
RTVSPost2010PropOp47
 70
     1
102
RTVSPost2010Prop48
 90
       50
102
RTVSPost2010PropOp48
 70
     1
102
RTVSPost2010Prop49
280
     0
102
RTVSPost2010PropOp49
 70
     1
102
RTVSPost2010Prop50
 90
       50
102
RTVSPost2010PropOp50
 70
     1
102
RTVSPost2010Prop51ColorIndex
 90
      256
102
RTVSPost2010Prop51ColorRGB
 90
-16777216
102
RTVSPost2010PropOp51
 70
     0
102
RTVSPost2010Prop52
140
1.0
102
RTVSPost2010PropOp52
 70
     0
102
RTVSPost2010Prop53
 90
        2
102
RTVSPost2010PropOp53
 70
     1
102
RTVSPost2010Prop54
  1
strokes_ogs.tif
102
RTVSPost2010PropOp54
 70
     1
102
RTVSPost2010Prop55
280
     0
102
RTVSPost2010PropOp55
 70
     1
102
RTVSPost2010Prop56
140
1.0
102
RTVSPost2010PropOp56
 70
     1
102
RTVSPost2010Prop57
140
1.0
102
RTVSPost2010PropOp57
 70
     1
  0
XRECORD
  5
34E6
102
{ACAD_REACTORS
330
34E5
102
}
330
34E5
100
AcDbXrecord
280
     1
102
RTVSPost2010Prop28
280
     0
102
RTVSPost2010PropOp28
 70
     1
102
RTVSPost2010Prop29
280
     1
102
RTVSPost2010PropOp29
 70
     1
102
RTVSPost2010Prop30
280
     1
102
RTVSPost2010PropOp30
 70
     1
102
RTVSPost2010Prop31
280
     0
102
RTVSPost2010PropOp31
 70
     1
102
RTVSPost2010Prop32
280
     0
102
RTVSPost2010PropOp32
 70
     1
102
RTVSPost2010Prop33
280
     0
102
RTVSPost2010PropOp33
 70
     1
102
RTVSPost2010Prop34
280
     0
102
RTVSPost2010PropOp34
 70
     1
102
RTVSPost2010Prop35
280
     0
102
RTVSPost2010PropOp35
 70
     1
102
RTVSPost2010Prop36
280
     0
102
RTVSPost2010PropOp36
 70
     1
102
RTVSPost2010Prop37
 90
       50
102
RTVSPost2010PropOp37
 70
     1
102
RTVSPost2010Prop38
140
0.0
102
RTVSPost2010PropOp38
 70
     1
102
RTVSPost2010Prop39
140
1.0
102
RTVSPost2010PropOp39
 70
     1
102
RTVSPost2010Prop40
 90
        0
102
RTVSPost2010PropOp40
 70
     1
102
RTVSPost2010Prop41ColorIndex
 90
       18
102
RTVSPost2010Prop41ColorRGB
 90
        0
102
RTVSPost2010PropOp41
 70
     1
102
RTVSPost2010Prop42
 90
       50
102
RTVSPost2010PropOp42
 70
     1
102
RTVSPost2010Prop43
 90
        3
102
RTVSPost2010PropOp43
 70
     1
102
RTVSPost2010Prop44ColorIndex
 90
        5
102
RTVSPost2010Prop44ColorRGB
 90
      255
102
RTVSPost2010PropOp44
 70
     1
102
RTVSPost2010Prop45
280
     0
102
RTVSPost2010PropOp45
 70
     1
102
RTVSPost2010Prop46
 90
       50
102
RTVSPost2010PropOp46
 70
     1
102
RTVSPost2010Prop47
 90
       50
102
RTVSPost2010PropOp47
 70
     1
102
RTVSPost2010Prop48
 90
       50
102
RTVSPost2010PropOp48
 70
     1
102
RTVSPost2010Prop49
280
     0
102
RTVSPost2010PropOp49
 70
     1
102
RTVSPost2010Prop50
 90
       50
102
RTVSPost2010PropOp50
 70
     1
102
RTVSPost2010Prop51ColorIndex
 90
      256
102
RTVSPost2010Prop51ColorRGB
 90
-16777216
102
RTVSPost2010PropOp51
 70
     0
102
RTVSPost2010Prop52
140
1.0
102
RTVSPost2010PropOp52
 70
     0
102
RTVSPost2010Prop53
 90
        2
102
RTVSPost2010PropOp53
 70
     1
102
RTVSPost2010Prop54
  1
strokes_ogs.tif
102
RTVSPost2010PropOp54
 70
     1
102
RTVSPost2010Prop55
280
     0
102
RTVSPost2010PropOp55
 70
     1
102
RTVSPost2010Prop56
140
1.0
102
RTVSPost2010PropOp56
 70
     1
102
RTVSPost2010Prop57
140
1.0
102
RTVSPost2010PropOp57
 70
     1
  0
XRECORD
  5
34E8
102
{ACAD_REACTORS
330
34E7
102
}
330
34E7
100
AcDbXrecord
280
     1
102
RTVSPost2010Prop28
280
     0
102
RTVSPost2010PropOp28
 70
     1
102
RTVSPost2010Prop29
280
     1
102
RTVSPost2010PropOp29
 70
     1
102
RTVSPost2010Prop30
280
     1
102
RTVSPost2010PropOp30
 70
     1
102
RTVSPost2010Prop31
280
     0
102
RTVSPost2010PropOp31
 70
     1
102
RTVSPost2010Prop32
280
     0
102
RTVSPost2010PropOp32
 70
     1
102
RTVSPost2010Prop33
280
     0
102
RTVSPost2010PropOp33
 70
     1
102
RTVSPost2010Prop34
280
     0
102
RTVSPost2010PropOp34
 70
     1
102
RTVSPost2010Prop35
280
     0
102
RTVSPost2010PropOp35
 70
     1
102
RTVSPost2010Prop36
280
     0
102
RTVSPost2010PropOp36
 70
     1
102
RTVSPost2010Prop37
 90
       50
102
RTVSPost2010PropOp37
 70
     1
102
RTVSPost2010Prop38
140
0.0
102
RTVSPost2010PropOp38
 70
     1
102
RTVSPost2010Prop39
140
1.0
102
RTVSPost2010PropOp39
 70
     1
102
RTVSPost2010Prop40
 90
        0
102
RTVSPost2010PropOp40
 70
     1
102
RTVSPost2010Prop41ColorIndex
 90
       18
102
RTVSPost2010Prop41ColorRGB
 90
        0
102
RTVSPost2010PropOp41
 70
     1
102
RTVSPost2010Prop42
 90
       50
102
RTVSPost2010PropOp42
 70
     1
102
RTVSPost2010Prop43
 90
        3
102
RTVSPost2010PropOp43
 70
     1
102
RTVSPost2010Prop44ColorIndex
 90
        5
102
RTVSPost2010Prop44ColorRGB
 90
      255
102
RTVSPost2010PropOp44
 70
     1
102
RTVSPost2010Prop45
280
     0
102
RTVSPost2010PropOp45
 70
     1
102
RTVSPost2010Prop46
 90
       50
102
RTVSPost2010PropOp46
 70
     1
102
RTVSPost2010Prop47
 90
       50
102
RTVSPost2010PropOp47
 70
     1
102
RTVSPost2010Prop48
 90
       50
102
RTVSPost2010PropOp48
 70
     1
102
RTVSPost2010Prop49
280
     0
102
RTVSPost2010PropOp49
 70
     1
102
RTVSPost2010Prop50
 90
       50
102
RTVSPost2010PropOp50
 70
     1
102
RTVSPost2010Prop51ColorIndex
 90
      256
102
RTVSPost2010Prop51ColorRGB
 90
-16777216
102
RTVSPost2010PropOp51
 70
     0
102
RTVSPost2010Prop52
140
1.0
102
RTVSPost2010PropOp52
 70
     0
102
RTVSPost2010Prop53
 90
        2
102
RTVSPost2010PropOp53
 70
     1
102
RTVSPost2010Prop54
  1
strokes_ogs.tif
102
RTVSPost2010PropOp54
 70
     1
102
RTVSPost2010Prop55
280
     0
102
RTVSPost2010PropOp55
 70
     1
102
RTVSPost2010Prop56
140
1.0
102
RTVSPost2010PropOp56
 70
     1
102
RTVSPost2010Prop57
140
1.0
102
RTVSPost2010PropOp57
 70
     1
  0
XRECORD
  5
34DA
102
{ACAD_REACTORS
330
34D9
102
}
330
34D9
100
AcDbXrecord
280
     1
102
RTVSPost2010Prop28
280
     0
102
RTVSPost2010PropOp28
 70
     1
102
RTVSPost2010Prop29
280
     1
102
RTVSPost2010PropOp29
 70
     1
102
RTVSPost2010Prop30
280
     1
102
RTVSPost2010PropOp30
 70
     1
102
RTVSPost2010Prop31
280
     0
102
RTVSPost2010PropOp31
 70
     1
102
RTVSPost2010Prop32
280
     0
102
RTVSPost2010PropOp32
 70
     1
102
RTVSPost2010Prop33
280
     0
102
RTVSPost2010PropOp33
 70
     1
102
RTVSPost2010Prop34
280
     0
102
RTVSPost2010PropOp34
 70
     1
102
RTVSPost2010Prop35
280
     0
102
RTVSPost2010PropOp35
 70
     1
102
RTVSPost2010Prop36
280
     0
102
RTVSPost2010PropOp36
 70
     1
102
RTVSPost2010Prop37
 90
       50
102
RTVSPost2010PropOp37
 70
     1
102
RTVSPost2010Prop38
140
0.0
102
RTVSPost2010PropOp38
 70
     1
102
RTVSPost2010Prop39
140
1.0
102
RTVSPost2010PropOp39
 70
     1
102
RTVSPost2010Prop40
 90
        0
102
RTVSPost2010PropOp40
 70
     1
102
RTVSPost2010Prop41ColorIndex
 90
       18
102
RTVSPost2010Prop41ColorRGB
 90
        0
102
RTVSPost2010PropOp41
 70
     1
102
RTVSPost2010Prop42
 90
       50
102
RTVSPost2010PropOp42
 70
     1
102
RTVSPost2010Prop43
 90
        3
102
RTVSPost2010PropOp43
 70
     1
102
RTVSPost2010Prop44ColorIndex
 90
        5
102
RTVSPost2010Prop44ColorRGB
 90
      255
102
RTVSPost2010PropOp44
 70
     1
102
RTVSPost2010Prop45
280
     0
102
RTVSPost2010PropOp45
 70
     1
102
RTVSPost2010Prop46
 90
       50
102
RTVSPost2010PropOp46
 70
     1
102
RTVSPost2010Prop47
 90
       50
102
RTVSPost2010PropOp47
 70
     1
102
RTVSPost2010Prop48
 90
       50
102
RTVSPost2010PropOp48
 70
     1
102
RTVSPost2010Prop49
280
     0
102
RTVSPost2010PropOp49
 70
     1
102
RTVSPost2010Prop50
 90
       50
102
RTVSPost2010PropOp50
 70
     1
102
RTVSPost2010Prop51ColorIndex
 90
      256
102
RTVSPost2010Prop51ColorRGB
 90
-16777216
102
RTVSPost2010PropOp51
 70
     0
102
RTVSPost2010Prop52
140
1.0
102
RTVSPost2010PropOp52
 70
     0
102
RTVSPost2010Prop53
 90
        2
102
RTVSPost2010PropOp53
 70
     1
102
RTVSPost2010Prop54
  1
strokes_ogs.tif
102
RTVSPost2010PropOp54
 70
     1
102
RTVSPost2010Prop55
280
     0
102
RTVSPost2010PropOp55
 70
     1
102
RTVSPost2010Prop56
140
1.0
102
RTVSPost2010PropOp56
 70
     1
102
RTVSPost2010Prop57
140
1.0
102
RTVSPost2010PropOp57
 70
     1
  0
XRECORD
  5
34DC
102
{ACAD_REACTORS
330
34DB
102
}
330
34DB
100
AcDbXrecord
280
     1
102
RTVSPost2010Prop28
280
     0
102
RTVSPost2010PropOp28
 70
     1
102
RTVSPost2010Prop29
280
     1
102
RTVSPost2010PropOp29
 70
     1
102
RTVSPost2010Prop30
280
     1
102
RTVSPost2010PropOp30
 70
     1
102
RTVSPost2010Prop31
280
     0
102
RTVSPost2010PropOp31
 70
     1
102
RTVSPost2010Prop32
280
     0
102
RTVSPost2010PropOp32
 70
     1
102
RTVSPost2010Prop33
280
     0
102
RTVSPost2010PropOp33
 70
     1
102
RTVSPost2010Prop34
280
     0
102
RTVSPost2010PropOp34
 70
     1
102
RTVSPost2010Prop35
280
     0
102
RTVSPost2010PropOp35
 70
     1
102
RTVSPost2010Prop36
280
     0
102
RTVSPost2010PropOp36
 70
     1
102
RTVSPost2010Prop37
 90
       50
102
RTVSPost2010PropOp37
 70
     1
102
RTVSPost2010Prop38
140
0.0
102
RTVSPost2010PropOp38
 70
     1
102
RTVSPost2010Prop39
140
1.0
102
RTVSPost2010PropOp39
 70
     1
102
RTVSPost2010Prop40
 90
        0
102
RTVSPost2010PropOp40
 70
     1
102
RTVSPost2010Prop41ColorIndex
 90
       18
102
RTVSPost2010Prop41ColorRGB
 90
        0
102
RTVSPost2010PropOp41
 70
     1
102
RTVSPost2010Prop42
 90
       50
102
RTVSPost2010PropOp42
 70
     1
102
RTVSPost2010Prop43
 90
        3
102
RTVSPost2010PropOp43
 70
     1
102
RTVSPost2010Prop44ColorIndex
 90
        5
102
RTVSPost2010Prop44ColorRGB
 90
      255
102
RTVSPost2010PropOp44
 70
     1
102
RTVSPost2010Prop45
280
     0
102
RTVSPost2010PropOp45
 70
     1
102
RTVSPost2010Prop46
 90
       50
102
RTVSPost2010PropOp46
 70
     1
102
RTVSPost2010Prop47
 90
       50
102
RTVSPost2010PropOp47
 70
     1
102
RTVSPost2010Prop48
 90
       50
102
RTVSPost2010PropOp48
 70
     1
102
RTVSPost2010Prop49
280
     0
102
RTVSPost2010PropOp49
 70
     1
102
RTVSPost2010Prop50
 90
       50
102
RTVSPost2010PropOp50
 70
     1
102
RTVSPost2010Prop51ColorIndex
 90
      256
102
RTVSPost2010Prop51ColorRGB
 90
-16777216
102
RTVSPost2010PropOp51
 70
     0
102
RTVSPost2010Prop52
140
1.0
102
RTVSPost2010PropOp52
 70
     0
102
RTVSPost2010Prop53
 90
        2
102
RTVSPost2010PropOp53
 70
     1
102
RTVSPost2010Prop54
  1
strokes_ogs.tif
102
RTVSPost2010PropOp54
 70
     1
102
RTVSPost2010Prop55
280
     0
102
RTVSPost2010PropOp55
 70
     1
102
RTVSPost2010Prop56
140
1.0
102
RTVSPost2010PropOp56
 70
     1
102
RTVSPost2010Prop57
140
1.0
102
RTVSPost2010PropOp57
 70
     1
  0
XRECORD
  5
34EA
102
{ACAD_REACTORS
330
34E9
102
}
330
34E9
100
AcDbXrecord
280
     1
102
RTVSPost2010Prop28
280
     0
102
RTVSPost2010PropOp28
 70
     1
102
RTVSPost2010Prop29
280
     1
102
RTVSPost2010PropOp29
 70
     1
102
RTVSPost2010Prop30
280
     1
102
RTVSPost2010PropOp30
 70
     1
102
RTVSPost2010Prop31
280
     0
102
RTVSPost2010PropOp31
 70
     1
102
RTVSPost2010Prop32
280
     0
102
RTVSPost2010PropOp32
 70
     1
102
RTVSPost2010Prop33
280
     0
102
RTVSPost2010PropOp33
 70
     1
102
RTVSPost2010Prop34
280
     0
102
RTVSPost2010PropOp34
 70
     1
102
RTVSPost2010Prop35
280
     0
102
RTVSPost2010PropOp35
 70
     1
102
RTVSPost2010Prop36
280
     0
102
RTVSPost2010PropOp36
 70
     1
102
RTVSPost2010Prop37
 90
       50
102
RTVSPost2010PropOp37
 70
     1
102
RTVSPost2010Prop38
140
0.0
102
RTVSPost2010PropOp38
 70
     1
102
RTVSPost2010Prop39
140
1.0
102
RTVSPost2010PropOp39
 70
     1
102
RTVSPost2010Prop40
 90
        0
102
RTVSPost2010PropOp40
 70
     1
102
RTVSPost2010Prop41ColorIndex
 90
       18
102
RTVSPost2010Prop41ColorRGB
 90
        0
102
RTVSPost2010PropOp41
 70
     1
102
RTVSPost2010Prop42
 90
       50
102
RTVSPost2010PropOp42
 70
     1
102
RTVSPost2010Prop43
 90
        3
102
RTVSPost2010PropOp43
 70
     1
102
RTVSPost2010Prop44ColorIndex
 90
        5
102
RTVSPost2010Prop44ColorRGB
 90
      255
102
RTVSPost2010PropOp44
 70
     1
102
RTVSPost2010Prop45
280
     0
102
RTVSPost2010PropOp45
 70
     1
102
RTVSPost2010Prop46
 90
       50
102
RTVSPost2010PropOp46
 70
     1
102
RTVSPost2010Prop47
 90
       50
102
RTVSPost2010PropOp47
 70
     1
102
RTVSPost2010Prop48
 90
       50
102
RTVSPost2010PropOp48
 70
     1
102
RTVSPost2010Prop49
280
     0
102
RTVSPost2010PropOp49
 70
     1
102
RTVSPost2010Prop50
 90
       50
102
RTVSPost2010PropOp50
 70
     1
102
RTVSPost2010Prop51ColorIndex
 90
      256
102
RTVSPost2010Prop51ColorRGB
 90
-16777216
102
RTVSPost2010PropOp51
 70
     0
102
RTVSPost2010Prop52
140
1.0
102
RTVSPost2010PropOp52
 70
     0
102
RTVSPost2010Prop53
 90
        2
102
RTVSPost2010PropOp53
 70
     1
102
RTVSPost2010Prop54
  1
strokes_ogs.tif
102
RTVSPost2010PropOp54
 70
     1
102
RTVSPost2010Prop55
280
     0
102
RTVSPost2010PropOp55
 70
     1
102
RTVSPost2010Prop56
140
1.0
102
RTVSPost2010PropOp56
 70
     1
102
RTVSPost2010Prop57
140
1.0
102
RTVSPost2010PropOp57
 70
     1
  0
ENDSEC
  0
EOF
