  0
SECTION
  2
HEADER
  9
$ACADVER
  1
AC1024
  9
$ACADMAINTVER
 70
     6
  9
$DWGCODEPAGE
  3
ANSI_1252
  9
$LASTSAVEDBY
  1
bje500
  9
$INSBASE
 10
0.0
 20
0.0
 30
0.0
  9
$EXTMIN
 10
502863.928029478
 20
481104.2073415
 30
0.0
  9
$EXTMAX
 10
502866.3074497337
 20
481107.0338420795
 30
0.0
  9
$LIMMIN
 10
0.0
 20
0.0
  9
$LIMMAX
 10
12.0
 20
9.0
  9
$ORTHOMODE
 70
     0
  9
$REGENMODE
 70
     1
  9
$FILLMODE
 70
     1
  9
$QTEXTMODE
 70
     0
  9
$MIRRTEXT
 70
     1
  9
$LTSCALE
 40
1.0
  9
$ATTMODE
 70
     1
  9
$TEXTSIZE
 40
0.05
  9
$TRACEWID
 40
0.05
  9
$TEXTSTYLE
  7
STANDARD
  9
$CLAYER
  8
Title
  9
$CELTYPE
  6
ByLayer
  9
$CECOLOR
 62
   256
  9
$CELTSCALE
 40
1.0
  9
$DISPSILH
 70
     0
  9
$DIMSCALE
 40
1.0
  9
$DIMASZ
 40
0.18
  9
$DIMEXO
 40
0.0625
  9
$DIMDLI
 40
0.38
  9
$DIMRND
 40
0.0
  9
$DIMDLE
 40
0.0
  9
$DIMEXE
 40
0.18
  9
$DIMTP
 40
0.0
  9
$DIMTM
 40
0.0
  9
$DIMTXT
 40
0.18
  9
$DIMCEN
 40
0.09
  9
$DIMTSZ
 40
0.0
  9
$DIMTOL
 70
     0
  9
$DIMLIM
 70
     0
  9
$DIMTIH
 70
     1
  9
$DIMTOH
 70
     1
  9
$DIMSE1
 70
     0
  9
$DIMSE2
 70
     0
  9
$DIMTAD
 70
     0
  9
$DIMZIN
 70
     0
  9
$DIMBLK
  1

  9
$DIMASO
 70
     1
  9
$DIMSHO
 70
     1
  9
$DIMPOST
  1

  9
$DIMAPOST
  1

  9
$DIMALT
 70
     0
  9
$DIMALTD
 70
     2
  9
$DIMALTF
 40
25.4
  9
$DIMLFAC
 40
1.0
  9
$DIMTOFL
 70
     0
  9
$DIMTVP
 40
0.0
  9
$DIMTIX
 70
     0
  9
$DIMSOXD
 70
     0
  9
$DIMSAH
 70
     0
  9
$DIMBLK1
  1

  9
$DIMBLK2
  1

  9
$DIMSTYLE
  2
STANDARD
  9
$DIMCLRD
 70
     0
  9
$DIMCLRE
 70
     0
  9
$DIMCLRT
 70
     0
  9
$DIMTFAC
 40
1.0
  9
$DIMGAP
 40
0.09
  9
$DIMJUST
 70
     0
  9
$DIMSD1
 70
     0
  9
$DIMSD2
 70
     0
  9
$DIMTOLJ
 70
     1
  9
$DIMTZIN
 70
     0
  9
$DIMALTZ
 70
     0
  9
$DIMALTTZ
 70
     0
  9
$DIMUPT
 70
     0
  9
$DIMDEC
 70
     4
  9
$DIMTDEC
 70
     4
  9
$DIMALTU
 70
     2
  9
$DIMALTTD
 70
     2
  9
$DIMTXSTY
  7
STANDARD
  9
$DIMAUNIT
 70
     0
  9
$DIMADEC
 70
     0
  9
$DIMALTRND
 40
0.0
  9
$DIMAZIN
 70
     0
  9
$DIMDSEP
 70
    46
  9
$DIMATFIT
 70
     3
  9
$DIMFRAC
 70
     0
  9
$DIMLDRBLK
  1

  9
$DIMLUNIT
 70
     2
  9
$DIMLWD
 70
    -2
  9
$DIMLWE
 70
    -2
  9
$DIMTMOVE
 70
     2
  9
$DIMFXL
 40
1.0
  9
$DIMFXLON
 70
     0
  9
$DIMJOGANG
 40
0.7853981633974483
  9
$DIMTFILL
 70
     0
  9
$DIMTFILLCLR
 70
     0
  9
$DIMARCSYM
 70
     0
  9
$DIMLTYPE
  6

  9
$DIMLTEX1
  6

  9
$DIMLTEX2
  6

  9
$DIMTXTDIRECTION
 70
     0
  9
$LUNITS
 70
     2
  9
$LUPREC
 70
     4
  9
$SKETCHINC
 40
0.1
  9
$FILLETRAD
 40
0.5
  9
$AUNITS
 70
     0
  9
$AUPREC
 70
     0
  9
$MENU
  1
.
  9
$ELEVATION
 40
0.0
  9
$PELEVATION
 40
0.0
  9
$THICKNESS
 40
0.0
  9
$LIMCHECK
 70
     0
  9
$CHAMFERA
 40
0.5
  9
$CHAMFERB
 40
0.5
  9
$CHAMFERC
 40
0.0
  9
$CHAMFERD
 40
0.0
  9
$SKPOLY
 70
     0
  9
$TDCREATE
 40
2456391.565276655
  9
$TDUCREATE
 40
2456391.523609988
  9
$TDUPDATE
 40
2456561.428162789
  9
$TDUUPDATE
 40
2456561.386496122
  9
$TDINDWG
 40
0.0096732986
  9
$TDUSRTIMER
 40
0.0096732986
  9
$USRTIMER
 70
     1
  9
$ANGBASE
 50
0.0
  9
$ANGDIR
 70
     0
  9
$PDMODE
 70
    34
  9
$PDSIZE
 40
0.1
  9
$PLINEWID
 40
0.0
  9
$SPLFRAME
 70
     0
  9
$SPLINETYPE
 70
     6
  9
$SPLINESEGS
 70
     8
  9
$HANDSEED
  5
BBE
  9
$SURFTAB1
 70
     6
  9
$SURFTAB2
 70
     6
  9
$SURFTYPE
 70
     6
  9
$SURFU
 70
     6
  9
$SURFV
 70
     6
  9
$UCSBASE
  2

  9
$UCSNAME
  2

  9
$UCSORG
 10
0.0
 20
0.0
 30
0.0
  9
$UCSXDIR
 10
1.0
 20
0.0
 30
0.0
  9
$UCSYDIR
 10
0.0
 20
1.0
 30
0.0
  9
$UCSORTHOREF
  2

  9
$UCSORTHOVIEW
 70
     0
  9
$UCSORGTOP
 10
0.0
 20
0.0
 30
0.0
  9
$UCSORGBOTTOM
 10
0.0
 20
0.0
 30
0.0
  9
$UCSORGLEFT
 10
0.0
 20
0.0
 30
0.0
  9
$UCSORGRIGHT
 10
0.0
 20
0.0
 30
0.0
  9
$UCSORGFRONT
 10
0.0
 20
0.0
 30
0.0
  9
$UCSORGBACK
 10
0.0
 20
0.0
 30
0.0
  9
$PUCSBASE
  2

  9
$PUCSNAME
  2

  9
$PUCSORG
 10
0.0
 20
0.0
 30
0.0
  9
$PUCSXDIR
 10
1.0
 20
0.0
 30
0.0
  9
$PUCSYDIR
 10
0.0
 20
1.0
 30
0.0
  9
$PUCSORTHOREF
  2

  9
$PUCSORTHOVIEW
 70
     0
  9
$PUCSORGTOP
 10
0.0
 20
0.0
 30
0.0
  9
$PUCSORGBOTTOM
 10
0.0
 20
0.0
 30
0.0
  9
$PUCSORGLEFT
 10
0.0
 20
0.0
 30
0.0
  9
$PUCSORGRIGHT
 10
0.0
 20
0.0
 30
0.0
  9
$PUCSORGFRONT
 10
0.0
 20
0.0
 30
0.0
  9
$PUCSORGBACK
 10
0.0
 20
0.0
 30
0.0
  9
$USERI1
 70
     0
  9
$USERI2
 70
     0
  9
$USERI3
 70
     0
  9
$USERI4
 70
     0
  9
$USERI5
 70
     0
  9
$USERR1
 40
0.0
  9
$USERR2
 40
0.0
  9
$USERR3
 40
0.0
  9
$USERR4
 40
0.0
  9
$USERR5
 40
0.0
  9
$WORLDVIEW
 70
     0
  9
$SHADEDGE
 70
     3
  9
$SHADEDIF
 70
    70
  9
$TILEMODE
 70
     1
  9
$MAXACTVP
 70
    64
  9
$PINSBASE
 10
0.0
 20
0.0
 30
0.0
  9
$PLIMCHECK
 70
     0
  9
$PEXTMIN
 10
1.000000000000000E+20
 20
1.000000000000000E+20
 30
1.000000000000000E+20
  9
$PEXTMAX
 10
-1.000000000000000E+20
 20
-1.000000000000000E+20
 30
-1.000000000000000E+20
  9
$PLIMMIN
 10
0.0
 20
0.0
  9
$PLIMMAX
 10
12.0
 20
9.0
  9
$UNITMODE
 70
     0
  9
$VISRETAIN
 70
     1
  9
$PLINEGEN
 70
     0
  9
$PSLTSCALE
 70
     1
  9
$TREEDEPTH
 70
  3020
  9
$CMLSTYLE
  2
Standard
  9
$CMLJUST
 70
     0
  9
$CMLSCALE
 40
1.0
  9
$PROXYGRAPHICS
 70
     1
  9
$MEASUREMENT
 70
     0
  9
$CELWEIGHT
370
    -1
  9
$ENDCAPS
280
     0
  9
$JOINSTYLE
280
     0
  9
$LWDISPLAY
290
     0
  9
$INSUNITS
 70
     0
  9
$HYPERLINKBASE
  1

  9
$STYLESHEET
  1

  9
$XEDIT
290
     1
  9
$CEPSNTYPE
380
     0
  9
$PSTYLEMODE
290
     1
  9
$FINGERPRINTGUID
  2
{2A42B9F9-1F37-4E76-A599-C3C6851310A1}
  9
$VERSIONGUID
  2
{9DB6B9B8-EDB5-400D-A363-609D65C77217}
  9
$EXTNAMES
290
     1
  9
$PSVPSCALE
 40
0.0
  9
$OLESTARTUP
290
     0
  9
$SORTENTS
280
   127
  9
$INDEXCTL
280
     0
  9
$HIDETEXT
280
     1
  9
$XCLIPFRAME
280
     2
  9
$HALOGAP
280
     0
  9
$OBSCOLOR
 70
   257
  9
$OBSLTYPE
280
     0
  9
$INTERSECTIONDISPLAY
280
     0
  9
$INTERSECTIONCOLOR
 70
   257
  9
$DIMASSOC
280
     2
  9
$PROJECTNAME
  1

  9
$CAMERADISPLAY
290
     0
  9
$LENSLENGTH
 40
50.0
  9
$CAMERAHEIGHT
 40
0.0
  9
$STEPSPERSEC
 40
2.0
  9
$STEPSIZE
 40
6.0
  9
$3DDWFPREC
 40
2.0
  9
$PSOLWIDTH
 40
0.25
  9
$PSOLHEIGHT
 40
4.0
  9
$LOFTANG1
 40
1.570796326794897
  9
$LOFTANG2
 40
1.570796326794897
  9
$LOFTMAG1
 40
0.0
  9
$LOFTMAG2
 40
0.0
  9
$LOFTPARAM
 70
     7
  9
$LOFTNORMALS
280
     1
  9
$LATITUDE
 40
37.795
  9
$LONGITUDE
 40
-122.394
  9
$NORTHDIRECTION
 40
0.0
  9
$TIMEZONE
 70
 -8000
  9
$LIGHTGLYPHDISPLAY
280
     1
  9
$TILEMODELIGHTSYNCH
280
     1
  9
$SOLIDHIST
280
     1
  9
$SHOWHIST
280
     1
  9
$DWFFRAME
280
     2
  9
$DGNFRAME
280
     2
  9
$REALWORLDSCALE
290
     1
  9
$INTERFERECOLOR
 62
   256
  9
$CSHADOW
280
     0
  9
$SHADOWPLANELOCATION
 40
0.0
  0
ENDSEC
  0
SECTION
  2
CLASSES
  0
CLASS
  1
ACDBDICTIONARYWDFLT
  2
AcDbDictionaryWithDefault
  3
ObjectDBX Classes
 90
        0
 91
        4
280
     0
281
     0
  0
CLASS
  1
MATERIAL
  2
AcDbMaterial
  3
ObjectDBX Classes
 90
     1153
 91
        4
280
     0
281
     0
  0
CLASS
  1
VISUALSTYLE
  2
AcDbVisualStyle
  3
ObjectDBX Classes
 90
     4095
 91
        4
280
     0
281
     0
  0
CLASS
  1
SCALE
  2
AcDbScale
  3
ObjectDBX Classes
 90
     1153
 91
        4
280
     0
281
     0
  0
CLASS
  1
TABLESTYLE
  2
AcDbTableStyle
  3
ObjectDBX Classes
 90
     4095
 91
        4
280
     0
281
     0
  0
CLASS
  1
MLEADERSTYLE
  2
AcDbMLeaderStyle
  3
ACDB_MLEADERSTYLE_CLASS
 90
     4095
 91
        4
280
     0
281
     0
  0
CLASS
  1
ACDBSECTIONVIEWSTYLE
  2
AcDbSectionViewStyle
  3
ObjectDBX Classes
 90
     1025
 91
        2
280
     1
281
     0
  0
CLASS
  1
ACDBDETAILVIEWSTYLE
  2
AcDbDetailViewStyle
  3
ObjectDBX Classes
 90
     1025
 91
        2
280
     1
281
     0
  0
CLASS
  1
RASTERVARIABLES
  2
AcDbRasterVariables
  3
ISM
 90
        0
 91
        4
280
     0
281
     0
  0
CLASS
  1
IMAGEDEF
  2
AcDbRasterImageDef
  3
ISM
 90
        0
 91
        4
280
     0
281
     0
  0
CLASS
  1
IMAGEDEF_REACTOR
  2
AcDbRasterImageDefReactor
  3
ISM
 90
        1
 91
        4
280
     0
281
     0
  0
CLASS
  1
IMAGE
  2
AcDbRasterImage
  3
ISM
 90
      127
 91
        5
280
     0
281
     1
  0
CLASS
  1
SORTENTSTABLE
  2
AcDbSortentsTable
  3
ObjectDBX Classes
 90
        0
 91
        4
280
     0
281
     0
  0
CLASS
  1
DICTIONARYVAR
  2
AcDbDictionaryVar
  3
ObjectDBX Classes
 90
        0
 91
        4
280
     0
281
     0
  0
CLASS
  1
CELLSTYLEMAP
  2
AcDbCellStyleMap
  3
ObjectDBX Classes
 90
     1152
 91
        4
280
     0
281
     0
  0
ENDSEC
  0
SECTION
  2
TABLES
  0
TABLE
  2
VPORT
  5
A7F
330
0
100
AcDbSymbolTable
 70
     1
  0
VPORT
  5
AF1
330
A7F
100
AcDbSymbolTableRecord
100
AcDbViewportTableRecord
  2
*ACTIVE
 70
     0
 10
0.0
 20
0.0
 11
1.0
 21
1.0
 12
502865.1177396058
 22
481105.7641296948
 13
0.0
 23
0.0
 14
0.5
 24
0.5
 15
0.5
 25
0.5
 16
0.0
 26
0.0
 36
1.0
 17
0.0
 27
0.0
 37
0.0
 40
2.710593981800749
 41
1.6078184110971
 42
50.0
 43
0.0
 44
0.0
 50
0.0
 51
0.0
 71
     0
 72
   100
 73
     1
 74
     3
 75
     0
 76
     0
 77
     0
 78
     0
281
     0
 65
     1
110
0.0
120
0.0
130
0.0
111
1.0
121
0.0
131
0.0
112
0.0
122
1.0
132
0.0
 79
     0
146
0.0
348
AA6
 60
     3
 61
     5
292
     1
282
     0
141
0.0
142
0.0
 63
   256
1001
ACAD_NAV_VCDISPLAY
1070
     3
  0
ENDTAB
  0
TABLE
  2
LTYPE
  5
A7C
330
0
100
AcDbSymbolTable
 70
     2
  0
LTYPE
  5
AD1
330
A7C
100
AcDbSymbolTableRecord
100
AcDbLinetypeTableRecord
  2
ByBlock
 70
     0
  3

 72
    65
 73
     0
 40
0.0
  0
LTYPE
  5
AD2
330
A7C
100
AcDbSymbolTableRecord
100
AcDbLinetypeTableRecord
  2
ByLayer
 70
     0
  3

 72
    65
 73
     0
 40
0.0
  0
LTYPE
  5
AD3
330
A7C
100
AcDbSymbolTableRecord
100
AcDbLinetypeTableRecord
  2
CONTINUOUS
 70
     0
  3
Solid line
 72
    65
 73
     0
 40
0.0
  0
LTYPE
  5
ADF
330
A7C
100
AcDbSymbolTableRecord
100
AcDbLinetypeTableRecord
  2
PHANTOM2
 70
     0
  3
Phantom (.5x) ___ _ _ ___ _ _ ___ _ _ ___ _ _
 72
    65
 73
     6
 40
1.25
 49
0.625
 74
     0
 49
-0.125
 74
     0
 49
0.125
 74
     0
 49
-0.125
 74
     0
 49
0.125
 74
     0
 49
-0.125
 74
     0
  0
ENDTAB
  0
TABLE
  2
LAYER
  5
A79
102
{ACAD_XDICTIONARY
360
B2D
102
}
330
0
100
AcDbSymbolTable
 70
     6
  0
LAYER
  5
ACB
330
A79
100
AcDbSymbolTableRecord
100
AcDbLayerTableRecord
  2
0
 70
     0
 62
     7
  6
CONTINUOUS
370
    -3
390
A86
347
A98
  0
LAYER
  5
B04
330
A79
100
AcDbSymbolTableRecord
100
AcDbLayerTableRecord
  2
Title
 70
     0
 62
   250
  6
CONTINUOUS
370
    -3
390
A86
347
A98
1001
AcAecLayerStandard
1000

1000

1001
AcCmTransparency
1071
        0
  0
LAYER
  5
B07
330
A79
100
AcDbSymbolTableRecord
100
AcDbLayerTableRecord
  2
Contexts
 70
     0
 62
   250
  6
CONTINUOUS
370
    -3
390
A86
347
A98
1001
AcAecLayerStandard
1000

1000

1001
AcCmTransparency
1071
        0
  0
LAYER
  5
B08
330
A79
100
AcDbSymbolTableRecord
100
AcDbLayerTableRecord
  2
Context labels
 70
     0
 62
   250
  6
CONTINUOUS
370
    -3
390
A86
347
A98
1001
AcAecLayerStandard
1000

1000

1001
AcCmTransparency
1071
        0
  0
LAYER
  5
B09
330
A79
100
AcDbSymbolTableRecord
100
AcDbLayerTableRecord
  2
Points
 70
     0
 62
     6
  6
CONTINUOUS
370
    -3
390
A86
347
A98
1001
AcAecLayerStandard
1000

1000

1001
AcCmTransparency
1071
        0
  0
LAYER
  5
B16
330
A79
100
AcDbSymbolTableRecord
100
AcDbLayerTableRecord
  2
Trench edge
 70
     0
 62
   104
  6
CONTINUOUS
370
    -3
390
A86
347
A98
1001
AcAecLayerStandard
1000

1000

1001
AcCmTransparency
1071
        0
  0
ENDTAB
  0
TABLE
  2
STYLE
  5
A7A
330
0
100
AcDbSymbolTable
 70
     7
  0
STYLE
  5
ACC
330
A7A
100
AcDbSymbolTableRecord
100
AcDbTextStyleTableRecord
  2
STANDARD
 70
     0
 40
0.0
 41
1.0
 50
0.0
 71
     0
 42
0.05
  3
txt
  4

  0
STYLE
  5
AD0
330
A7A
100
AcDbSymbolTableRecord
100
AcDbTextStyleTableRecord
  2
0
 70
     0
 40
1.0
 41
1.0
 50
0.0
 71
     0
 42
1.0
  3
arial.ttf
  4

1001
AcadAnnotative
1000
AnnotativeData
1002
{
1070
     1
1070
     1
1002
}
1001
ACAD
1000
Arial
1071
       34
  0
STYLE
  5
AEC
330
A7A
100
AcDbSymbolTableRecord
100
AcDbTextStyleTableRecord
  2
1
 70
     0
 40
1.0
 41
1.0
 50
0.0
 71
     0
 42
1.0
  3
arial.ttf
  4

1001
ACAD
1000
Arial
1071
       34
  0
STYLE
  5
AED
330
A7A
100
AcDbSymbolTableRecord
100
AcDbTextStyleTableRecord
  2
2
 70
     0
 40
1.0
 41
1.0
 50
0.0
 71
     0
 42
1.0
  3
arial.ttf
  4

1001
ACAD
1000
Arial
1071
       34
  0
STYLE
  5
AEE
330
A7A
100
AcDbSymbolTableRecord
100
AcDbTextStyleTableRecord
  2
3
 70
     0
 40
1.0
 41
1.0
 50
0.0
 71
     0
 42
1.0
  3
arial.ttf
  4

1001
ACAD
1000
Arial
1071
       34
  0
STYLE
  5
AEF
330
A7A
100
AcDbSymbolTableRecord
100
AcDbTextStyleTableRecord
  2
4
 70
     0
 40
1.0
 41
1.0
 50
0.0
 71
     0
 42
1.0
  3
arial.ttf
  4

1001
ACAD
1000
Arial
1071
       34
  0
STYLE
  5
AF0
330
A7A
100
AcDbSymbolTableRecord
100
AcDbTextStyleTableRecord
  2
5
 70
     0
 40
1.0
 41
1.0
 50
0.0
 71
     0
 42
1.0
  3
arial.ttf
  4

1001
ACAD
1000
Arial
1071
       34
  0
ENDTAB
  0
TABLE
  2
VIEW
  5
A7D
330
0
100
AcDbSymbolTable
 70
     0
  0
ENDTAB
  0
TABLE
  2
UCS
  5
A7E
330
0
100
AcDbSymbolTable
 70
     0
  0
ENDTAB
  0
TABLE
  2
APPID
  5
A80
330
0
100
AcDbSymbolTable
 70
     8
  0
APPID
  5
ACD
330
A80
100
AcDbSymbolTableRecord
100
AcDbRegAppTableRecord
  2
ACAD
 70
     0
  0
APPID
  5
AF2
330
A80
100
AcDbSymbolTableRecord
100
AcDbRegAppTableRecord
  2
ODA
 70
     0
  0
APPID
  5
AD4
330
A80
100
AcDbSymbolTableRecord
100
AcDbRegAppTableRecord
  2
AcadAnnotative
 70
     0
  0
APPID
  5
B05
330
A80
100
AcDbSymbolTableRecord
100
AcDbRegAppTableRecord
  2
AcAecLayerStandard
 70
     0
  0
APPID
  5
B06
330
A80
100
AcDbSymbolTableRecord
100
AcDbRegAppTableRecord
  2
AcCmTransparency
 70
     0
  0
APPID
  5
B0C
330
A80
100
AcDbSymbolTableRecord
100
AcDbRegAppTableRecord
  2
ACAD_EXEMPT_FROM_CAD_STANDARDS
 70
     0
  0
APPID
  5
B1D
330
A80
100
AcDbSymbolTableRecord
100
AcDbRegAppTableRecord
  2
ACAD_NAV_VCDISPLAY
 70
     0
  0
APPID
  5
B7F
330
A80
100
AcDbSymbolTableRecord
100
AcDbRegAppTableRecord
  2
ACAD_MLEADERVER
 70
     0
  0
ENDTAB
  0
TABLE
  2
DIMSTYLE
  5
A81
330
0
100
AcDbSymbolTable
 70
     2
100
AcDbDimStyleTable
  0
DIMSTYLE
105
ACE
330
A81
100
AcDbSymbolTableRecord
100
AcDbDimStyleTableRecord
  2
STANDARD
 70
     0
178
     0
279
     2
340
ACC
  0
DIMSTYLE
105
ACF
330
A81
100
AcDbSymbolTableRecord
100
AcDbDimStyleTableRecord
  2
Annotative
 70
     0
178
     0
340
ACC
1001
AcadAnnotative
1000
AnnotativeData
1002
{
1070
     1
1070
     1
1002
}
  0
ENDTAB
  0
TABLE
  2
BLOCK_RECORD
  5
A78
330
0
100
AcDbSymbolTable
 70
     1
  0
BLOCK_RECORD
  5
AE7
102
{ACAD_XDICTIONARY
360
B02
102
}
330
A78
100
AcDbSymbolTableRecord
100
AcDbBlockTableRecord
  2
*Model_Space
340
AEA
 70
     0
280
     1
281
     0
  0
BLOCK_RECORD
  5
AE3
330
A78
100
AcDbSymbolTableRecord
100
AcDbBlockTableRecord
  2
*Paper_Space
340
AE6
 70
     0
280
     1
281
     0
  0
BLOCK_RECORD
  5
AEB
330
A78
100
AcDbSymbolTableRecord
100
AcDbBlockTableRecord
  2
*PAPER_SPACE0
340
0
 70
     0
280
     1
281
     0
  0
ENDTAB
  0
ENDSEC
  0
SECTION
  2
BLOCKS
  0
BLOCK
  5
AF6
330
AE7
100
AcDbEntity
  8
0
100
AcDbBlockBegin
  2
*Model_Space
 70
     0
 10
0.0
 20
0.0
 30
0.0
  3
*Model_Space
  1
*Model_Space
  0
ENDBLK
  5
AF7
330
AE7
100
AcDbEntity
  8
0
100
AcDbBlockEnd
  0
BLOCK
  5
AF4
330
AE3
100
AcDbEntity
 67
     1
  8
0
100
AcDbBlockBegin
  2
*Paper_Space
 70
     0
 10
0.0
 20
0.0
 30
0.0
  3
*Paper_Space
  1
*Paper_Space
  0
ENDBLK
  5
AF5
330
AE3
100
AcDbEntity
 67
     1
  8
0
100
AcDbBlockEnd
  0
BLOCK
  5
24
330
AEB
100
AcDbEntity
  8
0
100
AcDbBlockBegin
  2
*PAPER_SPACE0
 70
     0
 10
0.0
 20
0.0
 30
0.0
  3
*PAPER_SPACE0
  1
*PAPER_SPACE0
  0
ENDBLK
  5
25
330
AEB
100
AcDbEntity
  8
0
100
AcDbBlockEnd
  0
ENDSEC
  0
SECTION
  2
ENTITIES
  0
LWPOLYLINE
  5
41
330
AE7
100
AcDbEntity
  8
Contexts
 62
    43
100
AcDbPolyline
 90
        7
 70
     1
 43
0.0
 10
502864.7567539784
 20
481106.4054447138
 10
502864.8449089346
 20
481106.3052822529
 10
502864.8384162656
 20
481106.2995794305
 10
502864.469666533
 20
481106.3354327062
 10
502864.5625986431
 20
481106.4171358838
 10
502864.7522010871
 20
481106.4014727917
 10
502864.7567539784
 20
481106.4054447138
  0
LWPOLYLINE
  5
42
330
AE7
100
AcDbEntity
  8
Contexts
 62
    43
100
AcDbPolyline
 90
       11
 70
     1
 43
0.0
 10
502865.1324378232
 20
481105.9784094119
 10
502865.1904107211
 20
481105.9124928164
 10
502865.1893621123
 20
481105.9115571229
 10
502864.8708637511
 20
481105.9520612241
 10
502864.6349537089
 20
481105.9580259291
 10
502864.0899717053
 20
481106.0014233976
 10
502864.1880384339
 20
481106.0877082922
 10
502864.7380551396
 20
481106.0217907761
 10
502864.8832362696
 20
481106.0383979334
 10
502865.1309183802
 20
481105.9770535841
 10
502865.1324378232
 20
481105.9784094119
  0
LWPOLYLINE
  5
43
330
AE7
100
AcDbEntity
  8
Contexts
 62
    43
100
AcDbPolyline
 90
       27
 70
     1
 43
0.0
 10
502865.0547016812
 20
481105.730219184
 10
502865.247484712
 20
481105.7093024131
 10
502865.2502414698
 20
481105.7070561237
 10
502865.2424913141
 20
481105.6822281527
 10
502865.2289433419
 20
481105.6645524332
 10
502865.2107307452
 20
481105.6528337708
 10
502865.1889853911
 20
481105.6458784564
 10
502865.1648375012
 20
481105.6424886453
 10
502865.1394215932
 20
481105.6414676582
 10
502865.1138682085
 20
481105.6416232708
 10
502865.0893088942
 20
481105.6417561535
 10
502865.0819885868
 20
481105.6416270931
 10
502865.0122422177
 20
481105.6693690837
 10
502864.9652618799
 20
481105.6880599285
 10
502864.8459960179
 20
481105.6898712589
 10
502864.7877019168
 20
481105.6924398058
 10
502864.7153185121
 20
481105.6956183531
 10
502864.6549867985
 20
481105.6982549136
 10
502864.3817539152
 20
481105.7038564489
 10
502864.1863508476
 20
481105.7224353114
 10
502864.0522126358
 20
481105.7250943522
 10
502864.0495940844
 20
481105.7227577691
 10
502863.9724470855
 20
481105.8092145238
 10
502864.4478146331
 20
481105.7722160711
 10
502864.7796936609
 20
481105.7483553206
 10
502864.8794097114
 20
481105.752627638
 10
502865.0547016812
 20
481105.730219184
  0
LWPOLYLINE
  5
44
330
AE7
100
AcDbEntity
  8
Contexts
 62
    34
100
AcDbPolyline
 90
        5
 70
     1
 43
0.0
 10
502864.6662665517
 20
481106.5083227726
 10
502864.7567539784
 20
481106.4054447138
 10
502864.7522010871
 20
481106.4014727917
 10
502864.5625986431
 20
481106.4171358838
 10
502864.6662665517
 20
481106.5083227726
  0
LWPOLYLINE
  5
45
330
AE7
100
AcDbEntity
  8
Contexts
 62
    34
100
AcDbPolyline
 90
        9
 70
     1
 43
0.0
 10
502864.8449089346
 20
481106.3052822529
 10
502865.1324378232
 20
481105.9784094119
 10
502865.1309183802
 20
481105.9770535841
 10
502864.8832362696
 20
481106.0383979334
 10
502864.7380551396
 20
481106.0217907761
 10
502864.1880384339
 20
481106.0877082922
 10
502864.469666533
 20
481106.3354327062
 10
502864.8384162656
 20
481106.2995794305
 10
502864.8449089346
 20
481106.3052822529
  0
LWPOLYLINE
  5
46
330
AE7
100
AcDbEntity
  8
Contexts
 62
    34
100
AcDbPolyline
 90
       43
 70
     1
 43
0.0
 10
502864.6786315506
 20
481105.3786425521
 10
502864.6792818166
 20
481105.4032260001
 10
502864.6796079222
 20
481105.4098239339
 10
502864.679355039
 20
481105.3835274466
 10
502864.6846108129
 20
481105.3878597729
 10
502864.6901310619
 20
481105.3918598302
 10
502864.6958081131
 20
481105.3956423049
 10
502864.7015347736
 20
481105.3993303154
 10
502864.7072050158
 20
481105.4030426844
 10
502864.7127128121
 20
481105.4068982341
 10
502864.7179479989
 20
481105.4110174326
 10
502864.722806034
 20
481105.4155204278
 10
502864.7409633712
 20
481105.4173238432
 10
502864.7451158384
 20
481105.4160428409
 10
502864.7344985345
 20
481105.3823788628
 10
502864.7323383715
 20
481105.375561026
 10
502864.730412108
 20
481105.3686664355
 10
502864.7286911118
 20
481105.361712229
 10
502864.7271427751
 20
481105.3547200002
 10
502864.7244475416
 20
481105.34070424
 10
502864.7220847383
 20
481105.3267823519
 10
502864.7219228256
 20
481105.3256961014
 10
502864.7187140781
 20
481105.3104110775
 10
502864.7194492925
 20
481105.3110671233
 10
502864.7190636122
 20
481105.3086500059
 10
502864.7170402937
 20
481105.2994304335
 10
502864.7147045874
 20
481105.2897506934
 10
502864.7136743526
 20
481105.2848268597
 10
502864.7128790451
 20
481105.2798938873
 10
502864.7124177904
 20
481105.2749842015
 10
502864.7123941704
 20
481105.2701342045
 10
502864.7047551289
 20
481105.279517304
 10
502864.6983252069
 20
481105.2885439871
 10
502864.6930050495
 20
481105.2973016799
 10
502864.6886956215
 20
481105.3058834293
 10
502864.6852962426
 20
481105.3143781464
 10
502864.6827105283
 20
481105.3228759076
 10
502864.6808364729
 20
481105.3314671094
 10
502864.6795776919
 20
481105.3402418284
 10
502864.6788233598
 20
481105.3492345682
 10
502864.6784745554
 20
481105.358565157
 10
502864.6784424806
 20
481105.3683331084
 10
502864.6786315506
 20
481105.3786425521
  0
LWPOLYLINE
  5
47
330
AE7
100
AcDbEntity
  8
Contexts
 62
    34
100
AcDbPolyline
 90
       36
 70
     1
 43
0.0
 10
502864.7123941704
 20
481105.2701342045
 10
502864.7126084809
 20
481105.2673347087
 10
502864.7130268701
 20
481105.2645785845
 10
502864.7136737878
 20
481105.2618743099
 10
502864.7145636073
 20
481105.2592267064
 10
502864.7157219439
 20
481105.2566399556
 10
502864.7171689519
 20
481105.2541213701
 10
502864.7189231403
 20
481105.2516741261
 10
502864.7210074737
 20
481105.249305376
 10
502864.7124814841
 20
481105.2516247742
 10
502864.7040437626
 20
481105.2545538501
 10
502864.695727123
 20
481105.2580498504
 10
502864.6875624139
 20
481105.2620602649
 10
502864.6795839342
 20
481105.2665436651
 10
502864.6718253435
 20
481105.2714473811
 10
502864.6643151593
 20
481105.2767274938
 10
502864.6570858757
 20
481105.2823356288
 10
502864.6560605862
 20
481105.2868392727
 10
502864.6564384807
 20
481105.2919440335
 10
502864.6577839128
 20
481105.2975012882
 10
502864.6596613968
 20
481105.3033652243
 10
502864.6616366118
 20
481105.3093857334
 10
502864.6632753972
 20
481105.3154155177
 10
502864.6641409416
 20
481105.3213102501
 10
502864.6637987642
 20
481105.3269170116
 10
502864.6610146054
 20
481105.3260307331
 10
502864.6781260621
 20
481105.3400777062
 10
502864.6795776919
 20
481105.3402418284
 10
502864.6808364729
 20
481105.3314671094
 10
502864.6827105283
 20
481105.3228759076
 10
502864.6852962426
 20
481105.3143781464
 10
502864.6886956215
 20
481105.3058834293
 10
502864.6930050495
 20
481105.2973016799
 10
502864.6983252069
 20
481105.2885439871
 10
502864.7047551289
 20
481105.279517304
 10
502864.7123941704
 20
481105.2701342045
  0
LWPOLYLINE
  5
48
330
AE7
100
AcDbEntity
  8
Contexts
 62
    34
100
AcDbPolyline
 90
       28
 70
     1
 43
0.0
 10
502864.6765939381
 20
481105.3787105657
 10
502864.6786315506
 20
481105.3786425521
 10
502864.6784424806
 20
481105.3683331084
 10
502864.6784745554
 20
481105.358565157
 10
502864.6788233598
 20
481105.3492345682
 10
502864.6795776919
 20
481105.3402418284
 10
502864.6781260621
 20
481105.3400777062
 10
502864.6610146054
 20
481105.3260307331
 10
502864.6523804297
 20
481105.3228564091
 10
502864.6439000408
 20
481105.3193124086
 10
502864.6396195604
 20
481105.3176005054
 10
502864.6352569769
 20
481105.3160314407
 10
502864.6307774197
 20
481105.3146861514
 10
502864.6261387517
 20
481105.313641758
 10
502864.6210119882
 20
481105.3209419256
 10
502864.6168157243
 20
481105.3282666862
 10
502864.6134505827
 20
481105.3356287443
 10
502864.6108089139
 20
481105.3430440946
 10
502864.6087886901
 20
481105.3505284117
 10
502864.6072865577
 20
481105.3580988562
 10
502864.6062004886
 20
481105.3657711027
 10
502864.6054256442
 20
481105.3735609861
 10
502864.6117299738
 20
481105.3763504685
 10
502864.61795234
 20
481105.3788640521
 10
502864.6241635085
 20
481105.3815277183
 10
502864.6304342448
 20
481105.3847674491
 10
502864.6279433695
 20
481105.3881927631
 10
502864.6765939381
 20
481105.3787105657
  0
LWPOLYLINE
  5
49
330
AE7
100
AcDbEntity
  8
Contexts
 62
    34
100
AcDbPolyline
 90
       24
 70
     1
 43
0.0
 10
502864.6765939381
 20
481105.3787105657
 10
502864.6279433695
 20
481105.3881927631
 10
502864.6220579885
 20
481105.3954909837
 10
502864.6157355902
 20
481105.4026660366
 10
502864.6092211332
 20
481105.4097364098
 10
502864.6027587304
 20
481105.4167305078
 10
502864.6027211188
 20
481105.4239483309
 10
502864.6030190008
 20
481105.4310413229
 10
502864.6036085257
 20
481105.4380317177
 10
502864.6044460031
 20
481105.444944559
 10
502864.6066890936
 20
481105.4586208936
 10
502864.6094009191
 20
481105.4722592761
 10
502864.6179788719
 20
481105.4734545311
 10
502864.6270827944
 20
481105.475543317
 10
502864.6361478236
 20
481105.4779148789
 10
502864.6446061252
 20
481105.4799558113
 10
502864.6824176903
 20
481105.4592010188
 10
502864.6850315516
 20
481105.458804143
 10
502864.681730867
 20
481105.4340246888
 10
502864.6798395797
 20
481105.4357226375
 10
502864.6796079222
 20
481105.4098239339
 10
502864.6792818166
 20
481105.4032260001
 10
502864.6786315506
 20
481105.3786425521
 10
502864.6765939381
 20
481105.3787105657
  0
LWPOLYLINE
  5
4A
330
AE7
100
AcDbEntity
  8
Contexts
 62
    34
100
AcDbPolyline
 90
       29
 70
     1
 43
0.0
 10
502864.6155730501
 20
481105.5055290764
 10
502864.6169995792
 20
481105.5183834008
 10
502864.6179485934
 20
481105.5357792813
 10
502864.6181466436
 20
481105.553406817
 10
502864.6181232483
 20
481105.5710822002
 10
502864.6184125415
 20
481105.588628411
 10
502864.6283368345
 20
481105.5890294328
 10
502864.638684049
 20
481105.5890581522
 10
502864.6490553735
 20
481105.58866818
 10
502864.6590488661
 20
481105.5878076656
 10
502864.6573519127
 20
481105.5911863924
 10
502864.6943830736
 20
481105.5610778563
 10
502864.6930907311
 20
481105.5542980484
 10
502864.6921317346
 20
481105.5473061205
 10
502864.6914421477
 20
481105.5401677444
 10
502864.6909598393
 20
481105.5329555395
 10
502864.69037717
 20
481105.5185784784
 10
502864.6898839118
 20
481105.5047320778
 10
502864.6847151579
 20
481105.4777227805
 10
502864.6875202057
 20
481105.4780594333
 10
502864.6850315516
 20
481105.458804143
 10
502864.6824176903
 20
481105.4592010188
 10
502864.6446061252
 20
481105.4799558113
 10
502864.6447043372
 20
481105.4799474031
 10
502864.6380424193
 20
481105.4879693662
 10
502864.6311037356
 20
481105.4958350751
 10
502864.6240408823
 20
481105.5036246678
 10
502864.6170021591
 20
481105.511417117
 10
502864.6155730501
 20
481105.5055290764
  0
LWPOLYLINE
  5
4B
330
AE7
100
AcDbEntity
  8
Contexts
 62
    34
100
AcDbPolyline
 90
       28
 70
     1
 43
0.0
 10
502864.6943830736
 20
481105.5610778563
 10
502864.6573519127
 20
481105.5911863924
 10
502864.6542646917
 20
481105.5967181409
 10
502864.6507468733
 20
481105.6023138684
 10
502864.6468918257
 20
481105.6079048181
 10
502864.6427942421
 20
481105.6134207476
 10
502864.6342379926
 20
481105.6239543241
 10
502864.6258308504
 20
481105.6333670333
 10
502864.6283697315
 20
481105.6377721903
 10
502864.6314523933
 20
481105.6414513412
 10
502864.6351478891
 20
481105.6446021667
 10
502864.6395290881
 20
481105.6474150818
 10
502864.6506254949
 20
481105.6528051766
 10
502864.6652936065
 20
481105.6591706724
 10
502864.6718375228
 20
481105.6622806589
 10
502864.6786172819
 20
481105.6578161256
 10
502864.6853931344
 20
481105.6532333862
 10
502864.6922463122
 20
481105.6488450373
 10
502864.6992547566
 20
481105.6449554042
 10
502864.7208620795
 20
481105.6138818587
 10
502864.7163298118
 20
481105.607943413
 10
502864.7120468465
 20
481105.6016538235
 10
502864.7080208616
 20
481105.5949745869
 10
502864.7042611804
 20
481105.587871336
 10
502864.6992452451
 20
481105.580097983
 10
502864.7005071738
 20
481105.5795299018
 10
502864.6972507847
 20
481105.5712616613
 10
502864.6943830736
 20
481105.5610778563
  0
LWPOLYLINE
  5
4C
330
AE7
100
AcDbEntity
  8
Contexts
 62
    34
100
AcDbPolyline
 90
       30
 70
     1
 43
0.0
 10
502864.7153185121
 20
481105.6956183531
 10
502864.7877019168
 20
481105.6924398058
 10
502864.7876739278
 20
481105.6919479462
 10
502864.7541400776
 20
481105.6926126665
 10
502864.773145543
 20
481105.671735277
 10
502864.7731645879
 20
481105.6554700048
 10
502864.7738710928
 20
481105.653936756
 10
502864.7626527574
 20
481105.6481630671
 10
502864.7577264961
 20
481105.6464004999
 10
502864.7586890132
 20
481105.6458480466
 10
502864.7534002591
 20
481105.6425961429
 10
502864.7482628001
 20
481105.6391537572
 10
502864.7432817777
 20
481105.6355121381
 10
502864.7384620133
 20
481105.6316569124
 10
502864.7338058379
 20
481105.6275794884
 10
502864.7293180731
 20
481105.623265493
 10
502864.7250008895
 20
481105.6187035239
 10
502864.7208620795
 20
481105.6138818587
 10
502864.6992547566
 20
481105.6449554042
 10
502864.7009942423
 20
481105.644058437
 10
502864.6996355663
 20
481105.6479311047
 10
502864.6986588604
 20
481105.6519258428
 10
502864.6979346076
 20
481105.6559964466
 10
502864.6973296348
 20
481105.6601067882
 10
502864.6967177154
 20
481105.664218935
 10
502864.6959640309
 20
481105.6682926233
 10
502864.6949421951
 20
481105.6722871098
 10
502864.6935190346
 20
481105.6761662667
 10
502864.6910609105
 20
481105.674914609
 10
502864.7153185121
 20
481105.6956183531
  0
LWPOLYLINE
  5
4D
330
AE7
100
AcDbEntity
  8
Contexts
 62
    34
100
AcDbPolyline
 90
       35
 70
     1
 43
0.0
 10
502865.0122422177
 20
481105.6693690837
 10
502865.0066142448
 20
481105.6663747497
 10
502865.0008077606
 20
481105.6637120229
 10
502864.9948473073
 20
481105.66134144
 10
502864.9887546158
 20
481105.6592236985
 10
502864.9762581181
 20
481105.6555910127
 10
502864.9634879808
 20
481105.6525011871
 10
502864.9632869815
 20
481105.6533543135
 10
502864.9446000408
 20
481105.6580015543
 10
502864.9277030757
 20
481105.6633576095
 10
502864.9119508117
 20
481105.6687613153
 10
502864.8966882173
 20
481105.6735534734
 10
502864.881268693
 20
481105.677074405
 10
502864.8650400175
 20
481105.6786647519
 10
502864.8473512956
 20
481105.6776636701
 10
502864.827554762
 20
481105.6734157771
 10
502864.8134206106
 20
481105.6691248234
 10
502864.7997332134
 20
481105.6645335241
 10
502864.7865359645
 20
481105.659512522
 10
502864.7738710928
 20
481105.653936756
 10
502864.7731645879
 20
481105.6554700048
 10
502864.773145543
 20
481105.671735277
 10
502864.773752551
 20
481105.671055018
 10
502864.7765465309
 20
481105.6726837357
 10
502864.7791099915
 20
481105.6746963652
 10
502864.7814076517
 20
481105.6770427491
 10
502864.7834053959
 20
481105.6796684343
 10
502864.7850679429
 20
481105.6825232631
 10
502864.7863557159
 20
481105.6855559131
 10
502864.7872375699
 20
481105.6887145817
 10
502864.7876739278
 20
481105.6919479462
 10
502864.7877019168
 20
481105.6924398058
 10
502864.8459960179
 20
481105.6898712589
 10
502864.9652618799
 20
481105.6880599285
 10
502865.0122422177
 20
481105.6693690837
  0
LWPOLYLINE
  5
4E
330
AE7
100
AcDbEntity
  8
Contexts
 62
    34
100
AcDbPolyline
 90
       40
 70
     1
 43
0.0
 10
502864.9632869815
 20
481105.6533543135
 10
502864.9634879808
 20
481105.6525011871
 10
502864.9386922674
 20
481105.6468445226
 10
502864.9289717193
 20
481105.6450192234
 10
502864.9184839577
 20
481105.6438832995
 10
502864.9075557251
 20
481105.6431333654
 10
502864.8965122793
 20
481105.6424647102
 10
502864.8856759072
 20
481105.6415699723
 10
502864.8753735115
 20
481105.6401485769
 10
502864.8659301897
 20
481105.6378930023
 10
502864.8576697143
 20
481105.6344972125
 10
502864.8517779572
 20
481105.6309553534
 10
502864.8458974469
 20
481105.6267192014
 10
502864.8400576376
 20
481105.6218603934
 10
502864.834287823
 20
481105.6164477554
 10
502864.8286159721
 20
481105.610551599
 10
502864.8230659176
 20
481105.6042438809
 10
502864.8176682787
 20
481105.5975919422
 10
502864.812449699
 20
481105.5906675797
 10
502864.790327292
 20
481105.6267373856
 10
502864.790737343
 20
481105.6345627634
 10
502864.7920010587
 20
481105.6442090435
 10
502864.792951294
 20
481105.6490401489
 10
502864.7941111631
 20
481105.6535167284
 10
502864.7954836611
 20
481105.6573693276
 10
502864.7970646765
 20
481105.6603274864
 10
502864.7626527574
 20
481105.6481630671
 10
502864.7738710928
 20
481105.653936756
 10
502864.7865359645
 20
481105.659512522
 10
502864.7997332134
 20
481105.6645335241
 10
502864.8134206106
 20
481105.6691248234
 10
502864.827554762
 20
481105.6734157771
 10
502864.8473512956
 20
481105.6776636701
 10
502864.8650400175
 20
481105.6786647519
 10
502864.881268693
 20
481105.677074405
 10
502864.8966882173
 20
481105.6735534734
 10
502864.9119508117
 20
481105.6687613153
 10
502864.9277030757
 20
481105.6633576095
 10
502864.9446000408
 20
481105.6580015543
 10
502864.9632869815
 20
481105.6533543135
  0
LWPOLYLINE
  5
4F
330
AE7
100
AcDbEntity
  8
Contexts
 62
    34
100
AcDbPolyline
 90
       28
 70
     1
 43
0.0
 10
502864.790351128
 20
481105.6262891024
 10
502864.790327292
 20
481105.6267373856
 10
502864.812449699
 20
481105.5906675797
 10
502864.8067069344
 20
481105.5824350848
 10
502864.7877745026
 20
481105.56262529
 10
502864.7932211429
 20
481105.5604261354
 10
502864.788121403
 20
481105.5508331875
 10
502864.7836657743
 20
481105.5415588726
 10
502864.7799125931
 20
481105.5327859731
 10
502864.7769145747
 20
481105.5246975914
 10
502864.7329007258
 20
481105.5763429695
 10
502864.7344466151
 20
481105.5764044473
 10
502864.7308025932
 20
481105.5855799512
 10
502864.726450156
 20
481105.5948676699
 10
502864.7244323262
 20
481105.5995448122
 10
502864.7227469041
 20
481105.6042411053
 10
502864.7215626874
 20
481105.6089497639
 10
502864.7210489531
 20
481105.6136724339
 10
502864.7208620795
 20
481105.6138818587
 10
502864.7250008895
 20
481105.6187035239
 10
502864.7293180731
 20
481105.623265493
 10
502864.7338058379
 20
481105.6275794884
 10
502864.7384620133
 20
481105.6316569124
 10
502864.7432817777
 20
481105.6355121381
 10
502864.7482628001
 20
481105.6391537572
 10
502864.7534002591
 20
481105.6425961429
 10
502864.7586890132
 20
481105.6458480466
 10
502864.790351128
 20
481105.6262891024
  0
LWPOLYLINE
  5
50
330
AE7
100
AcDbEntity
  8
Contexts
 62
    34
100
AcDbPolyline
 90
       24
 70
     1
 43
0.0
 10
502864.6917889056
 20
481105.5146224291
 10
502864.6898839118
 20
481105.5047320778
 10
502864.69037717
 20
481105.5185784784
 10
502864.6909598393
 20
481105.5329555395
 10
502864.6914421477
 20
481105.5401677444
 10
502864.6921317346
 20
481105.5473061205
 10
502864.6930907311
 20
481105.5542980484
 10
502864.6943830736
 20
481105.5610778563
 10
502864.6972507847
 20
481105.5712616613
 10
502864.7005071738
 20
481105.5795299018
 10
502864.7040240044
 20
481105.5784260564
 10
502864.7079549321
 20
481105.5775876692
 10
502864.7121685889
 20
481105.576985559
 10
502864.7165332871
 20
481105.5765849236
 10
502864.7251979674
 20
481105.5762568203
 10
502864.7329007258
 20
481105.5763429695
 10
502864.7769145747
 20
481105.5246975914
 10
502864.7597449577
 20
481105.4676826904
 10
502864.7563189363
 20
481105.468672809
 10
502864.7182772277
 20
481105.4845160436
 10
502864.7119005105
 20
481105.4921735413
 10
502864.7052656508
 20
481105.4997047419
 10
502864.6985142076
 20
481105.5071692638
 10
502864.6917889056
 20
481105.5146224291
  0
LWPOLYLINE
  5
51
330
AE7
100
AcDbEntity
  8
Contexts
 62
    34
100
AcDbPolyline
 90
       23
 70
     1
 43
0.0
 10
502864.7563189363
 20
481105.468672809
 10
502864.7597449577
 20
481105.4676826904
 10
502864.7482112529
 20
481105.4267099607
 10
502864.7451158384
 20
481105.4160428409
 10
502864.7409633712
 20
481105.4173238432
 10
502864.722806034
 20
481105.4155204278
 10
502864.7231743838
 20
481105.4158491132
 10
502864.718518213
 20
481105.4183374246
 10
502864.7133237753
 20
481105.4204841615
 10
502864.7077862141
 20
481105.4224234354
 10
502864.7020986619
 20
481105.4243035713
 10
502864.6964550966
 20
481105.426262976
 10
502864.6910509815
 20
481105.4284413825
 10
502864.6860778039
 20
481105.4309829794
 10
502864.681730867
 20
481105.4340246888
 10
502864.6850315516
 20
481105.458804143
 10
502864.6875202057
 20
481105.4780594333
 10
502864.695251405
 20
481105.4794382192
 10
502864.7030016132
 20
481105.4812501614
 10
502864.7107245608
 20
481105.4830537857
 10
502864.7183700018
 20
481105.4844120739
 10
502864.7182772277
 20
481105.4845160436
 10
502864.7563189363
 20
481105.468672809
  0
LWPOLYLINE
  5
52
330
AE7
100
AcDbEntity
  8
Contexts
 62
    34
100
AcDbPolyline
 90
       28
 70
     1
 43
0.0
 10
502865.10885732
 20
481105.5430600444
 10
502865.10555046
 20
481105.515545806
 10
502865.1022030701
 20
481105.5161338684
 10
502865.0893832416
 20
481105.5810234515
 10
502865.0900329857
 20
481105.5904100075
 10
502865.0907595006
 20
481105.600972251
 10
502865.0913086821
 20
481105.6062378584
 10
502865.0920605274
 20
481105.6112494367
 10
502865.0930780366
 20
481105.6158257581
 10
502865.0944225647
 20
481105.619781459
 10
502865.0680356256
 20
481105.6105412372
 10
502865.0711023226
 20
481105.6129735672
 10
502865.0742661142
 20
481105.6150309876
 10
502865.0775345868
 20
481105.6167229361
 10
502865.0809138414
 20
481105.6180575244
 10
502865.0844117842
 20
481105.6190498113
 10
502865.0880343564
 20
481105.619705098
 10
502865.0917881387
 20
481105.6200399288
 10
502865.0956818832
 20
481105.6200594446
 10
502865.0993514154
 20
481105.6167334238
 10
502865.1027463081
 20
481105.6130903033
 10
502865.1042150511
 20
481105.6135551625
 10
502865.1064364823
 20
481105.6048497325
 10
502865.1079798925
 20
481105.5957500567
 10
502865.1089500735
 20
481105.5864376838
 10
502865.1094491665
 20
481105.5770971332
 10
502865.1094626927
 20
481105.5590501074
 10
502865.10885732
 20
481105.5430600444
  0
LWPOLYLINE
  5
53
330
AE7
100
AcDbEntity
  8
Contexts
 62
    34
100
AcDbPolyline
 90
       48
 70
     1
 43
0.0
 10
502864.7210074737
 20
481105.249305376
 10
502864.7189231403
 20
481105.2516741261
 10
502864.7171689519
 20
481105.2541213701
 10
502864.7157219439
 20
481105.2566399556
 10
502864.7145636073
 20
481105.2592267064
 10
502864.7136737878
 20
481105.2618743099
 10
502864.7130268701
 20
481105.2645785845
 10
502864.7126084809
 20
481105.2673347087
 10
502864.7123941704
 20
481105.2701342045
 10
502864.7124177904
 20
481105.2749842015
 10
502864.7128790451
 20
481105.2798938873
 10
502864.7136743526
 20
481105.2848268597
 10
502864.7147045874
 20
481105.2897506934
 10
502864.7170402937
 20
481105.2994304335
 10
502864.7190636122
 20
481105.3086500059
 10
502864.7194492925
 20
481105.3110671233
 10
502864.7290555254
 20
481105.3191587226
 10
502864.739205396
 20
481105.327463293
 10
502864.7442404333
 20
481105.3317320475
 10
502864.749116087
 20
481105.3360986931
 10
502864.753734465
 20
481105.3405772595
 10
502864.7579963498
 20
481105.3451832614
 10
502864.7903389238
 20
481105.3672639884
 10
502864.8052099482
 20
481105.3664177633
 10
502864.8054439462
 20
481105.3615361882
 10
502864.8051900829
 20
481105.3567528679
 10
502864.804580298
 20
481105.3520574743
 10
502864.8037437202
 20
481105.34743984
 10
502864.8019217604
 20
481105.3383892719
 10
502864.8007711276
 20
481105.3295162118
 10
502864.7933765553
 20
481105.3367536859
 10
502864.7920215412
 20
481105.3177976313
 10
502864.7898367557
 20
481105.2983572757
 10
502864.7889214894
 20
481105.2886404123
 10
502864.7883842631
 20
481105.2790261049
 10
502864.7884236481
 20
481105.2695848258
 10
502864.7892301038
 20
481105.2603931488
 10
502864.7900955337
 20
481105.2590017119
 10
502864.7878297211
 20
481105.2576361907
 10
502864.7798638401
 20
481105.2535454927
 10
502864.7717243571
 20
481105.2504177413
 10
502864.7634467363
 20
481105.2482072125
 10
502864.7550636316
 20
481105.2468683427
 10
502864.7466047262
 20
481105.2463529171
 10
502864.7381028341
 20
481105.2466181822
 10
502864.7295930995
 20
481105.2476127934
 10
502864.7211056857
 20
481105.2492969676
 10
502864.7210074737
 20
481105.249305376
  0
LWPOLYLINE
  5
54
330
AE7
100
AcDbEntity
  8
Contexts
 62
    34
100
AcDbPolyline
 90
       13
 70
     1
 43
0.0
 10
502864.8201829214
 20
481105.3891908237
 10
502864.8262951407
 20
481105.3855072747
 10
502864.8329464266
 20
481105.382179353
 10
502864.8363894974
 20
481105.380745567
 10
502864.839868214
 20
481105.3795170028
 10
502864.8433466319
 20
481105.378530952
 10
502864.8467932628
 20
481105.3778286828
 10
502864.8466630472
 20
481105.3798761655
 10
502864.8461419162
 20
481105.3871694382
 10
502864.8455705372
 20
481105.3943725192
 10
502864.8451113775
 20
481105.4015903622
 10
502864.8449307204
 20
481105.4089206551
 10
502864.8201829214
 20
481105.3891908237
  0
LWPOLYLINE
  5
55
330
AE7
100
AcDbEntity
  8
Contexts
 62
    34
100
AcDbPolyline
 90
      106
 70
     1
 43
0.0
 10
502864.8689325979
 20
481105.4373946116
 10
502864.8689325979
 20
481105.4373946116
 10
502864.8685674183
 20
481105.434371496
 10
502864.8695482858
 20
481105.4299295943
 10
502864.8714865545
 20
481105.4244984727
 10
502864.8739877973
 20
481105.4185052066
 10
502864.8766650134
 20
481105.4123834984
 10
502864.8791251012
 20
481105.4065589381
 10
502864.880976604
 20
481105.4014612522
 10
502864.8818336866
 20
481105.3975198467
 10
502864.888655105
 20
481105.4035987238
 10
502864.8950386351
 20
481105.4100098687
 10
502864.9013326133
 20
481105.4164825043
 10
502864.9078881865
 20
481105.4227456927
 10
502864.8798847629
 20
481105.4332382677
 10
502864.8862551691
 20
481105.4335468596
 10
502864.8925911262
 20
481105.4323333487
 10
502864.8987982595
 20
481105.4298470123
 10
502864.9047732826
 20
481105.4263291751
 10
502864.9104190106
 20
481105.4220292733
 10
502864.9156379381
 20
481105.4171911227
 10
502864.9203299094
 20
481105.4120615094
 10
502864.9243946089
 20
481105.4068844085
 10
502864.9137329152
 20
481105.3900313519
 10
502864.9134881815
 20
481105.3833272774
 10
502864.9141473295
 20
481105.376130481
 10
502864.9154708614
 20
481105.3685927576
 10
502864.9172234147
 20
481105.3608642569
 10
502864.9191711125
 20
481105.3530964545
 10
502864.9210744565
 20
481105.3454411454
 10
502864.9227008951
 20
481105.3380483195
 10
502864.9238109302
 20
481105.331069772
 10
502864.9241002713
 20
481105.3300100081
 10
502864.9130757399
 20
481105.3266262889
 10
502864.9020040665
 20
481105.3234299444
 10
502864.8909479539
 20
481105.3203088472
 10
502864.8799715902
 20
481105.3171521947
 10
502864.8691361928
 20
481105.3138465344
 10
502864.8585032992
 20
481105.3102840344
 10
502864.8481366177
 20
481105.3063454608
 10
502864.8380978453
 20
481105.3019257922
 10
502864.8314932426
 20
481105.2980466537
 10
502864.8253166155
 20
481105.2931407483
 10
502864.8194427406
 20
481105.2875098636
 10
502864.8137406137
 20
481105.2814532957
 10
502864.8080850113
 20
481105.2752728321
 10
502864.802345089
 20
481105.2692705799
 10
502864.7963898425
 20
481105.2637458356
 10
502864.7900955337
 20
481105.2590017119
 10
502864.7892301038
 20
481105.2603931488
 10
502864.8274997935
 20
481105.2992481139
 10
502864.8208966044
 20
481105.3068155788
 10
502864.8142929804
 20
481105.3145240547
 10
502864.8076104764
 20
481105.3221594768
 10
502864.8007711276
 20
481105.3295162118
 10
502864.8019217604
 20
481105.3383892719
 10
502864.8037437202
 20
481105.34743984
 10
502864.804580298
 20
481105.3520574743
 10
502864.8051900829
 20
481105.3567528679
 10
502864.8054439462
 20
481105.3615361882
 10
502864.8052099482
 20
481105.3664177633
 10
502864.7903389238
 20
481105.3672639884
 10
502864.7579963498
 20
481105.3451832614
 10
502864.7632999808
 20
481105.3518927144
 10
502864.7547832921
 20
481105.3541030239
 10
502864.7459467881
 20
481105.3560199522
 10
502864.7372062803
 20
481105.3577904316
 10
502864.7289721193
 20
481105.3595645246
 10
502864.7220847383
 20
481105.3267823519
 10
502864.7244475416
 20
481105.34070424
 10
502864.7271427751
 20
481105.3547200002
 10
502864.7286911118
 20
481105.361712229
 10
502864.730412108
 20
481105.3686664355
 10
502864.7323383715
 20
481105.375561026
 10
502864.7344985345
 20
481105.3823788628
 10
502864.7451158384
 20
481105.4160428409
 10
502864.7482112529
 20
481105.4267099607
 10
502864.7623535683
 20
481105.4226709748
 10
502864.7658538781
 20
481105.41421563
 10
502864.7656092215
 20
481105.4134343889
 10
502864.7667008695
 20
481105.4125249413
 10
502864.7692909901
 20
481105.4082917671
 10
502864.7721182973
 20
481105.4045103512
 10
502864.775119906
 20
481105.4012152886
 10
502864.7782344162
 20
481105.3984425004
 10
502864.7814002683
 20
481105.3962250967
 10
502864.7845519264
 20
481105.3946006435
 10
502864.7876306415
 20
481105.3936020909
 10
502864.7905735284
 20
481105.3932640346
 10
502864.7935710464
 20
481105.3936630479
 10
502864.7962469823
 20
481105.3949516563
 10
502864.7985207415
 20
481105.3971753324
 10
502864.8003114098
 20
481105.4003739267
 10
502864.8015372274
 20
481105.4045972075
 10
502864.8021161145
 20
481105.4098893218
 10
502864.801971453
 20
481105.4162912858
 10
502864.8010186722
 20
481105.4238530276
 10
502864.8094430389
 20
481105.4407826425
 10
502864.8142645489
 20
481105.4432067571
 10
502864.8193065469
 20
481105.4452193336
 10
502864.8245311238
 20
481105.4468479066
 10
502864.8299061513
 20
481105.4481225018
 10
502864.8282454438
 20
481105.4434417945
 10
502864.8454339759
 20
481105.4501220734
 10
502864.8572430563
 20
481105.4504947949
 10
502864.8689325979
 20
481105.4373946116
  0
LWPOLYLINE
  5
56
330
AE7
100
AcDbEntity
  8
Contexts
 62
    34
100
AcDbPolyline
 90
        7
 70
     1
 43
0.0
 10
502864.8921469476
 20
481105.4957587876
 10
502864.8939821073
 20
481105.5279839449
 10
502864.8898034633
 20
481105.5240231534
 10
502864.8854918733
 20
481105.5202532095
 10
502864.8809500378
 20
481105.5168967688
 10
502864.8760879242
 20
481105.514180303
 10
502864.8921469476
 20
481105.4957587876
  0
LWPOLYLINE
  5
57
330
AE7
100
AcDbEntity
  8
Contexts
 62
    34
100
AcDbPolyline
 90
       10
 70
     1
 43
0.0
 10
502864.877879184
 20
481105.6383212063
 10
502864.877879184
 20
481105.6383212063
 10
502864.8965586147
 20
481105.6178091959
 10
502864.9000022039
 20
481105.6248331532
 10
502864.9031675453
 20
481105.631179291
 10
502864.905077678
 20
481105.6341483289
 10
502864.9074340383
 20
481105.6370059727
 10
502864.9104085081
 20
481105.6397748687
 10
502864.9141741352
 20
481105.6424733669
 10
502864.877879184
 20
481105.6383212063
  0
LWPOLYLINE
  5
58
330
AE7
100
AcDbEntity
  8
Contexts
 62
    34
100
AcDbPolyline
 90
       17
 70
     1
 43
0.0
 10
502864.8972668642
 20
481105.5638557035
 10
502864.8972668642
 20
481105.5638557035
 10
502864.874453363
 20
481105.5999704751
 10
502864.8735242775
 20
481105.5967002952
 10
502864.8722636735
 20
481105.5937239035
 10
502864.8707537223
 20
481105.5909492127
 10
502864.86907543
 20
481105.5882884311
 10
502864.8655401765
 20
481105.5829488376
 10
502864.8623036758
 20
481105.5769874124
 10
502864.8654954495
 20
481105.5733177837
 10
502864.8694277357
 20
481105.5708184997
 10
502864.8738990854
 20
481105.5691950829
 10
502864.8787065638
 20
481105.5681517311
 10
502864.8836485621
 20
481105.5673911566
 10
502864.8885236311
 20
481105.5666188821
 10
502864.8931303214
 20
481105.5655404304
 10
502864.8972668642
 20
481105.5638557035
  0
LWPOLYLINE
  5
59
330
AE7
100
AcDbEntity
  8
Contexts
 62
    34
100
AcDbPolyline
 90
       13
 70
     1
 43
0.0
 10
502865.004822006
 20
481105.6621822909
 10
502865.004822006
 20
481105.6621822909
 10
502864.9530904484
 20
481105.6489619506
 10
502864.978862212
 20
481105.6202864659
 10
502864.9812129611
 20
481105.6178673091
 10
502864.9851376602
 20
481105.6227913894
 10
502864.9881658803
 20
481105.6283135104
 10
502864.9906081626
 20
481105.6342172102
 10
502864.9927730373
 20
481105.6403002397
 10
502864.9949682351
 20
481105.6463462972
 10
502864.9975006409
 20
481105.6521489977
 10
502865.0006839263
 20
481105.6574973408
 10
502865.004822006
 20
481105.6621822909
  0
LWPOLYLINE
  5
5A
330
AE7
100
AcDbEntity
  8
Contexts
 62
    34
100
AcDbPolyline
 90
      177
 70
     1
 43
0.0
 10
502864.9634879808
 20
481105.6525011871
 10
502864.9634879808
 20
481105.6525011871
 10
502864.9762581181
 20
481105.6555910127
 10
502864.9887546158
 20
481105.6592236985
 10
502864.9948473073
 20
481105.66134144
 10
502865.0008077606
 20
481105.6637120229
 10
502865.0066142448
 20
481105.6663747497
 10
502865.0122422177
 20
481105.6693690837
 10
502865.0819885868
 20
481105.6416270931
 10
502865.0893088942
 20
481105.6417561535
 10
502865.0892844402
 20
481105.6387249281
 10
502865.091854464
 20
481105.6362693259
 10
502865.0942053976
 20
481105.6335808745
 10
502865.0963467924
 20
481105.6306787686
 10
502865.0982867146
 20
481105.6275808775
 10
502865.1000330704
 20
481105.6243022595
 10
502865.1015995471
 20
481105.6208604642
 10
502865.1029899151
 20
481105.6172721955
 10
502865.1042150511
 20
481105.6135551625
 10
502865.1027463081
 20
481105.6130903033
 10
502865.0993514154
 20
481105.6167334238
 10
502865.0956818832
 20
481105.6200594446
 10
502865.0917881387
 20
481105.6200399288
 10
502865.0880343564
 20
481105.619705098
 10
502865.0844117842
 20
481105.6190498113
 10
502865.0809138414
 20
481105.6180575244
 10
502865.0775345868
 20
481105.6167229361
 10
502865.0742661142
 20
481105.6150309876
 10
502865.0711023226
 20
481105.6129735672
 10
502865.0680356256
 20
481105.6105412372
 10
502865.0639723844
 20
481105.6090792068
 10
502865.0651400132
 20
481105.6077706738
 10
502865.0893832416
 20
481105.5810234515
 10
502865.1022030701
 20
481105.5161338684
 10
502865.10555046
 20
481105.515545806
 10
502865.1032863993
 20
481105.5044493055
 10
502865.1004264645
 20
481105.4931385769
 10
502865.096979726
 20
481105.481797796
 10
502865.0929478282
 20
481105.4706045122
 10
502865.102665378
 20
481105.5024304728
 10
502865.0968632122
 20
481105.4998436329
 10
502865.0904384306
 20
481105.4980591883
 10
502865.0835742051
 20
481105.4969017618
 10
502865.076449731
 20
481105.4962004319
 10
502865.0621497533
 20
481105.4954619021
 10
502865.048992788
 20
481105.4944440305
 10
502865.0575300519
 20
481105.483378606
 10
502865.0659893285
 20
481105.4720328267
 10
502865.0745605951
 20
481105.4608216611
 10
502865.0834280479
 20
481105.4501575868
 10
502865.0807175607
 20
481105.4454125485
 10
502865.077870997
 20
481105.4408528966
 10
502865.0748881509
 20
481105.4364997903
 10
502865.0717674912
 20
481105.432375875
 10
502865.0685102977
 20
481105.4285036354
 10
502865.0651151989
 20
481105.4249085272
 10
502865.0615805039
 20
481105.4216103847
 10
502865.0579089774
 20
481105.4186330182
 10
502865.0490340478
 20
481105.4117729115
 10
502865.0397474223
 20
481105.4043426796
 10
502865.0301088085
 20
481105.396499649
 10
502865.0201727727
 20
481105.3884098984
 10
502865.0099976971
 20
481105.3802322401
 10
502864.9996366628
 20
481105.3721314272
 10
502864.9891493774
 20
481105.3642647868
 10
502864.9785904071
 20
481105.3567983971
 10
502864.9683424971
 20
481105.3501404869
 10
502864.9581261853
 20
481105.3441617429
 10
502864.9530469679
 20
481105.3414703202
 10
502864.9479942786
 20
481105.3389973266
 10
502864.9429750183
 20
481105.3367649273
 10
502864.9379984185
 20
481105.3347866958
 10
502864.9241002713
 20
481105.3300100081
 10
502864.9238109302
 20
481105.331069772
 10
502864.9698387811
 20
481105.3533191765
 10
502864.964262581
 20
481105.3586922577
 10
502864.9578371845
 20
481105.3638838539
 10
502864.9507813409
 20
481105.3688730584
 10
502864.9433152846
 20
481105.3736402894
 10
502864.9356589298
 20
481105.378160344
 10
502864.9280297004
 20
481105.3824138009
 10
502864.9206476707
 20
481105.3863782676
 10
502864.9137329152
 20
481105.3900313519
 10
502864.9243946089
 20
481105.4068844085
 10
502864.9203299094
 20
481105.4120615094
 10
502864.9156379381
 20
481105.4171911227
 10
502864.9104190106
 20
481105.4220292733
 10
502864.9047732826
 20
481105.4263291751
 10
502864.8987982595
 20
481105.4298470123
 10
502864.8925911262
 20
481105.4323333487
 10
502864.8862551691
 20
481105.4335468596
 10
502864.8798847629
 20
481105.4332382677
 10
502864.8689325979
 20
481105.4373946116
 10
502864.8572430563
 20
481105.4504947949
 10
502864.8454339759
 20
481105.4501220734
 10
502864.8562151663
 20
481105.4542837858
 10
502864.8502689367
 20
481105.4611568703
 10
502864.8442331318
 20
481105.4681901371
 10
502864.8380378771
 20
481105.474923717
 10
502864.8316190796
 20
481105.4809002318
 10
502864.8298870965
 20
481105.4769242829
 10
502864.829109881
 20
481105.4729038725
 10
502864.8290257247
 20
481105.4688482539
 10
502864.8293765757
 20
481105.4647566024
 10
502864.8299005661
 20
481105.4606353605
 10
502864.830336993
 20
481105.4564866744
 10
502864.8304253138
 20
481105.4523155012
 10
502864.8299061513
 20
481105.4481225018
 10
502864.8245311238
 20
481105.4468479066
 10
502864.8193065469
 20
481105.4452193336
 10
502864.8142645489
 20
481105.4432067571
 10
502864.8094430389
 20
481105.4407826425
 10
502864.8010186722
 20
481105.4238530276
 10
502864.801971453
 20
481105.4162912858
 10
502864.8021161145
 20
481105.4098893218
 10
502864.8015372274
 20
481105.4045972075
 10
502864.8003114098
 20
481105.4003739267
 10
502864.7985207415
 20
481105.3971753324
 10
502864.7962469823
 20
481105.3949516563
 10
502864.7935710464
 20
481105.3936630479
 10
502864.7905735284
 20
481105.3932640346
 10
502864.7905791261
 20
481105.3933624065
 10
502864.7897221634
 20
481105.4037229148
 10
502864.7880781002
 20
481105.4158355576
 10
502864.7869203817
 20
481105.4219018169
 10
502864.7855219569
 20
481105.4276278976
 10
502864.7838596797
 20
481105.432755702
 10
502864.7819244575
 20
481105.4370263324
 10
502864.7791014148
 20
481105.4348621101
 10
502864.7764416647
 20
481105.4323713768
 10
502864.7739786372
 20
481105.4296213129
 10
502864.7717469276
 20
481105.4266748038
 10
502864.769784102
 20
481105.4235973851
 10
502864.7681247559
 20
481105.4204519422
 10
502864.7668021593
 20
481105.4173028452
 10
502864.7658538781
 20
481105.41421563
 10
502864.7623535683
 20
481105.4226709748
 10
502864.7482112529
 20
481105.4267099607
 10
502864.7597449577
 20
481105.4676826904
 10
502864.7769145747
 20
481105.5246975914
 10
502864.7799125931
 20
481105.5327859731
 10
502864.7836657743
 20
481105.5415588726
 10
502864.788121403
 20
481105.5508331875
 10
502864.7932211429
 20
481105.5604261354
 10
502864.8000539967
 20
481105.5575883833
 10
502864.8069711682
 20
481105.5549192464
 10
502864.8104831548
 20
481105.5537550524
 10
502864.8140458915
 20
481105.5527642037
 10
502864.817668564
 20
481105.5519842434
 10
502864.8213580273
 20
481105.5514613074
 10
502864.8213854837
 20
481105.5567255861
 10
502864.8207797494
 20
481105.5620117975
 10
502864.8197963857
 20
481105.5673265469
 10
502864.8186921192
 20
481105.5726721439
 10
502864.8177225112
 20
481105.5780551939
 10
502864.8171442882
 20
481105.5834780064
 10
502864.8172130115
 20
481105.5889471868
 10
502864.8181855676
 20
481105.5944678553
 10
502864.8067069344
 20
481105.5824350848
 10
502864.812449699
 20
481105.5906675797
 10
502864.8176682787
 20
481105.5975919422
 10
502864.8230659176
 20
481105.6042438809
 10
502864.8286159721
 20
481105.610551599
 10
502864.834287823
 20
481105.6164477554
 10
502864.8400576376
 20
481105.6218603934
 10
502864.8458974469
 20
481105.6267192014
 10
502864.8517779572
 20
481105.6309553534
 10
502864.8576697143
 20
481105.6344972125
 10
502864.8659301897
 20
481105.6378930023
 10
502864.8753735115
 20
481105.6401485769
 10
502864.8856759072
 20
481105.6415699723
 10
502864.8965122793
 20
481105.6424647102
 10
502864.9075557251
 20
481105.6431333654
 10
502864.9184839577
 20
481105.6438832995
 10
502864.9289717193
 20
481105.6450192234
 10
502864.9386922674
 20
481105.6468445226
 10
502864.9634879808
 20
481105.6525011871
  0
LWPOLYLINE
  5
5B
330
AE7
100
AcDbEntity
  8
Contexts
 62
    34
100
AcDbPolyline
 90
      163
 70
     1
 43
0.0
 10
502865.2502414698
 20
481105.7070561237
 10
502865.247484712
 20
481105.7093024131
 10
502865.0547016812
 20
481105.730219184
 10
502864.8794097114
 20
481105.752627638
 10
502864.7796936609
 20
481105.7483553206
 10
502864.4478146331
 20
481105.7722160711
 10
502863.9724470855
 20
481105.8092145238
 10
502863.928029478
 20
481105.8589922502
 10
502864.0899717053
 20
481106.0014233976
 10
502864.6349537089
 20
481105.9580259291
 10
502864.8708637511
 20
481105.9520612241
 10
502865.1893621123
 20
481105.9115571229
 10
502865.1904107211
 20
481105.9124928164
 10
502865.3202770267
 20
481105.7648439803
 10
502865.7557391524
 20
481106.1628274713
 10
502866.3074497337
 20
481105.5445389166
 10
502864.8088852941
 20
481104.2073415
 10
502864.268217631
 20
481104.8448962528
 10
502864.5826027243
 20
481105.1254280226
 10
502864.0495940844
 20
481105.7227577691
 10
502864.0522126358
 20
481105.7250943522
 10
502864.1863508476
 20
481105.7224353114
 10
502864.3817539152
 20
481105.7038564489
 10
502864.6549867985
 20
481105.6982549136
 10
502864.7153185121
 20
481105.6956183531
 10
502864.6910609105
 20
481105.674914609
 10
502864.6691944281
 20
481105.663873353
 10
502864.6718375228
 20
481105.6622806589
 10
502864.6652936065
 20
481105.6591706724
 10
502864.6506254949
 20
481105.6528051766
 10
502864.6395290881
 20
481105.6474150818
 10
502864.6351478891
 20
481105.6446021667
 10
502864.6314523933
 20
481105.6414513412
 10
502864.6283697315
 20
481105.6377721903
 10
502864.6258308504
 20
481105.6333670333
 10
502864.6252225171
 20
481105.6340487775
 10
502864.6245064485
 20
481105.6302109897
 10
502864.6244529784
 20
481105.6301632772
 10
502864.6230280413
 20
481105.6258103408
 10
502864.6218075071
 20
481105.620812744
 10
502864.6207701936
 20
481105.6150955598
 10
502864.6198950786
 20
481105.6085866714
 10
502864.6194501131
 20
481105.6042357749
 10
502864.6164155584
 20
481105.5885432572
 10
502864.6184125415
 20
481105.588628411
 10
502864.6181232483
 20
481105.5710822002
 10
502864.6181466436
 20
481105.553406817
 10
502864.6179485934
 20
481105.5357792813
 10
502864.6169995792
 20
481105.5183834008
 10
502864.6155730501
 20
481105.5055290764
 10
502864.6073083747
 20
481105.4721795602
 10
502864.6094009191
 20
481105.4722592761
 10
502864.6066890936
 20
481105.4586208936
 10
502864.6044460031
 20
481105.444944559
 10
502864.6036085257
 20
481105.4380317177
 10
502864.6030190008
 20
481105.4310413229
 10
502864.6027211188
 20
481105.4239483309
 10
502864.6027587304
 20
481105.4167305078
 10
502864.5993882419
 20
481105.4204060765
 10
502864.6041451
 20
481105.372885217
 10
502864.6054256442
 20
481105.3735609861
 10
502864.6062004886
 20
481105.3657711027
 10
502864.6072865577
 20
481105.3580988562
 10
502864.6087886901
 20
481105.3505284117
 10
502864.6108089139
 20
481105.3430440946
 10
502864.6134505827
 20
481105.3356287443
 10
502864.6168157243
 20
481105.3282666862
 10
502864.6210119882
 20
481105.3209419256
 10
502864.6261387517
 20
481105.313641758
 10
502864.6243791652
 20
481105.3132935493
 10
502864.6360284548
 20
481105.3021370387
 10
502864.6530477857
 20
481105.2857009505
 10
502864.6532864843
 20
481105.2855351023
 10
502864.6573878742
 20
481105.281572626
 10
502864.6570858757
 20
481105.2823356288
 10
502864.6643151593
 20
481105.2767274938
 10
502864.6718253435
 20
481105.2714473811
 10
502864.6795839342
 20
481105.2665436651
 10
502864.6875624139
 20
481105.2620602649
 10
502864.695727123
 20
481105.2580498504
 10
502864.7040437626
 20
481105.2545538501
 10
502864.7124814841
 20
481105.2516247742
 10
502864.7210074737
 20
481105.249305376
 10
502864.7211056857
 20
481105.2492969676
 10
502864.7295930995
 20
481105.2476127934
 10
502864.7381028341
 20
481105.2466181822
 10
502864.7466047262
 20
481105.2463529171
 10
502864.7550636316
 20
481105.2468683427
 10
502864.7634467363
 20
481105.2482072125
 10
502864.7717243571
 20
481105.2504177413
 10
502864.7798638401
 20
481105.2535454927
 10
502864.7878297211
 20
481105.2576361907
 10
502864.7900955337
 20
481105.2590017119
 10
502864.7963898425
 20
481105.2637458356
 10
502864.802345089
 20
481105.2692705799
 10
502864.8080850113
 20
481105.2752728321
 10
502864.8137406137
 20
481105.2814532957
 10
502864.8194427406
 20
481105.2875098636
 10
502864.8253166155
 20
481105.2931407483
 10
502864.8314932426
 20
481105.2980466537
 10
502864.8380978453
 20
481105.3019257922
 10
502864.8481366177
 20
481105.3063454608
 10
502864.8585032992
 20
481105.3102840344
 10
502864.8691361928
 20
481105.3138465344
 10
502864.8799715902
 20
481105.3171521947
 10
502864.8909479539
 20
481105.3203088472
 10
502864.9020040665
 20
481105.3234299444
 10
502864.9130757399
 20
481105.3266262889
 10
502864.9241002713
 20
481105.3300100081
 10
502864.9379984185
 20
481105.3347866958
 10
502864.9429750183
 20
481105.3367649273
 10
502864.9479942786
 20
481105.3389973266
 10
502864.9530469679
 20
481105.3414703202
 10
502864.9581261853
 20
481105.3441617429
 10
502864.9683424971
 20
481105.3501404869
 10
502864.9785904071
 20
481105.3567983971
 10
502864.9891493774
 20
481105.3642647868
 10
502864.9996366628
 20
481105.3721314272
 10
502865.0099976971
 20
481105.3802322401
 10
502865.0201727727
 20
481105.3884098984
 10
502865.0301088085
 20
481105.396499649
 10
502865.0397474223
 20
481105.4043426796
 10
502865.0490340478
 20
481105.4117729115
 10
502865.0579089774
 20
481105.4186330182
 10
502865.0615805039
 20
481105.4216103847
 10
502865.0651151989
 20
481105.4249085272
 10
502865.0685102977
 20
481105.4285036354
 10
502865.0717674912
 20
481105.432375875
 10
502865.0748881509
 20
481105.4364997903
 10
502865.077870997
 20
481105.4408528966
 10
502865.0807175607
 20
481105.4454125485
 10
502865.0834280479
 20
481105.4501575868
 10
502865.0858587304
 20
481105.4474335804
 10
502865.0928311776
 20
481105.4703136688
 10
502865.0929478282
 20
481105.4706045122
 10
502865.096979726
 20
481105.481797796
 10
502865.1004264645
 20
481105.4931385769
 10
502865.1032863993
 20
481105.5044493055
 10
502865.10555046
 20
481105.515545806
 10
502865.10885732
 20
481105.5430600444
 10
502865.1094626927
 20
481105.5590501074
 10
502865.1094491665
 20
481105.5770971332
 10
502865.1089500735
 20
481105.5864376838
 10
502865.1079798925
 20
481105.5957500567
 10
502865.1064364823
 20
481105.6048497325
 10
502865.1042150511
 20
481105.6135551625
 10
502865.1029899151
 20
481105.6172721955
 10
502865.1015995471
 20
481105.6208604642
 10
502865.1000330704
 20
481105.6243022595
 10
502865.0982867146
 20
481105.6275808775
 10
502865.0963467924
 20
481105.6306787686
 10
502865.0942053976
 20
481105.6335808745
 10
502865.091854464
 20
481105.6362693259
 10
502865.0892844402
 20
481105.6387249281
 10
502865.0893088942
 20
481105.6417561535
 10
502865.1138682085
 20
481105.6416232708
 10
502865.1394215932
 20
481105.6414676582
 10
502865.1648375012
 20
481105.6424886453
 10
502865.1889853911
 20
481105.6458784564
 10
502865.2107307452
 20
481105.6528337708
 10
502865.2289433419
 20
481105.6645524332
 10
502865.2424913141
 20
481105.6822281527
 10
502865.2502414698
 20
481105.7070561237
  0
LWPOLYLINE
  5
5C
330
AE7
100
AcDbEntity
  8
Contexts
100
AcDbPolyline
 90
        4
 70
     1
 43
0.0
 10
502864.7187140781
 20
481105.3104110775
 10
502864.7219228256
 20
481105.3256961014
 10
502864.7194492925
 20
481105.3110671233
 10
502864.7187140781
 20
481105.3104110775
  0
LWPOLYLINE
  5
5D
330
AE7
100
AcDbEntity
  8
Contexts
100
AcDbPolyline
 90
        4
 70
     1
 43
0.0
 10
502864.7577264961
 20
481105.6464004999
 10
502864.7626527574
 20
481105.6481630671
 10
502864.7586890132
 20
481105.6458480466
 10
502864.7577264961
 20
481105.6464004999
  0
LWPOLYLINE
  5
5E
330
AE7
100
AcDbEntity
  8
Contexts
100
AcDbPolyline
 90
       16
 70
     1
 43
0.0
 10
502864.874453363
 20
481105.5999704751
 10
502864.8972668642
 20
481105.5638557035
 10
502864.8931303214
 20
481105.5655404304
 10
502864.8885236311
 20
481105.5666188821
 10
502864.8836485621
 20
481105.5673911566
 10
502864.8787065638
 20
481105.5681517311
 10
502864.8738990854
 20
481105.5691950829
 10
502864.8694277357
 20
481105.5708184997
 10
502864.8654954495
 20
481105.5733177837
 10
502864.8623036758
 20
481105.5769874124
 10
502864.8655401765
 20
481105.5829488376
 10
502864.86907543
 20
481105.5882884311
 10
502864.8707537223
 20
481105.5909492127
 10
502864.8722636735
 20
481105.5937239035
 10
502864.8735242775
 20
481105.5967002952
 10
502864.874453363
 20
481105.5999704751
  0
LWPOLYLINE
  5
5F
330
AE7
100
AcDbEntity
  8
Contexts
100
AcDbPolyline
 90
        4
 70
     1
 43
0.0
 10
502864.6532864843
 20
481105.2855351023
 10
502864.6570858757
 20
481105.2823356288
 10
502864.6573878742
 20
481105.281572626
 10
502864.6532864843
 20
481105.2855351023
  0
LWPOLYLINE
  5
60
330
AE7
100
AcDbEntity
  8
Contexts
100
AcDbPolyline
 90
       13
 70
     1
 43
0.0
 10
502864.6917889056
 20
481105.5146224291
 10
502864.6985142076
 20
481105.5071692638
 10
502864.7052656508
 20
481105.4997047419
 10
502864.7119005105
 20
481105.4921735413
 10
502864.7182772277
 20
481105.4845160436
 10
502864.7183700018
 20
481105.4844120739
 10
502864.7107245608
 20
481105.4830537857
 10
502864.7030016132
 20
481105.4812501614
 10
502864.695251405
 20
481105.4794382192
 10
502864.6875202057
 20
481105.4780594333
 10
502864.6894042616
 20
481105.496303009
 10
502864.6898839118
 20
481105.5047320778
 10
502864.6917889056
 20
481105.5146224291
  0
LWPOLYLINE
  5
61
330
AE7
100
AcDbEntity
  8
Contexts
100
AcDbPolyline
 90
        4
 70
     1
 43
0.0
 10
502864.6164155584
 20
481105.5885432572
 10
502864.6194501131
 20
481105.6042357749
 10
502864.6184125415
 20
481105.588628411
 10
502864.6164155584
 20
481105.5885432572
  0
LWPOLYLINE
  5
62
330
AE7
100
AcDbEntity
  8
Contexts
100
AcDbPolyline
 90
       15
 70
     1
 43
0.0
 10
502864.8798847629
 20
481105.4332382677
 10
502864.9078881865
 20
481105.4227456927
 10
502864.9013326133
 20
481105.4164825043
 10
502864.8950386351
 20
481105.4100098687
 10
502864.888655105
 20
481105.4035987238
 10
502864.8818336866
 20
481105.3975198467
 10
502864.880976604
 20
481105.4014612522
 10
502864.8791251012
 20
481105.4065589381
 10
502864.8766650134
 20
481105.4123834984
 10
502864.8739877973
 20
481105.4185052066
 10
502864.8714865545
 20
481105.4244984727
 10
502864.8695482858
 20
481105.4299295943
 10
502864.8685674183
 20
481105.434371496
 10
502864.8689325979
 20
481105.4373946116
 10
502864.8798847629
 20
481105.4332382677
  0
LWPOLYLINE
  5
63
330
AE7
100
AcDbEntity
  8
Contexts
100
AcDbPolyline
 90
       12
 70
     1
 43
0.0
 10
502864.7541400776
 20
481105.6926126665
 10
502864.7876739278
 20
481105.6919479462
 10
502864.7872375699
 20
481105.6887145817
 10
502864.7863557159
 20
481105.6855559131
 10
502864.7850679429
 20
481105.6825232631
 10
502864.7834053959
 20
481105.6796684343
 10
502864.7814076517
 20
481105.6770427491
 10
502864.7791099915
 20
481105.6746963652
 10
502864.7765465309
 20
481105.6726837357
 10
502864.773752551
 20
481105.671055018
 10
502864.773145543
 20
481105.671735277
 10
502864.7541400776
 20
481105.6926126665
  0
LWPOLYLINE
  5
64
330
AE7
100
AcDbEntity
  8
Contexts
100
AcDbPolyline
 90
        7
 70
     1
 43
0.0
 10
502864.8939821073
 20
481105.5279839449
 10
502864.8921469476
 20
481105.4957587876
 10
502864.8760879242
 20
481105.514180303
 10
502864.8809500378
 20
481105.5168967688
 10
502864.8854918733
 20
481105.5202532095
 10
502864.8898034633
 20
481105.5240231534
 10
502864.8939821073
 20
481105.5279839449
  0
LWPOLYLINE
  5
65
330
AE7
100
AcDbEntity
  8
Contexts
100
AcDbPolyline
 90
        4
 70
     1
 43
0.0
 10
502864.7656092215
 20
481105.4134343889
 10
502864.7658538781
 20
481105.41421563
 10
502864.7667008695
 20
481105.4125249413
 10
502864.7656092215
 20
481105.4134343889
  0
LWPOLYLINE
  5
66
330
AE7
100
AcDbEntity
  8
Contexts
100
AcDbPolyline
 90
       21
 70
     1
 43
0.0
 10
502864.6610146054
 20
481105.3260307331
 10
502864.6637987642
 20
481105.3269170116
 10
502864.6641409416
 20
481105.3213102501
 10
502864.6632753972
 20
481105.3154155177
 10
502864.6616366118
 20
481105.3093857334
 10
502864.6596613968
 20
481105.3033652243
 10
502864.6577839128
 20
481105.2975012882
 10
502864.6564384807
 20
481105.2919440335
 10
502864.6560605862
 20
481105.2868392727
 10
502864.6570858757
 20
481105.2823356288
 10
502864.6532864843
 20
481105.2855351023
 10
502864.6530477857
 20
481105.2857009505
 10
502864.6360284548
 20
481105.3021370387
 10
502864.6263256253
 20
481105.3134323334
 10
502864.6261387517
 20
481105.313641758
 10
502864.6307774197
 20
481105.3146861514
 10
502864.6352569769
 20
481105.3160314407
 10
502864.6396195604
 20
481105.3176005054
 10
502864.6439000408
 20
481105.3193124086
 10
502864.6523804297
 20
481105.3228564091
 10
502864.6610146054
 20
481105.3260307331
  0
LWPOLYLINE
  5
67
330
AE7
100
AcDbEntity
  8
Contexts
100
AcDbPolyline
 90
       11
 70
     1
 43
0.0
 10
502864.790327292
 20
481105.6267373856
 10
502864.790351128
 20
481105.6262891024
 10
502864.7586890132
 20
481105.6458480466
 10
502864.7626527574
 20
481105.6481630671
 10
502864.7970646765
 20
481105.6603274864
 10
502864.7954836611
 20
481105.6573693276
 10
502864.7941111631
 20
481105.6535167284
 10
502864.792951294
 20
481105.6490401489
 10
502864.7920010587
 20
481105.6442090435
 10
502864.790737343
 20
481105.6345627634
 10
502864.790327292
 20
481105.6267373856
  0
LWPOLYLINE
  5
68
330
AE7
100
AcDbEntity
  8
Contexts
100
AcDbPolyline
 90
       15
 70
     1
 43
0.0
 10
502864.8316190796
 20
481105.4809002318
 10
502864.8380378771
 20
481105.474923717
 10
502864.8442331318
 20
481105.4681901371
 10
502864.8502689367
 20
481105.4611568703
 10
502864.8562151663
 20
481105.4542837858
 10
502864.8454339759
 20
481105.4501220734
 10
502864.8299061513
 20
481105.4481225018
 10
502864.8304253138
 20
481105.4523155012
 10
502864.830336993
 20
481105.4564866744
 10
502864.8299005661
 20
481105.4606353605
 10
502864.8293765757
 20
481105.4647566024
 10
502864.8290257247
 20
481105.4688482539
 10
502864.829109881
 20
481105.4729038725
 10
502864.8298870965
 20
481105.4769242829
 10
502864.8316190796
 20
481105.4809002318
  0
LWPOLYLINE
  5
69
330
AE7
100
AcDbEntity
  8
Contexts
100
AcDbPolyline
 90
        5
 70
     1
 43
0.0
 10
502864.6263256253
 20
481105.3134323334
 10
502864.6360284548
 20
481105.3021370387
 10
502864.6243791652
 20
481105.3132935493
 10
502864.6261387517
 20
481105.313641758
 10
502864.6263256253
 20
481105.3134323334
  0
LWPOLYLINE
  5
6A
330
AE7
100
AcDbEntity
  8
Contexts
100
AcDbPolyline
 90
       20
 70
     1
 43
0.0
 10
502864.722806034
 20
481105.4155204278
 10
502864.7179479989
 20
481105.4110174326
 10
502864.7127128121
 20
481105.4068982341
 10
502864.7072050158
 20
481105.4030426844
 10
502864.7015347736
 20
481105.3993303154
 10
502864.6958081131
 20
481105.3956423049
 10
502864.6901310619
 20
481105.3918598302
 10
502864.6846108129
 20
481105.3878597729
 10
502864.679355039
 20
481105.3835274466
 10
502864.6796079222
 20
481105.4098239339
 10
502864.681730867
 20
481105.4340246888
 10
502864.6860778039
 20
481105.4309829794
 10
502864.6910509815
 20
481105.4284413825
 10
502864.6964550966
 20
481105.426262976
 10
502864.7020986619
 20
481105.4243035713
 10
502864.7077862141
 20
481105.4224234354
 10
502864.7133237753
 20
481105.4204841615
 10
502864.718518213
 20
481105.4183374246
 10
502864.7231743838
 20
481105.4158491132
 10
502864.722806034
 20
481105.4155204278
  0
LWPOLYLINE
  5
6B
330
AE7
100
AcDbEntity
  8
Contexts
100
AcDbPolyline
 90
        4
 70
     1
 43
0.0
 10
502864.6691944281
 20
481105.663873353
 10
502864.6910609105
 20
481105.674914609
 10
502864.6718375228
 20
481105.6622806589
 10
502864.6691944281
 20
481105.663873353
  0
LWPOLYLINE
  5
6C
330
AE7
100
AcDbEntity
  8
Contexts
100
AcDbPolyline
 90
        4
 70
     1
 43
0.0
 10
502865.0680356256
 20
481105.6105412372
 10
502865.0651400132
 20
481105.6077706738
 10
502865.0639723844
 20
481105.6090792068
 10
502865.0680356256
 20
481105.6105412372
  0
LWPOLYLINE
  5
6D
330
AE7
100
AcDbEntity
  8
Contexts
100
AcDbPolyline
 90
       13
 70
     1
 43
0.0
 10
502864.8201829214
 20
481105.3891908237
 10
502864.8449307204
 20
481105.4089206551
 10
502864.8451113775
 20
481105.4015903622
 10
502864.8455705372
 20
481105.3943725192
 10
502864.8461419162
 20
481105.3871694382
 10
502864.8466630472
 20
481105.3798761655
 10
502864.8467932628
 20
481105.3778286828
 10
502864.8433466319
 20
481105.378530952
 10
502864.839868214
 20
481105.3795170028
 10
502864.8363894974
 20
481105.380745567
 10
502864.8329464266
 20
481105.382179353
 10
502864.8262951407
 20
481105.3855072747
 10
502864.8201829214
 20
481105.3891908237
  0
LWPOLYLINE
  5
6E
330
AE7
100
AcDbEntity
  8
Contexts
100
AcDbPolyline
 90
       13
 70
     1
 43
0.0
 10
502864.7892301038
 20
481105.2603931488
 10
502864.7884236481
 20
481105.2695848258
 10
502864.7883842631
 20
481105.2790261049
 10
502864.7889214894
 20
481105.2886404123
 10
502864.7898367557
 20
481105.2983572757
 10
502864.7920215412
 20
481105.3177976313
 10
502864.7933765553
 20
481105.3367536859
 10
502864.8007711276
 20
481105.3295162118
 10
502864.8076104764
 20
481105.3221594768
 10
502864.8142929804
 20
481105.3145240547
 10
502864.8208966044
 20
481105.3068155788
 10
502864.8274997935
 20
481105.2992481139
 10
502864.7892301038
 20
481105.2603931488
  0
LWPOLYLINE
  5
6F
330
AE7
100
AcDbEntity
  8
Contexts
100
AcDbPolyline
 90
        4
 70
     1
 43
0.0
 10
502864.6252225171
 20
481105.6340487775
 10
502864.6258308504
 20
481105.6333670333
 10
502864.6245064485
 20
481105.6302109897
 10
502864.6252225171
 20
481105.6340487775
  0
LWPOLYLINE
  5
70
330
AE7
100
AcDbEntity
  8
Contexts
100
AcDbPolyline
 90
        9
 70
     1
 43
0.0
 10
502864.877879184
 20
481105.6383212063
 10
502864.9141741352
 20
481105.6424733669
 10
502864.9104085081
 20
481105.6397748687
 10
502864.9074340383
 20
481105.6370059727
 10
502864.905077678
 20
481105.6341483289
 10
502864.9031675453
 20
481105.631179291
 10
502864.9000022039
 20
481105.6248331532
 10
502864.8965586147
 20
481105.6178091959
 10
502864.877879184
 20
481105.6383212063
  0
LWPOLYLINE
  5
71
330
AE7
100
AcDbEntity
  8
Contexts
100
AcDbPolyline
 90
       16
 70
     1
 43
0.0
 10
502864.6992547566
 20
481105.6449554042
 10
502864.6922463122
 20
481105.6488450373
 10
502864.6853931344
 20
481105.6532333862
 10
502864.6786172819
 20
481105.6578161256
 10
502864.6718375228
 20
481105.6622806589
 10
502864.6910609105
 20
481105.674914609
 10
502864.6935190346
 20
481105.6761662667
 10
502864.6949421951
 20
481105.6722871098
 10
502864.6959640309
 20
481105.6682926233
 10
502864.6967177154
 20
481105.664218935
 10
502864.6973296348
 20
481105.6601067882
 10
502864.6979346076
 20
481105.6559964466
 10
502864.6986588604
 20
481105.6519258428
 10
502864.6996355663
 20
481105.6479311047
 10
502864.7009942423
 20
481105.644058437
 10
502864.6992547566
 20
481105.6449554042
  0
LWPOLYLINE
  5
72
330
AE7
100
AcDbEntity
  8
Contexts
100
AcDbPolyline
 90
       16
 70
     1
 43
0.0
 10
502864.7329007258
 20
481105.5763429695
 10
502864.7251979674
 20
481105.5762568203
 10
502864.7165332871
 20
481105.5765849236
 10
502864.7121685889
 20
481105.576985559
 10
502864.7079549321
 20
481105.5775876692
 10
502864.7040240044
 20
481105.5784260564
 10
502864.7005071738
 20
481105.5795299018
 10
502864.7042611804
 20
481105.587871336
 10
502864.7210489531
 20
481105.6136724339
 10
502864.7215626874
 20
481105.6089497639
 10
502864.7227469041
 20
481105.6042411053
 10
502864.7244323262
 20
481105.5995448122
 10
502864.726450156
 20
481105.5948676699
 10
502864.7308025932
 20
481105.5855799512
 10
502864.7344466151
 20
481105.5764044473
 10
502864.7329007258
 20
481105.5763429695
  0
LWPOLYLINE
  5
73
330
AE7
100
AcDbEntity
  8
Contexts
100
AcDbPolyline
 90
       16
 70
     1
 43
0.0
 10
502864.6573519127
 20
481105.5911863924
 10
502864.6590488661
 20
481105.5878076656
 10
502864.6490553735
 20
481105.58866818
 10
502864.638684049
 20
481105.5890581522
 10
502864.6283368345
 20
481105.5890294328
 10
502864.6184125415
 20
481105.588628411
 10
502864.6194501131
 20
481105.6042357749
 10
502864.6244529784
 20
481105.6301632772
 10
502864.6245064485
 20
481105.6302109897
 10
502864.6258308504
 20
481105.6333670333
 10
502864.6342379926
 20
481105.6239543241
 10
502864.6427942421
 20
481105.6134207476
 10
502864.6468918257
 20
481105.6079048181
 10
502864.6507468733
 20
481105.6023138684
 10
502864.6542646917
 20
481105.5967181409
 10
502864.6573519127
 20
481105.5911863924
  0
LWPOLYLINE
  5
74
330
AE7
100
AcDbEntity
  8
Contexts
100
AcDbPolyline
 90
        6
 70
     1
 43
0.0
 10
502864.6041451
 20
481105.372885217
 10
502864.5993882419
 20
481105.4204060765
 10
502864.6027587304
 20
481105.4167305078
 10
502864.603171694
 20
481105.4082548753
 10
502864.6054256442
 20
481105.3735609861
 10
502864.6041451
 20
481105.372885217
  0
LWPOLYLINE
  5
75
330
AE7
100
AcDbEntity
  8
Contexts
100
AcDbPolyline
 90
       12
 70
     1
 43
0.0
 10
502864.6170021591
 20
481105.511417117
 10
502864.6240408823
 20
481105.5036246678
 10
502864.6311037356
 20
481105.4958350751
 10
502864.6380424193
 20
481105.4879693662
 10
502864.6447043372
 20
481105.4799474031
 10
502864.6446061252
 20
481105.4799558113
 10
502864.6361478236
 20
481105.4779148789
 10
502864.6270827944
 20
481105.475543317
 10
502864.6179788719
 20
481105.4734545311
 10
502864.6094009191
 20
481105.4722592761
 10
502864.6155730501
 20
481105.5055290764
 10
502864.6170021591
 20
481105.511417117
  0
LWPOLYLINE
  5
76
330
AE7
100
AcDbEntity
  8
Contexts
100
AcDbPolyline
 90
        5
 70
     1
 43
0.0
 10
502864.6847151579
 20
481105.4777227805
 10
502864.6898839118
 20
481105.5047320778
 10
502864.6894042616
 20
481105.496303009
 10
502864.6875202057
 20
481105.4780594333
 10
502864.6847151579
 20
481105.4777227805
  0
LWPOLYLINE
  5
77
330
AE7
100
AcDbEntity
  8
Contexts
100
AcDbPolyline
 90
        4
 70
     1
 43
0.0
 10
502864.8067069344
 20
481105.5824350848
 10
502864.7932211429
 20
481105.5604261354
 10
502864.7877745026
 20
481105.56262529
 10
502864.8067069344
 20
481105.5824350848
  0
LWPOLYLINE
  5
78
330
AE7
100
AcDbEntity
  8
Contexts
100
AcDbPolyline
 90
        4
 70
     1
 43
0.0
 10
502865.0928311776
 20
481105.4703136688
 10
502865.0858587304
 20
481105.4474335804
 10
502865.0834280479
 20
481105.4501575868
 10
502865.0928311776
 20
481105.4703136688
  0
LWPOLYLINE
  5
79
330
AE7
100
AcDbEntity
  8
Contexts
100
AcDbPolyline
 90
       12
 70
     1
 43
0.0
 10
502864.6279433695
 20
481105.3881927631
 10
502864.6304342448
 20
481105.3847674491
 10
502864.6241635085
 20
481105.3815277183
 10
502864.61795234
 20
481105.3788640521
 10
502864.6117299738
 20
481105.3763504685
 10
502864.6054256442
 20
481105.3735609861
 10
502864.603171694
 20
481105.4082548753
 10
502864.6027587304
 20
481105.4167305078
 10
502864.6092211332
 20
481105.4097364098
 10
502864.6157355902
 20
481105.4026660366
 10
502864.6220579885
 20
481105.3954909837
 10
502864.6279433695
 20
481105.3881927631
  0
LWPOLYLINE
  5
7A
330
AE7
100
AcDbEntity
  8
Contexts
100
AcDbPolyline
 90
       17
 70
     1
 43
0.0
 10
502864.7819244575
 20
481105.4370263324
 10
502864.7838596797
 20
481105.432755702
 10
502864.7855219569
 20
481105.4276278976
 10
502864.7869203817
 20
481105.4219018169
 10
502864.7880781002
 20
481105.4158355576
 10
502864.7897221634
 20
481105.4037229148
 10
502864.7905791261
 20
481105.3933624065
 10
502864.7667008695
 20
481105.4125249413
 10
502864.7658538781
 20
481105.41421563
 10
502864.7668021593
 20
481105.4173028452
 10
502864.7681247559
 20
481105.4204519422
 10
502864.769784102
 20
481105.4235973851
 10
502864.7717469276
 20
481105.4266748038
 10
502864.7739786372
 20
481105.4296213129
 10
502864.7764416647
 20
481105.4323713768
 10
502864.7791014148
 20
481105.4348621101
 10
502864.7819244575
 20
481105.4370263324
  0
LWPOLYLINE
  5
7B
330
AE7
100
AcDbEntity
  8
Contexts
100
AcDbPolyline
 90
        4
 70
     1
 43
0.0
 10
502864.6798395797
 20
481105.4357226375
 10
502864.681730867
 20
481105.4340246888
 10
502864.6796079222
 20
481105.4098239339
 10
502864.6798395797
 20
481105.4357226375
  0
LWPOLYLINE
  5
7C
330
AE7
100
AcDbEntity
  8
Contexts
100
AcDbPolyline
 90
       12
 70
     1
 43
0.0
 10
502864.9530904484
 20
481105.6489619506
 10
502865.004822006
 20
481105.6621822909
 10
502865.0006839263
 20
481105.6574973408
 10
502864.9975006409
 20
481105.6521489977
 10
502864.9949682351
 20
481105.6463462972
 10
502864.9927730373
 20
481105.6403002397
 10
502864.9906081626
 20
481105.6342172102
 10
502864.9881658803
 20
481105.6283135104
 10
502864.9851376602
 20
481105.6227913894
 10
502864.9812129611
 20
481105.6178673091
 10
502864.978862212
 20
481105.6202864659
 10
502864.9530904484
 20
481105.6489619506
  0
LWPOLYLINE
  5
7D
330
AE7
100
AcDbEntity
  8
Contexts
100
AcDbPolyline
 90
       14
 70
     1
 43
0.0
 10
502865.102665378
 20
481105.5024304728
 10
502865.0929478282
 20
481105.4706045122
 10
502865.0928311776
 20
481105.4703136688
 10
502865.0834280479
 20
481105.4501575868
 10
502865.0745605951
 20
481105.4608216611
 10
502865.0659893285
 20
481105.4720328267
 10
502865.0575300519
 20
481105.483378606
 10
502865.048992788
 20
481105.4944440305
 10
502865.0621497533
 20
481105.4954619021
 10
502865.076449731
 20
481105.4962004319
 10
502865.0835742051
 20
481105.4969017618
 10
502865.0904384306
 20
481105.4980591883
 10
502865.0968632122
 20
481105.4998436329
 10
502865.102665378
 20
481105.5024304728
  0
LWPOLYLINE
  5
7E
330
AE7
100
AcDbEntity
  8
Contexts
100
AcDbPolyline
 90
       18
 70
     1
 43
0.0
 10
502864.9698387811
 20
481105.3533191765
 10
502864.9238109302
 20
481105.331069772
 10
502864.9227008951
 20
481105.3380483195
 10
502864.9210744565
 20
481105.3454411454
 10
502864.9191711125
 20
481105.3530964545
 10
502864.9172234147
 20
481105.3608642569
 10
502864.9154708614
 20
481105.3685927576
 10
502864.9141473295
 20
481105.376130481
 10
502864.9134881815
 20
481105.3833272774
 10
502864.9137329152
 20
481105.3900313519
 10
502864.9206476707
 20
481105.3863782676
 10
502864.9280297004
 20
481105.3824138009
 10
502864.9356589298
 20
481105.378160344
 10
502864.9433152846
 20
481105.3736402894
 10
502864.9507813409
 20
481105.3688730584
 10
502864.9578371845
 20
481105.3638838539
 10
502864.964262581
 20
481105.3586922577
 10
502864.9698387811
 20
481105.3533191765
  0
LWPOLYLINE
  5
7F
330
AE7
100
AcDbEntity
  8
Contexts
100
AcDbPolyline
 90
       10
 70
     1
 43
0.0
 10
502865.0944225647
 20
481105.619781459
 10
502865.0930780366
 20
481105.6158257581
 10
502865.0920605274
 20
481105.6112494367
 10
502865.0913086821
 20
481105.6062378584
 10
502865.0907595006
 20
481105.600972251
 10
502865.0900329857
 20
481105.5904100075
 10
502865.0893832416
 20
481105.5810234515
 10
502865.0651400132
 20
481105.6077706738
 10
502865.0680356256
 20
481105.6105412372
 10
502865.0944225647
 20
481105.619781459
  0
LWPOLYLINE
  5
80
330
AE7
100
AcDbEntity
  8
Contexts
100
AcDbPolyline
 90
       17
 70
     1
 43
0.0
 10
502864.8181855676
 20
481105.5944678553
 10
502864.8172130115
 20
481105.5889471868
 10
502864.8171442882
 20
481105.5834780064
 10
502864.8177225112
 20
481105.5780551939
 10
502864.8186921192
 20
481105.5726721439
 10
502864.8197963857
 20
481105.5673265469
 10
502864.8207797494
 20
481105.5620117975
 10
502864.8213854837
 20
481105.5567255861
 10
502864.8213580273
 20
481105.5514613074
 10
502864.817668564
 20
481105.5519842434
 10
502864.8140458915
 20
481105.5527642037
 10
502864.8104831548
 20
481105.5537550524
 10
502864.8069711682
 20
481105.5549192464
 10
502864.8000539967
 20
481105.5575883833
 10
502864.7932211429
 20
481105.5604261354
 10
502864.8067069344
 20
481105.5824350848
 10
502864.8181855676
 20
481105.5944678553
  0
LWPOLYLINE
  5
81
330
AE7
100
AcDbEntity
  8
Contexts
100
AcDbPolyline
 90
        4
 70
     1
 43
0.0
 10
502864.6073083747
 20
481105.4721795602
 10
502864.6155730501
 20
481105.5055290764
 10
502864.6094009191
 20
481105.4722592761
 10
502864.6073083747
 20
481105.4721795602
  0
LWPOLYLINE
  5
82
330
AE7
100
AcDbEntity
  8
Contexts
100
AcDbPolyline
 90
        4
 70
     1
 43
0.0
 10
502864.6992452451
 20
481105.580097983
 10
502864.7042611804
 20
481105.587871336
 10
502864.7005071738
 20
481105.5795299018
 10
502864.6992452451
 20
481105.580097983
  0
LWPOLYLINE
  5
83
330
AE7
100
AcDbEntity
  8
Contexts
100
AcDbPolyline
 90
       15
 70
     1
 43
0.0
 10
502864.7579963498
 20
481105.3451832614
 10
502864.753734465
 20
481105.3405772595
 10
502864.749116087
 20
481105.3360986931
 10
502864.7442404333
 20
481105.3317320475
 10
502864.739205396
 20
481105.327463293
 10
502864.7290555254
 20
481105.3191587226
 10
502864.7194492925
 20
481105.3110671233
 10
502864.7219228256
 20
481105.3256961014
 10
502864.7220847383
 20
481105.3267823519
 10
502864.7289721193
 20
481105.3595645246
 10
502864.7372062803
 20
481105.3577904316
 10
502864.7459467881
 20
481105.3560199522
 10
502864.7547832921
 20
481105.3541030239
 10
502864.7632999808
 20
481105.3518927144
 10
502864.7579963498
 20
481105.3451832614
  0
LWPOLYLINE
  5
84
330
AE7
100
AcDbEntity
  8
Contexts
100
AcDbPolyline
 90
        4
 70
     1
 43
0.0
 10
502864.8454339759
 20
481105.4501220734
 10
502864.8282454438
 20
481105.4434417945
 10
502864.8299061513
 20
481105.4481225018
 10
502864.8454339759
 20
481105.4501220734
  0
LWPOLYLINE
  5
89
330
AE7
100
AcDbEntity
  8
Trench edge
100
AcDbPolyline
 90
       18
 70
     1
 43
0.0
 10
502865.3202770267
 20
481105.7648439803
 10
502865.1904107211
 20
481105.9124928164
 10
502865.1324378232
 20
481105.9784094119
 10
502864.8449089346
 20
481106.3052822529
 10
502864.7567539784
 20
481106.4054447138
 10
502864.6662665517
 20
481106.5083227726
 10
502864.5625986431
 20
481106.4171358838
 10
502864.469666533
 20
481106.3354327062
 10
502864.1880384339
 20
481106.0877082922
 10
502864.0899717053
 20
481106.0014233976
 10
502863.928029478
 20
481105.8589922502
 10
502863.9724470855
 20
481105.8092145238
 10
502864.0495940844
 20
481105.7227577691
 10
502864.5826027243
 20
481105.1254280226
 10
502864.268217631
 20
481104.8448962528
 10
502864.8088852941
 20
481104.2073415
 10
502866.3074497337
 20
481105.5445389166
 10
502865.7557391524
 20
481106.1628274713
  0
LWPOLYLINE
  5
8D
330
AE7
100
AcDbEntity
  8
Contexts
100
AcDbPolyline
 90
        3
 70
     0
 43
0.0
 10
502864.5591346025
 20
481106.4174331028
 10
502864.5625986431
 20
481106.4171358838
 10
502864.7522010871
 20
481106.4014727917
  0
LWPOLYLINE
  5
8E
330
AE7
100
AcDbEntity
  8
Contexts
100
AcDbPolyline
 90
        3
 70
     0
 43
0.0
 10
502864.4674392597
 20
481106.3356116126
 10
502864.469666533
 20
481106.3354327062
 10
502864.8384162656
 20
481106.2995794305
  0
LWPOLYLINE
  5
8F
330
AE7
100
AcDbEntity
  8
Contexts
100
AcDbPolyline
 90
        3
 70
     0
 43
0.0
 10
502864.1847767349
 20
481106.0880926877
 10
502864.1880384339
 20
481106.0877082922
 10
502864.7380551396
 20
481106.0217907761
  0
LWPOLYLINE
  5
90
330
AE7
100
AcDbEntity
  8
Contexts
100
AcDbPolyline
 90
        2
 70
     0
 43
0.0
 10
502864.7380551396
 20
481106.0217907761
 10
502864.8832362696
 20
481106.0383979334
  0
LWPOLYLINE
  5
91
330
AE7
100
AcDbEntity
  8
Contexts
100
AcDbPolyline
 90
        2
 70
     0
 43
0.0
 10
502864.8832362696
 20
481106.0383979334
 10
502865.1309183802
 20
481105.9770535841
  0
LWPOLYLINE
  5
92
330
AE7
100
AcDbEntity
  8
Contexts
100
AcDbPolyline
 90
        2
 70
     0
 43
0.0
 10
502865.1893621123
 20
481105.9115571229
 10
502864.8708637511
 20
481105.9520612241
  0
LWPOLYLINE
  5
93
330
AE7
100
AcDbEntity
  8
Contexts
100
AcDbPolyline
 90
        2
 70
     0
 43
0.0
 10
502864.8708637511
 20
481105.9520612241
 10
502864.6349537089
 20
481105.9580259291
  0
LWPOLYLINE
  5
94
330
AE7
100
AcDbEntity
  8
Contexts
100
AcDbPolyline
 90
        3
 70
     0
 43
0.0
 10
502864.6349537089
 20
481105.9580259291
 10
502864.0899717053
 20
481106.0014233976
 10
502864.0878413187
 20
481106.0015953809
  0
LWPOLYLINE
  5
95
330
AE7
100
AcDbEntity
  8
Contexts
100
AcDbPolyline
 90
        2
 70
     0
 43
0.0
 10
502863.9724470855
 20
481105.8092145238
 10
502864.4478146331
 20
481105.7722160711
  0
LWPOLYLINE
  5
96
330
AE7
100
AcDbEntity
  8
Contexts
100
AcDbPolyline
 90
        2
 70
     0
 43
0.0
 10
502864.4478146331
 20
481105.7722160711
 10
502864.7796936609
 20
481105.7483553206
  0
LWPOLYLINE
  5
97
330
AE7
100
AcDbEntity
  8
Contexts
100
AcDbPolyline
 90
        2
 70
     0
 43
0.0
 10
502864.7796936609
 20
481105.7483553206
 10
502864.8794097114
 20
481105.752627638
  0
LWPOLYLINE
  5
98
330
AE7
100
AcDbEntity
  8
Contexts
100
AcDbPolyline
 90
        2
 70
     0
 43
0.0
 10
502864.8794097114
 20
481105.752627638
 10
502865.0547016812
 20
481105.730219184
  0
LWPOLYLINE
  5
99
330
AE7
100
AcDbEntity
  8
Contexts
100
AcDbPolyline
 90
        2
 70
     0
 43
0.0
 10
502865.0547016812
 20
481105.730219184
 10
502865.247484712
 20
481105.7093024131
  0
LWPOLYLINE
  5
9A
330
AE7
100
AcDbEntity
  8
Contexts
100
AcDbPolyline
 90
       11
 70
     0
 43
0.0
 10
502865.2511805988
 20
481105.7157057722
 10
502865.2502414698
 20
481105.7070561237
 10
502865.2424913141
 20
481105.6822281527
 10
502865.2289433419
 20
481105.6645524332
 10
502865.2107307452
 20
481105.6528337708
 10
502865.1889853911
 20
481105.6458784564
 10
502865.1648375012
 20
481105.6424886453
 10
502865.1394215932
 20
481105.6414676582
 10
502865.1138682085
 20
481105.6416232708
 10
502865.0893088942
 20
481105.6417561535
 10
502865.0819885868
 20
481105.6416270931
  0
LWPOLYLINE
  5
9B
330
AE7
100
AcDbEntity
  8
Contexts
100
AcDbPolyline
 90
        3
 70
     0
 43
0.0
 10
502865.0819885868
 20
481105.6416270931
 10
502865.0122422177
 20
481105.6693690837
 10
502864.9652618799
 20
481105.6880599285
  0
LWPOLYLINE
  5
9C
330
AE7
100
AcDbEntity
  8
Contexts
100
AcDbPolyline
 90
        2
 70
     0
 43
0.0
 10
502864.9652618799
 20
481105.6880599285
 10
502864.8459960179
 20
481105.6898712589
  0
LWPOLYLINE
  5
9D
330
AE7
100
AcDbEntity
  8
Contexts
100
AcDbPolyline
 90
        4
 70
     0
 43
0.0
 10
502864.8459960179
 20
481105.6898712589
 10
502864.7877019168
 20
481105.6924398058
 10
502864.7153185121
 20
481105.6956183531
 10
502864.6549867985
 20
481105.6982549136
  0
LWPOLYLINE
  5
9E
330
AE7
100
AcDbEntity
  8
Contexts
100
AcDbPolyline
 90
        2
 70
     0
 43
0.0
 10
502864.6549867985
 20
481105.6982549136
 10
502864.3817539152
 20
481105.7038564489
  0
LWPOLYLINE
  5
9F
330
AE7
100
AcDbEntity
  8
Contexts
100
AcDbPolyline
 90
        2
 70
     0
 43
0.0
 10
502864.3817539152
 20
481105.7038564489
 10
502864.1863508476
 20
481105.7224353114
  0
LWPOLYLINE
  5
A0
330
AE7
100
AcDbEntity
  8
Contexts
100
AcDbPolyline
 90
        2
 70
     0
 43
0.0
 10
502864.1863508476
 20
481105.7224353114
 10
502864.0522126358
 20
481105.7250943522
  0
LWPOLYLINE
  5
A1
330
AE7
100
AcDbEntity
  8
Contexts
100
AcDbPolyline
 90
       20
 70
     0
 43
0.0
 10
502865.0929478282
 20
481105.4706045122
 10
502865.096979726
 20
481105.481797796
 10
502865.1004264645
 20
481105.4931385769
 10
502865.1032863993
 20
481105.5044493055
 10
502865.10555046
 20
481105.515545806
 10
502865.10885732
 20
481105.5430600444
 10
502865.1094626927
 20
481105.5590501074
 10
502865.1094491665
 20
481105.5770971332
 10
502865.1089500735
 20
481105.5864376838
 10
502865.1079798925
 20
481105.5957500567
 10
502865.1064364823
 20
481105.6048497325
 10
502865.1042150511
 20
481105.6135551625
 10
502865.1029899151
 20
481105.6172721955
 10
502865.1015995471
 20
481105.6208604642
 10
502865.1000330704
 20
481105.6243022595
 10
502865.0982867146
 20
481105.6275808775
 10
502865.0963467924
 20
481105.6306787686
 10
502865.0942053976
 20
481105.6335808745
 10
502865.091854464
 20
481105.6362693259
 10
502865.0892844402
 20
481105.6387249281
  0
LWPOLYLINE
  5
A2
330
AE7
100
AcDbEntity
  8
Contexts
100
AcDbPolyline
 90
       49
 70
     0
 43
0.0
 10
502864.7211056857
 20
481105.2492969676
 10
502864.7295930995
 20
481105.2476127934
 10
502864.7381028341
 20
481105.2466181822
 10
502864.7466047262
 20
481105.2463529171
 10
502864.7550636316
 20
481105.2468683427
 10
502864.7634467363
 20
481105.2482072125
 10
502864.7717243571
 20
481105.2504177413
 10
502864.7798638401
 20
481105.2535454927
 10
502864.7878297211
 20
481105.2576361907
 10
502864.7900955337
 20
481105.2590017119
 10
502864.7963898425
 20
481105.2637458356
 10
502864.802345089
 20
481105.2692705799
 10
502864.8080850113
 20
481105.2752728321
 10
502864.8137406137
 20
481105.2814532957
 10
502864.8194427406
 20
481105.2875098636
 10
502864.8253166155
 20
481105.2931407483
 10
502864.8314932426
 20
481105.2980466537
 10
502864.8380978453
 20
481105.3019257922
 10
502864.8481366177
 20
481105.3063454608
 10
502864.8585032992
 20
481105.3102840344
 10
502864.8691361928
 20
481105.3138465344
 10
502864.8799715902
 20
481105.3171521947
 10
502864.8909479539
 20
481105.3203088472
 10
502864.9020040665
 20
481105.3234299444
 10
502864.9130757399
 20
481105.3266262889
 10
502864.9241002713
 20
481105.3300100081
 10
502864.9379984185
 20
481105.3347866958
 10
502864.9429750183
 20
481105.3367649273
 10
502864.9479942786
 20
481105.3389973266
 10
502864.9530469679
 20
481105.3414703202
 10
502864.9581261853
 20
481105.3441617429
 10
502864.9683424971
 20
481105.3501404869
 10
502864.9785904071
 20
481105.3567983971
 10
502864.9891493774
 20
481105.3642647868
 10
502864.9996366628
 20
481105.3721314272
 10
502865.0099976971
 20
481105.3802322401
 10
502865.0201727727
 20
481105.3884098984
 10
502865.0301088085
 20
481105.396499649
 10
502865.0397474223
 20
481105.4043426796
 10
502865.0490340478
 20
481105.4117729115
 10
502865.0579089774
 20
481105.4186330182
 10
502865.0615805039
 20
481105.4216103847
 10
502865.0651151989
 20
481105.4249085272
 10
502865.0685102977
 20
481105.4285036354
 10
502865.0717674912
 20
481105.432375875
 10
502865.0748881509
 20
481105.4364997903
 10
502865.077870997
 20
481105.4408528966
 10
502865.0807175607
 20
481105.4454125485
 10
502865.0834280479
 20
481105.4501575868
  0
LWPOLYLINE
  5
A3
330
AE7
100
AcDbEntity
  8
Contexts
100
AcDbPolyline
 90
        9
 70
     0
 43
0.0
 10
502864.6570858757
 20
481105.2823356288
 10
502864.6643151593
 20
481105.2767274938
 10
502864.6718253435
 20
481105.2714473811
 10
502864.6795839342
 20
481105.2665436651
 10
502864.6875624139
 20
481105.2620602649
 10
502864.695727123
 20
481105.2580498504
 10
502864.7040437626
 20
481105.2545538501
 10
502864.7124814841
 20
481105.2516247742
 10
502864.7210074737
 20
481105.249305376
  0
LWPOLYLINE
  5
A4
330
AE7
100
AcDbEntity
  8
Contexts
100
AcDbPolyline
 90
        2
 70
     0
 43
0.0
 10
502864.6360284548
 20
481105.3021370387
 10
502864.6530477857
 20
481105.2857009505
  0
LWPOLYLINE
  5
A5
330
AE7
100
AcDbEntity
  8
Contexts
100
AcDbPolyline
 90
        9
 70
     0
 43
0.0
 10
502864.6054256442
 20
481105.3735609861
 10
502864.6062004886
 20
481105.3657711027
 10
502864.6072865577
 20
481105.3580988562
 10
502864.6087886901
 20
481105.3505284117
 10
502864.6108089139
 20
481105.3430440946
 10
502864.6134505827
 20
481105.3356287443
 10
502864.6168157243
 20
481105.3282666862
 10
502864.6210119882
 20
481105.3209419256
 10
502864.6261387517
 20
481105.313641758
  0
LWPOLYLINE
  5
A6
330
AE7
100
AcDbEntity
  8
Contexts
100
AcDbPolyline
 90
        7
 70
     0
 43
0.0
 10
502864.6094009191
 20
481105.4722592761
 10
502864.6066890936
 20
481105.4586208936
 10
502864.6044460031
 20
481105.444944559
 10
502864.6036085257
 20
481105.4380317177
 10
502864.6030190008
 20
481105.4310413229
 10
502864.6027211188
 20
481105.4239483309
 10
502864.6027587304
 20
481105.4167305078
  0
LWPOLYLINE
  5
A7
330
AE7
100
AcDbEntity
  8
Contexts
100
AcDbPolyline
 90
        6
 70
     0
 43
0.0
 10
502864.6184125415
 20
481105.588628411
 10
502864.6181232483
 20
481105.5710822002
 10
502864.6181466436
 20
481105.553406817
 10
502864.6179485934
 20
481105.5357792813
 10
502864.6169995792
 20
481105.5183834008
 10
502864.6155730501
 20
481105.5055290764
  0
LWPOLYLINE
  5
A8
330
AE7
100
AcDbEntity
  8
Contexts
100
AcDbPolyline
 90
        6
 70
     0
 43
0.0
 10
502864.6244529784
 20
481105.6301632772
 10
502864.6230280413
 20
481105.6258103408
 10
502864.6218075071
 20
481105.620812744
 10
502864.6207701936
 20
481105.6150955598
 10
502864.6198950786
 20
481105.6085866714
 10
502864.6194501131
 20
481105.6042357749
  0
LWPOLYLINE
  5
A9
330
AE7
100
AcDbEntity
  8
Contexts
100
AcDbPolyline
 90
        8
 70
     0
 43
0.0
 10
502864.6718375228
 20
481105.6622806589
 10
502864.6652936065
 20
481105.6591706724
 10
502864.6506254949
 20
481105.6528051766
 10
502864.6395290881
 20
481105.6474150818
 10
502864.6351478891
 20
481105.6446021667
 10
502864.6314523933
 20
481105.6414513412
 10
502864.6283697315
 20
481105.6377721903
 10
502864.6258308504
 20
481105.6333670333
  0
LWPOLYLINE
  5
AA
330
AE7
100
AcDbEntity
  8
Contexts
100
AcDbPolyline
 90
        3
 70
     0
 43
0.0
 10
502864.7170978794
 20
481105.6972061163
 10
502864.7153185121
 20
481105.6956183531
 10
502864.6910609105
 20
481105.674914609
  0
LWPOLYLINE
  5
AB
330
AE7
100
AcDbEntity
  8
Contexts
100
AcDbPolyline
 90
       16
 70
     0
 43
0.0
 10
502864.7194492925
 20
481105.3110671233
 10
502864.7190636122
 20
481105.3086500059
 10
502864.7170402937
 20
481105.2994304335
 10
502864.7147045874
 20
481105.2897506934
 10
502864.7136743526
 20
481105.2848268597
 10
502864.7128790451
 20
481105.2798938873
 10
502864.7124177904
 20
481105.2749842015
 10
502864.7123941704
 20
481105.2701342045
 10
502864.7126084809
 20
481105.2673347087
 10
502864.7130268701
 20
481105.2645785845
 10
502864.7136737878
 20
481105.2618743099
 10
502864.7145636073
 20
481105.2592267064
 10
502864.7157219439
 20
481105.2566399556
 10
502864.7171689519
 20
481105.2541213701
 10
502864.7189231403
 20
481105.2516741261
 10
502864.7210074737
 20
481105.249305376
  0
LWPOLYLINE
  5
AC
330
AE7
100
AcDbEntity
  8
Contexts
100
AcDbPolyline
 90
        2
 70
     0
 43
0.0
 10
502864.7210074737
 20
481105.249305376
 10
502864.7211056857
 20
481105.2492969676
  0
LWPOLYLINE
  5
AD
330
AE7
100
AcDbEntity
  8
Contexts
100
AcDbPolyline
 90
        2
 70
     0
 43
0.0
 10
502864.7211056857
 20
481105.2492969676
 10
502864.7237936652
 20
481105.2467091753
  0
LWPOLYLINE
  5
AE
330
AE7
100
AcDbEntity
  8
Contexts
100
AcDbPolyline
 90
       15
 70
     0
 43
0.0
 10
502864.7932211429
 20
481105.5604261354
 10
502864.788121403
 20
481105.5508331875
 10
502864.7836657743
 20
481105.5415588726
 10
502864.7799125931
 20
481105.5327859731
 10
502864.7769145747
 20
481105.5246975914
 10
502864.7597449577
 20
481105.4676826904
 10
502864.7482112529
 20
481105.4267099607
 10
502864.7451158384
 20
481105.4160428409
 10
502864.7344985345
 20
481105.3823788628
 10
502864.7323383715
 20
481105.375561026
 10
502864.730412108
 20
481105.3686664355
 10
502864.7286911118
 20
481105.361712229
 10
502864.7271427751
 20
481105.3547200002
 10
502864.7244475416
 20
481105.34070424
 10
502864.7220847383
 20
481105.3267823519
  0
LWPOLYLINE
  5
AF
330
AE7
100
AcDbEntity
  8
Contexts
100
AcDbPolyline
 90
       26
 70
     0
 43
0.0
 10
502865.0139921344
 20
481105.6703649699
 10
502865.0122422177
 20
481105.6693690837
 10
502865.0066142448
 20
481105.6663747497
 10
502865.0008077606
 20
481105.6637120229
 10
502864.9948473073
 20
481105.66134144
 10
502864.9887546158
 20
481105.6592236985
 10
502864.9762581181
 20
481105.6555910127
 10
502864.9634879808
 20
481105.6525011871
 10
502864.9386922674
 20
481105.6468445226
 10
502864.9289717193
 20
481105.6450192234
 10
502864.9184839577
 20
481105.6438832995
 10
502864.9075557251
 20
481105.6431333654
 10
502864.8965122793
 20
481105.6424647102
 10
502864.8856759072
 20
481105.6415699723
 10
502864.8753735115
 20
481105.6401485769
 10
502864.8659301897
 20
481105.6378930023
 10
502864.8576697143
 20
481105.6344972125
 10
502864.8517779572
 20
481105.6309553534
 10
502864.8458974469
 20
481105.6267192014
 10
502864.8400576376
 20
481105.6218603934
 10
502864.834287823
 20
481105.6164477554
 10
502864.8286159721
 20
481105.610551599
 10
502864.8230659176
 20
481105.6042438809
 10
502864.8176682787
 20
481105.5975919422
 10
502864.812449699
 20
481105.5906675797
 10
502864.8067069344
 20
481105.5824350848
  0
LWPOLYLINE
  5
B0
330
AE7
100
AcDbEntity
  8
Contexts
100
AcDbPolyline
 90
       14
 70
     0
 43
0.0
 10
502864.7626527574
 20
481105.6481630671
 10
502864.7738710928
 20
481105.653936756
 10
502864.7865359645
 20
481105.659512522
 10
502864.7997332134
 20
481105.6645335241
 10
502864.8134206106
 20
481105.6691248234
 10
502864.827554762
 20
481105.6734157771
 10
502864.8473512956
 20
481105.6776636701
 10
502864.8650400175
 20
481105.6786647519
 10
502864.881268693
 20
481105.677074405
 10
502864.8966882173
 20
481105.6735534734
 10
502864.9119508117
 20
481105.6687613153
 10
502864.9277030757
 20
481105.6633576095
 10
502864.9446000408
 20
481105.6580015543
 10
502864.9632869815
 20
481105.6533543135
  0
LWPOLYLINE
  5
B1
330
AE7
100
AcDbEntity
  8
Contexts
100
AcDbPolyline
 90
       13
 70
     0
 43
0.0
 10
502864.7042611804
 20
481105.587871336
 10
502864.7080208616
 20
481105.5949745869
 10
502864.7120468465
 20
481105.6016538235
 10
502864.7163298118
 20
481105.607943413
 10
502864.7208620795
 20
481105.6138818587
 10
502864.7250008895
 20
481105.6187035239
 10
502864.7293180731
 20
481105.623265493
 10
502864.7338058379
 20
481105.6275794884
 10
502864.7384620133
 20
481105.6316569124
 10
502864.7432817777
 20
481105.6355121381
 10
502864.7482628001
 20
481105.6391537572
 10
502864.7534002591
 20
481105.6425961429
 10
502864.7586890132
 20
481105.6458480466
  0
LWPOLYLINE
  5
B2
330
AE7
100
AcDbEntity
  8
Contexts
100
AcDbPolyline
 90
        9
 70
     0
 43
0.0
 10
502864.6898839118
 20
481105.5047320778
 10
502864.69037717
 20
481105.5185784784
 10
502864.6909598393
 20
481105.5329555395
 10
502864.6914421477
 20
481105.5401677444
 10
502864.6921317346
 20
481105.5473061205
 10
502864.6930907311
 20
481105.5542980484
 10
502864.6943830736
 20
481105.5610778563
 10
502864.6972507847
 20
481105.5712616613
 10
502864.7005071738
 20
481105.5795299018
  0
LWPOLYLINE
  5
B3
330
AE7
100
AcDbEntity
  8
Contexts
100
AcDbPolyline
 90
        3
 70
     0
 43
0.0
 10
502864.681730867
 20
481105.4340246888
 10
502864.6850315516
 20
481105.458804143
 10
502864.6875202057
 20
481105.4780594333
  0
LWPOLYLINE
  5
B4
330
AE7
100
AcDbEntity
  8
Contexts
100
AcDbPolyline
 90
       16
 70
     0
 43
0.0
 10
502864.7150061287
 20
481105.2671024015
 10
502864.7123941704
 20
481105.2701342045
 10
502864.7047551289
 20
481105.279517304
 10
502864.6983252069
 20
481105.2885439871
 10
502864.6930050495
 20
481105.2973016799
 10
502864.6886956215
 20
481105.3058834293
 10
502864.6852962426
 20
481105.3143781464
 10
502864.6827105283
 20
481105.3228759076
 10
502864.6808364729
 20
481105.3314671094
 10
502864.6795776919
 20
481105.3402418284
 10
502864.6788233598
 20
481105.3492345682
 10
502864.6784745554
 20
481105.358565157
 10
502864.6784424806
 20
481105.3683331084
 10
502864.6786315506
 20
481105.3786425521
 10
502864.6792818166
 20
481105.4032260001
 10
502864.6796079222
 20
481105.4098239339
  0
LWPOLYLINE
  5
B5
330
AE7
100
AcDbEntity
  8
Contexts
100
AcDbPolyline
 90
        9
 70
     0
 43
0.0
 10
502864.8642162292
 20
481105.6167171
 10
502864.871311667
 20
481105.6090046054
 10
502864.8782110903
 20
481105.6016134348
 10
502864.8846438579
 20
481105.5942967544
 10
502864.8903347129
 20
481105.5868009434
 10
502864.8950098837
 20
481105.5788737065
 10
502864.8983959185
 20
481105.5702683696
 10
502864.9002216965
 20
481105.5607296667
 10
502864.90020947
 20
481105.5500097585
  0
LWPOLYLINE
  5
B6
330
AE7
100
AcDbEntity
  8
Contexts
100
AcDbPolyline
 90
        9
 70
     0
 43
0.0
 10
502864.8990811165
 20
481105.5301807891
 10
502864.8983653715
 20
481105.5221119817
 10
502864.8972271979
 20
481105.512342949
 10
502864.8955921214
 20
481105.5015222366
 10
502864.8933856679
 20
481105.49029839
 10
502864.8905332031
 20
481105.4793171443
 10
502864.8869589276
 20
481105.4692285306
 10
502864.8825926631
 20
481105.4606822597
 10
502864.8773569646
 20
481105.4543242265
  0
LWPOLYLINE
  5
B7
330
AE7
100
AcDbEntity
  8
Contexts
100
AcDbPolyline
 90
        5
 70
     0
 43
0.0
 10
502864.8299061513
 20
481105.4481225018
 10
502864.8245311238
 20
481105.4468479066
 10
502864.8193065469
 20
481105.4452193336
 10
502864.8142645489
 20
481105.4432067571
 10
502864.8094430389
 20
481105.4407826425
  0
LWPOLYLINE
  5
B8
330
AE7
100
AcDbEntity
  8
Contexts
100
AcDbPolyline
 90
        2
 70
     0
 43
0.0
 10
502864.8572430563
 20
481105.4504947949
 10
502864.8454339759
 20
481105.4501220734
  0
LWPOLYLINE
  5
B9
330
AE7
100
AcDbEntity
  8
Contexts
100
AcDbPolyline
 90
        3
 70
     0
 43
0.0
 10
502864.7658538781
 20
481105.41421563
 10
502864.7623535683
 20
481105.4226709748
 10
502864.7613579227
 20
481105.4261098945
  0
LWPOLYLINE
  5
BA
330
AE7
100
AcDbEntity
  8
Contexts
100
AcDbPolyline
 90
       17
 70
     0
 43
0.0
 10
502864.8010186722
 20
481105.4238530276
 10
502864.801971453
 20
481105.4162912858
 10
502864.8021161145
 20
481105.4098893218
 10
502864.8015372274
 20
481105.4045972075
 10
502864.8003114098
 20
481105.4003739267
 10
502864.7985207415
 20
481105.3971753324
 10
502864.7962469823
 20
481105.3949516563
 10
502864.7935710464
 20
481105.3936630479
 10
502864.7905735284
 20
481105.3932640346
 10
502864.7876306415
 20
481105.3936020909
 10
502864.7845519264
 20
481105.3946006435
 10
502864.7814002683
 20
481105.3962250967
 10
502864.7782344162
 20
481105.3984425004
 10
502864.775119906
 20
481105.4012152886
 10
502864.7721182973
 20
481105.4045103512
 10
502864.7692909901
 20
481105.4082917671
 10
502864.7667008695
 20
481105.4125249413
  0
LWPOLYLINE
  5
BB
330
AE7
100
AcDbEntity
  8
Contexts
100
AcDbPolyline
 90
        7
 70
     0
 43
0.0
 10
502864.8007711276
 20
481105.3295162118
 10
502864.8019217604
 20
481105.3383892719
 10
502864.8037437202
 20
481105.34743984
 10
502864.804580298
 20
481105.3520574743
 10
502864.8051900829
 20
481105.3567528679
 10
502864.8054439462
 20
481105.3615361882
 10
502864.8052099482
 20
481105.3664177633
  0
LWPOLYLINE
  5
BC
330
AE7
100
AcDbEntity
  8
Contexts
100
AcDbPolyline
 90
        3
 70
     0
 43
0.0
 10
502864.8162543517
 20
481105.3856852865
 10
502864.8201829214
 20
481105.3891908237
 10
502864.8555519314
 20
481105.4207512609
  0
LWPOLYLINE
  5
BD
330
AE7
100
AcDbEntity
  8
Contexts
100
AcDbPolyline
 90
        9
 70
     0
 43
0.0
 10
502864.8798847629
 20
481105.4332382677
 10
502864.8862551691
 20
481105.4335468596
 10
502864.8925911262
 20
481105.4323333487
 10
502864.8987982595
 20
481105.4298470123
 10
502864.9047732826
 20
481105.4263291751
 10
502864.9104190106
 20
481105.4220292733
 10
502864.9156379381
 20
481105.4171911227
 10
502864.9203299094
 20
481105.4120615094
 10
502864.9243946089
 20
481105.4068844085
  0
LWPOLYLINE
  5
BE
330
AE7
100
AcDbEntity
  8
Contexts
100
AcDbPolyline
 90
       10
 70
     0
 43
0.0
 10
502864.9787252959
 20
481105.3565425852
 10
502864.9785904071
 20
481105.3567983971
 10
502864.9752928913
 20
481105.3624252943
 10
502864.9719724779
 20
481105.3682692035
 10
502864.9688527832
 20
481105.3742708747
 10
502864.9661560985
 20
481105.3803725428
 10
502864.9641047148
 20
481105.3865164429
 10
502864.9629224085
 20
481105.3926461354
 10
502864.9628314709
 20
481105.3987038553
 10
502864.9640553584
 20
481105.4046275416
  0
LWPOLYLINE
  5
BF
330
AE7
100
AcDbEntity
  8
Contexts
100
AcDbPolyline
 90
        7
 70
     0
 43
0.0
 10
502864.9657466432
 20
481105.4343738864
 10
502864.9665096919
 20
481105.4456277039
 10
502864.9679079913
 20
481105.4563011656
 10
502864.9690770193
 20
481105.4614342203
 10
502864.9706828835
 20
481105.4664394972
 10
502864.9728204592
 20
481105.4713242862
 10
502864.9755814918
 20
481105.4760904158
  0
LWPOLYLINE
  5
C0
330
AE7
100
AcDbEntity
  8
Contexts
100
AcDbPolyline
 90
        8
 70
     0
 43
0.0
 10
502864.979329882
 20
481105.4982572934
 10
502864.9756458864
 20
481105.5087124087
 10
502864.9808044523
 20
481105.516935851
 10
502864.9862090078
 20
481105.5247251562
 10
502864.9891061906
 20
481105.5284895843
 10
502864.9921896521
 20
481105.5321827882
 10
502864.9954997007
 20
481105.5358193926
 10
502864.9990792953
 20
481105.5394110515
  0
LWPOLYLINE
  5
C1
330
AE7
100
AcDbEntity
  8
Contexts
100
AcDbPolyline
 90
        7
 70
     0
 43
0.0
 10
502865.0127422501
 20
481105.5610151578
 10
502865.0158673367
 20
481105.5661088076
 10
502865.0195390346
 20
481105.5708978392
 10
502865.0236489633
 20
481105.5754349456
 10
502865.0280920321
 20
481105.5797810915
 10
502865.0375543047
 20
481105.5881177398
 10
502865.0470846954
 20
481105.5963631005
  0
LWPOLYLINE
  5
C2
330
AE7
100
AcDbEntity
  8
Contexts
100
AcDbPolyline
 90
       11
 70
     0
 43
0.0
 10
502865.0680356256
 20
481105.6105412372
 10
502865.0711023226
 20
481105.6129735672
 10
502865.0742661142
 20
481105.6150309876
 10
502865.0775345868
 20
481105.6167229361
 10
502865.0809138414
 20
481105.6180575244
 10
502865.0844117842
 20
481105.6190498113
 10
502865.0880343564
 20
481105.619705098
 10
502865.0917881387
 20
481105.6200399288
 10
502865.0956818832
 20
481105.6200594446
 10
502865.0993514154
 20
481105.6167334238
 10
502865.1027463081
 20
481105.6130903033
  0
LWPOLYLINE
  5
C3
330
AE7
100
AcDbEntity
  8
Contexts
100
AcDbPolyline
 90
        9
 70
     0
 43
0.0
 10
502865.0944225647
 20
481105.619781459
 10
502865.0930780366
 20
481105.6158257581
 10
502865.0920605274
 20
481105.6112494367
 10
502865.0913086821
 20
481105.6062378584
 10
502865.0907595006
 20
481105.600972251
 10
502865.0900329857
 20
481105.5904100075
 10
502865.0893832416
 20
481105.5810234515
 10
502865.0651400132
 20
481105.6077706738
 10
502865.0639723844
 20
481105.6090792068
  0
LWPOLYLINE
  5
C4
330
AE7
100
AcDbEntity
  8
Contexts
100
AcDbPolyline
 90
       12
 70
     0
 43
0.0
 10
502865.102665378
 20
481105.5024304728
 10
502865.0968632122
 20
481105.4998436329
 10
502865.0904384306
 20
481105.4980591883
 10
502865.0835742051
 20
481105.4969017618
 10
502865.076449731
 20
481105.4962004319
 10
502865.0621497533
 20
481105.4954619021
 10
502865.048992788
 20
481105.4944440305
 10
502865.0575300519
 20
481105.483378606
 10
502865.0659893285
 20
481105.4720328267
 10
502865.0745605951
 20
481105.4608216611
 10
502865.0834280479
 20
481105.4501575868
 10
502865.0858587304
 20
481105.4474335804
  0
LWPOLYLINE
  5
C5
330
AE7
100
AcDbEntity
  8
Contexts
100
AcDbPolyline
 90
       17
 70
     0
 43
0.0
 10
502864.9698387811
 20
481105.3533191765
 10
502864.964262581
 20
481105.3586922577
 10
502864.9578371845
 20
481105.3638838539
 10
502864.9507813409
 20
481105.3688730584
 10
502864.9433152846
 20
481105.3736402894
 10
502864.9356589298
 20
481105.378160344
 10
502864.9280297004
 20
481105.3824138009
 10
502864.9206476707
 20
481105.3863782676
 10
502864.9137329152
 20
481105.3900313519
 10
502864.9134881815
 20
481105.3833272774
 10
502864.9141473295
 20
481105.376130481
 10
502864.9154708614
 20
481105.3685927576
 10
502864.9172234147
 20
481105.3608642569
 10
502864.9191711125
 20
481105.3530964545
 10
502864.9210744565
 20
481105.3454411454
 10
502864.9227008951
 20
481105.3380483195
 10
502864.9238109302
 20
481105.331069772
  0
LWPOLYLINE
  5
C6
330
AE7
100
AcDbEntity
  8
Contexts
100
AcDbPolyline
 90
       12
 70
     0
 43
0.0
 10
502864.8274997935
 20
481105.2992481139
 10
502864.8208966044
 20
481105.3068155788
 10
502864.8142929804
 20
481105.3145240547
 10
502864.8076104764
 20
481105.3221594768
 10
502864.8007711276
 20
481105.3295162118
 10
502864.7933765553
 20
481105.3367536859
 10
502864.7920215412
 20
481105.3177976313
 10
502864.7898367557
 20
481105.2983572757
 10
502864.7889214894
 20
481105.2886404123
 10
502864.7883842631
 20
481105.2790261049
 10
502864.7884236481
 20
481105.2695848258
 10
502864.7892301038
 20
481105.2603931488
  0
LWPOLYLINE
  5
C7
330
AE7
100
AcDbEntity
  8
Contexts
100
AcDbPolyline
 90
       13
 70
     0
 43
0.0
 10
502864.9078881865
 20
481105.4227456927
 10
502864.9013326133
 20
481105.4164825043
 10
502864.8950386351
 20
481105.4100098687
 10
502864.888655105
 20
481105.4035987238
 10
502864.8818336866
 20
481105.3975198467
 10
502864.880976604
 20
481105.4014612522
 10
502864.8791251012
 20
481105.4065589381
 10
502864.8766650134
 20
481105.4123834984
 10
502864.8739877973
 20
481105.4185052066
 10
502864.8714865545
 20
481105.4244984727
 10
502864.8695482858
 20
481105.4299295943
 10
502864.8685674183
 20
481105.434371496
 10
502864.8689325979
 20
481105.4373946116
  0
LWPOLYLINE
  5
C8
330
AE7
100
AcDbEntity
  8
Contexts
100
AcDbPolyline
 90
       12
 70
     0
 43
0.0
 10
502864.8449307204
 20
481105.4089206551
 10
502864.8451113775
 20
481105.4015903622
 10
502864.8455705372
 20
481105.3943725192
 10
502864.8461419162
 20
481105.3871694382
 10
502864.8466630472
 20
481105.3798761655
 10
502864.8467932628
 20
481105.3778286828
 10
502864.8433466319
 20
481105.378530952
 10
502864.839868214
 20
481105.3795170028
 10
502864.8363894974
 20
481105.380745567
 10
502864.8329464266
 20
481105.382179353
 10
502864.8262951407
 20
481105.3855072747
 10
502864.8201829214
 20
481105.3891908237
  0
LWPOLYLINE
  5
C9
330
AE7
100
AcDbEntity
  8
Contexts
100
AcDbPolyline
 90
       11
 70
     0
 43
0.0
 10
502865.004822006
 20
481105.6621822909
 10
502865.0006839263
 20
481105.6574973408
 10
502864.9975006409
 20
481105.6521489977
 10
502864.9949682351
 20
481105.6463462972
 10
502864.9927730373
 20
481105.6403002397
 10
502864.9906081626
 20
481105.6342172102
 10
502864.9881658803
 20
481105.6283135104
 10
502864.9851376602
 20
481105.6227913894
 10
502864.9812129611
 20
481105.6178673091
 10
502864.978862212
 20
481105.6202864659
 10
502864.9530904484
 20
481105.6489619506
  0
LWPOLYLINE
  5
CA
330
AE7
100
AcDbEntity
  8
Contexts
100
AcDbPolyline
 90
        8
 70
     0
 43
0.0
 10
502864.9141741352
 20
481105.6424733669
 10
502864.9104085081
 20
481105.6397748687
 10
502864.9074340383
 20
481105.6370059727
 10
502864.905077678
 20
481105.6341483289
 10
502864.9031675453
 20
481105.631179291
 10
502864.9000022039
 20
481105.6248331532
 10
502864.8965586147
 20
481105.6178091959
 10
502864.877879184
 20
481105.6383212063
  0
LWPOLYLINE
  5
CB
330
AE7
100
AcDbEntity
  8
Contexts
100
AcDbPolyline
 90
       11
 70
     0
 43
0.0
 10
502864.7876739278
 20
481105.6919479462
 10
502864.7872375699
 20
481105.6887145817
 10
502864.7863557159
 20
481105.6855559131
 10
502864.7850679429
 20
481105.6825232631
 10
502864.7834053959
 20
481105.6796684343
 10
502864.7814076517
 20
481105.6770427491
 10
502864.7791099915
 20
481105.6746963652
 10
502864.7765465309
 20
481105.6726837357
 10
502864.773752551
 20
481105.671055018
 10
502864.773145543
 20
481105.671735277
 10
502864.7541400776
 20
481105.6926126665
  0
LWPOLYLINE
  5
CC
330
AE7
100
AcDbEntity
  8
Contexts
100
AcDbPolyline
 90
       15
 70
     0
 43
0.0
 10
502864.6935190346
 20
481105.6761662667
 10
502864.6949421951
 20
481105.6722871098
 10
502864.6959640309
 20
481105.6682926233
 10
502864.6967177154
 20
481105.664218935
 10
502864.6973296348
 20
481105.6601067882
 10
502864.6979346076
 20
481105.6559964466
 10
502864.6986588604
 20
481105.6519258428
 10
502864.6996355663
 20
481105.6479311047
 10
502864.7009942423
 20
481105.644058437
 10
502864.6992547566
 20
481105.6449554042
 10
502864.6922463122
 20
481105.6488450373
 10
502864.6853931344
 20
481105.6532333862
 10
502864.6786172819
 20
481105.6578161256
 10
502864.6718375228
 20
481105.6622806589
 10
502864.6691944281
 20
481105.663873353
  0
LWPOLYLINE
  5
CD
330
AE7
100
AcDbEntity
  8
Contexts
100
AcDbPolyline
 90
       14
 70
     0
 43
0.0
 10
502864.6252225171
 20
481105.6340487775
 10
502864.6258308504
 20
481105.6333670333
 10
502864.6342379926
 20
481105.6239543241
 10
502864.6427942421
 20
481105.6134207476
 10
502864.6468918257
 20
481105.6079048181
 10
502864.6507468733
 20
481105.6023138684
 10
502864.6542646917
 20
481105.5967181409
 10
502864.6573519127
 20
481105.5911863924
 10
502864.6590488661
 20
481105.5878076656
 10
502864.6490553735
 20
481105.58866818
 10
502864.638684049
 20
481105.5890581522
 10
502864.6283368345
 20
481105.5890294328
 10
502864.6184125415
 20
481105.588628411
 10
502864.6164155584
 20
481105.5885432572
  0
LWPOLYLINE
  5
CE
330
AE7
100
AcDbEntity
  8
Contexts
100
AcDbPolyline
 90
       11
 70
     0
 43
0.0
 10
502864.6170021591
 20
481105.511417117
 10
502864.6240408823
 20
481105.5036246678
 10
502864.6311037356
 20
481105.4958350751
 10
502864.6380424193
 20
481105.4879693662
 10
502864.6447043372
 20
481105.4799474031
 10
502864.6446061252
 20
481105.4799558113
 10
502864.6361478236
 20
481105.4779148789
 10
502864.6270827944
 20
481105.475543317
 10
502864.6179788719
 20
481105.4734545311
 10
502864.6094009191
 20
481105.4722592761
 10
502864.6073083747
 20
481105.4721795602
  0
LWPOLYLINE
  5
CF
330
AE7
100
AcDbEntity
  8
Contexts
100
AcDbPolyline
 90
       12
 70
     0
 43
0.0
 10
502864.5993882419
 20
481105.4204060765
 10
502864.6027587304
 20
481105.4167305078
 10
502864.6092211332
 20
481105.4097364098
 10
502864.6157355902
 20
481105.4026660366
 10
502864.6220579885
 20
481105.3954909837
 10
502864.6279433695
 20
481105.3881927631
 10
502864.6304342448
 20
481105.3847674491
 10
502864.6241635085
 20
481105.3815277183
 10
502864.61795234
 20
481105.3788640521
 10
502864.6117299738
 20
481105.3763504685
 10
502864.6054256442
 20
481105.3735609861
 10
502864.6041451
 20
481105.372885217
  0
LWPOLYLINE
  5
D0
330
AE7
100
AcDbEntity
  8
Contexts
100
AcDbPolyline
 90
       18
 70
     0
 43
0.0
 10
502864.6243791652
 20
481105.3132935493
 10
502864.6261387517
 20
481105.313641758
 10
502864.6307774197
 20
481105.3146861514
 10
502864.6352569769
 20
481105.3160314407
 10
502864.6396195604
 20
481105.3176005054
 10
502864.6439000408
 20
481105.3193124086
 10
502864.6523804297
 20
481105.3228564091
 10
502864.6610146054
 20
481105.3260307331
 10
502864.6637987642
 20
481105.3269170116
 10
502864.6641409416
 20
481105.3213102501
 10
502864.6632753972
 20
481105.3154155177
 10
502864.6616366118
 20
481105.3093857334
 10
502864.6596613968
 20
481105.3033652243
 10
502864.6577839128
 20
481105.2975012882
 10
502864.6564384807
 20
481105.2919440335
 10
502864.6560605862
 20
481105.2868392727
 10
502864.6570858757
 20
481105.2823356288
 10
502864.6573878742
 20
481105.281572626
  0
LWPOLYLINE
  5
D1
330
AE7
100
AcDbEntity
  8
Contexts
100
AcDbPolyline
 90
       13
 70
     0
 43
0.0
 10
502864.7289721193
 20
481105.3595645246
 10
502864.7372062803
 20
481105.3577904316
 10
502864.7459467881
 20
481105.3560199522
 10
502864.7547832921
 20
481105.3541030239
 10
502864.7632999808
 20
481105.3518927144
 10
502864.7579963498
 20
481105.3451832614
 10
502864.753734465
 20
481105.3405772595
 10
502864.749116087
 20
481105.3360986931
 10
502864.7442404333
 20
481105.3317320475
 10
502864.739205396
 20
481105.327463293
 10
502864.7290555254
 20
481105.3191587226
 10
502864.7194492925
 20
481105.3110671233
 10
502864.7187140781
 20
481105.3104110775
  0
LWPOLYLINE
  5
D2
330
AE7
100
AcDbEntity
  8
Contexts
100
AcDbPolyline
 90
       16
 70
     0
 43
0.0
 10
502864.7656092215
 20
481105.4134343889
 10
502864.7658538781
 20
481105.41421563
 10
502864.7668021593
 20
481105.4173028452
 10
502864.7681247559
 20
481105.4204519422
 10
502864.769784102
 20
481105.4235973851
 10
502864.7717469276
 20
481105.4266748038
 10
502864.7739786372
 20
481105.4296213129
 10
502864.7764416647
 20
481105.4323713768
 10
502864.7791014148
 20
481105.4348621101
 10
502864.7819244575
 20
481105.4370263324
 10
502864.7838596797
 20
481105.432755702
 10
502864.7855219569
 20
481105.4276278976
 10
502864.7869203817
 20
481105.4219018169
 10
502864.7880781002
 20
481105.4158355576
 10
502864.7897221634
 20
481105.4037229148
 10
502864.7905791261
 20
481105.3933624065
  0
LWPOLYLINE
  5
D3
330
AE7
100
AcDbEntity
  8
Contexts
100
AcDbPolyline
 90
       14
 70
     0
 43
0.0
 10
502864.8562151663
 20
481105.4542837858
 10
502864.8502689367
 20
481105.4611568703
 10
502864.8442331318
 20
481105.4681901371
 10
502864.8380378771
 20
481105.474923717
 10
502864.8316190796
 20
481105.4809002318
 10
502864.8298870965
 20
481105.4769242829
 10
502864.829109881
 20
481105.4729038725
 10
502864.8290257247
 20
481105.4688482539
 10
502864.8293765757
 20
481105.4647566024
 10
502864.8299005661
 20
481105.4606353605
 10
502864.830336993
 20
481105.4564866744
 10
502864.8304253138
 20
481105.4523155012
 10
502864.8299061513
 20
481105.4481225018
 10
502864.8282454438
 20
481105.4434417945
  0
LWPOLYLINE
  5
D4
330
AE7
100
AcDbEntity
  8
Contexts
100
AcDbPolyline
 90
        6
 70
     0
 43
0.0
 10
502864.8939821073
 20
481105.5279839449
 10
502864.8898034633
 20
481105.5240231534
 10
502864.8854918733
 20
481105.5202532095
 10
502864.8809500378
 20
481105.5168967688
 10
502864.8760879242
 20
481105.514180303
 10
502864.8921469476
 20
481105.4957587876
  0
LWPOLYLINE
  5
D5
330
AE7
100
AcDbEntity
  8
Contexts
100
AcDbPolyline
 90
       15
 70
     0
 43
0.0
 10
502864.874453363
 20
481105.5999704751
 10
502864.8735242775
 20
481105.5967002952
 10
502864.8722636735
 20
481105.5937239035
 10
502864.8707537223
 20
481105.5909492127
 10
502864.86907543
 20
481105.5882884311
 10
502864.8655401765
 20
481105.5829488376
 10
502864.8623036758
 20
481105.5769874124
 10
502864.8654954495
 20
481105.5733177837
 10
502864.8694277357
 20
481105.5708184997
 10
502864.8738990854
 20
481105.5691950829
 10
502864.8787065638
 20
481105.5681517311
 10
502864.8836485621
 20
481105.5673911566
 10
502864.8885236311
 20
481105.5666188821
 10
502864.8931303214
 20
481105.5655404304
 10
502864.8972668642
 20
481105.5638557035
  0
LWPOLYLINE
  5
D6
330
AE7
100
AcDbEntity
  8
Contexts
100
AcDbPolyline
 90
       16
 70
     0
 43
0.0
 10
502864.8181855676
 20
481105.5944678553
 10
502864.8172130115
 20
481105.5889471868
 10
502864.8171442882
 20
481105.5834780064
 10
502864.8177225112
 20
481105.5780551939
 10
502864.8186921192
 20
481105.5726721439
 10
502864.8197963857
 20
481105.5673265469
 10
502864.8207797494
 20
481105.5620117975
 10
502864.8213854837
 20
481105.5567255861
 10
502864.8213580273
 20
481105.5514613074
 10
502864.817668564
 20
481105.5519842434
 10
502864.8140458915
 20
481105.5527642037
 10
502864.8104831548
 20
481105.5537550524
 10
502864.8069711682
 20
481105.5549192464
 10
502864.8000539967
 20
481105.5575883833
 10
502864.7932211429
 20
481105.5604261354
 10
502864.7877745026
 20
481105.56262529
  0
LWPOLYLINE
  5
D7
330
AE7
100
AcDbEntity
  8
Contexts
100
AcDbPolyline
 90
       10
 70
     0
 43
0.0
 10
502864.7970646765
 20
481105.6603274864
 10
502864.7954836611
 20
481105.6573693276
 10
502864.7941111631
 20
481105.6535167284
 10
502864.792951294
 20
481105.6490401489
 10
502864.7920010587
 20
481105.6442090435
 10
502864.790737343
 20
481105.6345627634
 10
502864.790327292
 20
481105.6267373856
 10
502864.790351128
 20
481105.6262891024
 10
502864.7586890132
 20
481105.6458480466
 10
502864.7577264961
 20
481105.6464004999
  0
LWPOLYLINE
  5
D8
330
AE7
100
AcDbEntity
  8
Contexts
100
AcDbPolyline
 90
       15
 70
     0
 43
0.0
 10
502864.7210489531
 20
481105.6136724339
 10
502864.7215626874
 20
481105.6089497639
 10
502864.7227469041
 20
481105.6042411053
 10
502864.7244323262
 20
481105.5995448122
 10
502864.726450156
 20
481105.5948676699
 10
502864.7308025932
 20
481105.5855799512
 10
502864.7344466151
 20
481105.5764044473
 10
502864.7329007258
 20
481105.5763429695
 10
502864.7251979674
 20
481105.5762568203
 10
502864.7165332871
 20
481105.5765849236
 10
502864.7121685889
 20
481105.576985559
 10
502864.7079549321
 20
481105.5775876692
 10
502864.7040240044
 20
481105.5784260564
 10
502864.7005071738
 20
481105.5795299018
 10
502864.6992452451
 20
481105.580097983
  0
LWPOLYLINE
  5
D9
330
AE7
100
AcDbEntity
  8
Contexts
100
AcDbPolyline
 90
       11
 70
     0
 43
0.0
 10
502864.6917889056
 20
481105.5146224291
 10
502864.6985142076
 20
481105.5071692638
 10
502864.7052656508
 20
481105.4997047419
 10
502864.7119005105
 20
481105.4921735413
 10
502864.7182772277
 20
481105.4845160436
 10
502864.7183700018
 20
481105.4844120739
 10
502864.7107245608
 20
481105.4830537857
 10
502864.7030016132
 20
481105.4812501614
 10
502864.695251405
 20
481105.4794382192
 10
502864.6875202057
 20
481105.4780594333
 10
502864.6847151579
 20
481105.4777227805
  0
LWPOLYLINE
  5
DA
330
AE7
100
AcDbEntity
  8
Contexts
100
AcDbPolyline
 90
       19
 70
     0
 43
0.0
 10
502864.6798395797
 20
481105.4357226375
 10
502864.681730867
 20
481105.4340246888
 10
502864.6860778039
 20
481105.4309829794
 10
502864.6910509815
 20
481105.4284413825
 10
502864.6964550966
 20
481105.426262976
 10
502864.7020986619
 20
481105.4243035713
 10
502864.7077862141
 20
481105.4224234354
 10
502864.7133237753
 20
481105.4204841615
 10
502864.718518213
 20
481105.4183374246
 10
502864.7231743838
 20
481105.4158491132
 10
502864.722806034
 20
481105.4155204278
 10
502864.7179479989
 20
481105.4110174326
 10
502864.7127128121
 20
481105.4068982341
 10
502864.7072050158
 20
481105.4030426844
 10
502864.7015347736
 20
481105.3993303154
 10
502864.6958081131
 20
481105.3956423049
 10
502864.6901310619
 20
481105.3918598302
 10
502864.6846108129
 20
481105.3878597729
 10
502864.679355039
 20
481105.3835274466
  0
LWPOLYLINE
  5
DB
330
AE7
100
AcDbEntity
  8
Contexts
100
AcDbPolyline
 90
        2
 70
     0
 43
0.0
 10
502864.9808605693
 20
481105.6125665359
 10
502864.9901912952
 20
481105.5361863174
  0
LWPOLYLINE
  5
DC
330
AE7
100
AcDbEntity
  8
Contexts
100
AcDbPolyline
 90
        2
 70
     0
 43
0.0
 10
502865.0893832416
 20
481105.5810234515
 10
502865.1022030701
 20
481105.5161338684
  0
LWPOLYLINE
  5
DD
330
AE7
100
AcDbEntity
  8
Contexts
100
AcDbPolyline
 90
        3
 70
     0
 43
0.0
 10
502864.98090101
 20
481105.5914247374
 10
502864.978862212
 20
481105.6202864659
 10
502864.9774541703
 20
481105.6401145512
  0
LWPOLYLINE
  5
DE
330
AE7
100
AcDbEntity
  8
Contexts
100
AcDbPolyline
 90
        4
 70
     0
 43
0.0
 10
502864.7822327675
 20
481105.6400333983
 10
502864.790327292
 20
481105.6267373856
 10
502864.812449699
 20
481105.5906675797
 10
502864.8129454942
 20
481105.5897920387
  0
LWPOLYLINE
  5
DF
330
AE7
100
AcDbEntity
  8
Contexts
100
AcDbPolyline
 90
        3
 70
     0
 43
0.0
 10
502864.7267917752
 20
481105.5835030566
 10
502864.7329007258
 20
481105.5763429695
 10
502864.7769145747
 20
481105.5246975914
  0
LWPOLYLINE
  5
E0
330
AE7
100
AcDbEntity
  8
Contexts
100
AcDbPolyline
 90
        3
 70
     0
 43
0.0
 10
502864.7113776727
 20
481105.4873956575
 10
502864.7182772277
 20
481105.4845160436
 10
502864.7563189363
 20
481105.468672809
  0
LWPOLYLINE
  5
E1
330
AE7
100
AcDbEntity
  8
Contexts
100
AcDbPolyline
 90
        3
 70
     0
 43
0.0
 10
502864.7172015361
 20
481105.4149454942
 10
502864.722806034
 20
481105.4155204278
 10
502864.7409633712
 20
481105.4173238432
  0
LWPOLYLINE
  5
E2
330
AE7
100
AcDbEntity
  8
Contexts
100
AcDbPolyline
 90
        3
 70
     0
 43
0.0
 10
502864.7567031247
 20
481105.3443094229
 10
502864.7579963498
 20
481105.3451832614
 10
502864.7903389238
 20
481105.3672639884
  0
LWPOLYLINE
  5
E3
330
AE7
100
AcDbEntity
  8
Contexts
100
AcDbPolyline
 90
        3
 70
     0
 43
0.0
 10
502864.8436626281
 20
481105.3866112278
 10
502864.8466630472
 20
481105.3798761655
 10
502864.860208166
 20
481105.3496096305
  0
LWPOLYLINE
  5
E4
330
AE7
100
AcDbEntity
  8
Contexts
100
AcDbPolyline
 90
        3
 70
     0
 43
0.0
 10
502864.8831418726
 20
481105.4030171869
 10
502864.8818336866
 20
481105.3975198467
 10
502864.8733083495
 20
481105.3612991721
  0
LWPOLYLINE
  5
E5
330
AE7
100
AcDbEntity
  8
Contexts
100
AcDbPolyline
 90
        3
 70
     0
 43
0.0
 10
502864.6442081347
 20
481105.3121651959
 10
502864.6610146054
 20
481105.3260307331
 10
502864.6781260621
 20
481105.3400777062
  0
LWPOLYLINE
  5
E6
330
AE7
100
AcDbEntity
  8
Contexts
100
AcDbPolyline
 90
        3
 70
     0
 43
0.0
 10
502864.6224838716
 20
481105.3892492499
 10
502864.6279433695
 20
481105.3881927631
 10
502864.6765939381
 20
481105.3787105657
  0
LWPOLYLINE
  5
E7
330
AE7
100
AcDbEntity
  8
Contexts
100
AcDbPolyline
 90
        3
 70
     0
 43
0.0
 10
502864.6317740454
 20
481105.4869514463
 10
502864.6446061252
 20
481105.4799558113
 10
502864.6824176903
 20
481105.4592010188
  0
LWPOLYLINE
  5
E8
330
AE7
100
AcDbEntity
  8
Contexts
100
AcDbPolyline
 90
        4
 70
     0
 43
0.0
 10
502864.6540218532
 20
481105.5938628866
 10
502864.6573519127
 20
481105.5911863924
 10
502864.6943830736
 20
481105.5610778563
 10
502864.6968068734
 20
481105.5591000595
  0
LWPOLYLINE
  5
E9
330
AE7
100
AcDbEntity
  8
Contexts
100
AcDbPolyline
 90
        4
 70
     0
 43
0.0
 10
502864.6957564795
 20
481105.6499282697
 10
502864.6992547566
 20
481105.6449554042
 10
502864.7208620795
 20
481105.6138818587
 10
502864.7210489531
 20
481105.6136724339
  0
LWPOLYLINE
  5
EA
330
AE7
100
AcDbEntity
  8
Contexts
100
AcDbPolyline
 90
        3
 70
     0
 43
0.0
 10
502864.7731226619
 20
481105.676610478
 10
502864.773145543
 20
481105.671735277
 10
502864.7731645879
 20
481105.6554700048
  0
TEXT
  5
B14
330
AE7
100
AcDbEntity
  8
Context labels
100
AcDbText
 10
502864.4084598129
 20
481106.1180348833
 30
0.0
 40
0.025
  1
(113)
100
AcDbText
  0
TEXT
  5
B15
330
AE7
100
AcDbEntity
  8
Context labels
100
AcDbText
 10
502864.4032791047
 20
481105.5922736259
 30
0.0
 40
0.025
  1
(113)
100
AcDbText
  0
TEXT
  5
B17
330
AE7
100
AcDbEntity
  8
Context labels
100
AcDbText
 10
502865.0945743389
 20
481105.3794004039
 30
0.0
 40
0.025
  1
Undercut
100
AcDbText
  0
LWPOLYLINE
  5
B18
330
AE7
100
AcDbEntity
  8
Context labels
100
AcDbPolyline
 90
        2
 70
     0
 43
0.0
 10
502865.073382833
 20
481105.3746931462
 10
502865.0074537767
 20
481105.4370643838
  0
TEXT
  5
B19
330
AE7
100
AcDbEntity
  8
Title
100
AcDbText
 10
502864.6662665517
 20
481106.9838420794
 30
0.0
 40
0.05
  1
SC08 SC26
100
AcDbText
  0
TEXT
  5
B1A
330
AE7
100
AcDbEntity
  8
Title
100
AcDbText
 10
502864.6662665517
 20
481106.900508746
 30
0.0
 40
0.05
  1
Plan of treethrow and ploughmarks
100
AcDbText
  0
TEXT
  5
B1B
330
AE7
100
AcDbEntity
  8
Title
100
AcDbText
 10
502864.6662665517
 20
481106.8171754127
 30
0.0
 40
0.05
  1
CC 11/8/2008
100
AcDbText
  0
TEXT
  5
B1C
330
AE7
100
AcDbEntity
  8
Title
100
AcDbText
 10
502864.6662665517
 20
481106.7338420794
 30
0.0
 40
0.05
  1
Drawing 52
100
AcDbText
  0
ENDSEC
  0
SECTION
  2
OBJECTS
  0
DICTIONARY
  5
A83
330
0
100
AcDbDictionary
281
     1
  3
ACAD_CIP_PREVIOUS_PRODUCT_INFO
350
AFC
  3
ACAD_COLOR
350
AD9
  3
ACAD_DETAILVIEWSTYLE
350
AE1
  3
ACAD_GROUP
350
A84
  3
ACAD_IMAGE_DICT
350
AFD
  3
ACAD_IMAGE_VARS
350
AFE
  3
ACAD_LAYOUT
350
AD8
  3
ACAD_MATERIAL
350
A87
  3
ACAD_MLEADERSTYLE
350
ADC
  3
ACAD_MLINESTYLE
350
AD5
  3
ACAD_PLOTSETTINGS
350
AD7
  3
ACAD_PLOTSTYLENAME
350
A85
  3
ACAD_SCALELIST
350
AB9
  3
ACAD_SECTIONVIEWSTYLE
350
ADE
  3
ACAD_TABLESTYLE
350
ADA
  3
ACAD_VISUALSTYLE
350
AA0
  3
ACDB_RECOMPOSE_DATA
350
BBD
  3
AcDbVariableDictionary
350
B33
  3
AcDsDecomposeData
350
B46
  0
DICTIONARY
  5
B2D
330
A79
100
AcDbDictionary
280
     1
281
     1
  3
ACAD_LAYERSTATES
360
B2E
  0
DICTIONARY
  5
B02
330
AE7
100
AcDbDictionary
280
     1
281
     1
  3
ACAD_SORTENTS
360
B03
  0
XRECORD
  5
AFC
102
{ACAD_REACTORS
330
A83
102
}
330
A83
100
AcDbXrecord
280
     1
300
ACD
300
2013
300
ACD_F_S
  0
DICTIONARY
  5
AD9
102
{ACAD_REACTORS
330
A83
102
}
330
A83
100
AcDbDictionary
281
     1
  0
DICTIONARY
  5
AE1
102
{ACAD_REACTORS
330
A83
102
}
330
A83
100
AcDbDictionary
281
     1
  3
Imperial24
350
AE2
  0
DICTIONARY
  5
A84
102
{ACAD_REACTORS
330
A83
102
}
330
A83
100
AcDbDictionary
281
     1
  0
DICTIONARY
  5
AFD
102
{ACAD_REACTORS
330
A83
102
}
330
A83
100
AcDbDictionary
281
     1
  3
DR52001
350
AFF
  0
RASTERVARIABLES
  5
AFE
102
{ACAD_REACTORS
330
A83
102
}
330
A83
100
AcDbRasterVariables
 90
        0
 70
     1
 71
     1
 72
     0
  0
DICTIONARY
  5
AD8
102
{ACAD_REACTORS
330
A83
102
}
330
A83
100
AcDbDictionary
281
     1
  3
Layout1
350
AE6
  3
Model
350
AEA
  0
DICTIONARY
  5
A87
102
{ACAD_REACTORS
330
A83
102
}
330
A83
100
AcDbDictionary
281
     1
  3
ByBlock
350
A90
  3
ByLayer
350
A88
  3
Global
350
A98
  0
DICTIONARY
  5
ADC
102
{ACAD_REACTORS
330
A83
102
}
330
A83
100
AcDbDictionary
281
     1
  3
Standard
350
ADD
  0
DICTIONARY
  5
AD5
102
{ACAD_REACTORS
330
A83
102
}
330
A83
100
AcDbDictionary
281
     1
  3
Standard
350
AD6
  0
DICTIONARY
  5
AD7
102
{ACAD_REACTORS
330
A83
102
}
330
A83
100
AcDbDictionary
281
     1
  0
ACDBDICTIONARYWDFLT
  5
A85
102
{ACAD_REACTORS
330
A83
102
}
330
A83
100
AcDbDictionary
281
     1
  3
Normal
350
A86
100
AcDbDictionaryWithDefault
340
A86
  0
DICTIONARY
  5
AB9
102
{ACAD_REACTORS
330
A83
102
}
330
A83
100
AcDbDictionary
281
     1
  3
A0
350
ABA
  3
A1
350
ABB
  3
A2
350
ABC
  3
A3
350
ABD
  3
A4
350
ABE
  3
A5
350
ABF
  3
A6
350
AC0
  3
A7
350
AC1
  3
A8
350
AC2
  3
A9
350
AC3
  3
B0
350
AC4
  3
B1
350
AC5
  3
B2
350
AC6
  3
B3
350
AC7
  3
B4
350
AC8
  3
B5
350
AC9
  3
B6
350
ACA
  0
DICTIONARY
  5
ADE
102
{ACAD_REACTORS
330
A83
102
}
330
A83
100
AcDbDictionary
281
     1
  3
Imperial24
350
AE0
  0
DICTIONARY
  5
ADA
102
{ACAD_REACTORS
330
A83
102
}
330
A83
100
AcDbDictionary
281
     1
  3
Standard
350
ADB
  0
DICTIONARY
  5
AA0
102
{ACAD_REACTORS
330
A83
102
}
330
A83
100
AcDbDictionary
281
     1
  3
2dWireframe
350
AA6
  3
Basic
350
AA5
  3
Brighten
350
AAC
  3
ColorChange
350
AB0
  3
Conceptual
350
AA9
  3
Dim
350
AAB
  3
EdgeColorOff
350
AB8
  3
Facepattern
350
AAF
  3
Flat
350
AA1
  3
FlatWithEdges
350
AA2
  3
Gouraud
350
AA3
  3
GouraudWithEdges
350
AA4
  3
Hidden
350
AA8
  3
JitterOff
350
AB6
  3
Linepattern
350
AAE
  3
OverhangOff
350
AB7
  3
Realistic
350
AAA
  3
Shaded
350
AB5
  3
Shaded with edges
350
AB4
  3
Shades of Gray
350
AB1
  3
Sketchy
350
AB2
  3
Thicken
350
AAD
  3
Wireframe
350
AA7
  3
X-Ray
350
AB3
  0
XRECORD
  5
BBD
102
{ACAD_REACTORS
330
A83
102
}
330
A83
100
AcDbXrecord
280
     1
 90
        1
330
ADB
  0
DICTIONARY
  5
B33
102
{ACAD_REACTORS
330
A83
102
}
330
A83
100
AcDbDictionary
281
     1
  3
CANNOSCALE
350
B38
  3
CMLEADERSTYLE
350
B35
  3
CTABLESTYLE
350
B34
  3
CVIEWDETAILSTYLE
350
B36
  3
CVIEWSECTIONSTYLE
350
B37
  3
LAYEREVAL
350
B86
  3
LAYERNOTIFY
350
B87
  3
LIGHTINGUNITS
350
B85
  3
MSLTSCALE
350
B84
  3
XCLIPFRAME
350
B88
  0
DICTIONARY
  5
B46
102
{ACAD_REACTORS
330
A83
102
}
330
A83
100
AcDbDictionary
281
     1
  3
AcDsRecords
350
B48
  3
AcDsSchemas
350
B47
1001
ACAD
1070
     2
  0
DICTIONARY
  5
B2E
102
{ACAD_REACTORS
330
B2D
102
}
330
B2D
100
AcDbDictionary
281
     1
  0
SORTENTSTABLE
  5
B03
102
{ACAD_REACTORS
330
B02
102
}
330
B02
100
AcDbSortentsTable
330
AE7
331
41
  5
42
331
42
  5
43
331
43
  5
44
331
44
  5
45
331
45
  5
46
331
46
  5
47
331
47
  5
48
331
48
  5
49
331
49
  5
4A
331
4A
  5
4B
331
4B
  5
4C
331
4C
  5
4D
331
4D
  5
4E
331
4E
  5
4F
331
4F
  5
50
331
50
  5
51
331
51
  5
52
331
52
  5
53
331
53
  5
54
331
54
  5
55
331
55
  5
56
331
56
  5
57
331
57
  5
58
331
58
  5
59
331
59
  5
5A
331
5A
  5
5B
331
5B
  5
5C
331
5C
  5
5D
331
5D
  5
5E
331
5E
  5
5F
331
5F
  5
60
331
60
  5
61
331
61
  5
62
331
62
  5
63
331
63
  5
64
331
64
  5
65
331
65
  5
66
331
66
  5
67
331
67
  5
68
331
68
  5
69
331
69
  5
6A
331
6A
  5
6B
331
6B
  5
6C
331
6C
  5
6D
331
6D
  5
6E
331
6E
  5
6F
331
6F
  5
70
331
70
  5
71
331
71
  5
72
331
72
  5
73
331
73
  5
74
331
74
  5
75
331
75
  5
76
331
76
  5
77
331
77
  5
78
331
78
  5
79
331
79
  5
7A
331
7A
  5
7B
331
7B
  5
7C
331
7C
  5
7D
331
7D
  5
7E
331
7E
  5
7F
331
7F
  5
80
331
80
  5
81
331
81
  5
82
331
82
  5
83
331
83
  5
84
331
84
  5
85
331
89
  5
8A
331
8D
  5
8E
331
8E
  5
8F
331
8F
  5
90
331
90
  5
91
331
91
  5
92
331
92
  5
93
331
93
  5
94
331
94
  5
95
331
95
  5
96
331
96
  5
97
331
97
  5
98
331
98
  5
99
331
99
  5
9A
331
9A
  5
9B
331
9B
  5
9C
331
9C
  5
9D
331
9D
  5
9E
331
9E
  5
9F
331
9F
  5
A0
331
A0
  5
A1
331
A1
  5
A2
331
A2
  5
A3
331
A3
  5
A4
331
A4
  5
A5
331
A5
  5
A6
331
A6
  5
A7
331
A7
  5
A8
331
A8
  5
A9
331
A9
  5
AA
331
AA
  5
AB
331
AB
  5
AC
331
AC
  5
AD
331
AD
  5
AE
331
AE
  5
AF
331
AF
  5
B0
331
B0
  5
B1
331
B1
  5
B2
331
B2
  5
B3
331
B3
  5
B4
331
B4
  5
B5
331
B5
  5
B6
331
B6
  5
B7
331
B7
  5
B8
331
B8
  5
B9
331
B9
  5
BA
331
BA
  5
BB
331
BB
  5
BC
331
BC
  5
BD
331
BD
  5
BE
331
BE
  5
BF
331
BF
  5
C0
331
C0
  5
C1
331
C1
  5
C2
331
C2
  5
C3
331
C3
  5
C4
331
C4
  5
C5
331
C5
  5
C6
331
C6
  5
C7
331
C7
  5
C8
331
C8
  5
C9
331
C9
  5
CA
331
CA
  5
CB
331
CB
  5
CC
331
CC
  5
CD
331
CD
  5
CE
331
CE
  5
CF
331
CF
  5
D0
331
D0
  5
D1
331
D1
  5
D2
331
D2
  5
D3
331
D3
  5
D4
331
D4
  5
D5
331
D5
  5
D6
331
D6
  5
D7
331
D7
  5
D8
331
D8
  5
D9
331
D9
  5
DA
331
DA
  5
DB
331
DB
  5
DC
331
DC
  5
DD
331
DD
  5
DE
331
DE
  5
DF
331
DF
  5
E0
331
E0
  5
E1
331
E1
  5
E2
331
E2
  5
E3
331
E3
  5
E4
331
E4
  5
E5
331
E5
  5
E6
331
E6
  5
E7
331
E7
  5
E8
331
E8
  5
E9
331
E9
  5
EA
331
EA
  5
EC
  0
ACAD_PROXY_OBJECT
  5
AE2
102
{ACAD_REACTORS
330
AE1
102
}
330
AE1
100
AcDbProxyObject
 90
      499
 91
      507
 95
  6815769
 70
     0
161
              1513
310
90B496D70657269616C323400481C00000060001703D0BD6A3719C7F015AF46E07A15AE7E07000000180005C0F42F5A8DC671FA3300000018001000000180005C0F42F5A8DC671FA02000000000000741FA02AD929E2E20B1AB30B9102B34B2BBAA3CB832902E33101112BA3198911F1290129E2E20B1AB30B9102B34B2BBA
310
232BA30B4B624B21F12AE2829A1A0A62290129E2E20B1AB30B9102B34B2BBA9B1B0B632902E33101112B9B7111F1280233000000180008CC00000060000000
340
ACC
340
0
340
AD3
340
ACC
340
AD3
340
AD3
 94
        0
  0
IMAGEDEF
  5
AFF
102
{ACAD_REACTORS
330
AFD
102
}
330
AFD
100
AcDbRasterImageDef
 90
        0
  1
E:\Star Carr\Drawings\Scans\DR52001.jpg
 10
5100.0
 20
3509.0
 11
0.08466666666666667
 21
0.08466666666666667
280
     1
281
     5
  0
LAYOUT
  5
AE6
102
{ACAD_REACTORS
330
AD8
102
}
330
AD8
100
AcDbPlotSettings
  1

  2
\\ypp\ITSPRN0030
  4

  6

 40
0.0
 41
0.0
 42
0.0
 43
0.0
 44
0.0
 45
0.0
 46
0.0
 47
0.0
 48
0.0
 49
0.0
140
0.0
141
0.0
142
1.0
143
1.0
 70
   688
 72
     0
 73
     0
 74
     5
  7

 75
    16
 76
     0
 77
     2
 78
   300
147
1.0
148
0.0
149
0.0
100
AcDbLayout
  1
Layout1
 70
     1
 71
     1
 10
0.0
 20
0.0
 11
12.0
 21
9.0
 12
0.0
 22
0.0
 32
0.0
 14
1.000000000000000E+20
 24
1.000000000000000E+20
 34
1.000000000000000E+20
 15
-1.000000000000000E+20
 25
-1.000000000000000E+20
 35
-1.000000000000000E+20
146
0.0
 13
0.0
 23
0.0
 33
0.0
 16
1.0
 26
0.0
 36
0.0
 17
0.0
 27
1.0
 37
0.0
 76
     0
330
AE3
  0
LAYOUT
  5
AEA
102
{ACAD_REACTORS
330
AD8
102
}
102
{ACAD_XDICTIONARY
360
B82
102
}
330
AD8
100
AcDbPlotSettings
  1

  2
\\ypp\ITSPRN0030
  4

  6

 40
0.0
 41
0.0
 42
0.0
 43
0.0
 44
0.0
 45
0.0
 46
0.0
 47
0.0
 48
0.0
 49
0.0
140
0.0
141
0.0
142
1.0
143
1.0
 70
  1712
 72
     0
 73
     0
 74
     0
  7

 75
     0
 76
     0
 77
     2
 78
   300
147
1.0
148
0.0
149
0.0
100
AcDbLayout
  1
Model
 70
     1
 71
     0
 10
0.0
 20
0.0
 11
12.0
 21
9.0
 12
0.0
 22
0.0
 32
0.0
 14
0.0
 24
0.0
 34
0.0
 15
0.0
 25
0.0
 35
0.0
146
0.0
 13
0.0
 23
0.0
 33
0.0
 16
1.0
 26
0.0
 36
0.0
 17
0.0
 27
1.0
 37
0.0
 76
     0
330
AE7
331
AF1
  0
MATERIAL
  5
A90
102
{ACAD_REACTORS
330
A87
102
}
330
A87
100
AcDbMaterial
  1
ByBlock
 72
     0
 73
     2
 43
0.0208333333333333
 43
0.0
 43
0.0
 43
0.0
 43
0.0
 43
0.0208333333333333
 43
0.0
 43
0.0
 43
0.0
 43
0.0
 43
1.0
 43
0.0
 43
0.0
 43
0.0
 43
0.0
 43
1.0
 77
     0
 78
     2
 47
0.0208333333333333
 47
0.0
 47
0.0
 47
0.0
 47
0.0
 47
0.0208333333333333
 47
0.0
 47
0.0
 47
0.0
 47
0.0
 47
1.0
 47
0.0
 47
0.0
 47
0.0
 47
0.0
 47
1.0
171
     0
172
     2
 49
0.0208333333333333
 49
0.0
 49
0.0
 49
0.0
 49
0.0
 49
0.0208333333333333
 49
0.0
 49
0.0
 49
0.0
 49
0.0
 49
1.0
 49
0.0
 49
0.0
 49
0.0
 49
0.0
 49
1.0
175
     0
176
     2
142
0.0208333333333333
142
0.0
142
0.0
142
0.0
142
0.0
142
0.0208333333333333
142
0.0
142
0.0
142
0.0
142
0.0
142
1.0
142
0.0
142
0.0
142
0.0
142
0.0
142
1.0
179
     0
270
     2
144
0.0208333333333333
144
0.0
144
0.0
144
0.0
144
0.0
144
0.0208333333333333
144
0.0
144
0.0
144
0.0
144
0.0
144
1.0
144
0.0
144
0.0
144
0.0
144
0.0
144
1.0
274
     2
147
0.0208333333333333
147
0.0
147
0.0
147
0.0
147
0.0
147
0.0208333333333333
147
0.0
147
0.0
147
0.0
147
0.0
147
1.0
147
0.0
147
0.0
147
0.0
147
0.0
147
1.0
 94
      127
  0
MATERIAL
  5
A88
102
{ACAD_REACTORS
330
A87
102
}
330
A87
100
AcDbMaterial
  1
ByLayer
 72
     0
 73
     2
 43
0.0208333333333333
 43
0.0
 43
0.0
 43
0.0
 43
0.0
 43
0.0208333333333333
 43
0.0
 43
0.0
 43
0.0
 43
0.0
 43
1.0
 43
0.0
 43
0.0
 43
0.0
 43
0.0
 43
1.0
 77
     0
 78
     2
 47
0.0208333333333333
 47
0.0
 47
0.0
 47
0.0
 47
0.0
 47
0.0208333333333333
 47
0.0
 47
0.0
 47
0.0
 47
0.0
 47
1.0
 47
0.0
 47
0.0
 47
0.0
 47
0.0
 47
1.0
171
     0
172
     2
 49
0.0208333333333333
 49
0.0
 49
0.0
 49
0.0
 49
0.0
 49
0.0208333333333333
 49
0.0
 49
0.0
 49
0.0
 49
0.0
 49
1.0
 49
0.0
 49
0.0
 49
0.0
 49
0.0
 49
1.0
175
     0
176
     2
142
0.0208333333333333
142
0.0
142
0.0
142
0.0
142
0.0
142
0.0208333333333333
142
0.0
142
0.0
142
0.0
142
0.0
142
1.0
142
0.0
142
0.0
142
0.0
142
0.0
142
1.0
179
     0
270
     2
144
0.0208333333333333
144
0.0
144
0.0
144
0.0
144
0.0
144
0.0208333333333333
144
0.0
144
0.0
144
0.0
144
0.0
144
1.0
144
0.0
144
0.0
144
0.0
144
0.0
144
1.0
274
     2
147
0.0208333333333333
147
0.0
147
0.0
147
0.0
147
0.0
147
0.0208333333333333
147
0.0
147
0.0
147
0.0
147
0.0
147
1.0
147
0.0
147
0.0
147
0.0
147
0.0
147
1.0
 94
      127
  0
MATERIAL
  5
A98
102
{ACAD_REACTORS
330
A87
102
}
330
A87
100
AcDbMaterial
  1
Global
 72
     0
 73
     2
 43
0.0208333333333333
 43
0.0
 43
0.0
 43
0.0
 43
0.0
 43
0.0208333333333333
 43
0.0
 43
0.0
 43
0.0
 43
0.0
 43
1.0
 43
0.0
 43
0.0
 43
0.0
 43
0.0
 43
1.0
 77
     0
 78
     2
 47
0.0208333333333333
 47
0.0
 47
0.0
 47
0.0
 47
0.0
 47
0.0208333333333333
 47
0.0
 47
0.0
 47
0.0
 47
0.0
 47
1.0
 47
0.0
 47
0.0
 47
0.0
 47
0.0
 47
1.0
171
     0
172
     2
 49
0.0208333333333333
 49
0.0
 49
0.0
 49
0.0
 49
0.0
 49
0.0208333333333333
 49
0.0
 49
0.0
 49
0.0
 49
0.0
 49
1.0
 49
0.0
 49
0.0
 49
0.0
 49
0.0
 49
1.0
175
     0
176
     2
142
0.0208333333333333
142
0.0
142
0.0
142
0.0
142
0.0
142
0.0208333333333333
142
0.0
142
0.0
142
0.0
142
0.0
142
1.0
142
0.0
142
0.0
142
0.0
142
0.0
142
1.0
179
     0
270
     2
144
0.0208333333333333
144
0.0
144
0.0
144
0.0
144
0.0
144
0.0208333333333333
144
0.0
144
0.0
144
0.0
144
0.0
144
1.0
144
0.0
144
0.0
144
0.0
144
0.0
144
1.0
274
     2
147
0.0208333333333333
147
0.0
147
0.0
147
0.0
147
0.0
147
0.0208333333333333
147
0.0
147
0.0
147
0.0
147
0.0
147
1.0
147
0.0
147
0.0
147
0.0
147
0.0
147
1.0
 94
      127
  0
MLEADERSTYLE
  5
ADD
102
{ACAD_REACTORS
330
ADC
102
}
102
{ACAD_XDICTIONARY
360
B89
102
}
330
ADC
100
AcDbMLeaderStyle
179
     2
170
     2
171
     1
172
     0
 90
        2
 40
0.0
 41
0.0
173
     1
 91
-1056964608
340
AD1
 92
       -2
290
     1
 42
0.09
291
     1
 43
0.36
  3
Standard
341
0
 44
0.18
300

342
ACC
174
     1
178
     6
175
     1
176
     0
 93
-1056964608
 45
0.18
292
     0
297
     0
 46
0.18
343
0
 94
-1056964608
 47
1.0
 49
1.0
140
1.0
293
     1
141
0.0
294
     1
177
     0
142
1.0
295
     0
296
     0
143
0.125
271
     0
272
     9
273
     9
1001
ACAD_MLEADERVER
1070
     2
  0
MLINESTYLE
  5
AD6
102
{ACAD_REACTORS
330
AD5
102
}
330
AD5
100
AcDbMlineStyle
  2
STANDARD
 70
     0
  3

 62
   256
 51
90.0
 52
90.0
 71
     2
 49
0.5
 62
   256
  6
BYLAYER
 49
-0.5
 62
   256
  6
BYLAYER
  0
ACDBPLACEHOLDER
  5
A86
102
{ACAD_REACTORS
330
A85
102
}
330
A85
  0
SCALE
  5
ABA
102
{ACAD_REACTORS
330
AB9
102
}
330
AB9
100
AcDbScale
 70
     0
300
1:1
140
1.0
141
1.0
290
     1
  0
SCALE
  5
ABB
102
{ACAD_REACTORS
330
AB9
102
}
330
AB9
100
AcDbScale
 70
     0
300
1/128" = 1'-0"
140
0.0078125
141
12.0
290
     0
  0
SCALE
  5
ABC
102
{ACAD_REACTORS
330
AB9
102
}
330
AB9
100
AcDbScale
 70
     0
300
1/64" = 1'-0"
140
0.015625
141
12.0
290
     0
  0
SCALE
  5
ABD
102
{ACAD_REACTORS
330
AB9
102
}
330
AB9
100
AcDbScale
 70
     0
300
1/32" = 1'-0"
140
0.03125
141
12.0
290
     0
  0
SCALE
  5
ABE
102
{ACAD_REACTORS
330
AB9
102
}
330
AB9
100
AcDbScale
 70
     0
300
1/16" = 1'-0"
140
0.0625
141
12.0
290
     0
  0
SCALE
  5
ABF
102
{ACAD_REACTORS
330
AB9
102
}
330
AB9
100
AcDbScale
 70
     0
300
3/32" = 1'-0"
140
0.09375
141
12.0
290
     0
  0
SCALE
  5
AC0
102
{ACAD_REACTORS
330
AB9
102
}
330
AB9
100
AcDbScale
 70
     0
300
1/8" = 1'-0"
140
0.125
141
12.0
290
     0
  0
SCALE
  5
AC1
102
{ACAD_REACTORS
330
AB9
102
}
330
AB9
100
AcDbScale
 70
     0
300
3/16" = 1'-0"
140
0.1875
141
12.0
290
     0
  0
SCALE
  5
AC2
102
{ACAD_REACTORS
330
AB9
102
}
330
AB9
100
AcDbScale
 70
     0
300
1/4" = 1'-0"
140
0.25
141
12.0
290
     0
  0
SCALE
  5
AC3
102
{ACAD_REACTORS
330
AB9
102
}
330
AB9
100
AcDbScale
 70
     0
300
3/8" = 1'-0"
140
0.375
141
12.0
290
     0
  0
SCALE
  5
AC4
102
{ACAD_REACTORS
330
AB9
102
}
330
AB9
100
AcDbScale
 70
     0
300
1/2" = 1'-0"
140
0.5
141
12.0
290
     0
  0
SCALE
  5
AC5
102
{ACAD_REACTORS
330
AB9
102
}
330
AB9
100
AcDbScale
 70
     0
300
3/4" = 1'-0"
140
0.75
141
12.0
290
     0
  0
SCALE
  5
AC6
102
{ACAD_REACTORS
330
AB9
102
}
330
AB9
100
AcDbScale
 70
     0
300
1" = 1'-0"
140
1.0
141
12.0
290
     0
  0
SCALE
  5
AC7
102
{ACAD_REACTORS
330
AB9
102
}
330
AB9
100
AcDbScale
 70
     0
300
1-1/2" = 1'-0"
140
1.5
141
12.0
290
     0
  0
SCALE
  5
AC8
102
{ACAD_REACTORS
330
AB9
102
}
330
AB9
100
AcDbScale
 70
     0
300
3" = 1'-0"
140
3.0
141
12.0
290
     0
  0
SCALE
  5
AC9
102
{ACAD_REACTORS
330
AB9
102
}
330
AB9
100
AcDbScale
 70
     0
300
6" = 1'-0"
140
6.0
141
12.0
290
     0
  0
SCALE
  5
ACA
102
{ACAD_REACTORS
330
AB9
102
}
330
AB9
100
AcDbScale
 70
     0
300
1'-0" = 1'-0"
140
12.0
141
12.0
290
     0
  0
ACAD_PROXY_OBJECT
  5
AE0
102
{ACAD_REACTORS
330
ADE
102
}
330
ADE
100
AcDbProxyObject
 90
      499
 91
      506
 95
  6815769
 70
     0
161
              2581
310
90B496D70657269616C3234004A7400000060001703D0BD6A3719C7F000000180005C0F42F5A8DC671FA229258409E5840A25840A65840B05840B4005C0F42F5A8DC6F1FA330000001800099400000060001703D0BD6A3719C7E5C0F42F5A8DC671FC00000060001703D0BD6A3719C7E808000000000001D07E80AFA4A78B8
310
82C6ACC2E440ACD2CAEEA8F2E0CA40B8CC40444AE8C662447C4A404A78B882C6ACC2E440ACD2CAEEA6CAC6E8D2DEDCA6E8C2E4E892C87C4A5A4A78B882C6ACC2E440ACD2CAEEA6CAC6E8D2DEDC8ADCC892C87C4AB8A0A68682988A404A78B882C6ACC2E440ACD2CAEEA6C6C2D8CA40B8CC40444AE6DC447C4A010000001800
310
10000001900083A0A729A49998803081815AF46E07A158E7E80C8340C16A22A7D90FC9F8CAE65A70A583A07E1FE81C635378FA1F8CAE65A70A583A17E7944A7F127A97E9F8
340
ACC
340
0
340
0
340
ADF
340
AD3
340
ACC
 94
        0
  0
TABLESTYLE
  5
ADB
102
{ACAD_REACTORS
330
ADA
102
}
102
{ACAD_XDICTIONARY
360
B8B
102
}
330
ADA
100
AcDbTableStyle
  3
Standard
 70
     0
 71
     0
 40
0.06
 41
0.06
280
     0
281
     0
  7
STANDARD
140
0.18
170
     2
 62
     0
 63
   257
283
     0
 90
      512
 91
        0
  1

274
    -2
284
     1
 64
     0
275
    -2
285
     1
 65
     0
276
    -2
286
     1
 66
     0
277
    -2
287
     1
 67
     0
278
    -2
288
     1
 68
     0
279
    -2
289
     1
 69
     0
  7
STANDARD
140
0.25
170
     5
 62
     0
 63
   257
283
     0
 90
      512
 91
        0
  1

274
    -2
284
     1
 64
     0
275
    -2
285
     1
 65
     0
276
    -2
286
     1
 66
     0
277
    -2
287
     1
 67
     0
278
    -2
288
     1
 68
     0
279
    -2
289
     1
 69
     0
  7
STANDARD
140
0.18
170
     5
 62
     0
 63
   257
283
     0
 90
      512
 91
        0
  1

274
    -2
284
     1
 64
     0
275
    -2
285
     1
 65
     0
276
    -2
286
     1
 66
     0
277
    -2
287
     1
 67
     0
278
    -2
288
     1
 68
     0
279
    -2
289
     1
 69
     0
  0
VISUALSTYLE
  5
AA6
102
{ACAD_REACTORS
330
AA0
102
}
102
{ACAD_XDICTIONARY
360
B8D
102
}
330
AA0
100
AcDbVisualStyle
  2
2dWireframe
 70
     4
177
     2
291
     0
 71
     0
176
     1
 72
     2
176
     1
 73
     0
176
     1
 90
        0
176
     1
 40
-0.6
176
     1
 41
-30.0
176
     1
 62
     5
 63
     7
421
 16777215
176
     1
 74
     1
176
     1
 91
        4
176
     1
 64
     7
176
     1
 65
   257
176
     1
 75
     1
176
     1
175
     1
176
     1
 42
1.0
176
     1
 92
        0
176
     1
 66
   257
176
     1
 43
1.0
176
     1
 76
     1
176
     1
 77
     6
176
     1
 78
     2
176
     1
 67
     7
176
     1
 79
     5
176
     1
170
     0
176
     1
171
     0
176
     1
290
     0
176
     1
 93
        1
176
     1
 44
0.0
176
     1
173
     0
176
     1
  0
VISUALSTYLE
  5
AA5
102
{ACAD_REACTORS
330
AA0
102
}
102
{ACAD_XDICTIONARY
360
B8F
102
}
330
AA0
100
AcDbVisualStyle
  2
Basic
 70
     7
177
     2
291
     1
 71
     1
176
     1
 72
     0
176
     1
 73
     1
176
     1
 90
        0
176
     1
 40
-0.6
176
     1
 41
-30.0
176
     1
 62
     5
 63
     7
421
 16777215
176
     1
 74
     0
176
     1
 91
        4
176
     1
 64
     7
176
     1
 65
   257
176
     1
 75
     1
176
     1
175
     1
176
     1
 42
1.0
176
     1
 92
        8
176
     1
 66
     7
176
     1
 43
1.0
176
     1
 76
     1
176
     1
 77
     6
176
     1
 78
     2
176
     1
 67
     7
176
     1
 79
     5
176
     1
170
     0
176
     1
171
     0
176
     1
290
     0
176
     1
 93
        1
176
     1
 44
0.0
176
     1
173
     0
176
     1
  0
VISUALSTYLE
  5
AAC
102
{ACAD_REACTORS
330
AA0
102
}
102
{ACAD_XDICTIONARY
360
B91
102
}
330
AA0
100
AcDbVisualStyle
  2
Brighten
 70
    12
177
     2
291
     1
 71
     2
176
     1
 72
     2
176
     1
 73
     0
176
     1
 90
        0
176
     1
 40
-0.6
176
     1
 41
-30.0
176
     1
 62
     5
 63
     7
421
 16777215
176
     1
 74
     1
176
     1
 91
        4
176
     1
 64
     7
176
     1
 65
   257
176
     1
 75
     1
176
     1
175
     1
176
     1
 42
1.0
176
     1
 92
        8
176
     1
 66
     7
176
     1
 43
1.0
176
     1
 76
     1
176
     1
 77
     6
176
     1
 78
     2
176
     1
 67
     7
176
     1
 79
     5
176
     1
170
     0
176
     1
171
     0
176
     1
290
     0
176
     1
 93
        1
176
     1
 44
50.0
176
     1
173
     0
176
     1
  0
VISUALSTYLE
  5
AB0
102
{ACAD_REACTORS
330
AA0
102
}
102
{ACAD_XDICTIONARY
360
B93
102
}
330
AA0
100
AcDbVisualStyle
  2
ColorChange
 70
    16
177
     2
291
     1
 71
     2
176
     1
 72
     2
176
     1
 73
     3
176
     1
 90
        0
176
     1
 40
-0.6
176
     1
 41
-30.0
176
     1
 62
     5
 63
     8
421
  8421504
176
     1
 74
     1
176
     1
 91
        4
176
     1
 64
     7
176
     1
 65
   257
176
     1
 75
     1
176
     1
175
     1
176
     1
 42
1.0
176
     1
 92
        8
176
     1
 66
     8
424
  8421504
176
     1
 43
1.0
176
     1
 76
     1
176
     1
 77
     6
176
     1
 78
     2
176
     1
 67
     7
176
     1
 79
     5
176
     1
170
     0
176
     1
171
     0
176
     1
290
     0
176
     1
 93
        1
176
     1
 44
0.0
176
     1
173
     0
176
     1
  0
VISUALSTYLE
  5
AA9
102
{ACAD_REACTORS
330
AA0
102
}
102
{ACAD_XDICTIONARY
360
B95
102
}
330
AA0
100
AcDbVisualStyle
  2
Conceptual
 70
     9
177
     2
291
     0
 71
     3
176
     1
 72
     2
176
     1
 73
     0
176
     1
 90
        0
176
     1
 40
-0.6
176
     1
 41
-30.0
176
     1
 62
     5
 63
     7
421
 16777215
176
     1
 74
     2
176
     1
 91
        2
176
     1
 64
     7
176
     1
 65
   257
176
     1
 75
     1
176
     1
175
     1
176
     1
 42
179.0
176
     1
 92
        8
176
     1
 66
     7
176
     1
 43
1.0
176
     1
 76
     1
176
     1
 77
     6
176
     1
 78
     2
176
     1
 67
     7
176
     1
 79
     3
176
     1
170
     0
176
     1
171
     0
176
     1
290
     0
176
     1
 93
        1
176
     1
 44
0.0
176
     1
173
     0
176
     1
  0
VISUALSTYLE
  5
AAB
102
{ACAD_REACTORS
330
AA0
102
}
102
{ACAD_XDICTIONARY
360
B97
102
}
330
AA0
100
AcDbVisualStyle
  2
Dim
 70
    11
177
     2
291
     1
 71
     2
176
     1
 72
     2
176
     1
 73
     0
176
     1
 90
        0
176
     1
 40
-0.6
176
     1
 41
-30.0
176
     1
 62
     5
 63
     7
421
 16777215
176
     1
 74
     1
176
     1
 91
        4
176
     1
 64
     7
176
     1
 65
   257
176
     1
 75
     1
176
     1
175
     1
176
     1
 42
1.0
176
     1
 92
        8
176
     1
 66
     7
176
     1
 43
1.0
176
     1
 76
     1
176
     1
 77
     6
176
     1
 78
     2
176
     1
 67
     7
176
     1
 79
     5
176
     1
170
     0
176
     1
171
     0
176
     1
290
     0
176
     1
 93
        1
176
     1
 44
-50.0
176
     1
173
     0
176
     1
  0
VISUALSTYLE
  5
AB8
102
{ACAD_REACTORS
330
AA0
102
}
102
{ACAD_XDICTIONARY
360
B99
102
}
330
AA0
100
AcDbVisualStyle
  2
EdgeColorOff
 70
    22
177
     2
291
     1
 71
     2
176
     0
 72
     2
176
     0
 73
     0
176
     0
 90
        0
176
     0
 40
-0.6
176
     0
 41
-30.0
176
     0
 62
     5
 63
     7
421
 16777215
176
     0
 74
     1
176
     0
 91
        4
176
     0
 64
     7
176
     0
 65
   257
176
     0
 75
     1
176
     0
175
     1
176
     0
 42
1.0
176
     0
 92
        8
176
     2
 66
     7
176
     0
 43
1.0
176
     0
 76
     1
176
     0
 77
     6
176
     0
 78
     2
176
     0
 67
     7
176
     0
 79
     5
176
     0
170
     0
176
     0
171
     0
176
     0
290
     0
176
     0
 93
        1
176
     0
 44
0.0
176
     0
173
     0
176
     0
  0
VISUALSTYLE
  5
AAF
102
{ACAD_REACTORS
330
AA0
102
}
102
{ACAD_XDICTIONARY
360
B9B
102
}
330
AA0
100
AcDbVisualStyle
  2
Facepattern
 70
    15
177
     2
291
     1
 71
     2
176
     1
 72
     2
176
     1
 73
     0
176
     1
 90
        0
176
     1
 40
-0.6
176
     1
 41
-30.0
176
     1
 62
     5
 63
     7
421
 16777215
176
     1
 74
     1
176
     1
 91
        4
176
     1
 64
     7
176
     1
 65
   257
176
     1
 75
     1
176
     1
175
     1
176
     1
 42
1.0
176
     1
 92
        8
176
     1
 66
     7
176
     1
 43
1.0
176
     1
 76
     1
176
     1
 77
     6
176
     1
 78
     2
176
     1
 67
     7
176
     1
 79
     5
176
     1
170
     0
176
     1
171
     0
176
     1
290
     0
176
     1
 93
        1
176
     1
 44
0.0
176
     1
173
     0
176
     1
  0
VISUALSTYLE
  5
AA1
102
{ACAD_REACTORS
330
AA0
102
}
102
{ACAD_XDICTIONARY
360
B9D
102
}
330
AA0
100
AcDbVisualStyle
  2
Flat
 70
     0
177
     2
291
     1
 71
     2
176
     1
 72
     1
176
     1
 73
     1
176
     1
 90
        2
176
     1
 40
-0.6
176
     1
 41
30.0
176
     1
 62
     5
 63
     7
421
 16777215
176
     1
 74
     0
176
     1
 91
        0
176
     1
 64
     7
176
     1
 65
   257
176
     1
 75
     1
176
     1
175
     1
176
     1
 42
1.0
176
     1
 92
        8
176
     1
 66
     7
176
     1
 43
1.0
176
     1
 76
     1
176
     1
 77
     6
176
     1
 78
     2
176
     1
 67
     7
176
     1
 79
     5
176
     1
170
     0
176
     1
171
     0
176
     1
290
     0
176
     1
 93
       13
176
     1
 44
0.0
176
     1
173
     0
176
     1
  0
VISUALSTYLE
  5
AA2
102
{ACAD_REACTORS
330
AA0
102
}
102
{ACAD_XDICTIONARY
360
B9F
102
}
330
AA0
100
AcDbVisualStyle
  2
FlatWithEdges
 70
     1
177
     2
291
     1
 71
     2
176
     1
 72
     1
176
     1
 73
     1
176
     1
 90
        2
176
     1
 40
-0.6
176
     1
 41
30.0
176
     1
 62
     5
 63
     7
421
 16777215
176
     1
 74
     1
176
     1
 91
        0
176
     1
 64
     7
176
     1
 65
   257
176
     1
 75
     1
176
     1
175
     1
176
     1
 42
1.0
176
     1
 92
        0
176
     1
 66
   257
176
     1
 43
1.0
176
     1
 76
     1
176
     1
 77
     6
176
     1
 78
     2
176
     1
 67
     7
176
     1
 79
     5
176
     1
170
     0
176
     1
171
     0
176
     1
290
     0
176
     1
 93
       13
176
     1
 44
0.0
176
     1
173
     0
176
     1
  0
VISUALSTYLE
  5
AA3
102
{ACAD_REACTORS
330
AA0
102
}
102
{ACAD_XDICTIONARY
360
BA1
102
}
330
AA0
100
AcDbVisualStyle
  2
Gouraud
 70
     2
177
     2
291
     1
 71
     2
176
     1
 72
     2
176
     1
 73
     1
176
     1
 90
        2
176
     1
 40
-0.6
176
     1
 41
30.0
176
     1
 62
     5
 63
     7
421
 16777215
176
     1
 74
     0
176
     1
 91
        0
176
     1
 64
     7
176
     1
 65
   257
176
     1
 75
     1
176
     1
175
     1
176
     1
 42
1.0
176
     1
 92
        0
176
     1
 66
     7
176
     1
 43
1.0
176
     1
 76
     1
176
     1
 77
     6
176
     1
 78
     2
176
     1
 67
     7
176
     1
 79
     5
176
     1
170
     0
176
     1
171
     0
176
     1
290
     0
176
     1
 93
       13
176
     1
 44
0.0
176
     1
173
     0
176
     1
  0
VISUALSTYLE
  5
AA4
102
{ACAD_REACTORS
330
AA0
102
}
102
{ACAD_XDICTIONARY
360
BA3
102
}
330
AA0
100
AcDbVisualStyle
  2
GouraudWithEdges
 70
     3
177
     2
291
     1
 71
     2
176
     1
 72
     2
176
     1
 73
     1
176
     1
 90
        2
176
     1
 40
-0.6
176
     1
 41
30.0
176
     1
 62
     5
 63
     7
421
 16777215
176
     1
 74
     1
176
     1
 91
        0
176
     1
 64
     7
176
     1
 65
   257
176
     1
 75
     1
176
     1
175
     1
176
     1
 42
1.0
176
     1
 92
        0
176
     1
 66
   257
176
     1
 43
1.0
176
     1
 76
     1
176
     1
 77
     6
176
     1
 78
     2
176
     1
 67
     7
176
     1
 79
     5
176
     1
170
     0
176
     1
171
     0
176
     1
290
     0
176
     1
 93
       13
176
     1
 44
0.0
176
     1
173
     0
176
     1
  0
VISUALSTYLE
  5
AA8
102
{ACAD_REACTORS
330
AA0
102
}
102
{ACAD_XDICTIONARY
360
BA5
102
}
330
AA0
100
AcDbVisualStyle
  2
Hidden
 70
     6
177
     2
291
     0
 71
     1
176
     1
 72
     2
176
     1
 73
     2
176
     1
 90
        0
176
     1
 40
-0.6
176
     1
 41
-30.0
176
     1
 62
     5
 63
     7
421
 16777215
176
     1
 74
     2
176
     1
 91
        2
176
     1
 64
     7
176
     1
 65
   257
176
     1
 75
     2
176
     1
175
     1
176
     1
 42
40.0
176
     1
 92
        0
176
     1
 66
   257
176
     1
 43
1.0
176
     1
 76
     1
176
     1
 77
     6
176
     1
 78
     2
176
     1
 67
     7
176
     1
 79
     3
176
     1
170
     0
176
     1
171
     0
176
     1
290
     0
176
     1
 93
        1
176
     1
 44
0.0
176
     1
173
     0
176
     1
  0
VISUALSTYLE
  5
AB6
102
{ACAD_REACTORS
330
AA0
102
}
102
{ACAD_XDICTIONARY
360
BA7
102
}
330
AA0
100
AcDbVisualStyle
  2
JitterOff
 70
    20
177
     2
291
     1
 71
     2
176
     0
 72
     2
176
     0
 73
     0
176
     0
 90
        0
176
     0
 40
-0.6
176
     0
 41
-30.0
176
     0
 62
     5
 63
     7
421
 16777215
176
     0
 74
     1
176
     0
 91
        4
176
     0
 64
     7
176
     0
 65
   257
176
     0
 75
     1
176
     0
175
     1
176
     0
 42
1.0
176
     0
 92
       10
176
     2
 66
     7
176
     0
 43
1.0
176
     0
 76
     1
176
     0
 77
     6
176
     0
 78
     2
176
     0
 67
     7
176
     0
 79
     5
176
     0
170
     0
176
     0
171
     0
176
     0
290
     0
176
     0
 93
        1
176
     0
 44
0.0
176
     0
173
     0
176
     0
  0
VISUALSTYLE
  5
AAE
102
{ACAD_REACTORS
330
AA0
102
}
102
{ACAD_XDICTIONARY
360
BA9
102
}
330
AA0
100
AcDbVisualStyle
  2
Linepattern
 70
    14
177
     2
291
     1
 71
     2
176
     1
 72
     2
176
     1
 73
     0
176
     1
 90
        0
176
     1
 40
-0.6
176
     1
 41
-30.0
176
     1
 62
     5
 63
     7
421
 16777215
176
     1
 74
     1
176
     1
 91
        4
176
     1
 64
     7
176
     1
 65
   257
176
     1
 75
     7
176
     1
175
     7
176
     1
 42
1.0
176
     1
 92
        8
176
     1
 66
     7
176
     1
 43
1.0
176
     1
 76
     1
176
     1
 77
     6
176
     1
 78
     2
176
     1
 67
     7
176
     1
 79
     5
176
     1
170
     0
176
     1
171
     0
176
     1
290
     0
176
     1
 93
        1
176
     1
 44
0.0
176
     1
173
     0
176
     1
  0
VISUALSTYLE
  5
AB7
102
{ACAD_REACTORS
330
AA0
102
}
102
{ACAD_XDICTIONARY
360
BAB
102
}
330
AA0
100
AcDbVisualStyle
  2
OverhangOff
 70
    21
177
     2
291
     1
 71
     2
176
     0
 72
     2
176
     0
 73
     0
176
     0
 90
        0
176
     0
 40
-0.6
176
     0
 41
-30.0
176
     0
 62
     5
 63
     7
421
 16777215
176
     0
 74
     1
176
     0
 91
        4
176
     0
 64
     7
176
     0
 65
   257
176
     0
 75
     1
176
     0
175
     1
176
     0
 42
1.0
176
     0
 92
        9
176
     2
 66
     7
176
     0
 43
1.0
176
     0
 76
     1
176
     0
 77
     6
176
     0
 78
     2
176
     0
 67
     7
176
     0
 79
     5
176
     0
170
     0
176
     0
171
     0
176
     0
290
     0
176
     0
 93
        1
176
     0
 44
0.0
176
     0
173
     0
176
     0
  0
VISUALSTYLE
  5
AAA
102
{ACAD_REACTORS
330
AA0
102
}
102
{ACAD_XDICTIONARY
360
BAD
102
}
330
AA0
100
AcDbVisualStyle
  2
Realistic
 70
     8
177
     2
291
     0
 71
     2
176
     1
 72
     2
176
     1
 73
     0
176
     1
 90
        2
176
     1
 40
-0.6
176
     1
 41
30.0
176
     1
 62
     5
 63
     7
421
 16777215
176
     1
 74
     0
176
     1
 91
        0
176
     1
 64
     7
176
     1
 65
   257
176
     1
 75
     1
176
     1
175
     1
176
     1
 42
1.0
176
     1
 92
        8
176
     1
 66
   257
176
     1
 43
1.0
176
     1
 76
     1
176
     1
 77
     6
176
     1
 78
     2
176
     1
 67
     7
176
     1
 79
     3
176
     1
170
     0
176
     1
171
     0
176
     1
290
     0
176
     1
 93
       13
176
     1
 44
0.0
176
     1
173
     0
176
     1
  0
VISUALSTYLE
  5
AB5
102
{ACAD_REACTORS
330
AA0
102
}
102
{ACAD_XDICTIONARY
360
BAF
102
}
330
AA0
100
AcDbVisualStyle
  2
Shaded
 70
    27
177
     2
291
     0
 71
     2
176
     1
 72
     2
176
     1
 73
     1
176
     1
 90
        2
176
     1
 40
-0.6
176
     1
 41
30.0
176
     1
 62
     5
 63
     7
421
 16777215
176
     1
 74
     0
176
     1
 91
        4
176
     1
 64
     7
176
     1
 65
   257
176
     1
 75
     1
176
     1
175
     1
176
     1
 42
1.0
176
     1
 92
        8
176
     1
 66
   257
176
     1
 43
1.0
176
     1
 76
     1
176
     1
 77
     6
176
     1
 78
     2
176
     1
 67
     8
425
  7895160
176
     1
 79
     3
176
     1
170
     0
176
     1
171
     0
176
     1
290
     0
176
     1
 93
        5
176
     1
 44
0.0
176
     1
173
     0
176
     1
  0
VISUALSTYLE
  5
AB4
102
{ACAD_REACTORS
330
AA0
102
}
102
{ACAD_XDICTIONARY
360
BB1
102
}
330
AA0
100
AcDbVisualStyle
  2
Shaded with edges
 70
    26
177
     2
291
     0
 71
     2
176
     1
 72
     2
176
     1
 73
     1
176
     1
 90
        2
176
     1
 40
-0.6
176
     1
 41
30.0
176
     1
 62
     5
 63
     7
421
 16777215
176
     1
 74
     1
176
     1
 91
       10
176
     1
 64
     7
176
     1
 65
   257
176
     1
 75
     2
176
     1
175
     1
176
     1
 42
1.0
176
     1
 92
        8
176
     1
 66
   257
176
     1
 43
1.0
176
     1
 76
     1
176
     1
 77
     6
176
     1
 78
     2
176
     1
 67
     7
176
     1
 79
     3
176
     1
170
     0
176
     1
171
     0
176
     1
290
     0
176
     1
 93
        5
176
     1
 44
0.0
176
     1
173
     0
176
     1
  0
VISUALSTYLE
  5
AB1
102
{ACAD_REACTORS
330
AA0
102
}
102
{ACAD_XDICTIONARY
360
BB3
102
}
330
AA0
100
AcDbVisualStyle
  2
Shades of Gray
 70
    23
177
     2
291
     0
 71
     2
176
     1
 72
     2
176
     1
 73
     3
176
     1
 90
        0
176
     1
 40
-0.6
176
     1
 41
-30.0
176
     1
 62
     5
 63
     7
421
 16777215
176
     1
 74
     2
176
     1
 91
        2
176
     1
 64
     7
176
     1
 65
     7
176
     1
 75
     1
176
     1
175
     1
176
     1
 42
40.0
176
     1
 92
        8
176
     1
 66
     7
176
     1
 43
1.0
176
     1
 76
     1
176
     1
 77
     6
176
     1
 78
     2
176
     1
 67
     7
176
     1
 79
     3
176
     1
170
     0
176
     1
171
     0
176
     1
290
     0
176
     1
 93
        1
176
     1
 44
0.0
176
     1
173
     0
176
     1
  0
VISUALSTYLE
  5
AB2
102
{ACAD_REACTORS
330
AA0
102
}
102
{ACAD_XDICTIONARY
360
BB5
102
}
330
AA0
100
AcDbVisualStyle
  2
Sketchy
 70
    24
177
     2
291
     0
 71
     1
176
     1
 72
     2
176
     1
 73
     2
176
     1
 90
        0
176
     1
 40
-0.6
176
     1
 41
-30.0
176
     1
 62
     5
 63
     7
421
 16777215
176
     1
 74
     2
176
     1
 91
        2
176
     1
 64
     7
176
     1
 65
     7
176
     1
 75
     1
176
     1
175
     1
176
     1
 42
40.0
176
     1
 92
       11
176
     1
 66
     7
176
     1
 43
1.0
176
     1
 76
     1
176
     1
 77
     6
176
     1
 78
     2
176
     1
 67
     7
176
     1
 79
     6
176
     1
170
     0
176
     1
171
     0
176
     1
290
     0
176
     1
 93
        1
176
     1
 44
0.0
176
     1
173
     0
176
     1
  0
VISUALSTYLE
  5
AAD
102
{ACAD_REACTORS
330
AA0
102
}
102
{ACAD_XDICTIONARY
360
BB7
102
}
330
AA0
100
AcDbVisualStyle
  2
Thicken
 70
    13
177
     2
291
     1
 71
     2
176
     1
 72
     2
176
     1
 73
     0
176
     1
 90
        0
176
     1
 40
-0.6
176
     1
 41
-30.0
176
     1
 62
     5
 63
     7
421
 16777215
176
     1
 74
     1
176
     1
 91
        4
176
     1
 64
     7
176
     1
 65
   257
176
     1
 75
     1
176
     1
175
     1
176
     1
 42
1.0
176
     1
 92
       12
176
     1
 66
     7
176
     1
 43
1.0
176
     1
 76
     1
176
     1
 77
     6
176
     1
 78
     2
176
     1
 67
     7
176
     1
 79
     5
176
     1
170
     0
176
     1
171
     0
176
     1
290
     0
176
     1
 93
        1
176
     1
 44
0.0
176
     1
173
     0
176
     1
  0
VISUALSTYLE
  5
AA7
102
{ACAD_REACTORS
330
AA0
102
}
102
{ACAD_XDICTIONARY
360
BB9
102
}
330
AA0
100
AcDbVisualStyle
  2
Wireframe
 70
     5
177
     2
291
     0
 71
     0
176
     1
 72
     2
176
     1
 73
     0
176
     1
 90
        0
176
     1
 40
-0.6
176
     1
 41
-30.0
176
     1
 62
     5
 63
     7
421
 16777215
176
     1
 74
     1
176
     1
 91
        4
176
     1
 64
     7
176
     1
 65
   257
176
     1
 75
     1
176
     1
175
     1
176
     1
 42
1.0
176
     1
 92
        0
176
     1
 66
   257
176
     1
 43
1.0
176
     1
 76
     1
176
     1
 77
     6
176
     1
 78
     2
176
     1
 67
     7
176
     1
 79
     3
176
     1
170
     0
176
     1
171
     0
176
     1
290
     0
176
     1
 93
        1
176
     1
 44
0.0
176
     1
173
     0
176
     1
  0
VISUALSTYLE
  5
AB3
102
{ACAD_REACTORS
330
AA0
102
}
102
{ACAD_XDICTIONARY
360
BBB
102
}
330
AA0
100
AcDbVisualStyle
  2
X-Ray
 70
    25
177
     2
291
     0
 71
     2
176
     1
 72
     2
176
     1
 73
     1
176
     1
 90
        1
176
     1
 40
0.5
176
     1
 41
-30.0
176
     1
 62
     5
 63
     7
421
 16777215
176
     1
 74
     1
176
     1
 91
        0
176
     1
 64
     7
176
     1
 65
   257
176
     1
 75
     1
176
     1
175
     1
176
     1
 42
1.0
176
     1
 92
        8
176
     1
 66
     7
176
     1
 43
1.0
176
     1
 76
     1
176
     1
 77
     6
176
     1
 78
     2
176
     1
 67
     7
176
     1
 79
     3
176
     1
170
     0
176
     1
171
     0
176
     1
290
     0
176
     1
 93
       13
176
     1
 44
0.0
176
     1
173
     0
176
     1
  0
DICTIONARYVAR
  5
B38
102
{ACAD_REACTORS
330
B33
102
}
330
B33
100
DictionaryVariables
280
     0
  1
1:1
  0
DICTIONARYVAR
  5
B35
102
{ACAD_REACTORS
330
B33
102
}
330
B33
100
DictionaryVariables
280
     0
  1
Standard
  0
DICTIONARYVAR
  5
B34
102
{ACAD_REACTORS
330
B33
102
}
330
B33
100
DictionaryVariables
280
     0
  1
Standard
  0
DICTIONARYVAR
  5
B36
102
{ACAD_REACTORS
330
B33
102
}
330
B33
100
DictionaryVariables
280
     0
  1
Imperial24
  0
DICTIONARYVAR
  5
B37
102
{ACAD_REACTORS
330
B33
102
}
330
B33
100
DictionaryVariables
280
     0
  1
Imperial24
  0
DICTIONARYVAR
  5
B86
102
{ACAD_REACTORS
330
B33
102
}
330
B33
100
DictionaryVariables
280
     0
  1
0
  0
DICTIONARYVAR
  5
B87
102
{ACAD_REACTORS
330
B33
102
}
330
B33
100
DictionaryVariables
280
     0
  1
0
  0
DICTIONARYVAR
  5
B85
102
{ACAD_REACTORS
330
B33
102
}
330
B33
100
DictionaryVariables
280
     0
  1
2
  0
DICTIONARYVAR
  5
B84
102
{ACAD_REACTORS
330
B33
102
}
330
B33
100
DictionaryVariables
280
     0
  1
1
  0
DICTIONARYVAR
  5
B88
102
{ACAD_REACTORS
330
B33
102
}
330
B33
100
DictionaryVariables
280
     0
  1
2
  0
DICTIONARY
  5
B48
102
{ACAD_REACTORS
330
B46
102
}
330
B46
100
AcDbDictionary
281
     1
  0
DICTIONARY
  5
B47
102
{ACAD_REACTORS
330
B46
102
}
330
B46
100
AcDbDictionary
281
     1
  3
8796083687824
350
B41
  3
8796083687840
350
B42
  3
8796083687856
350
B43
  3
8796083687872
350
B44
  3
8796083687888
350
B45
  0
DICTIONARY
  5
B82
330
AEA
100
AcDbDictionary
280
     1
281
     1
  3
ADSK_XREC_LAYOUTTHUMBNAIL
360
B83
  0
DICTIONARY
  5
B89
330
ADD
100
AcDbDictionary
280
     1
281
     1
  3
ACAD_XREC_ROUNDTRIP
360
B8A
  0
DICTIONARY
  5
B8B
330
ADB
100
AcDbDictionary
280
     1
281
     1
  3
ACAD_ROUNDTRIP_2008_TABLESTYLE_CELLSTYLEMAP
360
B8C
  0
DICTIONARY
  5
B8D
330
AA6
100
AcDbDictionary
280
     1
281
     1
  3
ACAD_XREC_ROUNDTRIP
360
B8E
  0
DICTIONARY
  5
B8F
330
AA5
100
AcDbDictionary
280
     1
281
     1
  3
ACAD_XREC_ROUNDTRIP
360
B90
  0
DICTIONARY
  5
B91
330
AAC
100
AcDbDictionary
280
     1
281
     1
  3
ACAD_XREC_ROUNDTRIP
360
B92
  0
DICTIONARY
  5
B93
330
AB0
100
AcDbDictionary
280
     1
281
     1
  3
ACAD_XREC_ROUNDTRIP
360
B94
  0
DICTIONARY
  5
B95
330
AA9
100
AcDbDictionary
280
     1
281
     1
  3
ACAD_XREC_ROUNDTRIP
360
B96
  0
DICTIONARY
  5
B97
330
AAB
100
AcDbDictionary
280
     1
281
     1
  3
ACAD_XREC_ROUNDTRIP
360
B98
  0
DICTIONARY
  5
B99
330
AB8
100
AcDbDictionary
280
     1
281
     1
  3
ACAD_XREC_ROUNDTRIP
360
B9A
  0
DICTIONARY
  5
B9B
330
AAF
100
AcDbDictionary
280
     1
281
     1
  3
ACAD_XREC_ROUNDTRIP
360
B9C
  0
DICTIONARY
  5
B9D
330
AA1
100
AcDbDictionary
280
     1
281
     1
  3
ACAD_XREC_ROUNDTRIP
360
B9E
  0
DICTIONARY
  5
B9F
330
AA2
100
AcDbDictionary
280
     1
281
     1
  3
ACAD_XREC_ROUNDTRIP
360
BA0
  0
DICTIONARY
  5
BA1
330
AA3
100
AcDbDictionary
280
     1
281
     1
  3
ACAD_XREC_ROUNDTRIP
360
BA2
  0
DICTIONARY
  5
BA3
330
AA4
100
AcDbDictionary
280
     1
281
     1
  3
ACAD_XREC_ROUNDTRIP
360
BA4
  0
DICTIONARY
  5
BA5
330
AA8
100
AcDbDictionary
280
     1
281
     1
  3
ACAD_XREC_ROUNDTRIP
360
BA6
  0
DICTIONARY
  5
BA7
330
AB6
100
AcDbDictionary
280
     1
281
     1
  3
ACAD_XREC_ROUNDTRIP
360
BA8
  0
DICTIONARY
  5
BA9
330
AAE
100
AcDbDictionary
280
     1
281
     1
  3
ACAD_XREC_ROUNDTRIP
360
BAA
  0
DICTIONARY
  5
BAB
330
AB7
100
AcDbDictionary
280
     1
281
     1
  3
ACAD_XREC_ROUNDTRIP
360
BAC
  0
DICTIONARY
  5
BAD
330
AAA
100
AcDbDictionary
280
     1
281
     1
  3
ACAD_XREC_ROUNDTRIP
360
BAE
  0
DICTIONARY
  5
BAF
330
AB5
100
AcDbDictionary
280
     1
281
     1
  3
ACAD_XREC_ROUNDTRIP
360
BB0
  0
DICTIONARY
  5
BB1
330
AB4
100
AcDbDictionary
280
     1
281
     1
  3
ACAD_XREC_ROUNDTRIP
360
BB2
  0
DICTIONARY
  5
BB3
330
AB1
100
AcDbDictionary
280
     1
281
     1
  3
ACAD_XREC_ROUNDTRIP
360
BB4
  0
DICTIONARY
  5
BB5
330
AB2
100
AcDbDictionary
280
     1
281
     1
  3
ACAD_XREC_ROUNDTRIP
360
BB6
  0
DICTIONARY
  5
BB7
330
AAD
100
AcDbDictionary
280
     1
281
     1
  3
ACAD_XREC_ROUNDTRIP
360
BB8
  0
DICTIONARY
  5
BB9
330
AA7
100
AcDbDictionary
280
     1
281
     1
  3
ACAD_XREC_ROUNDTRIP
360
BBA
  0
DICTIONARY
  5
BBB
330
AB3
100
AcDbDictionary
280
     1
281
     1
  3
ACAD_XREC_ROUNDTRIP
360
BBC
  0
XRECORD
  5
B41
102
{ACAD_REACTORS
330
B47
102
}
330
B47
100
AcDbXrecord
280
     1
  1
AcDb_Thumbnail_Schema
102
{ATTRRECORD
341
B42
  2
AcDbDs::TreatedAsObjectData
280
     1
291
     1
102
ATTRRECORD}
102
{ATTRRECORD
341
B43
  2
AcDbDs::Legacy
280
     1
291
     1
102
ATTRRECORD}
  2
AcDbDs::ID
280
    10
 91
        8
102
{ATTRRECORD
341
B44
  2
AcDs:Indexable
280
     1
291
     1
102
ATTRRECORD}
102
{ATTRRECORD
341
B45
  2
AcDbDs::HandleAttribute
280
     7
282
     1
102
ATTRRECORD}
  2
Thumbnail_Data
280
    15
 91
        0
  0
XRECORD
  5
B42
102
{ACAD_REACTORS
330
B47
102
}
330
B47
100
AcDbXrecord
280
     1
  1
AcDbDs::TreatedAsObjectDataSchema
  2
AcDbDs::TreatedAsObjectData
280
     1
 91
        0
  0
XRECORD
  5
B43
102
{ACAD_REACTORS
330
B47
102
}
330
B47
100
AcDbXrecord
280
     1
  1
AcDbDs::LegacySchema
  2
AcDbDs::Legacy
280
     1
 91
        0
  0
XRECORD
  5
B44
102
{ACAD_REACTORS
330
B47
102
}
330
B47
100
AcDbXrecord
280
     1
  1
AcDbDs::IndexedPropertySchema
  2
AcDs:Indexable
280
     1
 91
        0
  0
XRECORD
  5
B45
102
{ACAD_REACTORS
330
B47
102
}
330
B47
100
AcDbXrecord
280
     1
  1
AcDbDs::HandleAttributeSchema
  2
AcDbDs::HandleAttribute
280
     7
 91
        1
284
     1
  0
XRECORD
  5
B83
102
{ACAD_REACTORS
330
B82
102
}
330
B82
100
AcDbXrecord
280
     1
310
2800000000010000A7000000010008000000000000A70000010000000100000000010000000000003028210000000052C8C8C8FF000000FF000000FF000000FF000000FF000000FF000000FF000000FF000000FF330000FF660000FF990000FFCC0000FFFF0000FF003300FF333300FF663300FF993300FFCC3300FFFF3300
310
FF006600FF336600FF666600FF996600FFCC6600FFFF6600FF009900FF339900FF669900FF999900FFCC9900FFFF9900FF00CC00FF33CC00FF66CC00FF99CC00FFCCCC00FFFFCC00FF00FF00FF33FF00FF66FF00FF99FF00FFCCFF00FFFFFF00FF000033FF330033FF660033FF990033FFCC0033FFFF0033FF003333FF3333
310
33FF663333FF993333FFCC3333FFFF3333FF006633FF336633FF666633FF996633FFCC6633FFFF6633FF009933FF339933FF669933FF999933FFCC9933FFFF9933FF00CC33FF33CC33FF66CC33FF99CC33FFCCCC33FFFFCC33FF00FF33FF33FF33FF66FF33FF99FF33FFCCFF33FFFFFF33FF000066FF330066FF660066FF99
310
0066FFCC0066FFFF0066FF003366FF333366FF663366FF993366FFCC3366FFFF3366FF006666FF336666FF666666FF996666FFCC6666FFFF6666FF009966FF339966FF669966FF999966FFCC9966FFFF9966FF00CC66FF33CC66FF66CC66FF99CC66FFCCCC66FFFFCC66FF00FF66FF33FF66FF66FF66FF99FF66FFCCFF66FF
310
FFFF66FF000099FF330099FF660099FF990099FFCC0099FFFF0099FF003399FF333399FF663399FF993399FFCC3399FFFF3399FF006699FF336699FF666699FF996699FFCC6699FFFF6699FF009999FF339999FF669999FF999999FFCC9999FFFF9999FF00CC99FF33CC99FF66CC99FF99CC99FFCCCC99FFFFCC99FF00FF99
310
FF33FF99FF66FF99FF99FF99FFCCFF99FFFFFF99FF0000CCFF3300CCFF6600CCFF9900CCFFCC00CCFFFF00CCFF0033CCFF3333CCFF6633CCFF9933CCFFCC33CCFFFF33CCFF0066CCFF3366CCFF6666CCFF9966CCFFCC66CCFFFF66CCFF0099CCFF3399CCFF6699CCFF9999CCFFCC99CCFFFF99CCFF00CCCCFF33CCCCFF66CC
310
CCFF99CCCCFFCCCCCCFFFFCCCCFF00FFCCFF33FFCCFF66FFCCFF99FFCCFFCCFFCCFFFFFFCCFF0000FFFF3300FFFF6600FFFF9900FFFFCC00FFFFFF00FFFF0033FFFF3333FFFF6633FFFF9933FFFFCC33FFFFFF33FFFF0066FFFF3366FFFF6666FFFF9966FFFFCC66FFFFFF66FFFF0099FFFF3399FFFF6699FFFF9999FFFFCC
310
99FFFFFF99FFFF00CCFFFF33CCFFFF66CCFFFF99CCFFFFCCCCFFFFFFCCFFFF00FFFFFF33FFFFFF66FFFFFF99FFFFFFCCFFFFFFFFFFFFFF000000FF0D0D0DFF1A1A1AFF282828FF353535FF434343FF505050FF5D5D5DFF6B6B6BFF787878FF868686FF939393FFA1A1A1FFAEAEAEFFBBBBBBFFC9C9C9FFD6D6D6FFE4E4E4FF
310
F1F1F1FFFFFFFFFF000000FF000000FF000000FF000000FF000000FF000000FF000000FF000000FF000000FF000000FF00000000000000000000000000000000000000000000000000000000000000000000000000000000000000000000000000000000000000000000000000000000000000000000000000000000000000
310
00000000000000000000000000000000000000000000000000000000000000000000000000000000000000000000000000000000000000000000000000000000000000000000000000000000000000000000000000000000000000000000000000000000000000000000000000000000000000000000000000000000000000
310
00000000000000000000000000000000000000000000000000000000000000000000000000000000000000000000000000000000000000000000000000000000000000000000000000000000000000000000000000000000000000000000000000000000000000000000000000000000000000000000000000000000000000
310
00000000000000000000000000000000000000000000000000000000000000001700000000000000000000000000000000000000000000000000000000000000000000000000000000000000000000000000000000000000000000000000000000000000000000000000000000000000000000000000000000000000000000
310
00000000000000000000000000000000000000000000000000000000000000000000000000000000000000000000000000000000000000000000000000000000000000000000000000000000000000000000000000000000000000000000000000000000000000000000000000000000000000000000000000000000000000
310
00000000000000000000000000000000000000000000000000000000000000000017001700000000000000000000000000000000000000000000000000000000000000000000000000000000000000000000000000000000000000000000000000000000000000000000000000000000000000000000000000000000000000
310
00000000000000000000000000000000000000000000000000000000000000000000000000000000000000000000000000000000000000000000000000000000000000000000000000000000000000000000000000000000000000000000000000000000000000000000000000000000000000000000000000000000000000
310
00000000000000000000000000000000000000000000000000000000000000000000170000001700000000000000000000000000000000000000000000000000000000000000000000000000000000000000000000000000000000000000000000000000000000000000000000000000000000000000000000000000000000
310
00000000000000000000000000000000000000000000000000000000000000000000000000000000000000000000000000000000000000000000000000000000000000000000000000000000000000000000000000000000000000000000000000000000000000000000000000000000000000000000000000000000000000
310
00000000000000000000000000000000000000000000000000000000000000000000001700000000001700000000000000000000000000000000000000000000000000000000000000000000000000000000000000000000000000000000000000000000000000000000000000000000000000000000000000000000000000
310
00000000000000000000000000000000000000000000000000000000000000000000000000000000000000000000000000000000000000000000000000000000000000000000000000000000000000000000000000000000000000000000000000000000000000000000000000000000000000000000000000000000000000
310
00000000000000000000000000000000000000000000000000000000000000000000000000170000000000001717000000000000000000000000000000000000000000000000000000000000000000000000000000000000000000000000000000000000000000000000000000000000000000000000000000000000000000
310
00000000000000000000000000000000000000000000000000000000000000000000000000000000000000000000000000000000000000000000000000000000000000000000000000000000000000000000000000000000000000000000000000000000000000000000000000000000000000000000000000000000000000
310
00000000000000000000000000000000000000000000000000000000000000000000000000001700000000000000000017000000000000000000000000000000000000000000000000000000000000000000000000000000000000000000000000000000000000000000000000000000000000000000000000000000000000
310
00000000000000000000000000000000000000000000000000000000000000000000000000000000000000000000000000000000000000000000000000000000000000000000000000000000000000000000000000000000000000000000000000000000000000000000000000000000000000000000000000000000000000
310
00000000000000000000000000000000000000000000000000000000000000000000000000000017000000000000000000000017000000000000000000000000000000000000000000000000000000000000000000000000000000000000000000000000000000000000000000000000000000000000000000000000000000
310
00000000000000000000000000000000000000000000000000000000000000000000000000000000000000000000000000000000000000000000000000000000000000000000000000000000000000000000000000000000000000000000000000000000000000000000000000000000000000000000000000000000000000
310
00000000000000000000000000000000000000000000000000000000000000000000000000000000170000000000000000000000000017000000000000000000000000000000000000000000000000000000000000000000000000000000000000000000000000000000000000000000000000000000000000000000000000
310
00000000000000000000000000000000000000000000000000000000000000000000000000000000000000000000000000000000000000000000000000000000000000000000000000000000000000000000000000000000000000000000000000000000000000000000000000000000000000000000000000000000000000
310
00000000000000000000000000000000000000000000000000000000000000000000000000000000001700000000000000000000000000000017000000000000000000000000000000000000000000000000000000000000000000000000000000000000000000000000000000000000000000000000000000000000000000
310
00000000000000000000000000000000000000000000000000000000000000000000000000000000000000000000000000000000000000000000000000000000000000000000000000000000000000000000000000000000000000000000000000000000000000000000000000000000000000000000000000000000000000
310
00000000000000000000000000000000000000000000000000000000000000000000000000000000000017000000000000000000000000000000000017000000000000000000000000000000000000000000000000000000000000000000000000000000000000000000000000000000000000000000000000000000000000
310
00000000000000000000000000000000000000000000000000000000000000000000000000000000000000000000000000000000000000000000000000000000000000000000000000000000000000000000000000000000000000000000000000000000000000000000000000000000000000000000000000000000000000
310
00000000000000000000000000000000000000000000000000000000000000000000000000000000000000001700000000000000000000000000000000000017000000000000000000000000000000000000000000000000000000000000000000000000000000000000000000000000000000000000000000000000000000
310
00000000000000000000000000000000000000000000000000000000000000000000000000000000000000000000000000000000000000000000000000000000000000000000000000000000000000000000000000000000000000000000000000000000000000000000000000000000000000000000000000000000000000
310
00000000000000000000000000000000000000000000000000000000000000000000000000000000000000000017000000000000000000000000000000000000000017000000000000000000000000000000000000000000000000000000000000000000000000000000000000000000000000000000000000000000000000
310
00000000000000000000000000000000000000000000000000000000000000000000000000000000000000000000000000000000000000000000000000000000000000000000000000000000000000000000000000000000000000000000000000000000000000000000000000000000000000000000000000000000000000
310
00000000000000000000000000000000000000000000000000000000000000000000000000000000000000000000170000000000000000000000000000000000000000000017170000000000000000000000000000000000000000000000000000000000000000000000000000000000000000000000000000000000000000
310
00000000000000000000000000000000000000000000000000000000000000000000000000000000000000000000000000000000000000000000000000000000000000000000000000000000000000000000000000000000000000000000000000000000000000000000000000000000000000000000000000000000000000
310
00000000000000000000000000000000000000000000000000000000000000000000000000000000000000000000001700000000000000000000000000000000000000000000000000170000000000000000000000000000000000000000000000000000000000000000000000000000000000000000000000000000000000
310
00000000000000000000000000000000000000000000000000000000000000000000000000000000000000000000000000000000000000000000000000000000000000000000000000000000000000000000000000000000000000000000000000000000000000000000000000000000000000000000000000000000000000
310
00000000000000000000000000000000000000000000000000000000000000000000000000000000000000000000000017000000000000000000000000000000000000000000000000000000170000000000000000000000000000000000000000000000000000000000000000000000000000000000000000000000000000
310
00000000000000000000000000000000000000000000000000000000000000000000000000000000000000000000000000000000000000000000000000000000000000000000000000000000000000000000000000000000000000000000000000000000000000000000000000000000000000000000000000000000000000
310
00000000000000000000000000000000000000000000000000000000000000000000000000000000000000000000000000170000000000000000000000000000000000000000000000000000000000170000000000000000000000000000000000000000000000000000000000000000000000000000000000000000000000
310
00000000000000000000000000000000000000000000000000000000000000000000000000000000000000000000000000000000000000000000000000000000000000000000000000000000000000000000000000000000000000000000000000000000000000000000000000000000000000000000000000000000000000
310
00000000000000000000000000000000000000000000000000000000000000000000000000000000000000000000000000000017000000000000000000000000000000000000000000000000000000000000170000000000000000000000000000000000000000000000000000000000000000000000000000000000000000
310
00000000000000000000000000000000000000000000000000000000000000000000000000000000000000000000000000000000000000000000000000000000000000000000000000000000000000000000000000000000000000000000000000000000000000000000000000000000000000000000000000000000000000
310
00000000000000000000000000000000000000000000000000000000000000000000000000000000000000000000000000000000170000000000000000000000000000000000000000000000000000000000000000170000000000000000000000000000000000000000000000000000000000000000000000000000000000
310
00000000000000000000000000000000000000000000000000000000000000000000000000000000000000000000000000000000000000000000000000000000000000000000000000000000000000000000000000000000000000000000000000000000000000000000000000000000000000000000000000000000000000
310
00000000000000000000000000000000000000000000000000000000000000000000000000000000000000000000000000000000001700000000000000000000000000000000000000000000000000000000000000000000170000000000000000000000000000000000000000000000000000000000000000000000000000
310
00000000000000000000000000000000000000000000000000000000000000000000000000000000000000000000000000000000000000000000000000000000000000000000000000000000000000000000000000000000000000000000000000000000000000000000000000000000000000000000000000000000000000
310
00000000000000000000000000000000000000000000000000000000000000000000000000000000000000000000000000000000000017000000000000000000000000000000000000000000000000000000000000000000000000175800000000000000000000000000000000000000000000000000000000000000000000
310
00000000000000000000000000000000000000000000000000000000000000000000000000000000000000000000000000000000000000000000000000000000000000000000000000000000000000000000000000000000000000000000000000000000000000000000000000000000000000000000000000000000000000
310
00000000000000000000000000000000000000000000000000000000000000000000000000000000000000000000000000000000000000170000000000000000000000000000000000000000000000000000000000000000000000000000171700000000000000000000000000000000000000000000000000000000000000
310
00000000000000000000000000000000000000000000000000000000000000000000000000000000000000000000000000000000000000000000000000000000000000000000000000000000000000000000000000000000000000000000000000000000000000000000000000000000000000000000000000000000000000
310
00000000000000000000000000000000000000000000000000000000000000000000000000000000000000000000000000000000000000001700000000000000000000000000000000000000000000000000000000000000000000000000000000001700000000000000000000000000000000000000000000000000000000
310
00000000000000000000000000000000000000000000000000000000000000000000000000000000000000000000000000000000000000000000000000000000000000000000000000000000000000000000000000000000000000000000000000000000000000000000000000000000000000000000000000000000000000
310
00000000000000000000000000000000000000000000000000000000000000000000000000000000000000000000000000000000000000000000170000000000000000000000000000000000000000000000000000000000000000000000000000000000001700000000000000000000000000000000000000000000000000
310
00000000000000000000000000000000000000000000000000000000000000000000000000000000000000000000000000000000000000000000000000000000000000000000000000000000000000000000000000000000000000000000000000000000000000000000000000000000000000000000000000000000000000
310
00000000000000000000000000000000000000000000000000000000000000000000000000000000000000000000000000000000000000000000001700000000000000000000000000000000000000000000000000000000000000000000000000000000000000001700000000000000000000000000000000000000000000
310
00000000000000000000000000000000000000000000000000000000000000000000000000000000000000000000000000000000000000000000000000000000000000000000000000000000000000000000000000000000000000000000000000000000000000000000000000000000000000000000000000000000000000
310
00000000000000000000000000000000000000000000000000000000000000000000000000000000000000000000000000000000000000000000000017000000000000000000000000000000000000000000000000000000000000000000000000000000000000000000001700000000000000000000000000000000000000
310
00000000000000000000000000000000000000000000000000000000000000000000000000000000000000000000000000000000000000000000000000000000000000000000000000000000000000000000000000000000000000000000000000000000000000000000000000000000000000000000000000000000000000
310
00000000000000000000000000000000000000000000000000000000000000000000000000000000000000000000000000000000000000000000000000170000000000000000000000000000000000000000000000000000000000000000000000000000000000000000000000001700000000000000000000000000000000
310
00000000000000000000000000000000000000000000000000000000000000000000000000000000000000000000000000000000000000000000000000000000000000000000000000000000000000000000000000000000000000000000000000000000000000000000000000000000000000000000000000000000000000
310
00000000000000000000000000000000000000000000000000000000000000000000000000000000000000000000000000000000000000000000000000001700000000000000000000000000000000000000000000000000000000000000000000000000000000000000000000000000001700000000000000000000000000
310
00000000000000000000000000000000000000000000000000000000000000000000000000000000000000000000000000000000000000000000000000000000000000000000000000000000000000000000000000000000000000000000000000000000000000000000000000000000000000000000000000000000000000
310
00000000000000000000000000000000000000000000000000000000000000000000000000000000000000000000000000000000000000000000000000000017000000000000000000000000000000000000000000000000000000000000000000000000000000000000000000000000000000001717000000000000000000
310
00000000000000000000000000000000000000000000000000000000000000000000000000000000000000000000000000000000000000000000000000000000000000000000000000000000000000000000000000000000000000000000000000000000000000000000000000000000000000000000000000000000000000
310
00000000000000000000000000000000000000000000000000000000000000000000000000000000000000000000000000000000000000000000000000000000001700000000000000000000000000000000000000000000000000000000000000000000000000000000000000000000000000000000000017000000000000
310
00000000000000000000000000000000000000000000000000000000000000000000000000000000000000000000000000000000000000000000000000000000000000000000000000000000000000000000000000000000000000000000000000000000000000000000000000000000000000000000000000000000000000
310
00000000000000000000000000000000000000000000000000000000000000000000000000000000000000000000000000000000000000000000000000000000000017000000000000000000000000000000000000000000000000000000000000000000000000000000000000000000000000000000000000000017000000
310
00000000000000000000000000000000000000000000000000000000000000000000000000000000000000000000000000000000000000000000000000000000000000000000000000000000000000000000000000000000000000000000000000000000000000000000000000000000000000000000000000000000000000
310
00000000000000000000000000000000000000000000000000000000000000000000000000000000000000000000000000000000000000000000000000000000000000170000000000000000000000000000000000000000000000000000000000000000000000000000000000000000000000000000000000000000000017
310
00000000000000000000000000000000000000000000000000000000000000000000000000000000000000000000000000000000000000000000000000000000000000000000000000000000000000000000000000000000000000000000000000000000000000000000000000000000000000000000000000000000000000
310
00000000000000000000000000000000000000000000000000000000000000000000000000000000000000000000000000000000000000000000000000000000000000001700000000000000000000000000000000000000000000000000000000000000000000000000000000000000000000000000000000000000000000
310
00001700000000000000000000000000000000000000000000000000000000000000000000000000000000000000000000000000000000000000000000000000000000000000000000000000000000000000000000000000000000000000000000000000000000000000000000000000000000000000000000000000000000
310
00000000000000000000000000000000000000000000000000000000000000000000000000000000000000000000000000000000000000000000000000000000000000000017000000000000000000000000000000000000000000000000000000000000000000000000000000000000000000000000000000000000000000
310
00000000001700000000000000000000000000000000000000000000000000000000000000000000000000000000000000000000000000000000000000000000000000000000000000000000000000000000000000000000000000000000000000000000000000000000000000000000000000000000000000000000000000
310
00000000000000000000000000000000000000000000000000000000000000000000000000000000000000000000000000000000000000000000000000000000000000000000170000000000000000000000000000000000000000000000000000000000000000000000000000000000000000000000000000000000000000
310
00000000000000001700000000000000000000000000000000000000000000000000000000000000000000000000000000000000000000000000000000000000000000000000000000000000000000000000000000000000000000000000000000000000000000000000000000000000000000000000000000000000000000
310
00000000000000000000000000000000000000000000000000000000000000000000000000000000000000000000000000000000000000000000000000000000000000000000000017000000000000000000000000000000000000000000000000000000000000000000000000000000000000000000000000000000000000
310
00000000000000000000001700000000000000000000000000000000000000000000000000000000000000000000000000000000000000000000000000000000000000000000000000000000000000000000000000000000000000000000000000000000000000000000000000000000000000000000000000000000000000
310
00000000000000000000000000000000000000000000000000000000000000000000000000000000000000000000000000000000000000000000000000000000000000000000000000170000000000000000000000000000000000000000000000000000000000000000000000000000000000000000000000000000000000
310
00000000000000000000000000001717000000000000000000000000000000000000000000000000000000000000000000000000000000000000000000000000000000000000000000000000000000000000000000000000000000000000000000000000000000000000000000000000000000000000000000000000000000
310
00000000000000000000000000000000000000000000000000000000000000000000000000000000000000000000000000000000000000000000000000000000000000000000000000001700000000000000000000000000000000000000000000000000000000000000000000000000000000000000000000000000000000
310
00000000000000000000000000000000000017000000000000000000000000000000000000000000000000000000000000000000000000000000000000000000000000000000000000000000000000000000000000000000000000000000000000000000000000000000000000000000000000000000000000000000000000
310
00000000000000000000000000000000000000000000000000000000000000000000000000000000000000000000000000000000000000000000000000000000000000000000000000000017000000000000000000000000000000000000000000000000000000000000000000000000000000000000000000000000000000
310
00000000000000000000000000000000000000000017000000000000000000000000000000000000000000000000000000000000000000000000000000000000000000000000000000000000000000000000000000000000000000000000000000000000000000000000000000000000000000000000000000000000000000
310
00000000000000000000000000000000000000000000000000000000000000000000000000000000000000000000000000000000000000000000000000000000000000000000000000000000000017000000000000000000000000000000000000000000000000000000000000000000000000000000000000000000000000
310
00000000000000000000000000000000000000000000000017000000000000000000000000000000000000000000000000000000000000000000000000000000000000000000000000000000000000000000000000000000000000000000000000000000000000000000000000000000000000000000000000000000000000
310
00000000000000000000000000000000000000000000000000000000000000000000000000000000000000000000000000000000000000000000000000000000000000000000000000000000000000000017000000000000000000000000000000000000000000000000000000000000000000000000000000000000000000
310
00000000000000000000000000000000000000000000000000000017000000000000000000000000000000000000000000000000000000000000000000000000000000000000000000000000000000000000000000000000000000000000000000000000000000000000000000000000000000000000000000000000000000
310
00000000000000000000000000000000000000000000000000000000000000000000000000000000000000000000000000000000000000000000000000000000000000000000000000000000000000000000000017000000000000000000000000000000000000000000000000000000000000000000000000000000000000
310
00000000000000000000000000000000000000000000000000000000000017000000000000000000000000000000000000000000000000000000000000000000000000000000000000000000000000000000000000000000000000000000000000000000000000000000000000000000000000000000000000000000000000
310
00000000000000000000000000000000000000000000000000000000000000000000000000000000000000000000000000000000000000000000000000000000000000000000000000000000000000000000000000000017170000000000000000000000000000000000000000000000000000000000000000000000000000
310
00000000000000000000000000000000000000000000000000000000000000000017000000000000000000000000000000000000000000000000000000000000000000000000000000000000000000000000000000000000000000000000000000000000000000000000000000000000000000000000000000000000000000
310
00000000000000000000000000000000000000000000000000000000000000000000000000000000000000000000000000000000000000000000000000000000000000000000000000000000000000000000000000000000000000170000000000000000000000000000000000000000000000000000000000000000000000
310
00000000000000000000000000000000000000000000000000000000000000000000000017000000000000000000000000000000000000000000000000000000000000000000000000000000000000000000000000000000000000000000000000000000000000000000000000000000000000000000000000000000000000
310
00000000000000000000000000000000000000000000000000000000000000000000000000000000000000000000000000000000000000000000000000000000000000000000000000000000000000000000000000000000000000000000170000000000000000000000000000000000000000000000000000000000000000
310
00000000000000000000000000000000000000000000000000000000000000000000000000000017170000000000000000000000000000000000000000000000000000000000000000000000000000000000000000000000000000000000000000000000000000000000000000000000000000000000000000000000000000
310
00000000000000000000000000000000000000000000000000000000000000000000000000000000000000000000000000000000000000000000000000000000000000000000000000000000000000000000000000000000000000000000000000170000000000000000000000000000000000000000000000000000000000
310
00000000000000000000000000000000000000000000000000000000000000000000000000000000000000170000000000000000000000000000000000000000000000000000000000000000000000000000000000000000000000000000000000000000000000000000000000000000000000000000000000000000000000
310
00000000000000000000000000000000000000000000000000000000000000000000000000000000000000000000000000000000000000000000000000000000000000000000000000000000000000000000000000000000000000000000000000000000170000000000000000000000000000000000000000000000000000
310
00000000000000000000000000000000000000000000000000000000000000000000000000000000000000000000170000000000000000000000000000000000000000000000000000000000000000000000000000000000000000000000000000000000000000000000000000000000000000000000000000000000000000
310
00000000000000000000000000000000000000000000000000000000000000000000000000000000000000000000000000000000000000000000000000000000000000000000000000000000000000000000000000000000000000000000000000000000000000170000000000000000000000000000000000000000000000
310
00000000000000000000000000000000000000000000000000000000000000000000000000000000000000000000000000170000000000000000000000000000000000000000000000000000000000000000000000000000000000000000000000000000000000000000000000000000000000000000000000000000000000
310
00000000000000000000000000000000000000000000000000000000000000000000000000000000000000000000000000000000000000000000000000000000000000000000000000000000000000000000000000000000000000000000000000000000000000000000170000000000000000000000000000000000000000
310
00000000000000000000000000000000000000000000000000000000000000000000000000000000000000000000000000000000170000000000000000000000000000000000000000000000000000000000000000000000000000000000000000000000000000000000000000000000000000000000000000000000000000
310
00000000000000000000000000000000000000000000000000000000000000000000000000000000000000000000000000000000000000000000000000000000000000000000000000000000000000000000000000000000000000000000000000000000000000000000000000170000000000000000000000000000000000
310
00000000000000000000000000000000000000000000000000000000000000000000000000000000000000000000000000000000000000170000000000000000000000000000000000000000000000000000000000000000000000000000000000000000000000000000000000000000000000000000000000000000000000
310
00000000000000000000000000000000000000000000000000000000000000000000000000000000000000000000000000000000000000000000000000000000000000000000000000000000000000000000000000000000000000000000000000000000000000000000000000000000171700000000000000000000000000
310
00000000000000000000000000000000000000000000000000000000000000000000000000000000000000000000000000000000000000000000170000000000000000000000000000000000000000000000000000000000000000000000000000000000000000000000000000000000000000000000000000000000000000
310
00000000000000000000000000000000000000000000000000000000000000000000000000000000000000000000000000000000000000000000000000000000000000000000000000000000000000000000000000000000000000000000000000000000000000000000000000000000000000001700000000000000000000
310
00000000000000000000000000000000000000000000000000000000000000000000000000000000000000000000000000000000000000000000000000170000000000000000000000000000000000000000000000000000000000000000000000000000000000000000000000000000000000000000000000000000000000
310
00000000000000000000000000000000000000000000000000000000000000000000000000000000000000000000000000000000000000000000000000000000000000000000000000000000000000000000000000000000000000000000000000000000000000000000000000000000000000000000001700000000000000
310
00000000000000000000000000000000000000000000000000000000000000000000000000000000000000000000000000000000000000000000000000000000171700000000000000000000000000000000000000000000000000000000000000000000000000000000000000000000000000000000000000000000000000
310
00000000000000000000000000000000000000000000000000000000000000000000000000000000000000000000000000000000000000000000000000000000000000000000000000000000000000000000000000000000000000000000000000000000000000000000000000000000000000000000000000001700000000
310
00000000000000000000000000000000000000000000000000000000000000000000000000000000000000000000000000000000000000000000000000000000000000001700000000000000000000000000000000000000000000000000000000000000000000000000000000000000000000000000000000000000000000
310
00000000000000000000000000000000000000000000000000000000000000000000000000000000000000000000000000000000000000000000000000000000000000000000000000000000000000000000000000000000000000000000000000000000000000000000000000000000000000000000000000000000001700
310
00000000000000000000000000000000000000000000000000000000000000000000000000000000000000000000000000000000000000000000000000000000000000000000001700000000000000000000000000000000000000000000000000000000000000000000000000000000000000000000000000000000000000
310
00000000000000000000000000000000000000000000000000000000000000000000000000000000000000000000000000000000000000000000000000000000000000000000000000000000000000000000000000000000000000000000000000000000000000000000000000000000000000000000000000000000000017
310
00000000000000000000000000000000000000000000000000000000000000000000000000000000000000000000000000000000000000000000000000000000000000000000000000001700000000000000000000000000000000000000000000000000000000000000000000000000000000000000000000000000000000
310
00000000000000000000000000000000000000000000000000000000000000000000000000000000000000000000000000000000000000000000000000000000000000000000000000000000000000000000000000000000000000000000000000000000000000000000000000000000000000000000000000000000000000
310
17000000000000000000000000000000000000000000000000000000000000000000000000000000000000000000000000000000000000000000000000000000000000000000000000000000001700000000000000000000000000000000000000000000000000000000000000000000000000000000000000000000000000
310
00000000000000000000000000000000000000000000000000000000000000000000000000000000000000000000000000000000000000000000000000000000000000000000000000000000000000000000000000000000000000000000000000000000000000000000000000000000000000000000000000000000000000
310
00170000000000000000000000000000000000000000000000000000000000000000000000000000000000000000000000000000000000000000000000000000000000000000000000000000000000001700000000000000000000000000000000000000000000000000000000000000000000000000000000000000000000
310
00000000000000000000000000000000000000000000000000000000000000000000000000000000000000000000000000000000000000000000000000000000000000000000000000000000000000000000000000000000000000000000000000000000000000000000000000000000000000000000000000000000000000
310
00001700000000000000000000000000000000000000000000000000000000000000000000000000000000000000000000000000000000000000000000000000000000000000000000000000000000000000001700000000000000000000000000000000000000000000000000000000000000000000000000000000000000
310
00000000000000000000000000000000000000000000000000000000000000000000000000000000000000000000000000000000000000000000000000000000000000000000000000000000000000000000000000000000000000000000000000000000000000000000000000000000000000000000000000000000000000
310
00000000170000000000000000000000000000000000000000000000000000000000000000000000000000000000000000000000000000000000000000000000000000000000000000000000000000000000000000001758000000000000000000000000000000000000000000000000000000000000000000000000000000
310
00000000000000000000000000000000000000000000000000000000000000000000000000000000000000000000000000000000000000000000000000000000000000000000000000000000000000000000000000000000000000000000000000000000000000000000000000000000000000000000000000000000000000
310
00000000001700000000000000000000000000000000000000000000000000000000000000000000000000000000000000000000000000000000000000000000000000000000000000000000000000000000000000000000001717000000000000000000000000000000000000000000000000000000000000000000000000
310
00000000000000000000000000000000000000000000000000000000000000000000000000000000000000000000000000000000000000000000000000000000000000000000000000000000000000000000000000000000000000000000000000000000000000000000000000000000000000000000000000000000000000
310
0000000000001700000000000000000000000000E2E2E2E200000000000000000000000000000000000000000000000000000000000000000000000000000000000000000000000000000000000000000000000000000000000000000017000000000000000000000000000000000000000000000000000000000000000000
310
00000000000000000000000000000000000000000000000000000000000000000000000000000000000000000000000000000000000000000000000000000000000000000000000000000000000000000000000000000000000000000000000000000000000000000000000000000000000000000000000000000000000000
310
0000000000000017000000000000000000000000E2E2E2000000E2E2000000000000000000000000000000000000000000000000000000000000000000000000000000000000000000000000000000000000000000000000000000000000000017000000000000000000000000000000000000000000000000000000000000
310
00000000000000000000000000000000000000000000000000000000000000000000000000000000000000000000000000000000000000000000000000000000000000000000000000000000000000000000000000000000000000000000000000000000000000000000000000000000000000000000000000000000000000
310
0000000000000000170000000000000000000000E2E200E2E2000000E2E2E2000000000000000000000000000000000000000000000000000000000000000000000000000000000000000000000000000000000000000000000000000000000000000017000000000000000000000000000000000000000000000000000000
310
00000000000000000000000000000000000000000000000000000000000000000000000000000000000000000000000000000000000000000000000000000000000000000000000000000000000000000000000000000000000000000000000000000000000000000000000000000000000000000000000000000000000000
310
000000000000000000170000000000000000000000E2E2E200E2E2000000E200E2E2000000000000000000000000000000000000000000000000000000000000000000000000000000000000000000000000000000000000000000000000000000000000000017000000000000000000000000000000000000000000000000
310
00000000000000000000000000000000000000000000000000000000000000000000000000000000000000000000000000000000000000000000000000000000000000000000000000000000000000000000000000000000000000000000000000000000000000000000000000000000000000000000000000000000000000
310
0000000000000000000017000000000000000000000000E2E2E2E200E2E20000E200E200E2E2E200000000000000000000000000000000000000000000000000000000000000000000000000000000000000000000000000000000000000000000000000000000000017000000000000000000000000000000000000000000
310
00000000000000000000000000000000000000000000000000000000000000000000000000000000000000000000000000000000000000000000000000000000000000000000000000000000000000000000000000000000000000000000000000000000000000000000000000000000000000000000000000000000000000
310
000000000000000000000017000000000000000000000000E200E2E2E200E2E2E20000E20000000000E2E2E20000000000000000000000000000000000000000000000000000000000000000000000000000000000000000000000000000000000000000000000000000000017000000000000000000000000000000000000
310
00000000000000000000000000000000000000000000000000000000000000000000000000000000000000000000000000000000000000000000000000000000000000000000000000000000000000000000000000000000000000000000000000000000000000000000000000000000000000000000000000000000000000
310
0000000000000000000000001700000000000000000000000000E2000000E200E2E2E2E200E20000E2000000E200E2E200000000000000000000000000000000000000000000000000000000000000000000000000000000000000000000000000000000000000000000000000000017170000000000000000000000000000
310
00000000000000000000000000000000000000000000000000000000000000000000000000000000000000000000000000000000000000000000000000000000000000000000000000000000000000000000000000000000000000000000000000000000000000000000000000000000000000000000000000000000000000
310
00000000000000000000000000001700000000000000000000000000E2000000E20000E2E2E2E2E20000E2E20000E200E2E2E200000000000000000000000000000000000000000000000000000000000000000000000000000000000000000000000000000000000000000000000000000000170000000000000000000000
310
00000000000000000000000000000000000000000000000000000000000000000000000000000000000000000000000000000000000000000000000000000000000000000000000000000000000000000000000000000000000000000000000000000000000000000000000000000000000000000000000000000000000000
310
0000000000000000000000000000001700000000000000000000000000E2E2E2E2E2E20000E200000000E2E2E200E200E2E200E200E2E20000E2E2E2E2E2E2E2E2E2E2E2E2E2000000000000000000000000000000000000000000000000000000000000000000000000000000000000000000000000170000000000000000
310
00000000000000000000000000000000000000000000000000000000000000000000000000000000000000000000000000000000000000000000000000000000000000000000000000000000000000000000000000000000000000000000000000000000000000000000000000000000000000000000000000000000000000
310
00000000000000000000000000000000170000000000000000000000000000E2E2E20000E2E20000E2E2E2E2E200E200E200E200E2E20000E2E2E200E2E2E2E2E2E2E2E2E2E2E2E200000000000000000000000000000000000000000000000000000000000000000000000000000000000000000000000000170000000000
310
00000000000000000000000000000000000000000000000000000000000000000000000000000000000000000000000000000000000000000000000000000000000000000000000000000000000000000000000000000000000000000000000000000000000000000000000000000000000000000000000000000000000000
310
000000000000000000000000000000000017000000000000000000000000000000E2E2000000E200E2E2E2E2E2E200E2E2E2E2E2E20000000000E2E2E2000000000000000000000000000000000000000000000000000000000000000000000000000000000000000000000000000000000000000000000000000000170000
310
00000000000000000000000000000000000000000000000000000000000000000000000000000000000000000000000000000000000000000000000000000000000000000000000000000000000000000000000000000000000000000000000000000000000000000000000000000000000000000000000000000000000000
310
0000000000000000000000000000000000001700000000000000000000000000000000E200000000E2E20000E2E2E2E2000000E2E2E2000000E200E20000E2E2000000000000000000000000000000000000000000000000000000000000000000000000000000000000000000000000000000000000000000000000000000
310
17000000000000000000000000000000000000000000000000000000000000000000000000000000000000000000000000000000000000000000000000000000000000000000000000000000000000000000000000000000000000000000000000000000000000000000000000000000000000000000000000000000000000
310
00000000000000000000000000000000000000170000000000000000000000000000000000E200000000E200000000E200E2E2E2E2E20000000000E20000000000E2E2000000000000000000000000000000000000000000000000000000000000000000000000000000000000000000000000000000000000000000000000
310
00000017000000000000000000000000000000000000000000000000000000000000000000000000000000000000000000000000000000000000000000000000000000000000000000000000000000000000000000000000000000000000000000000000000000000000000000000000000000000000000000000000000000
310
00000000000000000000000000000000000000001700000000000000000000000000000000000000E2000000E2000000E2E2000000E2E200E200000000E200000000E2E2E200000000000000000000000000000000000000000000000000000000000000000000000000000000000000000000000000000000000000000000
310
00000000000017000000000000000000000000000000000000000000000000000000000000000000000000000000000000000000000000000000000000000000000000000000000000000000000000000000000000000000000000000000000000000000000000000000000000000000000000000000000000000000000000
310
000000000000000000000000000000000000000000170000000000000000000000000000000000000000E2E2E2E2E2E2E2E200E2000000E20000E200000000E200000000E200E2E200000000000000000000000000000000000000000000000000000000000000000000000000000000000000000000000000000000000000
310
00000000000000000017170000000000000000000000000000000000000000000000000000000000000000000000000000000000000000000000000000000000000000000000000000000000000000000000000000000000000000000000000000000000000000000000000000000000000000000000000000000000000000
310
0000000000000000000000000000000000000000000000170000000000000000000000000000000000000000E2E20000E2E2E2000000E20000000000E200000000E2000000E2E2E2E2E20000000000000000000000000000000000000000000000000000000000000000000000000000000000000000000000000000000000
310
00000000000000000000000000170000000000000000000000000000000000000000000000000000000000000000000000000000000000000000000000000000000000000000000000000000000000000000000000000000000000000000000000000000000000000000000000000000000000000000000000000000000000
310
00000000000000000000000000000000000000000000000017000000000000000000000000000000000000000000E2000000E2E200000000E200000000E2E2E2000000E2E2000000000000E2000000000000000000000000000000000000000000000000000000000000000000000000000000000000000000000000000000
310
00000000000000000000000000000000170000000000000000000000000000000000000000000000000000000000000000000000000000000000000000000000000000000000000000000000000000000000000000000000000000000000000000000000000000000000000000000000000000000000000000000000000000
310
000000000000000000000000000000000000000000000000001700000000000000000000000000000000000000000000E200000000E2000000E2E20000000000E2E200000000E2E20000000000E200000000000000000000000000000000000000000000000000000000000000000000000000000000000000000000000000
310
00000000000000000000000000000000000000170000000000000000000000000000000000000000000000000000000000000000000000000000000000000000000000000000000000000000000000000000000000000000000000000000000000000000000000000000000000000000000000000000000000000000000000
310
0000000000000000000000000000000000000000000000000000170000000000000000000000000000000000000000000000E200000000E20000E200E2E2E200000000E200000000E2000000000000E20000000000000000000000000000000000000000000000000000000000000000000000000000000000000000000000
310
00000000000000000000000000000000000000000000170000000000000000000000000000000000000000000000000000000000000000000000000000000000000000000000000000000000000000000000000000000000000000000000000000000000000000000000000000000000000000000000000000000000000000
310
00000000000000000000000000000000000000000000000000000017000000000000000000000000000000000000000000000000E200000000E2E2E20000E2E2E20000E2E2E200000000E2E2E2000000E2E2000000000000000000000000000000000000000000000000000000000000000000000000000000000000000000
310
00000000000000000000000000000000000000000000001700000000000000000000000000000000000000000000000000000000000000000000000000000000000000000000000000000000000000000000000000000000000000000000000000000000000000000000000000000000000000000000000000000000000000
310
000000000000000000000000000000000000000000000000000000001700000000000000000000000000E2E2E2E2E200000000000000E2E2E2E2E2E200E2000000E2E20000E2E200000000E20000E2E20000E2E200000000000000000000000000000000000000000000000000000000000000000000000000000000000000
310
00000000000000000000000000000000000000000000000017000000000000000000000000000000000000000000000000000000000000000000000000000000000000000000000000000000000000000000000000000000000000000000000000000000000000000000000000000000000000000000000000000000000000
310
0000000000000000000000000000000000000000000000000000000000170000000000000000000000000000E2E2E2E2E2E2000000000000E200E2000000E2E2000000E2E2E200E20000000000E2000000E2E2E2E2E20000000000000000000000000000000000000000000000000000000000000000000000000000000000
310
00000000000000000000000000000000000000000000000000170000000000000000000000000000000000000000000000000000000000000000000000000000000000000000000000000000000000000000000000000000000000000000000000000000000000000000000000000000000000000000000000000000000000
310
00000000000000000000000000000000000000000000000000000000000017000000000000000000000000000000E2E2E2E2E200000000000000E2E2E2000000E2E20000E20000E2E2E200E2000000E2E200000000E2E2E2000000000000000000000000000000000000000000000000000000000000000000000000000000
310
00000000000000000000000000000000000000000000000000001700000000000000000000000000000000000000000000000000000000000000000000000000000000000000000000000000000000000000000000000000000000000000000000000000000000000000000000000000000000000000000000000000000000
310
00000000000000000000000000000000000000000000000000000000000000170000000000000000000000000000000000000000000000000000000000E2000000E200E2E2E2E2000000E2E2E2E2E20000E2E200000000E2E2E2E2E2E2E2E20000000000000000000000000000000000000000000000000000000000000000
310
00000000000000000000000000000000000000000000000000000000170000000000000000000000000000000000000000000000000000000000000000000000000000000000000000000000000000000000000000000000000000000000000000000000000000000000000000000000000000000000000000000000000000
310
00000000000000000000000000000000000000000000000000000000000000000017000000000000000000000000000000000000000000000000000000000000E2E2E2E20000E2E2E2E2000000000000E2E2E2E2E2E200E2E20000000000000000E20000000000000000000000000000000000000000000000000000000000
310
00000000000000000000000000000000000000000000000000000000001700000000000000000000000000000000000000000000000000000000000000000000000000000000000000000000000000000000000000000000000000000000000000000000000000000000000000000000000000000000000000000000000000
310
00000000000000000000000000000000000000000000000000000000000000000000170000000000000000000000000000000000000000000000000000000000000000E2E2E2000000E2E2E2E2E2E2E2E2E20000000000E2E20000000000000000000000E20000000000000000000000000000000000000000000000000000
310
00000000000000000000000000000000000000000000000000000000000017000000000000000000000000000000000000000000000000000000000000000000000000000000000000000000000000000000000000000000000000000000000000000000000000000000000000000000000000000000000000000000000000
310
0000000000000000000000000000000000000000000000000000000000000000000000170000000000000000000000000000000000000000000000000000000000000000000000E2E2E2E2E2E2E2E2E2E2E2E2E2E2E2E2E2E20000000000000000000000000000E20000000000000000000000000000000000000000000000
310
00000000000000000000000000000000000000000000000000000000000000170000000000000000000000000000000000000000000000000000000000000000000000000000000000000000000000000000000000000000000000000000000000000000000000000000000000000000000000000000000000000000000000
310
00000000000000000000000000000000000000000000000000000000000000000000000017000000000000000000000000E2E2E2E2E2E2E2E2E2E2E2E2E2E2E2E2E2E2E2E2E2E2E2E2000000000000000000000000000000000000000000000000000000E2E2E2E2E2E2000000000000000000000000000000000000000000
310
00000000000000000000000000000000000000000000000000000000000000001700000000000000000000000000000000000000000000000000000000000000000000000000000000000000000000000000000000000000000000000000000000000000000000000000000000000000000000000000000000000000000000
310
00000000000000000000000000000000000000000000000000000000000000000000000000E2E2E2E2E2E2E2E2E2E2E2E2E2E200000000000000000000000000000000000000000000000000000000000000000000000000000000000000E2E2E2E2E2E2E2E20000000000E200000000000000000000000000000000000000
310
00000000000000000000000000000000000000000000000000000000000000000017000000000000000000000000000000000000000000000000000000000000000000000000000000000000000000000000000000000000000000000000000000000000000000000000000000000000000000000000000000000000000000
310
000000000000000000000000000000000000000000000000000000000000000000000000000017000000000000000000000000000000000000000000000000000000000000000000000000000000E2E2E2E2E2E2E2000000000000E2E2E2E2E200000000000000000000000000000000000000000000000000000000000000
310
00000000000000000000000000000000000000000000000000000000000000000000170000000000000000000000000000000000000000000000000000000000000000000000000000000000000000000000000000000000000000000000000000000000000000000000000000000000000000000000000000000000000000
310
00000000000000000000000000000000000000000000000000000000000000000000000000000017000000000000000000000000000000000000000000000000000000000000E2E2E2E2E2E2E2E2E2E200000000000000E2E2E2E2E2E200000000000000000000000000000000000000000000170000000000000000000000
310
00000000000000000000000000000000000000000000000000000000000000000000001700000000000000000000000000000000000000000000000000000000000000000000000000000000000000000000000000000000000000000000000000000000000000000000000000000000000000000000000000000000000000
310
000000000000000000000000000000000000000000000000000000000000000000000000000000001700000000000000000000000000000000000000E2E2E2E2E2E2E2E2E2E2E2E200000000000000000000000000000000000000000000000000000000000000000000000000000000000000001700170000000000000000
310
00000000000000000000000000000000000000000000000000000000000000000000000017000000000000000000000000000000000000000000000000000000000000000000000000000000000000000000000000000000000000000000000000000000000000000000000000000000000000000000000000000000000000
310
000000000000000000000000000000000000000000000000000000000000000000000000000000000017000000000000E2E2E2E2E2E2E2E2E2E2E2E2E2E20000000000000000000000000000000000000000000000000000000000000000000000000000000000000000000000000000000000000017000000170000000000
310
00000000000000000000000000000000000000000000000000000000000000000000000000001700000000000000000000000000000000000000000000000000000000000000000000000000000000000000000000000000000000000000000000000000000000000000000000000000000000000000000000000000000000
310
000000000000000000000000000000000000000000000000000000000000000000000000000000000000E2E2E2E2E2E2E2E20000000000000000000000000000000000000000000000000000000000000000000000000000000000000000000000000000000000000000000000000000000000000000001700000000170000
310
00000000000000000000000000000000000000000000000000000000000000000000000000000017000000000000000000000000000000000000000000000000000000000000000000000000000000000000000000000000000000000000000000000000000000000000000000000000000000000000000000000000000000
310
00000000000000000000000000000000000000000000000000000000000000000000000000000000000000170000000000000000000000000000000000000000000000000000000000000000000000000000000000000000000000000000000000000000000000000000000000000000000000000000000017000000000000
310
17000000000000000000000000000000000000000000000000000000000000000000000000000000170000000000000000000000000000000000000000000000000000000000000000000000000000000000000000000000000000000000000000000000000000000000000000000000000000000000000000000000000000
310
00000000000000000000000000000000000000000000000000000000000000000000000000000000000000000017000000000000000000000000000000000000000000000000000000000000000000000000000000000000000000000000000000000000000000000000000000000000000000000000000000170000000000
310
00000017000000000000000000000000000000000000000000000000000000000000000000000000001700000000000000000000000000000000000000000000000000000000000000000000000000000000000000000000000000000000000000000000000000000000000000000000000000000000000000000000000000
310
00000000000000000000000000000000000000000000000000000000000000000000000000000000000000000000170000000000000000000000000000000000000000000000000000000000000000000000000000000000000000000000000000000000000000000000000000000000000000000000000000001700000000
310
00000000000017170000000000000000000000000000000000000000000000000000000000000000000017000000000000000000000000000000000000000000000000000000000000000000000000000000000000000000000000000000000000000000000000000000000000000000000000000000000000000000000000
310
00000000000000000000000000000000000000000000000000000000000000000000000000000000000000000000000000170000000000000000000000000000000000000000000000000000000000000000000000000000000000000000000000000000000000000000000000000000000000000000000000000000170000
310
00000000000000000000170000000000000000000000000000000000000000000000000000000000000000170000000000000000000000000000000000000000000000000000000000000000000000000000000000000000000000000000000000000000000000000000000000000000000000000000000000000000000000
310
00000000000000000000000000000000000000000000000000000000000000000000000000000000000000000000000000000000170000000000000000000000000000000000000000000000000000000000000000000000000000000000000000000000000000000000000000000000000000000000000000000000001700
310
00000000000000000000000000170000000000000000000000000000000000000000000000000000000000001700000000000000000000000000000000000000000000000000000000000000000000000000000000000000000000000000000000000000000000000000000000000000000000000000000000000000000000
310
0000000000000000000000000000000000000000000000000000000000000000000000000000000000000000000000000000000000000017000000000000000000000000000000000000000000000000000000000000000000000000000000000000000000000000000000000000000000000000000000000000E2E2E2E2E2
310
00000000000000000000000000000000170000000000000000000000000000000000000000000000000000000017000000000000000000000000000000000000000000000000000000000000000000000000000000000000000000000000000000000000000000000000000000000000000000000000000000000000000000
310
000000000000000000000000000000000000000000000000000000000000000000000000000000000000000000000000000000000000000000001717000000000000000000000000000000000000000000000000000000000000000000000000000000000000000000000000000000000000E2E2E2E2E2E2E2E2E2E2000000
310
17000000000000000000000000000000000000170000000000000000000000000000000000000000000000000000170000000000000000000000000000000000000000000000000000000000000000000000000000000000000000000000000000000000000000000000000000000000000000000000000000000000000000
310
000000000000000000000000000000000000000000000000000000000000000000000000000000000000000000000000000000000000000000000000000017000000000000000000000000000000000000000000000000000000000000000000000000000000000000E2E2E2E2E2E2E2E2E2E2E20000000000000000000000
310
00170000000000000000000000000000000000000000170000000000000000000000000000000000000000000000000017000000000000000000000000000000000000000000000000000000000000000000000000000000000000000000000000000000000000000000000000000000000000000000000000000000000000
310
0000000000000000000000000000000000000000000000000000000000000000000000000000000000000000000000000000000000000000000000000000000000170000000000000000000000000000000000000000000000000000E2E2E2E2E2E2E2E2E2E2E2E2E2E2E20000000000000000000000000000000000000000
310
00001700000000000000000000000000000000000000000000170000000000000000000000000000000000000000000000170000000000000000000000000000000000000000000000000000000000000000000000000000000000000000000000000000000000000000000000000000000000000000000000000000000000
310
000000000000000000000000000000000000000000000000000000000000000000000000000000000000000000000000000000000000000000000000000000000000000017000000000000000000E2E2E2E2E2E2E2E2E2E2E2E2E2E2E2E2000000000000000000000000000000000000000000000000000000000000000000
310
00E2E2E2000000000000000000000000000000000000000000000000170000000000000000000000000000000000000000001700000000000000000000000000000000000000000000000000000000000000000000000000000000000000000000000000000000000000000000000000000000000000000000000000000000
310
0000000000000000000000000000000000000000000000000000000000000000000000000000000000000000000000000000000000000000000000000000000000000000000000E2E2E2E2E2E2E2E2E2000000000000000000000000000000000000000000000000000000000000000000000000000000000000000000E2E2
310
E2E2E200170000000000000000000000000000000000000000000000000000170000000000000000000000000000000000000017000000000000000000000000000000000000000000000000000000000000000000000000000000000000000000000000000000000000000000000000000000000000000000000000000000
310
000000000000000000000000000000000000000000000000000000000000000000000000000000000000000000000000000000000000000000000000000000000000000000000000000017000000000000000000000000000000000000000000000000000000000000000000E2E2E2E2E2E2E2E200000000000000E2E2E2E2
310
58000000001700000000000000000000000000000000000000000000000000000000170000000000000000000000000000000000170000000000000000000000000000000000000000000000000000000000000000000000000000000000000000000000000000000000000000000000000000000000000000000000000000
310
000000000000000000000000000000000000000000000000000000000000000000000000000000000000000000000000000000000000000000000000000000000000000000000000000000000017170000000000000000000000000000000000000000000000E2E2E2E2E2E2E2E20000000000000000E2E2E2E2E2E2E20000
310
00000000000017000000000000000000000000000000000000000000000000000000000000170000000000000000000000000000001700000000000000000000000000000000000000000000000000000000000000000000000000000000000000000000000000000000000000000000000000000000000000000000000000
310
00000000000000000000000000000000000000000000000000000000000000000000000000000000000000000000000000000000000000000000000000000000000000000000000000000000000000008A170000000000000000000000000000E2E2E2E2E2E2E2E20000000000000000000000000000000000000000000000
310
00000000000000001700000000000000000000000000000000000000000000000000000000000000170000000000000000000000000017000000000000000000000000000000000000000000000000000000000000000000000000000000000000000000000000000000000000000000000000000000000000000000000000
310
000000000000000000000000000000000000000000000000000000000000000000000000000000000000000000000000000000000000000000000000000000000000000000000000000000000000000000000000170000000000E2E2E2E2E2E2E2E20000000000000000000000000000000000000000000000000000000000
310
00000000000000000017000000000000000000000000000000000000000000000000000000000000000000171700000000000000000000170000000000000000000000000000000000000000000000000000000000000000000000000000000000000000000000000000000000000000000000000000000000000000000000
310
000000000000000000000000000000000000000000000000000000000000000000000000000000000000000000000000000000000000000000000000000000000000000000000000000000000000000000000000000000E2E2E2E2E20000000000000000000000000000000000000000000000000000000000000000000000
310
00000000000000000000170000000000000000000000000000000000000000000000000000000000000000000000001700000000000000001700000000000000000000000000000000000000000000000000000000000000000000000000000000000000000000000000000000000000000000000000000000000000000000
310
00000000000000000000000000000000000000000000000000000000000000000000000000000000000000000000000000000000000000000000000000000000000000000000000000000000000000000000000000000000000017000000000000000000000000000000000000000000000000000000000000000000000000
310
00000000000000000000001700000000000000000000000000000000000000000000000000000000000000000000000000001700000000000000170000000000000000000000000000000000000000000000000000000000000000000000000000000000000000000000000000000000000000000000000000000000000000
310
0000000000000000000000000000000000000000000000000000000000000000000000000000000000000000000000000000000000000000000000000000000000000000000000000000000000000000000000000000000000000000001700000000000000000000E2E2E2E2E2E20000000000000000000000000000000000
310
00000000000000000000000017000000000000000000000000000000000000000000000000000000000000000000000000000000001700000000001700000000000000000000000000000000000000000000000000000000000000000000000000000000000000000000000000000000000000000000000000000000000000
310
00000000000000000000000000000000000000000000000000000000000000000000000000000000000000000000000000000000000000000000000000000000000000000000000000000000000000000000000000000000000000000000000017000000000000000000E2E2E2E2E2E2000000000000000000000000000000
310
00000000000000000000000000170000000000000000000000000000000000000000000000000000000000000000000000000000000000001700000017000000000000000000000000000000000000000000000000000000000000000000000000000000000000000000000000000000000000000000000000000000000000
310
00000000000000000000000000000000000000000000000000000000000000000000000000000000000000000000000000000000000000000000000000000000000000000000000000000000000000000000000000000000000000000000000000000017170000000000000000000000000000000000000000000000000000
310
00000000000000000000000000000017000000000000000000000000000000000000000000000000000000000000000000000000000000000000001700170000000000000000000000000000000000000000000000000000000000000000000000000000000000000000000000000000000000000000000000000000000000
310
00000000000000000000000000000000000000000000000000000000000000000000000000000000000000000000000000000000000000000000000000000000000000000000000000000000000000000000000000000000000000000000000000000000000000170000000000000000000000000000000000000000000000
310
00000000000000000000000000000000170000000000000000000000000000000000000000000000000000000000000000000000000000000000000000001700000000000000000000000000000000000000000000000000000000000000000000000000000000000000000000000000000000000000000000000000000000
310
00000000000000000000000000000000000000000000000000000000000000000000000000000000000000000000000000000000000000000000000000000000000000000000000000000000000000000000000000000000000000000000000000000000000000000000170000000000000000000000000000000000000000
310
00000000000000000000000000000000001700000000000000000000000000000000000000000000000000000000000000000000000000000000000000000000000000000000000000000000000000000000000000000000000000000000000000000000000000000000000000000000000000000000000000000000000000
310
00000000000000000000000000000000000000000000000000000000000000000000000000000000000000000000000000000000000000000000000000000000000000000000000000000000000000000000000000000000000000000000000000000000000000000000000000170000000000000000000000000000000000
310
00000000000000000000000000000000000017000000000000000000000000000000000000000000000000000000000000000000000000000000000000000000000000000000000000000000000000000000000000000000000000000000000000000000000000000000000000000000000000000000000000000000000000
310
00000000000000000000000000000000000000000000000000000000000000000000000000000000000000000000000000000000000000000000000000000000000000000000000000000000000000000000000000000000000000000000000000000000000000000000000000000000170000000000000000000000000000
310
00000000000000000000000000000000000000170000000000000000000000000000000000000000000000000000000000000000000000000000000000000000000000000000000000000000000000000000000000000000000000000000000000000000000000000000000000000000000000000000000000000000000000
310
00000000000000000000000000000000000000000000000000000000000000000000000000000000000000000000000000000000000000000000000000000000000000000000000000000000000000000000000000000000000000000000000000000000000000000000000000000000000000170000000000000000000000
310
00000000000000000000000000000000000000001700000000000000000000000000000000000000000000000000000000000000000000000000000000000000000000000000000000000000000000000000000000000000000000000000000000000000000000000000000000000000000000000000000000000000000000
310
00000000000000000000000000000000000000000000000000000000000000000000000000000000000000000000000000000000000000000000000000000000000000000000000000000000000000000000000000000000000000000000000000000000000000000000000000000000000000000000170000000000000000
310
00000000000000000000000000000000000000000000170000000000000000000000000000000000000000000000000000000000000000000000000000000000000000000000000000000000000000000000000000000000000000000000000000000000000000000000000000000000000000000000000000000000000000
310
00000000000000000000000000000000000000000000000000000000000000000000000000000000000000000000000000000000000000000000000000000000000000000000000000000000000000000000000000000000000000000000000000000000000000000000000000000000000000000000000000171700000000
310
00000000000000000000000000000000000000000000001700000000000000000000000000000000000000000000000000000000000000000000000000000000000000000000000000000000000000000000000000000000000000000000000000000000000000000000000000000000000000000000000000000000000000
310
00000000000000000000000000000000000000000000000000000000000000000000000000000000000000000000000000000000000000000000000000000000000000000000000000000000000000000000000000000000000000000000000000000000000000000000000000000000000000000000000000000000001700
310
00000000000000000000000000000000000000000000000017000000000000000000000000000000000000000000000000000000000000000000000000000000000000000000000000000000000000000000000000000000000000000000000000000000000000000000000000000000000000000000000000000000000000
310
00000000000000000000000000000000000000000000000000000000000000000000000000000000000000000000000000000000000000000000000000000000000000000000000000000000000000000000000000000000000000000000000000000000000000000000000000000000000000000000000000000000000000
310
00170000000000000000000000000000000000E2E2E2E2E2E2170000000000000000000000000000000000000000000000000000000000000000000000000000000000000000000000000000000000000000000000000000000000000000000000000000000000000000000000000000000000000000000000000000000000
310
00000000000000000000000000000000000000000000000000000000000000000000000000000000000000000000000000000000000000000000000000000000000000000000000000000000000000000000000000000000000000000000000000000000000000000000000000000000000000000000000000000000000000
310
0000000017000000000000E2E2E2E2E2E2E2E2E2E200000000001700000000000000000000000000000000000000000000000000000000000000000000000000000000000000000000000000000000000000000000000000000000000000000000000000000000000000000000000000000000000000000000000000000000
310
00000000000000000000000000000000000000000000000000000000000000000000000000000000000000000000000000000000000000000000000000000000000000000000000000000000000000000000000000000000000000000000000000000000000000000000000000000000000000000000000000000000000000
310
000000000000E2E2E2E2E2E2E2000000000000000000000000000017000000000000000000000000000000000000000000000000000000000000000000000000000000000000000000000000000000000000000000000000000000000000000000000000000000000000000000000000000000000000000000000000000000
310
00000000000000000000000000000000000000000000000000000000000000000000000000000000000000000000000000000000000000000000000000000000000000000000000000000000000000000000000000000000000000000000000000000000000000000000000000000000000000000000000000000000000000
310
00000000000000000000170000000000000000000000000000000000170000000000000000000000000000000000000000000000000000000000000000000000000000000000000000000000000000000000000000000000000000000000000000000000000000000000000000000000000000000000000000000000000000
310
00000000000000000000000000000000000000000000000000000000000000000000000000000000000000000000000000000000000000000000000000000000000000000000000000000000000000000000000000000000000000000000000000000000000000000000000000000000000000000000000000000000000000
310
00000000000000000000000000171700000000000000000000000000001700000000000000000000000000000000000000000000000000000000000000000000000000000000000000000000000000000000000000000000000000000000000000000000000000000000000000000000000000000000000000000000000000
310
00000000000000000000000000000000000000000000000000000000000000000000000000000000000000000000000000000000000000000000000000000000000000000000000000000000000000000000000000000000000000000000000000000000000000000000000000000000000000000000000000000000000000
310
00000000000000000000000000000000001700000000000000000000000017000000000000000000000000000000000000000000000000000000000000000000000000000000000000000000000000000000000000000000000000000000000000000000000000000000000000000000000000000000000000000000000000
310
00000000000000000000000000000000000000000000000000000000000000000000000000000000000000000000000000000000000000000000000000000000000000000000000000000000000000000000000000000000000000000000000000000000000000000000000000000000000000000000000000000000000000
310
0000000000000000000000000000000000000000E2E2E2E2E2E2E2E2E2E2E2E20000000000000000000000000000000000000000000000000000000000000000000000000000000000000000000000000000000000000000000000000000000000000000000000000000000000000000000000000000000000000000000000
310
00000000000000000000000000000000000000000000000000000000000000000000000000000000000000000000000000000000000000000000000000000000000000000000000000000000000000000000000000000000000000000000000000000000000000000000000000000000000000000000000000000000000000
310
00000000000000000000000000000000000000000000001700000000000000001700000000000000000000000000000000000000000000000000000000000000000000000000000000000000000000000000000000000000000000000000000000000000000000000000000000000000000000000000000000000000000000
310
00000000000000000000000000000000000000000000000000000000000000000000000000000000000000000000000000000000000000000000000000000000000000000000000000000000000000000000000000000000000000000000000000000000000000000000000000000000000000000000000000000000000000
310
00000000000000000000000000000000000000000000000000001700000000000017000000000000000000000000000000000000000000000000000000000000000000000000000000000000000000000000000000000000000000000000000000000000000000000000000000000000000000000000000000000000000000
310
00000000000000000000000000000000000000000000000000000000000000000000000000000000000000000000000000000000000000000000000000000000000000000000000000000000000000000000000000000000000000000000000000000000000000000000000000000000000000000000000000000000000000
310
00000000000000000000000000000000000000000000000000000000001700000000581700000000000000000000000000000000000000000000000000000000000000000000000000000000000000000000000000000000000000000000000000000000000000000000000000000000000000000000000000000000000000
310
00000000000000000000000000000000000000000000000000000000000000000000000000000000000000000000000000000000000000000000000000000000000000000000000000000000000000000000000000000000000000000000000000000000000000000000000000000000000000000000000000000000000000
310
00000000000000000000000000000000000000000000000000000000000000001700000017000000000000000000000000000000000000000000000000000000000000000000000000000000000000000000000000000000000000000000000000000000000000000000000000000000000000000000000000000000000000
310
00000000000000000000000000000000000000000000000000000000000000000000000000000000000000000000000000000000000000000000000000000000000000000000000000000000000000000000000000000000000000000000000000000000000000000000000000000000000000000000000000000000000000
310
00000000000000000000000000000000000000000000000000000000000000000000001700170000000000000000000000000000000000000000000000000000000000000000000000000000000000000000000000000000000000000000000000000000000000000000000000000000000000000000000000000000000000
310
00000000000000000000000000000000000000000000000000000000000000000000000000000000000000000000000000000000000000000000000000000000000000000000000000000000000000000000000000000000000000000000000000000000000000000000000000000000000000000000000000000000000000
310
00000000000000000000000000000000000000000000000000000000000000000000000000001700000000000000000000000000000000000000000000000000000000000000000000000000000000000000000000000000000000000000000000000000000000000000000000000000000000000000000000000000000000
310
00000000000000000000000000000000000000000000000000000000000000000000000000000000000000000000000000000000000000000000000000000000000000000000000000000000000000000000000000000000000000000000000000000000000000000000000000000000000000000000000000000000000000
310
00000000000000000000000000000000000000000000000000000000000000000000000000000000000000000000000000000000000000000000000000000000000000000000000000000000000000000000000000000000000000000000000000000000000000000000000000000000000000000000000000000000000000
310
00000000000000000000000000000000000000000000000000000000000000000000000000000000000000000000000000000000000000000000000000000000000000000000000000000000000000000000000000000000000000000000000000000000000000000000000000000000000000000000000000000000000000
310
00000000000000000000000000000000000000000000000000000000000000000000000000000000000000000000000000000000000000000000000000000000000000000000000000000000000000000000000000000000000000000000000000000000000000000000000000000000000000000000000000000000000000
310
00000000000000000000000000000000000000000000000000000000000000000000000000000000000000000000000000000000000000000000000000000000000000000000000000000000000000000000000000000000000000000000000000000000000000000000000000000000000000000000000000000000000000
310
00000000000000000000000000000000000000000000000000000000000000000000000000000000000000000000000000000000000000000000000000000000000000000000000000000000000000000000000000000000000000000000000000000000000000000000000000000000000000000000000000000000000000
310
00000000000000000000000000000000000000000000000000000000000000000000000000000000000000000000000000000000000000000000000000000000000000000000000000000000000000000000000000000000000000000000000000000000000000000000000000000000000000000000000000000000000000
310
00000000000000000000000000000000000000000000000000000000000000000000000000000000000000000000000000000000000000000000000000000000000000000000000000000000000000000000000000000000000000000000000000000000000000000000000000000000000000000000000000000000000000
310
00000000000000000000000000000000000000000000000000000000000000000000000000000000000000000000000000000000000000000000000000000000000000000000000000000000000000000000000000000000000000000000000000000000000000000000000000000000000000000000000000000000000000
310
00000000000000000000000000000000000000000000000000000000000000000000000000000000000000000000000000000000000000000000000000000000000000000000000000000000000000000000000000000000000000000000000000000000000000000000000000000000000000000000000000000000000000
310
00000000000000000000000000000000000000000000000000000000000000000000000000000000000000000000000000000000000000000000000000000000000000000000000000000000000000000000000000000000000000000000000000000000000000000000000000000000000000000000000000000000000000
310
00000000000000000000000000000000000000000000000000000000000000000000000000000000000000000000000000000000000000000000000000000000000000000000000000000000000000000000000000000000000000000000000000000000000000000000000000000000000000000000000000000000000000
310
00000000000000000000000000000000000000000000000000000000000000000000000000000000000000000000000000000000000000000000000000000000000000000000000000000000000000000000000000000000000000000000000000000000000000000000000000000000000000000000000000000000000000
310
00000000000000000000000000000000000000000000000000000000000000000000000000000000000000000000000000000000000000000000000000000000000000000000000000000000000000000000000000000000000000000000000000000000000000000000000000000000000000000000000000000000000000
310
00000000000000000000000000000000000000000000000000000000000000000000000000000000000000000000000000000000000000000000000000000000000000000000000000000000000000000000000000000000000000000000000000000000000000000000000000000000000000000000000000000000000000
310
00000000000000000000000000000000000000000000000000000000000000000000000000000000000000000000000000000000000000000000000000000000000000000000000000000000000000000000000000000000000000000000000000000000000000000000000000000000000000000000000000000000000000
310
00000000000000000000000000000000000000000000000000000000000000000000000000000000000000000000000000000000000000000000000000000000000000000000000000000000000000000000000000000000000000000000000000000000000000000000000000000000000000000000000000000000000000
310
00000000000000000000000000000000000000000000000000000000000000000000000000000000000000000000000000000000000000000000000000000000000000000000000000000000000000000000000000000000000000000000000000000000000000000000000000000000000000000000000000000000000000
310
00000000000000000000000000000000000000000000000000000000000000000000000000000000000000000000000000000000000000000000000000000000000000000000000000000000000000000000000000000000000000000000000000000000000000000000000000000000000000000000000000000000000000
310
00000000000000000000000000000000000000000000000000000000000000000000000000000000000000000000000000000000000000000000000000000000000000000000000000000000000000000000000000000000000000000000000000000000000000000000000000000000000000000000000000000000000000
310
00000000000000000000000000000000000000000000000000000000000000000000000000000000000000000000000000000000000000000000000000000000000000000000000000000000000000000000000000000000000000000000000000000000000000000000000000000000000000000000000000000000000000
310
00000000000000000000000000000000000000000000000000000000000000000000000000000000000000000000000000000000000000000000000000000000000000000000000000000000000000000000000000000000000000000000000000000000000000000000000000000000000000000000000000000000000000
310
00000000000000000000000000000000000000000000000000000000000000000000000000000000000000000000000000000000000000000000000000000000000000000000000000000000000000000000000000000000000000000000000000000000000000000000000000000000000000000000000000000000000000
310
000000000000000000000000000000000000000000000000000000000000000000000000000000000000000000000000000000000000000000000000000000000000000000000000000000000000E2E2E200000000000000000000000000000000000000000000000000000000000000000000000000000000000000000000
310
00000000000000000000000000000000000000000000000000000000000000000000000000000000000000000000000000000000000000000000000000000000000000000000000000000000000000000000000000000000000000000000000000000000000000000000000000000000000000000000000000000000000000
310
00000000000000000000000000000000000000000000000000000000000000000000000000000000000000000000000000000000000000000000000000000000E2E2E2E20000E2E2E2E2E200E2E200E2E2E2E2000000E2E2E2E2E2000000000000000000000000000000000000000000000000000000000000000000000000
310
00000000000000000000000000000000000000000000000000000000000000000000000000000000000000000000000000000000000000000000000000000000000000000000000000000000000000000000000000000000000000000000000000000000000000000000000000000000000000000000000000000000000000
310
00000000000000000000000000000000000000000000000000000000000000000000000000000000000000000000000000000000000000000000000000000000000000E2E2E200E2E2E200E2E2E2E2E200E2E200E200000000E2E2E2E200000000000000000000000000000000000000000000000000000000000000000000
310
00000000000000000000000000000000000000000000000000000000000000000000000000000000000000000000000000000000000000000000000000000000000000000000000000000000000000000000000000000000000000000000000000000000000000000000000000000000000000000000000000000000000000
310
000000000000000000000000000000000000000000000000000000000000000000000000000000000000000000000000000000000000000000000000000000000000000000E2E2E2E200E2E200E2E2E2E2E2E200E2E200000000E2E2E200E20000000000000000000000000000000000000000000000000000000000000000
310
00000000000000000000000000000000000000000000000000000000000000000000000000000000000000000000000000000000000000000000000000000000000000000000000000000000000000000000000000000000000000000000000000000000000000000000000000000000000000000000000000000000000000
310
00000000000000000000000000000000000000000000000000000000000000000000000000000000000000000000000000000000000000000000000000000000000000000000E2E2E2000000000000000000E2000000000000000000E2E200E2E2000000000000000000000000000000000000000000000000000000000000
310
00000000000000000000000000000000000000000000000000000000000000000000000000000000000000000000000000000000000000000000000000000000000000000000000000000000000000000000000000000000000000000000000000000000000000000000000000000000000000000000000000000000000000
310
00000000000000000000000000000000000000000000000000000000000000000000000000000000000000000000000000000000000000000000000000000000000000000000000000000000000000000000000000000000000000000000000000000000000000000000000000000000000000000000000000000000000000
310
00000000000000000000000000000000000000000000000000000000000000000000000000000000000000000000000000000000000000000000000000000000000000000000000000000000000000000000000000000000000000000000000000000000000000000000000000000000000000000000000000000000000000
310
0000000000000000000000000000000000000000000000000000000000000000000000000000000000000000000000000000000000000000000000000000000000000000000000000000E2E2E2E2E2E2000000E2E2E2E2E20000E2E2E2E20000E2E2E2E2E2E2E2E2E2E2000000000000000000000000000000000000000000
310
00000000000000000000000000000000000000000000000000000000000000000000000000000000000000000000000000000000000000000000000000000000000000000000000000000000000000000000000000000000000000000000000000000000000000000000000000000000000000000000000000000000000000
310
00000000000000000000000000000000000000000000000000000000000000000000000000000000000000000000000000000000000000000000000000000000000000000000000000000000E20000E20000000000E200E20000E200E2E2E200E200E2E2E200E2E2E2E2E2E200000000000000000000000000000000000000
310
00000000000000000000000000000000000000000000000000000000000000000000000000000000000000000000000000000000000000000000000000000000000000000000000000000000000000000000000000000000000000000000000000000000000000000000000000000000000000000000000000000000000000
310
000000000000000000000000000000000000000000000000000000000000000000000000000000000000000000000000000000000000000000000000000000000000000000000000000000000000E200E2E200E2000000E200E20000E200E200E200E200E2E2E200E2E2E2E200E20000000000000000000000000000000000
310
00000000000000000000000000000000000000000000000000000000000000000000000000000000000000000000000000000000000000000000000000000000000000000000000000000000000000000000000000000000000000000000000000000000000000000000000000000000000000000000000000000000000000
310
000000000000000000000000000000000000000000000000000000000000000000000000000000000000000000000000000000000000000000000000000000000000000000000000000000000000000000E2E2E2E200000000E200E2000000E2E2E2000000E2E2E200E200E2E200E2E2000000000000000000000000000000
310
00000000000000000000000000000000000000000000000000000000000000000000000000000000000000000000000000000000000000000000000000000000000000000000000000000000000000000000000000000000000000000000000000000000000000000000000000000000000000000000000000000000000000
310
00000000000000000000000000000000000000000000000000000000000000000000000000000000000000000000000000000000000000000000000000000000000000000000000000000000000000000000000000000000000000000000000000000000000000000000000000000000000000000000000000000000000000
310
000000000000000000000000000000000000E2000000000000000000E2E2E2000000000000000000000000000000000000000000000000000000000000000000000000000000000000000000000000000000000000000000000000000000000000000000000000000000000000000000000000000000000000000000000000
310
000000000000000000000000000000000000000000000000000000000000000000000000000000000000000000000000000000000000000000000000000000000000000000000000000000000000000000000000E20000E2E2E2E2E200E2000000E2E2E200E20000000000E2E2E20000E2E200E2E20000E2E2E200E2E20000
310
E2E200E2E2000000E2E2E2E200E2E2E2E2000000E2E2E2E2E2E2E2E2E2E2E2E2E2E200E2E200E2E2E2E2E20000E200E2E2E2E200000000000000000000000000000000000000000000000000000000000000000000000000000000000000000000000000000000000000000000000000000000000000000000000000000000
310
0000000000000000000000000000000000000000000000000000000000000000000000000000000000000000000000000000000000000000000000000000000000000000000000000000000000000000000000000000E2E2E2E2E200E2E200E2000000E200E2E2E2E200000000E200E200E2E2E2E2E2E2E200E200E200E2E2
310
00E2E2E200E2E2000000E200E2E200E2E200E2000000E200E2E2E200E2E200E2E200E2E200E2E2E2E2E2E200E200E2E2E200E2E2000000000000000000000000000000000000000000000000000000000000000000000000000000000000000000000000000000000000000000000000000000000000000000000000000000
310
00000000000000000000000000000000000000000000000000000000000000000000000000000000000000000000000000000000000000000000000000000000000000000000000000000000000000000000000000000000E200E2E200E200E2E2E200000000E2E200E2E2000000E2E2E2E2E200E2E200E2E200E2E2E2E2E2
310
00E2E200E2E2E2E2E200000000E200E2E2E200E2E2000000E2E200E200E2E2E200E200E2E2E2E2E2E2E2E2E2E200E2E200E200E2E2E2E2000000000000000000000000000000000000000000000000000000000000000000000000000000000000000000000000000000000000000000000000000000000000000000000000
310
000000000000000000000000000000000000000000000000000000000000000000000000000000000000000000000000000000000000000000000000000000000000000000000000000000000000000000000000000000000000E2E2E2E200000000000000000000000000E2E200000000E20000000000000000000000E200
310
E2000000000000000000000000000000000000000000E2000000000000E2000000000000000000E20000000000000000000000E2000000000000000000000000000000000000000000000000000000000000000000000000000000000000000000000000000000000000000000000000000000000000000000000000000000
310
000000000000000000000000000000000000000000000000000000000000000000000000000000000000000000000000000000000000000000000000000000000000000000000000000000000000000000000000000000000000000000E2E2E2E200E2E200E2E200000000E2E200E2E2E2E2E2E2E200000000000000000000
310
00000000000000000000000000000000000000000000000000000000000000000000000000000000000000000000000000000000000000000000000000000000000000000000000000000000000000000000000000000000000000000000000000000000000000000000000000000000000000000000000000000000000000
310
00000000000000000000000000000000000000000000000000000000000000000000000000000000000000000000000000000000000000000000000000000000000000000000000000000000000000000000000000000000000000000000E200E2E200E2E2E2E200E2000000E200E2E200E2E20000E200E200000000000000
310
00000000000000000000000000000000000000000000000000000000000000000000000000000000000000000000000000000000000000000000000000000000000000000000000000000000000000000000000000000000000000000000000000000000000000000000000000000000000000000000000000000000000000
310
00000000000000000000000000000000000000000000000000000000000000000000000000000000000000000000000000000000000000000000000000000000000000000000000000000000000000000000000000000000000000000000000000E200E20000E2E2E2E2E200000000E200E2000000E2E2E2E2000000000000
310
00000000000000000000000000000000000000000000000000000000000000000000000000000000000000000000000000000000000000000000000000000000000000000000000000000000000000000000000000000000000000000000000000000000000000000000000000000000000000000000000000000000000000
310
0000000000000000000000000000000000000000000000000000000000000000000000000000000000000000000000000000000000000000000000000000000000000000000000000000000000000000000000000000000000000000000000000000E2E2E2E2E2E2E2E2E2E2E2000000E2E2E2E2E2E2E2E2E200E200000000
310
00000000000000000000000000000000000000000000000000000000000000000000000000000000000000000000000000000000000000000000000000000000000000000000000000000000000000000000000000000000000000000000000000000000000000000000000000000000000000000000000000000000000000
310
00000000000000000000000000000000000000000000000000000000000000000000000000000000000000000000000000000000000000000000000000000000000000000000000000000000000000000000000000000000000000000000000000000000000000000000000000000000000000000000000000000000000000
310
00000000000000000000000000000000000000000000000000000000000000000000000000000000000000000000000000000000000000000000000000000000000000000000000000000000000000000000000000000000000000000000000000000000000000000000000000000000000000000000000000000000000000
310
00
  0
XRECORD
  5
B8A
102
{ACAD_REACTORS
330
B89
102
}
330
B89
100
AcDbXrecord
280
     1
102
ACAD_ROUNDTRIP_2012_MLEADER_STYLE
298
     1
  0
CELLSTYLEMAP
  5
B8C
102
{ACAD_REACTORS
330
B8B
102
}
330
B8B
100
AcDbCellStyleMap
 90
        3
300
CELLSTYLE
  1
TABLEFORMAT_BEGIN
 90
        5
170
     1
 91
        0
 92
    32768
 62
   257
 93
        1
300
CONTENTFORMAT
  1
CONTENTFORMAT_BEGIN
 90
        0
 91
        0
 92
      512
 93
        0
300

 40
0.0
140
1.0
 94
        5
 62
     0
340
ACC
144
0.25
309
CONTENTFORMAT_END
171
     0
 94
        0
309
TABLEFORMAT_END
  1
CELLSTYLE_BEGIN
 90
        1
 91
        1
300
_TITLE
309
CELLSTYLE_END
300
CELLSTYLE
  1
TABLEFORMAT_BEGIN
 90
        5
170
     1
 91
        0
 92
        0
 62
   257
 93
        1
300
CONTENTFORMAT
  1
CONTENTFORMAT_BEGIN
 90
        0
 91
        0
 92
      512
 93
        0
300

 40
0.0
140
1.0
 94
        5
 62
     0
340
ACC
144
0.18
309
CONTENTFORMAT_END
171
     0
 94
        0
309
TABLEFORMAT_END
  1
CELLSTYLE_BEGIN
 90
        2
 91
        1
300
_HEADER
309
CELLSTYLE_END
300
CELLSTYLE
  1
TABLEFORMAT_BEGIN
 90
        5
170
     1
 91
        0
 92
        0
 62
   257
 93
        1
300
CONTENTFORMAT
  1
CONTENTFORMAT_BEGIN
 90
        0
 91
        0
 92
      512
 93
        0
300

 40
0.0
140
1.0
 94
        2
 62
     0
340
ACC
144
0.18
309
CONTENTFORMAT_END
171
     0
 94
        0
309
TABLEFORMAT_END
  1
CELLSTYLE_BEGIN
 90
        3
 91
        2
300
_DATA
309
CELLSTYLE_END
  0
XRECORD
  5
B8E
102
{ACAD_REACTORS
330
B8D
102
}
330
B8D
100
AcDbXrecord
280
     1
102
RTVSPost2010Prop28
280
     1
102
RTVSPost2010PropOp28
 70
     1
102
RTVSPost2010Prop29
280
     1
102
RTVSPost2010PropOp29
 70
     1
102
RTVSPost2010Prop30
280
     0
102
RTVSPost2010PropOp30
 70
     1
102
RTVSPost2010Prop31
280
     0
102
RTVSPost2010PropOp31
 70
     1
102
RTVSPost2010Prop32
280
     0
102
RTVSPost2010PropOp32
 70
     1
102
RTVSPost2010Prop33
280
     0
102
RTVSPost2010PropOp33
 70
     1
102
RTVSPost2010Prop34
280
     0
102
RTVSPost2010PropOp34
 70
     1
102
RTVSPost2010Prop35
280
     0
102
RTVSPost2010PropOp35
 70
     1
102
RTVSPost2010Prop36
280
     0
102
RTVSPost2010PropOp36
 70
     1
102
RTVSPost2010Prop37
 90
       50
102
RTVSPost2010PropOp37
 70
     1
102
RTVSPost2010Prop38
140
0.0
102
RTVSPost2010PropOp38
 70
     1
102
RTVSPost2010Prop39
140
1.0
102
RTVSPost2010PropOp39
 70
     1
102
RTVSPost2010Prop40
 90
        0
102
RTVSPost2010PropOp40
 70
     1
102
RTVSPost2010Prop41ColorIndex
 90
       18
102
RTVSPost2010Prop41ColorRGB
 90
        0
102
RTVSPost2010PropOp41
 70
     1
102
RTVSPost2010Prop42
 90
       50
102
RTVSPost2010PropOp42
 70
     1
102
RTVSPost2010Prop43
 90
        3
102
RTVSPost2010PropOp43
 70
     1
102
RTVSPost2010Prop44ColorIndex
 90
        5
102
RTVSPost2010Prop44ColorRGB
 90
      255
102
RTVSPost2010PropOp44
 70
     1
102
RTVSPost2010Prop45
280
     0
102
RTVSPost2010PropOp45
 70
     1
102
RTVSPost2010Prop46
 90
       50
102
RTVSPost2010PropOp46
 70
     1
102
RTVSPost2010Prop47
 90
       50
102
RTVSPost2010PropOp47
 70
     1
102
RTVSPost2010Prop48
 90
       50
102
RTVSPost2010PropOp48
 70
     1
102
RTVSPost2010Prop49
280
     0
102
RTVSPost2010PropOp49
 70
     1
102
RTVSPost2010Prop50
 90
       50
102
RTVSPost2010PropOp50
 70
     1
102
RTVSPost2010Prop51ColorIndex
 90
      256
102
RTVSPost2010Prop51ColorRGB
 90
-16777216
102
RTVSPost2010PropOp51
 70
     0
102
RTVSPost2010Prop52
140
1.0
102
RTVSPost2010PropOp52
 70
     0
102
RTVSPost2010Prop53
 90
        2
102
RTVSPost2010PropOp53
 70
     1
102
RTVSPost2010Prop54
  1
strokes_ogs.tif
102
RTVSPost2010PropOp54
 70
     1
102
RTVSPost2010Prop55
280
     0
102
RTVSPost2010PropOp55
 70
     1
102
RTVSPost2010Prop56
140
1.0
102
RTVSPost2010PropOp56
 70
     1
102
RTVSPost2010Prop57
140
1.0
102
RTVSPost2010PropOp57
 70
     1
  0
XRECORD
  5
B90
102
{ACAD_REACTORS
330
B8F
102
}
330
B8F
100
AcDbXrecord
280
     1
102
RTVSPost2010Prop28
280
     0
102
RTVSPost2010PropOp28
 70
     1
102
RTVSPost2010Prop29
280
     1
102
RTVSPost2010PropOp29
 70
     1
102
RTVSPost2010Prop30
280
     1
102
RTVSPost2010PropOp30
 70
     1
102
RTVSPost2010Prop31
280
     0
102
RTVSPost2010PropOp31
 70
     1
102
RTVSPost2010Prop32
280
     0
102
RTVSPost2010PropOp32
 70
     1
102
RTVSPost2010Prop33
280
     0
102
RTVSPost2010PropOp33
 70
     1
102
RTVSPost2010Prop34
280
     0
102
RTVSPost2010PropOp34
 70
     1
102
RTVSPost2010Prop35
280
     0
102
RTVSPost2010PropOp35
 70
     1
102
RTVSPost2010Prop36
280
     0
102
RTVSPost2010PropOp36
 70
     1
102
RTVSPost2010Prop37
 90
       50
102
RTVSPost2010PropOp37
 70
     1
102
RTVSPost2010Prop38
140
0.0
102
RTVSPost2010PropOp38
 70
     1
102
RTVSPost2010Prop39
140
1.0
102
RTVSPost2010PropOp39
 70
     1
102
RTVSPost2010Prop40
 90
        0
102
RTVSPost2010PropOp40
 70
     1
102
RTVSPost2010Prop41ColorIndex
 90
       18
102
RTVSPost2010Prop41ColorRGB
 90
        0
102
RTVSPost2010PropOp41
 70
     1
102
RTVSPost2010Prop42
 90
       50
102
RTVSPost2010PropOp42
 70
     1
102
RTVSPost2010Prop43
 90
        3
102
RTVSPost2010PropOp43
 70
     1
102
RTVSPost2010Prop44ColorIndex
 90
        5
102
RTVSPost2010Prop44ColorRGB
 90
      255
102
RTVSPost2010PropOp44
 70
     1
102
RTVSPost2010Prop45
280
     0
102
RTVSPost2010PropOp45
 70
     1
102
RTVSPost2010Prop46
 90
       50
102
RTVSPost2010PropOp46
 70
     1
102
RTVSPost2010Prop47
 90
       50
102
RTVSPost2010PropOp47
 70
     1
102
RTVSPost2010Prop48
 90
       50
102
RTVSPost2010PropOp48
 70
     1
102
RTVSPost2010Prop49
280
     0
102
RTVSPost2010PropOp49
 70
     1
102
RTVSPost2010Prop50
 90
       50
102
RTVSPost2010PropOp50
 70
     1
102
RTVSPost2010Prop51ColorIndex
 90
      256
102
RTVSPost2010Prop51ColorRGB
 90
-16777216
102
RTVSPost2010PropOp51
 70
     0
102
RTVSPost2010Prop52
140
1.0
102
RTVSPost2010PropOp52
 70
     0
102
RTVSPost2010Prop53
 90
        2
102
RTVSPost2010PropOp53
 70
     1
102
RTVSPost2010Prop54
  1
strokes_ogs.tif
102
RTVSPost2010PropOp54
 70
     1
102
RTVSPost2010Prop55
280
     0
102
RTVSPost2010PropOp55
 70
     1
102
RTVSPost2010Prop56
140
1.0
102
RTVSPost2010PropOp56
 70
     1
102
RTVSPost2010Prop57
140
1.0
102
RTVSPost2010PropOp57
 70
     1
  0
XRECORD
  5
B92
102
{ACAD_REACTORS
330
B91
102
}
330
B91
100
AcDbXrecord
280
     1
102
RTVSPost2010Prop28
280
     0
102
RTVSPost2010PropOp28
 70
     1
102
RTVSPost2010Prop29
280
     1
102
RTVSPost2010PropOp29
 70
     1
102
RTVSPost2010Prop30
280
     1
102
RTVSPost2010PropOp30
 70
     1
102
RTVSPost2010Prop31
280
     0
102
RTVSPost2010PropOp31
 70
     1
102
RTVSPost2010Prop32
280
     0
102
RTVSPost2010PropOp32
 70
     1
102
RTVSPost2010Prop33
280
     0
102
RTVSPost2010PropOp33
 70
     1
102
RTVSPost2010Prop34
280
     0
102
RTVSPost2010PropOp34
 70
     1
102
RTVSPost2010Prop35
280
     0
102
RTVSPost2010PropOp35
 70
     1
102
RTVSPost2010Prop36
280
     0
102
RTVSPost2010PropOp36
 70
     1
102
RTVSPost2010Prop37
 90
       50
102
RTVSPost2010PropOp37
 70
     1
102
RTVSPost2010Prop38
140
0.0
102
RTVSPost2010PropOp38
 70
     1
102
RTVSPost2010Prop39
140
1.0
102
RTVSPost2010PropOp39
 70
     1
102
RTVSPost2010Prop40
 90
        0
102
RTVSPost2010PropOp40
 70
     1
102
RTVSPost2010Prop41ColorIndex
 90
       18
102
RTVSPost2010Prop41ColorRGB
 90
        0
102
RTVSPost2010PropOp41
 70
     1
102
RTVSPost2010Prop42
 90
       50
102
RTVSPost2010PropOp42
 70
     1
102
RTVSPost2010Prop43
 90
        3
102
RTVSPost2010PropOp43
 70
     1
102
RTVSPost2010Prop44ColorIndex
 90
        5
102
RTVSPost2010Prop44ColorRGB
 90
      255
102
RTVSPost2010PropOp44
 70
     1
102
RTVSPost2010Prop45
280
     0
102
RTVSPost2010PropOp45
 70
     1
102
RTVSPost2010Prop46
 90
       50
102
RTVSPost2010PropOp46
 70
     1
102
RTVSPost2010Prop47
 90
       50
102
RTVSPost2010PropOp47
 70
     1
102
RTVSPost2010Prop48
 90
       50
102
RTVSPost2010PropOp48
 70
     1
102
RTVSPost2010Prop49
280
     0
102
RTVSPost2010PropOp49
 70
     1
102
RTVSPost2010Prop50
 90
       50
102
RTVSPost2010PropOp50
 70
     1
102
RTVSPost2010Prop51ColorIndex
 90
      256
102
RTVSPost2010Prop51ColorRGB
 90
-16777216
102
RTVSPost2010PropOp51
 70
     0
102
RTVSPost2010Prop52
140
1.0
102
RTVSPost2010PropOp52
 70
     0
102
RTVSPost2010Prop53
 90
        2
102
RTVSPost2010PropOp53
 70
     1
102
RTVSPost2010Prop54
  1
strokes_ogs.tif
102
RTVSPost2010PropOp54
 70
     1
102
RTVSPost2010Prop55
280
     0
102
RTVSPost2010PropOp55
 70
     1
102
RTVSPost2010Prop56
140
1.0
102
RTVSPost2010PropOp56
 70
     1
102
RTVSPost2010Prop57
140
1.0
102
RTVSPost2010PropOp57
 70
     1
  0
XRECORD
  5
B94
102
{ACAD_REACTORS
330
B93
102
}
330
B93
100
AcDbXrecord
280
     1
102
RTVSPost2010Prop28
280
     0
102
RTVSPost2010PropOp28
 70
     1
102
RTVSPost2010Prop29
280
     1
102
RTVSPost2010PropOp29
 70
     1
102
RTVSPost2010Prop30
280
     1
102
RTVSPost2010PropOp30
 70
     1
102
RTVSPost2010Prop31
280
     0
102
RTVSPost2010PropOp31
 70
     1
102
RTVSPost2010Prop32
280
     0
102
RTVSPost2010PropOp32
 70
     1
102
RTVSPost2010Prop33
280
     0
102
RTVSPost2010PropOp33
 70
     1
102
RTVSPost2010Prop34
280
     0
102
RTVSPost2010PropOp34
 70
     1
102
RTVSPost2010Prop35
280
     0
102
RTVSPost2010PropOp35
 70
     1
102
RTVSPost2010Prop36
280
     0
102
RTVSPost2010PropOp36
 70
     1
102
RTVSPost2010Prop37
 90
       50
102
RTVSPost2010PropOp37
 70
     1
102
RTVSPost2010Prop38
140
0.0
102
RTVSPost2010PropOp38
 70
     1
102
RTVSPost2010Prop39
140
1.0
102
RTVSPost2010PropOp39
 70
     1
102
RTVSPost2010Prop40
 90
        0
102
RTVSPost2010PropOp40
 70
     1
102
RTVSPost2010Prop41ColorIndex
 90
       18
102
RTVSPost2010Prop41ColorRGB
 90
        0
102
RTVSPost2010PropOp41
 70
     1
102
RTVSPost2010Prop42
 90
       50
102
RTVSPost2010PropOp42
 70
     1
102
RTVSPost2010Prop43
 90
        3
102
RTVSPost2010PropOp43
 70
     1
102
RTVSPost2010Prop44ColorIndex
 90
        5
102
RTVSPost2010Prop44ColorRGB
 90
      255
102
RTVSPost2010PropOp44
 70
     1
102
RTVSPost2010Prop45
280
     0
102
RTVSPost2010PropOp45
 70
     1
102
RTVSPost2010Prop46
 90
       50
102
RTVSPost2010PropOp46
 70
     1
102
RTVSPost2010Prop47
 90
       50
102
RTVSPost2010PropOp47
 70
     1
102
RTVSPost2010Prop48
 90
       50
102
RTVSPost2010PropOp48
 70
     1
102
RTVSPost2010Prop49
280
     0
102
RTVSPost2010PropOp49
 70
     1
102
RTVSPost2010Prop50
 90
       50
102
RTVSPost2010PropOp50
 70
     1
102
RTVSPost2010Prop51ColorIndex
 90
      256
102
RTVSPost2010Prop51ColorRGB
 90
-16777216
102
RTVSPost2010PropOp51
 70
     0
102
RTVSPost2010Prop52
140
1.0
102
RTVSPost2010PropOp52
 70
     0
102
RTVSPost2010Prop53
 90
        2
102
RTVSPost2010PropOp53
 70
     1
102
RTVSPost2010Prop54
  1
strokes_ogs.tif
102
RTVSPost2010PropOp54
 70
     1
102
RTVSPost2010Prop55
280
     0
102
RTVSPost2010PropOp55
 70
     1
102
RTVSPost2010Prop56
140
1.0
102
RTVSPost2010PropOp56
 70
     1
102
RTVSPost2010Prop57
140
1.0
102
RTVSPost2010PropOp57
 70
     1
  0
XRECORD
  5
B96
102
{ACAD_REACTORS
330
B95
102
}
330
B95
100
AcDbXrecord
280
     1
102
RTVSPost2010Prop28
280
     0
102
RTVSPost2010PropOp28
 70
     1
102
RTVSPost2010Prop29
280
     1
102
RTVSPost2010PropOp29
 70
     1
102
RTVSPost2010Prop30
280
     1
102
RTVSPost2010PropOp30
 70
     1
102
RTVSPost2010Prop31
280
     0
102
RTVSPost2010PropOp31
 70
     1
102
RTVSPost2010Prop32
280
     0
102
RTVSPost2010PropOp32
 70
     1
102
RTVSPost2010Prop33
280
     0
102
RTVSPost2010PropOp33
 70
     1
102
RTVSPost2010Prop34
280
     0
102
RTVSPost2010PropOp34
 70
     1
102
RTVSPost2010Prop35
280
     0
102
RTVSPost2010PropOp35
 70
     1
102
RTVSPost2010Prop36
280
     0
102
RTVSPost2010PropOp36
 70
     1
102
RTVSPost2010Prop37
 90
       50
102
RTVSPost2010PropOp37
 70
     1
102
RTVSPost2010Prop38
140
0.0
102
RTVSPost2010PropOp38
 70
     1
102
RTVSPost2010Prop39
140
1.0
102
RTVSPost2010PropOp39
 70
     1
102
RTVSPost2010Prop40
 90
        0
102
RTVSPost2010PropOp40
 70
     1
102
RTVSPost2010Prop41ColorIndex
 90
       18
102
RTVSPost2010Prop41ColorRGB
 90
        0
102
RTVSPost2010PropOp41
 70
     1
102
RTVSPost2010Prop42
 90
       50
102
RTVSPost2010PropOp42
 70
     1
102
RTVSPost2010Prop43
 90
        3
102
RTVSPost2010PropOp43
 70
     1
102
RTVSPost2010Prop44ColorIndex
 90
        5
102
RTVSPost2010Prop44ColorRGB
 90
      255
102
RTVSPost2010PropOp44
 70
     1
102
RTVSPost2010Prop45
280
     0
102
RTVSPost2010PropOp45
 70
     1
102
RTVSPost2010Prop46
 90
       50
102
RTVSPost2010PropOp46
 70
     1
102
RTVSPost2010Prop47
 90
       50
102
RTVSPost2010PropOp47
 70
     1
102
RTVSPost2010Prop48
 90
       50
102
RTVSPost2010PropOp48
 70
     1
102
RTVSPost2010Prop49
280
     0
102
RTVSPost2010PropOp49
 70
     1
102
RTVSPost2010Prop50
 90
       50
102
RTVSPost2010PropOp50
 70
     1
102
RTVSPost2010Prop51ColorIndex
 90
      256
102
RTVSPost2010Prop51ColorRGB
 90
-16777216
102
RTVSPost2010PropOp51
 70
     0
102
RTVSPost2010Prop52
140
1.0
102
RTVSPost2010PropOp52
 70
     0
102
RTVSPost2010Prop53
 90
        2
102
RTVSPost2010PropOp53
 70
     1
102
RTVSPost2010Prop54
  1
strokes_ogs.tif
102
RTVSPost2010PropOp54
 70
     1
102
RTVSPost2010Prop55
280
     0
102
RTVSPost2010PropOp55
 70
     1
102
RTVSPost2010Prop56
140
1.0
102
RTVSPost2010PropOp56
 70
     1
102
RTVSPost2010Prop57
140
1.0
102
RTVSPost2010PropOp57
 70
     1
  0
XRECORD
  5
B98
102
{ACAD_REACTORS
330
B97
102
}
330
B97
100
AcDbXrecord
280
     1
102
RTVSPost2010Prop28
280
     0
102
RTVSPost2010PropOp28
 70
     1
102
RTVSPost2010Prop29
280
     1
102
RTVSPost2010PropOp29
 70
     1
102
RTVSPost2010Prop30
280
     1
102
RTVSPost2010PropOp30
 70
     1
102
RTVSPost2010Prop31
280
     0
102
RTVSPost2010PropOp31
 70
     1
102
RTVSPost2010Prop32
280
     0
102
RTVSPost2010PropOp32
 70
     1
102
RTVSPost2010Prop33
280
     0
102
RTVSPost2010PropOp33
 70
     1
102
RTVSPost2010Prop34
280
     0
102
RTVSPost2010PropOp34
 70
     1
102
RTVSPost2010Prop35
280
     0
102
RTVSPost2010PropOp35
 70
     1
102
RTVSPost2010Prop36
280
     0
102
RTVSPost2010PropOp36
 70
     1
102
RTVSPost2010Prop37
 90
       50
102
RTVSPost2010PropOp37
 70
     1
102
RTVSPost2010Prop38
140
0.0
102
RTVSPost2010PropOp38
 70
     1
102
RTVSPost2010Prop39
140
1.0
102
RTVSPost2010PropOp39
 70
     1
102
RTVSPost2010Prop40
 90
        0
102
RTVSPost2010PropOp40
 70
     1
102
RTVSPost2010Prop41ColorIndex
 90
       18
102
RTVSPost2010Prop41ColorRGB
 90
        0
102
RTVSPost2010PropOp41
 70
     1
102
RTVSPost2010Prop42
 90
       50
102
RTVSPost2010PropOp42
 70
     1
102
RTVSPost2010Prop43
 90
        3
102
RTVSPost2010PropOp43
 70
     1
102
RTVSPost2010Prop44ColorIndex
 90
        5
102
RTVSPost2010Prop44ColorRGB
 90
      255
102
RTVSPost2010PropOp44
 70
     1
102
RTVSPost2010Prop45
280
     0
102
RTVSPost2010PropOp45
 70
     1
102
RTVSPost2010Prop46
 90
       50
102
RTVSPost2010PropOp46
 70
     1
102
RTVSPost2010Prop47
 90
       50
102
RTVSPost2010PropOp47
 70
     1
102
RTVSPost2010Prop48
 90
       50
102
RTVSPost2010PropOp48
 70
     1
102
RTVSPost2010Prop49
280
     0
102
RTVSPost2010PropOp49
 70
     1
102
RTVSPost2010Prop50
 90
       50
102
RTVSPost2010PropOp50
 70
     1
102
RTVSPost2010Prop51ColorIndex
 90
      256
102
RTVSPost2010Prop51ColorRGB
 90
-16777216
102
RTVSPost2010PropOp51
 70
     0
102
RTVSPost2010Prop52
140
1.0
102
RTVSPost2010PropOp52
 70
     0
102
RTVSPost2010Prop53
 90
        2
102
RTVSPost2010PropOp53
 70
     1
102
RTVSPost2010Prop54
  1
strokes_ogs.tif
102
RTVSPost2010PropOp54
 70
     1
102
RTVSPost2010Prop55
280
     0
102
RTVSPost2010PropOp55
 70
     1
102
RTVSPost2010Prop56
140
1.0
102
RTVSPost2010PropOp56
 70
     1
102
RTVSPost2010Prop57
140
1.0
102
RTVSPost2010PropOp57
 70
     1
  0
XRECORD
  5
B9A
102
{ACAD_REACTORS
330
B99
102
}
330
B99
100
AcDbXrecord
280
     1
102
RTVSPost2010Prop28
280
     0
102
RTVSPost2010PropOp28
 70
     0
102
RTVSPost2010Prop29
280
     1
102
RTVSPost2010PropOp29
 70
     0
102
RTVSPost2010Prop30
280
     1
102
RTVSPost2010PropOp30
 70
     0
102
RTVSPost2010Prop31
280
     0
102
RTVSPost2010PropOp31
 70
     0
102
RTVSPost2010Prop32
280
     0
102
RTVSPost2010PropOp32
 70
     0
102
RTVSPost2010Prop33
280
     0
102
RTVSPost2010PropOp33
 70
     0
102
RTVSPost2010Prop34
280
     0
102
RTVSPost2010PropOp34
 70
     0
102
RTVSPost2010Prop35
280
     0
102
RTVSPost2010PropOp35
 70
     0
102
RTVSPost2010Prop36
280
     0
102
RTVSPost2010PropOp36
 70
     0
102
RTVSPost2010Prop37
 90
       50
102
RTVSPost2010PropOp37
 70
     0
102
RTVSPost2010Prop38
140
0.0
102
RTVSPost2010PropOp38
 70
     0
102
RTVSPost2010Prop39
140
1.0
102
RTVSPost2010PropOp39
 70
     0
102
RTVSPost2010Prop40
 90
        0
102
RTVSPost2010PropOp40
 70
     0
102
RTVSPost2010Prop41ColorIndex
 90
       18
102
RTVSPost2010Prop41ColorRGB
 90
        0
102
RTVSPost2010PropOp41
 70
     0
102
RTVSPost2010Prop42
 90
       50
102
RTVSPost2010PropOp42
 70
     0
102
RTVSPost2010Prop43
 90
        3
102
RTVSPost2010PropOp43
 70
     0
102
RTVSPost2010Prop44ColorIndex
 90
        5
102
RTVSPost2010Prop44ColorRGB
 90
      255
102
RTVSPost2010PropOp44
 70
     0
102
RTVSPost2010Prop45
280
     0
102
RTVSPost2010PropOp45
 70
     0
102
RTVSPost2010Prop46
 90
       50
102
RTVSPost2010PropOp46
 70
     0
102
RTVSPost2010Prop47
 90
       50
102
RTVSPost2010PropOp47
 70
     0
102
RTVSPost2010Prop48
 90
       50
102
RTVSPost2010PropOp48
 70
     0
102
RTVSPost2010Prop49
280
     0
102
RTVSPost2010PropOp49
 70
     0
102
RTVSPost2010Prop50
 90
       50
102
RTVSPost2010PropOp50
 70
     0
102
RTVSPost2010Prop51ColorIndex
 90
      256
102
RTVSPost2010Prop51ColorRGB
 90
-16777216
102
RTVSPost2010PropOp51
 70
     0
102
RTVSPost2010Prop52
140
1.0
102
RTVSPost2010PropOp52
 70
     0
102
RTVSPost2010Prop53
 90
        2
102
RTVSPost2010PropOp53
 70
     0
102
RTVSPost2010Prop54
  1
strokes_ogs.tif
102
RTVSPost2010PropOp54
 70
     0
102
RTVSPost2010Prop55
280
     0
102
RTVSPost2010PropOp55
 70
     0
102
RTVSPost2010Prop56
140
1.0
102
RTVSPost2010PropOp56
 70
     0
102
RTVSPost2010Prop57
140
1.0
102
RTVSPost2010PropOp57
 70
     0
  0
XRECORD
  5
B9C
102
{ACAD_REACTORS
330
B9B
102
}
330
B9B
100
AcDbXrecord
280
     1
102
RTVSPost2010Prop28
280
     0
102
RTVSPost2010PropOp28
 70
     1
102
RTVSPost2010Prop29
280
     1
102
RTVSPost2010PropOp29
 70
     1
102
RTVSPost2010Prop30
280
     1
102
RTVSPost2010PropOp30
 70
     1
102
RTVSPost2010Prop31
280
     0
102
RTVSPost2010PropOp31
 70
     1
102
RTVSPost2010Prop32
280
     0
102
RTVSPost2010PropOp32
 70
     1
102
RTVSPost2010Prop33
280
     0
102
RTVSPost2010PropOp33
 70
     1
102
RTVSPost2010Prop34
280
     0
102
RTVSPost2010PropOp34
 70
     1
102
RTVSPost2010Prop35
280
     0
102
RTVSPost2010PropOp35
 70
     1
102
RTVSPost2010Prop36
280
     0
102
RTVSPost2010PropOp36
 70
     1
102
RTVSPost2010Prop37
 90
       50
102
RTVSPost2010PropOp37
 70
     1
102
RTVSPost2010Prop38
140
0.0
102
RTVSPost2010PropOp38
 70
     1
102
RTVSPost2010Prop39
140
1.0
102
RTVSPost2010PropOp39
 70
     1
102
RTVSPost2010Prop40
 90
        0
102
RTVSPost2010PropOp40
 70
     1
102
RTVSPost2010Prop41ColorIndex
 90
       18
102
RTVSPost2010Prop41ColorRGB
 90
        0
102
RTVSPost2010PropOp41
 70
     1
102
RTVSPost2010Prop42
 90
       50
102
RTVSPost2010PropOp42
 70
     1
102
RTVSPost2010Prop43
 90
        3
102
RTVSPost2010PropOp43
 70
     1
102
RTVSPost2010Prop44ColorIndex
 90
        5
102
RTVSPost2010Prop44ColorRGB
 90
      255
102
RTVSPost2010PropOp44
 70
     1
102
RTVSPost2010Prop45
280
     0
102
RTVSPost2010PropOp45
 70
     1
102
RTVSPost2010Prop46
 90
       50
102
RTVSPost2010PropOp46
 70
     1
102
RTVSPost2010Prop47
 90
       50
102
RTVSPost2010PropOp47
 70
     1
102
RTVSPost2010Prop48
 90
       50
102
RTVSPost2010PropOp48
 70
     1
102
RTVSPost2010Prop49
280
     0
102
RTVSPost2010PropOp49
 70
     1
102
RTVSPost2010Prop50
 90
       50
102
RTVSPost2010PropOp50
 70
     1
102
RTVSPost2010Prop51ColorIndex
 90
      256
102
RTVSPost2010Prop51ColorRGB
 90
-16777216
102
RTVSPost2010PropOp51
 70
     0
102
RTVSPost2010Prop52
140
1.0
102
RTVSPost2010PropOp52
 70
     0
102
RTVSPost2010Prop53
 90
        2
102
RTVSPost2010PropOp53
 70
     1
102
RTVSPost2010Prop54
  1
strokes_ogs.tif
102
RTVSPost2010PropOp54
 70
     1
102
RTVSPost2010Prop55
280
     0
102
RTVSPost2010PropOp55
 70
     1
102
RTVSPost2010Prop56
140
1.0
102
RTVSPost2010PropOp56
 70
     1
102
RTVSPost2010Prop57
140
1.0
102
RTVSPost2010PropOp57
 70
     1
  0
XRECORD
  5
B9E
102
{ACAD_REACTORS
330
B9D
102
}
330
B9D
100
AcDbXrecord
280
     1
102
RTVSPost2010Prop28
280
     0
102
RTVSPost2010PropOp28
 70
     1
102
RTVSPost2010Prop29
280
     1
102
RTVSPost2010PropOp29
 70
     1
102
RTVSPost2010Prop30
280
     1
102
RTVSPost2010PropOp30
 70
     1
102
RTVSPost2010Prop31
280
     0
102
RTVSPost2010PropOp31
 70
     1
102
RTVSPost2010Prop32
280
     0
102
RTVSPost2010PropOp32
 70
     1
102
RTVSPost2010Prop33
280
     0
102
RTVSPost2010PropOp33
 70
     1
102
RTVSPost2010Prop34
280
     0
102
RTVSPost2010PropOp34
 70
     1
102
RTVSPost2010Prop35
280
     0
102
RTVSPost2010PropOp35
 70
     1
102
RTVSPost2010Prop36
280
     0
102
RTVSPost2010PropOp36
 70
     1
102
RTVSPost2010Prop37
 90
       50
102
RTVSPost2010PropOp37
 70
     1
102
RTVSPost2010Prop38
140
0.0
102
RTVSPost2010PropOp38
 70
     1
102
RTVSPost2010Prop39
140
1.0
102
RTVSPost2010PropOp39
 70
     1
102
RTVSPost2010Prop40
 90
        0
102
RTVSPost2010PropOp40
 70
     1
102
RTVSPost2010Prop41ColorIndex
 90
       18
102
RTVSPost2010Prop41ColorRGB
 90
        0
102
RTVSPost2010PropOp41
 70
     1
102
RTVSPost2010Prop42
 90
       50
102
RTVSPost2010PropOp42
 70
     1
102
RTVSPost2010Prop43
 90
        3
102
RTVSPost2010PropOp43
 70
     1
102
RTVSPost2010Prop44ColorIndex
 90
        5
102
RTVSPost2010Prop44ColorRGB
 90
      255
102
RTVSPost2010PropOp44
 70
     1
102
RTVSPost2010Prop45
280
     0
102
RTVSPost2010PropOp45
 70
     1
102
RTVSPost2010Prop46
 90
       50
102
RTVSPost2010PropOp46
 70
     1
102
RTVSPost2010Prop47
 90
       50
102
RTVSPost2010PropOp47
 70
     1
102
RTVSPost2010Prop48
 90
       50
102
RTVSPost2010PropOp48
 70
     1
102
RTVSPost2010Prop49
280
     0
102
RTVSPost2010PropOp49
 70
     1
102
RTVSPost2010Prop50
 90
       50
102
RTVSPost2010PropOp50
 70
     1
102
RTVSPost2010Prop51ColorIndex
 90
      256
102
RTVSPost2010Prop51ColorRGB
 90
-16777216
102
RTVSPost2010PropOp51
 70
     0
102
RTVSPost2010Prop52
140
1.0
102
RTVSPost2010PropOp52
 70
     0
102
RTVSPost2010Prop53
 90
        2
102
RTVSPost2010PropOp53
 70
     1
102
RTVSPost2010Prop54
  1
strokes_ogs.tif
102
RTVSPost2010PropOp54
 70
     1
102
RTVSPost2010Prop55
280
     0
102
RTVSPost2010PropOp55
 70
     1
102
RTVSPost2010Prop56
140
1.0
102
RTVSPost2010PropOp56
 70
     1
102
RTVSPost2010Prop57
140
1.0
102
RTVSPost2010PropOp57
 70
     1
  0
XRECORD
  5
BA0
102
{ACAD_REACTORS
330
B9F
102
}
330
B9F
100
AcDbXrecord
280
     1
102
RTVSPost2010Prop28
280
     0
102
RTVSPost2010PropOp28
 70
     1
102
RTVSPost2010Prop29
280
     1
102
RTVSPost2010PropOp29
 70
     1
102
RTVSPost2010Prop30
280
     1
102
RTVSPost2010PropOp30
 70
     1
102
RTVSPost2010Prop31
280
     0
102
RTVSPost2010PropOp31
 70
     1
102
RTVSPost2010Prop32
280
     0
102
RTVSPost2010PropOp32
 70
     1
102
RTVSPost2010Prop33
280
     0
102
RTVSPost2010PropOp33
 70
     1
102
RTVSPost2010Prop34
280
     0
102
RTVSPost2010PropOp34
 70
     1
102
RTVSPost2010Prop35
280
     0
102
RTVSPost2010PropOp35
 70
     1
102
RTVSPost2010Prop36
280
     0
102
RTVSPost2010PropOp36
 70
     1
102
RTVSPost2010Prop37
 90
       50
102
RTVSPost2010PropOp37
 70
     1
102
RTVSPost2010Prop38
140
0.0
102
RTVSPost2010PropOp38
 70
     1
102
RTVSPost2010Prop39
140
1.0
102
RTVSPost2010PropOp39
 70
     1
102
RTVSPost2010Prop40
 90
        0
102
RTVSPost2010PropOp40
 70
     1
102
RTVSPost2010Prop41ColorIndex
 90
       18
102
RTVSPost2010Prop41ColorRGB
 90
        0
102
RTVSPost2010PropOp41
 70
     1
102
RTVSPost2010Prop42
 90
       50
102
RTVSPost2010PropOp42
 70
     1
102
RTVSPost2010Prop43
 90
        3
102
RTVSPost2010PropOp43
 70
     1
102
RTVSPost2010Prop44ColorIndex
 90
        5
102
RTVSPost2010Prop44ColorRGB
 90
      255
102
RTVSPost2010PropOp44
 70
     1
102
RTVSPost2010Prop45
280
     0
102
RTVSPost2010PropOp45
 70
     1
102
RTVSPost2010Prop46
 90
       50
102
RTVSPost2010PropOp46
 70
     1
102
RTVSPost2010Prop47
 90
       50
102
RTVSPost2010PropOp47
 70
     1
102
RTVSPost2010Prop48
 90
       50
102
RTVSPost2010PropOp48
 70
     1
102
RTVSPost2010Prop49
280
     0
102
RTVSPost2010PropOp49
 70
     1
102
RTVSPost2010Prop50
 90
       50
102
RTVSPost2010PropOp50
 70
     1
102
RTVSPost2010Prop51ColorIndex
 90
      256
102
RTVSPost2010Prop51ColorRGB
 90
-16777216
102
RTVSPost2010PropOp51
 70
     0
102
RTVSPost2010Prop52
140
1.0
102
RTVSPost2010PropOp52
 70
     0
102
RTVSPost2010Prop53
 90
        2
102
RTVSPost2010PropOp53
 70
     1
102
RTVSPost2010Prop54
  1
strokes_ogs.tif
102
RTVSPost2010PropOp54
 70
     1
102
RTVSPost2010Prop55
280
     0
102
RTVSPost2010PropOp55
 70
     1
102
RTVSPost2010Prop56
140
1.0
102
RTVSPost2010PropOp56
 70
     1
102
RTVSPost2010Prop57
140
1.0
102
RTVSPost2010PropOp57
 70
     1
  0
XRECORD
  5
BA2
102
{ACAD_REACTORS
330
BA1
102
}
330
BA1
100
AcDbXrecord
280
     1
102
RTVSPost2010Prop28
280
     0
102
RTVSPost2010PropOp28
 70
     1
102
RTVSPost2010Prop29
280
     1
102
RTVSPost2010PropOp29
 70
     1
102
RTVSPost2010Prop30
280
     1
102
RTVSPost2010PropOp30
 70
     1
102
RTVSPost2010Prop31
280
     0
102
RTVSPost2010PropOp31
 70
     1
102
RTVSPost2010Prop32
280
     0
102
RTVSPost2010PropOp32
 70
     1
102
RTVSPost2010Prop33
280
     0
102
RTVSPost2010PropOp33
 70
     1
102
RTVSPost2010Prop34
280
     0
102
RTVSPost2010PropOp34
 70
     1
102
RTVSPost2010Prop35
280
     0
102
RTVSPost2010PropOp35
 70
     1
102
RTVSPost2010Prop36
280
     0
102
RTVSPost2010PropOp36
 70
     1
102
RTVSPost2010Prop37
 90
       50
102
RTVSPost2010PropOp37
 70
     1
102
RTVSPost2010Prop38
140
0.0
102
RTVSPost2010PropOp38
 70
     1
102
RTVSPost2010Prop39
140
1.0
102
RTVSPost2010PropOp39
 70
     1
102
RTVSPost2010Prop40
 90
        0
102
RTVSPost2010PropOp40
 70
     1
102
RTVSPost2010Prop41ColorIndex
 90
       18
102
RTVSPost2010Prop41ColorRGB
 90
        0
102
RTVSPost2010PropOp41
 70
     1
102
RTVSPost2010Prop42
 90
       50
102
RTVSPost2010PropOp42
 70
     1
102
RTVSPost2010Prop43
 90
        3
102
RTVSPost2010PropOp43
 70
     1
102
RTVSPost2010Prop44ColorIndex
 90
        5
102
RTVSPost2010Prop44ColorRGB
 90
      255
102
RTVSPost2010PropOp44
 70
     1
102
RTVSPost2010Prop45
280
     0
102
RTVSPost2010PropOp45
 70
     1
102
RTVSPost2010Prop46
 90
       50
102
RTVSPost2010PropOp46
 70
     1
102
RTVSPost2010Prop47
 90
       50
102
RTVSPost2010PropOp47
 70
     1
102
RTVSPost2010Prop48
 90
       50
102
RTVSPost2010PropOp48
 70
     1
102
RTVSPost2010Prop49
280
     0
102
RTVSPost2010PropOp49
 70
     1
102
RTVSPost2010Prop50
 90
       50
102
RTVSPost2010PropOp50
 70
     1
102
RTVSPost2010Prop51ColorIndex
 90
      256
102
RTVSPost2010Prop51ColorRGB
 90
-16777216
102
RTVSPost2010PropOp51
 70
     0
102
RTVSPost2010Prop52
140
1.0
102
RTVSPost2010PropOp52
 70
     0
102
RTVSPost2010Prop53
 90
        2
102
RTVSPost2010PropOp53
 70
     1
102
RTVSPost2010Prop54
  1
strokes_ogs.tif
102
RTVSPost2010PropOp54
 70
     1
102
RTVSPost2010Prop55
280
     0
102
RTVSPost2010PropOp55
 70
     1
102
RTVSPost2010Prop56
140
1.0
102
RTVSPost2010PropOp56
 70
     1
102
RTVSPost2010Prop57
140
1.0
102
RTVSPost2010PropOp57
 70
     1
  0
XRECORD
  5
BA4
102
{ACAD_REACTORS
330
BA3
102
}
330
BA3
100
AcDbXrecord
280
     1
102
RTVSPost2010Prop28
280
     0
102
RTVSPost2010PropOp28
 70
     1
102
RTVSPost2010Prop29
280
     1
102
RTVSPost2010PropOp29
 70
     1
102
RTVSPost2010Prop30
280
     1
102
RTVSPost2010PropOp30
 70
     1
102
RTVSPost2010Prop31
280
     0
102
RTVSPost2010PropOp31
 70
     1
102
RTVSPost2010Prop32
280
     0
102
RTVSPost2010PropOp32
 70
     1
102
RTVSPost2010Prop33
280
     0
102
RTVSPost2010PropOp33
 70
     1
102
RTVSPost2010Prop34
280
     0
102
RTVSPost2010PropOp34
 70
     1
102
RTVSPost2010Prop35
280
     0
102
RTVSPost2010PropOp35
 70
     1
102
RTVSPost2010Prop36
280
     0
102
RTVSPost2010PropOp36
 70
     1
102
RTVSPost2010Prop37
 90
       50
102
RTVSPost2010PropOp37
 70
     1
102
RTVSPost2010Prop38
140
0.0
102
RTVSPost2010PropOp38
 70
     1
102
RTVSPost2010Prop39
140
1.0
102
RTVSPost2010PropOp39
 70
     1
102
RTVSPost2010Prop40
 90
        0
102
RTVSPost2010PropOp40
 70
     1
102
RTVSPost2010Prop41ColorIndex
 90
       18
102
RTVSPost2010Prop41ColorRGB
 90
        0
102
RTVSPost2010PropOp41
 70
     1
102
RTVSPost2010Prop42
 90
       50
102
RTVSPost2010PropOp42
 70
     1
102
RTVSPost2010Prop43
 90
        3
102
RTVSPost2010PropOp43
 70
     1
102
RTVSPost2010Prop44ColorIndex
 90
        5
102
RTVSPost2010Prop44ColorRGB
 90
      255
102
RTVSPost2010PropOp44
 70
     1
102
RTVSPost2010Prop45
280
     0
102
RTVSPost2010PropOp45
 70
     1
102
RTVSPost2010Prop46
 90
       50
102
RTVSPost2010PropOp46
 70
     1
102
RTVSPost2010Prop47
 90
       50
102
RTVSPost2010PropOp47
 70
     1
102
RTVSPost2010Prop48
 90
       50
102
RTVSPost2010PropOp48
 70
     1
102
RTVSPost2010Prop49
280
     0
102
RTVSPost2010PropOp49
 70
     1
102
RTVSPost2010Prop50
 90
       50
102
RTVSPost2010PropOp50
 70
     1
102
RTVSPost2010Prop51ColorIndex
 90
      256
102
RTVSPost2010Prop51ColorRGB
 90
-16777216
102
RTVSPost2010PropOp51
 70
     0
102
RTVSPost2010Prop52
140
1.0
102
RTVSPost2010PropOp52
 70
     0
102
RTVSPost2010Prop53
 90
        2
102
RTVSPost2010PropOp53
 70
     1
102
RTVSPost2010Prop54
  1
strokes_ogs.tif
102
RTVSPost2010PropOp54
 70
     1
102
RTVSPost2010Prop55
280
     0
102
RTVSPost2010PropOp55
 70
     1
102
RTVSPost2010Prop56
140
1.0
102
RTVSPost2010PropOp56
 70
     1
102
RTVSPost2010Prop57
140
1.0
102
RTVSPost2010PropOp57
 70
     1
  0
XRECORD
  5
BA6
102
{ACAD_REACTORS
330
BA5
102
}
330
BA5
100
AcDbXrecord
280
     1
102
RTVSPost2010Prop28
280
     0
102
RTVSPost2010PropOp28
 70
     1
102
RTVSPost2010Prop29
280
     1
102
RTVSPost2010PropOp29
 70
     1
102
RTVSPost2010Prop30
280
     1
102
RTVSPost2010PropOp30
 70
     1
102
RTVSPost2010Prop31
280
     0
102
RTVSPost2010PropOp31
 70
     1
102
RTVSPost2010Prop32
280
     0
102
RTVSPost2010PropOp32
 70
     1
102
RTVSPost2010Prop33
280
     0
102
RTVSPost2010PropOp33
 70
     1
102
RTVSPost2010Prop34
280
     0
102
RTVSPost2010PropOp34
 70
     1
102
RTVSPost2010Prop35
280
     0
102
RTVSPost2010PropOp35
 70
     1
102
RTVSPost2010Prop36
280
     0
102
RTVSPost2010PropOp36
 70
     1
102
RTVSPost2010Prop37
 90
       50
102
RTVSPost2010PropOp37
 70
     1
102
RTVSPost2010Prop38
140
0.0
102
RTVSPost2010PropOp38
 70
     1
102
RTVSPost2010Prop39
140
1.0
102
RTVSPost2010PropOp39
 70
     1
102
RTVSPost2010Prop40
 90
        0
102
RTVSPost2010PropOp40
 70
     1
102
RTVSPost2010Prop41ColorIndex
 90
       18
102
RTVSPost2010Prop41ColorRGB
 90
        0
102
RTVSPost2010PropOp41
 70
     1
102
RTVSPost2010Prop42
 90
       50
102
RTVSPost2010PropOp42
 70
     1
102
RTVSPost2010Prop43
 90
        3
102
RTVSPost2010PropOp43
 70
     1
102
RTVSPost2010Prop44ColorIndex
 90
        5
102
RTVSPost2010Prop44ColorRGB
 90
      255
102
RTVSPost2010PropOp44
 70
     1
102
RTVSPost2010Prop45
280
     0
102
RTVSPost2010PropOp45
 70
     1
102
RTVSPost2010Prop46
 90
       50
102
RTVSPost2010PropOp46
 70
     1
102
RTVSPost2010Prop47
 90
       50
102
RTVSPost2010PropOp47
 70
     1
102
RTVSPost2010Prop48
 90
       50
102
RTVSPost2010PropOp48
 70
     1
102
RTVSPost2010Prop49
280
     0
102
RTVSPost2010PropOp49
 70
     1
102
RTVSPost2010Prop50
 90
       50
102
RTVSPost2010PropOp50
 70
     1
102
RTVSPost2010Prop51ColorIndex
 90
      256
102
RTVSPost2010Prop51ColorRGB
 90
-16777216
102
RTVSPost2010PropOp51
 70
     0
102
RTVSPost2010Prop52
140
1.0
102
RTVSPost2010PropOp52
 70
     0
102
RTVSPost2010Prop53
 90
        2
102
RTVSPost2010PropOp53
 70
     1
102
RTVSPost2010Prop54
  1
strokes_ogs.tif
102
RTVSPost2010PropOp54
 70
     1
102
RTVSPost2010Prop55
280
     0
102
RTVSPost2010PropOp55
 70
     1
102
RTVSPost2010Prop56
140
1.0
102
RTVSPost2010PropOp56
 70
     1
102
RTVSPost2010Prop57
140
1.0
102
RTVSPost2010PropOp57
 70
     1
  0
XRECORD
  5
BA8
102
{ACAD_REACTORS
330
BA7
102
}
330
BA7
100
AcDbXrecord
280
     1
102
RTVSPost2010Prop28
280
     0
102
RTVSPost2010PropOp28
 70
     0
102
RTVSPost2010Prop29
280
     1
102
RTVSPost2010PropOp29
 70
     0
102
RTVSPost2010Prop30
280
     1
102
RTVSPost2010PropOp30
 70
     0
102
RTVSPost2010Prop31
280
     0
102
RTVSPost2010PropOp31
 70
     0
102
RTVSPost2010Prop32
280
     0
102
RTVSPost2010PropOp32
 70
     0
102
RTVSPost2010Prop33
280
     0
102
RTVSPost2010PropOp33
 70
     0
102
RTVSPost2010Prop34
280
     0
102
RTVSPost2010PropOp34
 70
     0
102
RTVSPost2010Prop35
280
     0
102
RTVSPost2010PropOp35
 70
     0
102
RTVSPost2010Prop36
280
     0
102
RTVSPost2010PropOp36
 70
     0
102
RTVSPost2010Prop37
 90
       50
102
RTVSPost2010PropOp37
 70
     0
102
RTVSPost2010Prop38
140
0.0
102
RTVSPost2010PropOp38
 70
     0
102
RTVSPost2010Prop39
140
1.0
102
RTVSPost2010PropOp39
 70
     0
102
RTVSPost2010Prop40
 90
        0
102
RTVSPost2010PropOp40
 70
     0
102
RTVSPost2010Prop41ColorIndex
 90
       18
102
RTVSPost2010Prop41ColorRGB
 90
        0
102
RTVSPost2010PropOp41
 70
     0
102
RTVSPost2010Prop42
 90
       50
102
RTVSPost2010PropOp42
 70
     0
102
RTVSPost2010Prop43
 90
        3
102
RTVSPost2010PropOp43
 70
     0
102
RTVSPost2010Prop44ColorIndex
 90
        5
102
RTVSPost2010Prop44ColorRGB
 90
      255
102
RTVSPost2010PropOp44
 70
     0
102
RTVSPost2010Prop45
280
     0
102
RTVSPost2010PropOp45
 70
     0
102
RTVSPost2010Prop46
 90
       50
102
RTVSPost2010PropOp46
 70
     0
102
RTVSPost2010Prop47
 90
       50
102
RTVSPost2010PropOp47
 70
     0
102
RTVSPost2010Prop48
 90
       50
102
RTVSPost2010PropOp48
 70
     0
102
RTVSPost2010Prop49
280
     0
102
RTVSPost2010PropOp49
 70
     0
102
RTVSPost2010Prop50
 90
       50
102
RTVSPost2010PropOp50
 70
     0
102
RTVSPost2010Prop51ColorIndex
 90
      256
102
RTVSPost2010Prop51ColorRGB
 90
-16777216
102
RTVSPost2010PropOp51
 70
     0
102
RTVSPost2010Prop52
140
1.0
102
RTVSPost2010PropOp52
 70
     0
102
RTVSPost2010Prop53
 90
        2
102
RTVSPost2010PropOp53
 70
     0
102
RTVSPost2010Prop54
  1
strokes_ogs.tif
102
RTVSPost2010PropOp54
 70
     0
102
RTVSPost2010Prop55
280
     0
102
RTVSPost2010PropOp55
 70
     0
102
RTVSPost2010Prop56
140
1.0
102
RTVSPost2010PropOp56
 70
     0
102
RTVSPost2010Prop57
140
1.0
102
RTVSPost2010PropOp57
 70
     0
  0
XRECORD
  5
BAA
102
{ACAD_REACTORS
330
BA9
102
}
330
BA9
100
AcDbXrecord
280
     1
102
RTVSPost2010Prop28
280
     0
102
RTVSPost2010PropOp28
 70
     1
102
RTVSPost2010Prop29
280
     1
102
RTVSPost2010PropOp29
 70
     1
102
RTVSPost2010Prop30
280
     1
102
RTVSPost2010PropOp30
 70
     1
102
RTVSPost2010Prop31
280
     0
102
RTVSPost2010PropOp31
 70
     1
102
RTVSPost2010Prop32
280
     0
102
RTVSPost2010PropOp32
 70
     1
102
RTVSPost2010Prop33
280
     0
102
RTVSPost2010PropOp33
 70
     1
102
RTVSPost2010Prop34
280
     0
102
RTVSPost2010PropOp34
 70
     1
102
RTVSPost2010Prop35
280
     0
102
RTVSPost2010PropOp35
 70
     1
102
RTVSPost2010Prop36
280
     0
102
RTVSPost2010PropOp36
 70
     1
102
RTVSPost2010Prop37
 90
       50
102
RTVSPost2010PropOp37
 70
     1
102
RTVSPost2010Prop38
140
0.0
102
RTVSPost2010PropOp38
 70
     1
102
RTVSPost2010Prop39
140
1.0
102
RTVSPost2010PropOp39
 70
     1
102
RTVSPost2010Prop40
 90
        0
102
RTVSPost2010PropOp40
 70
     1
102
RTVSPost2010Prop41ColorIndex
 90
       18
102
RTVSPost2010Prop41ColorRGB
 90
        0
102
RTVSPost2010PropOp41
 70
     1
102
RTVSPost2010Prop42
 90
       50
102
RTVSPost2010PropOp42
 70
     1
102
RTVSPost2010Prop43
 90
        3
102
RTVSPost2010PropOp43
 70
     1
102
RTVSPost2010Prop44ColorIndex
 90
        5
102
RTVSPost2010Prop44ColorRGB
 90
      255
102
RTVSPost2010PropOp44
 70
     1
102
RTVSPost2010Prop45
280
     0
102
RTVSPost2010PropOp45
 70
     1
102
RTVSPost2010Prop46
 90
       50
102
RTVSPost2010PropOp46
 70
     1
102
RTVSPost2010Prop47
 90
       50
102
RTVSPost2010PropOp47
 70
     1
102
RTVSPost2010Prop48
 90
       50
102
RTVSPost2010PropOp48
 70
     1
102
RTVSPost2010Prop49
280
     0
102
RTVSPost2010PropOp49
 70
     1
102
RTVSPost2010Prop50
 90
       50
102
RTVSPost2010PropOp50
 70
     1
102
RTVSPost2010Prop51ColorIndex
 90
      256
102
RTVSPost2010Prop51ColorRGB
 90
-16777216
102
RTVSPost2010PropOp51
 70
     0
102
RTVSPost2010Prop52
140
1.0
102
RTVSPost2010PropOp52
 70
     0
102
RTVSPost2010Prop53
 90
        2
102
RTVSPost2010PropOp53
 70
     1
102
RTVSPost2010Prop54
  1
strokes_ogs.tif
102
RTVSPost2010PropOp54
 70
     1
102
RTVSPost2010Prop55
280
     0
102
RTVSPost2010PropOp55
 70
     1
102
RTVSPost2010Prop56
140
1.0
102
RTVSPost2010PropOp56
 70
     1
102
RTVSPost2010Prop57
140
1.0
102
RTVSPost2010PropOp57
 70
     1
  0
XRECORD
  5
BAC
102
{ACAD_REACTORS
330
BAB
102
}
330
BAB
100
AcDbXrecord
280
     1
102
RTVSPost2010Prop28
280
     0
102
RTVSPost2010PropOp28
 70
     0
102
RTVSPost2010Prop29
280
     1
102
RTVSPost2010PropOp29
 70
     0
102
RTVSPost2010Prop30
280
     1
102
RTVSPost2010PropOp30
 70
     0
102
RTVSPost2010Prop31
280
     0
102
RTVSPost2010PropOp31
 70
     0
102
RTVSPost2010Prop32
280
     0
102
RTVSPost2010PropOp32
 70
     0
102
RTVSPost2010Prop33
280
     0
102
RTVSPost2010PropOp33
 70
     0
102
RTVSPost2010Prop34
280
     0
102
RTVSPost2010PropOp34
 70
     0
102
RTVSPost2010Prop35
280
     0
102
RTVSPost2010PropOp35
 70
     0
102
RTVSPost2010Prop36
280
     0
102
RTVSPost2010PropOp36
 70
     0
102
RTVSPost2010Prop37
 90
       50
102
RTVSPost2010PropOp37
 70
     0
102
RTVSPost2010Prop38
140
0.0
102
RTVSPost2010PropOp38
 70
     0
102
RTVSPost2010Prop39
140
1.0
102
RTVSPost2010PropOp39
 70
     0
102
RTVSPost2010Prop40
 90
        0
102
RTVSPost2010PropOp40
 70
     0
102
RTVSPost2010Prop41ColorIndex
 90
       18
102
RTVSPost2010Prop41ColorRGB
 90
        0
102
RTVSPost2010PropOp41
 70
     0
102
RTVSPost2010Prop42
 90
       50
102
RTVSPost2010PropOp42
 70
     0
102
RTVSPost2010Prop43
 90
        3
102
RTVSPost2010PropOp43
 70
     0
102
RTVSPost2010Prop44ColorIndex
 90
        5
102
RTVSPost2010Prop44ColorRGB
 90
      255
102
RTVSPost2010PropOp44
 70
     0
102
RTVSPost2010Prop45
280
     0
102
RTVSPost2010PropOp45
 70
     0
102
RTVSPost2010Prop46
 90
       50
102
RTVSPost2010PropOp46
 70
     0
102
RTVSPost2010Prop47
 90
       50
102
RTVSPost2010PropOp47
 70
     0
102
RTVSPost2010Prop48
 90
       50
102
RTVSPost2010PropOp48
 70
     0
102
RTVSPost2010Prop49
280
     0
102
RTVSPost2010PropOp49
 70
     0
102
RTVSPost2010Prop50
 90
       50
102
RTVSPost2010PropOp50
 70
     0
102
RTVSPost2010Prop51ColorIndex
 90
      256
102
RTVSPost2010Prop51ColorRGB
 90
-16777216
102
RTVSPost2010PropOp51
 70
     0
102
RTVSPost2010Prop52
140
1.0
102
RTVSPost2010PropOp52
 70
     0
102
RTVSPost2010Prop53
 90
        2
102
RTVSPost2010PropOp53
 70
     0
102
RTVSPost2010Prop54
  1
strokes_ogs.tif
102
RTVSPost2010PropOp54
 70
     0
102
RTVSPost2010Prop55
280
     0
102
RTVSPost2010PropOp55
 70
     0
102
RTVSPost2010Prop56
140
1.0
102
RTVSPost2010PropOp56
 70
     0
102
RTVSPost2010Prop57
140
1.0
102
RTVSPost2010PropOp57
 70
     0
  0
XRECORD
  5
BAE
102
{ACAD_REACTORS
330
BAD
102
}
330
BAD
100
AcDbXrecord
280
     1
102
RTVSPost2010Prop28
280
     0
102
RTVSPost2010PropOp28
 70
     1
102
RTVSPost2010Prop29
280
     1
102
RTVSPost2010PropOp29
 70
     1
102
RTVSPost2010Prop30
280
     1
102
RTVSPost2010PropOp30
 70
     1
102
RTVSPost2010Prop31
280
     0
102
RTVSPost2010PropOp31
 70
     1
102
RTVSPost2010Prop32
280
     0
102
RTVSPost2010PropOp32
 70
     1
102
RTVSPost2010Prop33
280
     0
102
RTVSPost2010PropOp33
 70
     1
102
RTVSPost2010Prop34
280
     0
102
RTVSPost2010PropOp34
 70
     1
102
RTVSPost2010Prop35
280
     0
102
RTVSPost2010PropOp35
 70
     1
102
RTVSPost2010Prop36
280
     0
102
RTVSPost2010PropOp36
 70
     1
102
RTVSPost2010Prop37
 90
       50
102
RTVSPost2010PropOp37
 70
     1
102
RTVSPost2010Prop38
140
0.0
102
RTVSPost2010PropOp38
 70
     1
102
RTVSPost2010Prop39
140
1.0
102
RTVSPost2010PropOp39
 70
     1
102
RTVSPost2010Prop40
 90
        0
102
RTVSPost2010PropOp40
 70
     1
102
RTVSPost2010Prop41ColorIndex
 90
       18
102
RTVSPost2010Prop41ColorRGB
 90
        0
102
RTVSPost2010PropOp41
 70
     1
102
RTVSPost2010Prop42
 90
       50
102
RTVSPost2010PropOp42
 70
     1
102
RTVSPost2010Prop43
 90
        3
102
RTVSPost2010PropOp43
 70
     1
102
RTVSPost2010Prop44ColorIndex
 90
        5
102
RTVSPost2010Prop44ColorRGB
 90
      255
102
RTVSPost2010PropOp44
 70
     1
102
RTVSPost2010Prop45
280
     0
102
RTVSPost2010PropOp45
 70
     1
102
RTVSPost2010Prop46
 90
       50
102
RTVSPost2010PropOp46
 70
     1
102
RTVSPost2010Prop47
 90
       50
102
RTVSPost2010PropOp47
 70
     1
102
RTVSPost2010Prop48
 90
       50
102
RTVSPost2010PropOp48
 70
     1
102
RTVSPost2010Prop49
280
     0
102
RTVSPost2010PropOp49
 70
     1
102
RTVSPost2010Prop50
 90
       50
102
RTVSPost2010PropOp50
 70
     1
102
RTVSPost2010Prop51ColorIndex
 90
      256
102
RTVSPost2010Prop51ColorRGB
 90
-16777216
102
RTVSPost2010PropOp51
 70
     0
102
RTVSPost2010Prop52
140
1.0
102
RTVSPost2010PropOp52
 70
     0
102
RTVSPost2010Prop53
 90
        2
102
RTVSPost2010PropOp53
 70
     1
102
RTVSPost2010Prop54
  1
strokes_ogs.tif
102
RTVSPost2010PropOp54
 70
     1
102
RTVSPost2010Prop55
280
     0
102
RTVSPost2010PropOp55
 70
     1
102
RTVSPost2010Prop56
140
1.0
102
RTVSPost2010PropOp56
 70
     1
102
RTVSPost2010Prop57
140
1.0
102
RTVSPost2010PropOp57
 70
     1
  0
XRECORD
  5
BB0
102
{ACAD_REACTORS
330
BAF
102
}
330
BAF
100
AcDbXrecord
280
     1
102
RTVSPost2010Prop28
280
     0
102
RTVSPost2010PropOp28
 70
     1
102
RTVSPost2010Prop29
280
     1
102
RTVSPost2010PropOp29
 70
     1
102
RTVSPost2010Prop30
280
     1
102
RTVSPost2010PropOp30
 70
     1
102
RTVSPost2010Prop31
280
     0
102
RTVSPost2010PropOp31
 70
     1
102
RTVSPost2010Prop32
280
     0
102
RTVSPost2010PropOp32
 70
     1
102
RTVSPost2010Prop33
280
     0
102
RTVSPost2010PropOp33
 70
     1
102
RTVSPost2010Prop34
280
     0
102
RTVSPost2010PropOp34
 70
     1
102
RTVSPost2010Prop35
280
     0
102
RTVSPost2010PropOp35
 70
     1
102
RTVSPost2010Prop36
280
     0
102
RTVSPost2010PropOp36
 70
     1
102
RTVSPost2010Prop37
 90
       50
102
RTVSPost2010PropOp37
 70
     1
102
RTVSPost2010Prop38
140
0.0
102
RTVSPost2010PropOp38
 70
     1
102
RTVSPost2010Prop39
140
1.0
102
RTVSPost2010PropOp39
 70
     1
102
RTVSPost2010Prop40
 90
        0
102
RTVSPost2010PropOp40
 70
     1
102
RTVSPost2010Prop41ColorIndex
 90
       18
102
RTVSPost2010Prop41ColorRGB
 90
        0
102
RTVSPost2010PropOp41
 70
     1
102
RTVSPost2010Prop42
 90
       50
102
RTVSPost2010PropOp42
 70
     1
102
RTVSPost2010Prop43
 90
        3
102
RTVSPost2010PropOp43
 70
     1
102
RTVSPost2010Prop44ColorIndex
 90
        5
102
RTVSPost2010Prop44ColorRGB
 90
      255
102
RTVSPost2010PropOp44
 70
     1
102
RTVSPost2010Prop45
280
     0
102
RTVSPost2010PropOp45
 70
     1
102
RTVSPost2010Prop46
 90
       50
102
RTVSPost2010PropOp46
 70
     1
102
RTVSPost2010Prop47
 90
       50
102
RTVSPost2010PropOp47
 70
     1
102
RTVSPost2010Prop48
 90
       50
102
RTVSPost2010PropOp48
 70
     1
102
RTVSPost2010Prop49
280
     0
102
RTVSPost2010PropOp49
 70
     1
102
RTVSPost2010Prop50
 90
       50
102
RTVSPost2010PropOp50
 70
     1
102
RTVSPost2010Prop51ColorIndex
 90
      256
102
RTVSPost2010Prop51ColorRGB
 90
-16777216
102
RTVSPost2010PropOp51
 70
     0
102
RTVSPost2010Prop52
140
1.0
102
RTVSPost2010PropOp52
 70
     0
102
RTVSPost2010Prop53
 90
        2
102
RTVSPost2010PropOp53
 70
     1
102
RTVSPost2010Prop54
  1
strokes_ogs.tif
102
RTVSPost2010PropOp54
 70
     1
102
RTVSPost2010Prop55
280
     0
102
RTVSPost2010PropOp55
 70
     1
102
RTVSPost2010Prop56
140
1.0
102
RTVSPost2010PropOp56
 70
     1
102
RTVSPost2010Prop57
140
1.0
102
RTVSPost2010PropOp57
 70
     1
  0
XRECORD
  5
BB2
102
{ACAD_REACTORS
330
BB1
102
}
330
BB1
100
AcDbXrecord
280
     1
102
RTVSPost2010Prop28
280
     0
102
RTVSPost2010PropOp28
 70
     1
102
RTVSPost2010Prop29
280
     1
102
RTVSPost2010PropOp29
 70
     1
102
RTVSPost2010Prop30
280
     1
102
RTVSPost2010PropOp30
 70
     1
102
RTVSPost2010Prop31
280
     0
102
RTVSPost2010PropOp31
 70
     1
102
RTVSPost2010Prop32
280
     0
102
RTVSPost2010PropOp32
 70
     1
102
RTVSPost2010Prop33
280
     0
102
RTVSPost2010PropOp33
 70
     1
102
RTVSPost2010Prop34
280
     0
102
RTVSPost2010PropOp34
 70
     1
102
RTVSPost2010Prop35
280
     0
102
RTVSPost2010PropOp35
 70
     1
102
RTVSPost2010Prop36
280
     0
102
RTVSPost2010PropOp36
 70
     1
102
RTVSPost2010Prop37
 90
       50
102
RTVSPost2010PropOp37
 70
     1
102
RTVSPost2010Prop38
140
0.0
102
RTVSPost2010PropOp38
 70
     1
102
RTVSPost2010Prop39
140
1.0
102
RTVSPost2010PropOp39
 70
     1
102
RTVSPost2010Prop40
 90
        0
102
RTVSPost2010PropOp40
 70
     1
102
RTVSPost2010Prop41ColorIndex
 90
       18
102
RTVSPost2010Prop41ColorRGB
 90
        0
102
RTVSPost2010PropOp41
 70
     1
102
RTVSPost2010Prop42
 90
       50
102
RTVSPost2010PropOp42
 70
     1
102
RTVSPost2010Prop43
 90
        3
102
RTVSPost2010PropOp43
 70
     1
102
RTVSPost2010Prop44ColorIndex
 90
        5
102
RTVSPost2010Prop44ColorRGB
 90
      255
102
RTVSPost2010PropOp44
 70
     1
102
RTVSPost2010Prop45
280
     0
102
RTVSPost2010PropOp45
 70
     1
102
RTVSPost2010Prop46
 90
       50
102
RTVSPost2010PropOp46
 70
     1
102
RTVSPost2010Prop47
 90
       50
102
RTVSPost2010PropOp47
 70
     1
102
RTVSPost2010Prop48
 90
       50
102
RTVSPost2010PropOp48
 70
     1
102
RTVSPost2010Prop49
280
     0
102
RTVSPost2010PropOp49
 70
     1
102
RTVSPost2010Prop50
 90
       50
102
RTVSPost2010PropOp50
 70
     1
102
RTVSPost2010Prop51ColorIndex
 90
      256
102
RTVSPost2010Prop51ColorRGB
 90
-16777216
102
RTVSPost2010PropOp51
 70
     0
102
RTVSPost2010Prop52
140
1.0
102
RTVSPost2010PropOp52
 70
     0
102
RTVSPost2010Prop53
 90
        2
102
RTVSPost2010PropOp53
 70
     1
102
RTVSPost2010Prop54
  1
strokes_ogs.tif
102
RTVSPost2010PropOp54
 70
     1
102
RTVSPost2010Prop55
280
     0
102
RTVSPost2010PropOp55
 70
     1
102
RTVSPost2010Prop56
140
1.0
102
RTVSPost2010PropOp56
 70
     1
102
RTVSPost2010Prop57
140
1.0
102
RTVSPost2010PropOp57
 70
     1
  0
XRECORD
  5
BB4
102
{ACAD_REACTORS
330
BB3
102
}
330
BB3
100
AcDbXrecord
280
     1
102
RTVSPost2010Prop28
280
     0
102
RTVSPost2010PropOp28
 70
     1
102
RTVSPost2010Prop29
280
     1
102
RTVSPost2010PropOp29
 70
     1
102
RTVSPost2010Prop30
280
     1
102
RTVSPost2010PropOp30
 70
     1
102
RTVSPost2010Prop31
280
     0
102
RTVSPost2010PropOp31
 70
     1
102
RTVSPost2010Prop32
280
     0
102
RTVSPost2010PropOp32
 70
     1
102
RTVSPost2010Prop33
280
     0
102
RTVSPost2010PropOp33
 70
     1
102
RTVSPost2010Prop34
280
     0
102
RTVSPost2010PropOp34
 70
     1
102
RTVSPost2010Prop35
280
     0
102
RTVSPost2010PropOp35
 70
     1
102
RTVSPost2010Prop36
280
     0
102
RTVSPost2010PropOp36
 70
     1
102
RTVSPost2010Prop37
 90
       50
102
RTVSPost2010PropOp37
 70
     1
102
RTVSPost2010Prop38
140
0.0
102
RTVSPost2010PropOp38
 70
     1
102
RTVSPost2010Prop39
140
1.0
102
RTVSPost2010PropOp39
 70
     1
102
RTVSPost2010Prop40
 90
        0
102
RTVSPost2010PropOp40
 70
     1
102
RTVSPost2010Prop41ColorIndex
 90
       18
102
RTVSPost2010Prop41ColorRGB
 90
        0
102
RTVSPost2010PropOp41
 70
     1
102
RTVSPost2010Prop42
 90
       50
102
RTVSPost2010PropOp42
 70
     1
102
RTVSPost2010Prop43
 90
        3
102
RTVSPost2010PropOp43
 70
     1
102
RTVSPost2010Prop44ColorIndex
 90
        5
102
RTVSPost2010Prop44ColorRGB
 90
      255
102
RTVSPost2010PropOp44
 70
     1
102
RTVSPost2010Prop45
280
     0
102
RTVSPost2010PropOp45
 70
     1
102
RTVSPost2010Prop46
 90
       50
102
RTVSPost2010PropOp46
 70
     1
102
RTVSPost2010Prop47
 90
       50
102
RTVSPost2010PropOp47
 70
     1
102
RTVSPost2010Prop48
 90
       50
102
RTVSPost2010PropOp48
 70
     1
102
RTVSPost2010Prop49
280
     0
102
RTVSPost2010PropOp49
 70
     1
102
RTVSPost2010Prop50
 90
       50
102
RTVSPost2010PropOp50
 70
     1
102
RTVSPost2010Prop51ColorIndex
 90
      256
102
RTVSPost2010Prop51ColorRGB
 90
-16777216
102
RTVSPost2010PropOp51
 70
     0
102
RTVSPost2010Prop52
140
1.0
102
RTVSPost2010PropOp52
 70
     0
102
RTVSPost2010Prop53
 90
        2
102
RTVSPost2010PropOp53
 70
     1
102
RTVSPost2010Prop54
  1
strokes_ogs.tif
102
RTVSPost2010PropOp54
 70
     1
102
RTVSPost2010Prop55
280
     0
102
RTVSPost2010PropOp55
 70
     1
102
RTVSPost2010Prop56
140
1.0
102
RTVSPost2010PropOp56
 70
     1
102
RTVSPost2010Prop57
140
1.0
102
RTVSPost2010PropOp57
 70
     1
  0
XRECORD
  5
BB6
102
{ACAD_REACTORS
330
BB5
102
}
330
BB5
100
AcDbXrecord
280
     1
102
RTVSPost2010Prop28
280
     0
102
RTVSPost2010PropOp28
 70
     1
102
RTVSPost2010Prop29
280
     1
102
RTVSPost2010PropOp29
 70
     1
102
RTVSPost2010Prop30
280
     1
102
RTVSPost2010PropOp30
 70
     1
102
RTVSPost2010Prop31
280
     0
102
RTVSPost2010PropOp31
 70
     1
102
RTVSPost2010Prop32
280
     0
102
RTVSPost2010PropOp32
 70
     1
102
RTVSPost2010Prop33
280
     0
102
RTVSPost2010PropOp33
 70
     1
102
RTVSPost2010Prop34
280
     0
102
RTVSPost2010PropOp34
 70
     1
102
RTVSPost2010Prop35
280
     0
102
RTVSPost2010PropOp35
 70
     1
102
RTVSPost2010Prop36
280
     0
102
RTVSPost2010PropOp36
 70
     1
102
RTVSPost2010Prop37
 90
       50
102
RTVSPost2010PropOp37
 70
     1
102
RTVSPost2010Prop38
140
0.0
102
RTVSPost2010PropOp38
 70
     1
102
RTVSPost2010Prop39
140
1.0
102
RTVSPost2010PropOp39
 70
     1
102
RTVSPost2010Prop40
 90
        0
102
RTVSPost2010PropOp40
 70
     1
102
RTVSPost2010Prop41ColorIndex
 90
       18
102
RTVSPost2010Prop41ColorRGB
 90
        0
102
RTVSPost2010PropOp41
 70
     1
102
RTVSPost2010Prop42
 90
       50
102
RTVSPost2010PropOp42
 70
     1
102
RTVSPost2010Prop43
 90
        3
102
RTVSPost2010PropOp43
 70
     1
102
RTVSPost2010Prop44ColorIndex
 90
        5
102
RTVSPost2010Prop44ColorRGB
 90
      255
102
RTVSPost2010PropOp44
 70
     1
102
RTVSPost2010Prop45
280
     0
102
RTVSPost2010PropOp45
 70
     1
102
RTVSPost2010Prop46
 90
       50
102
RTVSPost2010PropOp46
 70
     1
102
RTVSPost2010Prop47
 90
       50
102
RTVSPost2010PropOp47
 70
     1
102
RTVSPost2010Prop48
 90
       50
102
RTVSPost2010PropOp48
 70
     1
102
RTVSPost2010Prop49
280
     0
102
RTVSPost2010PropOp49
 70
     1
102
RTVSPost2010Prop50
 90
       50
102
RTVSPost2010PropOp50
 70
     1
102
RTVSPost2010Prop51ColorIndex
 90
      256
102
RTVSPost2010Prop51ColorRGB
 90
-16777216
102
RTVSPost2010PropOp51
 70
     0
102
RTVSPost2010Prop52
140
1.0
102
RTVSPost2010PropOp52
 70
     0
102
RTVSPost2010Prop53
 90
        2
102
RTVSPost2010PropOp53
 70
     1
102
RTVSPost2010Prop54
  1
strokes_ogs.tif
102
RTVSPost2010PropOp54
 70
     1
102
RTVSPost2010Prop55
280
     0
102
RTVSPost2010PropOp55
 70
     1
102
RTVSPost2010Prop56
140
1.0
102
RTVSPost2010PropOp56
 70
     1
102
RTVSPost2010Prop57
140
1.0
102
RTVSPost2010PropOp57
 70
     1
  0
XRECORD
  5
BB8
102
{ACAD_REACTORS
330
BB7
102
}
330
BB7
100
AcDbXrecord
280
     1
102
RTVSPost2010Prop28
280
     0
102
RTVSPost2010PropOp28
 70
     1
102
RTVSPost2010Prop29
280
     1
102
RTVSPost2010PropOp29
 70
     1
102
RTVSPost2010Prop30
280
     1
102
RTVSPost2010PropOp30
 70
     1
102
RTVSPost2010Prop31
280
     0
102
RTVSPost2010PropOp31
 70
     1
102
RTVSPost2010Prop32
280
     0
102
RTVSPost2010PropOp32
 70
     1
102
RTVSPost2010Prop33
280
     0
102
RTVSPost2010PropOp33
 70
     1
102
RTVSPost2010Prop34
280
     0
102
RTVSPost2010PropOp34
 70
     1
102
RTVSPost2010Prop35
280
     0
102
RTVSPost2010PropOp35
 70
     1
102
RTVSPost2010Prop36
280
     0
102
RTVSPost2010PropOp36
 70
     1
102
RTVSPost2010Prop37
 90
       50
102
RTVSPost2010PropOp37
 70
     1
102
RTVSPost2010Prop38
140
0.0
102
RTVSPost2010PropOp38
 70
     1
102
RTVSPost2010Prop39
140
1.0
102
RTVSPost2010PropOp39
 70
     1
102
RTVSPost2010Prop40
 90
        0
102
RTVSPost2010PropOp40
 70
     1
102
RTVSPost2010Prop41ColorIndex
 90
       18
102
RTVSPost2010Prop41ColorRGB
 90
        0
102
RTVSPost2010PropOp41
 70
     1
102
RTVSPost2010Prop42
 90
       50
102
RTVSPost2010PropOp42
 70
     1
102
RTVSPost2010Prop43
 90
        3
102
RTVSPost2010PropOp43
 70
     1
102
RTVSPost2010Prop44ColorIndex
 90
        5
102
RTVSPost2010Prop44ColorRGB
 90
      255
102
RTVSPost2010PropOp44
 70
     1
102
RTVSPost2010Prop45
280
     0
102
RTVSPost2010PropOp45
 70
     1
102
RTVSPost2010Prop46
 90
       50
102
RTVSPost2010PropOp46
 70
     1
102
RTVSPost2010Prop47
 90
       50
102
RTVSPost2010PropOp47
 70
     1
102
RTVSPost2010Prop48
 90
       50
102
RTVSPost2010PropOp48
 70
     1
102
RTVSPost2010Prop49
280
     0
102
RTVSPost2010PropOp49
 70
     1
102
RTVSPost2010Prop50
 90
       50
102
RTVSPost2010PropOp50
 70
     1
102
RTVSPost2010Prop51ColorIndex
 90
      256
102
RTVSPost2010Prop51ColorRGB
 90
-16777216
102
RTVSPost2010PropOp51
 70
     0
102
RTVSPost2010Prop52
140
1.0
102
RTVSPost2010PropOp52
 70
     0
102
RTVSPost2010Prop53
 90
        2
102
RTVSPost2010PropOp53
 70
     1
102
RTVSPost2010Prop54
  1
strokes_ogs.tif
102
RTVSPost2010PropOp54
 70
     1
102
RTVSPost2010Prop55
280
     0
102
RTVSPost2010PropOp55
 70
     1
102
RTVSPost2010Prop56
140
1.0
102
RTVSPost2010PropOp56
 70
     1
102
RTVSPost2010Prop57
140
1.0
102
RTVSPost2010PropOp57
 70
     1
  0
XRECORD
  5
BBA
102
{ACAD_REACTORS
330
BB9
102
}
330
BB9
100
AcDbXrecord
280
     1
102
RTVSPost2010Prop28
280
     0
102
RTVSPost2010PropOp28
 70
     1
102
RTVSPost2010Prop29
280
     1
102
RTVSPost2010PropOp29
 70
     1
102
RTVSPost2010Prop30
280
     1
102
RTVSPost2010PropOp30
 70
     1
102
RTVSPost2010Prop31
280
     0
102
RTVSPost2010PropOp31
 70
     1
102
RTVSPost2010Prop32
280
     0
102
RTVSPost2010PropOp32
 70
     1
102
RTVSPost2010Prop33
280
     0
102
RTVSPost2010PropOp33
 70
     1
102
RTVSPost2010Prop34
280
     0
102
RTVSPost2010PropOp34
 70
     1
102
RTVSPost2010Prop35
280
     0
102
RTVSPost2010PropOp35
 70
     1
102
RTVSPost2010Prop36
280
     0
102
RTVSPost2010PropOp36
 70
     1
102
RTVSPost2010Prop37
 90
       50
102
RTVSPost2010PropOp37
 70
     1
102
RTVSPost2010Prop38
140
0.0
102
RTVSPost2010PropOp38
 70
     1
102
RTVSPost2010Prop39
140
1.0
102
RTVSPost2010PropOp39
 70
     1
102
RTVSPost2010Prop40
 90
        0
102
RTVSPost2010PropOp40
 70
     1
102
RTVSPost2010Prop41ColorIndex
 90
       18
102
RTVSPost2010Prop41ColorRGB
 90
        0
102
RTVSPost2010PropOp41
 70
     1
102
RTVSPost2010Prop42
 90
       50
102
RTVSPost2010PropOp42
 70
     1
102
RTVSPost2010Prop43
 90
        3
102
RTVSPost2010PropOp43
 70
     1
102
RTVSPost2010Prop44ColorIndex
 90
        5
102
RTVSPost2010Prop44ColorRGB
 90
      255
102
RTVSPost2010PropOp44
 70
     1
102
RTVSPost2010Prop45
280
     0
102
RTVSPost2010PropOp45
 70
     1
102
RTVSPost2010Prop46
 90
       50
102
RTVSPost2010PropOp46
 70
     1
102
RTVSPost2010Prop47
 90
       50
102
RTVSPost2010PropOp47
 70
     1
102
RTVSPost2010Prop48
 90
       50
102
RTVSPost2010PropOp48
 70
     1
102
RTVSPost2010Prop49
280
     0
102
RTVSPost2010PropOp49
 70
     1
102
RTVSPost2010Prop50
 90
       50
102
RTVSPost2010PropOp50
 70
     1
102
RTVSPost2010Prop51ColorIndex
 90
      256
102
RTVSPost2010Prop51ColorRGB
 90
-16777216
102
RTVSPost2010PropOp51
 70
     0
102
RTVSPost2010Prop52
140
1.0
102
RTVSPost2010PropOp52
 70
     0
102
RTVSPost2010Prop53
 90
        2
102
RTVSPost2010PropOp53
 70
     1
102
RTVSPost2010Prop54
  1
strokes_ogs.tif
102
RTVSPost2010PropOp54
 70
     1
102
RTVSPost2010Prop55
280
     0
102
RTVSPost2010PropOp55
 70
     1
102
RTVSPost2010Prop56
140
1.0
102
RTVSPost2010PropOp56
 70
     1
102
RTVSPost2010Prop57
140
1.0
102
RTVSPost2010PropOp57
 70
     1
  0
XRECORD
  5
BBC
102
{ACAD_REACTORS
330
BBB
102
}
330
BBB
100
AcDbXrecord
280
     1
102
RTVSPost2010Prop28
280
     0
102
RTVSPost2010PropOp28
 70
     1
102
RTVSPost2010Prop29
280
     1
102
RTVSPost2010PropOp29
 70
     1
102
RTVSPost2010Prop30
280
     1
102
RTVSPost2010PropOp30
 70
     1
102
RTVSPost2010Prop31
280
     0
102
RTVSPost2010PropOp31
 70
     1
102
RTVSPost2010Prop32
280
     0
102
RTVSPost2010PropOp32
 70
     1
102
RTVSPost2010Prop33
280
     0
102
RTVSPost2010PropOp33
 70
     1
102
RTVSPost2010Prop34
280
     0
102
RTVSPost2010PropOp34
 70
     1
102
RTVSPost2010Prop35
280
     0
102
RTVSPost2010PropOp35
 70
     1
102
RTVSPost2010Prop36
280
     0
102
RTVSPost2010PropOp36
 70
     1
102
RTVSPost2010Prop37
 90
       50
102
RTVSPost2010PropOp37
 70
     1
102
RTVSPost2010Prop38
140
0.0
102
RTVSPost2010PropOp38
 70
     1
102
RTVSPost2010Prop39
140
1.0
102
RTVSPost2010PropOp39
 70
     1
102
RTVSPost2010Prop40
 90
        0
102
RTVSPost2010PropOp40
 70
     1
102
RTVSPost2010Prop41ColorIndex
 90
       18
102
RTVSPost2010Prop41ColorRGB
 90
        0
102
RTVSPost2010PropOp41
 70
     1
102
RTVSPost2010Prop42
 90
       50
102
RTVSPost2010PropOp42
 70
     1
102
RTVSPost2010Prop43
 90
        3
102
RTVSPost2010PropOp43
 70
     1
102
RTVSPost2010Prop44ColorIndex
 90
        5
102
RTVSPost2010Prop44ColorRGB
 90
      255
102
RTVSPost2010PropOp44
 70
     1
102
RTVSPost2010Prop45
280
     0
102
RTVSPost2010PropOp45
 70
     1
102
RTVSPost2010Prop46
 90
       50
102
RTVSPost2010PropOp46
 70
     1
102
RTVSPost2010Prop47
 90
       50
102
RTVSPost2010PropOp47
 70
     1
102
RTVSPost2010Prop48
 90
       50
102
RTVSPost2010PropOp48
 70
     1
102
RTVSPost2010Prop49
280
     0
102
RTVSPost2010PropOp49
 70
     1
102
RTVSPost2010Prop50
 90
       50
102
RTVSPost2010PropOp50
 70
     1
102
RTVSPost2010Prop51ColorIndex
 90
      256
102
RTVSPost2010Prop51ColorRGB
 90
-16777216
102
RTVSPost2010PropOp51
 70
     0
102
RTVSPost2010Prop52
140
1.0
102
RTVSPost2010PropOp52
 70
     0
102
RTVSPost2010Prop53
 90
        2
102
RTVSPost2010PropOp53
 70
     1
102
RTVSPost2010Prop54
  1
strokes_ogs.tif
102
RTVSPost2010PropOp54
 70
     1
102
RTVSPost2010Prop55
280
     0
102
RTVSPost2010PropOp55
 70
     1
102
RTVSPost2010Prop56
140
1.0
102
RTVSPost2010PropOp56
 70
     1
102
RTVSPost2010Prop57
140
1.0
102
RTVSPost2010PropOp57
 70
     1
  0
ENDSEC
  0
EOF
